  0
SECTION
  2
HEADER
  9
$ACADVER
  1
AC1015
  9
$ACADMAINTVER
 70
     6
  9
$DWGCODEPAGE
  3
ANSI_1252
  9
$INSBASE
 10
0.0
 20
0.0
 30
0.0
  9
$EXTMIN
 10
-500.0
 20
-400.0
 30
0.0
  9
$EXTMAX
 10
500.0
 20
400.0
 30
0.0
  9
$LIMMIN
 10
0.0
 20
0.0
  9
$LIMMAX
 10
420.0
 20
297.0
  9
$ORTHOMODE
 70
     0
  9
$REGENMODE
 70
     1
  9
$FILLMODE
 70
     1
  9
$QTEXTMODE
 70
     0
  9
$MIRRTEXT
 70
     1
  9
$LTSCALE
 40
1.0
  9
$ATTMODE
 70
     1
  9
$TEXTSIZE
 40
3.5
  9
$TRACEWID
 40
1.0
  9
$TEXTSTYLE
  7
Standard
  9
$CLAYER
  8
0
  9
$CELTYPE
  6
ByLayer
  9
$CECOLOR
 62
   256
  9
$CELTSCALE
 40
1.0
  9
$DISPSILH
 70
     0
  9
$DIMSCALE
 40
1.0
  9
$DIMASZ
 40
3.302
  9
$DIMEXO
 40
1.0
  9
$DIMDLI
 40
3.75
  9
$DIMRND
 40
0.0
  9
$DIMDLE
 40
0.0
  9
$DIMEXE
 40
1.0
  9
$DIMTP
 40
0.0
  9
$DIMTM
 40
0.0
  9
$DIMTXT
 40
3.5
  9
$DIMCEN
 40
2.5
  9
$DIMTSZ
 40
0.0
  9
$DIMTOL
 70
     0
  9
$DIMLIM
 70
     0
  9
$DIMTIH
 70
     1
  9
$DIMTOH
 70
     1
  9
$DIMSE1
 70
     0
  9
$DIMSE2
 70
     0
  9
$DIMTAD
 70
     1
  9
$DIMZIN
 70
     1
  9
$DIMBLK
  1

  9
$DIMASO
 70
     1
  9
$DIMSHO
 70
     1
  9
$DIMPOST
  1

  9
$DIMAPOST
  1

  9
$DIMALT
 70
     0
  9
$DIMALTD
 70
     3
  9
$DIMALTF
 40
0.0393700787
  9
$DIMLFAC
 40
1.0
  9
$DIMTOFL
 70
     1
  9
$DIMTVP
 40
0.0
  9
$DIMTIX
 70
     0
  9
$DIMSOXD
 70
     0
  9
$DIMSAH
 70
     0
  9
$DIMBLK1
  1

  9
$DIMBLK2
  1

  9
$DIMSTYLE
  2
ISO-25
  9
$DIMCLRD
 70
     0
  9
$DIMCLRE
 70
     0
  9
$DIMCLRT
 70
     0
  9
$DIMTFAC
 40
1.0
  9
$DIMGAP
 40
1.524
  9
$DIMJUST
 70
     0
  9
$DIMSD1
 70
     0
  9
$DIMSD2
 70
     0
  9
$DIMTOLJ
 70
     0
  9
$DIMTZIN
 70
     1
  9
$DIMALTZ
 70
     0
  9
$DIMALTTZ
 70
     0
  9
$DIMUPT
 70
     0
  9
$DIMDEC
 70
     2
  9
$DIMTDEC
 70
     2
  9
$DIMALTU
 70
     2
  9
$DIMALTTD
 70
     3
  9
$DIMTXSTY
  7
Standard
  9
$DIMAUNIT
 70
     0
  9
$DIMADEC
 70
     2
  9
$DIMALTRND
 40
0.0
  9
$DIMAZIN
 70
     0
  9
$DIMDSEP
 70
    44
  9
$DIMATFIT
 70
     3
  9
$DIMFRAC
 70
     0
  9
$DIMLDRBLK
  1

  9
$DIMLUNIT
 70
     2
  9
$DIMLWD
 70
    -2
  9
$DIMLWE
 70
    -2
  9
$DIMTMOVE
 70
     0
  9
$LUNITS
 70
     2
  9
$LUPREC
 70
     2
  9
$SKETCHINC
 40
1.0
  9
$FILLETRAD
 40
10.0
  9
$AUNITS
 70
     0
  9
$AUPREC
 70
     2
  9
$MENU
  1
.
  9
$ELEVATION
 40
0.0
  9
$PELEVATION
 40
0.0
  9
$THICKNESS
 40
0.0
  9
$LIMCHECK
 70
     0
  9
$CHAMFERA
 40
0.0
  9
$CHAMFERB
 40
0.0
  9
$CHAMFERC
 40
0.0
  9
$CHAMFERD
 40
0.0
  9
$SKPOLY
 70
     0
  9
$TDCREATE
 40
2459152.498926447
  9
$TDUCREATE
 40
2459152.498926447
  9
$TDUPDATE
 40
2459152.498961447
  9
$TDUUPDATE
 40
2459152.498961447
  9
$TDINDWG
 40
0.0000000116
  9
$TDUSRTIMER
 40
0.0000000116
  9
$USRTIMER
 70
     1
  9
$ANGBASE
 50
0.0
  9
$ANGDIR
 70
     0
  9
$PDMODE
 70
     0
  9
$PDSIZE
 40
-1.0
  9
$PLINEWID
 40
0.0
  9
$SPLFRAME
 70
     0
  9
$SPLINETYPE
 70
     6
  9
$SPLINESEGS
 70
     8
  9
$HANDSEED
  5
148
  9
$SURFTAB1
 70
     6
  9
$SURFTAB2
 70
     6
  9
$SURFTYPE
 70
     6
  9
$SURFU
 70
     6
  9
$SURFV
 70
     6
  9
$UCSBASE
  2

  9
$UCSNAME
  2

  9
$UCSORG
 10
0.0
 20
0.0
 30
0.0
  9
$UCSXDIR
 10
1.0
 20
0.0
 30
0.0
  9
$UCSYDIR
 10
0.0
 20
1.0
 30
0.0
  9
$UCSORTHOREF
  2

  9
$UCSORTHOVIEW
 70
     0
  9
$UCSORGTOP
 10
0.0
 20
0.0
 30
0.0
  9
$UCSORGBOTTOM
 10
0.0
 20
0.0
 30
0.0
  9
$UCSORGLEFT
 10
0.0
 20
0.0
 30
0.0
  9
$UCSORGRIGHT
 10
0.0
 20
0.0
 30
0.0
  9
$UCSORGFRONT
 10
0.0
 20
0.0
 30
0.0
  9
$UCSORGBACK
 10
0.0
 20
0.0
 30
0.0
  9
$PUCSBASE
  2

  9
$PUCSNAME
  2

  9
$PUCSORG
 10
0.0
 20
0.0
 30
0.0
  9
$PUCSXDIR
 10
1.0
 20
0.0
 30
0.0
  9
$PUCSYDIR
 10
0.0
 20
1.0
 30
0.0
  9
$PUCSORTHOREF
  2

  9
$PUCSORTHOVIEW
 70
     0
  9
$PUCSORGTOP
 10
0.0
 20
0.0
 30
0.0
  9
$PUCSORGBOTTOM
 10
0.0
 20
0.0
 30
0.0
  9
$PUCSORGLEFT
 10
0.0
 20
0.0
 30
0.0
  9
$PUCSORGRIGHT
 10
0.0
 20
0.0
 30
0.0
  9
$PUCSORGFRONT
 10
0.0
 20
0.0
 30
0.0
  9
$PUCSORGBACK
 10
0.0
 20
0.0
 30
0.0
  9
$USERI1
 70
     0
  9
$USERI2
 70
     0
  9
$USERI3
 70
     0
  9
$USERI4
 70
     0
  9
$USERI5
 70
     0
  9
$USERR1
 40
0.0
  9
$USERR2
 40
0.0
  9
$USERR3
 40
0.0
  9
$USERR4
 40
0.0
  9
$USERR5
 40
0.0
  9
$WORLDVIEW
 70
     1
  9
$SHADEDGE
 70
     3
  9
$SHADEDIF
 70
    70
  9
$TILEMODE
 70
     1
  9
$MAXACTVP
 70
    64
  9
$PINSBASE
 10
0.0
 20
0.0
 30
0.0
  9
$PLIMCHECK
 70
     0
  9
$PEXTMIN
 10
-500.0
 20
0.0
 30
0.0
  9
$PEXTMAX
 10
500.0
 20
25.0
 30
0.0
  9
$PLIMMIN
 10
-577.8210116732
 20
-29.1828793774
  9
$PLIMMAX
 10
577.8210116732
 20
787.9377431907
  9
$UNITMODE
 70
     0
  9
$VISRETAIN
 70
     1
  9
$PLINEGEN
 70
     0
  9
$PSLTSCALE
 70
     1
  9
$TREEDEPTH
 70
  3020
  9
$CMLSTYLE
  2
Standard
  9
$CMLJUST
 70
     0
  9
$CMLSCALE
 40
20.0
  9
$PROXYGRAPHICS
 70
     1
  9
$MEASUREMENT
 70
     1
  9
$CELWEIGHT
370
    -1
  9
$ENDCAPS
280
     0
  9
$JOINSTYLE
280
     0
  9
$LWDISPLAY
290
     1
  9
$INSUNITS
 70
     4
  9
$HYPERLINKBASE
  1

  9
$STYLESHEET
  1

  9
$XEDIT
290
     1
  9
$CEPSNTYPE
380
     0
  9
$PSTYLEMODE
290
     1
  9
$FINGERPRINTGUID
  2
{0b077a53-938d-45c6-88ab-04d8caaf22c5}
  9
$VERSIONGUID
  2
{FAEB1C32-E019-11D5-929B-00C0DF256EC4}
  9
$EXTNAMES
290
     1
  9
$PSVPSCALE
 40
0.0
  9
$OLESTARTUP
290
     0
  0
ENDSEC
  0
SECTION
  2
CLASSES
  0
CLASS
  1
ACDBDICTIONARYWDFLT
  2
AcDbDictionaryWithDefault
  3
ObjectDBX Classes
 90
        0
280
     0
281
     0
  0
CLASS
  1
VISUALSTYLE
  2
AcDbVisualStyle
  3
ObjectDBX Classes
 90
     4095
280
     0
281
     0
  0
CLASS
  1
MATERIAL
  2
AcDbMaterial
  3
ObjectDBX Classes
 90
     1153
280
     0
281
     0
  0
CLASS
  1
SCALE
  2
AcDbScale
  3
ObjectDBX Classes
 90
     1153
280
     0
281
     0
  0
CLASS
  1
TABLESTYLE
  2
AcDbTableStyle
  3
ObjectDBX Classes
 90
     4095
280
     0
281
     0
  0
CLASS
  1
MLEADERSTYLE
  2
AcDbMLeaderStyle
  3
ACDB_MLEADERSTYLE_CLASS
 90
     4095
280
     0
281
     0
  0
CLASS
  1
SUN
  2
AcDbSun
  3
SCENEOE
 90
     1153
280
     0
281
     0
  0
CLASS
  1
ACDBPLACEHOLDER
  2
AcDbPlaceHolder
  3
ObjectDBX Classes
 90
        0
280
     0
281
     0
  0
CLASS
  1
LAYOUT
  2
AcDbLayout
  3
ObjectDBX Classes
 90
        0
280
     0
281
     0
  0
ENDSEC
  0
SECTION
  2
TABLES
  0
TABLE
  2
VPORT
  5
8
330
0
100
AcDbSymbolTable
 70
     1
  0
VPORT
  5
29
330
8
100
AcDbSymbolTableRecord
100
AcDbViewportTableRecord
  2
*Active
 70
     0
 10
0.0
 20
0.0
 11
1.0
 21
1.0
 12
0.0
 22
0.0
 13
0.0
 23
0.0
 14
10.0
 24
10.0
 15
10.0
 25
10.0
 16
0.0
 26
0.0
 36
1.0
 17
0.0
 27
0.0
 37
0.0
 40
816.0
 41
1.25
 42
50.0
 43
0.0
 44
0.0
 50
0.0
 51
0.0
 71
     0
 72
   100
 73
     1
 74
     3
 75
     0
 76
     0
 77
     0
 78
     0
281
     0
 65
     1
110
0.0
120
0.0
130
0.0
111
1.0
121
0.0
131
0.0
112
0.0
122
1.0
132
0.0
 79
     0
146
0.0
  0
ENDTAB
  0
TABLE
  2
LTYPE
  5
5
330
0
100
AcDbSymbolTable
 70
     6
  0
LTYPE
  5
14
330
5
100
AcDbSymbolTableRecord
100
AcDbLinetypeTableRecord
  2
ByBlock
 70
     0
  3

 72
    65
 73
     0
 40
0.0
  0
LTYPE
  5
15
330
5
100
AcDbSymbolTableRecord
100
AcDbLinetypeTableRecord
  2
ByLayer
 70
     0
  3

 72
    65
 73
     0
 40
0.0
  0
LTYPE
  5
16
330
5
100
AcDbSymbolTableRecord
100
AcDbLinetypeTableRecord
  2
Continuous
 70
     0
  3
Solid line
 72
    65
 73
     0
 40
0.0
  0
LTYPE
  5
6E
330
5
100
AcDbSymbolTableRecord
100
AcDbLinetypeTableRecord
  2
HIDDEN
 70
     0
  3
Hidden __ __ __ __ __ __ __ __ __ __ __ __ __ __
 72
    65
 73
     2
 40
1.905
 49
1.27
 74
     0
 49
-0.635
 74
     0
  0
LTYPE
  5
6F
330
5
100
AcDbSymbolTableRecord
100
AcDbLinetypeTableRecord
  2
PHANTOM
 70
     0
  3
Phantom ______  __  __  ______  __  __  ______
 72
    65
 73
     6
 40
12.7
 49
6.35
 74
     0
 49
-1.27
 74
     0
 49
1.27
 74
     0
 49
-1.27
 74
     0
 49
1.27
 74
     0
 49
-1.27
 74
     0
  0
LTYPE
  5
70
330
5
100
AcDbSymbolTableRecord
100
AcDbLinetypeTableRecord
  2
CENTER
 70
     0
  3
Center ____ _ ____ _ ____ _ ____ _ ____ _ ____
 72
    65
 73
     4
 40
10.16
 49
6.35
 74
     0
 49
-1.27
 74
     0
 49
1.27
 74
     0
 49
-1.27
 74
     0
  0
LTYPE
  5
71
330
5
100
AcDbSymbolTableRecord
100
AcDbLinetypeTableRecord
  2
CENTERX2
 70
     0
  3
Center (2x) ________  __  ________  __  _____
 72
    65
 73
     4
 40
20.32
 49
12.7
 74
     0
 49
-2.54
 74
     0
 49
2.54
 74
     0
 49
-2.54
 74
     0
  0
LTYPE
  5
72
330
5
100
AcDbSymbolTableRecord
100
AcDbLinetypeTableRecord
  2
DOT2
 70
     0
  3
Dot (.5x) ........................................
 72
    65
 73
     2
 40
0.635
 49
0.0
 74
     0
 49
-0.635
 74
     0
  0
ENDTAB
  0
TABLE
  2
LAYER
  5
2
330
0
100
AcDbSymbolTable
 70
     1
  0
LAYER
  5
10
330
2
100
AcDbSymbolTableRecord
100
AcDbLayerTableRecord
  2
0
 70
     0
 62
     7
  6
Continuous
370
    -3
390
F
  0
ENDTAB
  0
TABLE
  2
STYLE
  5
3
330
0
100
AcDbSymbolTable
 70
     1
  0
STYLE
  5
11
330
3
100
AcDbSymbolTableRecord
100
AcDbTextStyleTableRecord
  2
Standard
 70
     0
 40
0.0
 41
1.0
 50
0.0
 71
     0
 42
3.5
  3
txt
  4

  0
ENDTAB
  0
TABLE
  2
VIEW
  5
6
330
0
100
AcDbSymbolTable
 70
     0
  0
ENDTAB
  0
TABLE
  2
UCS
  5
7
330
0
100
AcDbSymbolTable
 70
     0
  0
ENDTAB
  0
TABLE
  2
APPID
  5
9
330
0
100
AcDbSymbolTable
 70
     1
  0
APPID
  5
12
330
9
100
AcDbSymbolTableRecord
100
AcDbRegAppTableRecord
  2
ACAD
 70
     0
  0
ENDTAB
  0
TABLE
  2
DIMSTYLE
  5
A
330
0
100
AcDbSymbolTable
 70
     1
100
AcDbDimStyleTable
  0
DIMSTYLE
105
27
330
A
100
AcDbSymbolTableRecord
100
AcDbDimStyleTableRecord
  2
ISO-25
 70
     0
 41
2.5
 42
0.625
 43
3.75
 44
1.25
 73
     0
 74
     0
 77
     1
 78
     8
140
2.5
141
2.5
143
0.0393700787
147
0.625
171
     3
172
     1
178
     0
271
     2
272
     2
274
     3
278
    44
283
     0
284
     8
340
11
  0
ENDTAB
  0
TABLE
  2
BLOCK_RECORD
  5
1
330
0
100
AcDbSymbolTable
 70
     1
  0
BLOCK_RECORD
  5
1F
330
1
100
AcDbSymbolTableRecord
100
AcDbBlockTableRecord
  2
*Model_Space
340
22
  0
BLOCK_RECORD
  5
1B
330
1
100
AcDbSymbolTableRecord
100
AcDbBlockTableRecord
  2
*Paper_Space
340
1E
  0
BLOCK_RECORD
  5
23
330
1
100
AcDbSymbolTableRecord
100
AcDbBlockTableRecord
  2
*Paper_Space0
340
26
  0
ENDTAB
  0
ENDSEC
  0
SECTION
  2
BLOCKS
  0
BLOCK
  5
20
330
1F
100
AcDbEntity
  8
0
100
AcDbBlockBegin
  2
*Model_Space
 70
     0
 10
0.0
 20
0.0
 30
0.0
  3
*Model_Space
  1

  0
ENDBLK
  5
21
330
1F
100
AcDbEntity
  8
0
100
AcDbBlockEnd
  0
BLOCK
  5
1C
330
1B
100
AcDbEntity
 67
     1
  8
0
100
AcDbBlockBegin
  2
*Paper_Space
 70
     0
 10
0.0
 20
0.0
 30
0.0
  3
*Paper_Space
  1

  0
ENDBLK
  5
1D
330
1B
100
AcDbEntity
 67
     1
  8
0
100
AcDbBlockEnd
  0
BLOCK
  5
24
330
23
100
AcDbEntity
  8
0
100
AcDbBlockBegin
  2
*Paper_Space0
 70
     0
 10
0.0
 20
0.0
 30
0.0
  3
*Paper_Space0
  1

  0
LINE
  5
13B
330
23
100
AcDbEntity
  8
0
  6
Continuous
 62
     7
370
    25
100
AcDbLine
 10
-395.0
 20
25.0
 30
0.0
 11
395.0
 21
25.0
 31
0.0
  0
LINE
  5
13C
330
23
100
AcDbEntity
  8
0
  6
Continuous
 62
     7
370
    25
100
AcDbLine
 10
395.0
 20
0.0
 30
0.0
 11
395.0
 21
25.0
 31
0.0
  0
LINE
  5
13D
330
23
100
AcDbEntity
  8
0
  6
Continuous
 62
     7
370
    25
100
AcDbLine
 10
400.0
 20
20.0
 30
0.0
 11
-400.0
 21
20.0
 31
0.0
  0
LINE
  5
13E
330
23
100
AcDbEntity
  8
0
  6
Continuous
 62
     7
370
    25
100
AcDbLine
 10
-395.0
 20
25.0
 30
0.0
 11
-395.0
 21
0.0
 31
0.0
  0
LINE
  5
13F
330
23
100
AcDbEntity
  8
0
  6
Continuous
 62
     7
370
    25
100
AcDbLine
 10
-400.0
 20
0.0
 30
0.0
 11
400.0
 21
0.0
 31
0.0
  0
LINE
  5
140
330
23
100
AcDbEntity
  8
0
  6
Continuous
 62
     7
370
    25
100
AcDbLine
 10
-400.0
 20
0.0
 30
0.0
 11
-400.0
 21
20.0
 31
0.0
  0
LINE
  5
141
330
23
100
AcDbEntity
  8
0
  6
Continuous
 62
     7
370
    25
100
AcDbLine
 10
400.0
 20
20.0
 30
0.0
 11
400.0
 21
0.0
 31
0.0
  0
ARC
  5
142
330
23
100
AcDbEntity
  8
0
  6
Continuous
 62
     7
370
    25
100
AcDbCircle
 10
-395.0
 20
20.0
 30
0.0
 40
5.0
100
AcDbArc
 50
90.0
 51
180.0
  0
ARC
  5
143
330
23
100
AcDbEntity
  8
0
  6
Continuous
 62
     7
370
    25
100
AcDbCircle
 10
395.0
 20
20.0
 30
0.0
 40
5.0
100
AcDbArc
 50
0.0
 51
90.0
  0
VIEWPORT
  5
146
330
23
100
AcDbEntity
  8
0
100
AcDbViewport
 10
0.0
 20
0.0
 30
0.0
 40
205.6
 41
156.0
 68
     1
 69
     1
 12
0.0
 22
0.0
 13
0.0
 23
0.0
 14
10.0
 24
10.0
 15
10.0
 25
10.0
 16
0.0
 26
0.0
 36
1.0
 17
0.0
 27
0.0
 37
0.0
 42
50.0
 43
0.0
 44
0.0
 45
816.0
 50
0.0
 51
0.0
 72
   100
 90
   557152
  1

281
     0
 71
     1
 74
     0
110
0.0
120
0.0
130
0.0
111
1.0
121
0.0
131
0.0
112
0.0
122
1.0
132
0.0
 79
     0
146
0.0
  0
ENDBLK
  5
25
330
23
100
AcDbEntity
  8
0
100
AcDbBlockEnd
  0
ENDSEC
  0
SECTION
  2
ENTITIES
  0
SPLINE
  5
9F
330
1F
100
AcDbEntity
  8
0
  6
Continuous
 62
     7
370
    25
100
AcDbSpline
210
0.0
220
0.0
230
1.0
 70
     8
 71
     3
 72
    14
 73
    10
 74
     0
 42
0.000000001
 43
0.00000001
 40
0.0
 40
0.0
 40
0.0
 40
0.0
 40
0.2500000000000001
 40
0.2500000000000001
 40
0.5000000000000001
 40
0.5000000000000001
 40
0.7500000000000002
 40
0.7500000000000002
 40
1.0
 40
1.0
 40
1.0
 40
1.0
 10
426.0996181277004
 20
338.2948784739631
 30
0.0
 10
355.0830183505337
 20
338.3193038584766
 30
0.0
 10
284.0664212634098
 20
338.3500343116507
 30
0.0
 10
142.0332240955806
 20
338.4063956434787
 30
0.0
 10
71.01662284864315
 20
338.4295284661372
 30
0.0
 10
-71.01659944908232
 20
338.4295284707192
 30
0.0
 10
-142.0332066925279
 20
338.4063956498674
 30
0.0
 10
-284.0664126554762
 20
338.3500343155835
 30
0.0
 10
-355.0830137459183
 20
338.31930386006
 30
0.0
 10
-426.0996181277072
 20
338.2948784739629
 30
0.0
  0
LWPOLYLINE
  5
A2
330
1F
100
AcDbEntity
  8
0
  6
Continuous
 62
     7
370
    25
100
AcDbPolyline
 90
        9
 70
   128
 43
0.0
 10
-438.0
 20
-340.0
 10
-438.0000022242
 20
-339.9625128902
 10
-438.0000043649
 20
-339.8514568442
 10
-438.0000063421
 20
-339.6709950323
 10
-438.0000080815
 20
-339.4278924461
 10
-438.000009518
 20
-339.131262299
 10
-438.0000105976
 20
-338.7922243979
 10
-438.00001128
 20
-338.4234882938
 10
-438.0000115395
 20
-338.0388768376
  0
LWPOLYLINE
  5
A3
330
1F
100
AcDbEntity
  8
0
  6
Continuous
 62
     7
370
    25
100
AcDbPolyline
 90
        7
 70
   128
 43
0.0
 10
-438.0000115395
 20
-338.0388768376
 10
-434.0000115397
 20
-338.0389004379
 10
-418.0000115402
 20
-338.0389945931
 10
-354.0000115422
 20
-338.0393636339
 10
-98.0000115461
 20
-338.0404447087
 10
169.9999999943
 20
-338.0402387753
 10
438.0000115395
 20
-338.0388768376
  0
LWPOLYLINE
  5
A4
330
1F
100
AcDbEntity
  8
0
  6
Continuous
 62
     7
370
    25
100
AcDbPolyline
 90
        9
 70
   128
 43
0.0
 10
438.0
 20
-340.0
 10
438.0000022242
 20
-339.9625128902
 10
438.0000043649
 20
-339.8514568442
 10
438.0000063421
 20
-339.6709950323
 10
438.0000080815
 20
-339.4278924461
 10
438.000009518
 20
-339.131262299
 10
438.0000105976
 20
-338.7922243979
 10
438.00001128
 20
-338.4234882938
 10
438.0000115395
 20
-338.0388768376
  0
SPLINE
  5
AB
330
1F
100
AcDbEntity
  8
0
  6
Continuous
 62
     7
370
    25
100
AcDbSpline
210
0.0
220
0.0
230
1.0
 70
     8
 71
     3
 72
     8
 73
     4
 74
     0
 42
0.000000001
 43
0.00000001
 40
0.0
 40
0.0
 40
0.0
 40
0.0
 40
0.0004880735344344
 40
0.0004880735344344
 40
0.0004880735344344
 40
0.0004880735344344
 10
438.0000144715937
 20
-337.5427489369447
 30
0.0
 10
438.0177327454809
 20
-337.3810560098523
 30
0.0
 10
438.0354521113696
 20
-337.2193180074387
 30
0.0
 10
438.0531660136977
 20
-337.0575947361422
 30
0.0
  0
LWPOLYLINE
  5
AC
330
1F
100
AcDbEntity
  8
0
  6
Continuous
 62
     7
370
    25
100
AcDbPolyline
 90
        9
 70
   128
 43
0.0
 10
440.0
 20
-337.0575781596
 10
439.9628564011
 20
-337.0575813406
 10
439.8528052514
 20
-337.0575844034
 10
439.6739342467
 20
-337.0575872344
 10
439.4328872997
 20
-337.0575897282
 10
439.1386177617
 20
-337.0575917924
 10
438.8020558622
 20
-337.0575933502
 10
438.4357027215
 20
-337.0575943437
 10
438.0531660137
 20
-337.0575947361
  0
SPLINE
  5
AD
330
1F
100
AcDbEntity
  8
0
  6
Continuous
 62
     7
370
    25
100
AcDbSpline
210
0.0
220
0.0
230
1.0
 70
     8
 71
     3
 72
     8
 73
     4
 74
     0
 42
0.000000001
 43
0.00000001
 40
0.0000000000000001
 40
0.0000000000000001
 40
0.0000000000000001
 40
0.0000000000000001
 40
0.0004880735344165
 40
0.0004880735344165
 40
0.0004880735344165
 40
0.0004880735344165
 10
-438.0531660136983
 20
-337.0575947361422
 30
0.0
 10
-438.0354521113708
 20
-337.2193180074328
 30
0.0
 10
-438.0177327454815
 20
-337.3810560098402
 30
0.0
 10
-438.0000144715949
 20
-337.5427489369267
 30
0.0
  0
LWPOLYLINE
  5
AE
330
1F
100
AcDbEntity
  8
0
  6
Continuous
 62
     7
370
    25
100
AcDbPolyline
 90
        9
 70
   128
 43
0.0
 10
-438.0531660137
 20
-337.0575947361
 10
-438.4357027215
 20
-337.0575943437
 10
-438.8020558622
 20
-337.0575933502
 10
-439.1386177617
 20
-337.0575917924
 10
-439.4328872997
 20
-337.0575897282
 10
-439.6739342467
 20
-337.0575872344
 10
-439.8528052514
 20
-337.0575844034
 10
-439.9628564011
 20
-337.0575813406
 10
-440.0
 20
-337.0575781596
  0
LWPOLYLINE
  5
AF
330
1F
100
AcDbEntity
  8
0
  6
Continuous
 62
     7
370
    25
100
AcDbPolyline
 90
        6
 70
   128
 43
0.0
 10
-438.0531974972
 20
338.0000165502
 10
-438.0532315491
 20
334.0000165505
 10
-438.0533656998
 20
318.0000165516
 10
-438.0538629887
 20
254.0000165552
 10
-438.0548451661
 20
-1.999983444
 10
-438.0531660137
 20
-337.0575947361
  0
LWPOLYLINE
  5
B0
330
1F
100
AcDbEntity
  8
0
  6
Continuous
 62
     7
370
    25
100
AcDbPolyline
 90
        9
 70
   128
 43
0.0
 10
-438.0531974972
 20
338.0000165502
 10
-438.4357296174
 20
338.0000161584
 10
-438.8020775005
 20
338.0000151664
 10
-439.1386339444
 20
338.0000136111
 10
-439.4328982857
 20
338.0000115502
 10
-439.67394071
 20
338.0000090603
 10
-439.8528082161
 20
338.0000062339
 10
-439.9628571563
 20
338.0000031759
 10
-440.0
 20
338.0
  0
LWPOLYLINE
  5
B1
330
1F
100
AcDbEntity
  8
0
  6
Continuous
 62
     7
370
    25
100
AcDbPolyline
 90
        6
 70
   128
 43
0.0
 10
438.0531660137
 20
-337.0575947361
 10
438.0532002211
 20
-333.0575947364
 10
438.0533350494
 20
-317.0575947375
 10
438.0538359756
 20
-253.0575947412
 10
438.0548454852
 20
2.9424052578
 10
438.0531974972
 20
338.0000165502
  0
LWPOLYLINE
  5
B2
330
1F
100
AcDbEntity
  8
0
  6
Continuous
 62
     7
370
    25
100
AcDbPolyline
 90
        9
 70
   128
 43
0.0
 10
440.0
 20
338.0
 10
439.9628571563
 20
338.0000031759
 10
439.8528082161
 20
338.0000062339
 10
439.67394071
 20
338.0000090603
 10
439.4328982857
 20
338.0000115502
 10
439.1386339444
 20
338.0000136111
 10
438.8020775005
 20
338.0000151664
 10
438.4357296174
 20
338.0000161584
 10
438.0531974972
 20
338.0000165502
  0
LWPOLYLINE
  5
B4
330
1F
100
AcDbEntity
  8
0
  6
Continuous
 62
     7
370
    25
100
AcDbPolyline
 90
        3
 70
   128
 43
0.0
 10
438.0531974972
 20
338.0000165502
 10
434.0546124163
 20
338.0000510649
 10
433.0457918953
 20
338.0000598856
  0
LWPOLYLINE
  5
B7
330
1F
100
AcDbEntity
  8
0
  6
Continuous
 62
     7
370
    25
100
AcDbPolyline
 90
        3
 70
   128
 43
0.0
 10
-433.0457918953
 20
338.0000598856
 10
-437.0443771381
 20
338.0000251914
 10
-438.0531974972
 20
338.0000165502
  0
SPLINE
  5
B9
330
1F
100
AcDbEntity
  8
0
  6
Continuous
 62
     7
370
    25
100
AcDbSpline
210
0.0
220
0.0
230
1.0
 70
     8
 71
     3
 72
     8
 73
     4
 74
     0
 42
0.000000001
 43
0.00000001
 40
0.0
 40
0.0
 40
0.0
 40
0.0
 40
1.0
 40
1.0
 40
1.0
 40
1.0
 10
433.0457918952603
 20
338.0000598855945
 30
0.0
 10
430.7309288948805
 20
338.0983563072879
 30
0.0
 10
428.4152630116786
 20
338.1966413092285
 30
0.0
 10
426.0996181277004
 20
338.2948784739625
 30
0.0
  0
SPLINE
  5
BA
330
1F
100
AcDbEntity
  8
0
  6
Continuous
 62
     7
370
    25
100
AcDbSpline
210
0.0
220
0.0
230
1.0
 70
     8
 71
     3
 72
     8
 73
     4
 74
     0
 42
0.000000001
 43
0.00000001
 40
0.0
 40
0.0
 40
0.0
 40
0.0
 40
1.0
 40
1.0
 40
1.0
 40
1.0
 10
-426.0996181277073
 20
338.2948784739622
 30
0.0
 10
-428.4152617084017
 20
338.1966413645177
 30
0.0
 10
-430.7309292729817
 20
338.0983562912334
 30
0.0
 10
-433.0457918952604
 20
338.0000598855954
 30
0.0
  0
SPLINE
  5
BB
330
1F
100
AcDbEntity
  8
0
  6
Continuous
 62
     7
370
    25
100
AcDbSpline
210
0.0
220
0.0
230
1.0
 70
     8
 71
     3
 72
    14
 73
    10
 74
     0
 42
0.000000001
 43
0.00000001
 40
0.0
 40
0.0
 40
0.0
 40
0.0
 40
0.125
 40
0.125
 40
0.25
 40
0.25
 40
0.5
 40
0.5
 40
1.0
 40
1.0
 40
1.0
 40
1.0
 10
-46.5058399106204
 20
198.3404479653391
 30
0.0
 10
-62.78616089543862
 20
175.9886768516893
 30
0.0
 10
-79.08935308678346
 20
153.6535881765357
 30
0.0
 10
-111.7000843463513
 20
108.9865890320225
 30
0.0
 10
-128.0101687983189
 20
86.65653525048307
 30
0.0
 10
-176.9448506192012
 20
19.66960657313946
 30
0.0
 10
-209.5741738099924
 20
-24.98381622510329
 30
0.0
 10
-307.4656561432766
 20
-158.9415201069413
 30
0.0
 10
-372.7325238109162
 20
-248.2423619631108
 30
0.0
 10
-438.0000144715949
 20
-337.5427489369269
 30
0.0
  0
SPLINE
  5
BC
330
1F
100
AcDbEntity
  8
0
  6
Continuous
 62
     7
370
    25
100
AcDbSpline
210
0.0
220
0.0
230
1.0
 70
     8
 71
     3
 72
    44
 73
    40
 74
     0
 42
0.000000001
 43
0.00000001
 40
0.0
 40
0.0
 40
0.0
 40
0.0
 40
0.0624999999999999
 40
0.0624999999999999
 40
0.1249999999999997
 40
0.1249999999999997
 40
0.1874999999999996
 40
0.1874999999999996
 40
0.2499999999999994
 40
0.2499999999999994
 40
0.3124999999999993
 40
0.3124999999999993
 40
0.3749999999999992
 40
0.3749999999999992
 40
0.437499999999999
 40
0.437499999999999
 40
0.4999999999999989
 40
0.4999999999999989
 40
0.5312499999999988
 40
0.5312499999999988
 40
0.5624999999999988
 40
0.5624999999999988
 40
0.6249999999999987
 40
0.6249999999999987
 40
0.6874999999999987
 40
0.6874999999999987
 40
0.7187499999999989
 40
0.7187499999999989
 40
0.749999999999999
 40
0.749999999999999
 40
0.8124999999999991
 40
0.8124999999999991
 40
0.8749999999999991
 40
0.8749999999999991
 40
0.9062499999999992
 40
0.9062499999999992
 40
0.9374999999999992
 40
0.9374999999999992
 40
1.0
 40
1.0
 40
1.0
 40
1.0
 10
46.50583991062526
 20
198.3404479653193
 30
0.0
 10
45.11340292781581
 20
196.5748506221701
 30
0.0
 10
43.63420240796689
 20
194.9053616157362
 30
0.0
 10
40.50879165364086
 20
191.751380968368
 30
0.0
 10
38.86256033045219
 20
190.2669126867385
 30
0.0
 10
35.40302079149539
 20
187.4830479000779
 30
0.0
 10
33.58899809342437
 20
186.1831634820036
 30
0.0
 10
29.79030860069941
 20
183.7775746857957
 30
0.0
 10
27.8409317398429
 20
182.6941021026568
 30
0.0
 10
23.84583353905787
 20
180.7569293187574
 30
0.0
 10
21.8001006193246
 20
179.9032567316658
 30
0.0
 10
17.61221617777683
 20
178.4258607124472
 30
0.0
 10
15.46839315013194
 20
177.8017230826542
 30
0.0
 10
11.08736200414832
 20
176.7940430105593
 30
0.0
 10
8.889120852450427
 20
176.4192631821179
 30
0.0
 10
4.477755306709287
 20
175.918336599029
 30
0.0
 10
2.264629133582231
 20
175.7922195623748
 30
0.0
 10
-1.066235945374818
 20
175.7897424560598
 30
0.0
 10
-2.178391294343714
 20
175.8201058783002
 30
0.0
 10
-4.40649160242465
 20
175.9441403248163
 30
0.0
 10
-5.523648121492373
 20
176.0379483495443
 30
0.0
 10
-8.87330297261007
 20
176.4158216177936
 30
0.0
 10
-11.07101518647452
 20
176.7920067671547
 30
0.0
 10
-15.39822689493877
 20
177.7838945950882
 30
0.0
 10
-17.52771871166681
 20
178.399624237125
 30
0.0
 10
-20.67071312233395
 20
179.503151011594
 30
0.0
 10
-21.70981737798064
 20
179.9010522001784
 30
0.0
 10
-23.77064608882029
 20
180.7578808359697
 30
0.0
 10
-24.7937859062298
 20
181.2174958877217
 30
0.0
 10
-27.82739212664161
 20
182.6857553258507
 30
0.0
 10
-29.77530892138658
 20
183.7701037517828
 30
0.0
 10
-33.52751638632611
 20
186.1422421226175
 30
0.0
 10
-35.33179090570236
 20
187.4300549466773
 30
0.0
 10
-37.93026447035426
 20
189.5146649944619
 30
0.0
 10
-38.77839049933572
 20
190.2350764792558
 30
0.0
 10
-40.43802668892874
 20
191.7277645825911
 30
0.0
 10
-41.25043815217668
 20
192.50095309846
 30
0.0
 10
-43.62546116452648
 20
194.8943108988358
 30
0.0
 10
-45.11340332953933
 20
196.5748511315504
 30
0.0
 10
-46.50583991063539
 20
198.3404479653317
 30
0.0
  0
SPLINE
  5
BD
330
1F
100
AcDbEntity
  8
0
  6
Continuous
 62
     7
370
    25
100
AcDbSpline
210
0.0
220
0.0
230
1.0
 70
     8
 71
     3
 72
    14
 73
    10
 74
     0
 42
0.000000001
 43
0.00000001
 40
0.0
 40
0.0
 40
0.0
 40
0.0
 40
0.4999999999999999
 40
0.4999999999999999
 40
0.7499999999999998
 40
0.7499999999999998
 40
0.8749999999999999
 40
0.8749999999999999
 40
1.0
 40
1.0
 40
1.0
 40
1.0
 10
438.0000144716087
 20
-337.5427489369465
 30
0.0
 10
372.7325245099916
 20
-248.2423629196016
 30
0.0
 10
307.4656576021316
 20
-158.9415221028967
 30
0.0
 10
209.5741768573041
 20
-24.98382039533228
 30
0.0
 10
176.9448541689796
 20
19.66960171503646
 30
0.0
 10
128.010172886725
 20
86.65652965323993
 30
0.0
 10
111.7000883646197
 20
108.9865835295507
 30
0.0
 10
79.08935518940636
 20
153.6535852952054
 30
0.0
 10
62.78616191509123
 20
175.9886754518083
 30
0.0
 10
46.50583991062749
 20
198.3404479653261
 30
0.0
  0
SPLINE
  5
BE
330
1F
100
AcDbEntity
  8
0
  6
Continuous
 62
     7
370
    25
100
AcDbSpline
210
0.0
220
0.0
230
1.0
 70
     8
 71
     3
 72
     8
 73
     4
 74
     0
 42
0.000000001
 43
0.00000001
 40
0.0000000000000046
 40
0.0000000000000046
 40
0.0000000000000046
 40
0.0000000000000046
 40
0.0000073556458947
 40
0.0000073556458947
 40
0.0000073556458947
 40
0.0000073556458947
 10
46.51009303959261
 20
198.3464493312338
 30
0.0
 10
46.50867549833114
 20
198.3444487560531
 30
0.0
 10
46.50725778851352
 20
198.3424483005154
 30
0.0
 10
46.50583991062538
 20
198.3404479653192
 30
0.0
  0
SPLINE
  5
BF
330
1F
100
AcDbEntity
  8
0
  6
Continuous
 62
     7
370
    25
100
AcDbSpline
210
0.0
220
0.0
230
1.0
 70
     8
 71
     3
 72
    14
 73
    10
 74
     0
 42
0.000000001
 43
0.00000001
 40
0.0
 40
0.0
 40
0.0
 40
0.0
 40
0.125
 40
0.125
 40
0.25
 40
0.25
 40
0.5
 40
0.5
 40
1.0
 40
1.0
 40
1.0
 40
1.0
 10
46.51009303957797
 20
198.3464493312409
 30
0.0
 10
62.85630327925734
 20
176.0613209848354
 30
0.0
 10
79.17965847993916
 20
153.7594463519521
 30
0.0
 10
111.8220186998883
 20
109.1525193207343
 30
0.0
 10
128.1384814667582
 20
86.84560368205683
 30
0.0
 10
177.0834483200014
 20
19.92161989103469
 30
0.0
 10
209.7072304147276
 20
-24.69890277740598
 30
0.0
 10
307.5750724359892
 20
-158.5630363721655
 30
0.0
 10
372.81443011044
 20
-247.8100879247531
 30
0.0
 10
438.0531660136978
 20
-337.057594736142
 30
0.0
  0
SPLINE
  5
C0
330
1F
100
AcDbEntity
  8
0
  6
Continuous
 62
     7
370
    25
100
AcDbSpline
210
0.0
220
0.0
230
1.0
 70
     8
 71
     3
 72
    14
 73
    10
 74
     0
 42
0.000000001
 43
0.00000001
 40
0.0
 40
0.0
 40
0.0
 40
0.0
 40
0.5
 40
0.5
 40
0.75
 40
0.75
 40
0.875
 40
0.875
 40
1.0
 40
1.0
 40
1.0
 40
1.0
 10
-438.0531660136982
 20
-337.0575947361422
 30
0.0
 10
-372.8144308100405
 20
-247.8100888818162
 30
0.0
 10
-307.5750738962741
 20
-158.5630383699371
 30
0.0
 10
-209.7072334637974
 20
-24.69890694774522
 30
0.0
 10
-177.0834518717963
 20
19.92161503334879
 30
0.0
 10
-128.1384855594872
 20
86.84559808654443
 30
0.0
 10
-111.8220227225611
 20
109.1525138222512
 30
0.0
 10
-79.17966058528712
 20
153.7594434762806
 30
0.0
 10
-62.8563043031547
 20
176.0613195888647
 30
0.0
 10
-46.51009303959415
 20
198.3464493312252
 30
0.0
  0
SPLINE
  5
C1
330
1F
100
AcDbEntity
  8
0
  6
Continuous
 62
     7
370
    25
100
AcDbSpline
210
0.0
220
0.0
230
1.0
 70
     8
 71
     3
 72
     8
 73
     4
 74
     0
 42
0.000000001
 43
0.00000001
 40
0.0000000000000008
 40
0.0000000000000008
 40
0.0000000000000008
 40
0.0000000000000008
 40
0.0000073556458756
 40
0.0000073556458756
 40
0.0000073556458756
 40
0.0000073556458756
 10
-46.50583991063552
 20
198.3404479653315
 30
0.0
 10
-46.5072577885192
 20
198.3424483005214
 30
0.0
 10
-46.50867549833129
 20
198.3444487560535
 30
0.0
 10
-46.51009303958828
 20
198.3464493312279
 30
0.0
  0
SPLINE
  5
C2
330
1F
100
AcDbEntity
  8
0
  6
Continuous
 62
     7
370
    25
100
AcDbSpline
210
0.0
220
0.0
230
1.0
 70
     8
 71
     3
 72
    34
 73
    30
 74
     0
 42
0.000000001
 43
0.00000001
 40
0.0
 40
0.0
 40
0.0
 40
0.0
 40
0.1250000000000006
 40
0.1250000000000006
 40
0.2500000000000012
 40
0.2500000000000012
 40
0.2812500000000003
 40
0.2812500000000003
 40
0.3124999999999993
 40
0.3124999999999993
 40
0.3749999999999986
 40
0.3749999999999986
 40
0.4999999999999982
 40
0.4999999999999982
 40
0.5312499999999987
 40
0.5312499999999987
 40
0.5624999999999992
 40
0.5624999999999992
 40
0.624999999999999
 40
0.624999999999999
 40
0.7499999999999987
 40
0.7499999999999987
 40
0.7812499999999987
 40
0.7812499999999987
 40
0.8124999999999986
 40
0.8124999999999986
 40
0.8749999999999994
 40
0.8749999999999994
 40
1.0
 40
1.0
 40
1.0
 40
1.0
 10
47.45781760329722
 20
270.3755010438601
 30
0.0
 10
49.40234076642631
 20
267.7644967267608
 30
0.0
 10
51.10612106957015
 20
265.0306914562191
 30
0.0
 10
54.05261940827411
 20
259.3278968113408
 30
0.0
 10
55.29527655763245
 20
256.3588763766938
 30
0.0
 10
56.54944450914148
 20
252.4950050773732
 30
0.0
 10
56.78483623809792
 20
251.7154439990776
 30
0.0
 10
57.22127668898504
 20
250.1552331262102
 30
0.0
 10
57.42289556257159
 20
249.3728754664217
 30
0.0
 10
57.97866394209286
 20
247.0191429274629
 30
0.0
 10
58.28380639619547
 20
245.4411195040619
 30
0.0
 10
59.00579130924655
 20
240.6808058156187
 30
0.0
 10
59.23044137599996
 20
237.472441735141
 30
0.0
 10
59.1797702582672
 20
233.4170157677144
 30
0.0
 10
59.15281852506208
 20
232.6021653156021
 30
0.0
 10
59.06581514555429
 20
230.9819261143717
 30
0.0
 10
59.00580960649167
 20
230.1751914992955
 30
0.0
 10
58.77705641467446
 20
227.7649836604922
 30
0.0
 10
58.55965289849662
 20
226.1714898900679
 30
0.0
 10
57.71587799072392
 20
221.430298913819
 30
0.0
 10
56.89918700252598
 20
218.3216367393225
 30
0.0
 10
55.55179064962398
 20
214.50278165898
 30
0.0
 10
55.26527461553224
 20
213.7408920399962
 30
0.0
 10
54.66177374948214
 20
212.2314845823816
 30
0.0
 10
54.34535086300533
 20
211.485161733052
 30
0.0
 10
53.35270420262877
 20
209.2709706238988
 30
0.0
 10
52.63317443705765
 20
207.8278386720813
 30
0.0
 10
50.30368836998741
 20
203.5960587406678
 30
0.0
 10
48.52398970989107
 20
200.9043672899794
 30
0.0
 10
46.51009303959226
 20
198.3464493312341
 30
0.0
  0
SPLINE
  5
C3
330
1F
100
AcDbEntity
  8
0
  6
Continuous
 62
     7
370
    25
100
AcDbSpline
210
0.0
220
0.0
230
1.0
 70
     8
 71
     3
 72
    16
 73
    12
 74
     0
 42
0.000000001
 43
0.00000001
 40
0.0
 40
0.0
 40
0.0
 40
0.0
 40
0.5
 40
0.5
 40
0.75
 40
0.75
 40
0.875
 40
0.875
 40
0.9375
 40
0.9375
 40
1.0
 40
1.0
 40
1.0
 40
1.0
 10
433.0457918952602
 20
338.0000598855953
 30
0.0
 10
368.7924293459905
 20
326.6648692872988
 30
0.0
 10
304.5368807187892
 20
315.3421048422996
 30
0.0
 10
208.1451030256686
 20
298.4060185649409
 30
0.0
 10
176.0131161551818
 20
292.7685855318355
 30
0.0
 10
127.8108839291194
 20
284.3367854741956
 30
0.0
 10
111.742780745221
 20
281.5301524032056
 30
0.0
 10
87.63857588834998
 20
277.3319248835557
 30
0.0
 10
79.60349884699725
 20
275.9344629900729
 30
0.0
 10
63.53207010878771
 20
273.146861186262
 30
0.0
 10
55.49583158078596
 20
271.7560621818619
 30
0.0
 10
47.45781760329892
 20
270.3755010438584
 30
0.0
  0
SPLINE
  5
C4
330
1F
100
AcDbEntity
  8
0
  6
Continuous
 62
     7
370
    25
100
AcDbSpline
210
0.0
220
0.0
230
1.0
 70
     8
 71
     3
 72
    16
 73
    12
 74
     0
 42
0.000000001
 43
0.00000001
 40
0.0
 40
0.0
 40
0.0
 40
0.0
 40
0.0625000000000001
 40
0.0625000000000001
 40
0.1250000000000001
 40
0.1250000000000001
 40
0.2500000000000001
 40
0.2500000000000001
 40
0.5000000000000001
 40
0.5000000000000001
 40
1.0
 40
1.0
 40
1.0
 40
1.0
 10
-47.45781760333197
 20
270.3755010438663
 30
0.0
 10
-55.49583147503019
 20
271.7560621636923
 30
0.0
 10
-63.53206989728372
 20
273.1468611496807
 30
0.0
 10
-79.60349842400875
 20
275.9344629166007
 30
0.0
 10
-87.63857535962926
 20
277.3319247915812
 30
0.0
 10
-111.7427798993169
 20
281.5301522556475
 30
0.0
 10
-127.8108828717786
 20
284.3367852894743
 30
0.0
 10
-176.0131144635596
 20
292.7685852354585
 30
0.0
 10
-208.1451009112315
 20
298.4060181939018
 30
0.0
 10
-304.536877335957
 20
315.3421042469975
 30
0.0
 10
-368.7924289115884
 20
326.6648692106639
 30
0.0
 10
-433.0457918952614
 20
338.0000598855953
 30
0.0
  0
SPLINE
  5
C5
330
1F
100
AcDbEntity
  8
0
  6
Continuous
 62
     7
370
    25
100
AcDbSpline
210
0.0
220
0.0
230
1.0
 70
     8
 71
     3
 72
    34
 73
    30
 74
     0
 42
0.000000001
 43
0.00000001
 40
0.0
 40
0.0
 40
0.0
 40
0.0
 40
0.1250000000000032
 40
0.1250000000000032
 40
0.2500000000000064
 40
0.2500000000000064
 40
0.2812500000000067
 40
0.2812500000000067
 40
0.3125000000000069
 40
0.3125000000000069
 40
0.3750000000000065
 40
0.3750000000000065
 40
0.5000000000000067
 40
0.5000000000000067
 40
0.5312500000000062
 40
0.5312500000000062
 40
0.5625000000000057
 40
0.5625000000000057
 40
0.6250000000000048
 40
0.6250000000000048
 40
0.7500000000000039
 40
0.7500000000000039
 40
0.7812500000000037
 40
0.7812500000000037
 40
0.8125000000000034
 40
0.8125000000000034
 40
0.875000000000003
 40
0.875000000000003
 40
1.0
 40
1.0
 40
1.0
 40
1.0
 10
-46.51009303958803
 20
198.3464493312281
 30
0.0
 10
-48.52399522268924
 20
200.9043742919687
 30
0.0
 10
-50.30020347667359
 20
203.5915989495436
 30
0.0
 10
-53.39714395547649
 20
209.2138160861031
 30
0.0
 10
-54.71787387700234
 20
212.1488098265827
 30
0.0
 10
-56.07321271441198
 20
215.9783368019143
 30
0.0
 10
-56.32901217396449
 20
216.7514828910396
 30
0.0
 10
-56.80624370630044
 20
218.2997388085138
 30
0.0
 10
-57.02829543380639
 20
219.0765532072737
 30
0.0
 10
-57.64547673872178
 20
221.4149392385168
 30
0.0
 10
-57.99171034704963
 20
222.9844410709624
 30
0.0
 10
-58.837478463549
 20
227.7242373758541
 30
0.0
 10
-59.14542049515036
 20
230.9256053204588
 30
0.0
 10
-59.20007947377752
 20
234.9808799982656
 30
0.0
 10
-59.19430023591504
 20
235.7961537473421
 30
0.0
 10
-59.14942086974584
 20
237.4181541268871
 30
0.0
 10
-59.11040119845813
 20
238.2262004941027
 30
0.0
 10
-58.94438778444198
 20
240.6416180843614
 30
0.0
 10
-58.768520055437
 20
242.2402821230916
 30
0.0
 10
-58.04855096504528
 20
247.0020031341855
 30
0.0
 10
-57.31344771409634
 20
250.1310320218143
 30
0.0
 10
-56.06694280261924
 20
253.9839497423648
 30
0.0
 10
-55.80059797934374
 20
254.7530872068606
 30
0.0
 10
-55.23710851752823
 20
256.2778932209437
 30
0.0
 10
-54.94050241676306
 20
257.0323232157815
 30
0.0
 10
-54.00674221678497
 20
259.2720387046182
 30
0.0
 10
-53.32571920705811
 20
260.7337888594637
 30
0.0
 10
-51.10948468816648
 20
265.0261373587239
 30
0.0
 10
-49.40234154165071
 20
267.7644956858305
 30
0.0
 10
-47.45781760329826
 20
270.3755010438593
 30
0.0
  0
SPLINE
  5
C6
330
1F
100
AcDbEntity
  8
0
  6
Continuous
 62
     7
370
    25
100
AcDbSpline
210
0.0
220
0.0
230
1.0
 70
     8
 71
     3
 72
    48
 73
    44
 74
     0
 42
0.000000001
 43
0.00000001
 40
0.0
 40
0.0
 40
0.0
 40
0.0
 40
0.062499999999999
 40
0.062499999999999
 40
0.124999999999998
 40
0.124999999999998
 40
0.1562499999999974
 40
0.1562499999999974
 40
0.1874999999999969
 40
0.1874999999999969
 40
0.2499999999999967
 40
0.2499999999999967
 40
0.2812499999999966
 40
0.2812499999999966
 40
0.3124999999999965
 40
0.3124999999999965
 40
0.3749999999999967
 40
0.3749999999999967
 40
0.4374999999999969
 40
0.4374999999999969
 40
0.4687499999999971
 40
0.4687499999999971
 40
0.4999999999999972
 40
0.4999999999999972
 40
0.5624999999999976
 40
0.5624999999999976
 40
0.6249999999999979
 40
0.6249999999999979
 40
0.6562499999999981
 40
0.6562499999999981
 40
0.6874999999999982
 40
0.6874999999999982
 40
0.7187499999999984
 40
0.7187499999999984
 40
0.7499999999999986
 40
0.7499999999999986
 40
0.812499999999999
 40
0.812499999999999
 40
0.8749999999999993
 40
0.8749999999999993
 40
0.9374999999999997
 40
0.9374999999999997
 40
1.0
 40
1.0
 40
1.0
 40
1.0
 10
-47.43916079003108
 20
270.3968673936999
 30
0.0
 10
-46.05708802572531
 20
272.2417371823259
 30
0.0
 10
-44.58093438747931
 20
273.9871690821275
 30
0.0
 10
-41.44712459016626
 20
277.2861928640178
 30
0.0
 10
-39.78945429873021
 20
278.839769853531
 30
0.0
 10
-37.16586594975654
 20
281.0252419719391
 30
0.0
 10
-36.2684302462082
 20
281.7295213158396
 30
0.0
 10
-34.42682180813502
 20
283.0886794557705
 30
0.0
 10
-33.48072898406252
 20
283.7447894586064
 30
0.0
 10
-30.58370427873227
 20
285.6280140639756
 30
0.0
 10
-28.58629808319371
 20
286.7630758036191
 30
0.0
 10
-25.49101779740293
 20
288.284868985448
 30
0.0
 10
-24.43994272050118
 20
288.7630124787156
 30
0.0
 10
-22.32045954858616
 20
289.6514940879481
 30
0.0
 10
-21.25221531692708
 20
290.0620283019979
 30
0.0
 10
-18.02268709790854
 20
291.195346857093
 30
0.0
 10
-15.83661374883076
 20
291.8198665835249
 30
0.0
 10
-11.40128641516774
 20
292.8186238876693
 30
0.0
 10
-9.152093716717024
 20
293.1931104556526
 30
0.0
 10
-5.731498853037241
 20
293.5696526930061
 30
0.0
 10
-4.581110652214734
 20
293.6641752451778
 30
0.0
 10
-2.290681845112272
 20
293.789302335463
 30
0.0
 10
-1.147859349258982
 20
293.8203376007711
 30
0.0
 10
2.273573444734165
 20
293.8207380970659
 30
0.0
 10
4.545180922640223
 20
293.6978335320103
 30
0.0
 10
9.069630900249694
 20
293.2045306300296
 30
0.0
 10
11.32247871692467
 20
292.8341838944678
 30
0.0
 10
14.68670453362217
 20
292.0798600911854
 30
0.0
 10
15.80474164382936
 20
291.7951661051247
 30
0.0
 10
18.01434800621889
 20
291.1628449906654
 30
0.0
 10
19.10852538540486
 20
290.8146592082591
 30
0.0
 10
21.27539780265541
 20
290.0535286586046
 30
0.0
 10
22.34809722708076
 20
289.6405970750756
 30
0.0
 10
24.47169100512899
 20
288.7489955285411
 30
0.0
 10
25.51954568734519
 20
288.2715122809751
 30
0.0
 10
28.61132713304538
 20
286.7494052443482
 30
0.0
 10
30.60900717465392
 20
285.612958903161
 30
0.0
 10
34.47066917214931
 20
283.0998630586211
 30
0.0
 10
36.30658844371391
 20
281.7417959917423
 30
0.0
 10
39.79757864056124
 20
278.8322287274278
 30
0.0
 10
41.45262252366336
 20
277.2806995589601
 30
0.0
 10
44.58265611289963
 20
273.9850614289372
 30
0.0
 10
46.05766253244816
 20
272.2409702978866
 30
0.0
 10
47.4391607900307
 20
270.3968673937001
 30
0.0
  0
SPLINE
  5
C7
330
1F
100
AcDbEntity
  8
0
  6
Continuous
 62
     7
370
    25
100
AcDbSpline
210
0.0
220
0.0
230
1.0
 70
     8
 71
     3
 72
    16
 73
    12
 74
     0
 42
0.000000001
 43
0.00000001
 40
0.0
 40
0.0
 40
0.0
 40
0.0
 40
0.5
 40
0.5
 40
0.75
 40
0.75
 40
0.875
 40
0.875
 40
0.9375
 40
0.9375
 40
1.0
 40
1.0
 40
1.0
 40
1.0
 10
-426.0996181272153
 20
338.2948784738789
 30
0.0
 10
-362.9778043935426
 20
327.0438295274558
 30
0.0
 10
-299.8582779657202
 20
315.7803402532928
 30
0.0
 10
-205.1878439387825
 20
298.8357970659324
 30
0.0
 10
-173.6325007969415
 20
293.1794412228653
 30
0.0
 10
-126.3039039939838
 20
284.6701468495953
 30
0.0
 10
-110.5284252213774
 20
281.8296755675792
 30
0.0
 10
-86.86727864674073
 20
277.5573061499171
 30
0.0
 10
-78.98057237500969
 20
276.1312447436547
 30
0.0
 10
-63.20844518926486
 20
273.2719502874372
 30
0.0
 10
-55.32290867547947
 20
271.839341631198
 30
0.0
 10
-47.43916079003083
 20
270.3968673937015
 30
0.0
  0
SPLINE
  5
C8
330
1F
100
AcDbEntity
  8
0
  6
Continuous
 62
     7
370
    25
100
AcDbSpline
210
0.0
220
0.0
230
1.0
 70
     8
 71
     3
 72
    16
 73
    12
 74
     0
 42
0.000000001
 43
0.00000001
 40
0.0
 40
0.0
 40
0.0
 40
0.0
 40
0.0625
 40
0.0625
 40
0.1250000000000001
 40
0.1250000000000001
 40
0.2500000000000001
 40
0.2500000000000001
 40
0.5
 40
0.5
 40
1.0
 40
1.0
 40
1.0
 40
1.0
 10
47.43916079006289
 20
270.3968673937038
 30
0.0
 10
55.32292013557336
 20
271.8393437280388
 30
0.0
 10
63.20845109243588
 20
273.2719513581081
 30
0.0
 10
78.98056950034525
 20
276.1312442220153
 30
0.0
 10
86.867269668004
 20
277.5573045264896
 30
0.0
 10
110.5284069261928
 20
281.8296722684824
 30
0.0
 10
126.303885287825
 20
284.6701434833025
 30
0.0
 10
173.632489888131
 20
293.1794392677069
 30
0.0
 10
205.1878325079558
 20
298.8357950179648
 30
0.0
 10
299.8582693417227
 20
315.7803387137836
 30
0.0
 10
362.9778011359589
 20
327.0438289468131
 30
0.0
 10
426.0996181276999
 20
338.2948784739653
 30
0.0
  0
SPLINE
  5
C9
330
1F
100
AcDbEntity
  8
0
  6
Continuous
 62
     7
370
    25
100
AcDbSpline
210
0.0
220
0.0
230
1.0
 70
     8
 71
     3
 72
     8
 73
     4
 74
     0
 42
0.000000001
 43
0.00000001
 40
0.0000000000000167
 40
0.0000000000000167
 40
0.0000000000000167
 40
0.0000000000000167
 40
0.0000283654664015
 40
0.0000283654664015
 40
0.0000283654664015
 40
0.0000283654664015
 10
47.4391607900591
 20
270.3968673937248
 30
0.0
 10
47.44538186082453
 20
270.3897471259636
 30
0.0
 10
47.45160080588691
 20
270.3826250012587
 30
0.0
 10
47.4578176032997
 20
270.3755010438618
 30
0.0
  0
SPLINE
  5
CA
330
1F
100
AcDbEntity
  8
0
  6
Continuous
 62
     7
370
    25
100
AcDbSpline
210
0.0
220
0.0
230
1.0
 70
     8
 71
     3
 72
     8
 73
     4
 74
     0
 42
0.000000001
 43
0.00000001
 40
0.0000000000000193
 40
0.0000000000000193
 40
0.0000000000000193
 40
0.0000000000000193
 40
0.0000283654664025
 40
0.0000283654664025
 40
0.0000283654664025
 40
0.0000283654664025
 10
-47.45781760332858
 20
270.3755010438857
 30
0.0
 10
-47.45160080591561
 20
270.3826250012829
 30
0.0
 10
-47.44538186079929
 20
270.3897471259411
 30
0.0
 10
-47.43916079003359
 20
270.3968673937026
 30
0.0
  0
SPLINE
  5
CB
330
1F
100
AcDbEntity
  8
0
  6
Continuous
 62
     7
370
    25
100
AcDbSpline
210
0.0
220
0.0
230
1.0
 70
     8
 71
     3
 72
    48
 73
    44
 74
     0
 42
0.000000001
 43
0.00000001
 40
0.0
 40
0.0
 40
0.0
 40
0.0
 40
0.0624999999999995
 40
0.0624999999999995
 40
0.1249999999999991
 40
0.1249999999999991
 40
0.1874999999999986
 40
0.1874999999999986
 40
0.2499999999999983
 40
0.2499999999999983
 40
0.2812499999999981
 40
0.2812499999999981
 40
0.3124999999999978
 40
0.3124999999999978
 40
0.3437499999999976
 40
0.3437499999999976
 40
0.3749999999999974
 40
0.3749999999999974
 40
0.4374999999999974
 40
0.4374999999999974
 40
0.4999999999999973
 40
0.4999999999999973
 40
0.5312499999999973
 40
0.5312499999999973
 40
0.5624999999999973
 40
0.5624999999999973
 40
0.6249999999999973
 40
0.6249999999999973
 40
0.6874999999999973
 40
0.6874999999999973
 40
0.7187499999999973
 40
0.7187499999999973
 40
0.7499999999999972
 40
0.7499999999999972
 40
0.8124999999999978
 40
0.8124999999999978
 40
0.8437499999999981
 40
0.8437499999999981
 40
0.8749999999999984
 40
0.8749999999999984
 40
0.9374999999999992
 40
0.9374999999999992
 40
1.0
 40
1.0
 40
1.0
 40
1.0
 10
45.88257382588267
 20
269.239624984985
 30
0.0
 10
44.54589483986798
 20
271.0308324612416
 30
0.0
 10
43.11845500862268
 20
272.7256196287105
 30
0.0
 10
40.0893162594602
 20
275.930065484308
 30
0.0
 10
38.4875929309495
 20
277.4396983001619
 30
0.0
 10
35.10988059909232
 20
280.2738234054153
 30
0.0
 10
33.33391533164026
 20
281.5983409818109
 30
0.0
 10
29.6005978326082
 20
284.0546623833685
 30
0.0
 10
27.67023505783472
 20
285.1685793782362
 30
0.0
 10
24.68273395730754
 20
286.6678486647095
 30
0.0
 10
23.67029611727023
 20
287.1394926630526
 30
0.0
 10
21.6189542449764
 20
288.0229236349088
 30
0.0
 10
20.58263173548072
 20
288.4336802426769
 30
0.0
 10
18.48885287347746
 20
289.1937748533717
 30
0.0
 10
17.43139644709826
 20
289.5431125710277
 30
0.0
 10
15.29529803397305
 20
290.1802371242063
 30
0.0
 10
14.21399885544355
 20
290.468607770957
 30
0.0
 10
10.9601330003475
 20
291.2352632309831
 30
0.0
 10
8.780412644896664
 20
291.6156061692228
 30
0.0
 10
4.400639983829539
 20
292.1231728447916
 30
0.0
 10
2.200583867969129
 20
292.2503750571502
 30
0.0
 10
-1.114895759000606
 20
292.2498112296683
 30
0.0
 10
-2.222627418166114
 20
292.2176502708767
 30
0.0
 10
-4.443332080598529
 20
292.0881456624917
 30
0.0
 10
-5.559302255763069
 20
291.9903029641778
 30
0.0
 10
-8.874536881702783
 20
291.6017401606533
 30
0.0
 10
-11.05138013903953
 20
291.2164263498259
 30
0.0
 10
-15.34045647809962
 20
290.2004528021873
 30
0.0
 10
-17.45268786580141
 20
289.56977695118
 30
0.0
 10
-20.57206169223304
 20
288.4375932307175
 30
0.0
 10
-21.60367004899587
 20
288.0290940883687
 30
0.0
 10
-23.65017496068631
 20
287.1485628157466
 30
0.0
 10
-24.66507988506279
 20
286.6762902217991
 30
0.0
 10
-27.65451760292546
 20
285.1772927074188
 30
0.0
 10
-29.58415887284287
 20
284.0645187273144
 30
0.0
 10
-32.38316686710023
 20
282.2243553920719
 30
0.0
 10
-33.29759817935432
 20
281.5839464543371
 30
0.0
 10
-35.07794604522332
 20
280.2584998980599
 30
0.0
 10
-35.94572159456387
 20
279.572257015309
 30
0.0
 10
-38.48292290110717
 20
277.444094177612
 30
0.0
 10
-40.08644009912332
 20
275.9329676696087
 30
0.0
 10
-43.11789401996882
 20
272.7263533533865
 30
0.0
 10
-44.54585286303879
 20
271.0308887120034
 30
0.0
 10
-45.88257382588316
 20
269.239624984985
 30
0.0
  0
SPLINE
  5
CF
330
1F
100
AcDbEntity
  8
0
  6
Continuous
 62
     7
370
    25
100
AcDbSpline
210
0.0
220
0.0
230
1.0
 70
     8
 71
     3
 72
    34
 73
    30
 74
     0
 42
0.000000001
 43
0.00000001
 40
0.0
 40
0.0
 40
0.0
 40
0.0
 40
0.1250000000000014
 40
0.1250000000000014
 40
0.1875000000000031
 40
0.1875000000000031
 40
0.2187500000000038
 40
0.2187500000000038
 40
0.2500000000000046
 40
0.2500000000000046
 40
0.3750000000000016
 40
0.3750000000000016
 40
0.4375000000000002
 40
0.4375000000000002
 40
0.4687499999999995
 40
0.4687499999999995
 40
0.4999999999999988
 40
0.4999999999999988
 40
0.6249999999999992
 40
0.6249999999999992
 40
0.6874999999999994
 40
0.6874999999999994
 40
0.7187500000000001
 40
0.7187500000000001
 40
0.7500000000000008
 40
0.7500000000000008
 40
0.8750000000000004
 40
0.8750000000000004
 40
1.0
 40
1.0
 40
1.0
 40
1.0
 10
-45.9014175710531
 20
269.2143590465735
 30
0.0
 10
-47.78298409632107
 20
266.6900805514985
 30
0.0
 10
-49.43477437252923
 20
264.0424681787551
 30
0.0
 10
-51.57884067762815
 20
259.8919773852157
 30
0.0
 10
-52.23763865881255
 20
258.478480710497
 30
0.0
 10
-53.14082437749092
 20
256.3126053489747
 30
0.0
 10
-53.42770007714488
 20
255.583032355562
 30
0.0
 10
-53.97266110489947
 20
254.1084329482857
 30
0.0
 10
-54.23022736490274
 20
253.3645966464613
 30
0.0
 10
-55.43548960348064
 20
249.6384600625266
 30
0.0
 10
-56.14582962300464
 20
246.6124003168729
 30
0.0
 10
-56.84073143147889
 20
242.0073983494736
 30
0.0
 10
-57.01028407937407
 20
240.461356586904
 30
0.0
 10
-57.16994939109722
 20
238.1254580887396
 30
0.0
 10
-57.20737424674186
 20
237.3440157874232
 30
0.0
 10
-57.25012487620442
 20
235.775422386491
 30
0.0
 10
-57.25537236282329
 20
234.9869814957599
 30
0.0
 10
-57.20074473535312
 20
231.0652009056925
 30
0.0
 10
-56.90139103982676
 20
227.9693902131199
 30
0.0
 10
-56.08109147230855
 20
223.386107528686
 30
0.0
 10
-55.74546224146164
 20
221.8684705929161
 30
0.0
 10
-55.14742544471076
 20
219.6074125602313
 30
0.0
 10
-54.93229482839904
 20
218.8562959559726
 30
0.0
 10
-54.4700016388312
 20
217.3592767483579
 30
0.0
 10
-54.22224069231049
 20
216.6117302896456
 30
0.0
 10
-52.90959315959667
 20
212.9089377834622
 30
0.0
 10
-51.63090494604994
 20
210.0711951872573
 30
0.0
 10
-48.63325255626783
 20
204.6355075665979
 30
0.0
 10
-46.91430407372466
 20
202.0375539852789
 30
0.0
 10
-44.96559599198894
 20
199.5647396357068
 30
0.0
  0
SPLINE
  5
D2
330
1F
100
AcDbEntity
  8
0
  6
Continuous
 62
     7
370
    25
100
AcDbSpline
210
0.0
220
0.0
230
1.0
 70
     8
 71
     3
 72
    34
 73
    30
 74
     0
 42
0.000000001
 43
0.00000001
 40
0.0
 40
0.0
 40
0.0
 40
0.0
 40
0.1250000000000039
 40
0.1250000000000039
 40
0.1875000000000054
 40
0.1875000000000054
 40
0.2187500000000057
 40
0.2187500000000057
 40
0.250000000000006
 40
0.250000000000006
 40
0.3750000000000062
 40
0.3750000000000062
 40
0.4375000000000068
 40
0.4375000000000068
 40
0.4687500000000071
 40
0.4687500000000071
 40
0.5000000000000074
 40
0.5000000000000074
 40
0.6250000000000087
 40
0.6250000000000087
 40
0.6875000000000088
 40
0.6875000000000088
 40
0.7187500000000093
 40
0.7187500000000093
 40
0.7500000000000089
 40
0.7500000000000089
 40
0.8750000000000044
 40
0.8750000000000044
 40
1.0
 40
1.0
 40
1.0
 40
1.0
 10
44.96559599199303
 20
199.5647396357125
 30
0.0
 10
46.91430406128264
 20
202.0375539694919
 30
0.0
 10
48.63663232178776
 20
204.6398309106688
 30
0.0
 10
50.89143716641316
 20
208.7312168949265
 30
0.0
 10
51.5879741729555
 20
210.126502694302
 30
0.0
 10
52.54902509541509
 20
212.2673291627899
 30
0.0
 10
52.8553989017267
 20
212.9889308996238
 30
0.0
 10
53.43978173655513
 20
214.4483556874022
 30
0.0
 10
53.71724007075905
 20
215.1850034261083
 30
0.0
 10
55.02217911625623
 20
218.877412553026
 30
0.0
 10
55.81356524873614
 20
221.8832947195462
 30
0.0
 10
56.63194094346118
 20
226.4679635623367
 30
0.0
 10
56.84297061611532
 20
228.0088915496928
 30
0.0
 10
57.06533800068627
 20
230.3396566301889
 30
0.0
 10
57.12374473733955
 20
231.119811192378
 30
0.0
 10
57.20862410793507
 20
232.6866894552366
 30
0.0
 10
57.235053144057
 20
233.4747047295557
 30
0.0
 10
57.28581370107433
 20
237.3965378459827
 30
0.0
 10
57.06974470961889
 20
240.499274263412
 30
0.0
 10
56.37288244664343
 20
245.1029423594433
 30
0.0
 10
56.07814941892496
 20
246.6290491175728
 30
0.0
 10
55.54107736577777
 20
248.9053589114494
 30
0.0
 10
55.34620499209463
 20
249.6619844660989
 30
0.0
 10
54.92429975770355
 20
251.170884070978
 30
0.0
 10
54.69671291548904
 20
251.9248174349619
 30
0.0
 10
53.48402355488202
 20
255.6615417585562
 30
0.0
 10
52.28203956567604
 20
258.5326155887097
 30
0.0
 10
49.43151187167563
 20
264.0468809284799
 30
0.0
 10
47.78298408649039
 20
266.6900805646868
 30
0.0
 10
45.90141757105206
 20
269.2143590465743
 30
0.0
  0
LWPOLYLINE
  5
D4
330
1F
100
AcDbEntity
  8
0
  6
Continuous
 62
     7
370
    25
100
AcDbPolyline
 90
        9
 70
   128
 43
0.0
 10
-46.5058399106
 20
198.3404479653
 10
-46.2030584827
 20
198.5791153979
 10
-45.912623841
 20
198.8080293677
 10
-45.6454684188
 20
199.0185731796
 10
-45.4116483818
 20
199.2028216213
 10
-45.2199650973
 20
199.3538392812
 10
-45.0776338367
 20
199.4659416084
 10
-44.9900121805
 20
199.5349088884
 10
-44.9603983508
 20
199.5581450805
  0
SPLINE
  5
D5
330
1F
100
AcDbEntity
  8
0
  6
Continuous
 62
     7
370
    25
100
AcDbSpline
210
0.0
220
0.0
230
1.0
 70
     8
 71
     3
 72
    44
 73
    40
 74
     0
 42
0.000000001
 43
0.00000001
 40
0.0
 40
0.0
 40
0.0
 40
0.0
 40
0.0624999999999998
 40
0.0624999999999998
 40
0.0937499999999998
 40
0.0937499999999998
 40
0.1249999999999997
 40
0.1249999999999997
 40
0.1874999999999992
 40
0.1874999999999992
 40
0.2499999999999988
 40
0.2499999999999988
 40
0.2812499999999987
 40
0.2812499999999987
 40
0.3124999999999986
 40
0.3124999999999986
 40
0.3749999999999988
 40
0.3749999999999988
 40
0.4374999999999989
 40
0.4374999999999989
 40
0.4687499999999989
 40
0.4687499999999989
 40
0.499999999999999
 40
0.499999999999999
 40
0.5624999999999992
 40
0.5624999999999992
 40
0.6249999999999993
 40
0.6249999999999993
 40
0.6874999999999996
 40
0.6874999999999996
 40
0.7499999999999997
 40
0.7499999999999997
 40
0.8124999999999999
 40
0.8124999999999999
 40
0.875
 40
0.875
 40
0.9375
 40
0.9375
 40
1.0
 40
1.0
 40
1.0
 40
1.0
 10
-44.96039835083364
 20
199.5581450805072
 30
0.0
 10
-43.61449470151135
 20
197.8507749568828
 30
0.0
 10
-42.17622579991352
 20
196.2256282933153
 30
0.0
 10
-39.88041284515382
 20
193.9111203937918
 30
0.0
 10
-39.09508757506386
 20
193.1634007231325
 30
0.0
 10
-37.49076130983212
 20
191.7198691318487
 30
0.0
 10
-36.67088975616077
 20
191.023176347192
 30
0.0
 10
-34.15895108473762
 20
189.0071825478679
 30
0.0
 10
-32.41472242865756
 20
187.7617360450398
 30
0.0
 10
-28.78730316057361
 20
185.4675965821702
 30
0.0
 10
-26.90412814577592
 20
184.4188815361625
 30
0.0
 10
-23.97127966557454
 20
182.998845779357
 30
0.0
 10
-22.98212364817164
 20
182.5543272890447
 30
0.0
 10
-20.9897272556856
 20
181.7256352152706
 30
0.0
 10
-19.98512162692057
 20
181.3407983132439
 30
0.0
 10
-16.94645791058502
 20
180.2734971636608
 30
0.0
 10
-14.88763017101715
 20
179.6779715822242
 30
0.0
 10
-10.70396089427942
 20
178.7186213607031
 30
0.0
 10
-8.579126937506732
 20
178.3547701101665
 30
0.0
 10
-5.340509370794161
 20
177.989284281541
 30
0.0
 10
-4.260388290203602
 20
177.8985519419124
 30
0.0
 10
-2.106154628572198
 20
177.7785845037513
 30
0.0
 10
-1.030871249766572
 20
177.7492169688845
 30
0.0
 10
2.189559333429294
 20
177.7516136230616
 30
0.0
 10
4.329303824664418
 20
177.8735958615034
 30
0.0
 10
8.594388378995118
 20
178.3580949314725
 30
0.0
 10
10.71973013405165
 20
178.720583512287
 30
0.0
 10
14.9554631946286
 20
179.6952130916458
 30
0.0
 10
17.02816647043441
 20
180.2988771939672
 30
0.0
 10
21.07704270672466
 20
181.7277787179434
 30
0.0
 10
23.05483950721983
 20
182.5534188911828
 30
0.0
 10
26.917204959676
 20
184.4269481653895
 30
0.0
 10
28.80178480541884
 20
185.4748105844462
 30
0.0
 10
32.47414378606994
 20
187.8013010774047
 30
0.0
 10
34.22781139016516
 20
189.0584326976319
 30
0.0
 10
37.57214582467485
 20
191.7506700989703
 30
0.0
 10
39.16351269769225
 20
193.1862540108793
 30
0.0
 10
42.18467722629183
 20
196.2363174120597
 30
0.0
 10
43.61449470158544
 20
197.8507749569783
 30
0.0
 10
44.96039835082384
 20
199.5581450804953
 30
0.0
  0
LWPOLYLINE
  5
D6
330
1F
100
AcDbEntity
  8
0
  6
Continuous
 62
     7
370
    25
100
AcDbPolyline
 90
        9
 70
   128
 43
0.0
 10
46.5058399106
 20
198.3404479653
 10
46.2030584827
 20
198.5791153979
 10
45.912623841
 20
198.8080293677
 10
45.6454684188
 20
199.0185731796
 10
45.4116483818
 20
199.2028216213
 10
45.2199650973
 20
199.3538392812
 10
45.0776338367
 20
199.4659416084
 10
44.9900121805
 20
199.5349088884
 10
44.9603983508
 20
199.5581450805
  0
SPLINE
  5
D7
330
1F
100
AcDbEntity
  8
0
  6
Continuous
 62
     7
370
    25
100
AcDbSpline
210
0.0
220
0.0
230
1.0
 70
     8
 71
     3
 72
     8
 73
     4
 74
     0
 42
0.000000001
 43
0.00000001
 40
0.0
 40
0.0
 40
0.0
 40
0.0
 40
0.0000315191188106
 40
0.0000315191188106
 40
0.0000315191188106
 40
0.0000315191188106
 10
-45.88257382588315
 20
269.239624984985
 30
0.0
 10
-45.88885738366095
 20
269.231204746628
 30
0.0
 10
-45.8951386403334
 20
269.2227827560596
 30
0.0
 10
-45.9014175710531
 20
269.2143590465735
 30
0.0
  0
SPLINE
  5
D8
330
1F
100
AcDbEntity
  8
0
  6
Continuous
 62
     7
370
    25
100
AcDbSpline
210
0.0
220
0.0
230
1.0
 70
     8
 71
     3
 72
     8
 73
     4
 74
     0
 42
0.000000001
 43
0.00000001
 40
0.0
 40
0.0
 40
0.0
 40
0.0
 40
0.0000315191188097
 40
0.0000315191188097
 40
0.0000315191188097
 40
0.0000315191188097
 10
45.90141757105207
 20
269.2143590465743
 30
0.0
 10
45.89513864033255
 20
269.2227827560602
 30
0.0
 10
45.88885738366029
 20
269.2312047466282
 30
0.0
 10
45.88257382588267
 20
269.239624984985
 30
0.0
  0
SPLINE
  5
D9
330
1F
100
AcDbEntity
  8
0
  6
Continuous
 62
     7
370
    25
100
AcDbSpline
210
0.0
220
0.0
230
1.0
 70
     8
 71
     3
 72
     8
 73
     4
 74
     0
 42
0.000000001
 43
0.00000001
 40
0.0
 40
0.0
 40
0.0
 40
0.0
 40
0.0000083966441651
 40
0.0000083966441651
 40
0.0000083966441651
 40
0.0000083966441651
 10
44.96039835082384
 20
199.5581450804953
 30
0.0
 10
44.9621310590428
 20
199.5603431384673
 30
0.0
 10
44.96386360631652
 20
199.5625413238155
 30
0.0
 10
44.96559599199302
 20
199.5647396357125
 30
0.0
  0
SPLINE
  5
DA
330
1F
100
AcDbEntity
  8
0
  6
Continuous
 62
     7
370
    25
100
AcDbSpline
210
0.0
220
0.0
230
1.0
 70
     8
 71
     3
 72
     8
 73
     4
 74
     0
 42
0.000000001
 43
0.00000001
 40
0.0
 40
0.0
 40
0.0
 40
0.0
 40
0.0000083966441427
 40
0.0000083966441427
 40
0.0000083966441427
 40
0.0000083966441427
 10
-44.96559599198895
 20
199.5647396357068
 30
0.0
 10
-44.96386360631708
 20
199.5625413238157
 30
0.0
 10
-44.96213105904798
 20
199.5603431384733
 30
0.0
 10
-44.96039835083364
 20
199.5581450805072
 30
0.0
  0
CIRCLE
  5
DB
330
1F
100
AcDbEntity
  8
0
  6
Continuous
 62
     7
370
    25
100
AcDbCircle
 10
0.0
 20
235.0
 30
0.0
 40
55.25000000000011
  0
CIRCLE
  5
DC
330
1F
100
AcDbEntity
  8
0
  6
Continuous
 62
     7
370
    25
100
AcDbCircle
 10
0.0
 20
235.0
 30
0.0
 40
46.9999999999998
  0
CIRCLE
  5
DD
330
1F
100
AcDbEntity
  8
0
  6
Continuous
 62
     7
370
    25
100
AcDbCircle
 10
0.0
 20
235.0
 30
0.0
 40
44.99999999999994
  0
LINE
  5
DE
330
1F
100
AcDbEntity
  8
0
  6
Continuous
 62
     7
370
    25
100
AcDbLine
 10
-442.0
 20
-338.0
 30
0.0
 11
-442.0
 21
338.0
 31
0.0
  0
LINE
  5
DF
330
1F
100
AcDbEntity
  8
0
  6
Continuous
 62
     7
370
    25
100
AcDbLine
 10
438.0
 20
-342.0
 30
0.0
 11
-438.0
 21
-342.0
 31
0.0
  0
LINE
  5
E0
330
1F
100
AcDbEntity
  8
0
  6
Continuous
 62
     7
370
    25
100
AcDbLine
 10
442.0
 20
338.0
 30
0.0
 11
442.0
 21
-338.0
 31
0.0
  0
LINE
  5
E1
330
1F
100
AcDbEntity
  8
0
  6
Continuous
 62
     7
370
    25
100
AcDbLine
 10
-438.0
 20
342.0
 30
0.0
 11
438.0
 21
342.0
 31
0.0
  0
LINE
  5
E2
330
1F
100
AcDbEntity
  8
0
  6
Continuous
 62
     7
370
    25
100
AcDbLine
 10
-495.0
 20
400.0
 30
0.0
 11
-495.0
 21
-400.0
 31
0.0
  0
LINE
  5
E3
330
1F
100
AcDbEntity
  8
0
  6
Continuous
 62
     7
370
    25
100
AcDbLine
 10
500.0
 20
395.0
 30
0.0
 11
-500.0
 21
395.0
 31
0.0
  0
LINE
  5
E4
330
1F
100
AcDbEntity
  8
0
  6
Continuous
 62
     7
370
    25
100
AcDbLine
 10
495.0
 20
-400.0
 30
0.0
 11
495.0
 21
400.0
 31
0.0
  0
LINE
  5
E5
330
1F
100
AcDbEntity
  8
0
  6
Continuous
 62
     7
370
    25
100
AcDbLine
 10
-500.0
 20
-395.0
 30
0.0
 11
500.0
 21
-395.0
 31
0.0
  0
LINE
  5
E6
330
1F
100
AcDbEntity
  8
0
  6
Continuous
 62
     7
370
    25
100
AcDbLine
 10
500.0
 20
395.0
 30
0.0
 11
500.0
 21
-395.0
 31
0.0
  0
LINE
  5
E7
330
1F
100
AcDbEntity
  8
0
  6
Continuous
 62
     7
370
    25
100
AcDbLine
 10
-438.0
 20
-340.0
 30
0.0
 11
438.0
 21
-340.0
 31
0.0
  0
LINE
  5
E8
330
1F
100
AcDbEntity
  8
0
  6
Continuous
 62
     7
370
    25
100
AcDbLine
 10
438.0
 20
-340.0
 30
0.0
 11
438.0
 21
-342.0
 31
0.0
  0
LINE
  5
E9
330
1F
100
AcDbEntity
  8
0
  6
Continuous
 62
     7
370
    25
100
AcDbLine
 10
-438.0
 20
-342.0
 30
0.0
 11
-438.0
 21
-340.0
 31
0.0
  0
LINE
  5
EA
330
1F
100
AcDbEntity
  8
0
  6
Continuous
 62
     7
370
    25
100
AcDbLine
 10
440.0
 20
-338.0
 30
0.0
 11
442.0
 21
-338.0
 31
0.0
  0
LINE
  5
EB
330
1F
100
AcDbEntity
  8
0
  6
Continuous
 62
     7
370
    25
100
AcDbLine
 10
-442.0
 20
-338.0
 30
0.0
 11
-440.0
 21
-338.0
 31
0.0
  0
LINE
  5
EC
330
1F
100
AcDbEntity
  8
0
  6
Continuous
 62
     7
370
    25
100
AcDbLine
 10
440.0
 20
-338.0
 30
0.0
 11
440.0
 21
338.0
 31
0.0
  0
LINE
  5
ED
330
1F
100
AcDbEntity
  8
0
  6
Continuous
 62
     7
370
    25
100
AcDbLine
 10
440.0
 20
338.0
 30
0.0
 11
442.0
 21
338.0
 31
0.0
  0
LINE
  5
EE
330
1F
100
AcDbEntity
  8
0
  6
Continuous
 62
     7
370
    25
100
AcDbLine
 10
-495.0
 20
400.0
 30
0.0
 11
495.0
 21
400.0
 31
0.0
  0
LINE
  5
EF
330
1F
100
AcDbEntity
  8
0
  6
Continuous
 62
     7
370
    25
100
AcDbLine
 10
438.0
 20
340.0
 30
0.0
 11
-438.0
 21
340.0
 31
0.0
  0
LINE
  5
F0
330
1F
100
AcDbEntity
  8
0
  6
Continuous
 62
     7
370
    25
100
AcDbLine
 10
-438.0
 20
342.0
 30
0.0
 11
-438.0
 21
340.0
 31
0.0
  0
LINE
  5
F1
330
1F
100
AcDbEntity
  8
0
  6
Continuous
 62
     7
370
    25
100
AcDbLine
 10
438.0
 20
340.0
 30
0.0
 11
438.0
 21
342.0
 31
0.0
  0
LINE
  5
F2
330
1F
100
AcDbEntity
  8
0
  6
Continuous
 62
     7
370
    25
100
AcDbLine
 10
-442.0
 20
338.0
 30
0.0
 11
-440.0
 21
338.0
 31
0.0
  0
LINE
  5
F3
330
1F
100
AcDbEntity
  8
0
  6
Continuous
 62
     7
370
    25
100
AcDbLine
 10
-440.0
 20
338.0
 30
0.0
 11
-440.0
 21
-338.0
 31
0.0
  0
LINE
  5
F4
330
1F
100
AcDbEntity
  8
0
  6
Continuous
 62
     7
370
    25
100
AcDbLine
 10
495.0
 20
-400.0
 30
0.0
 11
-495.0
 21
-400.0
 31
0.0
  0
LINE
  5
F5
330
1F
100
AcDbEntity
  8
0
  6
Continuous
 62
     7
370
    25
100
AcDbLine
 10
-500.0
 20
-395.0
 30
0.0
 11
-500.0
 21
395.0
 31
0.0
  0
LINE
  5
F6
330
1F
100
AcDbEntity
  8
0
  6
Continuous
 62
     7
370
    25
100
AcDbLine
 10
-426.0990174947
 20
340.0
 30
0.0
 11
-426.0996181272
 21
338.294878474
 31
0.0
  0
LINE
  5
F7
330
1F
100
AcDbEntity
  8
0
  6
Continuous
 62
     7
370
    25
100
AcDbLine
 10
426.0996181277
 20
338.294878474
 30
0.0
 11
426.0990174947
 21
340.0
 31
0.0
  0
LINE
  5
F8
330
1F
100
AcDbEntity
  8
0
  6
Continuous
 62
     7
370
    25
100
AcDbLine
 10
438.0000115395
 20
-338.0388768376
 30
0.0
 11
438.0000144716
 21
-337.5427489369
 31
0.0
  0
LINE
  5
F9
330
1F
100
AcDbEntity
  8
0
  6
Continuous
 62
     7
370
    25
100
AcDbLine
 10
-438.0000144716
 20
-337.5427489369
 30
0.0
 11
-438.0000115395
 21
-338.0388768376
 31
0.0
  0
LINE
  5
FA
330
1F
100
AcDbEntity
  8
0
  6
Continuous
 62
     7
370
    25
100
AcDbLine
 10
-47.43916079
 20
270.3968673937
 30
0.0
 11
-45.8825738259
 21
269.239624985
 31
0.0
  0
LINE
  5
FB
330
1F
100
AcDbEntity
  8
0
  6
Continuous
 62
     7
370
    25
100
AcDbLine
 10
45.8825738259
 20
269.239624985
 30
0.0
 11
47.4391607901
 21
270.3968673937
 31
0.0
  0
LINE
  5
FC
330
1F
100
AcDbEntity
  8
0
  6
Continuous
 62
     7
370
    25
100
AcDbLine
 10
-45.9014175711
 20
269.2143590466
 30
0.0
 11
-47.4578176033
 21
270.3755010439
 31
0.0
  0
LINE
  5
FD
330
1F
100
AcDbEntity
  8
0
  6
Continuous
 62
     7
370
    25
100
AcDbLine
 10
-46.5100930396
 20
198.3464493312
 30
0.0
 11
-44.965595992
 21
199.5647396357
 31
0.0
  0
LINE
  5
FE
330
1F
100
AcDbEntity
  8
0
  6
Continuous
 62
     7
370
    25
100
AcDbLine
 10
44.965595992
 20
199.5647396357
 30
0.0
 11
46.5100930396
 21
198.3464493312
 31
0.0
  0
LINE
  5
FF
330
1F
100
AcDbEntity
  8
0
  6
Continuous
 62
     7
370
    25
100
AcDbLine
 10
47.4578176033
 20
270.3755010439
 30
0.0
 11
45.9014175711
 21
269.2143590466
 31
0.0
  0
ARC
  5
100
330
1F
100
AcDbEntity
  8
0
  6
Continuous
 62
     7
370
    25
100
AcDbCircle
 10
-438.0
 20
-338.0
 30
0.0
 40
4.0
100
AcDbArc
 50
180.0
 51
270.0
  0
ARC
  5
101
330
1F
100
AcDbEntity
  8
0
  6
Continuous
 62
     7
370
    25
100
AcDbCircle
 10
438.0
 20
-338.0
 30
0.0
 40
3.999999999999943
100
AcDbArc
 50
270.0
 51
0.0
  0
ARC
  5
102
330
1F
100
AcDbEntity
  8
0
  6
Continuous
 62
     7
370
    25
100
AcDbCircle
 10
438.0
 20
338.0
 30
0.0
 40
3.999999999999829
100
AcDbArc
 50
360.0
 51
90.0
  0
ARC
  5
103
330
1F
100
AcDbEntity
  8
0
  6
Continuous
 62
     7
370
    25
100
AcDbCircle
 10
-438.0
 20
338.0
 30
0.0
 40
4.0
100
AcDbArc
 50
90.0
 51
180.0
  0
ARC
  5
104
330
1F
100
AcDbEntity
  8
0
  6
Continuous
 62
     7
370
    25
100
AcDbCircle
 10
438.0
 20
-338.0
 30
0.0
 40
2.0
100
AcDbArc
 50
270.0
 51
0.0
  0
ARC
  5
105
330
1F
100
AcDbEntity
  8
0
  6
Continuous
 62
     7
370
    25
100
AcDbCircle
 10
-438.0
 20
-338.0
 30
0.0
 40
2.0
100
AcDbArc
 50
180.0
 51
270.0
  0
ARC
  5
106
330
1F
100
AcDbEntity
  8
0
  6
Continuous
 62
     7
370
    25
100
AcDbCircle
 10
438.0
 20
338.0
 30
0.0
 40
2.000000000000057
100
AcDbArc
 50
0.0
 51
90.0
  0
ARC
  5
107
330
1F
100
AcDbEntity
  8
0
  6
Continuous
 62
     7
370
    25
100
AcDbCircle
 10
-438.0
 20
338.0
 30
0.0
 40
2.000000000000114
100
AcDbArc
 50
90.0
 51
180.0
  0
ARC
  5
108
330
1F
100
AcDbEntity
  8
0
  6
Continuous
 62
     7
370
    25
100
AcDbCircle
 10
-495.0
 20
395.0
 30
0.0
 40
5.0
100
AcDbArc
 50
90.0
 51
180.0
  0
ARC
  5
109
330
1F
100
AcDbEntity
  8
0
  6
Continuous
 62
     7
370
    25
100
AcDbCircle
 10
495.0
 20
395.0
 30
0.0
 40
5.0
100
AcDbArc
 50
0.0
 51
90.0
  0
ARC
  5
10A
330
1F
100
AcDbEntity
  8
0
  6
Continuous
 62
     7
370
    25
100
AcDbCircle
 10
495.0
 20
-395.0
 30
0.0
 40
5.0
100
AcDbArc
 50
270.0
 51
0.0
  0
ARC
  5
10B
330
1F
100
AcDbEntity
  8
0
  6
Continuous
 62
     7
370
    25
100
AcDbCircle
 10
-495.0
 20
-395.0
 30
0.0
 40
5.0
100
AcDbArc
 50
180.0
 51
270.0
  0
ARC
  5
10C
330
1F
100
AcDbEntity
  8
0
  6
Continuous
 62
     7
370
    25
100
AcDbCircle
 10
438.4998178291
 20
-312.2876615446
 30
0.0
 40
25.75606521565378
100
AcDbArc
 50
268.888083707
 51
273.3391273638
  0
ARC
  5
10D
330
1F
100
AcDbEntity
  8
0
  6
Continuous
 62
     7
370
    25
100
AcDbCircle
 10
438.499819587
 20
-311.7887551892
 30
0.0
 40
25.75884312445697
100
AcDbArc
 50
268.8882062464
 51
273.3387629375
  0
ARC
  5
10E
330
1F
100
AcDbEntity
  8
0
  6
Continuous
 62
     7
370
    25
100
AcDbCircle
 10
-438.4998178291
 20
-312.2876615446
 30
0.0
 40
25.75606521566231
100
AcDbArc
 50
266.6608726362
 51
271.111916293
  0
ARC
  5
10F
330
1F
100
AcDbEntity
  8
0
  6
Continuous
 62
     7
370
    25
100
AcDbCircle
 10
-438.4998195871
 20
-311.7887551896
 30
0.0
 40
25.75884312403134
100
AcDbArc
 50
266.6612370626
 51
271.1117937537
  0
ARC
  5
110
330
1F
100
AcDbEntity
  8
0
  6
Continuous
 62
     7
370
    25
100
AcDbCircle
 10
419.2156312247
 20
338.4996559385
 30
0.0
 40
18.84419121610767
100
AcDbArc
 50
358.4806679609
 51
4.5666308083
  0
ARC
  5
111
330
1F
100
AcDbEntity
  8
0
  6
Continuous
 62
     7
370
    25
100
AcDbCircle
 10
414.203443455
 20
338.4996814994
 30
0.0
 40
18.84897123189968
100
AcDbArc
 50
358.4811073954
 51
4.5653923276
  0
ARC
  5
112
330
1F
100
AcDbEntity
  8
0
  6
Continuous
 62
     7
370
    25
100
AcDbCircle
 10
-419.2156312247
 20
338.4996559385
 30
0.0
 40
18.84419121607356
100
AcDbArc
 50
175.4333691917
 51
181.5193320391
  0
ARC
  5
113
330
1F
100
AcDbEntity
  8
0
  6
Continuous
 62
     7
370
    25
100
AcDbCircle
 10
-414.2034434566
 20
338.4996814994
 30
0.0
 40
18.84897123026486
100
AcDbArc
 50
175.434607672
 51
181.5188926047
  0
LINE
  5
123
330
1B
100
AcDbEntity
 67
     1
  8
0
  6
Continuous
 62
     7
370
    25
100
AcDbLine
 10
495.0
 20
0.0
 30
0.0
 11
495.0
 21
25.0
 31
0.0
  0
LINE
  5
124
330
1B
100
AcDbEntity
 67
     1
  8
0
  6
Continuous
 62
     7
370
    25
100
AcDbLine
 10
-495.0
 20
25.0
 30
0.0
 11
-495.0
 21
0.0
 31
0.0
  0
LINE
  5
125
330
1B
100
AcDbEntity
 67
     1
  8
0
  6
Continuous
 62
     7
370
    25
100
AcDbLine
 10
500.0
 20
20.0
 30
0.0
 11
-500.0
 21
20.0
 31
0.0
  0
LINE
  5
126
330
1B
100
AcDbEntity
 67
     1
  8
0
  6
Continuous
 62
     7
370
    25
100
AcDbLine
 10
-500.0
 20
0.0
 30
0.0
 11
-500.0
 21
20.0
 31
0.0
  0
LINE
  5
127
330
1B
100
AcDbEntity
 67
     1
  8
0
  6
Continuous
 62
     7
370
    25
100
AcDbLine
 10
-500.0
 20
0.0
 30
0.0
 11
500.0
 21
0.0
 31
0.0
  0
LINE
  5
128
330
1B
100
AcDbEntity
 67
     1
  8
0
  6
Continuous
 62
     7
370
    25
100
AcDbLine
 10
-495.0
 20
25.0
 30
0.0
 11
495.0
 21
25.0
 31
0.0
  0
LINE
  5
129
330
1B
100
AcDbEntity
 67
     1
  8
0
  6
Continuous
 62
     7
370
    25
100
AcDbLine
 10
500.0
 20
20.0
 30
0.0
 11
500.0
 21
0.0
 31
0.0
  0
ARC
  5
12A
330
1B
100
AcDbEntity
 67
     1
  8
0
  6
Continuous
 62
     7
370
    25
100
AcDbCircle
 10
495.0
 20
20.0
 30
0.0
 40
5.0
100
AcDbArc
 50
0.0
 51
90.0
  0
ARC
  5
12B
330
1B
100
AcDbEntity
 67
     1
  8
0
  6
Continuous
 62
     7
370
    25
100
AcDbCircle
 10
-495.0
 20
20.0
 30
0.0
 40
5.0
100
AcDbArc
 50
90.0
 51
180.0
  0
VIEWPORT
  5
144
330
1B
100
AcDbEntity
 67
     1
  8
0
100
AcDbViewport
 10
0.0
 20
0.0
 30
0.0
 40
205.6
 41
156.0
 68
     1
 69
     1
 12
0.0
 22
0.0
 13
0.0
 23
0.0
 14
10.0
 24
10.0
 15
10.0
 25
10.0
 16
0.0
 26
0.0
 36
1.0
 17
0.0
 27
0.0
 37
0.0
 42
50.0
 43
0.0
 44
0.0
 45
816.0
 50
0.0
 51
0.0
 72
   100
 90
   557152
  1

281
     0
 71
     1
 74
     0
110
0.0
120
0.0
130
0.0
111
1.0
121
0.0
131
0.0
112
0.0
122
1.0
132
0.0
 79
     0
146
0.0
  0
ENDSEC
  0
SECTION
  2
OBJECTS
  0
DICTIONARY
  5
C
330
0
100
AcDbDictionary
281
     1
  3
ACAD_GROUP
350
D
  3
ACAD_LAYOUT
350
1A
  3
ACAD_MLINESTYLE
350
17
  3
ACAD_PLOTSETTINGS
350
19
  3
ACAD_PLOTSTYLENAME
350
E
  3
ACAD_SCALELIST
350
47
  0
DICTIONARY
  5
D
102
{ACAD_REACTORS
330
C
102
}
330
C
100
AcDbDictionary
281
     1
  0
DICTIONARY
  5
1A
102
{ACAD_REACTORS
330
C
102
}
330
C
100
AcDbDictionary
281
     1
  3
_Front
350
1E
  3
_Right
350
26
  3
Model
350
22
  0
DICTIONARY
  5
17
102
{ACAD_REACTORS
330
C
102
}
330
C
100
AcDbDictionary
281
     1
  3
Standard
350
18
  0
DICTIONARY
  5
19
102
{ACAD_REACTORS
330
C
102
}
330
C
100
AcDbDictionary
281
     1
  0
ACDBDICTIONARYWDFLT
  5
E
102
{ACAD_REACTORS
330
C
102
}
330
C
100
AcDbDictionary
281
     1
  3
Normal
350
F
100
AcDbDictionaryWithDefault
340
F
  0
DICTIONARY
  5
47
102
{ACAD_REACTORS
330
C
102
}
330
C
100
AcDbDictionary
281
     1
  3
A0
350
48
  3
A1
350
49
  3
A2
350
4A
  3
A3
350
4B
  3
A4
350
4C
  3
A5
350
4D
  3
A6
350
4E
  3
A7
350
4F
  3
A8
350
50
  3
A9
350
51
  3
B0
350
52
  3
B1
350
53
  3
B2
350
54
  3
B3
350
55
  3
B4
350
56
  3
B5
350
57
  3
B6
350
58
  3
B7
350
59
  3
B8
350
5A
  3
B9
350
5B
  3
C0
350
5C
  3
C1
350
5D
  3
C2
350
5E
  3
C3
350
5F
  3
C4
350
60
  3
C5
350
61
  3
C6
350
62
  3
C7
350
63
  3
C8
350
64
  3
C9
350
65
  3
D0
350
66
  3
D1
350
67
  3
D2
350
68
  0
LAYOUT
  5
1E
102
{ACAD_REACTORS
330
1A
102
}
330
1A
100
AcDbPlotSettings
  1

  2
none_device
  4
ISO_A4_(210.00_x_297.00_MM)
  6

 40
7.5
 41
20.0
 42
7.5
 43
20.0
 44
210.0
 45
297.0
 46
0.0
 47
0.0
 48
0.0
 49
0.0
140
0.0
141
0.0
142
1.0
143
3.8910505837
 70
   688
 72
     1
 73
     1
 74
     1
  7

 75
     0
147
0.257
148
500.0
149
0.0
100
AcDbLayout
  1
_Front
 70
     1
 71
     1
 10
-577.8210116732
 20
-29.1828793774
 11
577.8210116732
 21
787.9377431907
 12
0.0
 22
0.0
 32
0.0
 14
-500.0
 24
0.0
 34
0.0
 15
500.0
 25
25.0
 35
0.0
146
0.0
 13
0.0
 23
0.0
 33
0.0
 16
1.0
 26
0.0
 36
0.0
 17
0.0
 27
1.0
 37
0.0
 76
     0
330
1B
331
144
  0
LAYOUT
  5
26
102
{ACAD_REACTORS
330
1A
102
}
330
1A
100
AcDbPlotSettings
  1

  2
none_device
  4
ISO_A4_(210.00_x_297.00_MM)
  6

 40
7.5
 41
20.0
 42
7.5
 43
20.0
 44
210.0
 45
297.0
 46
0.0
 47
0.0
 48
0.0
 49
0.0
140
0.0
141
0.0
142
1.0
143
3.8910505837
 70
   688
 72
     1
 73
     1
 74
     1
  7

 75
     0
147
0.257
148
500.0
149
0.0
100
AcDbLayout
  1
_Right
 70
     1
 71
     2
 10
0.0
 20
0.0
 11
0.0
 21
0.0
 12
0.0
 22
0.0
 32
0.0
 14
0.0
 24
0.0
 34
0.0
 15
0.0
 25
0.0
 35
0.0
146
0.0
 13
0.0
 23
0.0
 33
0.0
 16
1.0
 26
0.0
 36
0.0
 17
0.0
 27
1.0
 37
0.0
 76
     0
330
23
331
146
  0
LAYOUT
  5
22
102
{ACAD_REACTORS
330
1A
102
}
330
1A
100
AcDbPlotSettings
  1

  2
none_device
  4
ANSI_A_(11.00_x_8.50_Inches)
  6

 40
6.35
 41
19.05
 42
6.35000508
 43
19.05000254
 44
279.4
 45
215.9
 46
133.34999746
 47
88.89999873
 48
0.0
 49
0.0
140
0.0
141
0.0
142
0.01051875
143
1.0
 70
  1696
 72
     0
 73
     0
 74
     0
  7

 75
     0
147
0.0179189148
148
-1300.4909072572
149
0.0
100
AcDbLayout
  1
Model
 70
     1
 71
     0
 10
0.0
 20
0.0
 11
420.0
 21
297.0
 12
0.0
 22
0.0
 32
0.0
 14
-500.0
 24
-400.0
 34
0.0
 15
500.0
 25
400.0
 35
0.0
146
0.0
 13
0.0
 23
0.0
 33
0.0
 16
1.0
 26
0.0
 36
0.0
 17
0.0
 27
1.0
 37
0.0
 76
     0
330
1F
331
29
  0
MLINESTYLE
  5
18
102
{ACAD_REACTORS
330
17
102
}
330
17
100
AcDbMlineStyle
  2
Standard
 70
     0
  3

 62
   256
 51
90.0
 52
90.0
 71
     2
 49
0.5
 62
   256
  6
BYLAYER
 49
-0.5
 62
   256
  6
BYLAYER
  0
ACDBPLACEHOLDER
  5
F
102
{ACAD_REACTORS
330
E
102
}
330
E
  0
SCALE
  5
48
102
{ACAD_REACTORS
330
47
102
}
330
47
100
AcDbScale
 70
     0
300
1:1
140
1.0
141
1.0
290
     1
  0
SCALE
  5
49
102
{ACAD_REACTORS
330
47
102
}
330
47
100
AcDbScale
 70
     0
300
1:2
140
1.0
141
2.0
290
     0
  0
SCALE
  5
4A
102
{ACAD_REACTORS
330
47
102
}
330
47
100
AcDbScale
 70
     0
300
1:4
140
1.0
141
4.0
290
     0
  0
SCALE
  5
4B
102
{ACAD_REACTORS
330
47
102
}
330
47
100
AcDbScale
 70
     0
300
1:5
140
1.0
141
5.0
290
     0
  0
SCALE
  5
4C
102
{ACAD_REACTORS
330
47
102
}
330
47
100
AcDbScale
 70
     0
300
1:8
140
1.0
141
8.0
290
     0
  0
SCALE
  5
4D
102
{ACAD_REACTORS
330
47
102
}
330
47
100
AcDbScale
 70
     0
300
1:10
140
1.0
141
10.0
290
     0
  0
SCALE
  5
4E
102
{ACAD_REACTORS
330
47
102
}
330
47
100
AcDbScale
 70
     0
300
1:16
140
1.0
141
16.0
290
     0
  0
SCALE
  5
4F
102
{ACAD_REACTORS
330
47
102
}
330
47
100
AcDbScale
 70
     0
300
1:20
140
1.0
141
20.0
290
     0
  0
SCALE
  5
50
102
{ACAD_REACTORS
330
47
102
}
330
47
100
AcDbScale
 70
     0
300
1:30
140
1.0
141
30.0
290
     0
  0
SCALE
  5
51
102
{ACAD_REACTORS
330
47
102
}
330
47
100
AcDbScale
 70
     0
300
1:40
140
1.0
141
40.0
290
     0
  0
SCALE
  5
52
102
{ACAD_REACTORS
330
47
102
}
330
47
100
AcDbScale
 70
     0
300
1:50
140
1.0
141
50.0
290
     0
  0
SCALE
  5
53
102
{ACAD_REACTORS
330
47
102
}
330
47
100
AcDbScale
 70
     0
300
1:100
140
1.0
141
100.0
290
     0
  0
SCALE
  5
54
102
{ACAD_REACTORS
330
47
102
}
330
47
100
AcDbScale
 70
     0
300
2:1
140
2.0
141
1.0
290
     0
  0
SCALE
  5
55
102
{ACAD_REACTORS
330
47
102
}
330
47
100
AcDbScale
 70
     0
300
4:1
140
4.0
141
1.0
290
     0
  0
SCALE
  5
56
102
{ACAD_REACTORS
330
47
102
}
330
47
100
AcDbScale
 70
     0
300
8:1
140
8.0
141
1.0
290
     0
  0
SCALE
  5
57
102
{ACAD_REACTORS
330
47
102
}
330
47
100
AcDbScale
 70
     0
300
10:1
140
10.0
141
1.0
290
     0
  0
SCALE
  5
58
102
{ACAD_REACTORS
330
47
102
}
330
47
100
AcDbScale
 70
     0
300
100:1
140
100.0
141
1.0
290
     0
  0
SCALE
  5
59
102
{ACAD_REACTORS
330
47
102
}
330
47
100
AcDbScale
 70
     0
300
1/128" = 1'-0"
140
0.0078125
141
12.0
290
     0
  0
SCALE
  5
5A
102
{ACAD_REACTORS
330
47
102
}
330
47
100
AcDbScale
 70
     0
300
1/64" = 1'-0"
140
0.015625
141
12.0
290
     0
  0
SCALE
  5
5B
102
{ACAD_REACTORS
330
47
102
}
330
47
100
AcDbScale
 70
     0
300
1/32" = 1'-0"
140
0.03125
141
12.0
290
     0
  0
SCALE
  5
5C
102
{ACAD_REACTORS
330
47
102
}
330
47
100
AcDbScale
 70
     0
300
1/16" = 1'-0"
140
0.0625
141
12.0
290
     0
  0
SCALE
  5
5D
102
{ACAD_REACTORS
330
47
102
}
330
47
100
AcDbScale
 70
     0
300
3/32" = 1'-0"
140
0.09375
141
12.0
290
     0
  0
SCALE
  5
5E
102
{ACAD_REACTORS
330
47
102
}
330
47
100
AcDbScale
 70
     0
300
1/8" = 1'-0"
140
0.125
141
12.0
290
     0
  0
SCALE
  5
5F
102
{ACAD_REACTORS
330
47
102
}
330
47
100
AcDbScale
 70
     0
300
3/16" = 1'-0"
140
0.1875
141
12.0
290
     0
  0
SCALE
  5
60
102
{ACAD_REACTORS
330
47
102
}
330
47
100
AcDbScale
 70
     0
300
1/4" = 1'-0"
140
0.25
141
12.0
290
     0
  0
SCALE
  5
61
102
{ACAD_REACTORS
330
47
102
}
330
47
100
AcDbScale
 70
     0
300
3/8" = 1'-0"
140
0.375
141
12.0
290
     0
  0
SCALE
  5
62
102
{ACAD_REACTORS
330
47
102
}
330
47
100
AcDbScale
 70
     0
300
1/2" = 1'-0"
140
0.5
141
12.0
290
     0
  0
SCALE
  5
63
102
{ACAD_REACTORS
330
47
102
}
330
47
100
AcDbScale
 70
     0
300
3/4" = 1'-0"
140
0.75
141
12.0
290
     0
  0
SCALE
  5
64
102
{ACAD_REACTORS
330
47
102
}
330
47
100
AcDbScale
 70
     0
300
1" = 1'-0"
140
1.0
141
12.0
290
     0
  0
SCALE
  5
65
102
{ACAD_REACTORS
330
47
102
}
330
47
100
AcDbScale
 70
     0
300
1-1/2" = 1'-0"
140
1.5
141
12.0
290
     0
  0
SCALE
  5
66
102
{ACAD_REACTORS
330
47
102
}
330
47
100
AcDbScale
 70
     0
300
3" = 1'-0"
140
3.0
141
12.0
290
     0
  0
SCALE
  5
67
102
{ACAD_REACTORS
330
47
102
}
330
47
100
AcDbScale
 70
     0
300
6" = 1'-0"
140
6.0
141
12.0
290
     0
  0
SCALE
  5
68
102
{ACAD_REACTORS
330
47
102
}
330
47
100
AcDbScale
 70
     0
300
1'-0" = 1'-0"
140
12.0
141
12.0
290
     0
  0
ENDSEC
  0
EOF
