  0
SECTION
  2
HEADER
  9
$ACADVER
  1
AC1015
  9
$ACADMAINTVER
 70
     6
  9
$DWGCODEPAGE
  3
ANSI_1252
  9
$INSBASE
 10
0.0
 20
0.0
 30
0.0
  9
$EXTMIN
 10
-305.0461917755
 20
-238.2384401098
 30
0.0
  9
$EXTMAX
 10
196.9538082245
 20
201.7615598902
 30
0.0
  9
$LIMMIN
 10
0.0
 20
0.0
  9
$LIMMAX
 10
420.0
 20
297.0
  9
$ORTHOMODE
 70
     0
  9
$REGENMODE
 70
     1
  9
$FILLMODE
 70
     1
  9
$QTEXTMODE
 70
     0
  9
$MIRRTEXT
 70
     1
  9
$LTSCALE
 40
1.0
  9
$ATTMODE
 70
     1
  9
$TEXTSIZE
 40
3.5
  9
$TRACEWID
 40
1.0
  9
$TEXTSTYLE
  7
Standard
  9
$CLAYER
  8
0
  9
$CELTYPE
  6
ByLayer
  9
$CECOLOR
 62
   256
  9
$CELTSCALE
 40
1.0
  9
$DISPSILH
 70
     0
  9
$DIMSCALE
 40
1.0
  9
$DIMASZ
 40
3.302
  9
$DIMEXO
 40
1.0
  9
$DIMDLI
 40
3.75
  9
$DIMRND
 40
0.0
  9
$DIMDLE
 40
0.0
  9
$DIMEXE
 40
1.0
  9
$DIMTP
 40
0.0
  9
$DIMTM
 40
0.0
  9
$DIMTXT
 40
3.5
  9
$DIMCEN
 40
2.5
  9
$DIMTSZ
 40
0.0
  9
$DIMTOL
 70
     0
  9
$DIMLIM
 70
     0
  9
$DIMTIH
 70
     1
  9
$DIMTOH
 70
     1
  9
$DIMSE1
 70
     0
  9
$DIMSE2
 70
     0
  9
$DIMTAD
 70
     1
  9
$DIMZIN
 70
     1
  9
$DIMBLK
  1

  9
$DIMASO
 70
     1
  9
$DIMSHO
 70
     1
  9
$DIMPOST
  1

  9
$DIMAPOST
  1

  9
$DIMALT
 70
     0
  9
$DIMALTD
 70
     3
  9
$DIMALTF
 40
0.0393700787
  9
$DIMLFAC
 40
1.0
  9
$DIMTOFL
 70
     1
  9
$DIMTVP
 40
0.0
  9
$DIMTIX
 70
     0
  9
$DIMSOXD
 70
     0
  9
$DIMSAH
 70
     0
  9
$DIMBLK1
  1

  9
$DIMBLK2
  1

  9
$DIMSTYLE
  2
ISO-25
  9
$DIMCLRD
 70
     0
  9
$DIMCLRE
 70
     0
  9
$DIMCLRT
 70
     0
  9
$DIMTFAC
 40
1.0
  9
$DIMGAP
 40
1.524
  9
$DIMJUST
 70
     0
  9
$DIMSD1
 70
     0
  9
$DIMSD2
 70
     0
  9
$DIMTOLJ
 70
     0
  9
$DIMTZIN
 70
     1
  9
$DIMALTZ
 70
     0
  9
$DIMALTTZ
 70
     0
  9
$DIMUPT
 70
     0
  9
$DIMDEC
 70
     2
  9
$DIMTDEC
 70
     2
  9
$DIMALTU
 70
     2
  9
$DIMALTTD
 70
     3
  9
$DIMTXSTY
  7
Standard
  9
$DIMAUNIT
 70
     0
  9
$DIMADEC
 70
     2
  9
$DIMALTRND
 40
0.0
  9
$DIMAZIN
 70
     0
  9
$DIMDSEP
 70
    44
  9
$DIMATFIT
 70
     3
  9
$DIMFRAC
 70
     0
  9
$DIMLDRBLK
  1

  9
$DIMLUNIT
 70
     2
  9
$DIMLWD
 70
    -2
  9
$DIMLWE
 70
    -2
  9
$DIMTMOVE
 70
     0
  9
$LUNITS
 70
     2
  9
$LUPREC
 70
     2
  9
$SKETCHINC
 40
1.0
  9
$FILLETRAD
 40
10.0
  9
$AUNITS
 70
     0
  9
$AUPREC
 70
     2
  9
$MENU
  1
.
  9
$ELEVATION
 40
0.0
  9
$PELEVATION
 40
0.0
  9
$THICKNESS
 40
0.0
  9
$LIMCHECK
 70
     0
  9
$CHAMFERA
 40
0.0
  9
$CHAMFERB
 40
0.0
  9
$CHAMFERC
 40
0.0
  9
$CHAMFERD
 40
0.0
  9
$SKPOLY
 70
     0
  9
$TDCREATE
 40
2459285.71723559
  9
$TDUCREATE
 40
2459285.71723559
  9
$TDUPDATE
 40
2459285.717272199
  9
$TDUUPDATE
 40
2459285.717272199
  9
$TDINDWG
 40
0.0000000116
  9
$TDUSRTIMER
 40
0.0000000116
  9
$USRTIMER
 70
     1
  9
$ANGBASE
 50
0.0
  9
$ANGDIR
 70
     0
  9
$PDMODE
 70
     0
  9
$PDSIZE
 40
-1.0
  9
$PLINEWID
 40
0.0
  9
$SPLFRAME
 70
     0
  9
$SPLINETYPE
 70
     6
  9
$SPLINESEGS
 70
     8
  9
$HANDSEED
  5
433
  9
$SURFTAB1
 70
     6
  9
$SURFTAB2
 70
     6
  9
$SURFTYPE
 70
     6
  9
$SURFU
 70
     6
  9
$SURFV
 70
     6
  9
$UCSBASE
  2

  9
$UCSNAME
  2

  9
$UCSORG
 10
0.0
 20
0.0
 30
0.0
  9
$UCSXDIR
 10
1.0
 20
0.0
 30
0.0
  9
$UCSYDIR
 10
0.0
 20
1.0
 30
0.0
  9
$UCSORTHOREF
  2

  9
$UCSORTHOVIEW
 70
     0
  9
$UCSORGTOP
 10
0.0
 20
0.0
 30
0.0
  9
$UCSORGBOTTOM
 10
0.0
 20
0.0
 30
0.0
  9
$UCSORGLEFT
 10
0.0
 20
0.0
 30
0.0
  9
$UCSORGRIGHT
 10
0.0
 20
0.0
 30
0.0
  9
$UCSORGFRONT
 10
0.0
 20
0.0
 30
0.0
  9
$UCSORGBACK
 10
0.0
 20
0.0
 30
0.0
  9
$PUCSBASE
  2

  9
$PUCSNAME
  2

  9
$PUCSORG
 10
0.0
 20
0.0
 30
0.0
  9
$PUCSXDIR
 10
1.0
 20
0.0
 30
0.0
  9
$PUCSYDIR
 10
0.0
 20
1.0
 30
0.0
  9
$PUCSORTHOREF
  2

  9
$PUCSORTHOVIEW
 70
     0
  9
$PUCSORGTOP
 10
0.0
 20
0.0
 30
0.0
  9
$PUCSORGBOTTOM
 10
0.0
 20
0.0
 30
0.0
  9
$PUCSORGLEFT
 10
0.0
 20
0.0
 30
0.0
  9
$PUCSORGRIGHT
 10
0.0
 20
0.0
 30
0.0
  9
$PUCSORGFRONT
 10
0.0
 20
0.0
 30
0.0
  9
$PUCSORGBACK
 10
0.0
 20
0.0
 30
0.0
  9
$USERI1
 70
     0
  9
$USERI2
 70
     0
  9
$USERI3
 70
     0
  9
$USERI4
 70
     0
  9
$USERI5
 70
     0
  9
$USERR1
 40
0.0
  9
$USERR2
 40
0.0
  9
$USERR3
 40
0.0
  9
$USERR4
 40
0.0
  9
$USERR5
 40
0.0
  9
$WORLDVIEW
 70
     1
  9
$SHADEDGE
 70
     3
  9
$SHADEDIF
 70
    70
  9
$TILEMODE
 70
     1
  9
$MAXACTVP
 70
    64
  9
$PINSBASE
 10
0.0
 20
0.0
 30
0.0
  9
$PLIMCHECK
 70
     0
  9
$PEXTMIN
 10
-196.9538082245
 20
-238.2384401098
 30
0.0
  9
$PEXTMAX
 10
305.0461917755
 20
201.7615598902
 30
0.0
  9
$PLIMMIN
 10
-242.0820133527
 20
-255.1615170329
  9
$PLIMMAX
 10
428.0718328011
 20
218.6846368133
  9
$UNITMODE
 70
     0
  9
$VISRETAIN
 70
     1
  9
$PLINEGEN
 70
     0
  9
$PSLTSCALE
 70
     1
  9
$TREEDEPTH
 70
  3020
  9
$CMLSTYLE
  2
Standard
  9
$CMLJUST
 70
     0
  9
$CMLSCALE
 40
20.0
  9
$PROXYGRAPHICS
 70
     1
  9
$MEASUREMENT
 70
     1
  9
$CELWEIGHT
370
    -1
  9
$ENDCAPS
280
     0
  9
$JOINSTYLE
280
     0
  9
$LWDISPLAY
290
     1
  9
$INSUNITS
 70
     4
  9
$HYPERLINKBASE
  1

  9
$STYLESHEET
  1

  9
$XEDIT
290
     1
  9
$CEPSNTYPE
380
     0
  9
$PSTYLEMODE
290
     1
  9
$FINGERPRINTGUID
  2
{191eec1d-395b-4541-bfa1-eb98df4ae066}
  9
$VERSIONGUID
  2
{FAEB1C32-E019-11D5-929B-00C0DF256EC4}
  9
$EXTNAMES
290
     1
  9
$PSVPSCALE
 40
0.0
  9
$OLESTARTUP
290
     0
  0
ENDSEC
  0
SECTION
  2
CLASSES
  0
CLASS
  1
ACDBDICTIONARYWDFLT
  2
AcDbDictionaryWithDefault
  3
ObjectDBX Classes
 90
        0
280
     0
281
     0
  0
CLASS
  1
VISUALSTYLE
  2
AcDbVisualStyle
  3
ObjectDBX Classes
 90
     4095
280
     0
281
     0
  0
CLASS
  1
MATERIAL
  2
AcDbMaterial
  3
ObjectDBX Classes
 90
     1153
280
     0
281
     0
  0
CLASS
  1
SCALE
  2
AcDbScale
  3
ObjectDBX Classes
 90
     1153
280
     0
281
     0
  0
CLASS
  1
TABLESTYLE
  2
AcDbTableStyle
  3
ObjectDBX Classes
 90
     4095
280
     0
281
     0
  0
CLASS
  1
MLEADERSTYLE
  2
AcDbMLeaderStyle
  3
ACDB_MLEADERSTYLE_CLASS
 90
     4095
280
     0
281
     0
  0
CLASS
  1
SUN
  2
AcDbSun
  3
SCENEOE
 90
     1153
280
     0
281
     0
  0
CLASS
  1
ACDBPLACEHOLDER
  2
AcDbPlaceHolder
  3
ObjectDBX Classes
 90
        0
280
     0
281
     0
  0
CLASS
  1
LAYOUT
  2
AcDbLayout
  3
ObjectDBX Classes
 90
        0
280
     0
281
     0
  0
ENDSEC
  0
SECTION
  2
TABLES
  0
TABLE
  2
VPORT
  5
8
330
0
100
AcDbSymbolTable
 70
     1
  0
VPORT
  5
29
330
8
100
AcDbSymbolTableRecord
100
AcDbViewportTableRecord
  2
*Active
 70
     0
 10
0.0
 20
0.0
 11
1.0
 21
1.0
 12
-54.0461917755
 22
-18.2384401098
 13
0.0
 23
0.0
 14
10.0
 24
10.0
 15
10.0
 25
10.0
 16
0.0
 26
0.0
 36
1.0
 17
0.0
 27
0.0
 37
0.0
 40
448.8
 41
1.1409090909
 42
50.0
 43
0.0
 44
0.0
 50
0.0
 51
0.0
 71
     0
 72
   100
 73
     1
 74
     3
 75
     0
 76
     0
 77
     0
 78
     0
281
     0
 65
     1
110
0.0
120
0.0
130
0.0
111
1.0
121
0.0
131
0.0
112
0.0
122
1.0
132
0.0
 79
     0
146
0.0
  0
ENDTAB
  0
TABLE
  2
LTYPE
  5
5
330
0
100
AcDbSymbolTable
 70
     6
  0
LTYPE
  5
14
330
5
100
AcDbSymbolTableRecord
100
AcDbLinetypeTableRecord
  2
ByBlock
 70
     0
  3

 72
    65
 73
     0
 40
0.0
  0
LTYPE
  5
15
330
5
100
AcDbSymbolTableRecord
100
AcDbLinetypeTableRecord
  2
ByLayer
 70
     0
  3

 72
    65
 73
     0
 40
0.0
  0
LTYPE
  5
16
330
5
100
AcDbSymbolTableRecord
100
AcDbLinetypeTableRecord
  2
Continuous
 70
     0
  3
Solid line
 72
    65
 73
     0
 40
0.0
  0
LTYPE
  5
6E
330
5
100
AcDbSymbolTableRecord
100
AcDbLinetypeTableRecord
  2
HIDDEN
 70
     0
  3
Hidden __ __ __ __ __ __ __ __ __ __ __ __ __ __
 72
    65
 73
     2
 40
1.905
 49
1.27
 74
     0
 49
-0.635
 74
     0
  0
LTYPE
  5
6F
330
5
100
AcDbSymbolTableRecord
100
AcDbLinetypeTableRecord
  2
PHANTOM
 70
     0
  3
Phantom ______  __  __  ______  __  __  ______
 72
    65
 73
     6
 40
12.7
 49
6.35
 74
     0
 49
-1.27
 74
     0
 49
1.27
 74
     0
 49
-1.27
 74
     0
 49
1.27
 74
     0
 49
-1.27
 74
     0
  0
LTYPE
  5
70
330
5
100
AcDbSymbolTableRecord
100
AcDbLinetypeTableRecord
  2
CENTER
 70
     0
  3
Center ____ _ ____ _ ____ _ ____ _ ____ _ ____
 72
    65
 73
     4
 40
10.16
 49
6.35
 74
     0
 49
-1.27
 74
     0
 49
1.27
 74
     0
 49
-1.27
 74
     0
  0
LTYPE
  5
71
330
5
100
AcDbSymbolTableRecord
100
AcDbLinetypeTableRecord
  2
CENTERX2
 70
     0
  3
Center (2x) ________  __  ________  __  _____
 72
    65
 73
     4
 40
20.32
 49
12.7
 74
     0
 49
-2.54
 74
     0
 49
2.54
 74
     0
 49
-2.54
 74
     0
  0
LTYPE
  5
72
330
5
100
AcDbSymbolTableRecord
100
AcDbLinetypeTableRecord
  2
DOT2
 70
     0
  3
Dot (.5x) ........................................
 72
    65
 73
     2
 40
0.635
 49
0.0
 74
     0
 49
-0.635
 74
     0
  0
ENDTAB
  0
TABLE
  2
LAYER
  5
2
330
0
100
AcDbSymbolTable
 70
     1
  0
LAYER
  5
10
330
2
100
AcDbSymbolTableRecord
100
AcDbLayerTableRecord
  2
0
 70
     0
 62
     7
  6
Continuous
370
    -3
390
F
  0
ENDTAB
  0
TABLE
  2
STYLE
  5
3
330
0
100
AcDbSymbolTable
 70
     1
  0
STYLE
  5
11
330
3
100
AcDbSymbolTableRecord
100
AcDbTextStyleTableRecord
  2
Standard
 70
     0
 40
0.0
 41
1.0
 50
0.0
 71
     0
 42
3.5
  3
txt
  4

  0
ENDTAB
  0
TABLE
  2
VIEW
  5
6
330
0
100
AcDbSymbolTable
 70
     0
  0
ENDTAB
  0
TABLE
  2
UCS
  5
7
330
0
100
AcDbSymbolTable
 70
     0
  0
ENDTAB
  0
TABLE
  2
APPID
  5
9
330
0
100
AcDbSymbolTable
 70
     1
  0
APPID
  5
12
330
9
100
AcDbSymbolTableRecord
100
AcDbRegAppTableRecord
  2
ACAD
 70
     0
  0
ENDTAB
  0
TABLE
  2
DIMSTYLE
  5
A
330
0
100
AcDbSymbolTable
 70
     1
100
AcDbDimStyleTable
  0
DIMSTYLE
105
27
330
A
100
AcDbSymbolTableRecord
100
AcDbDimStyleTableRecord
  2
ISO-25
 70
     0
 41
2.5
 42
0.625
 43
3.75
 44
1.25
 73
     0
 74
     0
 77
     1
 78
     8
140
2.5
141
2.5
143
0.0393700787
147
0.625
171
     3
172
     1
178
     0
271
     2
272
     2
274
     3
278
    44
283
     0
284
     8
340
11
  0
ENDTAB
  0
TABLE
  2
BLOCK_RECORD
  5
1
330
0
100
AcDbSymbolTable
 70
     7
  0
BLOCK_RECORD
  5
1F
330
1
100
AcDbSymbolTableRecord
100
AcDbBlockTableRecord
  2
*Model_Space
340
22
  0
BLOCK_RECORD
  5
1B
330
1
100
AcDbSymbolTableRecord
100
AcDbBlockTableRecord
  2
*Paper_Space
340
1E
  0
BLOCK_RECORD
  5
23
330
1
100
AcDbSymbolTableRecord
100
AcDbBlockTableRecord
  2
*Paper_Space0
340
26
  0
BLOCK_RECORD
  5
196
330
1
100
AcDbSymbolTableRecord
100
AcDbBlockTableRecord
  2
*Paper_Space1
340
197
  0
BLOCK_RECORD
  5
1D9
330
1
100
AcDbSymbolTableRecord
100
AcDbBlockTableRecord
  2
*Paper_Space2
340
1DA
  0
BLOCK_RECORD
  5
1FD
330
1
100
AcDbSymbolTableRecord
100
AcDbBlockTableRecord
  2
*Paper_Space3
340
1FE
  0
BLOCK_RECORD
  5
26D
330
1
100
AcDbSymbolTableRecord
100
AcDbBlockTableRecord
  2
*Paper_Space4
340
26E
  0
BLOCK_RECORD
  5
302
330
1
100
AcDbSymbolTableRecord
100
AcDbBlockTableRecord
  2
*Paper_Space5
340
303
  0
BLOCK_RECORD
  5
396
330
1
100
AcDbSymbolTableRecord
100
AcDbBlockTableRecord
  2
*Paper_Space6
340
397
  0
ENDTAB
  0
ENDSEC
  0
SECTION
  2
BLOCKS
  0
BLOCK
  5
20
330
1F
100
AcDbEntity
  8
0
100
AcDbBlockBegin
  2
*Model_Space
 70
     0
 10
0.0
 20
0.0
 30
0.0
  3
*Model_Space
  1

  0
ENDBLK
  5
21
330
1F
100
AcDbEntity
  8
0
100
AcDbBlockEnd
  0
BLOCK
  5
1C
330
1B
100
AcDbEntity
 67
     1
  8
0
100
AcDbBlockBegin
  2
*Paper_Space
 70
     0
 10
0.0
 20
0.0
 30
0.0
  3
*Paper_Space
  1

  0
ENDBLK
  5
1D
330
1B
100
AcDbEntity
 67
     1
  8
0
100
AcDbBlockEnd
  0
BLOCK
  5
24
330
23
100
AcDbEntity
  8
0
100
AcDbBlockBegin
  2
*Paper_Space0
 70
     0
 10
0.0
 20
0.0
 30
0.0
  3
*Paper_Space0
  1

  0
SPLINE
  5
169
330
23
100
AcDbEntity
  8
0
  6
Continuous
 62
     7
370
    25
100
AcDbSpline
210
0.0
220
0.0
230
1.0
 70
     8
 71
     3
 72
    14
 73
    10
 74
     0
 42
0.000000001
 43
0.00000001
 40
0.0
 40
0.0
 40
0.0
 40
0.0
 40
0.25
 40
0.25
 40
0.5
 40
0.5
 40
0.75
 40
0.75
 40
1.0
 40
1.0
 40
1.0
 40
1.0
 10
247.528808590711
 20
-238.238440109797
 30
0.0
 10
247.6466597209087
 20
-238.2384401097969
 30
0.0
 10
247.773806349889
 20
-238.2169613709835
 30
0.0
 10
248.0200002506567
 20
-238.1194954507352
 30
0.0
 10
248.1382842989597
 20
-238.0431779639213
 30
0.0
 10
248.3335464448353
 20
-237.8479158180457
 30
0.0
 10
248.4098639316494
 20
-237.7296317697427
 30
0.0
 10
248.5073298518976
 20
-237.4834378689749
 30
0.0
 10
248.528808590711
 20
-237.3562912399948
 30
0.0
 10
248.528808590711
 20
-237.238440109797
 30
0.0
  0
SPLINE
  5
16B
330
23
100
AcDbEntity
  8
0
  6
Continuous
 62
     7
370
    25
100
AcDbSpline
210
0.0
220
0.0
230
1.0
 70
     8
 71
     3
 72
    13
 73
     9
 74
     0
 42
0.000000001
 43
0.00000001
 40
0.0
 40
0.0
 40
0.0
 40
0.0
 40
0.3125443614920416
 40
0.4810252253477612
 40
0.6402061474927995
 40
0.7843969854176953
 40
0.9184170957120266
 40
1.0
 40
1.0
 40
1.0
 40
1.0
 10
248.528808590711
 20
117.3473463278295
 30
0.0
 10
248.50424684547
 20
117.5216589911195
 30
0.0
 10
248.4664447908014
 20
117.7899370292826
 30
0.0
 10
248.2107499937813
 20
118.1009171935884
 30
0.0
 10
247.9349230813526
 20
118.2824688917097
 30
0.0
 10
247.6024253440201
 20
118.3616803162973
 30
0.0
 10
247.3084160722786
 20
118.3398084144503
 30
0.0
 10
247.1678024068598
 20
118.2726138814114
 30
0.0
 10
247.1145950283375
 20
118.2471878679199
 30
0.0
  0
LINE
  5
181
330
23
100
AcDbEntity
  8
0
  6
Continuous
 62
     7
370
    25
100
AcDbLine
 10
247.1145950283
 20
-237.2384401098
 30
0.0
 11
247.1145950283
 21
160.7615598902
 31
0.0
  0
LINE
  5
182
330
23
100
AcDbEntity
  8
0
  6
Continuous
 62
     7
370
    25
100
AcDbLine
 10
250.5288085907
 20
200.7615598902
 30
0.0
 11
-209.4711914093
 21
200.7615598902
 31
0.0
  0
LINE
  5
183
330
23
100
AcDbEntity
  8
0
  6
Continuous
 62
     7
370
    25
100
AcDbLine
 10
249.5288085907
 20
161.7615598902
 30
0.0
 11
249.5288085907
 21
201.7615598902
 31
0.0
  0
LINE
  5
184
330
23
100
AcDbEntity
  8
0
  6
Continuous
 62
     7
370
    25
100
AcDbLine
 10
250.5288085907
 20
200.7615598902
 30
0.0
 11
250.5288085907
 21
161.7615598902
 31
0.0
  0
LINE
  5
185
330
23
100
AcDbEntity
  8
0
  6
Continuous
 62
     7
370
    25
100
AcDbLine
 10
-209.4711914093
 20
161.7615598902
 30
0.0
 11
250.5288085907
 21
161.7615598902
 31
0.0
  0
LINE
  5
186
330
23
100
AcDbEntity
  8
0
  6
Continuous
 62
     7
370
    25
100
AcDbLine
 10
-209.4711914093
 20
161.7615598902
 30
0.0
 11
-209.4711914093
 21
200.7615598902
 31
0.0
  0
LINE
  5
187
330
23
100
AcDbEntity
  8
0
  6
Continuous
 62
     7
370
    25
100
AcDbLine
 10
-208.4711914093
 20
201.7615598902
 30
0.0
 11
249.5288085907
 21
201.7615598902
 31
0.0
  0
LINE
  5
188
330
23
100
AcDbEntity
  8
0
  6
Continuous
 62
     7
370
    25
100
AcDbLine
 10
248.5288085907
 20
117.3473463278
 30
0.0
 11
248.5288085907
 21
-237.2384401098
 31
0.0
  0
LINE
  5
189
330
23
100
AcDbEntity
  8
0
  6
Continuous
 62
     7
370
    25
100
AcDbLine
 10
247.5288085907
 20
-238.2384401098
 30
0.0
 11
-209.4711914093
 21
-238.2384401098
 31
0.0
  0
LINE
  5
18A
330
23
100
AcDbEntity
  8
0
  6
Continuous
 62
     7
370
    25
100
AcDbLine
 10
246.1145950283
 20
-238.2384401098
 30
0.0
 11
246.1145950283
 21
161.7615598902
 31
0.0
  0
LINE
  5
18B
330
23
100
AcDbEntity
  8
0
  6
Continuous
 62
     7
370
    25
100
AcDbLine
 10
-208.4711914093
 20
201.7615598902
 30
0.0
 11
-208.4711914093
 21
-238.2384401098
 31
0.0
  0
LINE
  5
18C
330
23
100
AcDbEntity
  8
0
  6
Continuous
 62
     7
370
    25
100
AcDbLine
 10
-209.4711914093
 20
-237.2384401098
 30
0.0
 11
247.1145950283
 21
-237.2384401098
 31
0.0
  0
LINE
  5
18D
330
23
100
AcDbEntity
  8
0
  6
Continuous
 62
     7
370
    25
100
AcDbLine
 10
-209.4711914093
 20
-238.2384401098
 30
0.0
 11
-209.4711914093
 21
160.7615598902
 31
0.0
  0
LINE
  5
18E
330
23
100
AcDbEntity
  8
0
  6
Continuous
 62
     7
370
    25
100
AcDbLine
 10
247.1145950283
 20
160.7615598902
 30
0.0
 11
-209.4711914093
 21
160.7615598902
 31
0.0
  0
LINE
  5
18F
330
23
100
AcDbEntity
  8
0
  6
Continuous
 62
     8
370
    25
100
AcDbLine
 10
246.8217018095
 20
-238.2384401098
 30
0.0
 11
246.8217018095
 21
-237.945546891
 31
0.0
  0
ARC
  5
190
330
23
100
AcDbEntity
  8
0
  6
Continuous
 62
     7
370
    25
100
AcDbCircle
 10
246.1145950283
 20
160.7615598902
 30
0.0
 40
1.000000000000028
100
AcDbArc
 50
0.0
 51
90.0
  0
ARC
  5
191
330
23
100
AcDbEntity
  8
0
  6
Continuous
 62
     7
370
    25
100
AcDbCircle
 10
246.1145950283
 20
-237.2384401098
 30
0.0
 40
1.000000000000171
100
AcDbArc
 50
270.0
 51
360.0
  0
ARC
  5
192
330
23
100
AcDbEntity
  8
0
  6
Continuous
 62
     7
370
    25
100
AcDbCircle
 10
249.5288085907
 20
200.7615598902
 30
0.0
 40
1.000000000000142
100
AcDbArc
 50
0.0
 51
90.0
  0
ARC
  5
193
330
23
100
AcDbEntity
  8
0
  6
Continuous
 62
     7
370
    25
100
AcDbCircle
 10
-208.4711914093
 20
200.7615598902
 30
0.0
 40
1.000000000000028
100
AcDbArc
 50
90.0
 51
180.0
  0
ARC
  5
194
330
23
100
AcDbEntity
  8
0
  6
Continuous
 62
     7
370
    25
100
AcDbCircle
 10
-208.4711914093
 20
-237.2384401098
 30
0.0
 40
1.000000000000085
100
AcDbArc
 50
180.0
 51
270.0
  0
ARC
  5
195
330
23
100
AcDbEntity
  8
0
  6
Continuous
 62
     7
370
    25
100
AcDbCircle
 10
-208.4711914093
 20
160.7615598902
 30
0.0
 40
0.9999999999999716
100
AcDbArc
 50
90.0
 51
180.0
  0
VIEWPORT
  5
425
330
23
100
AcDbEntity
  8
0
100
AcDbViewport
 10
0.0
 20
0.0
 30
0.0
 40
205.6
 41
156.0
 68
     1
 69
     1
 12
-54.0461917755
 22
-18.2384401098
 13
0.0
 23
0.0
 14
10.0
 24
10.0
 15
10.0
 25
10.0
 16
0.0
 26
0.0
 36
1.0
 17
0.0
 27
0.0
 37
0.0
 42
50.0
 43
0.0
 44
0.0
 45
448.8
 50
0.0
 51
0.0
 72
   100
 90
   557152
  1

281
     0
 71
     1
 74
     0
110
0.0
120
0.0
130
0.0
111
1.0
121
0.0
131
0.0
112
0.0
122
1.0
132
0.0
 79
     0
146
0.0
  0
ENDBLK
  5
25
330
23
100
AcDbEntity
  8
0
100
AcDbBlockEnd
  0
BLOCK
  5
198
330
196
100
AcDbEntity
  8
0
100
AcDbBlockBegin
  2
*Paper_Space1
 70
     0
 10
0.0
 20
0.0
 30
0.0
  3
*Paper_Space1
  1

  0
SPLINE
  5
1AB
330
196
100
AcDbEntity
  8
0
  6
Continuous
 62
     7
370
    25
100
AcDbSpline
210
0.0
220
0.0
230
1.0
 70
     8
 71
     3
 72
    14
 73
    10
 74
     0
 42
0.000000001
 43
0.00000001
 40
0.0
 40
0.0
 40
0.0
 40
0.0
 40
0.25
 40
0.25
 40
0.5
 40
0.5
 40
0.75
 40
0.75
 40
1.0
 40
1.0
 40
1.0
 40
1.0
 10
-247.528808590711
 20
-238.238440109797
 30
0.0
 10
-247.6466597209088
 20
-238.238440109797
 30
0.0
 10
-247.7738063498891
 20
-238.2169613709835
 30
0.0
 10
-248.0200002506568
 20
-238.1194954507353
 30
0.0
 10
-248.1382842989597
 20
-238.0431779639213
 30
0.0
 10
-248.3335464448354
 20
-237.8479158180457
 30
0.0
 10
-248.4098639316493
 20
-237.7296317697428
 30
0.0
 10
-248.5073298518975
 20
-237.483437868975
 30
0.0
 10
-248.528808590711
 20
-237.3562912399948
 30
0.0
 10
-248.528808590711
 20
-237.238440109797
 30
0.0
  0
SPLINE
  5
1AD
330
196
100
AcDbEntity
  8
0
  6
Continuous
 62
     7
370
    25
100
AcDbSpline
210
0.0
220
0.0
230
1.0
 70
     8
 71
     3
 72
    13
 73
     9
 74
     0
 42
0.000000001
 43
0.00000001
 40
0.0
 40
0.0
 40
0.0
 40
0.0
 40
0.3125443614920175
 40
0.481025225347754
 40
0.6402061474927921
 40
0.7843969854176608
 40
0.9184170957120222
 40
1.0
 40
1.0
 40
1.0
 40
1.0
 10
-248.528808590711
 20
117.3473463278295
 30
0.0
 10
-248.50424684547
 20
117.5216589911195
 30
0.0
 10
-248.4664447908014
 20
117.7899370292826
 30
0.0
 10
-248.2107499937814
 20
118.1009171935885
 30
0.0
 10
-247.9349230813525
 20
118.2824688917097
 30
0.0
 10
-247.6024253440202
 20
118.3616803162975
 30
0.0
 10
-247.3084160722785
 20
118.3398084144504
 30
0.0
 10
-247.1678024068598
 20
118.2726138814116
 30
0.0
 10
-247.1145950283375
 20
118.24718786792
 30
0.0
  0
LINE
  5
1C4
330
196
100
AcDbEntity
  8
0
  6
Continuous
 62
     7
370
    25
100
AcDbLine
 10
-249.5288085907
 20
201.7615598902
 30
0.0
 11
-249.5288085907
 21
161.7615598902
 31
0.0
  0
LINE
  5
1C5
330
196
100
AcDbEntity
  8
0
  6
Continuous
 62
     7
370
    25
100
AcDbLine
 10
209.4711914093
 20
200.7615598902
 30
0.0
 11
-250.5288085907
 21
200.7615598902
 31
0.0
  0
LINE
  5
1C6
330
196
100
AcDbEntity
  8
0
  6
Continuous
 62
     7
370
    25
100
AcDbLine
 10
-250.5288085907
 20
161.7615598902
 30
0.0
 11
209.4711914093
 21
161.7615598902
 31
0.0
  0
LINE
  5
1C7
330
196
100
AcDbEntity
  8
0
  6
Continuous
 62
     7
370
    25
100
AcDbLine
 10
-250.5288085907
 20
161.7615598902
 30
0.0
 11
-250.5288085907
 21
200.7615598902
 31
0.0
  0
LINE
  5
1C8
330
196
100
AcDbEntity
  8
0
  6
Continuous
 62
     7
370
    25
100
AcDbLine
 10
209.4711914093
 20
200.7615598902
 30
0.0
 11
209.4711914093
 21
161.7615598902
 31
0.0
  0
LINE
  5
1C9
330
196
100
AcDbEntity
  8
0
  6
Continuous
 62
     7
370
    25
100
AcDbLine
 10
-249.5288085907
 20
201.7615598902
 30
0.0
 11
208.4711914093
 21
201.7615598902
 31
0.0
  0
LINE
  5
1CA
330
196
100
AcDbEntity
  8
0
  6
Continuous
 62
     7
370
    25
100
AcDbLine
 10
-248.5288085907
 20
-237.2384401098
 30
0.0
 11
-248.5288085907
 21
117.3473463278
 31
0.0
  0
LINE
  5
1CB
330
196
100
AcDbEntity
  8
0
  6
Continuous
 62
     7
370
    25
100
AcDbLine
 10
209.4711914093
 20
-238.2384401098
 30
0.0
 11
-247.5288085907
 21
-238.2384401098
 31
0.0
  0
LINE
  5
1CC
330
196
100
AcDbEntity
  8
0
  6
Continuous
 62
     7
370
    25
100
AcDbLine
 10
-246.1145950283
 20
161.7615598902
 30
0.0
 11
-246.1145950283
 21
-238.2384401098
 31
0.0
  0
LINE
  5
1CD
330
196
100
AcDbEntity
  8
0
  6
Continuous
 62
     7
370
    25
100
AcDbLine
 10
209.4711914093
 20
160.7615598902
 30
0.0
 11
-247.1145950283
 21
160.7615598902
 31
0.0
  0
LINE
  5
1CE
330
196
100
AcDbEntity
  8
0
  6
Continuous
 62
     7
370
    25
100
AcDbLine
 10
208.4711914093
 20
-238.2384401098
 30
0.0
 11
208.4711914093
 21
201.7615598902
 31
0.0
  0
LINE
  5
1CF
330
196
100
AcDbEntity
  8
0
  6
Continuous
 62
     7
370
    25
100
AcDbLine
 10
-247.1145950283
 20
-237.2384401098
 30
0.0
 11
209.4711914093
 21
-237.2384401098
 31
0.0
  0
LINE
  5
1D0
330
196
100
AcDbEntity
  8
0
  6
Continuous
 62
     7
370
    25
100
AcDbLine
 10
-247.1145950283
 20
-237.2384401098
 30
0.0
 11
-247.1145950283
 21
160.7615598902
 31
0.0
  0
LINE
  5
1D1
330
196
100
AcDbEntity
  8
0
  6
Continuous
 62
     7
370
    25
100
AcDbLine
 10
209.4711914093
 20
160.7615598902
 30
0.0
 11
209.4711914093
 21
-238.2384401098
 31
0.0
  0
LINE
  5
1D2
330
196
100
AcDbEntity
  8
0
  6
Continuous
 62
     8
370
    25
100
AcDbLine
 10
-246.8217018095
 20
-237.945546891
 30
0.0
 11
-246.8217018095
 21
-238.2384401098
 31
0.0
  0
ARC
  5
1D3
330
196
100
AcDbEntity
  8
0
  6
Continuous
 62
     7
370
    25
100
AcDbCircle
 10
-246.1145950283
 20
160.7615598902
 30
0.0
 40
1.000000000000057
100
AcDbArc
 50
90.0
 51
180.0
  0
ARC
  5
1D4
330
196
100
AcDbEntity
  8
0
  6
Continuous
 62
     7
370
    25
100
AcDbCircle
 10
-246.1145950283
 20
-237.2384401098
 30
0.0
 40
1.000000000000142
100
AcDbArc
 50
180.0
 51
270.0
  0
ARC
  5
1D5
330
196
100
AcDbEntity
  8
0
  6
Continuous
 62
     7
370
    25
100
AcDbCircle
 10
-249.5288085907
 20
200.7615598902
 30
0.0
 40
1.000000000000028
100
AcDbArc
 50
90.0
 51
180.0
  0
ARC
  5
1D6
330
196
100
AcDbEntity
  8
0
  6
Continuous
 62
     7
370
    25
100
AcDbCircle
 10
208.4711914093
 20
200.7615598902
 30
0.0
 40
1.0
100
AcDbArc
 50
0.0
 51
90.0
  0
ARC
  5
1D7
330
196
100
AcDbEntity
  8
0
  6
Continuous
 62
     7
370
    25
100
AcDbCircle
 10
208.4711914093
 20
-237.2384401098
 30
0.0
 40
1.000000000000057
100
AcDbArc
 50
270.0
 51
360.0
  0
ARC
  5
1D8
330
196
100
AcDbEntity
  8
0
  6
Continuous
 62
     7
370
    25
100
AcDbCircle
 10
208.4711914093
 20
160.7615598902
 30
0.0
 40
1.000000000000028
100
AcDbArc
 50
0.0
 51
90.0
  0
VIEWPORT
  5
427
330
196
100
AcDbEntity
  8
0
100
AcDbViewport
 10
0.0
 20
0.0
 30
0.0
 40
205.6
 41
156.0
 68
     1
 69
     1
 12
-54.0461917755
 22
-18.2384401098
 13
0.0
 23
0.0
 14
10.0
 24
10.0
 15
10.0
 25
10.0
 16
0.0
 26
0.0
 36
1.0
 17
0.0
 27
0.0
 37
0.0
 42
50.0
 43
0.0
 44
0.0
 45
448.8
 50
0.0
 51
0.0
 72
   100
 90
   557152
  1

281
     0
 71
     1
 74
     0
110
0.0
120
0.0
130
0.0
111
1.0
121
0.0
131
0.0
112
0.0
122
1.0
132
0.0
 79
     0
146
0.0
  0
ENDBLK
  5
199
330
196
100
AcDbEntity
  8
0
100
AcDbBlockEnd
  0
BLOCK
  5
1DB
330
1D9
100
AcDbEntity
  8
0
100
AcDbBlockBegin
  2
*Paper_Space2
 70
     0
 10
0.0
 20
0.0
 30
0.0
  3
*Paper_Space2
  1

  0
LINE
  5
1F1
330
1D9
100
AcDbEntity
  8
0
  6
Continuous
 62
     7
370
    25
100
AcDbLine
 10
-304.0461917755
 20
209.4711914093
 30
0.0
 11
-304.0461917755
 21
-250.5288085907
 31
0.0
  0
LINE
  5
1F2
330
1D9
100
AcDbEntity
  8
0
  6
Continuous
 62
     7
370
    25
100
AcDbLine
 10
-305.0461917755
 20
-249.5288085907
 30
0.0
 11
196.9538082245
 21
-249.5288085907
 31
0.0
  0
LINE
  5
1F3
330
1D9
100
AcDbEntity
  8
0
  6
Continuous
 62
     7
370
    25
100
AcDbLine
 10
195.9538082245
 20
-250.5288085907
 30
0.0
 11
-304.0461917755
 21
-250.5288085907
 31
0.0
  0
LINE
  5
1F4
330
1D9
100
AcDbEntity
  8
0
  6
Continuous
 62
     7
370
    25
100
AcDbLine
 10
196.9538082245
 20
208.4711914093
 30
0.0
 11
-305.0461917755
 21
208.4711914093
 31
0.0
  0
LINE
  5
1F5
330
1D9
100
AcDbEntity
  8
0
  6
Continuous
 62
     7
370
    25
100
AcDbLine
 10
195.9538082245
 20
-250.5288085907
 30
0.0
 11
195.9538082245
 21
209.4711914093
 31
0.0
  0
LINE
  5
1F6
330
1D9
100
AcDbEntity
  8
0
  6
Continuous
 62
     7
370
    25
100
AcDbLine
 10
-305.0461917755
 20
-249.5288085907
 30
0.0
 11
-305.0461917755
 21
208.4711914093
 31
0.0
  0
LINE
  5
1F7
330
1D9
100
AcDbEntity
  8
0
  6
Continuous
 62
     7
370
    25
100
AcDbLine
 10
196.9538082245
 20
208.4711914093
 30
0.0
 11
196.9538082245
 21
-249.5288085907
 31
0.0
  0
LINE
  5
1F8
330
1D9
100
AcDbEntity
  8
0
  6
Continuous
 62
     7
370
    25
100
AcDbLine
 10
-304.0461917755
 20
209.4711914093
 30
0.0
 11
195.9538082245
 21
209.4711914093
 31
0.0
  0
ARC
  5
1F9
330
1D9
100
AcDbEntity
  8
0
  6
Continuous
 62
     7
370
    25
100
AcDbCircle
 10
-304.0461917755
 20
-249.5288085907
 30
0.0
 40
1.000000000000114
100
AcDbArc
 50
180.0
 51
270.0
  0
ARC
  5
1FA
330
1D9
100
AcDbEntity
  8
0
  6
Continuous
 62
     7
370
    25
100
AcDbCircle
 10
195.9538082245
 20
-249.5288085907
 30
0.0
 40
1.000000000000028
100
AcDbArc
 50
270.0
 51
0.0
  0
ARC
  5
1FB
330
1D9
100
AcDbEntity
  8
0
  6
Continuous
 62
     7
370
    25
100
AcDbCircle
 10
195.9538082245
 20
208.4711914093
 30
0.0
 40
1.000000000000028
100
AcDbArc
 50
0.0
 51
90.0
  0
ARC
  5
1FC
330
1D9
100
AcDbEntity
  8
0
  6
Continuous
 62
     7
370
    25
100
AcDbCircle
 10
-304.0461917755
 20
208.4711914093
 30
0.0
 40
1.000000000000057
100
AcDbArc
 50
90.0
 51
180.0
  0
VIEWPORT
  5
429
330
1D9
100
AcDbEntity
  8
0
100
AcDbViewport
 10
0.0
 20
0.0
 30
0.0
 40
205.6
 41
156.0
 68
     1
 69
     1
 12
-54.0461917755
 22
-18.2384401098
 13
0.0
 23
0.0
 14
10.0
 24
10.0
 15
10.0
 25
10.0
 16
0.0
 26
0.0
 36
1.0
 17
0.0
 27
0.0
 37
0.0
 42
50.0
 43
0.0
 44
0.0
 45
448.8
 50
0.0
 51
0.0
 72
   100
 90
   557152
  1

281
     0
 71
     1
 74
     0
110
0.0
120
0.0
130
0.0
111
1.0
121
0.0
131
0.0
112
0.0
122
1.0
132
0.0
 79
     0
146
0.0
  0
ENDBLK
  5
1DC
330
1D9
100
AcDbEntity
  8
0
100
AcDbBlockEnd
  0
BLOCK
  5
1FF
330
1FD
100
AcDbEntity
  8
0
100
AcDbBlockBegin
  2
*Paper_Space3
 70
     0
 10
0.0
 20
0.0
 30
0.0
  3
*Paper_Space3
  1

  0
SPLINE
  5
20E
330
1FD
100
AcDbEntity
  8
0
  6
Continuous
 62
     7
370
    25
100
AcDbSpline
210
0.0
220
0.0
230
1.0
 70
     8
 71
     3
 72
    14
 73
    10
 74
     0
 42
0.000000001
 43
0.00000001
 40
0.0
 40
0.0
 40
0.0
 40
0.0
 40
0.25
 40
0.25
 40
0.5
 40
0.5
 40
0.75
 40
0.75
 40
1.0
 40
1.0
 40
1.0
 40
1.0
 10
192.5395946621705
 20
247.528808590711
 30
0.0
 10
192.5395946621705
 20
247.6466597209088
 30
0.0
 10
192.5181159233571
 20
247.7738063498891
 30
0.0
 10
192.4206500031088
 20
248.0200002506568
 30
0.0
 10
192.3443325162948
 20
248.1382842989597
 30
0.0
 10
192.1490703704192
 20
248.3335464448354
 30
0.0
 10
192.0307863221162
 20
248.4098639316493
 30
0.0
 10
191.7845924213484
 20
248.5073298518975
 30
0.0
 10
191.6574457923682
 20
248.528808590711
 30
0.0
 10
191.5395946621705
 20
248.528808590711
 30
0.0
  0
SPLINE
  5
20F
330
1FD
100
AcDbEntity
  8
0
  6
Continuous
 62
     7
370
    25
100
AcDbSpline
210
0.0
220
0.0
230
1.0
 70
     8
 71
     3
 72
    14
 73
    10
 74
     0
 42
0.000000001
 43
0.00000001
 40
0.0
 40
0.0
 40
0.0
 40
0.0
 40
0.25
 40
0.25
 40
0.5
 40
0.5
 40
0.75
 40
0.75
 40
1.0
 40
1.0
 40
1.0
 40
1.0
 10
-300.6319782130825
 20
247.528808590711
 30
0.0
 10
-300.6319782130826
 20
247.6466597209087
 30
0.0
 10
-300.610499474269
 20
247.773806349889
 30
0.0
 10
-300.5130335540208
 20
248.0200002506567
 30
0.0
 10
-300.4367160672068
 20
248.1382842989597
 30
0.0
 10
-300.2414539213311
 20
248.3335464448353
 30
0.0
 10
-300.1231698730282
 20
248.4098639316494
 30
0.0
 10
-299.8769759722604
 20
248.5073298518976
 30
0.0
 10
-299.7498293432802
 20
248.528808590711
 30
0.0
 10
-299.6319782130825
 20
248.528808590711
 30
0.0
  0
LINE
  5
240
330
1FD
100
AcDbEntity
  8
0
  6
Continuous
 62
     7
370
    25
100
AcDbLine
 10
196.9538082245
 20
249.5288085907
 30
0.0
 11
196.9538082245
 21
-208.4711914093
 31
0.0
  0
LINE
  5
241
330
1FD
100
AcDbEntity
  8
0
  6
Continuous
 62
     7
370
    25
100
AcDbLine
 10
195.9538082245
 20
-209.4711914093
 30
0.0
 11
-304.0461917755
 21
-209.4711914093
 31
0.0
  0
LINE
  5
242
330
1FD
100
AcDbEntity
  8
0
  6
Continuous
 62
     7
370
    25
100
AcDbLine
 10
-305.0461917755
 20
-208.4711914093
 30
0.0
 11
-305.0461917755
 21
249.5288085907
 31
0.0
  0
LINE
  5
243
330
1FD
100
AcDbEntity
  8
0
  6
Continuous
 62
     7
370
    25
100
AcDbLine
 10
-304.0461917755
 20
250.5288085907
 30
0.0
 11
195.9538082245
 21
250.5288085907
 31
0.0
  0
LINE
  5
244
330
1FD
100
AcDbEntity
  8
0
  6
Continuous
 62
     7
370
    25
100
AcDbLine
 10
192.5395946622
 20
247.5288085907
 30
0.0
 11
-300.6319782131
 21
247.5288085907
 31
0.0
  0
LINE
  5
245
330
1FD
100
AcDbEntity
  8
0
  6
Continuous
 62
     7
370
    25
100
AcDbLine
 10
-299.6319782131
 20
248.5288085907
 30
0.0
 11
191.5395946622
 21
248.5288085907
 31
0.0
  0
LINE
  5
246
330
1FD
100
AcDbEntity
  8
0
  6
Continuous
 62
     7
370
    25
100
AcDbLine
 10
175.9538082245
 20
230.5288085907
 30
0.0
 11
192.2467014434
 21
246.8217018095
 31
0.0
  0
LINE
  5
247
330
1FD
100
AcDbEntity
  8
0
  6
Continuous
 62
     7
370
    25
100
AcDbLine
 10
-300.3390849943
 20
246.8217018095
 30
0.0
 11
-284.0461917755
 21
230.5288085907
 31
0.0
  0
LINE
  5
248
330
1FD
100
AcDbEntity
  8
0
  6
Continuous
 62
     7
370
    25
100
AcDbLine
 10
-286.0461917755
 20
230.5288085907
 30
0.0
 11
177.9538082245
 21
230.5288085907
 31
0.0
  0
LINE
  5
249
330
1FD
100
AcDbEntity
  8
0
  6
Continuous
 62
     7
370
    25
100
AcDbLine
 10
-303.0461917755
 20
246.1145950283
 30
0.0
 11
-303.0461917755
 21
-209.4711914093
 31
0.0
  0
LINE
  5
24A
330
1FD
100
AcDbEntity
  8
0
  6
Continuous
 62
     7
370
    25
100
AcDbLine
 10
-304.0461917755
 20
-208.4711914093
 30
0.0
 11
-286.0461917755
 21
-208.4711914093
 31
0.0
  0
LINE
  5
24B
330
1FD
100
AcDbEntity
  8
0
  6
Continuous
 62
     7
370
    25
100
AcDbLine
 10
-302.3390849943
 20
246.8217018095
 30
0.0
 11
-303.0461917755
 21
246.1145950283
 31
0.0
  0
LINE
  5
24C
330
1FD
100
AcDbEntity
  8
0
  6
Continuous
 62
     7
370
    25
100
AcDbLine
 10
-304.0461917755
 20
246.1145950283
 30
0.0
 11
-303.0461917755
 21
246.1145950283
 31
0.0
  0
LINE
  5
24D
330
1FD
100
AcDbEntity
  8
0
  6
Continuous
 62
     7
370
    25
100
AcDbLine
 10
-287.0461917755
 20
-209.4711914093
 30
0.0
 11
-287.0461917755
 21
230.1145950283
 31
0.0
  0
LINE
  5
24E
330
1FD
100
AcDbEntity
  8
0
  6
Continuous
 62
     7
370
    25
100
AcDbLine
 10
-302.3390849943
 20
246.8217018095
 30
0.0
 11
-286.3390849943
 21
230.8217018095
 31
0.0
  0
LINE
  5
24F
330
1FD
100
AcDbEntity
  8
0
  6
Continuous
 62
     7
370
    25
100
AcDbLine
 10
-286.3390849943
 20
230.8217018095
 30
0.0
 11
-287.0461917755
 21
230.1145950283
 31
0.0
  0
LINE
  5
250
330
1FD
100
AcDbEntity
  8
0
  6
Continuous
 62
     7
370
    25
100
AcDbLine
 10
-287.0461917755
 20
230.1145950283
 30
0.0
 11
-303.0461917755
 21
246.1145950283
 31
0.0
  0
LINE
  5
251
330
1FD
100
AcDbEntity
  8
0
  6
Continuous
 62
     7
370
    25
100
AcDbLine
 10
-286.0461917755
 20
230.1145950283
 30
0.0
 11
-287.0461917755
 21
230.1145950283
 31
0.0
  0
LINE
  5
252
330
1FD
100
AcDbEntity
  8
0
  6
Continuous
 62
     7
370
    25
100
AcDbLine
 10
-304.0461917755
 20
-208.4711914093
 30
0.0
 11
-304.0461917755
 21
246.1145950283
 31
0.0
  0
LINE
  5
253
330
1FD
100
AcDbEntity
  8
0
  6
Continuous
 62
     7
370
    25
100
AcDbLine
 10
178.9538082245
 20
230.1145950283
 30
0.0
 11
177.9538082245
 21
230.1145950283
 31
0.0
  0
LINE
  5
254
330
1FD
100
AcDbEntity
  8
0
  6
Continuous
 62
     7
370
    25
100
AcDbLine
 10
178.9538082245
 20
230.1145950283
 30
0.0
 11
178.2467014434
 21
230.8217018095
 31
0.0
  0
LINE
  5
255
330
1FD
100
AcDbEntity
  8
0
  6
Continuous
 62
     7
370
    25
100
AcDbLine
 10
194.9538082245
 20
-209.4711914093
 30
0.0
 11
194.9538082245
 21
246.1145950283
 31
0.0
  0
LINE
  5
256
330
1FD
100
AcDbEntity
  8
0
  6
Continuous
 62
     7
370
    25
100
AcDbLine
 10
177.9538082245
 20
-208.4711914093
 30
0.0
 11
195.9538082245
 21
-208.4711914093
 31
0.0
  0
LINE
  5
257
330
1FD
100
AcDbEntity
  8
0
  6
Continuous
 62
     7
370
    25
100
AcDbLine
 10
178.9538082245
 20
230.1145950283
 30
0.0
 11
178.9538082245
 21
-209.4711914093
 31
0.0
  0
LINE
  5
258
330
1FD
100
AcDbEntity
  8
0
  6
Continuous
 62
     7
370
    25
100
AcDbLine
 10
194.9538082245
 20
246.1145950283
 30
0.0
 11
178.9538082245
 21
230.1145950283
 31
0.0
  0
LINE
  5
259
330
1FD
100
AcDbEntity
  8
0
  6
Continuous
 62
     7
370
    25
100
AcDbLine
 10
178.2467014434
 20
230.8217018095
 30
0.0
 11
194.2467014434
 21
246.8217018095
 31
0.0
  0
LINE
  5
25A
330
1FD
100
AcDbEntity
  8
0
  6
Continuous
 62
     7
370
    25
100
AcDbLine
 10
194.9538082245
 20
246.1145950283
 30
0.0
 11
194.2467014434
 21
246.8217018095
 31
0.0
  0
LINE
  5
25B
330
1FD
100
AcDbEntity
  8
0
  6
Continuous
 62
     7
370
    25
100
AcDbLine
 10
194.9538082245
 20
246.1145950283
 30
0.0
 11
195.9538082245
 21
246.1145950283
 31
0.0
  0
LINE
  5
25C
330
1FD
100
AcDbEntity
  8
0
  6
Continuous
 62
     7
370
    25
100
AcDbLine
 10
195.9538082245
 20
246.1145950283
 30
0.0
 11
195.9538082245
 21
-208.4711914093
 31
0.0
  0
LINE
  5
25D
330
1FD
100
AcDbEntity
  8
0
  6
Continuous
 62
     7
370
    25
100
AcDbLine
 10
-286.0461917755
 20
-209.4711914093
 30
0.0
 11
-286.0461917755
 21
230.5288085907
 31
0.0
  0
LINE
  5
25E
330
1FD
100
AcDbEntity
  8
0
  6
Continuous
 62
     7
370
    25
100
AcDbLine
 10
177.9538082245
 20
230.5288085907
 30
0.0
 11
177.9538082245
 21
-209.4711914093
 31
0.0
  0
ARC
  5
25F
330
1FD
100
AcDbEntity
  8
0
  6
Continuous
 62
     7
370
    25
100
AcDbCircle
 10
-304.0461917755
 20
249.5288085907
 30
0.0
 40
1.000000000000057
100
AcDbArc
 50
90.0
 51
180.0
  0
ARC
  5
260
330
1FD
100
AcDbEntity
  8
0
  6
Continuous
 62
     7
370
    25
100
AcDbCircle
 10
195.9538082245
 20
-208.4711914093
 30
0.0
 40
1.0
100
AcDbArc
 50
270.0
 51
0.0
  0
ARC
  5
261
330
1FD
100
AcDbEntity
  8
0
  6
Continuous
 62
     7
370
    25
100
AcDbCircle
 10
195.9538082245
 20
249.5288085907
 30
0.0
 40
1.000000000000085
100
AcDbArc
 50
0.0
 51
90.0
  0
ARC
  5
262
330
1FD
100
AcDbEntity
  8
0
  6
Continuous
 62
     7
370
    25
100
AcDbCircle
 10
-304.0461917755
 20
-208.4711914093
 30
0.0
 40
1.000000000000057
100
AcDbArc
 50
180.0
 51
270.0
  0
ARC
  5
263
330
1FD
100
AcDbEntity
  8
0
  6
Continuous
 62
     7
370
    25
100
AcDbCircle
 10
191.5395946622
 20
247.5288085907
 30
0.0
 40
1.000000000000189
100
AcDbArc
 50
315.0
 51
360.0
  0
ARC
  5
264
330
1FD
100
AcDbEntity
  8
0
  6
Continuous
 62
     7
370
    25
100
AcDbCircle
 10
-299.6319782131
 20
247.5288085907
 30
0.0
 40
0.9999999999992444
100
AcDbArc
 50
180.0
 51
225.0
  0
ARC
  5
265
330
1FD
100
AcDbEntity
  8
0
  6
Continuous
 62
     7
370
    25
100
AcDbCircle
 10
-303.0461917755
 20
-208.4711914093
 30
0.0
 40
1.000000000000057
100
AcDbArc
 50
180.0
 51
270.0
  0
ARC
  5
266
330
1FD
100
AcDbEntity
  8
0
  6
Continuous
 62
     7
370
    25
100
AcDbCircle
 10
-303.0461917755
 20
246.1145950283
 30
0.0
 40
1.000000000000068
100
AcDbArc
 50
45.0
 51
180.0
  0
ARC
  5
267
330
1FD
100
AcDbEntity
  8
0
  6
Continuous
 62
     7
370
    25
100
AcDbCircle
 10
-287.0461917755
 20
-208.4711914093
 30
0.0
 40
0.9999999999999432
100
AcDbArc
 50
270.0
 51
0.0
  0
ARC
  5
268
330
1FD
100
AcDbEntity
  8
0
  6
Continuous
 62
     7
370
    25
100
AcDbCircle
 10
-287.0461917755
 20
230.1145950283
 30
0.0
 40
0.9999999999990233
100
AcDbArc
 50
360.0
 51
45.0
  0
ARC
  5
269
330
1FD
100
AcDbEntity
  8
0
  6
Continuous
 62
     7
370
    25
100
AcDbCircle
 10
178.9538082245
 20
230.1145950283
 30
0.0
 40
1.000000000000369
100
AcDbArc
 50
135.0
 51
180.0
  0
ARC
  5
26A
330
1FD
100
AcDbEntity
  8
0
  6
Continuous
 62
     7
370
    25
100
AcDbCircle
 10
194.9538082245
 20
-208.4711914093
 30
0.0
 40
1.0
100
AcDbArc
 50
270.0
 51
0.0
  0
ARC
  5
26B
330
1FD
100
AcDbEntity
  8
0
  6
Continuous
 62
     7
370
    25
100
AcDbCircle
 10
194.9538082245
 20
246.1145950283
 30
0.0
 40
1.000000000000085
100
AcDbArc
 50
0.0
 51
135.0
  0
ARC
  5
26C
330
1FD
100
AcDbEntity
  8
0
  6
Continuous
 62
     7
370
    25
100
AcDbCircle
 10
178.9538082245
 20
-208.4711914093
 30
0.0
 40
0.9999999999999716
100
AcDbArc
 50
180.0
 51
270.0
  0
VIEWPORT
  5
42B
330
1FD
100
AcDbEntity
  8
0
100
AcDbViewport
 10
0.0
 20
0.0
 30
0.0
 40
205.6
 41
156.0
 68
     1
 69
     1
 12
-54.0461917755
 22
-18.2384401098
 13
0.0
 23
0.0
 14
10.0
 24
10.0
 15
10.0
 25
10.0
 16
0.0
 26
0.0
 36
1.0
 17
0.0
 27
0.0
 37
0.0
 42
50.0
 43
0.0
 44
0.0
 45
448.8
 50
0.0
 51
0.0
 72
   100
 90
   557152
  1

281
     0
 71
     1
 74
     0
110
0.0
120
0.0
130
0.0
111
1.0
121
0.0
131
0.0
112
0.0
122
1.0
132
0.0
 79
     0
146
0.0
  0
ENDBLK
  5
200
330
1FD
100
AcDbEntity
  8
0
100
AcDbBlockEnd
  0
BLOCK
  5
26F
330
26D
100
AcDbEntity
  8
0
100
AcDbBlockBegin
  2
*Paper_Space4
 70
     0
 10
0.0
 20
0.0
 30
0.0
  3
*Paper_Space4
  1

  0
SPLINE
  5
299
330
26D
100
AcDbEntity
  8
0
  6
Continuous
 62
     7
370
    25
100
AcDbSpline
210
0.0
220
0.0
230
1.0
 70
     8
 71
     3
 72
    20
 73
    16
 74
     0
 42
0.000000001
 43
0.00000001
 40
0.0
 40
0.0
 40
0.0
 40
0.0
 40
0.125000000000002
 40
0.125000000000002
 40
0.2500000000000041
 40
0.2500000000000041
 40
0.3750000000000061
 40
0.3750000000000061
 40
0.5000000000000081
 40
0.5000000000000081
 40
0.6250000000000101
 40
0.6250000000000101
 40
0.7500000000000122
 40
0.7500000000000122
 40
1.0
 40
1.0
 40
1.0
 40
1.0
 10
-387.6082095295157
 20
116.6794185529425
 30
0.0
 10
-387.6626496530522
 20
116.7737116126014
 30
0.0
 10
-387.7151631437777
 20
116.8792069815767
 30
0.0
 10
-387.8061404782766
 20
117.1084188499684
 30
0.0
 10
-387.8444827964675
 20
117.2322063982149
 30
0.0
 10
-387.8944729950563
 20
117.4851058672796
 30
0.0
 10
-387.9058786739122
 20
117.6140615686284
 30
0.0
 10
-387.8925253051593
 20
117.8560697472884
 30
0.0
 10
-387.8675990966058
 20
117.9687331480329
 30
0.0
 10
-387.782365465075
 20
118.1571196430437
 30
0.0
 10
-387.7221836642786
 20
118.2325650825645
 30
0.0
 10
-387.5787012567382
 20
118.3372010824708
 30
0.0
 10
-387.49569801173
 20
118.3664929448652
 30
0.0
 10
-387.2368795707391
 20
118.3934584890383
 30
0.0
 10
-387.0550826704144
 20
118.3311970314827
 30
0.0
 10
-386.9011027483291
 20
118.2422918661393
 30
0.0
  0
SPLINE
  5
29B
330
26D
100
AcDbEntity
  8
0
  6
Continuous
 62
     7
370
    25
100
AcDbSpline
210
0.0
220
0.0
230
1.0
 70
     8
 71
     3
 72
    20
 73
    16
 74
     0
 42
0.000000001
 43
0.00000001
 40
0.0
 40
0.0
 40
0.0
 40
0.0
 40
0.1249999999999995
 40
0.1249999999999995
 40
0.249999999999999
 40
0.249999999999999
 40
0.3749999999999985
 40
0.3749999999999985
 40
0.499999999999998
 40
0.499999999999998
 40
0.6249999999999976
 40
0.6249999999999976
 40
0.749999999999997
 40
0.749999999999997
 40
1.0
 40
1.0
 40
1.0
 40
1.0
 10
-40.29745962336237
 20
-83.81880964309552
 30
0.0
 10
-40.24301949982584
 20
-83.78737181216077
 30
0.0
 10
-40.17791423432929
 20
-83.74977630586334
 30
0.0
 10
-40.02489791965222
 20
-83.6614189729676
 30
0.0
 10
-39.93686457098428
 20
-83.61058654430545
 30
0.0
 10
-39.74283840327858
 20
-83.49855472505024
 30
0.0
 10
-39.63685976732309
 20
-83.43736354623371
 30
0.0
 10
-39.4205916318647
 20
-83.31249556899344
 30
0.0
 10
-39.31055550441656
 20
-83.2489650786034
 30
0.0
 10
-39.10478331520489
 20
-83.13016401177424
 30
0.0
 10
-39.00935053221335
 20
-83.0750685311137
 30
0.0
 10
-38.84698360947927
 20
-82.98133432977733
 30
0.0
 10
-38.78011043019744
 20
-82.94273077864405
 30
0.0
 10
-38.62733721445122
 20
-82.85454662901174
 30
0.0
 10
-38.59035284217588
 20
-82.83320959356854
 30
0.0
 10
-38.5903528421759
 20
-82.83322404198424
 30
0.0
  0
SPLINE
  5
29C
330
26D
100
AcDbEntity
  8
0
  6
Continuous
 62
     7
370
    25
100
AcDbSpline
210
0.0
220
0.0
230
1.0
 70
     8
 71
     3
 72
    14
 73
    10
 74
     0
 42
0.000000001
 43
0.00000001
 40
0.0
 40
0.0
 40
0.0
 40
0.0
 40
0.25
 40
0.25
 40
0.5
 40
0.5
 40
0.75
 40
0.75
 40
1.0
 40
1.0
 40
1.0
 40
1.0
 10
-38.88324606098931
 20
-374.169116395908
 30
0.0
 10
-38.9665793943226
 20
-374.2172237052483
 30
0.0
 10
-39.0716733997459
 20
-374.2428194997651
 30
0.0
 10
-39.31467758960761
 20
-374.2239459629899
 30
0.0
 10
-39.4522816547182
 20
-374.1787605409582
 30
0.0
 10
-39.72842402963362
 20
-374.0193210298344
 30
0.0
 10
-39.8660280947441
 20
-373.9056063563875
 30
0.0
 10
-40.10903228460583
 20
-373.6438676238977
 30
0.0
 10
-40.2141262900291
 20
-373.496913150896
 30
0.0
 10
-40.29745962336237
 20
-373.3525755840222
 30
0.0
  0
SPLINE
  5
2A2
330
26D
100
AcDbEntity
  8
0
  6
Continuous
 62
     7
370
    25
100
AcDbSpline
210
0.0
220
0.0
230
1.0
 70
     8
 71
     3
 72
    10
 73
     6
 74
     0
 42
0.000000001
 43
0.00000001
 40
0.0
 40
0.0
 40
0.0
 40
0.0
 40
0.1130888244764708
 40
0.5613784828690233
 40
1.0
 40
1.0
 40
1.0
 40
1.0
 10
-387.8907520246764
 20
-173.0175485147197
 30
0.0
 10
-387.8934443958653
 20
-173.0190999246828
 30
0.0
 10
-387.9068094587741
 20
-173.0268011999894
 30
0.0
 10
-387.8140530440156
 20
-172.973221631439
 30
0.0
 10
-387.6763235753796
 20
-172.8936831216865
 30
0.0
 10
-387.6082095295157
 20
-172.8543473879841
 30
0.0
  0
LWPOLYLINE
  5
2B7
330
26D
100
AcDbEntity
  8
0
  6
Continuous
 62
     8
370
    25
100
AcDbPolyline
 90
        7
 70
   128
 43
0.0
 10
-388.3153163107
 20
-171.0524475082
 10
-388.605600988
 20
-171.0275896931
 10
-388.8708865437
 20
-170.9551569862
 10
-389.0883267641
 20
-170.8413872437
 10
-389.2391958432
 20
-170.6960782392
 10
-389.3105010374
 20
-170.5317438868
 10
-389.3153163107
 20
-170.4751597961
  0
LINE
  5
2BD
330
26D
100
AcDbEntity
  8
0
  6
Continuous
 62
     7
370
    25
100
AcDbLine
 10
286.9716597225
 20
137.1945620301
 30
0.0
 11
286.9716597225
 21
169.0396536936
 31
0.0
  0
LINE
  5
2BE
330
26D
100
AcDbEntity
  8
0
  6
Continuous
 62
     7
370
    25
100
AcDbLine
 10
286.4716190888
 20
169.905702556
 30
0.0
 11
-67.0817715045
 21
374.0077305117
 31
0.0
  0
LINE
  5
2BF
330
26D
100
AcDbEntity
  8
0
  6
Continuous
 62
     7
370
    25
100
AcDbLine
 10
-392.4366366543
 20
186.1842240419
 30
0.0
 11
-392.4366366543
 21
154.3391323783
 31
0.0
  0
LINE
  5
2C0
330
26D
100
AcDbEntity
  8
0
  6
Continuous
 62
     7
370
    25
100
AcDbLine
 10
-68.0816902371
 20
374.0077305117
 30
0.0
 11
-391.9365960206
 21
187.0502729043
 31
0.0
  0
LINE
  5
2C1
330
26D
100
AcDbEntity
  8
0
  6
Continuous
 62
     7
370
    25
100
AcDbLine
 10
-387.8956430407
 20
-173.0266767032
 30
0.0
 11
-39.5957312825
 21
-374.0959358817
 31
0.0
  0
LINE
  5
2C2
330
26D
100
AcDbEntity
  8
0
  6
Continuous
 62
     7
370
    25
100
AcDbLine
 10
-387.9011027483
 20
117.6609736593
 30
0.0
 11
-387.9011027483
 21
-173.0172229216
 31
0.0
  0
LINE
  5
2C3
330
26D
100
AcDbEntity
  8
0
  6
Continuous
 62
     7
370
    25
100
AcDbLine
 10
-389.3153163107
 20
152.2981120988
 30
0.0
 11
-389.3153163107
 21
-170.4751597961
 31
0.0
  0
LINE
  5
2C4
330
26D
100
AcDbEntity
  8
0
  6
Continuous
 62
     7
370
    25
100
AcDbLine
 10
-388.3153163107
 20
-171.4751597961
 30
0.0
 11
-387.9011027483
 21
-171.4751597961
 31
0.0
  0
LINE
  5
2C5
330
26D
100
AcDbEntity
  8
0
  6
Continuous
 62
     7
370
    25
100
AcDbLine
 10
-35.6761799135
 20
-374.6268285023
 30
0.0
 11
285.7645123076
 21
-189.0630667188
 31
0.0
  0
LINE
  5
2C6
330
26D
100
AcDbEntity
  8
0
  6
Continuous
 62
     7
370
    25
100
AcDbLine
 10
286.2645529413
 20
-188.1970178564
 30
0.0
 11
286.2645529413
 21
136.5472375744
 31
0.0
  0
LINE
  5
2C7
330
26D
100
AcDbEntity
  8
0
  6
Continuous
 62
     7
370
    25
100
AcDbLine
 10
-38.5903528422
 20
-50.1710996333
 30
0.0
 11
-38.5903528422
 21
-18.3260079697
 31
0.0
  0
LINE
  5
2C8
330
26D
100
AcDbEntity
  8
0
  6
Continuous
 62
     7
370
    25
100
AcDbLine
 10
-37.1761392798
 20
-373.7607796399
 30
0.0
 11
-37.1761392798
 21
-18.3260079697
 31
0.0
  0
LINE
  5
2C9
330
26D
100
AcDbEntity
  8
0
  6
Continuous
 62
     7
370
    25
100
AcDbLine
 10
-391.4366366543
 20
187.0007648538
 30
0.0
 11
-37.883246061
 21
-17.1012631019
 31
0.0
  0
LINE
  5
2CA
330
26D
100
AcDbEntity
  8
0
  6
Continuous
 62
     7
370
    25
100
AcDbLine
 10
-38.5903528422
 20
-18.3260079697
 30
0.0
 11
-392.1437434354
 21
185.776019986
 31
0.0
  0
LINE
  5
2CB
330
26D
100
AcDbEntity
  8
0
  6
Continuous
 62
     7
370
    25
100
AcDbLine
 10
286.6787665036
 20
168.6314496377
 30
0.0
 11
-37.1761392798
 21
-18.3260079697
 31
0.0
  0
LINE
  5
2CC
330
26D
100
AcDbEntity
  8
0
  6
Continuous
 62
     7
370
    25
100
AcDbLine
 10
-37.883246061
 20
-17.1012631019
 30
0.0
 11
285.9716597225
 21
169.8561945055
 31
0.0
  0
LINE
  5
2CD
330
26D
100
AcDbEntity
  8
0
  6
Continuous
 62
     7
370
    25
100
AcDbLine
 10
-392.1437434354
 20
153.9309283224
 30
0.0
 11
-38.5903528422
 21
-50.1710996333
 31
0.0
  0
LINE
  5
2CE
330
26D
100
AcDbEntity
  8
0
  6
Continuous
 62
     7
370
    25
100
AcDbLine
 10
-392.1437434354
 20
185.776019986
 30
0.0
 11
-392.1437434354
 21
153.9309283224
 31
0.0
  0
LINE
  5
2CF
330
26D
100
AcDbEntity
  8
0
  6
Continuous
 62
     7
370
    25
100
AcDbLine
 10
286.6787665036
 20
136.7863579741
 30
0.0
 11
286.6787665036
 21
168.6314496377
 31
0.0
  0
LINE
  5
2D0
330
26D
100
AcDbEntity
  8
0
  6
Continuous
 62
     7
370
    25
100
AcDbLine
 10
-37.1761392798
 20
-50.1710996333
 30
0.0
 11
286.6787665036
 21
136.7863579741
 31
0.0
  0
LINE
  5
2D1
330
26D
100
AcDbEntity
  8
0
  6
Continuous
 62
     7
370
    25
100
AcDbLine
 10
285.9716597225
 20
169.8561945055
 30
0.0
 11
-67.5817308708
 21
373.9582224612
 31
0.0
  0
LINE
  5
2D2
330
26D
100
AcDbEntity
  8
0
  6
Continuous
 62
     7
370
    25
100
AcDbLine
 10
-67.5817308708
 20
373.9582224612
 30
0.0
 11
-391.4366366543
 21
187.0007648538
 31
0.0
  0
LINE
  5
2D3
330
26D
100
AcDbEntity
  8
0
  6
Continuous
 62
     7
370
    25
100
AcDbLine
 10
-38.5903528422
 20
-203.6866110705
 30
0.0
 11
-37.1761392798
 21
-202.8702029587
 31
0.0
  0
LINE
  5
2D4
330
26D
100
AcDbEntity
  8
0
  6
Continuous
 62
     7
370
    25
100
AcDbLine
 10
-37.1761392798
 20
-188.1748569459
 30
0.0
 11
-38.5903528422
 21
-188.9912650577
 31
0.0
  0
LINE
  5
2D5
330
26D
100
AcDbEntity
  8
0
  6
Continuous
 62
     7
370
    25
100
AcDbLine
 10
-38.5903528422
 20
-316.3692431108
 30
0.0
 11
-37.1761392798
 21
-315.552834999
 31
0.0
  0
LINE
  5
2D6
330
26D
100
AcDbEntity
  8
0
  6
Continuous
 62
     7
370
    25
100
AcDbLine
 10
-40.2974596234
 20
-83.8188096431
 30
0.0
 11
-387.6082095295
 21
116.6794185529
 31
0.0
  0
LINE
  5
2D7
330
26D
100
AcDbEntity
  8
0
  6
Continuous
 62
     7
370
    25
100
AcDbLine
 10
-386.9011027483
 20
118.2422918661
 30
0.0
 11
-38.5903528422
 21
-82.833224042
 31
0.0
  0
LINE
  5
2D8
330
26D
100
AcDbEntity
  8
0
  6
Continuous
 62
     7
370
    25
100
AcDbLine
 10
-40.2974596234
 20
-373.352575584
 30
0.0
 11
-40.2974596234
 21
-83.8188096431
 31
0.0
  0
LINE
  5
2D9
330
26D
100
AcDbEntity
  8
0
  6
Continuous
 62
     7
370
    25
100
AcDbLine
 10
-38.5903528422
 20
-82.833224042
 30
0.0
 11
-38.5903528422
 21
-373.76091234
 31
0.0
  0
LINE
  5
2DA
330
26D
100
AcDbEntity
  8
0
  6
Continuous
 62
     7
370
    25
100
AcDbLine
 10
-387.6082095295
 20
-172.854347388
 30
0.0
 11
-40.2974596234
 21
-373.352575584
 31
0.0
  0
LINE
  5
2DB
330
26D
100
AcDbEntity
  8
0
  6
Continuous
 62
     7
370
    25
100
AcDbLine
 10
-387.6082095295
 20
116.6794185529
 30
0.0
 11
-387.6082095295
 21
-172.854347388
 31
0.0
  0
LINE
  5
2DC
330
26D
100
AcDbEntity
  8
0
  6
Continuous
 62
     7
370
    25
100
AcDbLine
 10
-35.4690324986
 20
-49.1857405653
 30
0.0
 11
-35.4690324986
 21
-374.1689836958
 31
0.0
  0
LINE
  5
2DD
330
26D
100
AcDbEntity
  8
0
  6
Continuous
 62
     7
370
    25
100
AcDbLine
 10
285.9716597225
 20
136.3780212182
 30
0.0
 11
-35.4690324986
 21
-49.1857405653
 31
0.0
  0
LINE
  5
2DE
330
26D
100
AcDbEntity
  8
0
  6
Continuous
 62
     7
370
    25
100
AcDbLine
 10
285.9716597225
 20
-188.6052219124
 30
0.0
 11
285.9716597225
 21
136.3780212182
 31
0.0
  0
LINE
  5
2DF
330
26D
100
AcDbEntity
  8
0
  6
Continuous
 62
     7
370
    25
100
AcDbLine
 10
-35.4690324986
 20
-374.1689836958
 30
0.0
 11
285.9716597225
 21
-188.6052219124
 31
0.0
  0
LINE
  5
2E0
330
26D
100
AcDbEntity
  8
0
  6
Continuous
 62
     7
370
    25
100
AcDbLine
 10
-38.5903528422
 20
-99.1662023477
 30
0.0
 11
-37.1761392798
 21
-99.9826104595
 31
0.0
  0
LINE
  5
2E1
330
26D
100
AcDbEntity
  8
0
  6
Continuous
 62
     7
370
    25
100
AcDbLine
 10
-365.2736857504
 20
138.4191741978
 30
0.0
 11
-365.2736857504
 21
105.7570497891
 31
0.0
  0
LINE
  5
2E2
330
26D
100
AcDbEntity
  8
0
  6
Continuous
 62
     7
370
    25
100
AcDbLine
 10
-38.5903528422
 20
-345.7615275372
 30
0.0
 11
-37.1761392798
 21
-346.577935649
 31
0.0
  0
LINE
  5
2E3
330
26D
100
AcDbEntity
  8
0
  6
Continuous
 62
     7
370
    25
100
AcDbLine
 10
-38.5903528422
 20
-360.4592621511
 30
0.0
 11
-37.1761392798
 21
-361.2756702629
 31
0.0
  0
LINE
  5
2E4
330
26D
100
AcDbEntity
  8
0
  6
Continuous
 62
     8
370
    25
100
AcDbLine
 10
-388.3153163107
 20
151.7208243867
 30
0.0
 11
-388.3153163107
 21
-171.4751597961
 31
0.0
  0
LINE
  5
2E5
330
26D
100
AcDbEntity
  8
0
  6
Continuous
 62
     8
370
    25
100
AcDbLine
 10
-365.6878993127
 20
105.9961701888
 30
0.0
 11
-365.6878993127
 21
138.6582945975
 31
0.0
  0
LINE
  5
2E6
330
26D
100
AcDbEntity
  8
0
  6
Continuous
 62
     8
370
    25
100
AcDbLine
 10
-388.3153163107
 20
-171.0524475082
 30
0.0
 11
-387.9011027483
 21
-171.0524475082
 31
0.0
  0
LINE
  5
2E7
330
26D
100
AcDbEntity
  8
0
  6
Continuous
 62
     8
370
    25
100
AcDbLine
 10
-36.883246061
 20
-374.1689836958
 30
0.0
 11
-36.883246061
 21
-50.0020159771
 31
0.0
  0
ARC
  5
2E8
330
26D
100
AcDbEntity
  8
0
  6
Continuous
 62
     7
370
    25
100
AcDbCircle
 10
285.9716597225
 20
169.0396536936
 30
0.0
 40
0.9999999999998518
100
AcDbArc
 50
360.0
 51
60.0026882664
  0
ARC
  5
2E9
330
26D
100
AcDbEntity
  8
0
  6
Continuous
 62
     7
370
    25
100
AcDbCircle
 10
-391.4366366543
 20
186.1842240419
 30
0.0
 40
1.000000000000341
100
AcDbArc
 50
119.9973117337
 51
180.0
  0
ARC
  5
2EA
330
26D
100
AcDbEntity
  8
0
  6
Continuous
 62
     7
370
    25
100
AcDbCircle
 10
-67.5817308708
 20
373.1416816493
 30
0.0
 40
1.000000000000274
100
AcDbArc
 50
60.0026882664
 51
119.9973117336
  0
ARC
  5
2EB
330
26D
100
AcDbEntity
  8
0
  6
Continuous
 62
     7
370
    25
100
AcDbCircle
 10
-388.3153163107
 20
-170.4751597961
 30
0.0
 40
1.000000000000057
100
AcDbArc
 50
180.0
 51
270.0
  0
ARC
  5
2EC
330
26D
100
AcDbEntity
  8
0
  6
Continuous
 62
     7
370
    25
100
AcDbCircle
 10
-36.1761392798
 20
-373.7607796399
 30
0.0
 40
0.9999999999999645
100
AcDbArc
 50
180.0
 51
299.9973117337
  0
ARC
  5
2ED
330
26D
100
AcDbEntity
  8
0
  6
Continuous
 62
     7
370
    25
100
AcDbCircle
 10
285.2645529413
 20
-188.1970178564
 30
0.0
 40
0.9999999999998195
100
AcDbArc
 50
299.9973117336
 51
0.0
  0
ARC
  5
2EE
330
26D
100
AcDbEntity
  8
0
  6
Continuous
 62
     7
370
    25
100
AcDbCircle
 10
-37.0551367408
 20
-18.395868822
 30
0.0
 40
1.536804807572022
100
AcDbArc
 50
122.60547834
 51
177.3945215143
  0
ARC
  5
2EF
330
26D
100
AcDbEntity
  8
0
  6
Continuous
 62
     7
370
    25
100
AcDbCircle
 10
-38.7113553812
 20
-18.395868822
 30
0.0
 40
1.536804807572181
100
AcDbArc
 50
2.6054784857
 51
57.39452166
  0
ARC
  5
2F0
330
26D
100
AcDbEntity
  8
0
  6
Continuous
 62
     7
370
    25
100
AcDbCircle
 10
-37.883246061
 20
-16.9612968848
 30
0.0
 40
1.537021907911687
100
AcDbArc
 50
242.6096722366
 51
297.3903277634
  0
ARC
  5
2F1
330
26D
100
AcDbEntity
  8
0
  6
Continuous
 62
     7
370
    25
100
AcDbCircle
 10
-37.883246061
 20
-48.8063885483
 30
0.0
 40
1.537021907911816
100
AcDbArc
 50
242.6096722366
 51
297.3903277634
  0
ARC
  5
2F2
330
26D
100
AcDbEntity
  8
0
  6
Continuous
 62
     7
370
    25
100
AcDbCircle
 10
-390.6085273341
 20
185.7061591337
 30
0.0
 40
1.536804807572125
100
AcDbArc
 50
122.60547834
 51
177.3945215143
  0
ARC
  5
2F3
330
26D
100
AcDbEntity
  8
0
  6
Continuous
 62
     7
370
    25
100
AcDbCircle
 10
285.1435504023
 20
168.5615887854
 30
0.0
 40
1.536804807572114
100
AcDbArc
 50
2.6054784857
 51
57.39452166
  0
ARC
  5
2F4
330
26D
100
AcDbEntity
  8
0
  6
Continuous
 62
     7
370
    25
100
AcDbCircle
 10
286.47120266
 20
137.244468407
 30
0.0
 40
0.5029392784935955
100
AcDbArc
 50
294.3746582936
 51
354.3052007488
  0
ARC
  5
2F5
330
26D
100
AcDbEntity
  8
0
  6
Continuous
 62
     7
370
    25
100
AcDbCircle
 10
-391.9361795918
 20
154.3890387552
 30
0.0
 40
0.5029392784935806
100
AcDbArc
 50
185.6947992512
 51
245.6253417064
  0
ARC
  5
2F6
330
26D
100
AcDbEntity
  8
0
  6
Continuous
 62
     7
370
    25
100
AcDbCircle
 10
-39.0908099047
 20
-373.7110059631
 30
0.0
 40
0.5029392784938589
100
AcDbArc
 50
294.3746582936
 51
354.3052007488
  0
ARC
  5
2F7
330
26D
100
AcDbEntity
  8
0
  6
Continuous
 62
     7
370
    25
100
AcDbCircle
 10
-36.1761392798
 20
-372.8042726109
 30
0.0
 40
1.537021907911784
100
AcDbArc
 50
242.6096722366
 51
297.3903277634
  0
ARC
  5
2F8
330
26D
100
AcDbEntity
  8
0
  6
Continuous
 62
     7
370
    25
100
AcDbCircle
 10
-36.6756822173
 20
-373.710873263
 30
0.0
 40
0.5029392784934533
100
AcDbArc
 50
185.6947992512
 51
245.6253417064
  0
ARC
  5
2F9
330
26D
100
AcDbEntity
  8
0
  6
Continuous
 62
     8
370
    25
100
AcDbCircle
 10
286.2645797773
 20
169.4473131764
 30
0.0
 40
0.5029772359018387
100
AcDbArc
 50
65.6928809539
 51
125.6175774752
  0
ARC
  5
2FA
330
26D
100
AcDbEntity
  8
0
  6
Continuous
 62
     8
370
    25
100
AcDbCircle
 10
286.47120266
 20
169.0895600705
 30
0.0
 40
0.502939278493524
100
AcDbArc
 50
294.3746582936
 51
354.3052007488
  0
ARC
  5
2FB
330
26D
100
AcDbEntity
  8
0
  6
Continuous
 62
     8
370
    25
100
AcDbCircle
 10
-67.288810816
 20
373.5493411321
 30
0.0
 40
0.5029772359016598
100
AcDbArc
 50
65.6928809539
 51
125.6175774752
  0
ARC
  5
2FC
330
26D
100
AcDbEntity
  8
0
  6
Continuous
 62
     8
370
    25
100
AcDbCircle
 10
-391.9361795918
 20
186.2341304188
 30
0.0
 40
0.5029392784938944
100
AcDbArc
 50
185.6947992512
 51
245.6253417064
  0
ARC
  5
2FD
330
26D
100
AcDbEntity
  8
0
  6
Continuous
 62
     8
370
    25
100
AcDbCircle
 10
-391.7295567091
 20
186.5918835246
 30
0.0
 40
0.5029772359019257
100
AcDbArc
 50
54.3824225248
 51
114.3071190461
  0
ARC
  5
2FE
330
26D
100
AcDbEntity
  8
0
  6
Continuous
 62
     8
370
    25
100
AcDbCircle
 10
-67.8746509257
 20
373.5493411321
 30
0.0
 40
0.5029772359015622
100
AcDbArc
 50
54.3824225248
 51
114.3071190461
  0
ARC
  5
2FF
330
26D
100
AcDbEntity
  8
0
  6
Continuous
 62
     8
370
    25
100
AcDbCircle
 10
-35.9590344009
 20
-374.2230704332
 30
0.0
 40
0.4929779299696646
100
AcDbArc
 50
305.0133328727
 51
6.2988475207
  0
ARC
  5
300
330
26D
100
AcDbEntity
  8
0
  6
Continuous
 62
     8
370
    25
100
AcDbCircle
 10
285.4959741665
 20
-188.6657859409
 30
0.0
 40
0.4795255464817825
100
AcDbArc
 50
304.0563508365
 51
7.2558295569
  0
ARC
  5
301
330
26D
100
AcDbEntity
  8
0
  6
Continuous
 62
     8
370
    25
100
AcDbCircle
 10
285.7640958788
 20
-188.1471114795
 30
0.0
 40
0.502939278493524
100
AcDbArc
 50
294.3746582936
 51
354.3052007488
  0
VIEWPORT
  5
42D
330
26D
100
AcDbEntity
  8
0
100
AcDbViewport
 10
0.0
 20
0.0
 30
0.0
 40
205.6
 41
156.0
 68
     1
 69
     1
 12
-54.0461917755
 22
-18.2384401098
 13
0.0
 23
0.0
 14
10.0
 24
10.0
 15
10.0
 25
10.0
 16
0.0
 26
0.0
 36
1.0
 17
0.0
 27
0.0
 37
0.0
 42
50.0
 43
0.0
 44
0.0
 45
448.8
 50
0.0
 51
0.0
 72
   100
 90
   557152
  1

281
     0
 71
     1
 74
     0
110
0.0
120
0.0
130
0.0
111
1.0
121
0.0
131
0.0
112
0.0
122
1.0
132
0.0
 79
     0
146
0.0
  0
ENDBLK
  5
270
330
26D
100
AcDbEntity
  8
0
100
AcDbBlockEnd
  0
BLOCK
  5
304
330
302
100
AcDbEntity
  8
0
100
AcDbBlockBegin
  2
*Paper_Space5
 70
     0
 10
0.0
 20
0.0
 30
0.0
  3
*Paper_Space5
  1

  0
LWPOLYLINE
  5
32E
330
302
100
AcDbEntity
  8
0
  6
Continuous
 62
     7
370
    25
100
AcDbPolyline
 90
        7
 70
   128
 43
0.0
 10
-385.8246015966
 20
97.6209257828
 10
-385.9881755918
 20
97.6765713204
 10
-386.1275286879
 20
97.7475833869
 10
-386.2373056238
 20
97.8312330284
 10
-386.3132877332
 20
97.9243056361
 10
-386.3525550664
 20
98.0232244818
 10
-386.3579062077
 20
98.0764347896
  0
SPLINE
  5
331
330
302
100
AcDbEntity
  8
0
  6
Continuous
 62
     7
370
    25
100
AcDbSpline
210
0.0
220
0.0
230
1.0
 70
     8
 71
     3
 72
    14
 73
    10
 74
     0
 42
0.000000001
 43
0.00000001
 40
0.0
 40
0.0
 40
0.0
 40
0.0
 40
0.2899157761897729
 40
0.4461984241462876
 40
0.593854457286587
 40
0.7276057062193385
 40
0.8519226003572907
 40
0.9720905787314901
 40
1.0
 40
1.0
 40
1.0
 40
1.0
 10
-380.9872003512713
 20
59.40050585208084
 30
0.0
 10
-381.1298846830416
 20
59.602937749256
 30
0.0
 10
-381.3494847504231
 20
59.91449303853205
 30
0.0
 10
-381.5053237192604
 20
60.37279501626716
 30
0.0
 10
-381.5367724270017
 20
60.69617714264317
 30
0.0
 10
-381.4529453932968
 20
60.93957851796919
 30
0.0
 10
-381.271165188727
 20
61.04727818070673
 30
0.0
 10
-381.1029458282731
 20
61.05601505271473
 30
0.0
 10
-381.0057729539704
 20
61.02009085348428
 30
0.0
 10
-380.9874579464721
 20
61.01331991063634
 30
0.0
  0
SPLINE
  5
332
330
302
100
AcDbEntity
  8
0
  6
Continuous
 62
     7
370
    25
100
AcDbSpline
210
0.0
220
0.0
230
1.0
 70
     8
 71
     3
 72
    14
 73
    10
 74
     0
 42
0.000000001
 43
0.00000001
 40
0.0
 40
0.0
 40
0.0
 40
0.0
 40
0.2899157761897438
 40
0.4461984241462706
 40
0.5938544572865663
 40
0.7276057062192894
 40
0.8519226003572669
 40
0.9720905787314384
 40
1.0
 40
1.0
 40
1.0
 40
1.0
 10
53.4138395524046
 20
-58.66038870538823
 30
0.0
 10
53.57940657731083
 20
-58.54173292193013
 30
0.0
 10
53.83422453366587
 20
-58.35911428595702
 30
0.0
 10
54.22904536828641
 20
-58.0504698435894
 30
0.0
 10
54.51701704415635
 20
-57.81389933312801
 30
0.0
 10
54.74661208259923
 20
-57.61011457805927
 30
0.0
 10
54.86549334137321
 20
-57.48532032961574
 30
0.0
 10
54.8934776225448
 20
-57.43847056793318
 30
0.0
 10
54.87268200282469
 20
-57.44233345824734
 30
0.0
 10
54.86876247349269
 20
-57.44306153041332
 30
0.0
  0
SPLINE
  5
333
330
302
100
AcDbEntity
  8
0
  6
Continuous
 62
     7
370
    25
100
AcDbSpline
210
0.0
220
0.0
230
1.0
 70
     8
 71
     3
 72
    14
 73
    10
 74
     0
 42
0.000000001
 43
0.00000001
 40
0.0
 40
0.0
 40
0.0
 40
0.0
 40
0.25
 40
0.25
 40
0.5
 40
0.5
 40
0.75
 40
0.75
 40
1.0
 40
1.0
 40
1.0
 40
1.0
 10
54.76495306301207
 20
-363.2417543220537
 30
0.0
 10
54.70995248396859
 20
-363.2954365733208
 30
0.0
 10
54.63161755266814
 20
-363.3297793791634
 30
0.0
 10
54.43051936828365
 20
-363.3349508354921
 30
0.0
 10
54.30782018001742
 20
-363.3050693096885
 30
0.0
 10
54.04399885661464
 20
-363.179706288922
 30
0.0
 10
53.90376928159932
 20
-363.0846489220453
 30
0.0
 10
53.64054403875618
 20
-362.8588395479806
 30
0.0
 10
53.51806922761163
 20
-362.7290756609777
 30
0.0
 10
53.4138395524046
 20
-362.5997301334719
 30
0.0
  0
SPLINE
  5
338
330
302
100
AcDbEntity
  8
0
  6
Continuous
 62
     7
370
    25
100
AcDbSpline
210
0.0
220
0.0
230
1.0
 70
     8
 71
     3
 72
    10
 73
     6
 74
     0
 42
0.000000001
 43
0.00000001
 40
0.0
 40
0.0
 40
0.0
 40
0.0
 40
0.2702021513146545
 40
0.6390788069613212
 40
1.0
 40
1.0
 40
1.0
 40
1.0
 10
-381.5114797726081
 20
-244.8472595613634
 30
0.0
 10
-381.4927400618413
 20
-244.8441037154307
 30
0.0
 10
-381.4484171282843
 20
-244.8366395474224
 30
0.0
 10
-381.2619900765232
 20
-244.7262658944564
 30
0.0
 10
-381.0781288412662
 20
-244.6008566571063
 30
0.0
 10
-380.9872003512714
 20
-244.5388355760029
 30
0.0
  0
LWPOLYLINE
  5
33E
330
302
100
AcDbEntity
  8
0
  6
Continuous
 62
     8
370
    25
100
AcDbPolyline
 90
        7
 70
   128
 43
0.0
 10
-386.3579062077
 20
131.505959517
 10
-386.3525550664
 20
131.4527492092
 10
-386.3132877332
 20
131.3538303635
 10
-386.2373056238
 20
131.2607577558
 10
-386.1275286879
 20
131.1771081143
 10
-385.9881755918
 20
131.1060960478
 10
-385.8246015966
 20
131.0504505102
  0
LWPOLYLINE
  5
347
330
302
100
AcDbEntity
  8
0
  6
Continuous
 62
     8
370
    25
100
AcDbPolyline
 90
        8
 70
   128
 43
0.0
 10
-382.5847157827
 20
-243.1105369181
 10
-382.8747671306
 20
-243.133509834
 10
-383.1652769114
 20
-243.1121286452
 10
-383.4312266179
 20
-243.0482346852
 10
-383.6497128399
 20
-242.9473304591
 10
-383.8019196906
 20
-242.818105771
 10
-383.8747392184
 20
-242.6716893642
 10
-383.8800903597
 20
-242.6184790564
  0
LWPOLYLINE
  5
348
330
302
100
AcDbEntity
  8
0
  6
Continuous
 62
     8
370
    25
100
AcDbPolyline
 90
        7
 70
   128
 43
0.0
 10
-382.5847157827
 20
-243.1105369181
 10
-382.5903913224
 20
-243.268307209
 10
-382.6071998336
 20
-243.4011049684
 10
-382.6344953747
 20
-243.5038268529
 10
-382.6712289933
 20
-243.5725253181
 10
-382.7159890371
 20
-243.6045603205
 10
-382.722837559
 20
-243.6060374378
  0
LINE
  5
353
330
302
100
AcDbEntity
  8
0
  6
Continuous
 62
     7
370
    25
100
AcDbLine
 10
-386.3579062077
 20
131.505959517
 30
0.0
 11
-386.3579062077
 21
98.0764347896
 31
0.0
  0
LINE
  5
354
330
302
100
AcDbEntity
  8
0
  6
Continuous
 62
     7
370
    25
100
AcDbLine
 10
-172.3098962364
 20
340.8447160062
 30
0.0
 11
-386.0563843664
 21
132.2215908899
 31
0.0
  0
LINE
  5
355
330
302
100
AcDbEntity
  8
0
  6
Continuous
 62
     7
370
    25
100
AcDbLine
 10
270.8599079526
 20
220.9111331303
 30
0.0
 11
-171.3491528861
 21
341.0940804723
 31
0.0
  0
LINE
  5
356
330
302
100
AcDbEntity
  8
0
  6
Continuous
 62
     7
370
    25
100
AcDbLine
 10
271.597642761
 20
186.516612564
 30
0.0
 11
271.597642761
 21
219.9461372914
 31
0.0
  0
LINE
  5
357
330
302
100
AcDbEntity
  8
0
  6
Continuous
 62
     7
370
    25
100
AcDbLine
 10
54.8703903912
 20
-57.4376273014
 30
0.0
 11
-380.9858300288
 21
61.0187541396
 31
0.0
  0
LINE
  5
358
330
302
100
AcDbEntity
  8
0
  6
Continuous
 62
     7
370
    25
100
AcDbLine
 10
54.8805349413
 20
-363.0013884274
 30
0.0
 11
54.8805349413
 21
-57.4514711546
 31
0.0
  0
LINE
  5
359
330
302
100
AcDbEntity
  8
0
  6
Continuous
 62
     7
370
    25
100
AcDbLine
 10
-381.5123940094
 20
-244.8500262782
 30
0.0
 11
54.347893605
 21
-363.3075130956
 31
0.0
  0
LINE
  5
35A
330
302
100
AcDbEntity
  8
0
  6
Continuous
 62
     7
370
    25
100
AcDbLine
 10
-381.5205049623
 20
60.6060914791
 30
0.0
 11
-381.5205049623
 21
-244.9404938699
 31
0.0
  0
LINE
  5
35B
330
302
100
AcDbEntity
  8
0
  6
Continuous
 62
     7
370
    25
100
AcDbLine
 10
-383.8800903597
 20
97.0924492944
 30
0.0
 11
-383.8800903597
 21
-242.6184790564
 31
0.0
  0
LINE
  5
35C
330
302
100
AcDbEntity
  8
0
  6
Continuous
 62
     7
370
    25
100
AcDbLine
 10
-382.722837559
 20
-243.6060374378
 30
0.0
 11
-381.5205049623
 21
-243.4145852951
 31
0.0
  0
LINE
  5
35D
330
302
100
AcDbEntity
  8
0
  6
Continuous
 62
     7
370
    25
100
AcDbLine
 10
49.8765705117
 20
-20.7933168495
 30
0.0
 11
49.8765705117
 21
-56.0804140628
 31
0.0
  0
LINE
  5
35E
330
302
100
AcDbEntity
  8
0
  6
Continuous
 62
     7
370
    25
100
AcDbLine
 10
54.8805349413
 20
-359.7997844058
 30
0.0
 11
56.7027488429
 21
-362.8353695435
 31
0.0
  0
LINE
  5
35F
330
302
100
AcDbEntity
  8
0
  6
Continuous
 62
     7
370
    25
100
AcDbLine
 10
58.2586123943
 20
-363.0363259819
 30
0.0
 11
270.4117027979
 21
-155.9684058944
 31
0.0
  0
LINE
  5
360
330
302
100
AcDbEntity
  8
0
  6
Continuous
 62
     7
370
    25
100
AcDbLine
 10
270.7132246393
 20
-155.2527745215
 30
0.0
 11
270.7132246393
 21
185.525838926
 31
0.0
  0
LINE
  5
361
330
302
100
AcDbEntity
  8
0
  6
Continuous
 62
     7
370
    25
100
AcDbLine
 10
-385.3579062077
 20
132.3631268177
 30
0.0
 11
56.851154631
 21
12.1801794757
 31
0.0
  0
LINE
  5
362
330
302
100
AcDbEntity
  8
0
  6
Continuous
 62
     7
370
    25
100
AcDbLine
 10
56.3844592421
 20
10.8675031682
 30
0.0
 11
-385.8246015966
 21
131.0504505102
 31
0.0
  0
LINE
  5
363
330
302
100
AcDbEntity
  8
0
  6
Continuous
 62
     7
370
    25
100
AcDbLine
 10
56.3844592421
 20
-22.5620215592
 30
0.0
 11
56.3844592421
 21
10.8675031682
 31
0.0
  0
LINE
  5
364
330
302
100
AcDbEntity
  8
0
  6
Continuous
 62
     7
370
    25
100
AcDbLine
 10
57.7355727527
 20
11.0826462803
 30
0.0
 11
57.7355727527
 21
-22.3468784471
 31
0.0
  0
LINE
  5
365
330
302
100
AcDbEntity
  8
0
  6
Continuous
 62
     7
370
    25
100
AcDbLine
 10
271.4820608826
 20
219.7057713967
 30
0.0
 11
57.7355727527
 21
11.0826462803
 31
0.0
  0
LINE
  5
366
330
302
100
AcDbEntity
  8
0
  6
Continuous
 62
     7
370
    25
100
AcDbLine
 10
56.851154631
 20
12.1801794757
 30
0.0
 11
270.597642761
 21
220.8033045921
 31
0.0
  0
LINE
  5
367
330
302
100
AcDbEntity
  8
0
  6
Continuous
 62
     7
370
    25
100
AcDbLine
 10
-385.8246015966
 20
97.6209257828
 30
0.0
 11
56.3844592421
 21
-22.5620215592
 31
0.0
  0
LINE
  5
368
330
302
100
AcDbEntity
  8
0
  6
Continuous
 62
     7
370
    25
100
AcDbLine
 10
-385.8246015966
 20
131.0504505102
 30
0.0
 11
-385.8246015966
 21
97.6209257828
 31
0.0
  0
LINE
  5
369
330
302
100
AcDbEntity
  8
0
  6
Continuous
 62
     7
370
    25
100
AcDbLine
 10
270.597642761
 20
220.8033045921
 30
0.0
 11
-171.6114180778
 21
340.986251934
 31
0.0
  0
LINE
  5
36A
330
302
100
AcDbEntity
  8
0
  6
Continuous
 62
     7
370
    25
100
AcDbLine
 10
-171.6114180778
 20
340.986251934
 30
0.0
 11
-385.3579062077
 21
132.3631268177
 31
0.0
  0
LINE
  5
36B
330
302
100
AcDbEntity
  8
0
  6
Continuous
 62
     7
370
    25
100
AcDbLine
 10
271.4820608826
 20
186.2762466693
 30
0.0
 11
271.4820608826
 21
219.7057713967
 31
0.0
  0
LINE
  5
36C
330
302
100
AcDbEntity
  8
0
  6
Continuous
 62
     7
370
    25
100
AcDbLine
 10
57.7355727527
 20
-22.3468784471
 30
0.0
 11
271.4820608826
 21
186.2762466693
 31
0.0
  0
LINE
  5
36D
330
302
100
AcDbEntity
  8
0
  6
Continuous
 62
     7
370
    25
100
AcDbLine
 10
53.4138395524
 20
-58.6603887054
 30
0.0
 11
-380.9872003513
 21
59.4005058521
 31
0.0
  0
LINE
  5
36E
330
302
100
AcDbEntity
  8
0
  6
Continuous
 62
     7
370
    25
100
AcDbLine
 10
53.4138395524
 20
-362.5997301335
 30
0.0
 11
53.4138395524
 21
-58.6603887054
 31
0.0
  0
LINE
  5
36F
330
302
100
AcDbEntity
  8
0
  6
Continuous
 62
     7
370
    25
100
AcDbLine
 10
-380.9872003513
 20
-244.538835576
 30
0.0
 11
53.4138395524
 21
-362.5997301335
 31
0.0
  0
LINE
  5
370
330
302
100
AcDbEntity
  8
0
  6
Continuous
 62
     7
370
    25
100
AcDbLine
 10
-380.9872003513
 20
59.4005058521
 30
0.0
 11
-380.9872003513
 21
-244.538835576
 31
0.0
  0
LINE
  5
371
330
302
100
AcDbEntity
  8
0
  6
Continuous
 62
     7
370
    25
100
AcDbLine
 10
58.4445523574
 20
-362.5610605037
 30
0.0
 11
270.597642761
 21
-155.4931404162
 31
0.0
  0
LINE
  5
372
330
302
100
AcDbEntity
  8
0
  6
Continuous
 62
     7
370
    25
100
AcDbLine
 10
49.7988408305
 20
-56.059288801
 30
0.0
 11
49.7988408305
 21
-20.7721915876
 31
0.0
  0
LINE
  5
373
330
302
100
AcDbEntity
  8
0
  6
Continuous
 62
     7
370
    25
100
AcDbLine
 10
-360.5711676279
 20
90.7575835457
 30
0.0
 11
-360.5711676279
 21
55.4704863324
 31
0.0
  0
LINE
  5
374
330
302
100
AcDbEntity
  8
0
  6
Continuous
 62
     8
370
    25
100
AcDbLine
 10
-382.5847157827
 20
96.7403942409
 30
0.0
 11
-382.5847157827
 21
-243.1105369181
 31
0.0
  0
LINE
  5
375
330
302
100
AcDbEntity
  8
0
  6
Continuous
 62
     8
370
    25
100
AcDbLine
 10
-360.966899613
 20
55.5780378064
 30
0.0
 11
-360.966899613
 21
90.8651350197
 31
0.0
  0
LINE
  5
376
330
302
100
AcDbEntity
  8
0
  6
Continuous
 62
     8
370
    25
100
AcDbLine
 10
-382.5847157827
 20
-243.1105369181
 30
0.0
 11
-381.5205049623
 21
-242.9410784485
 31
0.0
  0
LINE
  5
377
330
302
100
AcDbEntity
  8
0
  6
Continuous
 62
     8
370
    25
100
AcDbLine
 10
58.4445523574
 20
-21.6548926181
 30
0.0
 11
58.4445523574
 21
-362.5610605037
 31
0.0
  0
LINE
  5
378
330
302
100
AcDbEntity
  8
0
  6
Continuous
 62
     8
370
    25
100
AcDbLine
 10
57.0934388468
 20
-362.7762036158
 30
0.0
 11
57.0934388468
 21
-22.6062052315
 31
0.0
  0
LINE
  5
379
330
302
100
AcDbEntity
  8
0
  6
Continuous
 62
     8
370
    25
100
AcDbLine
 10
56.6047527102
 20
-362.4728237625
 30
0.0
 11
56.6047527102
 21
-22.6056708355
 31
0.0
  0
LINE
  5
37A
330
302
100
AcDbEntity
  8
0
  6
Continuous
 62
     8
370
    25
100
AcDbLine
 10
270.597642761
 20
-155.4931404162
 30
0.0
 11
270.597642761
 21
185.4130274695
 31
0.0
  0
LINE
  5
37B
330
302
100
AcDbEntity
  8
0
  6
Continuous
 62
     8
370
    25
100
AcDbLine
 10
54.8805349413
 20
-359.6004881773
 30
0.0
 11
56.6047527102
 21
-362.4728237625
 31
0.0
  0
LINE
  5
37C
330
302
100
AcDbEntity
  8
0
  6
Continuous
 62
     8
370
    25
100
AcDbLine
 10
49.9211889862
 20
-20.8054431948
 30
0.0
 11
49.9211889862
 21
-56.0925404081
 31
0.0
  0
ARC
  5
37D
330
302
100
AcDbEntity
  8
0
  6
Continuous
 62
     7
370
    25
100
AcDbCircle
 10
-385.3579062077
 20
131.505959517
 30
0.0
 40
1.00000000000108
100
AcDbArc
 50
134.305033619
 51
180.0
  0
ARC
  5
37E
330
302
100
AcDbEntity
  8
0
  6
Continuous
 62
     7
370
    25
100
AcDbCircle
 10
270.597642761
 20
219.9461372914
 30
0.0
 40
1.000000000000239
100
AcDbArc
 50
0.0
 51
74.7954868413
  0
ARC
  5
37F
330
302
100
AcDbEntity
  8
0
  6
Continuous
 62
     7
370
    25
100
AcDbCircle
 10
-171.6114180778
 20
340.1290846333
 30
0.0
 40
1.00000000000011
100
AcDbArc
 50
74.7954868413
 51
134.305033619
  0
ARC
  5
380
330
302
100
AcDbEntity
  8
0
  6
Continuous
 62
     7
370
    25
100
AcDbCircle
 10
-382.8800903597
 20
-242.6184790564
 30
0.0
 40
0.9999999999997158
100
AcDbArc
 50
180.0
 51
279.0474747534
  0
ARC
  5
381
330
302
100
AcDbEntity
  8
0
  6
Continuous
 62
     7
370
    25
100
AcDbCircle
 10
57.5601342357
 20
-362.320694609
 30
0.0
 40
1.00000000000071
100
AcDbArc
 50
210.9757296288
 51
314.305033619
  0
ARC
  5
382
330
302
100
AcDbEntity
  8
0
  6
Continuous
 62
     7
370
    25
100
AcDbCircle
 10
269.7132246393
 20
-155.2527745215
 30
0.0
 40
1.000000000000057
100
AcDbArc
 50
314.305033619
 51
360.0
  0
ARC
  5
383
330
302
100
AcDbEntity
  8
0
  6
Continuous
 62
     7
370
    25
100
AcDbCircle
 10
58.4294146904
 20
10.879760995
 30
0.0
 40
2.044992185835394
100
AcDbArc
 50
140.5129436103
 51
180.3434369839
  0
ARC
  5
384
330
302
100
AcDbEntity
  8
0
  6
Continuous
 62
     7
370
    25
100
AcDbCircle
 10
56.5232005578
 20
11.0107972691
 30
0.0
 40
1.214499328616663
100
AcDbArc
 50
3.391562315
 51
74.3338098233
  0
ARC
  5
385
330
302
100
AcDbEntity
  8
0
  6
Continuous
 62
     7
370
    25
100
AcDbCircle
 10
56.8428525618
 20
12.338876005
 30
0.0
 40
1.541123765478752
100
AcDbArc
 50
252.6960345908
 51
305.398914916
  0
ARC
  5
386
330
302
100
AcDbEntity
  8
0
  6
Continuous
 62
     7
370
    25
100
AcDbCircle
 10
-383.7796461483
 20
131.062708337
 30
0.0
 40
2.044992185836422
100
AcDbArc
 50
140.5129436103
 51
180.3434369839
  0
ARC
  5
387
330
302
100
AcDbEntity
  8
0
  6
Continuous
 62
     7
370
    25
100
AcDbCircle
 10
56.8428525618
 20
-21.0906487223
 30
0.0
 40
1.541123765478964
100
AcDbArc
 50
252.6960345908
 51
305.398914916
  0
ARC
  5
388
330
302
100
AcDbEntity
  8
0
  6
Continuous
 62
     7
370
    25
100
AcDbCircle
 10
270.2696886878
 20
219.6339223855
 30
0.0
 40
1.21449932861657
100
AcDbArc
 50
3.391562315
 51
74.3338098233
  0
ARC
  5
389
330
302
100
AcDbEntity
  8
0
  6
Continuous
 62
     7
370
    25
100
AcDbCircle
 10
271.2657869322
 20
186.5282159283
 30
0.0
 40
0.3320586230397195
100
AcDbArc
 50
310.6406362013
 51
357.9974645044
  0
ARC
  5
38A
330
302
100
AcDbEntity
  8
0
  6
Continuous
 62
     7
370
    25
100
AcDbCircle
 10
54.5373790206
 20
-362.9843513227
 30
0.0
 40
0.343578591939541
100
AcDbArc
 50
311.4804043366
 51
357.1576963691
  0
ARC
  5
38B
330
302
100
AcDbEntity
  8
0
  6
Continuous
 62
     7
370
    25
100
AcDbCircle
 10
57.5518321665
 20
-361.304830779
 30
0.0
 40
1.541123765478672
100
AcDbArc
 50
252.6960345908
 51
305.398914916
  0
ARC
  5
38C
330
302
100
AcDbEntity
  8
0
  6
Continuous
 62
     7
370
    25
100
AcDbCircle
 10
57.2473868393
 20
-361.9829439949
 30
0.0
 40
0.8080599053666989
100
AcDbArc
 50
217.318260693
 51
259.0171262716
  0
ARC
  5
38D
330
302
100
AcDbEntity
  8
0
  6
Continuous
 62
     8
370
    25
100
AcDbCircle
 10
-385.5861967222
 20
131.6954790922
 30
0.0
 40
0.7055990676827238
100
AcDbArc
 50
71.12277008
 51
131.7872519911
  0
ARC
  5
38E
330
302
100
AcDbEntity
  8
0
  6
Continuous
 62
     8
370
    25
100
AcDbCircle
 10
-171.8397085923
 20
340.3186042086
 30
0.0
 40
0.7055990676831053
100
AcDbArc
 50
71.12277008
 51
131.7872519911
  0
ARC
  5
38F
330
302
100
AcDbEntity
  8
0
  6
Continuous
 62
     8
370
    25
100
AcDbCircle
 10
270.8163506095
 20
220.6442145786
 30
0.0
 40
0.2704491734413131
100
AcDbArc
 50
80.7318299956
 51
143.9675277132
  0
ARC
  5
390
330
302
100
AcDbEntity
  8
0
  6
Continuous
 62
     8
370
    25
100
AcDbCircle
 10
271.2657869322
 20
219.9577406557
 30
0.0
 40
0.3320586230398288
100
AcDbArc
 50
310.6406362013
 51
357.9974645044
  0
ARC
  5
391
330
302
100
AcDbEntity
  8
0
  6
Continuous
 62
     8
370
    25
100
AcDbCircle
 10
-171.3927102292
 20
340.8271619205
 30
0.0
 40
0.2704491734421555
100
AcDbArc
 50
80.7318299957
 51
143.9675277131
  0
ARC
  5
392
330
302
100
AcDbEntity
  8
0
  6
Continuous
 62
     8
370
    25
100
AcDbCircle
 10
57.3008945449
 20
-362.479173678
 30
0.0
 40
0.6961707947801618
100
AcDbArc
 50
179.4773862917
 51
210.7738055458
  0
ARC
  5
393
330
302
100
AcDbEntity
  8
0
  6
Continuous
 62
     8
370
    25
100
AcDbCircle
 10
57.7992324278
 20
-362.5825952226
 30
0.0
 40
0.6456791429340292
100
AcDbArc
 50
315.3544713609
 51
1.9112857848
  0
ARC
  5
394
330
302
100
AcDbEntity
  8
0
  6
Continuous
 62
     8
370
    25
100
AcDbCircle
 10
269.9523228314
 20
-155.5146751351
 30
0.0
 40
0.6456791429327774
100
AcDbArc
 50
315.3544713609
 51
1.9112857849
  0
ARC
  5
395
330
302
100
AcDbEntity
  8
0
  6
Continuous
 62
     8
370
    25
100
AcDbCircle
 10
270.3813688105
 20
-155.2411711571
 30
0.0
 40
0.3320586230396609
100
AcDbArc
 50
310.6406362013
 51
357.9974645044
  0
VIEWPORT
  5
42F
330
302
100
AcDbEntity
  8
0
100
AcDbViewport
 10
0.0
 20
0.0
 30
0.0
 40
205.6
 41
156.0
 68
     1
 69
     1
 12
-54.0461917755
 22
-18.2384401098
 13
0.0
 23
0.0
 14
10.0
 24
10.0
 15
10.0
 25
10.0
 16
0.0
 26
0.0
 36
1.0
 17
0.0
 27
0.0
 37
0.0
 42
50.0
 43
0.0
 44
0.0
 45
448.8
 50
0.0
 51
0.0
 72
   100
 90
   557152
  1

281
     0
 71
     1
 74
     0
110
0.0
120
0.0
130
0.0
111
1.0
121
0.0
131
0.0
112
0.0
122
1.0
132
0.0
 79
     0
146
0.0
  0
ENDBLK
  5
305
330
302
100
AcDbEntity
  8
0
100
AcDbBlockEnd
  0
BLOCK
  5
398
330
396
100
AcDbEntity
  8
0
100
AcDbBlockBegin
  2
*Paper_Space6
 70
     0
 10
0.0
 20
0.0
 30
0.0
  3
*Paper_Space6
  1

  0
LWPOLYLINE
  5
3C0
330
396
100
AcDbEntity
  8
0
  6
Continuous
 62
     7
370
    25
100
AcDbPolyline
 90
        8
 70
   128
 43
0.0
 10
-372.9844795518
 20
110.2263679765
 10
-373.1601764087
 20
110.2553508329
 10
-373.3155344753
 20
110.2952023773
 10
-373.4445834284
 20
110.3443911372
 10
-373.542363989
 20
110.4010268161
 10
-373.6051185051
 20
110.4629329367
 10
-373.6304353557
 20
110.5277304814
 10
-373.6309261613
 20
110.5381727587
  0
LWPOLYLINE
  5
3C1
330
396
100
AcDbEntity
  8
0
  6
Continuous
 62
     7
370
    25
100
AcDbPolyline
 90
        3
 70
   128
 43
0.0
 10
258.0037000553
 20
194.4191979199
 10
257.9901155225
 20
194.3644413616
 10
257.9391144021
 20
194.3013467898
  0
SPLINE
  5
3C3
330
396
100
AcDbEntity
  8
0
  6
Continuous
 62
     7
370
    25
100
AcDbSpline
210
0.0
220
0.0
230
1.0
 70
     8
 71
     3
 72
    13
 73
     9
 74
     0
 42
0.000000001
 43
0.00000001
 40
0.0
 40
0.0
 40
0.0
 40
0.0
 40
0.3228297650148909
 40
0.4968551015411835
 40
0.6612744481120698
 40
0.8102104074823675
 40
0.9486409346147228
 40
1.0
 40
1.0
 40
1.0
 40
1.0
 10
-368.1482540750477
 20
68.4556353612306
 30
0.0
 10
-368.302639662271
 20
68.64820717697246
 30
0.0
 10
-368.5402486900904
 20
68.9445871872234
 30
0.0
 10
-368.740631765659
 20
69.35395940581145
 30
0.0
 10
-368.8132611096013
 20
69.63310949878222
 30
0.0
 10
-368.768736167059
 20
69.81888305743544
 30
0.0
 10
-368.6582299916298
 20
69.88648868800067
 30
0.0
 10
-368.5634146918952
 20
69.86513042832091
 30
0.0
 10
-368.5377566718005
 20
69.85935065799286
 30
0.0
  0
SPLINE
  5
3C4
330
396
100
AcDbEntity
  8
0
  6
Continuous
 62
     7
370
    25
100
AcDbSpline
210
0.0
220
0.0
230
1.0
 70
    24
 71
     3
 72
    13
 73
     9
 74
     0
 42
0.000000001
 43
0.00000001
 40
0.0
 40
0.0
 40
0.0
 40
0.0
 40
0.3228297650148718
 40
0.496855101541185
 40
0.6612744481120739
 40
0.8102104074823461
 40
0.9486409346147351
 40
1.0
 40
1.0
 40
1.0
 40
1.0
 10
91.300681895526
 20
10.57051040392365
 30
0.0
 10
91.47244512237353
 20
10.72199133147517
 30
0.0
 10
91.7367994191728
 20
10.95512990727131
 30
0.0
 10
92.11791294125989
 20
11.29124044086606
 30
0.0
 10
92.38579491994918
 20
11.52749013965435
 30
0.0
 10
92.57567702640736
 20
11.69495041703079
 30
0.0
 10
92.65656568047166
 20
11.76628750454574
 30
0.0
 10
92.64722685160294
 20
11.75805143163579
 30
0.0
 10
92.64469966601742
 20
11.75582266344313
 30
0.0
  0
SPLINE
  5
3C5
330
396
100
AcDbEntity
  8
0
  6
Continuous
 62
     7
370
    25
100
AcDbSpline
210
0.0
220
0.0
230
1.0
 70
     8
 71
     3
 72
    14
 73
    10
 74
     0
 42
0.000000001
 43
0.00000001
 40
0.0
 40
0.0
 40
0.0
 40
0.0
 40
0.25
 40
0.25
 40
0.5
 40
0.5
 40
0.75
 40
0.75
 40
1.0
 40
1.0
 40
1.0
 40
1.0
 10
92.5896496327623
 20
-324.4850304654856
 30
0.0
 10
92.54798296610518
 20
-324.5217770114651
 30
0.0
 10
92.48293832390144
 20
-324.5386402956187
 30
0.0
 10
92.30472461544468
 20
-324.5120265115079
 30
0.0
 10
92.19151641705189
 20
-324.467961124751
 30
0.0
 10
91.93982981071466
 20
-324.32173801443
 30
0.0
 10
91.802202908725
 20
-324.220074992793
 30
0.0
 10
91.5374501953077
 20
-323.9893372677519
 30
0.0
 10
91.41092153349058
 20
-323.8611750758968
 30
0.0
 10
91.300681895526
 20
-323.7361750759
 30
0.0
  0
SPLINE
  5
3CA
330
396
100
AcDbEntity
  8
0
  6
Continuous
 62
     7
370
    25
100
AcDbSpline
210
0.0
220
0.0
230
1.0
 70
    24
 71
     3
 72
    11
 73
     7
 74
     0
 42
0.000000001
 43
0.00000001
 40
0.0
 40
0.0
 40
0.0
 40
0.0
 40
0.151311907917575
 40
0.3922173700470798
 40
0.6994213777062362
 40
1.0
 40
1.0
 40
1.0
 40
1.0
 10
-368.7857230232375
 20
-266.4132448871188
 30
0.0
 10
-368.7843179742203
 20
-266.4120057503579
 30
0.0
 10
-368.7806759301939
 20
-266.4087937694362
 30
0.0
 10
-368.6565751106221
 20
-266.2993471340639
 30
0.0
 10
-368.4459262469956
 20
-266.1135722983443
 30
0.0
 10
-368.2467544141122
 20
-265.9379192523392
 30
0.0
 10
-368.1482540750477
 20
-265.851050118593
 30
0.0
  0
LWPOLYLINE
  5
3D2
330
396
100
AcDbEntity
  8
0
  6
Continuous
 62
     8
370
    25
100
AcDbPolyline
 90
        8
 70
   128
 43
0.0
 10
-373.6309261613
 20
147.3077253815
 10
-373.6304353557
 20
147.2972831042
 10
-373.6051185051
 20
147.2324855595
 10
-373.542363989
 20
147.1705794389
 10
-373.4445834284
 20
147.11394376
 10
-373.3155344753
 20
147.0647550001
 10
-373.1601764087
 20
147.0249034557
 10
-372.9844795518
 20
146.9959205993
  0
LWPOLYLINE
  5
3D5
330
396
100
AcDbEntity
  8
0
  6
Continuous
 62
     8
370
    25
100
AcDbPolyline
 90
        3
 70
   128
 43
0.0
 10
257.1287000553
 20
232.1809072844
 10
257.0726749001
 20
232.1742738683
 10
257.0037000553
 20
232.1315595843
  0
LWPOLYLINE
  5
3D6
330
396
100
AcDbEntity
  8
0
  6
Continuous
 62
     8
370
    25
100
AcDbPolyline
 90
        3
 70
   128
 43
0.0
 10
257.9391144021
 20
231.0708994126
 10
257.9901155225
 20
231.1339939844
 10
258.0037000553
 20
231.1887505427
  0
LWPOLYLINE
  5
3D7
330
396
100
AcDbEntity
  8
0
  6
Continuous
 62
     8
370
    25
100
AcDbPolyline
 90
        3
 70
   128
 43
0.0
 10
-210.7034733067
 20
291.0571246557
 10
-210.6344984619
 20
291.0998389397
 10
-210.5784733068
 20
291.1064723557
  0
LWPOLYLINE
  5
3DB
330
396
100
AcDbEntity
  8
0
  6
Continuous
 62
     8
370
    25
100
AcDbPolyline
 90
        8
 70
   128
 43
0.0
 10
-370.0769672058
 20
-264.999730467
 10
-370.3592600162
 20
-265.0264597637
 10
-370.6526747088
 20
-265.0247230134
 10
-370.9319426073
 20
-264.994669784
 10
-371.1730133477
 20
-264.9388882392
 10
-371.3551260798
 20
-264.8621822483
 10
-371.4625973774
 20
-264.7711576798
 10
-371.4884050337
 20
-264.6959178578
  0
LWPOLYLINE
  5
3DC
330
396
100
AcDbEntity
  8
0
  6
Continuous
 62
     8
370
    25
100
AcDbPolyline
 90
        8
 70
   128
 43
0.0
 10
-370.0769672058
 20
-264.999730467
 10
-370.0848728683
 20
-265.1778257124
 10
-370.1082860456
 20
-265.3374015092
 10
-370.1463069825
 20
-265.4723254491
 10
-370.1974745556
 20
-265.5774124806
 10
-370.2598224238
 20
-265.6486241682
 10
-370.3309545935
 20
-265.6832238865
 10
-370.3396080476
 20
-265.6847856229
  0
LWPOLYLINE
  5
3E4
330
396
100
AcDbEntity
  8
0
  6
Continuous
 62
     8
370
    25
100
AcDbPolyline
 90
        3
 70
   128
 43
0.0
 10
257.0682857086
 20
-181.6437585524
 10
257.0547011758
 20
-181.6985151107
 10
257.0037000553
 20
-181.7616096825
  0
LINE
  5
3E5
330
396
100
AcDbEntity
  8
0
  6
Continuous
 62
     7
370
    25
100
AcDbLine
 10
-373.6309261613
 20
147.3077253815
 30
0.0
 11
-373.6309261613
 21
110.5381727587
 31
0.0
  0
LINE
  5
3E6
330
396
100
AcDbEntity
  8
0
  6
Continuous
 62
     7
370
    25
100
AcDbLine
 10
-211.3649111345
 20
290.864315614
 30
0.0
 11
-373.2923639891
 21
148.0577253815
 31
0.0
  0
LINE
  5
3E7
330
396
100
AcDbEntity
  8
0
  6
Continuous
 62
     7
370
    25
100
AcDbLine
 10
258.0037000553
 20
194.4191979199
 30
0.0
 11
258.0037000553
 21
231.1887505427
 31
0.0
  0
LINE
  5
3E8
330
396
100
AcDbEntity
  8
0
  6
Continuous
 62
     7
370
    25
100
AcDbLine
 10
257.1287000553
 20
232.1809072844
 30
0.0
 11
-210.5784733068
 21
291.1064723557
 31
0.0
  0
LINE
  5
3E9
330
396
100
AcDbEntity
  8
0
  6
Continuous
 62
     7
370
    25
100
AcDbLine
 10
92.6459954696
 20
11.7652704091
 30
0.0
 11
-368.5364608682
 21
69.8687984037
 31
0.0
  0
LINE
  5
3EA
330
396
100
AcDbEntity
  8
0
  6
Continuous
 62
     7
370
    25
100
AcDbLine
 10
92.654235286
 20
-324.3671793353
 30
0.0
 11
92.654235286
 21
11.7559273355
 31
0.0
  0
LINE
  5
3EB
330
396
100
AcDbEntity
  8
0
  6
Continuous
 62
     7
370
    25
100
AcDbLine
 10
-368.8551150312
 20
-266.4135509479
 30
0.0
 11
92.4646496328
 21
-324.5343781655
 31
0.0
  0
LINE
  5
3EC
330
396
100
AcDbEntity
  8
0
  6
Continuous
 62
     7
370
    25
100
AcDbLine
 10
-368.7947006845
 20
69.6450606974
 30
0.0
 11
-368.7947006845
 21
-266.482054378
 31
0.0
  0
LINE
  5
3ED
330
396
100
AcDbEntity
  8
0
  6
Continuous
 62
     7
370
    25
100
AcDbLine
 10
-371.4884050337
 20
110.0378803043
 30
0.0
 11
-371.4884050337
 21
-264.6959178578
 31
0.0
  0
LINE
  5
3EE
330
396
100
AcDbEntity
  8
0
  6
Continuous
 62
     7
370
    25
100
AcDbLine
 10
-370.3396080476
 20
-265.6847856229
 30
0.0
 11
-368.7947006845
 21
-265.4523202039
 31
0.0
  0
LINE
  5
3EF
330
396
100
AcDbEntity
  8
0
  6
Continuous
 62
     7
370
    25
100
AcDbLine
 10
85.0381643356
 20
52.520938931
 30
0.0
 11
85.0381643356
 21
12.7237670371
 31
0.0
  0
LINE
  5
3F0
330
396
100
AcDbEntity
  8
0
  6
Continuous
 62
     7
370
    25
100
AcDbLine
 10
92.654235286
 20
-322.6397887174
 30
0.0
 11
94.7539198906
 21
-324.1902311293
 31
0.0
  0
LINE
  5
3F1
330
396
100
AcDbEntity
  8
0
  6
Continuous
 62
     7
370
    25
100
AcDbLine
 10
96.0093774627
 20
-324.1357806688
 30
0.0
 11
256.7297235364
 21
-182.3937585524
 31
0.0
  0
LINE
  5
3F2
330
396
100
AcDbEntity
  8
0
  6
Continuous
 62
     7
370
    25
100
AcDbLine
 10
257.0682857086
 20
-181.6437585524
 30
0.0
 11
257.0682857086
 21
193.5333480706
 31
0.0
  0
LINE
  5
3F3
330
396
100
AcDbEntity
  8
0
  6
Continuous
 62
     7
370
    25
100
AcDbLine
 10
94.7226938103
 20
51.3008029052
 30
0.0
 11
94.7226938103
 21
88.070355528
 31
0.0
  0
LINE
  5
3F4
330
396
100
AcDbEntity
  8
0
  6
Continuous
 62
     7
370
    25
100
AcDbLine
 10
96.0116615475
 20
88.26430918
 30
0.0
 11
96.0116615475
 21
51.4947565572
 31
0.0
  0
LINE
  5
3F5
330
396
100
AcDbEntity
  8
0
  6
Continuous
 62
     7
370
    25
100
AcDbLine
 10
-372.6309261613
 20
148.2505344231
 30
0.0
 11
95.0762472008
 21
89.3249693518
 31
0.0
  0
LINE
  5
3F6
330
396
100
AcDbEntity
  8
0
  6
Continuous
 62
     7
370
    25
100
AcDbLine
 10
94.7226938103
 20
88.070355528
 30
0.0
 11
-372.9844795518
 21
146.9959205993
 31
0.0
  0
LINE
  5
3F7
330
396
100
AcDbEntity
  8
0
  6
Continuous
 62
     7
370
    25
100
AcDbLine
 10
-372.9844795518
 20
110.2263679765
 30
0.0
 11
94.7226938103
 21
51.3008029052
 31
0.0
  0
LINE
  5
3F8
330
396
100
AcDbEntity
  8
0
  6
Continuous
 62
     7
370
    25
100
AcDbLine
 10
-372.9844795518
 20
146.9959205993
 30
0.0
 11
-372.9844795518
 21
110.2263679765
 31
0.0
  0
LINE
  5
3F9
330
396
100
AcDbEntity
  8
0
  6
Continuous
 62
     7
370
    25
100
AcDbLine
 10
257.9391144021
 20
231.0708994126
 30
0.0
 11
96.0116615475
 21
88.26430918
 31
0.0
  0
LINE
  5
3FA
330
396
100
AcDbEntity
  8
0
  6
Continuous
 62
     7
370
    25
100
AcDbLine
 10
95.0762472008
 20
89.3249693518
 30
0.0
 11
257.0037000553
 21
232.1315595843
 31
0.0
  0
LINE
  5
3FB
330
396
100
AcDbEntity
  8
0
  6
Continuous
 62
     7
370
    25
100
AcDbLine
 10
257.9391144021
 20
194.3013467898
 30
0.0
 11
257.9391144021
 21
231.0708994126
 31
0.0
  0
LINE
  5
3FC
330
396
100
AcDbEntity
  8
0
  6
Continuous
 62
     7
370
    25
100
AcDbLine
 10
96.0116615475
 20
51.4947565572
 30
0.0
 11
257.9391144021
 21
194.3013467898
 31
0.0
  0
LINE
  5
3FD
330
396
100
AcDbEntity
  8
0
  6
Continuous
 62
     7
370
    25
100
AcDbLine
 10
257.0037000553
 20
232.1315595843
 30
0.0
 11
-210.7034733067
 21
291.0571246557
 31
0.0
  0
LINE
  5
3FE
330
396
100
AcDbEntity
  8
0
  6
Continuous
 62
     7
370
    25
100
AcDbLine
 10
-210.7034733067
 20
291.0571246557
 30
0.0
 11
-372.6309261613
 21
148.2505344231
 31
0.0
  0
LINE
  5
3FF
330
396
100
AcDbEntity
  8
0
  6
Continuous
 62
     7
370
    25
100
AcDbLine
 10
91.3006818955
 20
10.5705104039
 30
0.0
 11
-368.148254075
 21
68.4556353612
 31
0.0
  0
LINE
  5
400
330
396
100
AcDbEntity
  8
0
  6
Continuous
 62
     7
370
    25
100
AcDbLine
 10
91.3006818955
 20
-323.7361750759
 30
0.0
 11
91.3006818955
 21
10.5705104039
 31
0.0
  0
LINE
  5
401
330
396
100
AcDbEntity
  8
0
  6
Continuous
 62
     7
370
    25
100
AcDbLine
 10
-368.148254075
 20
-265.8510501186
 30
0.0
 11
91.3006818955
 21
-323.7361750759
 31
0.0
  0
LINE
  5
402
330
396
100
AcDbEntity
  8
0
  6
Continuous
 62
     7
370
    25
100
AcDbLine
 10
-368.148254075
 20
68.4556353612
 30
0.0
 11
-368.148254075
 21
-265.8510501186
 31
0.0
  0
LINE
  5
403
330
396
100
AcDbEntity
  8
0
  6
Continuous
 62
     7
370
    25
100
AcDbLine
 10
96.2833539817
 20
51.7343667618
 30
0.0
 11
96.2833539817
 21
-323.503631799
 31
0.0
  0
LINE
  5
404
330
396
100
AcDbEntity
  8
0
  6
Continuous
 62
     7
370
    25
100
AcDbLine
 10
257.0037000553
 20
-181.7616096825
 30
0.0
 11
257.0037000553
 21
193.4763888783
 31
0.0
  0
LINE
  5
405
330
396
100
AcDbEntity
  8
0
  6
Continuous
 62
     7
370
    25
100
AcDbLine
 10
96.2833539817
 20
-323.503631799
 30
0.0
 11
257.0037000553
 21
-181.7616096825
 31
0.0
  0
LINE
  5
406
330
396
100
AcDbEntity
  8
0
  6
Continuous
 62
     7
370
    25
100
AcDbLine
 10
84.9563033795
 20
12.7340805481
 30
0.0
 11
84.9563033795
 21
52.531252442
 31
0.0
  0
LINE
  5
407
330
396
100
AcDbEntity
  8
0
  6
Continuous
 62
     7
370
    25
100
AcDbLine
 10
-349.0759535005
 20
107.2141768282
 30
0.0
 11
-349.0759535005
 21
67.4170049343
 31
0.0
  0
LINE
  5
408
330
396
100
AcDbEntity
  8
0
  6
Continuous
 62
     8
370
    25
100
AcDbLine
 10
-370.0769672058
 20
109.8600558528
 30
0.0
 11
-370.0769672058
 21
-264.999730467
 31
0.0
  0
LINE
  5
409
330
396
100
AcDbEntity
  8
0
  6
Continuous
 62
     8
370
    25
100
AcDbLine
 10
-349.45348341
 20
67.4645692321
 30
0.0
 11
-349.45348341
 21
107.261741126
 31
0.0
  0
LINE
  5
40A
330
396
100
AcDbEntity
  8
0
  6
Continuous
 62
     8
370
    25
100
AcDbLine
 10
-370.0769672058
 20
-264.999730467
 30
0.0
 11
-368.7947006845
 21
-264.8067851608
 31
0.0
  0
LINE
  5
40B
330
396
100
AcDbEntity
  8
0
  6
Continuous
 62
     8
370
    25
100
AcDbLine
 10
94.9943862444
 20
-323.697585451
 30
0.0
 11
94.9943862444
 21
51.2803931008
 31
0.0
  0
LINE
  5
40C
330
396
100
AcDbEntity
  8
0
  6
Continuous
 62
     8
370
    25
100
AcDbLine
 10
94.4365018072
 20
-323.5229266114
 30
0.0
 11
94.4365018072
 21
51.3368597084
 31
0.0
  0
LINE
  5
40D
330
396
100
AcDbEntity
  8
0
  6
Continuous
 62
     8
370
    25
100
AcDbLine
 10
92.654235286
 20
-322.2068710487
 30
0.0
 11
94.4365018072
 21
-323.5229266114
 31
0.0
  0
LINE
  5
40E
330
396
100
AcDbEntity
  8
0
  6
Continuous
 62
     8
370
    25
100
AcDbLine
 10
85.1267265078
 20
52.5097811461
 30
0.0
 11
85.1267265078
 21
12.7126092522
 31
0.0
  0
ARC
  5
40F
330
396
100
AcDbEntity
  8
0
  6
Continuous
 62
     7
370
    25
100
AcDbCircle
 10
-372.6309261613
 20
147.3077253815
 30
0.0
 40
0.9999999999998532
100
AcDbArc
 50
131.40962211
 51
180.0
  0
ARC
  5
410
330
396
100
AcDbEntity
  8
0
  6
Continuous
 62
     7
370
    25
100
AcDbCircle
 10
257.0037000553
 20
231.1887505427
 30
0.0
 40
1.000000000000114
100
AcDbArc
 50
0.0
 51
82.8192442221
  0
ARC
  5
411
330
396
100
AcDbEntity
  8
0
  6
Continuous
 62
     7
370
    25
100
AcDbCircle
 10
-210.7034733067
 20
290.1143156141
 30
0.0
 40
0.9999999999999447
100
AcDbArc
 50
82.8192442221
 51
131.40962211
  0
ARC
  5
412
330
396
100
AcDbEntity
  8
0
  6
Continuous
 62
     7
370
    25
100
AcDbCircle
 10
-370.4884050337
 20
-264.6959178578
 30
0.0
 40
0.9999999999999829
100
AcDbArc
 50
180.0
 51
278.5572165819
  0
ARC
  5
413
330
396
100
AcDbEntity
  8
0
  6
Continuous
 62
     7
370
    25
100
AcDbCircle
 10
95.3479396349
 20
-323.3857806689
 30
0.0
 40
1.000000000000073
100
AcDbArc
 50
233.5572165948
 51
311.40962211
  0
ARC
  5
414
330
396
100
AcDbEntity
  8
0
  6
Continuous
 62
     7
370
    25
100
AcDbCircle
 10
256.0682857086
 20
-181.6437585524
 30
0.0
 40
0.9999999999996021
100
AcDbArc
 50
311.40962211
 51
0.0
  0
ARC
  5
415
330
396
100
AcDbEntity
  8
0
  6
Continuous
 62
     7
370
    25
100
AcDbCircle
 10
96.6876673189
 20
88.1937439955
 30
0.0
 40
1.968843722548138
100
AcDbArc
 50
144.9309440897
 51
183.5931111895
  0
ARC
  5
416
330
396
100
AcDbEntity
  8
0
  6
Continuous
 62
     7
370
    25
100
AcDbCircle
 10
94.9197359108
 20
88.2441303266
 30
0.0
 40
1.092112073957754
100
AcDbArc
 50
1.0587090425
 51
81.7605351794
  0
ARC
  5
417
330
396
100
AcDbEntity
  8
0
  6
Continuous
 62
     7
370
    25
100
AcDbCircle
 10
95.0907361987
 20
90.0044936835
 30
0.0
 40
1.968843722643768
100
AcDbArc
 50
259.2261330329
 51
297.8883001309
  0
ARC
  5
418
330
396
100
AcDbEntity
  8
0
  6
Continuous
 62
     7
370
    25
100
AcDbCircle
 10
95.0907361987
 20
53.2349410607
 30
0.0
 40
1.968843722643694
100
AcDbArc
 50
259.2261330329
 51
297.8883001309
  0
ARC
  5
419
330
396
100
AcDbEntity
  8
0
  6
Continuous
 62
     7
370
    25
100
AcDbCircle
 10
-371.0195060431
 20
147.1193090669
 30
0.0
 40
1.968843722548539
100
AcDbArc
 50
144.9309440897
 51
183.5931111895
  0
ARC
  5
41A
330
396
100
AcDbEntity
  8
0
  6
Continuous
 62
     7
370
    25
100
AcDbCircle
 10
256.8471887654
 20
231.0507205592
 30
0.0
 40
1.09211207395771
100
AcDbArc
 50
1.0587090425
 51
81.7605351794
  0
ARC
  5
41B
330
396
100
AcDbEntity
  8
0
  6
Continuous
 62
     7
370
    25
100
AcDbCircle
 10
92.4943501089
 20
-324.3561807911
 30
0.0
 40
0.1602630270359714
100
AcDbArc
 50
306.4872917923
 51
356.0648073761
  0
ARC
  5
41C
330
396
100
AcDbEntity
  8
0
  6
Continuous
 62
     7
370
    25
100
AcDbCircle
 10
95.3624286329
 20
-321.7634472955
 30
0.0
 40
1.968843722643084
100
AcDbArc
 50
259.2261330329
 51
297.8883001309
  0
ARC
  5
41D
330
396
100
AcDbEntity
  8
0
  6
Continuous
 62
     7
370
    25
100
AcDbCircle
 10
95.0856406897
 20
-322.4277967984
 30
0.0
 40
1.273063468992656
100
AcDbArc
 50
239.3426311409
 51
265.8894567617
  0
ARC
  5
41E
330
396
100
AcDbEntity
  8
0
  6
Continuous
 62
     8
370
    25
100
AcDbCircle
 10
-372.749219173
 20
147.4253957821
 30
0.0
 40
0.8335748397238996
100
AcDbArc
 50
81.8415869733
 51
130.6612067915
  0
ARC
  5
41F
330
396
100
AcDbEntity
  8
0
  6
Continuous
 62
     8
370
    25
100
AcDbCircle
 10
-210.8217663184
 20
290.2319860147
 30
0.0
 40
0.8335748397239814
100
AcDbArc
 50
81.8415869733
 51
130.6612067915
  0
ARC
  5
420
330
396
100
AcDbEntity
  8
0
  6
Continuous
 62
     8
370
    25
100
AcDbCircle
 10
95.2508864778
 20
-323.544692324
 30
0.0
 40
0.8146754801102277
100
AcDbArc
 50
178.4690445345
 51
232.4092061398
  0
ARC
  5
421
330
396
100
AcDbEntity
  8
0
  6
Continuous
 62
     8
370
    25
100
AcDbCircle
 10
95.4499004898
 20
-323.517854678
 30
0.0
 40
0.8335748397326787
100
AcDbArc
 50
312.158037431
 51
0.9776572489
  0
ARC
  5
422
330
396
100
AcDbEntity
  8
0
  6
Continuous
 62
     8
370
    25
100
AcDbCircle
 10
256.1702465634
 20
-181.7758325615
 30
0.0
 40
0.8335748397327558
100
AcDbArc
 50
312.158037431
 51
0.9776572489
  0
VIEWPORT
  5
431
330
396
100
AcDbEntity
  8
0
100
AcDbViewport
 10
0.0
 20
0.0
 30
0.0
 40
205.6
 41
156.0
 68
     1
 69
     1
 12
-54.0461917755
 22
-18.2384401098
 13
0.0
 23
0.0
 14
10.0
 24
10.0
 15
10.0
 25
10.0
 16
0.0
 26
0.0
 36
1.0
 17
0.0
 27
0.0
 37
0.0
 42
50.0
 43
0.0
 44
0.0
 45
448.8
 50
0.0
 51
0.0
 72
   100
 90
   557152
  1

281
     0
 71
     1
 74
     0
110
0.0
120
0.0
130
0.0
111
1.0
121
0.0
131
0.0
112
0.0
122
1.0
132
0.0
 79
     0
146
0.0
  0
ENDBLK
  5
399
330
396
100
AcDbEntity
  8
0
100
AcDbBlockEnd
  0
ENDSEC
  0
SECTION
  2
ENTITIES
  0
SPLINE
  5
86
330
1F
100
AcDbEntity
  8
0
  6
Continuous
 62
     7
370
    25
100
AcDbSpline
210
0.0
220
0.0
230
1.0
 70
    24
 71
     3
 72
    14
 73
    10
 74
     0
 42
0.000000001
 43
0.00000001
 40
0.0
 40
0.0
 40
0.0
 40
0.0
 40
0.25
 40
0.25
 40
0.5
 40
0.5
 40
0.75
 40
0.75
 40
1.0
 40
1.0
 40
1.0
 40
1.0
 10
-300.6319782130825
 20
-238.238440109797
 30
0.0
 10
-300.6319782130826
 20
-238.2384401097969
 30
0.0
 10
-300.610499474269
 20
-238.2169613709835
 30
0.0
 10
-300.5130335540208
 20
-238.1194954507352
 30
0.0
 10
-300.4367160672068
 20
-238.0431779639213
 30
0.0
 10
-300.2414539213311
 20
-237.8479158180457
 30
0.0
 10
-300.1231698730282
 20
-237.7296317697427
 30
0.0
 10
-299.8769759722604
 20
-237.4834378689749
 30
0.0
 10
-299.7498293432802
 20
-237.3562912399948
 30
0.0
 10
-299.6319782130825
 20
-237.238440109797
 30
0.0
  0
SPLINE
  5
88
330
1F
100
AcDbEntity
  8
0
  6
Continuous
 62
     7
370
    25
100
AcDbSpline
210
0.0
220
0.0
230
1.0
 70
    24
 71
     3
 72
    14
 73
    10
 74
     0
 42
0.000000001
 43
0.00000001
 40
0.0
 40
0.0
 40
0.0
 40
0.0
 40
0.25
 40
0.25
 40
0.5
 40
0.5
 40
0.75
 40
0.75
 40
1.0
 40
1.0
 40
1.0
 40
1.0
 10
192.5395946621705
 20
-238.238440109797
 30
0.0
 10
192.5395946621705
 20
-238.238440109797
 30
0.0
 10
192.5181159233571
 20
-238.2169613709835
 30
0.0
 10
192.4206500031088
 20
-238.1194954507353
 30
0.0
 10
192.3443325162948
 20
-238.0431779639213
 30
0.0
 10
192.1490703704192
 20
-237.8479158180457
 30
0.0
 10
192.0307863221162
 20
-237.7296317697428
 30
0.0
 10
191.7845924213484
 20
-237.483437868975
 30
0.0
 10
191.6574457923682
 20
-237.3562912399948
 30
0.0
 10
191.5395946621705
 20
-237.238440109797
 30
0.0
  0
SPLINE
  5
8A
330
1F
100
AcDbEntity
  8
0
  6
Continuous
 62
     7
370
    25
100
AcDbSpline
210
0.0
220
0.0
230
1.0
 70
    24
 71
     3
 72
    12
 73
     8
 74
     0
 42
0.000000001
 43
0.00000001
 40
0.0
 40
0.0
 40
0.0
 40
0.0
 40
0.3855593633181176
 40
0.5933998576703514
 40
0.7897678058926367
 40
0.9676437637285874
 40
0.9999999999999999
 40
0.9999999999999999
 40
0.9999999999999999
 40
0.9999999999999999
 10
191.5395946621705
 20
117.3473463278295
 30
0.0
 10
191.7134903135726
 20
117.5212419792316
 30
0.0
 10
191.9811265444851
 20
117.7888782101441
 30
0.0
 10
192.2951964886329
 20
118.102948154292
 30
0.0
 10
192.4677190167959
 20
118.2754706824549
 30
0.0
 10
192.5498508062999
 20
118.3576024719589
 30
0.0
 10
192.5342740381546
 20
118.3420257038137
 30
0.0
 10
192.5318766622789
 20
118.3396283279379
 30
0.0
  0
SPLINE
  5
8C
330
1F
100
AcDbEntity
  8
0
  6
Continuous
 62
     7
370
    25
100
AcDbSpline
210
0.0
220
0.0
230
1.0
 70
    24
 71
     3
 72
    12
 73
     8
 74
     0
 42
0.000000001
 43
0.00000001
 40
0.0
 40
0.0
 40
0.0
 40
0.0
 40
0.3855593633181471
 40
0.5933998576703602
 40
0.7897678058926457
 40
0.9676437637286299
 40
1.0
 40
1.0
 40
1.0
 40
1.0
 10
-299.6319782130825
 20
117.3473463278295
 30
0.0
 10
-299.8058738644846
 20
117.5212419792316
 30
0.0
 10
-300.0735100953971
 20
117.788878210144
 30
0.0
 10
-300.3875800395451
 20
118.102948154292
 30
0.0
 10
-300.5601025677076
 20
118.2754706824546
 30
0.0
 10
-300.6422343572123
 20
118.3576024719589
 30
0.0
 10
-300.6266575890666
 20
118.3420257038135
 30
0.0
 10
-300.6242602131909
 20
118.3396283279378
 30
0.0
  0
LINE
  5
B1
330
1F
100
AcDbEntity
  8
0
  6
Continuous
 62
     7
370
    25
100
AcDbLine
 10
192.5395946622
 20
-238.2384401098
 30
0.0
 11
192.5395946622
 21
118.3396283279
 31
0.0
  0
LINE
  5
B2
330
1F
100
AcDbEntity
  8
0
  6
Continuous
 62
     7
370
    25
100
AcDbLine
 10
192.5318766623
 20
118.3473463278
 30
0.0
 11
-300.6242602132
 21
118.3473463278
 31
0.0
  0
LINE
  5
B3
330
1F
100
AcDbEntity
  8
0
  6
Continuous
 62
     7
370
    25
100
AcDbLine
 10
-300.6319782131
 20
118.3396283279
 30
0.0
 11
-300.6319782131
 21
-238.2384401098
 31
0.0
  0
LINE
  5
B4
330
1F
100
AcDbEntity
  8
0
  6
Continuous
 62
     7
370
    25
100
AcDbLine
 10
-304.0461917755
 20
201.7615598902
 30
0.0
 11
-304.0461917755
 21
161.7615598902
 31
0.0
  0
LINE
  5
B5
330
1F
100
AcDbEntity
  8
0
  6
Continuous
 62
     7
370
    25
100
AcDbLine
 10
195.9538082245
 20
161.7615598902
 30
0.0
 11
195.9538082245
 21
201.7615598902
 31
0.0
  0
LINE
  5
B6
330
1F
100
AcDbEntity
  8
0
  6
Continuous
 62
     7
370
    25
100
AcDbLine
 10
196.9538082245
 20
200.7615598902
 30
0.0
 11
-305.0461917755
 21
200.7615598902
 31
0.0
  0
LINE
  5
B7
330
1F
100
AcDbEntity
  8
0
  6
Continuous
 62
     7
370
    25
100
AcDbLine
 10
-304.0461917755
 20
201.7615598902
 30
0.0
 11
195.9538082245
 21
201.7615598902
 31
0.0
  0
LINE
  5
B8
330
1F
100
AcDbEntity
  8
0
  6
Continuous
 62
     7
370
    25
100
AcDbLine
 10
-305.0461917755
 20
161.7615598902
 30
0.0
 11
196.9538082245
 21
161.7615598902
 31
0.0
  0
LINE
  5
B9
330
1F
100
AcDbEntity
  8
0
  6
Continuous
 62
     7
370
    25
100
AcDbLine
 10
-305.0461917755
 20
161.7615598902
 30
0.0
 11
-305.0461917755
 21
200.7615598902
 31
0.0
  0
LINE
  5
BA
330
1F
100
AcDbEntity
  8
0
  6
Continuous
 62
     7
370
    25
100
AcDbLine
 10
196.9538082245
 20
200.7615598902
 30
0.0
 11
196.9538082245
 21
161.7615598902
 31
0.0
  0
LINE
  5
BB
330
1F
100
AcDbEntity
  8
0
  6
Continuous
 62
     7
370
    25
100
AcDbLine
 10
194.9538082245
 20
-238.2384401098
 30
0.0
 11
-303.0461917755
 21
-238.2384401098
 31
0.0
  0
LINE
  5
BC
330
1F
100
AcDbEntity
  8
0
  6
Continuous
 62
     7
370
    25
100
AcDbLine
 10
-299.6319782131
 20
-237.2384401098
 30
0.0
 11
191.5395946622
 21
-237.2384401098
 31
0.0
  0
LINE
  5
BD
330
1F
100
AcDbEntity
  8
0
  6
Continuous
 62
     7
370
    25
100
AcDbLine
 10
191.5395946622
 20
-237.2384401098
 30
0.0
 11
191.5395946622
 21
117.3473463278
 31
0.0
  0
LINE
  5
BE
330
1F
100
AcDbEntity
  8
0
  6
Continuous
 62
     7
370
    25
100
AcDbLine
 10
191.5395946622
 20
117.3473463278
 30
0.0
 11
-299.6319782131
 21
117.3473463278
 31
0.0
  0
LINE
  5
BF
330
1F
100
AcDbEntity
  8
0
  6
Continuous
 62
     7
370
    25
100
AcDbLine
 10
-299.6319782131
 20
117.3473463278
 30
0.0
 11
-299.6319782131
 21
-237.2384401098
 31
0.0
  0
LINE
  5
C0
330
1F
100
AcDbEntity
  8
0
  6
Continuous
 62
     7
370
    25
100
AcDbLine
 10
-302.3390849943
 20
160.7615598902
 30
0.0
 11
-302.3390849943
 21
-237.2384401098
 31
0.0
  0
LINE
  5
C1
330
1F
100
AcDbEntity
  8
0
  6
Continuous
 62
     7
370
    25
100
AcDbLine
 10
-304.0461917755
 20
-237.2384401098
 30
0.0
 11
-300.6319782131
 21
-237.2384401098
 31
0.0
  0
LINE
  5
C2
330
1F
100
AcDbEntity
  8
0
  6
Continuous
 62
     7
370
    25
100
AcDbLine
 10
-304.0461917755
 20
-237.2384401098
 30
0.0
 11
-304.0461917755
 21
160.7615598902
 31
0.0
  0
LINE
  5
C3
330
1F
100
AcDbEntity
  8
0
  6
Continuous
 62
     7
370
    25
100
AcDbLine
 10
-286.0461917755
 20
160.7615598902
 30
0.0
 11
-304.0461917755
 21
160.7615598902
 31
0.0
  0
LINE
  5
C4
330
1F
100
AcDbEntity
  8
0
  6
Continuous
 62
     7
370
    25
100
AcDbLine
 10
195.9538082245
 20
160.7615598902
 30
0.0
 11
177.9538082245
 21
160.7615598902
 31
0.0
  0
LINE
  5
C5
330
1F
100
AcDbEntity
  8
0
  6
Continuous
 62
     7
370
    25
100
AcDbLine
 10
195.9538082245
 20
160.7615598902
 30
0.0
 11
195.9538082245
 21
-237.2384401098
 31
0.0
  0
LINE
  5
C6
330
1F
100
AcDbEntity
  8
0
  6
Continuous
 62
     7
370
    25
100
AcDbLine
 10
192.5395946622
 20
-237.2384401098
 30
0.0
 11
195.9538082245
 21
-237.2384401098
 31
0.0
  0
LINE
  5
C7
330
1F
100
AcDbEntity
  8
0
  6
Continuous
 62
     7
370
    25
100
AcDbLine
 10
194.9538082245
 20
-237.2384401098
 30
0.0
 11
194.9538082245
 21
160.7615598902
 31
0.0
  0
LINE
  5
C8
330
1F
100
AcDbEntity
  8
0
  6
Continuous
 62
     7
370
    25
100
AcDbLine
 10
194.2467014434
 20
-237.2384401098
 30
0.0
 11
194.2467014434
 21
160.7615598902
 31
0.0
  0
LINE
  5
C9
330
1F
100
AcDbEntity
  8
0
  6
Continuous
 62
     7
370
    25
100
AcDbLine
 10
177.9538082245
 20
118.3473463278
 30
0.0
 11
177.9538082245
 21
161.7615598902
 31
0.0
  0
LINE
  5
CA
330
1F
100
AcDbEntity
  8
0
  6
Continuous
 62
     7
370
    25
100
AcDbLine
 10
-286.0461917755
 20
161.7615598902
 30
0.0
 11
-286.0461917755
 21
118.3473463278
 31
0.0
  0
LINE
  5
CB
330
1F
100
AcDbEntity
  8
0
  6
Continuous
 62
     8
370
    25
100
AcDbLine
 10
-286.3390849943
 20
118.3473463278
 30
0.0
 11
-286.3390849943
 21
160.7615598902
 31
0.0
  0
LINE
  5
CC
330
1F
100
AcDbEntity
  8
0
  6
Continuous
 62
     8
370
    25
100
AcDbLine
 10
178.2467014434
 20
160.7615598902
 30
0.0
 11
178.2467014434
 21
118.3473463278
 31
0.0
  0
ARC
  5
CD
330
1F
100
AcDbEntity
  8
0
  6
Continuous
 62
     7
370
    25
100
AcDbCircle
 10
-304.0461917755
 20
200.7615598902
 30
0.0
 40
1.000000000000057
100
AcDbArc
 50
90.0
 51
180.0
  0
ARC
  5
CE
330
1F
100
AcDbEntity
  8
0
  6
Continuous
 62
     7
370
    25
100
AcDbCircle
 10
195.9538082245
 20
200.7615598902
 30
0.0
 40
1.0
100
AcDbArc
 50
0.0
 51
90.0
  0
ARC
  5
CF
330
1F
100
AcDbEntity
  8
0
  6
Continuous
 62
     7
370
    25
100
AcDbCircle
 10
-303.0461917755
 20
160.7615598902
 30
0.0
 40
1.000000000000057
100
AcDbArc
 50
90.0
 51
180.0
  0
ARC
  5
D0
330
1F
100
AcDbEntity
  8
0
  6
Continuous
 62
     7
370
    25
100
AcDbCircle
 10
-303.2229684708
 20
160.8865598902
 30
0.0
 40
0.8926785535678471
100
AcDbArc
 50
351.9505330245
 51
78.578246341
  0
ARC
  5
D1
330
1F
100
AcDbEntity
  8
0
  6
Continuous
 62
     7
370
    25
100
AcDbCircle
 10
-303.2229684708
 20
-237.3634401098
 30
0.0
 40
0.8926785535675856
100
AcDbArc
 50
281.4217536589
 51
8.0494669755
  0
ARC
  5
D2
330
1F
100
AcDbEntity
  8
0
  6
Continuous
 62
     7
370
    25
100
AcDbCircle
 10
-303.0461917755
 20
-237.2384401098
 30
0.0
 40
1.000000000000142
100
AcDbArc
 50
180.0
 51
270.0
  0
ARC
  5
D3
330
1F
100
AcDbEntity
  8
0
  6
Continuous
 62
     7
370
    25
100
AcDbCircle
 10
-287.2229684708
 20
160.8865598902
 30
0.0
 40
0.8926785535677908
100
AcDbArc
 50
351.9505330245
 51
78.578246341
  0
ARC
  5
D4
330
1F
100
AcDbEntity
  8
0
  6
Continuous
 62
     7
370
    25
100
AcDbCircle
 10
-287.0461917755
 20
160.7615598902
 30
0.0
 40
0.9999999999999432
100
AcDbArc
 50
360.0
 51
90.0
  0
ARC
  5
D5
330
1F
100
AcDbEntity
  8
0
  6
Continuous
 62
     7
370
    25
100
AcDbCircle
 10
195.1305849198
 20
160.8865598902
 30
0.0
 40
0.8926785535679403
100
AcDbArc
 50
101.421753659
 51
188.0494669755
  0
ARC
  5
D6
330
1F
100
AcDbEntity
  8
0
  6
Continuous
 62
     7
370
    25
100
AcDbCircle
 10
194.9538082245
 20
160.7615598902
 30
0.0
 40
1.0
100
AcDbArc
 50
0.0
 51
90.0
  0
ARC
  5
D7
330
1F
100
AcDbEntity
  8
0
  6
Continuous
 62
     7
370
    25
100
AcDbCircle
 10
195.1305849198
 20
-237.3634401098
 30
0.0
 40
0.8926785535678622
100
AcDbArc
 50
171.9505330245
 51
258.578246341
  0
ARC
  5
D8
330
1F
100
AcDbEntity
  8
0
  6
Continuous
 62
     7
370
    25
100
AcDbCircle
 10
194.9538082245
 20
-237.2384401098
 30
0.0
 40
1.000000000000085
100
AcDbArc
 50
270.0
 51
360.0
  0
ARC
  5
D9
330
1F
100
AcDbEntity
  8
0
  6
Continuous
 62
     7
370
    25
100
AcDbCircle
 10
179.1305849198
 20
160.8865598902
 30
0.0
 40
0.8926785535679438
100
AcDbArc
 50
101.421753659
 51
188.0494669755
  0
ARC
  5
DA
330
1F
100
AcDbEntity
  8
0
  6
Continuous
 62
     7
370
    25
100
AcDbCircle
 10
178.9538082245
 20
160.7615598902
 30
0.0
 40
1.0
100
AcDbArc
 50
90.0
 51
180.0
  0
LINE
  5
12B
330
1B
100
AcDbEntity
 67
     1
  8
0
  6
Continuous
 62
     7
370
    25
100
AcDbLine
 10
-195.9538082245
 20
201.7615598902
 30
0.0
 11
-195.9538082245
 21
161.7615598902
 31
0.0
  0
LINE
  5
12C
330
1B
100
AcDbEntity
 67
     1
  8
0
  6
Continuous
 62
     7
370
    25
100
AcDbLine
 10
305.0461917755
 20
200.7615598902
 30
0.0
 11
-196.9538082245
 21
200.7615598902
 31
0.0
  0
LINE
  5
12D
330
1B
100
AcDbEntity
 67
     1
  8
0
  6
Continuous
 62
     7
370
    25
100
AcDbLine
 10
304.0461917755
 20
161.7615598902
 30
0.0
 11
304.0461917755
 21
201.7615598902
 31
0.0
  0
LINE
  5
12E
330
1B
100
AcDbEntity
 67
     1
  8
0
  6
Continuous
 62
     7
370
    25
100
AcDbLine
 10
-196.9538082245
 20
161.7615598902
 30
0.0
 11
305.0461917755
 21
161.7615598902
 31
0.0
  0
LINE
  5
12F
330
1B
100
AcDbEntity
 67
     1
  8
0
  6
Continuous
 62
     7
370
    25
100
AcDbLine
 10
305.0461917755
 20
200.7615598902
 30
0.0
 11
305.0461917755
 21
161.7615598902
 31
0.0
  0
LINE
  5
130
330
1B
100
AcDbEntity
 67
     1
  8
0
  6
Continuous
 62
     7
370
    25
100
AcDbLine
 10
-195.9538082245
 20
201.7615598902
 30
0.0
 11
304.0461917755
 21
201.7615598902
 31
0.0
  0
LINE
  5
131
330
1B
100
AcDbEntity
 67
     1
  8
0
  6
Continuous
 62
     7
370
    25
100
AcDbLine
 10
-196.9538082245
 20
161.7615598902
 30
0.0
 11
-196.9538082245
 21
200.7615598902
 31
0.0
  0
LINE
  5
132
330
1B
100
AcDbEntity
 67
     1
  8
0
  6
Continuous
 62
     7
370
    25
100
AcDbLine
 10
-151.9538082245
 20
-120.2384401098
 30
0.0
 11
-151.9538082245
 21
-70.2384401098
 31
0.0
  0
LINE
  5
133
330
1B
100
AcDbEntity
 67
     1
  8
0
  6
Continuous
 62
     7
370
    25
100
AcDbLine
 10
-151.9538082245
 20
-70.2384401098
 30
0.0
 11
-20.9538082245
 21
-70.2384401098
 31
0.0
  0
LINE
  5
134
330
1B
100
AcDbEntity
 67
     1
  8
0
  6
Continuous
 62
     7
370
    25
100
AcDbLine
 10
-133.9538082245
 20
-70.2384401098
 30
0.0
 11
-133.9538082245
 21
-120.2384401098
 31
0.0
  0
LINE
  5
135
330
1B
100
AcDbEntity
 67
     1
  8
0
  6
Continuous
 62
     7
370
    25
100
AcDbLine
 10
284.0461917755
 20
-120.2384401098
 30
0.0
 11
284.0461917755
 21
81.7615598902
 31
0.0
  0
LINE
  5
136
330
1B
100
AcDbEntity
 67
     1
  8
0
  6
Continuous
 62
     7
370
    25
100
AcDbLine
 10
-175.9538082245
 20
81.7615598902
 30
0.0
 11
-175.9538082245
 21
-120.2384401098
 31
0.0
  0
LINE
  5
137
330
1B
100
AcDbEntity
 67
     1
  8
0
  6
Continuous
 62
     7
370
    25
100
AcDbLine
 10
-194.9538082245
 20
-238.2384401098
 30
0.0
 11
303.0461917755
 21
-238.2384401098
 31
0.0
  0
LINE
  5
138
330
1B
100
AcDbEntity
 67
     1
  8
0
  6
Continuous
 62
     7
370
    25
100
AcDbLine
 10
242.0461917755
 20
-70.2384401098
 30
0.0
 11
242.0461917755
 21
-120.2384401098
 31
0.0
  0
LINE
  5
139
330
1B
100
AcDbEntity
 67
     1
  8
0
  6
Continuous
 62
     7
370
    25
100
AcDbLine
 10
129.0461917755
 20
-70.2384401098
 30
0.0
 11
260.0461917755
 21
-70.2384401098
 31
0.0
  0
LINE
  5
13A
330
1B
100
AcDbEntity
 67
     1
  8
0
  6
Continuous
 62
     7
370
    25
100
AcDbLine
 10
260.0461917755
 20
-120.2384401098
 30
0.0
 11
260.0461917755
 21
-70.2384401098
 31
0.0
  0
LINE
  5
13B
330
1B
100
AcDbEntity
 67
     1
  8
0
  6
Continuous
 62
     7
370
    25
100
AcDbLine
 10
303.0461917755
 20
-238.2384401098
 30
0.0
 11
303.0461917755
 21
161.7615598902
 31
0.0
  0
LINE
  5
13C
330
1B
100
AcDbEntity
 67
     1
  8
0
  6
Continuous
 62
     7
370
    25
100
AcDbLine
 10
287.0461917755
 20
161.7615598902
 30
0.0
 11
287.0461917755
 21
-238.2384401098
 31
0.0
  0
LINE
  5
13D
330
1B
100
AcDbEntity
 67
     1
  8
0
  6
Continuous
 62
     7
370
    25
100
AcDbLine
 10
286.0461917755
 20
-237.2384401098
 30
0.0
 11
304.0461917755
 21
-237.2384401098
 31
0.0
  0
LINE
  5
13E
330
1B
100
AcDbEntity
 67
     1
  8
0
  6
Continuous
 62
     7
370
    25
100
AcDbLine
 10
286.0461917755
 20
-238.2384401098
 30
0.0
 11
286.0461917755
 21
161.7615598902
 31
0.0
  0
LINE
  5
13F
330
1B
100
AcDbEntity
 67
     1
  8
0
  6
Continuous
 62
     7
370
    25
100
AcDbLine
 10
304.0461917755
 20
160.7615598902
 30
0.0
 11
286.0461917755
 21
160.7615598902
 31
0.0
  0
LINE
  5
140
330
1B
100
AcDbEntity
 67
     1
  8
0
  6
Continuous
 62
     7
370
    25
100
AcDbLine
 10
304.0461917755
 20
160.7615598902
 30
0.0
 11
304.0461917755
 21
-237.2384401098
 31
0.0
  0
LINE
  5
141
330
1B
100
AcDbEntity
 67
     1
  8
0
  6
Continuous
 62
     7
370
    25
100
AcDbLine
 10
-177.9538082245
 20
161.7615598902
 30
0.0
 11
-177.9538082245
 21
-238.2384401098
 31
0.0
  0
LINE
  5
142
330
1B
100
AcDbEntity
 67
     1
  8
0
  6
Continuous
 62
     7
370
    25
100
AcDbLine
 10
-195.9538082245
 20
-237.2384401098
 30
0.0
 11
-177.9538082245
 21
-237.2384401098
 31
0.0
  0
LINE
  5
143
330
1B
100
AcDbEntity
 67
     1
  8
0
  6
Continuous
 62
     7
370
    25
100
AcDbLine
 10
-178.9538082245
 20
-238.2384401098
 30
0.0
 11
-178.9538082245
 21
161.7615598902
 31
0.0
  0
LINE
  5
144
330
1B
100
AcDbEntity
 67
     1
  8
0
  6
Continuous
 62
     7
370
    25
100
AcDbLine
 10
-177.9538082245
 20
160.7615598902
 30
0.0
 11
-195.9538082245
 21
160.7615598902
 31
0.0
  0
LINE
  5
145
330
1B
100
AcDbEntity
 67
     1
  8
0
  6
Continuous
 62
     7
370
    25
100
AcDbLine
 10
-194.9538082245
 20
161.7615598902
 30
0.0
 11
-194.9538082245
 21
-238.2384401098
 31
0.0
  0
LINE
  5
146
330
1B
100
AcDbEntity
 67
     1
  8
0
  6
Continuous
 62
     7
370
    25
100
AcDbLine
 10
-195.9538082245
 20
-237.2384401098
 30
0.0
 11
-195.9538082245
 21
160.7615598902
 31
0.0
  0
LINE
  5
147
330
1B
100
AcDbEntity
 67
     1
  8
0
  6
Continuous
 62
     7
370
    25
100
AcDbLine
 10
286.0461917755
 20
81.7615598902
 30
0.0
 11
-177.9538082245
 21
81.7615598902
 31
0.0
  0
LINE
  5
148
330
1B
100
AcDbEntity
 67
     1
  8
0
  6
Continuous
 62
     7
370
    25
100
AcDbLine
 10
286.0461917755
 20
-120.2384401098
 30
0.0
 11
-177.9538082245
 21
-120.2384401098
 31
0.0
  0
LINE
  5
149
330
1B
100
AcDbEntity
 67
     1
  8
0
  6
Continuous
 62
     7
370
    25
100
AcDbLine
 10
-177.9538082245
 20
-220.2384401098
 30
0.0
 11
286.0461917755
 21
-220.2384401098
 31
0.0
  0
ARC
  5
14A
330
1B
100
AcDbEntity
 67
     1
  8
0
  6
Continuous
 62
     7
370
    25
100
AcDbCircle
 10
304.0461917755
 20
200.7615598902
 30
0.0
 40
1.000000000000057
100
AcDbArc
 50
0.0
 51
90.0
  0
ARC
  5
14B
330
1B
100
AcDbEntity
 67
     1
  8
0
  6
Continuous
 62
     7
370
    25
100
AcDbCircle
 10
-195.9538082245
 20
200.7615598902
 30
0.0
 40
1.0
100
AcDbArc
 50
90.0
 51
180.0
  0
ARC
  5
14C
330
1B
100
AcDbEntity
 67
     1
  8
0
  6
Continuous
 62
     7
370
    25
100
AcDbCircle
 10
303.0461917755
 20
-237.2384401098
 30
0.0
 40
1.000000000000142
100
AcDbArc
 50
270.0
 51
360.0
  0
ARC
  5
14D
330
1B
100
AcDbEntity
 67
     1
  8
0
  6
Continuous
 62
     7
370
    25
100
AcDbCircle
 10
303.0461917755
 20
160.7615598902
 30
0.0
 40
1.000000000000057
100
AcDbArc
 50
0.0
 51
90.0
  0
ARC
  5
14E
330
1B
100
AcDbEntity
 67
     1
  8
0
  6
Continuous
 62
     7
370
    25
100
AcDbCircle
 10
287.0461917755
 20
160.7615598902
 30
0.0
 40
0.9999999999999147
100
AcDbArc
 50
90.0
 51
180.0
  0
ARC
  5
14F
330
1B
100
AcDbEntity
 67
     1
  8
0
  6
Continuous
 62
     7
370
    25
100
AcDbCircle
 10
287.0461917755
 20
-237.2384401098
 30
0.0
 40
1.0
100
AcDbArc
 50
180.0
 51
270.0
  0
ARC
  5
150
330
1B
100
AcDbEntity
 67
     1
  8
0
  6
Continuous
 62
     7
370
    25
100
AcDbCircle
 10
-194.9538082245
 20
160.7615598902
 30
0.0
 40
1.0
100
AcDbArc
 50
90.0
 51
180.0
  0
ARC
  5
151
330
1B
100
AcDbEntity
 67
     1
  8
0
  6
Continuous
 62
     7
370
    25
100
AcDbCircle
 10
-194.9538082245
 20
-237.2384401098
 30
0.0
 40
1.000000000000085
100
AcDbArc
 50
180.0
 51
270.0
  0
ARC
  5
152
330
1B
100
AcDbEntity
 67
     1
  8
0
  6
Continuous
 62
     7
370
    25
100
AcDbCircle
 10
-178.9538082245
 20
-237.2384401098
 30
0.0
 40
1.000000000000057
100
AcDbArc
 50
270.0
 51
360.0
  0
ARC
  5
153
330
1B
100
AcDbEntity
 67
     1
  8
0
  6
Continuous
 62
     7
370
    25
100
AcDbCircle
 10
-178.9538082245
 20
160.7615598902
 30
0.0
 40
0.9999999999999716
100
AcDbArc
 50
360.0
 51
90.0
  0
ARC
  5
154
330
1B
100
AcDbEntity
 67
     1
  8
0
  6
Continuous
 62
     7
370
    25
100
AcDbCircle
 10
54.0461917755
 20
-70.2384401098
 30
0.0
 40
75.00000000000037
100
AcDbArc
 50
180.0
 51
221.8103148958
  0
ARC
  5
155
330
1B
100
AcDbEntity
 67
     1
  8
0
  6
Continuous
 62
     7
370
    25
100
AcDbCircle
 10
54.0461917755
 20
-70.2384401098
 30
0.0
 40
75.00000000000225
100
AcDbArc
 50
318.1896851042
 51
0.0
  0
VIEWPORT
  5
423
330
1B
100
AcDbEntity
 67
     1
  8
0
100
AcDbViewport
 10
0.0
 20
0.0
 30
0.0
 40
205.6
 41
156.0
 68
     1
 69
     1
 12
-54.0461917755
 22
-18.2384401098
 13
0.0
 23
0.0
 14
10.0
 24
10.0
 15
10.0
 25
10.0
 16
0.0
 26
0.0
 36
1.0
 17
0.0
 27
0.0
 37
0.0
 42
50.0
 43
0.0
 44
0.0
 45
448.8
 50
0.0
 51
0.0
 72
   100
 90
   557152
  1

281
     0
 71
     1
 74
     0
110
0.0
120
0.0
130
0.0
111
1.0
121
0.0
131
0.0
112
0.0
122
1.0
132
0.0
 79
     0
146
0.0
  0
ENDSEC
  0
SECTION
  2
OBJECTS
  0
DICTIONARY
  5
C
330
0
100
AcDbDictionary
281
     1
  3
ACAD_GROUP
350
D
  3
ACAD_LAYOUT
350
1A
  3
ACAD_MLINESTYLE
350
17
  3
ACAD_PLOTSETTINGS
350
19
  3
ACAD_PLOTSTYLENAME
350
E
  3
ACAD_SCALELIST
350
47
  0
DICTIONARY
  5
D
102
{ACAD_REACTORS
330
C
102
}
330
C
100
AcDbDictionary
281
     1
  0
DICTIONARY
  5
1A
102
{ACAD_REACTORS
330
C
102
}
330
C
100
AcDbDictionary
281
     1
  3
_Back
350
1E
  3
_Bottom
350
1FE
  3
_Dimetric
350
397
  3
_Isometric
350
26E
  3
_Left
350
26
  3
_Right
350
197
  3
_Top
350
1DA
  3
_Trimetric
350
303
  3
Model
350
22
  0
DICTIONARY
  5
17
102
{ACAD_REACTORS
330
C
102
}
330
C
100
AcDbDictionary
281
     1
  3
Standard
350
18
  0
DICTIONARY
  5
19
102
{ACAD_REACTORS
330
C
102
}
330
C
100
AcDbDictionary
281
     1
  0
ACDBDICTIONARYWDFLT
  5
E
102
{ACAD_REACTORS
330
C
102
}
330
C
100
AcDbDictionary
281
     1
  3
Normal
350
F
100
AcDbDictionaryWithDefault
340
F
  0
DICTIONARY
  5
47
102
{ACAD_REACTORS
330
C
102
}
330
C
100
AcDbDictionary
281
     1
  3
A0
350
48
  3
A1
350
49
  3
A2
350
4A
  3
A3
350
4B
  3
A4
350
4C
  3
A5
350
4D
  3
A6
350
4E
  3
A7
350
4F
  3
A8
350
50
  3
A9
350
51
  3
B0
350
52
  3
B1
350
53
  3
B2
350
54
  3
B3
350
55
  3
B4
350
56
  3
B5
350
57
  3
B6
350
58
  3
B7
350
59
  3
B8
350
5A
  3
B9
350
5B
  3
C0
350
5C
  3
C1
350
5D
  3
C2
350
5E
  3
C3
350
5F
  3
C4
350
60
  3
C5
350
61
  3
C6
350
62
  3
C7
350
63
  3
C8
350
64
  3
C9
350
65
  3
D0
350
66
  3
D1
350
67
  3
D2
350
68
  0
LAYOUT
  5
1E
102
{ACAD_REACTORS
330
1A
102
}
330
1A
100
AcDbPlotSettings
  1

  2
none_device
  4
ISO_A4_(210.00_x_297.00_MM)
  6

 40
7.5
 41
20.0
 42
7.5
 43
20.0
 44
210.0
 45
297.0
 46
0.0
 47
0.0
 48
0.0
 49
0.0
140
0.0
141
0.0
142
1.0
143
2.2564102564
 70
   688
 72
     1
 73
     1
 74
     1
  7

 75
     0
147
0.4431818182
148
196.9538082245
149
238.2384401098
100
AcDbLayout
  1
_Back
 70
     1
 71
     1
 10
-242.0820133527
 20
-255.1615170329
 11
428.0718328011
 21
218.6846368133
 12
0.0
 22
0.0
 32
0.0
 14
-196.9538082245
 24
-238.2384401098
 34
0.0
 15
305.0461917755
 25
201.7615598902
 35
0.0
146
0.0
 13
0.0
 23
0.0
 33
0.0
 16
1.0
 26
0.0
 36
0.0
 17
0.0
 27
1.0
 37
0.0
 76
     0
330
1B
331
423
  0
LAYOUT
  5
1FE
102
{ACAD_REACTORS
330
1A
102
}
330
1A
100
AcDbPlotSettings
  1

  2
none_device
  4
ISO_A4_(210.00_x_297.00_MM)
  6

 40
7.5
 41
20.0
 42
7.5
 43
20.0
 44
210.0
 45
297.0
 46
0.0
 47
0.0
 48
0.0
 49
0.0
140
0.0
141
0.0
142
1.0
143
2.2564102564
 70
   688
 72
     1
 73
     1
 74
     1
  7

 75
     0
147
0.4431818182
148
196.9538082245
149
238.2384401098
100
AcDbLayout
  1
_Bottom
 70
     1
 71
     5
 10
0.0
 20
0.0
 11
0.0
 21
0.0
 12
0.0
 22
0.0
 32
0.0
 14
0.0
 24
0.0
 34
0.0
 15
0.0
 25
0.0
 35
0.0
146
0.0
 13
0.0
 23
0.0
 33
0.0
 16
1.0
 26
0.0
 36
0.0
 17
0.0
 27
1.0
 37
0.0
 76
     0
330
1FD
331
42B
  0
LAYOUT
  5
397
102
{ACAD_REACTORS
330
1A
102
}
330
1A
100
AcDbPlotSettings
  1

  2
none_device
  4
ISO_A4_(210.00_x_297.00_MM)
  6

 40
7.5
 41
20.0
 42
7.5
 43
20.0
 44
210.0
 45
297.0
 46
0.0
 47
0.0
 48
0.0
 49
0.0
140
0.0
141
0.0
142
1.0
143
2.2564102564
 70
   688
 72
     1
 73
     1
 74
     1
  7

 75
     0
147
0.4431818182
148
196.9538082245
149
238.2384401098
100
AcDbLayout
  1
_Dimetric
 70
     1
 71
     8
 10
0.0
 20
0.0
 11
0.0
 21
0.0
 12
0.0
 22
0.0
 32
0.0
 14
0.0
 24
0.0
 34
0.0
 15
0.0
 25
0.0
 35
0.0
146
0.0
 13
0.0
 23
0.0
 33
0.0
 16
1.0
 26
0.0
 36
0.0
 17
0.0
 27
1.0
 37
0.0
 76
     0
330
396
331
431
  0
LAYOUT
  5
26E
102
{ACAD_REACTORS
330
1A
102
}
330
1A
100
AcDbPlotSettings
  1

  2
none_device
  4
ISO_A4_(210.00_x_297.00_MM)
  6

 40
7.5
 41
20.0
 42
7.5
 43
20.0
 44
210.0
 45
297.0
 46
0.0
 47
0.0
 48
0.0
 49
0.0
140
0.0
141
0.0
142
1.0
143
2.2564102564
 70
   688
 72
     1
 73
     1
 74
     1
  7

 75
     0
147
0.4431818182
148
196.9538082245
149
238.2384401098
100
AcDbLayout
  1
_Isometric
 70
     1
 71
     6
 10
0.0
 20
0.0
 11
0.0
 21
0.0
 12
0.0
 22
0.0
 32
0.0
 14
0.0
 24
0.0
 34
0.0
 15
0.0
 25
0.0
 35
0.0
146
0.0
 13
0.0
 23
0.0
 33
0.0
 16
1.0
 26
0.0
 36
0.0
 17
0.0
 27
1.0
 37
0.0
 76
     0
330
26D
331
42D
  0
LAYOUT
  5
26
102
{ACAD_REACTORS
330
1A
102
}
330
1A
100
AcDbPlotSettings
  1

  2
none_device
  4
ISO_A4_(210.00_x_297.00_MM)
  6

 40
7.5
 41
20.0
 42
7.5
 43
20.0
 44
210.0
 45
297.0
 46
0.0
 47
0.0
 48
0.0
 49
0.0
140
0.0
141
0.0
142
1.0
143
2.2564102564
 70
   688
 72
     1
 73
     1
 74
     1
  7

 75
     0
147
0.4431818182
148
196.9538082245
149
238.2384401098
100
AcDbLayout
  1
_Left
 70
     1
 71
     2
 10
0.0
 20
0.0
 11
0.0
 21
0.0
 12
0.0
 22
0.0
 32
0.0
 14
0.0
 24
0.0
 34
0.0
 15
0.0
 25
0.0
 35
0.0
146
0.0
 13
0.0
 23
0.0
 33
0.0
 16
1.0
 26
0.0
 36
0.0
 17
0.0
 27
1.0
 37
0.0
 76
     0
330
23
331
425
  0
LAYOUT
  5
197
102
{ACAD_REACTORS
330
1A
102
}
330
1A
100
AcDbPlotSettings
  1

  2
none_device
  4
ISO_A4_(210.00_x_297.00_MM)
  6

 40
7.5
 41
20.0
 42
7.5
 43
20.0
 44
210.0
 45
297.0
 46
0.0
 47
0.0
 48
0.0
 49
0.0
140
0.0
141
0.0
142
1.0
143
2.2564102564
 70
   688
 72
     1
 73
     1
 74
     1
  7

 75
     0
147
0.4431818182
148
196.9538082245
149
238.2384401098
100
AcDbLayout
  1
_Right
 70
     1
 71
     3
 10
0.0
 20
0.0
 11
0.0
 21
0.0
 12
0.0
 22
0.0
 32
0.0
 14
0.0
 24
0.0
 34
0.0
 15
0.0
 25
0.0
 35
0.0
146
0.0
 13
0.0
 23
0.0
 33
0.0
 16
1.0
 26
0.0
 36
0.0
 17
0.0
 27
1.0
 37
0.0
 76
     0
330
196
331
427
  0
LAYOUT
  5
1DA
102
{ACAD_REACTORS
330
1A
102
}
330
1A
100
AcDbPlotSettings
  1

  2
none_device
  4
ISO_A4_(210.00_x_297.00_MM)
  6

 40
7.5
 41
20.0
 42
7.5
 43
20.0
 44
210.0
 45
297.0
 46
0.0
 47
0.0
 48
0.0
 49
0.0
140
0.0
141
0.0
142
1.0
143
2.2564102564
 70
   688
 72
     1
 73
     1
 74
     1
  7

 75
     0
147
0.4431818182
148
196.9538082245
149
238.2384401098
100
AcDbLayout
  1
_Top
 70
     1
 71
     4
 10
0.0
 20
0.0
 11
0.0
 21
0.0
 12
0.0
 22
0.0
 32
0.0
 14
0.0
 24
0.0
 34
0.0
 15
0.0
 25
0.0
 35
0.0
146
0.0
 13
0.0
 23
0.0
 33
0.0
 16
1.0
 26
0.0
 36
0.0
 17
0.0
 27
1.0
 37
0.0
 76
     0
330
1D9
331
429
  0
LAYOUT
  5
303
102
{ACAD_REACTORS
330
1A
102
}
330
1A
100
AcDbPlotSettings
  1

  2
none_device
  4
ISO_A4_(210.00_x_297.00_MM)
  6

 40
7.5
 41
20.0
 42
7.5
 43
20.0
 44
210.0
 45
297.0
 46
0.0
 47
0.0
 48
0.0
 49
0.0
140
0.0
141
0.0
142
1.0
143
2.2564102564
 70
   688
 72
     1
 73
     1
 74
     1
  7

 75
     0
147
0.4431818182
148
196.9538082245
149
238.2384401098
100
AcDbLayout
  1
_Trimetric
 70
     1
 71
     7
 10
0.0
 20
0.0
 11
0.0
 21
0.0
 12
0.0
 22
0.0
 32
0.0
 14
0.0
 24
0.0
 34
0.0
 15
0.0
 25
0.0
 35
0.0
146
0.0
 13
0.0
 23
0.0
 33
0.0
 16
1.0
 26
0.0
 36
0.0
 17
0.0
 27
1.0
 37
0.0
 76
     0
330
302
331
42F
  0
LAYOUT
  5
22
102
{ACAD_REACTORS
330
1A
102
}
330
1A
100
AcDbPlotSettings
  1

  2
none_device
  4
ANSI_A_(11.00_x_8.50_Inches)
  6

 40
6.35
 41
19.05
 42
6.35000508
 43
19.05000254
 44
279.4
 45
215.9
 46
159.6042862697
 47
97.7597769743
 48
0.0
 49
0.0
140
0.0
141
0.0
142
0.019125
143
1.0
 70
  1696
 72
     0
 73
     0
 74
     0
  7

 75
     0
147
0.0179189148
148
-1300.4909072572
149
0.0
100
AcDbLayout
  1
Model
 70
     1
 71
     0
 10
0.0
 20
0.0
 11
420.0
 21
297.0
 12
0.0
 22
0.0
 32
0.0
 14
-305.0461917755
 24
-238.2384401098
 34
0.0
 15
196.9538082245
 25
201.7615598902
 35
0.0
146
0.0
 13
0.0
 23
0.0
 33
0.0
 16
1.0
 26
0.0
 36
0.0
 17
0.0
 27
1.0
 37
0.0
 76
     0
330
1F
331
29
  0
MLINESTYLE
  5
18
102
{ACAD_REACTORS
330
17
102
}
330
17
100
AcDbMlineStyle
  2
Standard
 70
     0
  3

 62
   256
 51
90.0
 52
90.0
 71
     2
 49
0.5
 62
   256
  6
BYLAYER
 49
-0.5
 62
   256
  6
BYLAYER
  0
ACDBPLACEHOLDER
  5
F
102
{ACAD_REACTORS
330
E
102
}
330
E
  0
SCALE
  5
48
102
{ACAD_REACTORS
330
47
102
}
330
47
100
AcDbScale
 70
     0
300
1:1
140
1.0
141
1.0
290
     1
  0
SCALE
  5
49
102
{ACAD_REACTORS
330
47
102
}
330
47
100
AcDbScale
 70
     0
300
1:2
140
1.0
141
2.0
290
     0
  0
SCALE
  5
4A
102
{ACAD_REACTORS
330
47
102
}
330
47
100
AcDbScale
 70
     0
300
1:4
140
1.0
141
4.0
290
     0
  0
SCALE
  5
4B
102
{ACAD_REACTORS
330
47
102
}
330
47
100
AcDbScale
 70
     0
300
1:5
140
1.0
141
5.0
290
     0
  0
SCALE
  5
4C
102
{ACAD_REACTORS
330
47
102
}
330
47
100
AcDbScale
 70
     0
300
1:8
140
1.0
141
8.0
290
     0
  0
SCALE
  5
4D
102
{ACAD_REACTORS
330
47
102
}
330
47
100
AcDbScale
 70
     0
300
1:10
140
1.0
141
10.0
290
     0
  0
SCALE
  5
4E
102
{ACAD_REACTORS
330
47
102
}
330
47
100
AcDbScale
 70
     0
300
1:16
140
1.0
141
16.0
290
     0
  0
SCALE
  5
4F
102
{ACAD_REACTORS
330
47
102
}
330
47
100
AcDbScale
 70
     0
300
1:20
140
1.0
141
20.0
290
     0
  0
SCALE
  5
50
102
{ACAD_REACTORS
330
47
102
}
330
47
100
AcDbScale
 70
     0
300
1:30
140
1.0
141
30.0
290
     0
  0
SCALE
  5
51
102
{ACAD_REACTORS
330
47
102
}
330
47
100
AcDbScale
 70
     0
300
1:40
140
1.0
141
40.0
290
     0
  0
SCALE
  5
52
102
{ACAD_REACTORS
330
47
102
}
330
47
100
AcDbScale
 70
     0
300
1:50
140
1.0
141
50.0
290
     0
  0
SCALE
  5
53
102
{ACAD_REACTORS
330
47
102
}
330
47
100
AcDbScale
 70
     0
300
1:100
140
1.0
141
100.0
290
     0
  0
SCALE
  5
54
102
{ACAD_REACTORS
330
47
102
}
330
47
100
AcDbScale
 70
     0
300
2:1
140
2.0
141
1.0
290
     0
  0
SCALE
  5
55
102
{ACAD_REACTORS
330
47
102
}
330
47
100
AcDbScale
 70
     0
300
4:1
140
4.0
141
1.0
290
     0
  0
SCALE
  5
56
102
{ACAD_REACTORS
330
47
102
}
330
47
100
AcDbScale
 70
     0
300
8:1
140
8.0
141
1.0
290
     0
  0
SCALE
  5
57
102
{ACAD_REACTORS
330
47
102
}
330
47
100
AcDbScale
 70
     0
300
10:1
140
10.0
141
1.0
290
     0
  0
SCALE
  5
58
102
{ACAD_REACTORS
330
47
102
}
330
47
100
AcDbScale
 70
     0
300
100:1
140
100.0
141
1.0
290
     0
  0
SCALE
  5
59
102
{ACAD_REACTORS
330
47
102
}
330
47
100
AcDbScale
 70
     0
300
1/128" = 1'-0"
140
0.0078125
141
12.0
290
     0
  0
SCALE
  5
5A
102
{ACAD_REACTORS
330
47
102
}
330
47
100
AcDbScale
 70
     0
300
1/64" = 1'-0"
140
0.015625
141
12.0
290
     0
  0
SCALE
  5
5B
102
{ACAD_REACTORS
330
47
102
}
330
47
100
AcDbScale
 70
     0
300
1/32" = 1'-0"
140
0.03125
141
12.0
290
     0
  0
SCALE
  5
5C
102
{ACAD_REACTORS
330
47
102
}
330
47
100
AcDbScale
 70
     0
300
1/16" = 1'-0"
140
0.0625
141
12.0
290
     0
  0
SCALE
  5
5D
102
{ACAD_REACTORS
330
47
102
}
330
47
100
AcDbScale
 70
     0
300
3/32" = 1'-0"
140
0.09375
141
12.0
290
     0
  0
SCALE
  5
5E
102
{ACAD_REACTORS
330
47
102
}
330
47
100
AcDbScale
 70
     0
300
1/8" = 1'-0"
140
0.125
141
12.0
290
     0
  0
SCALE
  5
5F
102
{ACAD_REACTORS
330
47
102
}
330
47
100
AcDbScale
 70
     0
300
3/16" = 1'-0"
140
0.1875
141
12.0
290
     0
  0
SCALE
  5
60
102
{ACAD_REACTORS
330
47
102
}
330
47
100
AcDbScale
 70
     0
300
1/4" = 1'-0"
140
0.25
141
12.0
290
     0
  0
SCALE
  5
61
102
{ACAD_REACTORS
330
47
102
}
330
47
100
AcDbScale
 70
     0
300
3/8" = 1'-0"
140
0.375
141
12.0
290
     0
  0
SCALE
  5
62
102
{ACAD_REACTORS
330
47
102
}
330
47
100
AcDbScale
 70
     0
300
1/2" = 1'-0"
140
0.5
141
12.0
290
     0
  0
SCALE
  5
63
102
{ACAD_REACTORS
330
47
102
}
330
47
100
AcDbScale
 70
     0
300
3/4" = 1'-0"
140
0.75
141
12.0
290
     0
  0
SCALE
  5
64
102
{ACAD_REACTORS
330
47
102
}
330
47
100
AcDbScale
 70
     0
300
1" = 1'-0"
140
1.0
141
12.0
290
     0
  0
SCALE
  5
65
102
{ACAD_REACTORS
330
47
102
}
330
47
100
AcDbScale
 70
     0
300
1-1/2" = 1'-0"
140
1.5
141
12.0
290
     0
  0
SCALE
  5
66
102
{ACAD_REACTORS
330
47
102
}
330
47
100
AcDbScale
 70
     0
300
3" = 1'-0"
140
3.0
141
12.0
290
     0
  0
SCALE
  5
67
102
{ACAD_REACTORS
330
47
102
}
330
47
100
AcDbScale
 70
     0
300
6" = 1'-0"
140
6.0
141
12.0
290
     0
  0
SCALE
  5
68
102
{ACAD_REACTORS
330
47
102
}
330
47
100
AcDbScale
 70
     0
300
1'-0" = 1'-0"
140
12.0
141
12.0
290
     0
  0
ENDSEC
  0
EOF
