  0
SECTION
  2
HEADER
  9
$ACADVER
  1
AC1015
  9
$ACADMAINTVER
 70
     6
  9
$DWGCODEPAGE
  3
ANSI_1252
  9
$INSBASE
 10
0.0
 20
0.0
 30
0.0
  9
$EXTMIN
 10
-203.2847443432
 20
-153.0
 30
0.0
  9
$EXTMAX
 10
203.2847443432
 20
16.0
 30
0.0
  9
$LIMMIN
 10
0.0
 20
0.0
  9
$LIMMAX
 10
420.0
 20
297.0
  9
$ORTHOMODE
 70
     0
  9
$REGENMODE
 70
     1
  9
$FILLMODE
 70
     1
  9
$QTEXTMODE
 70
     0
  9
$MIRRTEXT
 70
     1
  9
$LTSCALE
 40
1.0
  9
$ATTMODE
 70
     1
  9
$TEXTSIZE
 40
3.5
  9
$TRACEWID
 40
1.0
  9
$TEXTSTYLE
  7
Standard
  9
$CLAYER
  8
0
  9
$CELTYPE
  6
ByLayer
  9
$CECOLOR
 62
   256
  9
$CELTSCALE
 40
1.0
  9
$DISPSILH
 70
     0
  9
$DIMSCALE
 40
1.0
  9
$DIMASZ
 40
3.302
  9
$DIMEXO
 40
1.0
  9
$DIMDLI
 40
3.75
  9
$DIMRND
 40
0.0
  9
$DIMDLE
 40
0.0
  9
$DIMEXE
 40
1.0
  9
$DIMTP
 40
0.0
  9
$DIMTM
 40
0.0
  9
$DIMTXT
 40
3.5
  9
$DIMCEN
 40
2.5
  9
$DIMTSZ
 40
0.0
  9
$DIMTOL
 70
     0
  9
$DIMLIM
 70
     0
  9
$DIMTIH
 70
     1
  9
$DIMTOH
 70
     1
  9
$DIMSE1
 70
     0
  9
$DIMSE2
 70
     0
  9
$DIMTAD
 70
     1
  9
$DIMZIN
 70
     1
  9
$DIMBLK
  1

  9
$DIMASO
 70
     1
  9
$DIMSHO
 70
     1
  9
$DIMPOST
  1

  9
$DIMAPOST
  1

  9
$DIMALT
 70
     0
  9
$DIMALTD
 70
     3
  9
$DIMALTF
 40
0.0393700787
  9
$DIMLFAC
 40
1.0
  9
$DIMTOFL
 70
     1
  9
$DIMTVP
 40
0.0
  9
$DIMTIX
 70
     0
  9
$DIMSOXD
 70
     0
  9
$DIMSAH
 70
     0
  9
$DIMBLK1
  1

  9
$DIMBLK2
  1

  9
$DIMSTYLE
  2
ISO-25
  9
$DIMCLRD
 70
     0
  9
$DIMCLRE
 70
     0
  9
$DIMCLRT
 70
     0
  9
$DIMTFAC
 40
1.0
  9
$DIMGAP
 40
1.524
  9
$DIMJUST
 70
     0
  9
$DIMSD1
 70
     0
  9
$DIMSD2
 70
     0
  9
$DIMTOLJ
 70
     0
  9
$DIMTZIN
 70
     1
  9
$DIMALTZ
 70
     0
  9
$DIMALTTZ
 70
     0
  9
$DIMUPT
 70
     0
  9
$DIMDEC
 70
     2
  9
$DIMTDEC
 70
     2
  9
$DIMALTU
 70
     2
  9
$DIMALTTD
 70
     3
  9
$DIMTXSTY
  7
Standard
  9
$DIMAUNIT
 70
     0
  9
$DIMADEC
 70
     2
  9
$DIMALTRND
 40
0.0
  9
$DIMAZIN
 70
     0
  9
$DIMDSEP
 70
    44
  9
$DIMATFIT
 70
     3
  9
$DIMFRAC
 70
     0
  9
$DIMLDRBLK
  1

  9
$DIMLUNIT
 70
     2
  9
$DIMLWD
 70
    -2
  9
$DIMLWE
 70
    -2
  9
$DIMTMOVE
 70
     0
  9
$LUNITS
 70
     2
  9
$LUPREC
 70
     2
  9
$SKETCHINC
 40
1.0
  9
$FILLETRAD
 40
10.0
  9
$AUNITS
 70
     0
  9
$AUPREC
 70
     2
  9
$MENU
  1
.
  9
$ELEVATION
 40
0.0
  9
$PELEVATION
 40
0.0
  9
$THICKNESS
 40
0.0
  9
$LIMCHECK
 70
     0
  9
$CHAMFERA
 40
0.0
  9
$CHAMFERB
 40
0.0
  9
$CHAMFERC
 40
0.0
  9
$CHAMFERD
 40
0.0
  9
$SKPOLY
 70
     0
  9
$TDCREATE
 40
2459901.349723785
  9
$TDUCREATE
 40
2459901.349723785
  9
$TDUPDATE
 40
2459901.34976412
  9
$TDUUPDATE
 40
2459901.34976412
  9
$TDINDWG
 40
0.0000000116
  9
$TDUSRTIMER
 40
0.0000000116
  9
$USRTIMER
 70
     1
  9
$ANGBASE
 50
0.0
  9
$ANGDIR
 70
     0
  9
$PDMODE
 70
     0
  9
$PDSIZE
 40
-1.0
  9
$PLINEWID
 40
0.0
  9
$SPLFRAME
 70
     0
  9
$SPLINETYPE
 70
     6
  9
$SPLINESEGS
 70
     8
  9
$HANDSEED
  5
36F
  9
$SURFTAB1
 70
     6
  9
$SURFTAB2
 70
     6
  9
$SURFTYPE
 70
     6
  9
$SURFU
 70
     6
  9
$SURFV
 70
     6
  9
$UCSBASE
  2

  9
$UCSNAME
  2

  9
$UCSORG
 10
0.0
 20
0.0
 30
0.0
  9
$UCSXDIR
 10
1.0
 20
0.0
 30
0.0
  9
$UCSYDIR
 10
0.0
 20
1.0
 30
0.0
  9
$UCSORTHOREF
  2

  9
$UCSORTHOVIEW
 70
     0
  9
$UCSORGTOP
 10
0.0
 20
0.0
 30
0.0
  9
$UCSORGBOTTOM
 10
0.0
 20
0.0
 30
0.0
  9
$UCSORGLEFT
 10
0.0
 20
0.0
 30
0.0
  9
$UCSORGRIGHT
 10
0.0
 20
0.0
 30
0.0
  9
$UCSORGFRONT
 10
0.0
 20
0.0
 30
0.0
  9
$UCSORGBACK
 10
0.0
 20
0.0
 30
0.0
  9
$PUCSBASE
  2

  9
$PUCSNAME
  2

  9
$PUCSORG
 10
0.0
 20
0.0
 30
0.0
  9
$PUCSXDIR
 10
1.0
 20
0.0
 30
0.0
  9
$PUCSYDIR
 10
0.0
 20
1.0
 30
0.0
  9
$PUCSORTHOREF
  2

  9
$PUCSORTHOVIEW
 70
     0
  9
$PUCSORGTOP
 10
0.0
 20
0.0
 30
0.0
  9
$PUCSORGBOTTOM
 10
0.0
 20
0.0
 30
0.0
  9
$PUCSORGLEFT
 10
0.0
 20
0.0
 30
0.0
  9
$PUCSORGRIGHT
 10
0.0
 20
0.0
 30
0.0
  9
$PUCSORGFRONT
 10
0.0
 20
0.0
 30
0.0
  9
$PUCSORGBACK
 10
0.0
 20
0.0
 30
0.0
  9
$USERI1
 70
     0
  9
$USERI2
 70
     0
  9
$USERI3
 70
     0
  9
$USERI4
 70
     0
  9
$USERI5
 70
     0
  9
$USERR1
 40
0.0
  9
$USERR2
 40
0.0
  9
$USERR3
 40
0.0
  9
$USERR4
 40
0.0
  9
$USERR5
 40
0.0
  9
$WORLDVIEW
 70
     1
  9
$SHADEDGE
 70
     3
  9
$SHADEDIF
 70
    70
  9
$TILEMODE
 70
     1
  9
$MAXACTVP
 70
    64
  9
$PINSBASE
 10
0.0
 20
0.0
 30
0.0
  9
$PLIMCHECK
 70
     0
  9
$PEXTMIN
 10
-203.2847443432
 20
-153.0
 30
0.0
  9
$PEXTMAX
 10
203.284744344
 20
16.0
 30
0.0
  9
$PLIMMIN
 10
-234.9243932683
 20
-164.8648683469
  9
$PLIMMAX
 10
234.9243932691
 20
167.3514453664
  9
$UNITMODE
 70
     0
  9
$VISRETAIN
 70
     1
  9
$PLINEGEN
 70
     0
  9
$PSLTSCALE
 70
     1
  9
$TREEDEPTH
 70
  3020
  9
$CMLSTYLE
  2
Standard
  9
$CMLJUST
 70
     0
  9
$CMLSCALE
 40
20.0
  9
$PROXYGRAPHICS
 70
     1
  9
$MEASUREMENT
 70
     1
  9
$CELWEIGHT
370
    -1
  9
$ENDCAPS
280
     0
  9
$JOINSTYLE
280
     0
  9
$LWDISPLAY
290
     1
  9
$INSUNITS
 70
     4
  9
$HYPERLINKBASE
  1

  9
$STYLESHEET
  1

  9
$XEDIT
290
     1
  9
$CEPSNTYPE
380
     0
  9
$PSTYLEMODE
290
     1
  9
$FINGERPRINTGUID
  2
{24694281-7950-4e24-80be-5c2a48b3787b}
  9
$VERSIONGUID
  2
{FAEB1C32-E019-11D5-929B-00C0DF256EC4}
  9
$EXTNAMES
290
     1
  9
$PSVPSCALE
 40
0.0
  9
$OLESTARTUP
290
     0
  0
ENDSEC
  0
SECTION
  2
CLASSES
  0
CLASS
  1
ACDBDICTIONARYWDFLT
  2
AcDbDictionaryWithDefault
  3
ObjectDBX Classes
 90
        0
280
     0
281
     0
  0
CLASS
  1
VISUALSTYLE
  2
AcDbVisualStyle
  3
ObjectDBX Classes
 90
     4095
280
     0
281
     0
  0
CLASS
  1
MATERIAL
  2
AcDbMaterial
  3
ObjectDBX Classes
 90
     1153
280
     0
281
     0
  0
CLASS
  1
SCALE
  2
AcDbScale
  3
ObjectDBX Classes
 90
     1153
280
     0
281
     0
  0
CLASS
  1
TABLESTYLE
  2
AcDbTableStyle
  3
ObjectDBX Classes
 90
     4095
280
     0
281
     0
  0
CLASS
  1
MLEADERSTYLE
  2
AcDbMLeaderStyle
  3
ACDB_MLEADERSTYLE_CLASS
 90
     4095
280
     0
281
     0
  0
CLASS
  1
SUN
  2
AcDbSun
  3
SCENEOE
 90
     1153
280
     0
281
     0
  0
CLASS
  1
ACDBPLACEHOLDER
  2
AcDbPlaceHolder
  3
ObjectDBX Classes
 90
        0
280
     0
281
     0
  0
CLASS
  1
LAYOUT
  2
AcDbLayout
  3
ObjectDBX Classes
 90
        0
280
     0
281
     0
  0
ENDSEC
  0
SECTION
  2
TABLES
  0
TABLE
  2
VPORT
  5
8
330
0
100
AcDbSymbolTable
 70
     1
  0
VPORT
  5
29
330
8
100
AcDbSymbolTableRecord
100
AcDbViewportTableRecord
  2
*Active
 70
     0
 10
0.0
 20
0.0
 11
1.0
 21
1.0
 12
0.0
 22
-68.5
 13
0.0
 23
0.0
 14
10.0
 24
10.0
 15
10.0
 25
10.0
 16
0.0
 26
0.0
 36
1.0
 17
0.0
 27
0.0
 37
0.0
 40
172.38
 41
2.4057366194
 42
50.0
 43
0.0
 44
0.0
 50
0.0
 51
0.0
 71
     0
 72
   100
 73
     1
 74
     3
 75
     0
 76
     0
 77
     0
 78
     0
281
     0
 65
     1
110
0.0
120
0.0
130
0.0
111
1.0
121
0.0
131
0.0
112
0.0
122
1.0
132
0.0
 79
     0
146
0.0
  0
ENDTAB
  0
TABLE
  2
LTYPE
  5
5
330
0
100
AcDbSymbolTable
 70
     6
  0
LTYPE
  5
14
330
5
100
AcDbSymbolTableRecord
100
AcDbLinetypeTableRecord
  2
ByBlock
 70
     0
  3

 72
    65
 73
     0
 40
0.0
  0
LTYPE
  5
15
330
5
100
AcDbSymbolTableRecord
100
AcDbLinetypeTableRecord
  2
ByLayer
 70
     0
  3

 72
    65
 73
     0
 40
0.0
  0
LTYPE
  5
16
330
5
100
AcDbSymbolTableRecord
100
AcDbLinetypeTableRecord
  2
Continuous
 70
     0
  3
Solid line
 72
    65
 73
     0
 40
0.0
  0
LTYPE
  5
6E
330
5
100
AcDbSymbolTableRecord
100
AcDbLinetypeTableRecord
  2
HIDDEN
 70
     0
  3
Hidden __ __ __ __ __ __ __ __ __ __ __ __ __ __
 72
    65
 73
     2
 40
1.905
 49
1.27
 74
     0
 49
-0.635
 74
     0
  0
LTYPE
  5
6F
330
5
100
AcDbSymbolTableRecord
100
AcDbLinetypeTableRecord
  2
PHANTOM
 70
     0
  3
Phantom ______  __  __  ______  __  __  ______
 72
    65
 73
     6
 40
12.7
 49
6.35
 74
     0
 49
-1.27
 74
     0
 49
1.27
 74
     0
 49
-1.27
 74
     0
 49
1.27
 74
     0
 49
-1.27
 74
     0
  0
LTYPE
  5
70
330
5
100
AcDbSymbolTableRecord
100
AcDbLinetypeTableRecord
  2
CENTER
 70
     0
  3
Center ____ _ ____ _ ____ _ ____ _ ____ _ ____
 72
    65
 73
     4
 40
10.16
 49
6.35
 74
     0
 49
-1.27
 74
     0
 49
1.27
 74
     0
 49
-1.27
 74
     0
  0
LTYPE
  5
71
330
5
100
AcDbSymbolTableRecord
100
AcDbLinetypeTableRecord
  2
CENTERX2
 70
     0
  3
Center (2x) ________  __  ________  __  _____
 72
    65
 73
     4
 40
20.32
 49
12.7
 74
     0
 49
-2.54
 74
     0
 49
2.54
 74
     0
 49
-2.54
 74
     0
  0
LTYPE
  5
72
330
5
100
AcDbSymbolTableRecord
100
AcDbLinetypeTableRecord
  2
DOT2
 70
     0
  3
Dot (.5x) ........................................
 72
    65
 73
     2
 40
0.635
 49
0.0
 74
     0
 49
-0.635
 74
     0
  0
ENDTAB
  0
TABLE
  2
LAYER
  5
2
330
0
100
AcDbSymbolTable
 70
     1
  0
LAYER
  5
10
330
2
100
AcDbSymbolTableRecord
100
AcDbLayerTableRecord
  2
0
 70
     0
 62
     7
  6
Continuous
370
    -3
390
F
  0
ENDTAB
  0
TABLE
  2
STYLE
  5
3
330
0
100
AcDbSymbolTable
 70
     1
  0
STYLE
  5
11
330
3
100
AcDbSymbolTableRecord
100
AcDbTextStyleTableRecord
  2
Standard
 70
     0
 40
0.0
 41
1.0
 50
0.0
 71
     0
 42
3.5
  3
txt
  4

  0
ENDTAB
  0
TABLE
  2
VIEW
  5
6
330
0
100
AcDbSymbolTable
 70
     0
  0
ENDTAB
  0
TABLE
  2
UCS
  5
7
330
0
100
AcDbSymbolTable
 70
     0
  0
ENDTAB
  0
TABLE
  2
APPID
  5
9
330
0
100
AcDbSymbolTable
 70
     1
  0
APPID
  5
12
330
9
100
AcDbSymbolTableRecord
100
AcDbRegAppTableRecord
  2
ACAD
 70
     0
  0
ENDTAB
  0
TABLE
  2
DIMSTYLE
  5
A
330
0
100
AcDbSymbolTable
 70
     1
100
AcDbDimStyleTable
  0
DIMSTYLE
105
27
330
A
100
AcDbSymbolTableRecord
100
AcDbDimStyleTableRecord
  2
ISO-25
 70
     0
 41
2.5
 42
0.625
 43
3.75
 44
1.25
 73
     0
 74
     0
 77
     1
 78
     8
140
2.5
141
2.5
143
0.0393700787
147
0.625
171
     3
172
     1
178
     0
271
     2
272
     2
274
     3
278
    44
283
     0
284
     8
340
11
  0
ENDTAB
  0
TABLE
  2
BLOCK_RECORD
  5
1
330
0
100
AcDbSymbolTable
 70
     2
  0
BLOCK_RECORD
  5
1F
330
1
100
AcDbSymbolTableRecord
100
AcDbBlockTableRecord
  2
*Model_Space
340
22
  0
BLOCK_RECORD
  5
1B
330
1
100
AcDbSymbolTableRecord
100
AcDbBlockTableRecord
  2
*Paper_Space
340
1E
  0
BLOCK_RECORD
  5
23
330
1
100
AcDbSymbolTableRecord
100
AcDbBlockTableRecord
  2
*Paper_Space0
340
26
  0
BLOCK_RECORD
  5
299
330
1
100
AcDbSymbolTableRecord
100
AcDbBlockTableRecord
  2
*Paper_Space1
340
29A
  0
ENDTAB
  0
ENDSEC
  0
SECTION
  2
BLOCKS
  0
BLOCK
  5
20
330
1F
100
AcDbEntity
  8
0
100
AcDbBlockBegin
  2
*Model_Space
 70
     0
 10
0.0
 20
0.0
 30
0.0
  3
*Model_Space
  1

  0
ENDBLK
  5
21
330
1F
100
AcDbEntity
  8
0
100
AcDbBlockEnd
  0
BLOCK
  5
1C
330
1B
100
AcDbEntity
 67
     1
  8
0
100
AcDbBlockBegin
  2
*Paper_Space
 70
     0
 10
0.0
 20
0.0
 30
0.0
  3
*Paper_Space
  1

  0
ENDBLK
  5
1D
330
1B
100
AcDbEntity
 67
     1
  8
0
100
AcDbBlockEnd
  0
BLOCK
  5
24
330
23
100
AcDbEntity
  8
0
100
AcDbBlockBegin
  2
*Paper_Space0
 70
     0
 10
0.0
 20
0.0
 30
0.0
  3
*Paper_Space0
  1

  0
SPLINE
  5
209
330
23
100
AcDbEntity
  8
0
  6
Continuous
 62
     7
370
    25
100
AcDbSpline
210
0.0
220
0.0
230
1.0
 70
     8
 71
     3
 72
    11
 73
     7
 74
     0
 42
0.000000001
 43
0.00000001
 40
0.0
 40
0.0
 40
0.0
 40
0.0
 40
0.2546937546794656
 40
0.5132680943885698
 40
0.764767905120242
 40
1.0
 40
1.0
 40
1.0
 40
1.0
 10
-179.5418103417187
 20
15.66989741824615
 30
0.0
 10
-179.9840264826134
 20
15.45587681809016
 30
0.0
 10
-180.8751964927715
 20
15.02457474026651
 30
0.0
 10
-181.8757234707276
 20
13.92921750304507
 30
0.0
 10
-182.5371987149082
 20
12.65223340375195
 30
0.0
 10
-182.6460534969376
 20
11.73111631459875
 30
0.0
 10
-182.6986617975631
 20
11.28595071108472
 30
0.0
  0
SPLINE
  5
20C
330
23
100
AcDbEntity
  8
0
  6
Continuous
 62
     7
370
    25
100
AcDbSpline
210
0.0
220
0.0
230
1.0
 70
     8
 71
     3
 72
    19
 73
    15
 74
     0
 42
0.000000001
 43
0.00000001
 40
0.0
 40
0.0
 40
0.0
 40
0.0
 40
0.0175230493209977
 40
0.0356255377318946
 40
0.0552889628283928
 40
0.0773461979059793
 40
0.1308876439721867
 40
0.2362526490505642
 40
0.3734777122726999
 40
0.5092422067756138
 40
0.6368905903357736
 40
0.756923062210295
 40
0.9675873273905183
 40
1.0
 40
1.0
 40
1.0
 40
1.0
 10
-115.7334796288311
 20
-126.4905530792527
 30
0.0
 10
-115.7022818711604
 20
-126.5868753467423
 30
0.0
 10
-115.6388547317002
 20
-126.7827049944258
 30
0.0
 10
-115.4854568143207
 20
-127.0407176001644
 30
0.0
 10
-115.3062713344106
 20
-127.2587063513143
 30
0.0
 10
-115.0232186405666
 20
-127.5090597266026
 30
0.0
 10
-114.5572276931164
 20
-127.7532405611047
 30
0.0
 10
-114.0121570370004
 20
-127.8617813678841
 30
0.0
 10
-113.4592492378112
 20
-127.8882821024723
 30
0.0
 10
-112.7004360528013
 20
-127.9178285434745
 30
0.0
 10
-111.8542734769113
 20
-127.936488298801
 30
0.0
 10
-110.6906790656744
 20
-127.952497561746
 30
0.0
 10
-109.6725623469672
 20
-127.9611360631445
 30
0.0
 10
-108.8609606396414
 20
-127.9624389974679
 30
0.0
 10
-108.7527390178452
 20
-127.9626127349851
 30
0.0
  0
SPLINE
  5
210
330
23
100
AcDbEntity
  8
0
  6
Continuous
 62
     7
370
    25
100
AcDbSpline
210
0.0
220
0.0
230
1.0
 70
     8
 71
     3
 72
    30
 73
    26
 74
     0
 42
0.000000001
 43
0.00000001
 40
0.0
 40
0.0
 40
0.0
 40
0.0
 40
0.0411920285229679
 40
0.0825905321787871
 40
0.124195720365766
 40
0.1660077993715776
 40
0.2080269724314213
 40
0.2502534397849234
 40
0.2926873987317747
 40
0.3353290436861581
 40
0.3781785662300077
 40
0.4212361551650728
 40
0.4645019965638967
 40
0.5079762738196572
 40
0.55165916769496
 40
0.5955508563695674
 40
0.6396515154870926
 40
0.6839613182007359
 40
0.72848043521798
 40
0.7732090348444217
 40
0.818147283026576
 40
0.8632953433938517
 40
0.9086533772996014
 40
0.9542215438613221
 40
1.0
 40
1.0
 40
1.0
 40
1.0
 10
-180.3589820441532
 20
1.073913062467055
 30
0.0
 10
-180.282117832379
 20
1.073909814663515
 30
0.0
 10
-180.1280041268015
 20
1.073903302776819
 30
0.0
 10
-179.8870523273307
 20
1.073839752051775
 30
0.0
 10
-179.6384105640785
 20
1.0737234797846
 30
0.0
 10
-179.381560803858
 20
1.073541795328384
 30
0.0
 10
-179.1168640518811
 20
1.073286807751109
 30
0.0
 10
-178.8444629367982
 20
1.072950461622882
 30
0.0
 10
-178.5645781378407
 20
1.072525927390447
 30
0.0
 10
-178.2774285158242
 20
1.072007275913098
 30
0.0
 10
-177.9832527917494
 20
1.071389615634646
 30
0.0
 10
-177.6823037824099
 20
1.070669104210636
 30
0.0
 10
-177.3748500102691
 20
1.06984299323
 30
0.0
 10
-177.0611752881607
 20
1.068909663086024
 30
0.0
 10
-176.7415788144685
 20
1.067868659427138
 30
0.0
 10
-176.4163750930256
 20
1.06672072806123
 30
0.0
 10
-176.0858938613971
 20
1.06546784864997
 30
0.0
 10
-175.7504799769255
 20
1.064113268331418
 30
0.0
 10
-175.4104932718946
 20
1.062661529653008
 30
0.0
 10
-175.0663083773577
 20
1.0611185135877
 30
0.0
 10
-174.7183145000874
 20
1.059491418936256
 30
0.0
 10
-174.3669152100918
 20
1.057788973329504
 30
0.0
 10
-174.0125280177176
 20
1.056020765758253
 30
0.0
 10
-173.6555845671029
 20
1.054199871860992
 30
0.0
 10
-173.4167638062136
 20
1.052958214257965
 30
0.0
 10
-173.2970785304565
 20
1.052335956242961
 30
0.0
  0
SPLINE
  5
213
330
23
100
AcDbEntity
  8
0
  6
Continuous
 62
     7
370
    25
100
AcDbSpline
210
0.0
220
0.0
230
1.0
 70
    24
 71
     3
 72
    14
 73
    10
 74
     0
 42
0.000000001
 43
0.00000001
 40
0.0
 40
0.0
 40
0.0
 40
0.0
 40
0.25
 40
0.25
 40
0.5
 40
0.5
 40
0.75
 40
0.75
 40
1.0
 40
1.0
 40
1.0
 40
1.0
 10
-173.2970785304565
 20
0.0
 30
0.0
 10
-173.8709388913724
 20
0.0
 30
0.0
 10
-174.4557401350942
 20
0.0
 30
0.0
 10
-175.6142570969228
 20
0.0
 30
0.0
 10
-176.1877561942723
 20
0.0
 30
0.0
 10
-177.2889800110616
 20
0.0
 30
0.0
 10
-177.816494931858
 20
0.0
 30
0.0
 10
-178.7963577236098
 20
0.0
 30
0.0
 10
-179.2485834555809
 20
0.0
 30
0.0
 10
-179.653809420182
 20
0.0
 30
0.0
  0
SPLINE
  5
215
330
23
100
AcDbEntity
  8
0
  6
Continuous
 62
     7
370
    25
100
AcDbSpline
210
0.0
220
0.0
230
1.0
 70
    24
 71
     3
 72
    14
 73
    10
 74
     0
 42
0.000000001
 43
0.00000001
 40
0.0
 40
0.0
 40
0.0
 40
0.0
 40
0.25
 40
0.25
 40
0.5
 40
0.5
 40
0.75
 40
0.75
 40
1.0
 40
1.0
 40
1.0
 40
1.0
 10
181.5
 20
0.0
 30
0.0
 10
181.5
 20
0.0
 30
0.0
 10
181.4785212611865
 20
0.0
 30
0.0
 10
181.3810553409383
 20
0.0
 30
0.0
 10
181.3047378541244
 20
0.0
 30
0.0
 10
181.1094757082488
 20
0.0
 30
0.0
 10
180.9911916599458
 20
0.0
 30
0.0
 10
180.744997759178
 20
0.0
 30
0.0
 10
180.6178511301978
 20
0.0
 30
0.0
 10
180.5
 20
0.0
 30
0.0
  0
SPLINE
  5
218
330
23
100
AcDbEntity
  8
0
  6
Continuous
 62
     7
370
    25
100
AcDbSpline
210
0.0
220
0.0
230
1.0
 70
     8
 71
     3
 72
    25
 73
    21
 74
     0
 42
0.000000001
 43
0.00000001
 40
0.0
 40
0.0
 40
0.0
 40
0.0
 40
0.0431910275260453
 40
0.0868350260906717
 40
0.1309321350764241
 40
0.1754824893871991
 40
0.2204862196251681
 40
0.2659434522589053
 40
0.3118543097834219
 40
0.3582189108724468
 40
0.4050373705234026
 40
0.452309800195565
 40
0.5000363079416728
 40
0.5519196210930781
 40
0.6103189585269437
 40
0.6752329193677815
 40
0.746659897104842
 40
0.8245980913874729
 40
0.9090455152906745
 40
1.0
 40
1.0
 40
1.0
 40
1.0
 10
180.5
 20
1.052335956242947
 30
0.0
 10
180.5452280538767
 20
1.05231419869084
 30
0.0
 10
180.6361584962249
 20
1.052270455401696
 30
0.0
 10
180.7726319213608
 20
1.051906897450147
 30
0.0
 10
180.909223280481
 20
1.051310439886849
 30
0.0
 10
181.0452271978447
 20
1.050450748317666
 30
0.0
 10
181.1799067122513
 20
1.049326899447991
 30
0.0
 10
181.3124967506152
 20
1.047933635648021
 30
0.0
 10
181.4422079784077
 20
1.046270713898595
 30
0.0
 10
181.5682311947885
 20
1.044341012514716
 30
0.0
 10
181.6897421174502
 20
1.042149799962769
 30
0.0
 10
181.8059070106814
 20
1.039710785880513
 30
0.0
 10
181.9187315330884
 20
1.036953851918876
 30
0.0
 10
182.0309474257182
 20
1.033816953170508
 30
0.0
 10
182.1432641246021
 20
1.030111302559158
 30
0.0
 10
182.251908116743
 20
1.025658965165738
 30
0.0
 10
182.3506191570999
 20
1.020385134497801
 30
0.0
 10
182.4312007032189
 20
1.014266768556843
 30
0.0
 10
182.4885344228702
 20
1.00734462556662
 30
0.0
 10
182.4960847733117
 20
1.002508018018502
 30
0.0
 10
182.5
 20
1.000000000000001
 30
0.0
  0
SPLINE
  5
21A
330
23
100
AcDbEntity
  8
0
  6
Continuous
 62
     7
370
    25
100
AcDbSpline
210
0.0
220
0.0
230
1.0
 70
     8
 71
     3
 72
    30
 73
    26
 74
     0
 42
0.000000001
 43
0.00000001
 40
0.0
 40
0.0
 40
0.0
 40
0.0
 40
0.0412034049556782
 40
0.0826131950665219
 40
0.1242294347929873
 40
0.1660521876355892
 40
0.2080815161534354
 40
0.2503174819823489
 40
0.2927601458525461
 40
0.3354095676059063
 40
0.3782658062128341
 40
0.4213289197887259
 40
0.4645989656100691
 40
0.5080760001301552
 40
0.5517600789944263
 40
0.5956512570554978
 40
0.6397495883877966
 40
0.6840551263019169
 40
0.7285679233586007
 40
0.7732880313824341
 40
0.8182155014752358
 40
0.863350384029138
 40
0.9086927287393664
 40
0.9542425846167609
 40
1.0
 40
1.0
 40
1.0
 40
1.0
 10
-179.8194097734671
 20
11.36956531233523
 30
0.0
 10
-179.8948508792172
 20
11.36953049649804
 30
0.0
 10
-180.046110970272
 20
11.36946069043342
 30
0.0
 10
-180.2639050401075
 20
11.36888817154592
 30
0.0
 10
-180.4753381958407
 20
11.36796037797624
 30
0.0
 10
-180.6793860351209
 20
11.36663446145914
 30
0.0
 10
-180.8758879979876
 20
11.36491067206133
 30
0.0
 10
-181.0644529926353
 20
11.36277875666583
 30
0.0
 10
-181.2447555998575
 20
11.36023247884552
 30
0.0
 10
-181.4164569179661
 20
11.35726574925307
 30
0.0
 10
-181.5792267508951
 20
11.35387371945737
 30
0.0
 10
-181.7327384605067
 20
11.3500525353539
 30
0.0
 10
-181.87667121448
 20
11.34579945156348
 30
0.0
 10
-182.0107102590647
 20
11.34111284756709
 30
0.0
 10
-182.1345477262429
 20
11.33599226895242
 30
0.0
 10
-182.2478833662744
 20
11.33043846200607
 30
0.0
 10
-182.3504251072038
 20
11.32445340380203
 30
0.0
 10
-182.4418904490944
 20
11.31804035066764
 30
0.0
 10
-182.5220047262941
 20
11.31120380998316
 30
0.0
 10
-182.5905111867449
 20
11.30394979425563
 30
0.0
 10
-182.6471366883123
 20
11.29628500731698
 30
0.0
 10
-182.6917242126054
 20
11.28822003619827
 30
0.0
 10
-182.7237385065121
 20
11.27975748187265
 30
0.0
 10
-182.744127405453
 20
11.27093667834848
 30
0.0
 10
-182.7469235765332
 20
11.26477008622093
 30
0.0
 10
-182.7483248401984
 20
11.26167978121472
 30
0.0
  0
SPLINE
  5
21B
330
23
100
AcDbEntity
  8
0
  6
Continuous
 62
     7
370
    25
100
AcDbSpline
210
0.0
220
0.0
230
1.0
 70
     8
 71
     3
 72
    33
 73
    29
 74
     0
 42
0.000000001
 43
0.00000001
 40
0.0
 40
0.0
 40
0.0
 40
0.0
 40
0.0404883517816283
 40
0.0808142708051973
 40
0.120977790497322
 40
0.1609789446943518
 40
0.2008177676489421
 40
0.2404942940367811
 40
0.2800085589634096
 40
0.3193605979712485
 40
0.3585504470466979
 40
0.3975781426274065
 40
0.4364437216097118
 40
0.4751472213561803
 40
0.5136886797033648
 40
0.552068134969657
 40
0.5902856259633518
 40
0.6283411919908517
 40
0.6662348728650473
 40
0.7039667089138748
 40
0.7415367409890524
 40
0.7789450104749961
 40
0.8161915592979326
 40
0.8532764299351852
 40
0.8901996654246798
 40
0.9269613093746394
 40
0.9635614059734978
 40
1.0
 40
1.0
 40
1.0
 40
1.0
 10
-172.7620294926527
 20
11.26167978121472
 30
0.0
 10
-172.8678195855388
 20
11.26441725810312
 30
0.0
 10
-173.0789753584662
 20
11.26988122956274
 30
0.0
 10
-173.3947452857233
 20
11.27774264406482
 30
0.0
 10
-173.7086079365916
 20
11.28532597979349
 30
0.0
 10
-174.0202613554121
 20
11.2926011684656
 30
0.0
 10
-174.3294127832266
 20
11.29956669506274
 30
0.0
 10
-174.6357777456979
 20
11.30621454373959
 30
0.0
 10
-174.9390805098922
 20
11.31253951747024
 30
0.0
 10
-175.2390541539824
 20
11.3185367386852
 30
0.0
 10
-175.5354407179529
 20
11.32420229646172
 30
0.0
 10
-175.8279913110933
 20
11.32953305473283
 30
0.0
 10
-176.1164662098542
 20
11.33452668297627
 30
0.0
 10
-176.4006349375637
 20
11.33918162677254
 30
0.0
 10
-176.6802763289778
 20
11.34349709356398
 30
0.0
 10
-176.9551785786978
 20
11.34747303358338
 30
0.0
 10
-177.2251392768659
 20
11.35111012147566
 30
0.0
 10
-177.4899654221354
 20
11.35440973672984
 30
0.0
 10
-177.7494734509581
 20
11.35737394523648
 30
0.0
 10
-178.0034891405916
 20
11.36000547490817
 30
0.0
 10
-178.251847916788
 20
11.36230771142172
 30
0.0
 10
-178.4943935995116
 20
11.36428461775699
 30
0.0
 10
-178.7309828812873
 20
11.36594093488769
 30
0.0
 10
-178.9614684927486
 20
11.36728133879367
 30
0.0
 10
-179.1857613368527
 20
11.36831346619999
 30
0.0
 10
-179.4035997798648
 20
11.36903659548161
 30
0.0
 10
-179.6154046334169
 20
11.36948351162502
 30
0.0
 10
-179.7515083772893
 20
11.36953808565638
 30
0.0
 10
-179.8194097734671
 20
11.36956531233523
 30
0.0
  0
SPLINE
  5
21D
330
23
100
AcDbEntity
  8
0
  6
Continuous
 62
     7
370
    25
100
AcDbSpline
210
0.0
220
0.0
230
1.0
 70
     8
 71
     3
 72
    33
 73
    29
 74
     0
 42
0.000000001
 43
0.00000001
 40
0.0
 40
0.0
 40
0.0
 40
0.0
 40
0.0405071054937116
 40
0.0808496321441097
 40
0.1210276883608481
 40
0.1610413838929681
 40
0.2008908298501195
 40
0.2405761387241427
 40
0.280097424411038
 40
0.3194548022334278
 40
0.3586483889633545
 40
0.3976783028456023
 40
0.4365446636213963
 40
0.4752475925525822
 40
0.5137872124463053
 40
0.5521636476800937
 40
0.5903770242275009
 40
0.6284274696841895
 40
0.6663151132945643
 40
0.7040400859788798
 40
0.7416025203609269
 40
0.7790025507962174
 40
0.8162403134007598
 40
0.8533159460803609
 40
0.8902295885605415
 40
0.9269813824170284
 40
0.963571471106837
 40
1.0
 40
1.0
 40
1.0
 40
1.0
 10
-183.2833738780023
 20
1.052335956242961
 30
0.0
 10
-183.2823747291504
 20
1.052886738990899
 30
0.0
 10
-183.2803804909508
 20
1.053986066677212
 30
0.0
 10
-183.2646824779294
 20
1.055603767536994
 30
0.0
 10
-183.2398388198569
 20
1.057182483945693
 30
0.0
 10
-183.2050834039497
 20
1.058712728770062
 30
0.0
 10
-183.1608117185797
 20
1.060187505495844
 30
0.0
 10
-183.1071202337475
 20
1.061600258034506
 30
0.0
 10
-183.0441948519261
 20
1.062945400502086
 30
0.0
 10
-182.9722069405218
 20
1.064218158790653
 30
0.0
 10
-182.8913404971803
 20
1.065414594331238
 30
0.0
 10
-182.8017843973858
 20
1.066531578327645
 30
0.0
 10
-182.7037339433675
 20
1.067566778232345
 30
0.0
 10
-182.5973899400055
 20
1.068518640079716
 30
0.0
 10
-182.482958433918
 20
1.069386371104472
 30
0.0
 10
-182.3606502806066
 20
1.070169921526074
 30
0.0
 10
-182.2306807652733
 20
1.070869965870858
 30
0.0
 10
-182.0932692081598
 20
1.071487883749986
 30
0.0
 10
-181.9486386092862
 20
1.072025740338198
 30
0.0
 10
-181.7970151853971
 20
1.072486265940475
 30
0.0
 10
-181.6386283324209
 20
1.072872837116115
 30
0.0
 10
-181.4737090416049
 20
1.073189450418857
 30
0.0
 10
-181.3024940813822
 20
1.073440722112809
 30
0.0
 10
-181.1252088350698
 20
1.073631790373106
 30
0.0
 10
-180.9421293119538
 20
1.073768578038786
 30
0.0
 10
-180.7533506498278
 20
1.073856717756477
 30
0.0
 10
-180.5596438502262
 20
1.073905435733033
 30
0.0
 10
-180.4257705775745
 20
1.073910523975097
 30
0.0
 10
-180.3589820441532
 20
1.073913062467055
 30
0.0
  0
SPLINE
  5
229
330
23
100
AcDbEntity
  8
0
  6
Continuous
 62
     7
370
    25
100
AcDbSpline
210
0.0
220
0.0
230
1.0
 70
    24
 71
     3
 72
    10
 73
     6
 74
     0
 42
0.000000001
 43
0.00000001
 40
0.0
 40
0.0
 40
0.0
 40
0.0
 40
0.5
 40
0.5
 40
1.0
 40
1.0
 40
1.0
 40
1.0
 10
-176.2935466536115
 20
16.0
 30
0.0
 10
-175.8432955818325
 20
16.0
 30
0.0
 10
-175.2856480420971
 20
16.0
 30
0.0
 10
-174.0620660234423
 20
16.0
 30
0.0
 10
-173.3996521158924
 20
16.0
 30
0.0
 10
-172.7620294926525
 20
16.0
 30
0.0
  0
LWPOLYLINE
  5
22A
330
23
100
AcDbEntity
  8
0
  6
Continuous
 62
     7
370
    25
100
AcDbPolyline
 90
        9
 70
   128
 43
0.0
 10
-179.8194097735
 20
11.3695653123
 10
-179.7092652807
 20
12.290632605
 10
-179.4798946407
 20
13.1666501819
 10
-179.1393040683
 20
13.9670405244
 10
-178.6993819264
 20
14.6638658929
 10
-178.17548376
 20
15.2328034983
 10
-177.5858963098
 20
15.6539944921
 10
-176.95119921
 20
15.9127371424
 10
-176.2935466536
 20
16.0
  0
SPLINE
  5
22F
330
23
100
AcDbEntity
  8
0
  6
Continuous
 62
     7
370
    25
100
AcDbSpline
210
0.0
220
0.0
230
1.0
 70
    24
 71
     3
 72
    14
 73
    10
 74
     0
 42
0.000000001
 43
0.00000001
 40
0.0
 40
0.0
 40
0.0
 40
0.0
 40
0.25
 40
0.25
 40
0.5
 40
0.5
 40
0.75
 40
0.75
 40
1.0
 40
1.0
 40
1.0
 40
1.0
 10
-179.653809420182
 20
0.0
 30
0.0
 10
-180.0590353847832
 20
0.0
 30
0.0
 10
-180.4329271546981
 20
0.0
 30
0.0
 10
-181.0900970015476
 20
0.0
 30
0.0
 10
-181.3731914560916
 20
0.0
 30
0.0
 10
-181.8289678996697
 20
0.0
 30
0.0
 10
-182.0015630568736
 20
0.0
 30
0.0
 10
-182.2294295707051
 20
0.0
 30
0.0
 10
-182.2847443432476
 20
0.0
 30
0.0
 10
-182.2847443432475
 20
0.0
 30
0.0
  0
SPLINE
  5
231
330
23
100
AcDbEntity
  8
0
  6
Continuous
 62
     7
370
    25
100
AcDbSpline
210
0.0
220
0.0
230
1.0
 70
    24
 71
     3
 72
    10
 73
     6
 74
     0
 42
0.000000001
 43
0.00000001
 40
0.0
 40
0.0
 40
0.0
 40
0.0
 40
0.5
 40
0.5
 40
1.0
 40
1.0
 40
1.0
 40
1.0
 10
-177.7551771664255
 20
16.0
 30
0.0
 10
-177.7551771664257
 20
16.00000000000001
 30
0.0
 10
-177.6285725987651
 20
16.00000000000003
 30
0.0
 10
-177.1221543281226
 20
16.00000000000001
 30
0.0
 10
-176.7437977253904
 20
16.00000000000001
 30
0.0
 10
-176.2935466536115
 20
16.0
 30
0.0
  0
SPLINE
  5
234
330
23
100
AcDbEntity
  8
0
  6
Continuous
 62
     7
370
    25
100
AcDbSpline
210
0.0
220
0.0
230
1.0
 70
     8
 71
     3
 72
    76
 73
    72
 74
     0
 42
0.000000001
 43
0.00000001
 40
0.0
 40
0.0
 40
0.0
 40
0.0
 40
0.0109023780610157
 40
0.0217869652791911
 40
0.032655149961979
 40
0.0435082821952507
 40
0.0543476723598431
 40
0.0651745897245692
 40
0.075990261118886
 40
0.0867958696881734
 40
0.0975925537341528
 40
0.1083814056427295
 40
0.1191634709012153
 40
0.1299397474209611
 40
0.1407112525705504
 40
0.1514791293250851
 40
0.1622445176240517
 40
0.173008530399265
 40
0.1837722530226341
 40
0.1945367428201185
 40
0.2053030286532191
 40
0.2160721105691734
 40
0.2268449595208913
 40
0.2376225171575256
 40
0.2484056956863844
 40
0.2591953850736671
 40
0.2699925462589081
 40
0.2807981986568783
 40
0.2916133588533074
 40
0.3024390395805878
 40
0.313276250111529
 40
0.3241259967003718
 40
0.3349892830713099
 40
0.3458671109547352
 40
0.3567604806712876
 40
0.3676703917637814
 40
0.3785978436733056
 40
0.3895438363140235
 40
0.400509370729848
 40
0.4114954500523135
 40
0.4225030803789218
 40
0.4335332716871132
 40
0.4445870387949569
 40
0.455665402368017
 40
0.4667693899717565
 40
0.4779000371688196
 40
0.489058388660368
 40
0.5002455005379366
 40
0.5225518761446636
 40
0.5447493284015803
 40
0.5668463841411887
 40
0.5888515713489082
 40
0.6107734323161332
 40
0.6326204101326024
 40
0.6543999056275979
 40
0.6761189312459566
 40
0.6977847361193484
 40
0.7194048087558393
 40
0.7409868695990526
 40
0.7625386680978228
 40
0.7840676457501593
 40
0.805581643379144
 40
0.8270890302915165
 40
0.8485986622238434
 40
0.8701198340391776
 40
0.8916616874969094
 40
0.9132325607646942
 40
0.9348414980390397
 40
0.9564984369502938
 40
0.9782141198670754
 40
1.0
 40
1.0
 40
1.0
 40
1.0
 10
-112.5007431512117
 20
-0.1039722282418498
 30
0.0
 10
-112.7002918913466
 20
-0.1046087866952011
 30
0.0
 10
-113.0990637417168
 20
-0.1058808648458226
 30
0.0
 10
-113.6965661478212
 20
-0.1077433557184759
 30
0.0
 10
-114.2928067967943
 20
-0.1095703114493279
 30
0.0
 10
-114.8876863453932
 20
-0.1113585957991381
 30
0.0
 10
-115.4811059088405
 20
-0.1131090472828861
 30
0.0
 10
-116.0729649294854
 20
-0.1148214417174553
 30
0.0
 10
-116.6631617376613
 20
-0.1164958391311616
 30
0.0
 10
-117.2515933939768
 20
-0.1181322235712379
 30
0.0
 10
-117.8381557186875
 20
-0.119730599410256
 30
0.0
 10
-118.4227432897563
 20
-0.1212909657112154
 30
0.0
 10
-119.0052493830831
 20
-0.1228133226105488
 30
0.0
 10
-119.5855674077604
 20
-0.1242976745419039
 30
0.0
 10
-120.1635931549974
 20
-0.1257440306862839
 30
0.0
 10
-120.7392214549249
 20
-0.127152379210127
 30
0.0
 10
-121.3123494940517
 20
-0.1285227198625366
 30
0.0
 10
-121.8828736128236
 20
-0.1298550525326569
 30
0.0
 10
-122.4506890078679
 20
-0.1311493773672873
 30
0.0
 10
-123.0156896924788
 20
-0.132405694459492
 30
0.0
 10
-123.5777684970838
 20
-0.1336240039274406
 30
0.0
 10
-124.1368170690942
 20
-0.1348043059056503
 30
0.0
 10
-124.6927258350924
 20
-0.1359466004964838
 30
0.0
 10
-125.2453841142192
 20
-0.1370508879678517
 30
0.0
 10
-125.7946797873254
 20
-0.1381171682451054
 30
0.0
 10
-126.3405026529701
 20
-0.1391454468445269
 30
0.0
 10
-126.8827371399807
 20
-0.1401357223458632
 30
0.0
 10
-127.4212648349073
 20
-0.1410879914017366
 30
0.0
 10
-127.9559681138784
 20
-0.1420022543545396
 30
0.0
 10
-128.4867278649373
 20
-0.1428785111510927
 30
0.0
 10
-129.0134237827183
 20
-0.1437167618569962
 30
0.0
 10
-129.5359342749663
 20
-0.144517006506778
 30
0.0
 10
-130.0541364792828
 20
-0.1452792451434731
 30
0.0
 10
-130.567906250487
 20
-0.1460034778075076
 30
0.0
 10
-131.0771181550681
 20
-0.1466897045389465
 30
0.0
 10
-131.5816454665676
 20
-0.1473379253767726
 30
0.0
 10
-132.0813601474969
 20
-0.1479481403533905
 30
0.0
 10
-132.576132877702
 20
-0.1485203495006915
 30
0.0
 10
-133.0658330683672
 20
-0.1490545528573251
 30
0.0
 10
-133.5503287993101
 20
-0.149550750450006
 30
0.0
 10
-134.0294868266549
 20
-0.1500089423150525
 30
0.0
 10
-134.5031725704611
 20
-0.1504291284377679
 30
0.0
 10
-134.971250118935
 20
-0.150811308975346
 30
0.0
 10
-135.4335821833455
 20
-0.1511554834212614
 30
0.0
 10
-135.8900302338533
 20
-0.1514616537325736
 30
0.0
 10
-136.3404539587376
 20
-0.1517298126162692
 30
0.0
 10
-136.7847132717044
 20
-0.1519599874099109
 30
0.0
 10
-137.3673641287912
 20
-0.1522155440867312
 30
0.0
 10
-138.0752400172728
 20
-0.1524397347730938
 30
0.0
 10
-138.8907026391595
 20
-0.1525559093138312
 30
0.0
 10
-139.6706875164039
 20
-0.1525186429018333
 30
0.0
 10
-140.4149503082547
 20
-0.1523279849616477
 30
0.0
 10
-141.1232785813516
 20
-0.1519839199655426
 30
0.0
 10
-141.7954794959357
 20
-0.1514864670506405
 30
0.0
 10
-142.431318357359
 20
-0.1508356245188552
 30
0.0
 10
-143.0305494169182
 20
-0.1500313820006205
 30
0.0
 10
-143.5929537606378
 20
-0.1490737370946627
 30
0.0
 10
-144.118338979422
 20
-0.1479626866981998
 30
0.0
 10
-144.6065408618866
 20
-0.1466982327749528
 30
0.0
 10
-145.0574119084163
 20
-0.1452803922684098
 30
0.0
 10
-145.47065184256
 20
-0.1437091354666159
 30
0.0
 10
-145.8459906019565
 20
-0.1419844548554705
 30
0.0
 10
-146.1831892240585
 20
-0.140106346078181
 30
0.0
 10
-146.4820404505188
 20
-0.138074809354502
 30
0.0
 10
-146.7423716403821
 20
-0.1358898518160345
 30
0.0
 10
-146.9640184335804
 20
-0.1335515948262672
 30
0.0
 10
-147.1464361144194
 20
-0.1310596933263436
 30
0.0
 10
-147.2894750200545
 20
-0.1284150473337409
 30
0.0
 10
-147.3917761525165
 20
-0.1256142513662989
 30
0.0
 10
-147.4566883004108
 20
-0.1226700529884939
 30
0.0
 10
-147.4656282525809
 20
-0.1205835458338994
 30
0.0
 10
-147.4701054417371
 20
-0.1195386087884387
 30
0.0
  0
SPLINE
  5
237
330
23
100
AcDbEntity
  8
0
  6
Continuous
 62
     7
370
    25
100
AcDbSpline
210
0.0
220
0.0
230
1.0
 70
     8
 71
     3
 72
     8
 73
     4
 74
     0
 42
0.000000001
 43
0.00000001
 40
0.0
 40
0.0
 40
0.0
 40
0.0
 40
1.0
 40
1.0
 40
1.0
 40
1.0
 10
-80.9037387325837
 20
-126.3850450177708
 30
0.0
 10
-80.76915921999449
 20
-126.3848952259552
 30
0.0
 10
-80.6345795994964
 20
-126.3848199506704
 30
0.0
 10
-80.5000000001337
 20
-126.3848199506702
 30
0.0
  0
SPLINE
  5
23B
330
23
100
AcDbEntity
  8
0
  6
Continuous
 62
     7
370
    25
100
AcDbSpline
210
0.0
220
0.0
230
1.0
 70
     8
 71
     3
 72
    10
 73
     6
 74
     0
 42
0.000000001
 43
0.00000001
 40
0.0
 40
0.0
 40
0.0
 40
0.0
 40
0.5
 40
0.5
 40
1.0
 40
1.0
 40
1.0
 40
1.0
 10
140.5
 20
-126.3848199506702
 30
0.0
 10
141.314830279753
 20
-126.3848199506702
 30
0.0
 10
142.1296096709326
 20
-126.391560131937
 30
0.0
 10
143.75913656104
 20
-126.4092646167376
 30
0.0
 10
144.5738850228622
 20
-126.4201013851284
 30
0.0
 10
145.3887153026152
 20
-126.4201013851284
 30
0.0
  0
SPLINE
  5
23D
330
23
100
AcDbEntity
  8
0
  6
Continuous
 62
     7
370
    25
100
AcDbSpline
210
0.0
220
0.0
230
1.0
 70
     8
 71
     3
 72
    42
 73
    38
 74
     0
 42
0.000000001
 43
0.00000001
 40
0.0
 40
0.0
 40
0.0
 40
0.0
 40
0.0089301607823341
 40
0.0198175174547136
 40
0.0326633692474447
 40
0.0474692508477979
 40
0.0804564510899675
 40
0.110478806069343
 40
0.1738954415127944
 40
0.2370979189140572
 40
0.2994691726429646
 40
0.3625629994573383
 40
0.426370303611655
 40
0.4908816538633051
 40
0.5130531063836435
 40
0.5352243743055387
 40
0.5573950177484299
 40
0.5795645968776333
 40
0.6017326719118988
 40
0.6238988031309929
 40
0.6460625508833244
 40
0.6682234755936515
 40
0.6903811377709034
 40
0.7125350980161356
 40
0.7346849170306688
 40
0.7568301556244265
 40
0.7789703747244995
 40
0.8011051353839935
 40
0.8232339987911544
 40
0.8453565262788376
 40
0.8674722793343184
 40
0.8895808196095065
 40
0.9116817089315679
 40
0.9337745093140075
 40
0.9558587829682224
 40
0.9779340923155735
 40
0.9999999999999999
 40
0.9999999999999999
 40
0.9999999999999999
 40
0.9999999999999999
 10
-81.3333955262209
 20
-127.9569159386624
 30
0.0
 10
-81.4868347468871
 20
-127.9571051806949
 30
0.0
 10
-81.82734199058706
 20
-127.9575251403545
 30
0.0
 10
-82.3883248204833
 20
-127.9582135730904
 30
0.0
 10
-83.04971921065926
 20
-127.9590191882188
 30
0.0
 10
-84.08896596702871
 20
-127.9602801897886
 30
0.0
 10
-85.41858246938344
 20
-127.96182870911
 30
0.0
 10
-87.56359201148823
 20
-127.9640973430058
 30
0.0
 10
-90.18625122993079
 20
-127.9664969798431
 30
0.0
 10
-93.25880544383963
 20
-127.968841274665
 30
0.0
 10
-96.20593867315894
 20
-127.970658788619
 30
0.0
 10
-99.01354255008177
 20
-127.9720131953865
 30
0.0
 10
-101.6724629541509
 20
-127.9729473272897
 30
0.0
 10
-103.5991484722672
 20
-127.9733647223565
 30
0.0
 10
-104.9021284360476
 20
-127.9735170015214
 30
0.0
 10
-105.6693436133717
 20
-127.9735600323591
 30
0.0
 10
-106.4065685524508
 20
-127.9735541048313
 30
0.0
 10
-107.1129246030061
 20
-127.9734989507606
 30
0.0
 10
-107.7875405968403
 20
-127.9733944840272
 30
0.0
 10
-108.4295943852305
 20
-127.9732403961684
 30
0.0
 10
-109.0383030725318
 20
-127.9730362647389
 30
0.0
 10
-109.6129269251971
 20
-127.972781524291
 30
0.0
 10
-110.1527695443798
 20
-127.9724754741658
 30
0.0
 10
-110.6571789666682
 20
-127.9721172764294
 30
0.0
 10
-111.125548437286
 20
-127.9717059564465
 30
0.0
 10
-111.5573172073155
 20
-127.9712404027777
 30
0.0
 10
-111.9519711975717
 20
-127.9707193671678
 30
0.0
 10
-112.3090438008962
 20
-127.9701414648748
 30
0.0
 10
-112.6281158878347
 20
-127.9695051735635
 30
0.0
 10
-112.9088184776947
 20
-127.9688088376322
 30
0.0
 10
-113.1508251625455
 20
-127.9680506522717
 30
0.0
 10
-113.3538824474496
 20
-127.9672287231629
 30
0.0
 10
-113.5176983438113
 20
-127.9663408440456
 30
0.0
 10
-113.6423593807743
 20
-127.9653853266858
 30
0.0
 10
-113.7267763033411
 20
-127.9643579054263
 30
0.0
 10
-113.7744822280045
 20
-127.9632632831249
 30
0.0
 10
-113.7728320290469
 20
-127.9624689653133
 30
0.0
 10
-113.7720071053065
 20
-127.9620718909986
 30
0.0
  0
SPLINE
  5
241
330
23
100
AcDbEntity
  8
0
  6
Continuous
 62
     7
370
    25
100
AcDbSpline
210
0.0
220
0.0
230
1.0
 70
     8
 71
     3
 72
    13
 73
     9
 74
     0
 42
0.000000001
 43
0.00000001
 40
0.0
 40
0.0
 40
0.0
 40
0.0
 40
0.1264636281145748
 40
0.2516730927074224
 40
0.3760317821415065
 40
0.4999654778160799
 40
0.7507044362901353
 40
1.0
 40
1.0
 40
1.0
 40
1.0
 10
145.3887153026152
 20
-128.0
 30
0.0
 10
145.1829235509263
 20
-127.9994983092831
 30
0.0
 10
144.773380922952
 20
-127.9984999032103
 30
0.0
 10
144.1611114816085
 20
-127.9921200322378
 30
0.0
 10
143.5527223622245
 20
-127.9841853367002
 30
0.0
 10
142.7395466262983
 20
-127.9727537131074
 30
0.0
 10
141.7222462566452
 20
-127.959287079501
 30
0.0
 10
140.9066306361891
 20
-127.9570256551834
 30
0.0
 10
140.5
 20
-127.9558982069272
 30
0.0
  0
SPLINE
  5
24A
330
23
100
AcDbEntity
  8
0
  6
Continuous
 62
     7
370
    25
100
AcDbSpline
210
0.0
220
0.0
230
1.0
 70
     8
 71
     3
 72
    26
 73
    22
 74
     0
 42
0.000000001
 43
0.00000001
 40
0.0
 40
0.0
 40
0.0
 40
0.0
 40
0.0248036387746245
 40
0.0496936658310942
 40
0.0746910880135786
 40
0.0998166427965747
 40
0.1250907522571023
 40
0.1875521129605945
 40
0.2503066931000248
 40
0.3126824136370187
 40
0.3747431369051772
 40
0.4992051536638644
 40
0.624172816803255
 40
0.6881555547439085
 40
0.7493938008578712
 40
0.8135602376160698
 40
0.874882637249213
 40
0.9067710063948866
 40
0.9380981572215173
 40
0.9690950374112398
 40
1.0
 40
1.0
 40
1.0
 40
1.0
 10
20.94436524219219
 20
-149.0
 30
0.0
 10
20.88648195810121
 20
-148.9992160184958
 30
0.0
 10
20.77051378895639
 20
-148.9976453249682
 30
0.0
 10
20.59441063238824
 20
-148.98498205331
 30
0.0
 10
20.41642517707302
 20
-148.9647817933595
 30
0.0
 10
20.23641085080886
 20
-148.9362967300311
 30
0.0
 10
19.96558227033994
 20
-148.8818849818924
 30
0.0
 10
19.60164736933405
 20
-148.7823860573509
 30
0.0
 10
19.14585933829704
 20
-148.6114343279581
 30
0.0
 10
18.69133601576553
 20
-148.3957745611002
 30
0.0
 10
18.09146325060324
 20
-148.0495797190744
 30
0.0
 10
17.35555277057919
 20
-147.5059543592355
 30
0.0
 10
16.66270017887233
 20
-146.8057105180729
 30
0.0
 10
16.1653944959869
 20
-146.1498212099625
 30
0.0
 10
15.82708164296792
 20
-145.602293796085
 30
0.0
 10
15.54218954696036
 20
-145.0128957977895
 30
0.0
 10
15.35676288461104
 20
-144.47610036975
 30
0.0
 10
15.24915059085218
 20
-144.0331949410114
 30
0.0
 10
15.1902444796805
 20
-143.6903404953927
 30
0.0
 10
15.1533119441725
 20
-143.3457427099841
 30
0.0
 10
15.14876045292587
 20
-143.1151334266395
 30
0.0
 10
15.14648808654086
 20
-143.0
 30
0.0
  0
SPLINE
  5
251
330
23
100
AcDbEntity
  8
0
  6
Continuous
 62
     7
370
    25
100
AcDbSpline
210
0.0
220
0.0
230
1.0
 70
     8
 71
     3
 72
    27
 73
    23
 74
     0
 42
0.000000001
 43
0.00000001
 40
0.0
 40
0.0
 40
0.0
 40
0.0
 40
0.015227472394326
 40
0.0305351884229918
 40
0.0459541156418079
 40
0.0615145576406764
 40
0.0772460002275069
 40
0.0931769797501985
 40
0.1093349753949152
 40
0.1257463260387506
 40
0.1855780642727295
 40
0.2510799148129637
 40
0.3633860429566009
 40
0.5008872222395606
 40
0.5593310939526247
 40
0.625350051943561
 40
0.6736712088054851
 40
0.7499006370396917
 40
0.8267643346012017
 40
0.8940668217319244
 40
0.9518104673524668
 40
0.9999999999999999
 40
0.9999999999999999
 40
0.9999999999999999
 40
0.9999999999999999
 10
15.77844931952905
 20
-143.0
 30
0.0
 10
15.7791246444287
 20
-143.0511110185739
 30
0.0
 10
15.78047885296204
 20
-143.15360239352
 30
0.0
 10
15.7913863271111
 20
-143.3073830331953
 30
0.0
 10
15.80878132013415
 20
-143.4613564793223
 30
0.0
 10
15.83330916514377
 20
-143.6153707628133
 30
0.0
 10
15.86479339666716
 20
-143.7692724710475
 30
0.0
 10
15.90327950108847
 20
-143.9229042660386
 30
0.0
 10
15.94875559021933
 20
-144.0761146187635
 30
0.0
 10
16.04715709207418
 20
-144.3623767597905
 30
0.0
 10
16.23805660133209
 20
-144.7802533220056
 30
0.0
 10
16.63695216567968
 20
-145.4136132091656
 30
0.0
 10
17.27429981148335
 20
-146.1306949194777
 30
0.0
 10
17.96835692949612
 20
-146.6882910751705
 30
0.0
 10
18.58204213560749
 20
-147.0768649459433
 30
0.0
 10
18.99319830010982
 20
-147.2998153470165
 30
0.0
 10
19.45171939576577
 20
-147.511794221801
 30
0.0
 10
19.93806748265212
 20
-147.6983530291355
 30
0.0
 10
20.46942016135616
 20
-147.851369926127
 30
0.0
 10
20.95265779036824
 20
-147.9450633468244
 30
0.0
 10
21.36456573061919
 20
-147.992378526197
 30
0.0
 10
21.61229617414251
 20
-147.9976169945463
 30
0.0
 10
21.72498999199195
 20
-148.0
 30
0.0
  0
SPLINE
  5
257
330
23
100
AcDbEntity
  8
0
  6
Continuous
 62
     7
370
    25
100
AcDbSpline
210
0.0
220
0.0
230
1.0
 70
     8
 71
     3
 72
    14
 73
    10
 74
     0
 42
0.000000001
 43
0.00000001
 40
0.0
 40
0.0
 40
0.0
 40
0.0
 40
0.1350009230949037
 40
0.2726340881306147
 40
0.4073766773262203
 40
0.5439835161616312
 40
0.6747380359854789
 40
0.8470057807144558
 40
1.0
 40
1.0
 40
1.0
 40
1.0
 10
-113.7720071053066
 20
-127.9620718909986
 30
0.0
 10
-113.7616553247435
 20
-127.96289587479
 30
0.0
 10
-113.7407499250644
 20
-127.9645599083719
 30
0.0
 10
-113.4440436546172
 20
-127.9668555067323
 30
0.0
 10
-112.9487114989592
 20
-127.9687027844009
 30
0.0
 10
-112.2559933016445
 20
-127.9702413639333
 30
0.0
 10
-111.2806080803126
 20
-127.9715339327373
 30
0.0
 10
-110.0444879237737
 20
-127.9726301775605
 30
0.0
 10
-108.932628433308
 20
-127.9730019472104
 30
0.0
 10
-108.409640523503
 20
-127.973176817357
 30
0.0
  0
LWPOLYLINE
  5
25A
330
23
100
AcDbEntity
  8
0
  6
Continuous
 62
     8
370
    25
100
AcDbPolyline
 90
        4
 70
   128
 43
0.0
 10
180.2821422148
 20
-0.103840599
 10
17.2995838352
 20
-0.103840599
 10
-47.6005796582
 20
-0.103840599
 10
-112.5007431512
 20
-0.1039722282
  0
SPLINE
  5
25C
330
23
100
AcDbEntity
  8
0
  6
Continuous
 62
     8
370
    25
100
AcDbSpline
210
0.0
220
0.0
230
1.0
 70
     8
 71
     3
 72
    18
 73
    14
 74
     0
 42
0.000000001
 43
0.00000001
 40
0.0
 40
0.0
 40
0.0
 40
0.0
 40
0.0281559169323765
 40
0.1169253338418229
 40
0.2054621734855607
 40
0.3387729987459561
 40
0.471718562624305
 40
0.6042170231689057
 40
0.7367232445691562
 40
0.8112740556197654
 40
0.8847064756138074
 40
0.9491177114068391
 40
1.0
 40
1.0
 40
1.0
 40
1.0
 10
-115.6674898042401
 20
-126.4895507126626
 30
0.0
 10
-115.6406935251286
 20
-126.4949330117978
 30
0.0
 10
-115.529414468284
 20
-126.51728451698
 30
0.0
 10
-114.7238808540755
 20
-126.5466464655761
 30
0.0
 10
-113.0155033133466
 20
-126.5819062915431
 30
0.0
 10
-110.0798740039232
 20
-126.604429820334
 30
0.0
 10
-105.6800219322777
 20
-126.6068912911134
 30
0.0
 10
-100.3362376086363
 20
-126.5862660729705
 30
0.0
 10
-95.13823726321628
 20
-126.5488748578445
 30
0.0
 10
-90.57005018276284
 20
-126.5055374742686
 30
0.0
 10
-86.9977733288931
 20
-126.4658024123235
 30
0.0
 10
-83.76716458362901
 20
-126.4254332547743
 30
0.0
 10
-81.78050688095239
 20
-126.3974152246087
 30
0.0
 10
-80.903738726786
 20
-126.385050076572
 30
0.0
  0
LINE
  5
264
330
23
100
AcDbEntity
  8
0
  6
Continuous
 62
     7
370
    25
100
AcDbLine
 10
-147.4701182902
 20
-0.1195268393
 30
0.0
 11
-115.8862826462
 21
-126.4548694153
 31
0.0
  0
LINE
  5
265
330
23
100
AcDbEntity
  8
0
  6
Continuous
 62
     7
370
    25
100
AcDbLine
 10
-81.5210792679
 20
-127.9519574722
 30
0.0
 11
-80.5000000001
 21
-127.9510130758
 31
0.0
  0
LINE
  5
266
330
23
100
AcDbEntity
  8
0
  6
Continuous
 62
     7
370
    25
100
AcDbLine
 10
-80.5000000001
 20
-127.9510130757
 30
0.0
 11
140.5
 21
-127.9510130757
 31
0.0
  0
LINE
  5
267
330
23
100
AcDbEntity
  8
0
  6
Continuous
 62
     7
370
    25
100
AcDbLine
 10
140.5
 20
-127.9510130758
 30
0.0
 11
145.3887153026
 21
-127.9740530939
 31
0.0
  0
LINE
  5
268
330
23
100
AcDbEntity
  8
0
  6
Continuous
 62
     7
370
    25
100
AcDbLine
 10
-173.2970785305
 20
0.0
 30
0.0
 11
-173.2970785305
 21
1.0523359562
 31
0.0
  0
LINE
  5
269
330
23
100
AcDbEntity
  8
0
  6
Continuous
 62
     7
370
    25
100
AcDbLine
 10
180.5
 20
0.0
 30
0.0
 11
180.5
 21
16.0
 31
0.0
  0
LINE
  5
26A
330
23
100
AcDbEntity
  8
0
  6
Continuous
 62
     7
370
    25
100
AcDbLine
 10
-172.7620294927
 20
11.2616797812
 30
0.0
 11
-173.2970785305
 21
1.0523359562
 31
0.0
  0
LINE
  5
26B
330
23
100
AcDbEntity
  8
0
  6
Continuous
 62
     7
370
    25
100
AcDbLine
 10
-183.283373878
 20
1.0523359562
 30
0.0
 11
-182.7483248402
 21
11.2616797812
 31
0.0
  0
LINE
  5
26C
330
23
100
AcDbEntity
  8
0
  6
Continuous
 62
     7
370
    25
100
AcDbLine
 10
-173.2970785305
 20
1.0523359562
 30
0.0
 11
180.5
 21
1.0523359562
 31
0.0
  0
LINE
  5
26D
330
23
100
AcDbEntity
  8
0
  6
Continuous
 62
     7
370
    25
100
AcDbLine
 10
180.5
 20
1.0
 30
0.0
 11
-173.2970785305
 21
1.0
 31
0.0
  0
LINE
  5
26E
330
23
100
AcDbEntity
  8
0
  6
Continuous
 62
     7
370
    25
100
AcDbLine
 10
180.5
 20
11.2616797812
 30
0.0
 11
-172.7620294927
 21
11.2616797812
 31
0.0
  0
LINE
  5
26F
330
23
100
AcDbEntity
  8
0
  6
Continuous
 62
     7
370
    25
100
AcDbLine
 10
182.5
 20
14.0
 30
0.0
 11
182.5
 21
1.0
 31
0.0
  0
LINE
  5
270
330
23
100
AcDbEntity
  8
0
  6
Continuous
 62
     7
370
    25
100
AcDbLine
 10
180.5
 20
0.0
 30
0.0
 11
-173.2970785305
 21
0.0
 31
0.0
  0
LINE
  5
271
330
23
100
AcDbEntity
  8
0
  6
Continuous
 62
     7
370
    25
100
AcDbLine
 10
-172.7620294927
 20
16.0
 30
0.0
 11
-172.7620294927
 21
11.2616797812
 31
0.0
  0
LINE
  5
272
330
23
100
AcDbEntity
  8
0
  6
Continuous
 62
     7
370
    25
100
AcDbLine
 10
-172.7620294927
 20
16.0
 30
0.0
 11
180.5
 21
16.0
 31
0.0
  0
LINE
  5
273
330
23
100
AcDbEntity
  8
0
  6
Continuous
 62
     7
370
    25
100
AcDbLine
 10
182.5
 20
-128.0
 30
0.0
 11
182.5
 21
0.82499
 31
0.0
  0
LINE
  5
274
330
23
100
AcDbEntity
  8
0
  6
Continuous
 62
     7
370
    25
100
AcDbLine
 10
-80.5000000001
 20
-126.3848199507
 30
0.0
 11
140.5
 21
-126.3848199507
 31
0.0
  0
LINE
  5
275
330
23
100
AcDbEntity
  8
0
  6
Continuous
 62
     7
370
    25
100
AcDbLine
 10
-115.8862644445
 20
-126.4551194638
 30
0.0
 11
-115.6674898042
 21
-126.4895507127
 31
0.0
  0
LINE
  5
276
330
23
100
AcDbEntity
  8
0
  6
Continuous
 62
     7
370
    25
100
AcDbLine
 10
145.3887153026
 20
-126.4201013851
 30
0.0
 11
182.5
 21
-126.4201013851
 31
0.0
  0
LINE
  5
277
330
23
100
AcDbEntity
  8
0
  6
Continuous
 62
     7
370
    25
100
AcDbLine
 10
140.5
 20
-127.9558982069
 30
0.0
 11
-80.5
 21
-127.9558982069
 31
0.0
  0
LINE
  5
278
330
23
100
AcDbEntity
  8
0
  6
Continuous
 62
     7
370
    25
100
AcDbLine
 10
145.3887153026
 20
-126.4201013851
 30
0.0
 11
145.3887153026
 21
-128.0
 31
0.0
  0
LINE
  5
279
330
23
100
AcDbEntity
  8
0
  6
Continuous
 62
     7
370
    25
100
AcDbLine
 10
-82.1459329671
 20
-127.9688990313
 30
0.0
 11
-81.3578643763
 21
-128.0
 31
0.0
  0
LINE
  5
27A
330
23
100
AcDbEntity
  8
0
  6
Continuous
 62
     7
370
    25
100
AcDbLine
 10
182.5
 20
-128.0
 30
0.0
 11
-81.3578643763
 21
-128.0
 31
0.0
  0
LINE
  5
27B
330
23
100
AcDbEntity
  8
0
  6
Continuous
 62
     7
370
    25
100
AcDbLine
 10
-48.5
 20
-152.0
 30
0.0
 11
29.5
 21
-152.0
 31
0.0
  0
LINE
  5
27C
330
23
100
AcDbEntity
  8
0
  6
Continuous
 62
     7
370
    25
100
AcDbLine
 10
-48.5
 20
-128.0
 30
0.0
 11
-48.5
 21
-152.0
 31
0.0
  0
LINE
  5
27D
330
23
100
AcDbEntity
  8
0
  6
Continuous
 62
     7
370
    25
100
AcDbLine
 10
29.5
 20
-149.0
 30
0.0
 11
20.9443652422
 21
-149.0
 31
0.0
  0
LINE
  5
27E
330
23
100
AcDbEntity
  8
0
  6
Continuous
 62
     7
370
    25
100
AcDbLine
 10
29.5
 20
-149.0
 30
0.0
 11
29.5
 21
-152.0
 31
0.0
  0
LINE
  5
27F
330
23
100
AcDbEntity
  8
0
  6
Continuous
 62
     7
370
    25
100
AcDbLine
 10
28.5
 20
-153.0
 30
0.0
 11
-47.5
 21
-153.0
 31
0.0
  0
LINE
  5
280
330
23
100
AcDbEntity
  8
0
  6
Continuous
 62
     7
370
    25
100
AcDbLine
 10
15.1464880865
 20
-143.0
 30
0.0
 11
52.8004714505
 21
-143.0
 31
0.0
  0
LINE
  5
281
330
23
100
AcDbEntity
  8
0
  6
Continuous
 62
     7
370
    25
100
AcDbLine
 10
52.8004714505
 20
-143.0
 30
0.0
 11
52.8004714505
 21
-148.0
 31
0.0
  0
LINE
  5
282
330
23
100
AcDbEntity
  8
0
  6
Continuous
 62
     7
370
    25
100
AcDbLine
 10
52.8004714505
 20
-148.0
 30
0.0
 11
21.724989992
 21
-148.0
 31
0.0
  0
LINE
  5
283
330
23
100
AcDbEntity
  8
0
  6
Continuous
 62
     8
370
    25
100
AcDbLine
 10
182.5
 20
0.1026129318
 30
0.0
 11
181.9120894204
 21
0.0943207349
 31
0.0
  0
LINE
  5
284
330
23
100
AcDbEntity
  8
0
  6
Continuous
 62
     8
370
    25
100
AcDbLine
 10
182.5
 20
-0.103840599
 30
0.0
 11
181.7178577852
 21
-0.103840599
 31
0.0
  0
LINE
  5
285
330
23
100
AcDbEntity
  8
0
  6
Continuous
 62
     8
370
    25
100
AcDbLine
 10
-112.5003756051
 20
0.0
 30
0.0
 11
-112.5007431512
 21
-0.1039722282
 31
0.0
  0
LINE
  5
286
330
23
100
AcDbEntity
  8
0
  6
Continuous
 62
     8
370
    25
100
AcDbLine
 10
-80.5000000001
 20
-126.3848199507
 30
0.0
 11
-80.5
 21
-128.0
 31
0.0
  0
LINE
  5
287
330
23
100
AcDbEntity
  8
0
  6
Continuous
 62
     8
370
    25
100
AcDbLine
 10
140.5
 20
-126.3848199507
 30
0.0
 11
140.5
 21
-127.9509848691
 31
0.0
  0
LINE
  5
288
330
23
100
AcDbEntity
  8
0
  6
Continuous
 62
     8
370
    25
100
AcDbLine
 10
140.5
 20
-128.0
 30
0.0
 11
140.5
 21
-127.9558982069
 31
0.0
  0
LINE
  5
289
330
23
100
AcDbEntity
  8
0
  6
Continuous
 62
     8
370
    25
100
AcDbLine
 10
15.1464880865
 20
-143.0
 30
0.0
 11
15.1464880865
 21
-128.0
 31
0.0
  0
LINE
  5
28A
330
23
100
AcDbEntity
  8
0
  6
Continuous
 62
     8
370
    25
100
AcDbLine
 10
15.7784493195
 20
-128.0
 30
0.0
 11
15.7784493195
 21
-143.0
 31
0.0
  0
ARC
  5
28B
330
23
100
AcDbEntity
  8
0
  6
Continuous
 62
     7
370
    25
100
AcDbCircle
 10
30.5
 20
-149.0
 30
0.0
 40
0.9999999999999716
100
AcDbArc
 50
90.0
 51
180.0
  0
ARC
  5
28C
330
23
100
AcDbEntity
  8
0
  6
Continuous
 62
     7
370
    25
100
AcDbCircle
 10
-179.4594313988
 20
0.896114351
 30
0.0
 40
0.916953513156863
100
AcDbArc
 50
168.8194373997
 51
257.7614477466
  0
ARC
  5
28D
330
23
100
AcDbEntity
  8
0
  6
Continuous
 62
     7
370
    25
100
AcDbCircle
 10
181.5
 20
1.0
 30
0.0
 40
1.000000000000012
100
AcDbArc
 50
270.0
 51
0.0
  0
ARC
  5
28E
330
23
100
AcDbEntity
  8
0
  6
Continuous
 62
     7
370
    25
100
AcDbCircle
 10
180.9986304738
 20
1.6295145422
 30
0.0
 40
9.645062962009778
100
AcDbArc
 50
81.0448095014
 51
92.9633983002
  0
ARC
  5
28F
330
23
100
AcDbEntity
  8
0
  6
Continuous
 62
     7
370
    25
100
AcDbCircle
 10
180.5
 20
14.0
 30
0.0
 40
2.000000000000014
100
AcDbArc
 50
0.0
 51
90.0
  0
ARC
  5
290
330
23
100
AcDbEntity
  8
0
  6
Continuous
 62
     7
370
    25
100
AcDbCircle
 10
-182.2847443425
 20
1.0
 30
0.0
 40
1.000000000792994
100
AcDbArc
 50
177.0000000017
 51
270.0
  0
ARC
  5
291
330
23
100
AcDbEntity
  8
0
  6
Continuous
 62
     7
370
    25
100
AcDbCircle
 10
-177.7551771664
 20
11.0
 30
0.0
 40
5.000000000000311
100
AcDbArc
 50
90.0
 51
177.0
  0
ARC
  5
292
330
23
100
AcDbEntity
  8
0
  6
Continuous
 62
     7
370
    25
100
AcDbCircle
 10
-146.5000085405
 20
0.1231441635
 30
0.0
 40
0.9999914627902138
100
AcDbArc
 50
187.0736568617
 51
194.0450563864
  0
ARC
  5
293
330
23
100
AcDbEntity
  8
0
  6
Continuous
 62
     7
370
    25
100
AcDbCircle
 10
-113.946032809
 20
-125.9696575128
 30
0.0
 40
1.99999999999949
100
AcDbArc
 50
194.0362434679
 51
274.9917817326
  0
ARC
  5
294
330
23
100
AcDbEntity
  8
0
  6
Continuous
 62
     7
370
    25
100
AcDbCircle
 10
-47.5
 20
-152.0
 30
0.0
 40
1.000000000000007
100
AcDbArc
 50
180.0
 51
270.0
  0
ARC
  5
295
330
23
100
AcDbEntity
  8
0
  6
Continuous
 62
     7
370
    25
100
AcDbCircle
 10
28.5
 20
-152.0
 30
0.0
 40
1.000000000000018
100
AcDbArc
 50
270.0
 51
0.0
  0
ARC
  5
296
330
23
100
AcDbEntity
  8
0
  6
Continuous
 62
     7
370
    25
100
AcDbCircle
 10
21.8500901122
 20
-148.90234375
 30
0.0
 40
0.910974359259422
100
AcDbArc
 50
97.8931209029
 51
186.1539201034
  0
ARC
  5
297
330
23
100
AcDbEntity
  8
0
  6
Continuous
 62
     7
370
    25
100
AcDbCircle
 10
52.8004714505
 20
-118.0
 30
0.0
 40
30.00000000000011
100
AcDbArc
 50
270.0
 51
340.5421213273
  0
ARC
  5
298
330
23
100
AcDbEntity
  8
0
  6
Continuous
 62
     8
370
    25
100
AcDbCircle
 10
52.8004714505
 20
-118.0
 30
0.0
 40
25.00000000000013
100
AcDbArc
 50
270.0
 51
336.4218215218
  0
VIEWPORT
  5
36B
330
23
100
AcDbEntity
  8
0
100
AcDbViewport
 10
0.0
 20
0.0
 30
0.0
 40
205.6
 41
156.0
 68
     1
 69
     1
 12
0.0
 22
-68.5
 13
0.0
 23
0.0
 14
10.0
 24
10.0
 15
10.0
 25
10.0
 16
0.0
 26
0.0
 36
1.0
 17
0.0
 27
0.0
 37
0.0
 42
50.0
 43
0.0
 44
0.0
 45
314.6563085593
 50
0.0
 51
0.0
 72
   100
 90
   557152
  1

281
     0
 71
     1
 74
     0
110
0.0
120
0.0
130
0.0
111
1.0
121
0.0
131
0.0
112
0.0
122
1.0
132
0.0
 79
     0
146
0.0
  0
ENDBLK
  5
25
330
23
100
AcDbEntity
  8
0
100
AcDbBlockEnd
  0
BLOCK
  5
29B
330
299
100
AcDbEntity
  8
0
100
AcDbBlockBegin
  2
*Paper_Space1
 70
     0
 10
0.0
 20
0.0
 30
0.0
  3
*Paper_Space1
  1

  0
SPLINE
  5
29D
330
299
100
AcDbEntity
  8
0
  6
Continuous
 62
     7
370
    25
100
AcDbSpline
210
0.0
220
0.0
230
1.0
 70
     8
 71
     3
 72
    10
 73
     6
 74
     0
 42
0.000000001
 43
0.00000001
 40
0.0
 40
0.0
 40
0.0
 40
0.0
 40
0.3380709093827287
 40
0.8148194527030245
 40
1.0
 40
1.0
 40
1.0
 40
1.0
 10
-8.732573645788532
 20
-61.07543938884591
 30
0.0
 10
-9.050321727085883
 20
-61.05457276325998
 30
0.0
 10
-9.816159042614963
 20
-61.00427996382704
 30
0.0
 10
-10.33384866627288
 20
-61.01116424126914
 30
0.0
 10
-10.38774412838829
 20
-61.08722109764995
 30
0.0
 10
-10.40282186301701
 20
-61.1084986793274
 30
0.0
  0
SPLINE
  5
29E
330
299
100
AcDbEntity
  8
0
  6
Continuous
 62
     7
370
    25
100
AcDbSpline
210
0.0
220
0.0
230
1.0
 70
     8
 71
     3
 72
    10
 73
     6
 74
     0
 42
0.000000001
 43
0.00000001
 40
0.0
 40
0.0
 40
0.0
 40
0.0
 40
0.1215635854930549
 40
0.4249110658859531
 40
1.0
 40
1.0
 40
1.0
 40
1.0
 10
10.27332472335095
 20
-60.98013223216032
 30
0.0
 10
10.26241503967474
 20
-60.96210095406368
 30
0.0
 10
10.2242815369442
 20
-60.89907476440123
 30
0.0
 10
9.872964587985482
 20
-60.95642240688706
 30
0.0
 10
9.33272449198711
 20
-61.0104011739226
 30
0.0
 10
8.979043683857407
 20
-61.04573963563321
 30
0.0
  0
SPLINE
  5
29F
330
299
100
AcDbEntity
  8
0
  6
Continuous
 62
     7
370
    25
100
AcDbSpline
210
0.0
220
0.0
230
1.0
 70
     8
 71
     3
 72
    10
 73
     6
 74
     0
 42
0.000000001
 43
0.00000001
 40
0.0
 40
0.0
 40
0.0
 40
0.0
 40
0.5
 40
0.5
 40
1.0
 40
1.0
 40
1.0
 40
1.0
 10
126.926903419581
 20
-61.7358712332115
 30
0.0
 10
127.0224391722059
 20
-61.73601952124234
 30
0.0
 10
127.1179437455635
 20
-61.73575779468531
 30
0.0
 10
127.3089794694654
 20
-61.73441211349229
 30
0.0
 10
127.4044940321745
 20
-61.73332821901235
 30
0.0
 10
127.499999999997
 20
-61.7318323516654
 30
0.0
  0
SPLINE
  5
2A1
330
299
100
AcDbEntity
  8
0
  6
Continuous
 62
     7
370
    25
100
AcDbSpline
210
0.0
220
0.0
230
1.0
 70
     8
 71
     3
 72
    25
 73
    21
 74
     0
 42
0.000000001
 43
0.00000001
 40
0.0
 40
0.0
 40
0.0
 40
0.0
 40
0.0039062500000002
 40
0.0039062500000002
 40
0.0078125000000003
 40
0.0156250000000003
 40
0.0312500000000003
 40
0.0625000000000003
 40
0.1250000000000004
 40
0.2500000000000003
 40
0.5
 40
0.7499999999999999
 40
0.8749999999999998
 40
0.9374999999999998
 40
0.9687499999999998
 40
0.9843749999999998
 40
0.9921874999999999
 40
0.99609375
 40
0.99609375
 40
1.0
 40
1.0
 40
1.0
 40
1.0
 10
127.6724683831716
 20
-71.69487961175709
 30
0.0
 10
127.3399884875494
 20
-71.70063510689211
 30
0.0
 10
127.0075081593947
 20
-71.70132881566035
 30
0.0
 10
126.3425473845292
 20
-71.70132881566033
 30
0.0
 10
125.3451062222315
 20
-71.7013288156602
 30
0.0
 10
123.0177435102032
 20
-71.70132881566033
 30
0.0
 10
118.3630180861467
 20
-71.70132881566032
 30
0.0
 10
109.0535672380335
 20
-71.70132881566035
 30
0.0
 10
90.43466554180729
 20
-71.70132881566035
 30
0.0
 10
53.19686214935465
 20
-71.7013288156603
 30
0.0
 10
0.0000001601365626
 20
-71.70132881566018
 30
0.0
 10
-53.19686182908136
 20
-71.70132881566022
 30
0.0
 10
-90.43466522153403
 20
-71.70132881566019
 30
0.0
 10
-109.0535669177603
 20
-71.70132881566023
 30
0.0
 10
-118.3630177658739
 20
-71.70132881566026
 30
0.0
 10
-123.0177431899303
 20
-71.70132881566032
 30
0.0
 10
-125.3451059019582
 20
-71.7013288156603
 30
0.0
 10
-126.3425470642565
 20
-71.70132881566033
 30
0.0
 10
-127.0075078391216
 20
-71.7013288156602
 30
0.0
 10
-127.3399882016817
 20
-71.7006351118375
 30
0.0
 10
-127.6724683827542
 20
-71.69487961176429
 30
0.0
  0
SPLINE
  5
2A3
330
299
100
AcDbEntity
  8
0
  6
Continuous
 62
     7
370
    25
100
AcDbSpline
210
0.0
220
0.0
230
1.0
 70
     8
 71
     3
 72
     8
 73
     4
 74
     0
 42
0.000000001
 43
0.00000001
 40
0.0
 40
0.0
 40
0.0
 40
0.0
 40
1.0
 40
1.0
 40
1.0
 40
1.0
 10
-127.499999999676
 20
-61.73183235167039
 30
0.0
 10
-127.308988064138
 20
-61.73482408636084
 30
0.0
 10
-127.1179417514304
 20
-61.73616775742343
 30
0.0
 10
-126.926903419581
 20
-61.7358712332115
 30
0.0
  0
LWPOLYLINE
  5
2A4
330
299
100
AcDbEntity
  8
0
  6
Continuous
 62
     7
370
    25
100
AcDbPolyline
 90
       10
 70
   128
 43
0.0
 10
-126.9269034196
 20
-61.7358712332
 10
-97.6150614259
 20
-61.7358712204
 10
-69.0040696375
 20
-61.7358712178
 10
-40.839552422
 20
-61.7358712178
 10
-12.9237933037
 20
-61.7358712178
 10
14.9131518066
 20
-61.7358712178
 10
42.3405429462
 20
-61.7358712178
 10
70.0167684108
 20
-61.7358712178
 10
98.1315639505
 20
-61.7358712205
 10
126.9269034196
 20
-61.7358712332
  0
SPLINE
  5
2A6
330
299
100
AcDbEntity
  8
0
  6
Continuous
 62
     7
370
    25
100
AcDbSpline
210
0.0
220
0.0
230
1.0
 70
     8
 71
     3
 72
    32
 73
    28
 74
     0
 42
0.000000001
 43
0.00000001
 40
0.0
 40
0.0
 40
0.0
 40
0.0
 40
0.0061389248736847
 40
0.0198699108114783
 40
0.041554353620477
 40
0.0718257394444574
 40
0.1085547487657345
 40
0.1436711383733493
 40
0.2120681786202267
 40
0.2861558567508188
 40
0.367711160278025
 40
0.5000969283620679
 40
0.5726995211646305
 40
0.6388552480708932
 40
0.6979073767640751
 40
0.7499028589935637
 40
0.7752074543087113
 40
0.7999787086992575
 40
0.824204798043541
 40
0.8479001519273046
 40
0.8710768490865636
 40
0.893743800019162
 40
0.9159061307573145
 40
0.937578986919317
 40
0.9587946298733218
 40
0.979586920494372
 40
1.0
 40
1.0
 40
1.0
 40
1.0
 10
-160.7202370249215
 20
-28.14718653117168
 30
0.0
 10
-160.7195187540607
 20
-28.254203110549
 30
0.0
 10
-160.7171939206026
 20
-28.6005845912366
 30
0.0
 10
-160.6978442829255
 20
-29.32468087352917
 30
0.0
 10
-160.6369785384736
 20
-30.46818546427671
 30
0.0
 10
-160.4916931368568
 20
-32.00769303725586
 30
0.0
 10
-160.2328202747132
 20
-33.76967152129911
 30
0.0
 10
-159.7449023447335
 20
-36.16584197594922
 30
0.0
 10
-158.8843691227494
 20
-39.14556463874803
 30
0.0
 10
-157.3925396505811
 20
-42.76335593219437
 30
0.0
 10
-154.929572567623
 20
-47.15021085457484
 30
0.0
 10
-151.7747160311521
 20
-51.07345177159031
 30
0.0
 10
-148.2609543645725
 20
-54.24525982836553
 30
0.0
 10
-145.4635097864331
 20
-56.2709478374099
 30
0.0
 10
-142.7949326491488
 20
-57.83378898420604
 30
0.0
 10
-140.6460536060391
 20
-58.85510999080081
 30
0.0
 10
-138.9960966080329
 20
-59.52138215681861
 30
0.0
 10
-137.7771704752136
 20
-59.95979940335696
 30
0.0
 10
-136.569296563771
 20
-60.34333056240798
 30
0.0
 10
-135.3747868279697
 20
-60.67429185164391
 30
0.0
 10
-134.1954834489641
 20
-60.95533953663563
 30
0.0
 10
-133.0331532346037
 20
-61.18912431628453
 30
0.0
 10
-131.8893327563432
 20
-61.3784501433841
 30
0.0
 10
-130.7648711649692
 20
-61.52611099944725
 30
0.0
 10
-129.6598620694865
 20
-61.63312984924634
 30
0.0
 10
-128.5738685437436
 20
-61.70500672821041
 30
0.0
 10
-127.8557532537654
 20
-61.72294550710119
 30
0.0
 10
-127.4999999996759
 20
-61.73183235167038
 30
0.0
  0
SPLINE
  5
2A7
330
299
100
AcDbEntity
  8
0
  6
Continuous
 62
     7
370
    25
100
AcDbSpline
210
0.0
220
0.0
230
1.0
 70
     8
 71
     3
 72
    44
 73
    40
 74
     0
 42
0.000000001
 43
0.00000001
 40
0.0
 40
0.0
 40
0.0
 40
0.0
 40
0.1250000000000001
 40
0.1250000000000001
 40
0.1875000000000008
 40
0.1875000000000008
 40
0.2187500000000004
 40
0.2187500000000004
 40
0.2500000000000001
 40
0.2500000000000001
 40
0.3749999999999993
 40
0.3749999999999993
 40
0.4062499999999989
 40
0.4062499999999989
 40
0.4374999999999984
 40
0.4374999999999984
 40
0.4999999999999981
 40
0.4999999999999981
 40
0.6249999999999981
 40
0.6249999999999981
 40
0.6562499999999986
 40
0.6562499999999986
 40
0.687499999999999
 40
0.687499999999999
 40
0.7499999999999997
 40
0.7499999999999997
 40
0.8125000000000002
 40
0.8125000000000002
 40
0.8437500000000003
 40
0.8437500000000003
 40
0.8750000000000003
 40
0.8750000000000003
 40
0.9375000000000002
 40
0.9375000000000002
 40
0.9687500000000003
 40
0.9687500000000003
 40
0.9843750000000002
 40
0.9843750000000002
 40
1.0
 40
1.0
 40
1.0
 40
1.0
 10
-127.6724683827542
 20
-71.69487961176429
 30
0.0
 10
-130.543106616231
 20
-71.64518654882832
 30
0.0
 10
-133.3601632045911
 20
-71.31142417521926
 30
0.0
 10
-137.5105756169362
 20
-70.41224503898995
 30
0.0
 10
-138.8812991638756
 20
-70.0449375967874
 30
0.0
 10
-140.9178036373688
 20
-69.39016630086273
 30
0.0
 10
-141.5944016279029
 20
-69.15421487762224
 30
0.0
 10
-142.9364422955788
 20
-68.64880779029643
 30
0.0
 10
-143.5985473465032
 20
-68.38065416556562
 30
0.0
 10
-146.8652263894706
 20
-66.96390106969031
 30
0.0
 10
-149.3390956835045
 20
-65.5887918848674
 30
0.0
 10
-152.2592384727966
 20
-63.57149551246866
 30
0.0
 10
-152.8346005131952
 20
-63.15301726454424
 30
0.0
 10
-153.967579344697
 20
-62.28530845911432
 30
0.0
 10
-154.5265037226337
 20
-61.834842921389
 30
0.0
 10
-156.1660656158446
 20
-60.4451268169094
 30
0.0
 10
-157.2051170179641
 20
-59.47226512219921
 30
0.0
 10
-160.1639789325816
 20
-56.4176864304701
 30
0.0
 10
-161.9279959784572
 20
-54.20212264070599
 30
0.0
 10
-163.8668142135845
 20
-51.20396494048552
 30
0.0
 10
-164.2420966831957
 20
-50.59100920066973
 30
0.0
 10
-164.9592198450909
 20
-49.35193168581095
 30
0.0
 10
-165.301184222294
 20
-48.72590493874633
 30
0.0
 10
-166.278191797232
 20
-46.82871491316294
 30
0.0
 10
-166.8642243286485
 20
-45.53839294381864
 30
0.0
 10
-167.9086681340544
 20
-42.90786075839948
 30
0.0
 10
-168.3671858250517
 20
-41.56769214164722
 30
0.0
 10
-168.9575689561674
 20
-39.5193672970317
 30
0.0
 10
-169.1381077287796
 20
-38.83023789330093
 30
0.0
 10
-169.4661651452465
 20
-37.43907123362347
 30
0.0
 10
-169.6138955863675
 20
-36.73559296349575
 30
0.0
 10
-170.0036900881615
 20
-34.62278986648148
 30
0.0
 10
-170.1939397580301
 20
-33.20757907393133
 30
0.0
 10
-170.3741653834839
 20
-31.0746798989646
 30
0.0
 10
-170.4167140128535
 20
-30.36203284028389
 30
0.0
 10
-170.45393801547
 20
-29.29051161397057
 30
0.0
 10
-170.4619146242349
 20
-28.93291293471549
 30
0.0
 10
-170.4689847214495
 20
-28.21686375182405
 30
0.0
 10
-170.4675602102045
 20
-27.85836357591536
 30
0.0
 10
-170.4675602102045
 20
-27.49999999991419
 30
0.0
  0
SPLINE
  5
2AA
330
299
100
AcDbEntity
  8
0
  6
Continuous
 62
     7
370
    25
100
AcDbSpline
210
0.0
220
0.0
230
1.0
 70
     8
 71
     3
 72
    35
 73
    31
 74
     0
 42
0.000000001
 43
0.00000001
 40
0.0
 40
0.0
 40
0.0
 40
0.0
 40
0.0156249999999999
 40
0.0156249999999999
 40
0.0312499999999999
 40
0.0312499999999999
 40
0.0624999999999997
 40
0.1249999999999994
 40
0.1249999999999994
 40
0.1874999999999991
 40
0.1874999999999991
 40
0.2499999999999988
 40
0.2499999999999988
 40
0.3749999999999982
 40
0.3749999999999982
 40
0.4374999999999981
 40
0.4374999999999981
 40
0.4999999999999981
 40
0.4999999999999981
 40
0.6249999999999983
 40
0.6249999999999983
 40
0.6874999999999987
 40
0.6874999999999987
 40
0.7499999999999989
 40
0.7499999999999989
 40
0.8124999999999992
 40
0.8124999999999992
 40
0.8749999999999996
 40
0.8749999999999996
 40
1.0
 40
1.0
 40
1.0
 40
1.0
 10
170.467560210204
 20
-27.4999999998678
 30
0.0
 10
170.4675602102045
 20
-27.85808841948336
 30
0.0
 10
170.4689813500119
 20
-28.21640286457304
 30
0.0
 10
170.4619368778775
 20
-28.93145931427689
 30
0.0
 10
170.45398818643
 20
-29.28828353261684
 30
0.0
 10
170.416954791892
 20
-30.35665880757168
 30
0.0
 10
170.2901182862655
 20
-32.48501658700359
 30
0.0
 10
170.008251091786
 20
-34.58871747846919
 30
0.0
 10
169.498094090934
 20
-37.37228680970914
 30
0.0
 10
169.175489227773
 20
-38.75333173100592
 30
0.0
 10
168.3913325563774
 20
-41.49332272799013
 30
0.0
 10
167.926920387694
 20
-42.85805507241879
 30
0.0
 10
166.35282953579
 20
-46.83389094509454
 30
0.0
 10
165.0589377218581
 20
-49.35053008552644
 30
0.0
 10
162.7556744048466
 20
-52.92697851197432
 30
0.0
 10
161.9274637401396
 20
-54.08601448036873
 30
0.0
 10
160.1446716647596
 20
-56.33486974767973
 30
0.0
 10
159.2032757260056
 20
-57.40773298106473
 30
0.0
 10
156.2438186287696
 20
-60.46806389974603
 30
0.0
 10
154.0869806957277
 20
-62.30212009477655
 30
0.0
 10
150.5724072571812
 20
-64.74001454245695
 30
0.0
 10
149.3489864389334
 20
-65.50239633216083
 30
0.0
 10
146.8586860270877
 20
-66.88871347056336
 30
0.0
 10
145.5867727301876
 20
-67.5169283964955
 30
0.0
 10
142.9903836710528
 20
-68.64580952833708
 30
0.0
 10
141.6660322084343
 20
-69.14677736121305
 30
0.0
 10
138.9646221838323
 20
-70.02081333623563
 30
0.0
 10
137.5847823462175
 20
-70.39419926600735
 30
0.0
 10
133.3801048397025
 20
-71.31092598348489
 30
0.0
 10
130.5434952737498
 20
-71.64517982082538
 30
0.0
 10
127.6724683831716
 20
-71.69487961175709
 30
0.0
  0
SPLINE
  5
2AB
330
299
100
AcDbEntity
  8
0
  6
Continuous
 62
     7
370
    25
100
AcDbSpline
210
0.0
220
0.0
230
1.0
 70
     8
 71
     3
 72
    43
 73
    39
 74
     0
 42
0.000000001
 43
0.00000001
 40
0.0
 40
0.0
 40
0.0
 40
0.0
 40
0.0112056676465473
 40
0.0225198484303216
 40
0.0339504718548831
 40
0.0455054746166601
 40
0.0571913571717924
 40
0.0690134423341022
 40
0.0809772040846999
 40
0.0930882995950464
 40
0.1053513926629321
 40
0.1177674817744554
 40
0.1303371536980558
 40
0.1430614261296144
 40
0.1559417324170501
 40
0.1689797467357776
 40
0.1821773976317729
 40
0.1955370309831485
 40
0.2090614062369684
 40
0.2227524421211247
 40
0.2366060481047036
 40
0.2506166416922568
 40
0.3024909331723276
 40
0.3614741494464446
 40
0.4276187034687896
 40
0.5002705028572481
 40
0.5853716235355283
 40
0.6551209844257537
 40
0.709605548131927
 40
0.7499114002844777
 40
0.8154405076799296
 40
0.8751012383405717
 40
0.8945724161976906
 40
0.9146449724875103
 40
0.9352653342382593
 40
0.9563872840224018
 40
0.9779733505700485
 40
1.0
 40
1.0
 40
1.0
 40
1.0
 10
127.4999999999966
 20
-61.73183235166535
 30
0.0
 10
127.695337148813
 20
-61.72777505285701
 30
0.0
 10
128.0879030469738
 20
-61.71962116528127
 30
0.0
 10
128.6793260012714
 20
-61.69400808773833
 30
0.0
 10
129.2762929248658
 20
-61.6581919118773
 30
0.0
 10
129.8789686118011
 20
-61.61092666753487
 30
0.0
 10
130.4874791630662
 20
-61.55214084751736
 30
0.0
 10
131.1018861695295
 20
-61.48138900907377
 30
0.0
 10
131.7222272267722
 20
-61.39833500021635
 30
0.0
 10
132.3485172783472
 20
-61.30262655255193
 30
0.0
 10
132.9806844429026
 20
-61.19393290678585
 30
0.0
 10
133.6185256464734
 20
-61.07176443772184
 30
0.0
 10
134.2617563937772
 20
-60.935659055558
 30
0.0
 10
134.9100810685819
 20
-60.78516257109317
 30
0.0
 10
135.5632052878343
 20
-60.61983210066502
 30
0.0
 10
136.2208302335832
 20
-60.43922422921548
 30
0.0
 10
136.8826522709278
 20
-60.24289534536494
 30
0.0
 10
137.548369248185
 20
-60.03041320878211
 30
0.0
 10
138.2176624603785
 20
-59.80135768889339
 30
0.0
 10
138.8900926331847
 20
-59.55537292589966
 30
0.0
 10
139.5650549298924
 20
-59.29209370755095
 30
0.0
 10
140.848994160687
 20
-58.75921537844594
 30
0.0
 10
142.8166169731835
 20
-57.82214245042867
 30
0.0
 10
145.4816858353156
 20
-56.25896758832594
 30
0.0
 10
148.2779073820635
 20
-54.2317231079484
 30
0.0
 10
151.1788374788089
 20
-51.60889838811539
 30
0.0
 10
153.7818844261904
 20
-48.6011595690103
 30
0.0
 10
155.8257459761217
 20
-45.57002134601145
 30
0.0
 10
157.1959183078313
 20
-43.04643621108339
 30
0.0
 10
158.3458433073431
 20
-40.49775186306955
 30
0.0
 10
159.3158908406185
 20
-37.77523002710419
 30
0.0
 10
159.929004945649
 20
-35.32510437705918
 30
0.0
 10
160.2456738838839
 20
-33.62471322107222
 30
0.0
 10
160.4064592211672
 20
-32.58806574645836
 30
0.0
 10
160.5382326440892
 20
-31.51829544813054
 30
0.0
 10
160.636872056088
 20
-30.41850344952968
 30
0.0
 10
160.7029117257538
 20
-29.29152932659007
 30
0.0
 10
160.7144231617212
 20
-28.53119447253241
 30
0.0
 10
160.7202370249215
 20
-28.14718653117182
 30
0.0
  0
LWPOLYLINE
  5
2AC
330
299
100
AcDbEntity
  8
0
  6
Continuous
 62
     7
370
    25
100
AcDbPolyline
 90
        3
 70
   128
 43
0.0
 10
160.7202370249
 20
-28.1471865312
 10
160.7202370618
 20
-27.7845560002
 10
160.7202370249
 20
-27.4999999999
  0
SPLINE
  5
2AE
330
299
100
AcDbEntity
  8
0
  6
Continuous
 62
     7
370
    25
100
AcDbSpline
210
0.0
220
0.0
230
1.0
 70
     8
 71
     3
 72
    10
 73
     6
 74
     0
 42
0.000000001
 43
0.00000001
 40
0.0
 40
0.0
 40
0.0
 40
0.0
 40
0.5
 40
0.5
 40
1.0
 40
1.0
 40
1.0
 40
1.0
 10
-192.762029492653
 20
177.7551771664255
 30
0.0
 10
-193.3996521158929
 20
177.7551771664257
 30
0.0
 10
-194.0620660234426
 20
177.6285725987651
 30
0.0
 10
-195.2856480420972
 20
177.1221543281226
 30
0.0
 10
-195.8432955818325
 20
176.7437977253904
 30
0.0
 10
-196.2935466536115
 20
176.2935466536115
 30
0.0
  0
SPLINE
  5
2B0
330
299
100
AcDbEntity
  8
0
  6
Continuous
 62
     7
370
    25
100
AcDbSpline
210
0.0
220
0.0
230
1.0
 70
     8
 71
     3
 72
    30
 73
    26
 74
     0
 42
0.000000001
 43
0.00000001
 40
0.0
 40
0.0
 40
0.0
 40
0.0
 40
0.0412034049556782
 40
0.0826131950665219
 40
0.1242294347929873
 40
0.1660521876355892
 40
0.2080815161534354
 40
0.2503174819823489
 40
0.2927601458525461
 40
0.3354095676059063
 40
0.3782658062128341
 40
0.4213289197887259
 40
0.4645989656100691
 40
0.5080760001301552
 40
0.5517600789944263
 40
0.5956512570554978
 40
0.6397495883877966
 40
0.6840551263019169
 40
0.7285679233586007
 40
0.7732880313824341
 40
0.8182155014752358
 40
0.863350384029138
 40
0.9086927287393664
 40
0.9542425846167609
 40
1.0
 40
1.0
 40
1.0
 40
1.0
 10
-199.8194097734671
 20
179.8194097734671
 30
0.0
 10
-199.7425472632588
 20
179.8948508792172
 30
0.0
 10
-199.5884372435657
 20
180.046110970272
 30
0.0
 10
-199.3475125579598
 20
180.2639050401075
 30
0.0
 10
-199.0989137744258
 20
180.4753381958407
 30
0.0
 10
-198.842124446648
 20
180.6793860351209
 30
0.0
 10
-198.5775051470001
 20
180.8758879979876
 30
0.0
 10
-198.3051986195725
 20
181.0644529926353
 30
0.0
 10
-198.0254255098845
 20
181.2447555998575
 30
0.0
 10
-197.7384046856813
 20
181.4164569179661
 30
0.0
 10
-197.4443748637933
 20
181.5792267508951
 30
0.0
 10
-197.1435888598787
 20
181.7327384605067
 30
0.0
 10
-196.8363151944363
 20
181.87667121448
 30
0.0
 10
-196.5228376785701
 20
182.0107102590647
 30
0.0
 10
-196.203455508875
 20
182.1345477262429
 30
0.0
 10
-195.878483187441
 20
182.2478833662744
 30
0.0
 10
-195.5482504500335
 20
182.3504251072038
 30
0.0
 10
-195.2131021524614
 20
182.4418904490944
 30
0.0
 10
-194.8733981245616
 20
182.5220047262941
 30
0.0
 10
-194.5295129984711
 20
182.5905111867449
 30
0.0
 10
-194.1818359688889
 20
182.6471366883123
 30
0.0
 10
-193.8307706433236
 20
182.6917242126054
 30
0.0
 10
-193.4767343834759
 20
182.7237385065121
 30
0.0
 10
-193.120159384459
 20
182.744127405453
 30
0.0
 10
-192.8815868974211
 20
182.7469235765332
 30
0.0
 10
-192.7620294926527
 20
182.7483248401984
 30
0.0
  0
SPLINE
  5
2B1
330
299
100
AcDbEntity
  8
0
  6
Continuous
 62
     7
370
    25
100
AcDbSpline
210
0.0
220
0.0
230
1.0
 70
     8
 71
     3
 72
    10
 73
     6
 74
     0
 42
0.000000001
 43
0.00000001
 40
0.0
 40
0.0
 40
0.0
 40
0.0
 40
0.5
 40
0.5
 40
1.0
 40
1.0
 40
1.0
 40
1.0
 10
196.293546653611
 20
176.2935466536115
 30
0.0
 10
195.843295581832
 20
176.7437977253906
 30
0.0
 10
195.2856480420968
 20
177.1221543281228
 30
0.0
 10
194.0620660234424
 20
177.6285725987651
 30
0.0
 10
193.3996521158928
 20
177.7551771664256
 30
0.0
 10
192.762029492653
 20
177.7551771664255
 30
0.0
  0
SPLINE
  5
2B3
330
299
100
AcDbEntity
  8
0
  6
Continuous
 62
     7
370
    25
100
AcDbSpline
210
0.0
220
0.0
230
1.0
 70
     8
 71
     3
 72
    33
 73
    29
 74
     0
 42
0.000000001
 43
0.00000001
 40
0.0
 40
0.0
 40
0.0
 40
0.0
 40
0.0404883517816217
 40
0.0808142708051842
 40
0.1209777904973024
 40
0.1609789446943254
 40
0.2008177676489162
 40
0.2404942940367488
 40
0.2800085589633728
 40
0.3193605979712131
 40
0.3585504470466552
 40
0.3975781426273644
 40
0.4364437216096657
 40
0.4751472213561347
 40
0.5136886797033166
 40
0.5520681349696109
 40
0.5902856259633078
 40
0.6283411919908098
 40
0.6662348728650042
 40
0.7039667089138341
 40
0.7415367409890113
 40
0.7789450104749654
 40
0.8161915592979024
 40
0.8532764299351604
 40
0.8901996654246609
 40
0.9269613093746261
 40
0.9635614059734899
 40
1.0
 40
1.0
 40
1.0
 40
1.0
 10
192.762029492653
 20
182.7483248401986
 30
0.0
 10
192.8678195855391
 20
182.7472110374177
 30
0.0
 10
193.0789753584664
 20
182.7449879002536
 30
0.0
 10
193.3947452857234
 20
182.7289623575838
 30
0.0
 10
193.7086079365916
 20
182.7038038185358
 30
0.0
 10
194.0202613554122
 20
182.6687471086794
 30
0.0
 10
194.3294127832266
 20
182.6241874850741
 30
0.0
 10
194.6357777456979
 20
182.570221475257
 30
0.0
 10
194.9390805098921
 20
182.5070349681061
 30
0.0
 10
195.2390541539824
 20
182.4347993348278
 30
0.0
 10
195.5354407179528
 20
182.3536985725788
 30
0.0
 10
195.8279913110932
 20
182.2639215573524
 30
0.0
 10
196.116466209854
 20
182.1656635916029
 30
0.0
 10
196.4006349375636
 20
182.0591254804596
 30
0.0
 10
196.6802763289776
 20
181.9445132707408
 30
0.0
 10
196.9551785786975
 20
181.8220378181177
 30
0.0
 10
197.2251392768659
 20
181.6919144079228
 30
0.0
 10
197.4899654221352
 20
181.5543623605058
 30
0.0
 10
197.749473450958
 20
181.409604675914
 30
0.0
 10
198.0034891405914
 20
181.2578675710582
 30
0.0
 10
198.251847916788
 20
181.0993804413617
 30
0.0
 10
198.4943935995115
 20
180.934374279869
 30
0.0
 10
198.7309828812873
 20
180.763085848207
 30
0.0
 10
198.9614684927486
 20
180.5857405543394
 30
0.0
 10
199.1857613368528
 20
180.4026143163137
 30
0.0
 10
199.4035997798649
 20
180.2138026075945
 30
0.0
 10
199.6154046334169
 20
180.0200751894446
 30
0.0
 10
199.7515083772894
 20
179.8861995705581
 30
0.0
 10
199.8194097734672
 20
179.8194097734672
 30
0.0
  0
SPLINE
  5
2B6
330
299
100
AcDbEntity
  8
0
  6
Continuous
 62
     7
370
    25
100
AcDbSpline
210
0.0
220
0.0
230
1.0
 70
     8
 71
     3
 72
    10
 73
     6
 74
     0
 42
0.000000001
 43
0.00000001
 40
0.0
 40
0.0
 40
0.0
 40
0.0
 40
0.5
 40
0.5
 40
1.0
 40
1.0
 40
1.0
 40
1.0
 10
197.7551771664255
 20
172.7620294926525
 30
0.0
 10
197.7551771664255
 20
173.3996521158926
 30
0.0
 10
197.628572598765
 20
174.0620660234424
 30
0.0
 10
197.1221543281225
 20
175.285648042097
 30
0.0
 10
196.7437977253902
 20
175.8432955818324
 30
0.0
 10
196.293546653611
 20
176.2935466536115
 30
0.0
  0
SPLINE
  5
2B7
330
299
100
AcDbEntity
  8
0
  6
Continuous
 62
     7
370
    25
100
AcDbSpline
210
0.0
220
0.0
230
1.0
 70
     8
 71
     3
 72
    30
 73
    26
 74
     0
 42
0.000000001
 43
0.00000001
 40
0.0
 40
0.0
 40
0.0
 40
0.0
 40
0.0412034049556803
 40
0.0826131950665261
 40
0.1242294347929911
 40
0.1660521876355948
 40
0.2080815161534434
 40
0.2503174819823565
 40
0.2927601458525553
 40
0.3354095676059163
 40
0.3782658062128406
 40
0.4213289197887351
 40
0.4645989656100795
 40
0.5080760001301619
 40
0.5517600789944378
 40
0.5956512570555056
 40
0.6397495883878073
 40
0.6840551263019238
 40
0.728567923358607
 40
0.77328803138244
 40
0.8182155014752412
 40
0.8633503840291425
 40
0.9086927287393672
 40
0.9542425846167615
 40
1.0
 40
1.0
 40
1.0
 40
1.0
 10
199.8194097734672
 20
179.8194097734672
 30
0.0
 10
199.8948508792173
 20
179.7425472632589
 30
0.0
 10
200.0461109702723
 20
179.5884372435659
 30
0.0
 10
200.2639050401077
 20
179.34751255796
 30
0.0
 10
200.4753381958409
 20
179.098913774426
 30
0.0
 10
200.6793860351211
 20
178.8421244466481
 30
0.0
 10
200.8758879979878
 20
178.5775051470002
 30
0.0
 10
201.0644529926355
 20
178.3051986195726
 30
0.0
 10
201.2447555998577
 20
178.0254255098845
 30
0.0
 10
201.4164569179662
 20
177.7384046856813
 30
0.0
 10
201.5792267508953
 20
177.4443748637934
 30
0.0
 10
201.7327384605068
 20
177.1435888598787
 30
0.0
 10
201.8766712144802
 20
176.8363151944363
 30
0.0
 10
202.010710259065
 20
176.5228376785703
 30
0.0
 10
202.1345477262429
 20
176.203455508875
 30
0.0
 10
202.2478833662747
 20
175.8784831874411
 30
0.0
 10
202.3504251072039
 20
175.5482504500335
 30
0.0
 10
202.4418904490946
 20
175.2131021524615
 30
0.0
 10
202.5220047262942
 20
174.8733981245616
 30
0.0
 10
202.5905111867452
 20
174.5295129984713
 30
0.0
 10
202.6471366883124
 20
174.1818359688889
 30
0.0
 10
202.6917242126056
 20
173.8307706433237
 30
0.0
 10
202.7237385065124
 20
173.4767343834761
 30
0.0
 10
202.7441274054532
 20
173.120159384459
 30
0.0
 10
202.7469235765333
 20
172.8815868974211
 30
0.0
 10
202.7483248401986
 20
172.7620294926528
 30
0.0
  0
SPLINE
  5
2B8
330
299
100
AcDbEntity
  8
0
  6
Continuous
 62
     7
370
    25
100
AcDbSpline
210
0.0
220
0.0
230
1.0
 70
     8
 71
     3
 72
    10
 73
     6
 74
     0
 42
0.000000001
 43
0.00000001
 40
0.0
 40
0.0
 40
0.0
 40
0.0
 40
0.5
 40
0.5
 40
1.0
 40
1.0
 40
1.0
 40
1.0
 10
-196.2935466536115
 20
176.2935466536115
 30
0.0
 10
-196.7437977253906
 20
175.8432955818325
 30
0.0
 10
-197.1221543281228
 20
175.2856480420971
 30
0.0
 10
-197.6285725987651
 20
174.0620660234423
 30
0.0
 10
-197.7551771664256
 20
173.3996521158924
 30
0.0
 10
-197.7551771664255
 20
172.7620294926525
 30
0.0
  0
SPLINE
  5
2BA
330
299
100
AcDbEntity
  8
0
  6
Continuous
 62
     7
370
    25
100
AcDbSpline
210
0.0
220
0.0
230
1.0
 70
     8
 71
     3
 72
    33
 73
    29
 74
     0
 42
0.000000001
 43
0.00000001
 40
0.0
 40
0.0
 40
0.0
 40
0.0
 40
0.0404883517816283
 40
0.0808142708051973
 40
0.120977790497322
 40
0.1609789446943518
 40
0.2008177676489421
 40
0.2404942940367811
 40
0.2800085589634096
 40
0.3193605979712485
 40
0.3585504470466979
 40
0.3975781426274065
 40
0.4364437216097118
 40
0.4751472213561803
 40
0.5136886797033648
 40
0.552068134969657
 40
0.5902856259633518
 40
0.6283411919908517
 40
0.6662348728650473
 40
0.7039667089138748
 40
0.7415367409890524
 40
0.7789450104749961
 40
0.8161915592979326
 40
0.8532764299351852
 40
0.8901996654246798
 40
0.9269613093746394
 40
0.9635614059734978
 40
1.0
 40
1.0
 40
1.0
 40
1.0
 10
-202.7483248401984
 20
172.7620294926527
 30
0.0
 10
-202.7472110374175
 20
172.8678195855388
 30
0.0
 10
-202.7449879002535
 20
173.0789753584662
 30
0.0
 10
-202.7289623575836
 20
173.3947452857233
 30
0.0
 10
-202.7038038185358
 20
173.7086079365916
 30
0.0
 10
-202.6687471086791
 20
174.0202613554121
 30
0.0
 10
-202.6241874850739
 20
174.3294127832266
 30
0.0
 10
-202.5702214752568
 20
174.6357777456979
 30
0.0
 10
-202.5070349681059
 20
174.9390805098922
 30
0.0
 10
-202.4347993348276
 20
175.2390541539824
 30
0.0
 10
-202.3536985725786
 20
175.5354407179529
 30
0.0
 10
-202.2639215573523
 20
175.8279913110933
 30
0.0
 10
-202.1656635916027
 20
176.1164662098542
 30
0.0
 10
-202.0591254804593
 20
176.4006349375637
 30
0.0
 10
-201.9445132707406
 20
176.6802763289778
 30
0.0
 10
-201.8220378181175
 20
176.9551785786978
 30
0.0
 10
-201.6919144079223
 20
177.2251392768659
 30
0.0
 10
-201.5543623605056
 20
177.4899654221354
 30
0.0
 10
-201.4096046759137
 20
177.7494734509581
 30
0.0
 10
-201.2578675710579
 20
178.0034891405916
 30
0.0
 10
-201.0993804413613
 20
178.251847916788
 30
0.0
 10
-200.9343742798687
 20
178.4943935995116
 30
0.0
 10
-200.7630858482066
 20
178.7309828812873
 30
0.0
 10
-200.5857405543391
 20
178.9614684927486
 30
0.0
 10
-200.4026143163134
 20
179.1857613368527
 30
0.0
 10
-200.2138026075942
 20
179.4035997798648
 30
0.0
 10
-200.0200751894444
 20
179.6154046334169
 30
0.0
 10
-199.8861995705579
 20
179.7515083772893
 30
0.0
 10
-199.8194097734671
 20
179.8194097734671
 30
0.0
  0
SPLINE
  5
2BB
330
299
100
AcDbEntity
  8
0
  6
Continuous
 62
     7
370
    25
100
AcDbSpline
210
0.0
220
0.0
230
1.0
 70
     8
 71
     3
 72
     8
 73
     4
 74
     0
 42
0.000000001
 43
0.00000001
 40
0.0
 40
0.0
 40
0.0
 40
0.0
 40
1.0
 40
1.0
 40
1.0
 40
1.0
 10
-160.717423723679
 20
102.4999999998616
 30
0.0
 10
-160.7204390090728
 20
102.2842904326288
 30
0.0
 10
-160.7213712878828
 20
102.0685417670255
 30
0.0
 10
-160.7202370249215
 20
101.8528134583874
 30
0.0
  0
LWPOLYLINE
  5
2BC
330
299
100
AcDbEntity
  8
0
  6
Continuous
 62
     7
370
    25
100
AcDbPolyline
 90
       10
 70
   128
 43
0.0
 10
-160.7202370249
 20
101.8528134584
 10
-160.7202369835
 20
86.5129597196
 10
-160.720236975
 20
71.8708619657
 10
-160.720236975
 20
57.6362842982
 10
-160.720236975
 20
43.6159375042
 10
-160.720236975
 20
29.6654174119
 10
-160.720236975
 20
15.8926207292
 10
-160.720236975
 20
1.9114461217
 10
-160.7202369835
 20
-12.4611208279
 10
-160.7202370249
 20
-27.4999999999
  0
LWPOLYLINE
  5
2BD
330
299
100
AcDbEntity
  8
0
  6
Continuous
 62
     7
370
    25
100
AcDbPolyline
 90
        5
 70
   128
 43
0.0
 10
-170.4675602102
 20
-27.4999999999
 10
-170.4675602102
 20
45.4053250365
 10
-170.4675602102
 20
64.4995768318
 10
-170.4675602102
 20
83.593828627
 10
-170.4595041438
 20
102.6880782724
  0
SPLINE
  5
2BF
330
299
100
AcDbEntity
  8
0
  6
Continuous
 62
     7
370
    25
100
AcDbSpline
210
0.0
220
0.0
230
1.0
 70
     8
 71
     3
 72
     8
 73
     4
 74
     0
 42
0.000000001
 43
0.00000001
 40
0.0
 40
0.0
 40
0.0
 40
0.0
 40
1.0
 40
1.0
 40
1.0
 40
1.0
 10
127.4999999946106
 20
135.6050146762546
 30
0.0
 10
127.3422019952704
 20
135.6065701808164
 30
0.0
 10
127.1843891056459
 20
135.6070093085288
 30
0.0
 10
127.0265847603092
 20
135.606339062591
 30
0.0
  0
LWPOLYLINE
  5
2C0
330
299
100
AcDbEntity
  8
0
  6
Continuous
 62
     7
370
    25
100
AcDbPolyline
 90
       10
 70
   128
 43
0.0
 10
127.0265847603
 20
135.6063390626
 10
97.6665904268
 20
135.606339046
 10
69.0270639217
 20
135.6063390426
 10
40.847853864
 20
135.6063390426
 10
12.9255909158
 20
135.6063390426
 10
-14.9152616397
 20
135.6063390426
 10
-42.3493741093
 20
135.6063390426
 10
-70.0405092786
 20
135.6063390426
 10
-98.1837635584
 20
135.6063390461
 10
-127.0265847603
 20
135.6063390626
  0
SPLINE
  5
2C1
330
299
100
AcDbEntity
  8
0
  6
Continuous
 62
     7
370
    25
100
AcDbSpline
210
0.0
220
0.0
230
1.0
 70
     8
 71
     3
 72
    10
 73
     6
 74
     0
 42
0.000000001
 43
0.00000001
 40
0.0
 40
0.0
 40
0.0
 40
0.0
 40
0.5
 40
0.5
 40
1.0
 40
1.0
 40
1.0
 40
1.0
 10
-127.0265847603094
 20
135.606339062591
 30
0.0
 10
-127.1054983251682
 20
135.6066742345566
 30
0.0
 10
-127.1843912425402
 20
135.6067320364014
 30
0.0
 10
-127.3421982758038
 20
135.6062911222296
 30
0.0
 10
-127.4211009994294
 20
135.605792428504
 30
0.0
 10
-127.499999999997
 20
135.6050146762016
 30
0.0
  0
SPLINE
  5
2C3
330
299
100
AcDbEntity
  8
0
  6
Continuous
 62
     7
370
    25
100
AcDbSpline
210
0.0
220
0.0
230
1.0
 70
     8
 71
     3
 72
    25
 73
    21
 74
     0
 42
0.000000001
 43
0.00000001
 40
0.0
 40
0.0
 40
0.0
 40
0.0
 40
0.0039062500000002
 40
0.0039062500000002
 40
0.0078125000000004
 40
0.0156250000000003
 40
0.0312500000000002
 40
0.0625000000000001
 40
0.125
 40
0.25
 40
0.5000000000000001
 40
0.7500000000000001
 40
0.8750000000000001
 40
0.9375000000000001
 40
0.96875
 40
0.9843749999999999
 40
0.9921875
 40
0.99609375
 40
0.99609375
 40
1.0
 40
1.0
 40
1.0
 40
1.0
 10
-127.637048330632
 20
145.3034535047406
 30
0.0
 10
-127.3046604448304
 20
145.3081504673834
 30
0.0
 10
-126.9722722761977
 20
145.3077640640443
 30
0.0
 10
-126.3074959819305
 20
145.307764064044
 30
0.0
 10
-125.3103315405298
 20
145.307764064044
 30
0.0
 10
-122.983614510594
 20
145.3077640640441
 30
0.0
 10
-118.3301804507226
 20
145.307764064044
 30
0.0
 10
-109.0233123309802
 20
145.3077640640442
 30
0.0
 10
-90.40957609149497
 20
145.307764064044
 30
0.0
 10
-53.18210361252467
 20
145.307764064044
 30
0.0
 10
-0.0000000711383267
 20
145.3077640640439
 30
0.0
 10
53.18210347024777
 20
145.3077640640441
 30
0.0
 10
90.40957594921811
 20
145.3077640640439
 30
0.0
 10
109.0233121887034
 20
145.3077640640441
 30
0.0
 10
118.3301803084461
 20
145.3077640640442
 30
0.0
 10
122.9836143683177
 20
145.3077640640442
 30
0.0
 10
125.310331398253
 20
145.3077640640442
 30
0.0
 10
126.3074958396538
 20
145.3077640640442
 30
0.0
 10
126.972272133921
 20
145.3077640640442
 30
0.0
 10
127.304660290423
 20
145.308150469512
 30
0.0
 10
127.6370483236836
 20
145.3034535048386
 30
0.0
  0
SPLINE
  5
2C5
330
299
100
AcDbEntity
  8
0
  6
Continuous
 62
     7
370
    25
100
AcDbSpline
210
0.0
220
0.0
230
1.0
 70
     8
 71
     3
 72
    37
 73
    33
 74
     0
 42
0.000000001
 43
0.00000001
 40
0.0
 40
0.0
 40
0.0
 40
0.0
 40
0.0108964901629112
 40
0.02153671717547
 40
0.0319133767518148
 40
0.0420184495257458
 40
0.0518429864330251
 40
0.0613766236573335
 40
0.0706086211260839
 40
0.0795281394708088
 40
0.0881242800862105
 40
0.0963861308428294
 40
0.1043024636838947
 40
0.111861317076776
 40
0.1190511456561241
 40
0.125861022241251
 40
0.1882208224258359
 40
0.2507033423948321
 40
0.3741535749103705
 40
0.5002309062044313
 40
0.623185729489463
 40
0.7498548247342327
 40
0.8114305383948576
 40
0.8750662567505708
 40
0.8836045981987262
 40
0.8943695881673851
 40
0.9072728653250384
 40
0.9222097294691407
 40
0.9390682402344125
 40
0.957730957068527
 40
0.9780781814946788
 40
1.0
 40
1.0
 40
1.0
 40
1.0
 10
-127.4999999999968
 20
135.6050146762016
 30
0.0
 10
-127.6884045191354
 20
135.6022361921108
 30
0.0
 10
-128.0607826686685
 20
135.5967445681893
 30
0.0
 10
-128.6123068514551
 20
135.5768232090965
 30
0.0
 10
-129.1497788781818
 20
135.5492230006962
 30
0.0
 10
-129.6726665168877
 20
135.5138361736928
 30
0.0
 10
-130.1804191964484
 20
135.4716264402053
 30
0.0
 10
-130.6724568722097
 20
135.423268030507
 30
0.0
 10
-131.1481902650819
 20
135.3695299214539
 30
0.0
 10
-131.6070430009346
 20
135.3111794765729
 30
0.0
 10
-132.0484570695416
 20
135.2489980621301
 30
0.0
 10
-132.4718877902554
 20
135.1837720394356
 30
0.0
 10
-132.8767906452676
 20
135.1162846182064
 30
0.0
 10
-133.2626173370692
 20
135.0472734697452
 30
0.0
 10
-133.6288469842477
 20
134.9774788552838
 30
0.0
 10
-134.9232315976652
 20
134.716315220981
 30
0.0
 10
-137.1318350552573
 20
134.1462215554693
 30
0.0
 10
-141.1719857802053
 20
132.6765069057676
 30
0.0
 10
-145.9577976193833
 20
130.1074066918974
 30
0.0
 10
-150.9725651903741
 20
125.9989331844232
 30
0.0
 10
-155.1384265202591
 20
120.9628803162411
 30
0.0
 10
-157.7248423614814
 20
116.2000445924028
 30
0.0
 10
-159.2286257199472
 20
112.1069664002827
 30
0.0
 10
-159.8146934721294
 20
109.8649972953372
 30
0.0
 10
-160.0995754844947
 20
108.4594791004717
 30
0.0
 10
-160.2021033667737
 20
107.9120824157442
 30
0.0
 10
-160.3131276355161
 20
107.2538232301082
 30
0.0
 10
-160.4255006059398
 20
106.4891015481154
 30
0.0
 10
-160.5314060511183
 20
105.6229979179517
 30
0.0
 10
-160.621740340084
 20
104.6611519555622
 30
0.0
 10
-160.6910459103925
 20
103.6096422675976
 30
0.0
 10
-160.7084154377253
 20
102.8789538860487
 30
0.0
 10
-160.717423723679
 20
102.4999999998623
 30
0.0
  0
SPLINE
  5
2C6
330
299
100
AcDbEntity
  8
0
  6
Continuous
 62
     7
370
    25
100
AcDbSpline
210
0.0
220
0.0
230
1.0
 70
     8
 71
     3
 72
    30
 73
    26
 74
     0
 42
0.000000001
 43
0.00000001
 40
0.0
 40
0.0
 40
0.0
 40
0.0
 40
0.1250000000000017
 40
0.1250000000000017
 40
0.1875000000000024
 40
0.1875000000000024
 40
0.2500000000000031
 40
0.2500000000000031
 40
0.3750000000000039
 40
0.3750000000000039
 40
0.4375000000000039
 40
0.4375000000000039
 40
0.500000000000004
 40
0.500000000000004
 40
0.6250000000000022
 40
0.6250000000000022
 40
0.6875000000000014
 40
0.6875000000000014
 40
0.7500000000000007
 40
0.7500000000000007
 40
0.8749999999999996
 40
0.8749999999999996
 40
0.9374999999999998
 40
0.9374999999999998
 40
1.0
 40
1.0
 40
1.0
 40
1.0
 10
-170.4595041438485
 20
102.6880782724424
 30
0.0
 10
-170.4053043810446
 20
105.4955181789598
 30
0.0
 10
-170.080022948841
 20
108.2513289756181
 30
0.0
 10
-169.2101595517395
 20
112.3123021971055
 30
0.0
 10
-168.8555660915818
 20
113.6536490581779
 30
0.0
 10
-168.0139908051071
 20
116.3111286317018
 30
0.0
 10
-167.5242854361641
 20
117.6328282999787
 30
0.0
 10
-165.8841075870947
 20
121.480963261643
 30
0.0
 10
-164.5586696636028
 20
123.9118780959307
 30
0.0
 10
-162.2277880589623
 20
127.3595341574111
 30
0.0
 10
-161.3936035167559
 20
128.4755736308587
 30
0.0
 10
-159.6052648586948
 20
130.6380926795743
 30
0.0
 10
-158.6641322795108
 20
131.6696045593947
 30
0.0
 10
-155.7138069442003
 20
134.6080914420568
 30
0.0
 10
-153.5746161823324
 20
136.3655078728215
 30
0.0
 10
-150.1049529488403
 20
138.6964435761567
 30
0.0
 10
-148.8984543059735
 20
139.4251049084023
 30
0.0
 10
-146.4432803909727
 20
140.7502230652499
 30
0.0
 10
-145.1912280809307
 20
141.3497134178112
 30
0.0
 10
-141.3633445965173
 20
142.9632820760049
 30
0.0
 10
-138.7168998031584
 20
143.7953269950144
 30
0.0
 10
-134.5993216581973
 20
144.662097784726
 30
0.0
 10
-133.2155975325232
 20
144.884558045052
 30
0.0
 10
-130.4373387127405
 20
145.1952752123252
 30
0.0
 10
-129.0409192511
 20
145.2836154494121
 30
0.0
 10
-127.637048330632
 20
145.3034535047406
 30
0.0
  0
SPLINE
  5
2C7
330
299
100
AcDbEntity
  8
0
  6
Continuous
 62
     7
370
    25
100
AcDbSpline
210
0.0
220
0.0
230
1.0
 70
     8
 71
     3
 72
    38
 73
    34
 74
     0
 42
0.000000001
 43
0.00000001
 40
0.0
 40
0.0
 40
0.0
 40
0.0
 40
0.0111944336881092
 40
0.0220099131061579
 40
0.0324339915806929
 40
0.0424534963238248
 40
0.0520541788962974
 40
0.0612208890640451
 40
0.0699385304478096
 40
0.0781922089912087
 40
0.0859673251091254
 40
0.0932496713517317
 40
0.1000253756042863
 40
0.1062806428728408
 40
0.1120026020712695
 40
0.1171795313453948
 40
0.1218008555328528
 40
0.1258571498179363
 40
0.1892366223000232
 40
0.2507076012730068
 40
0.3773023088365755
 40
0.5002381109239271
 40
0.6263416155771211
 40
0.7498601128972409
 40
0.8124857660944979
 40
0.8750697978392985
 40
0.888933573782649
 40
0.9042722826879421
 40
0.9209943542870505
 40
0.939011525515264
 40
0.9582375334165736
 40
0.9785898017691925
 40
1.0
 40
1.0
 40
1.0
 40
1.0
 10
160.717423723677
 20
102.5
 30
0.0
 10
160.7137487856697
 20
102.6935190503043
 30
0.0
 10
160.7065233137555
 20
103.0740061388212
 30
0.0
 10
160.6836525254251
 20
103.6343612042955
 30
0.0
 10
160.6533485855116
 20
104.173998514577
 30
0.0
 10
160.6158321872099
 20
104.6921342587686
 30
0.0
 10
160.5723973772174
 20
105.1879855380854
 30
0.0
 10
160.5240488969291
 20
105.6607615663316
 30
0.0
 10
160.4718717261641
 20
106.1096912298157
 30
0.0
 10
160.4169261547226
 20
106.5340394380287
 30
0.0
 10
160.3602605401801
 20
106.9331102113062
 30
0.0
 10
160.3028959166595
 20
107.3062452394085
 30
0.0
 10
160.2458207376706
 20
107.6528167120848
 30
0.0
 10
160.1899563168471
 20
107.9722278216811
 30
0.0
 10
160.1361831866264
 20
108.2639286470329
 30
0.0
 10
160.085330469519
 20
108.527429564861
 30
0.0
 10
160.0381661779243
 20
108.7623050058906
 30
0.0
 10
159.7847086749682
 20
109.9821914036814
 30
0.0
 10
159.2172098473426
 20
112.1422995438269
 30
0.0
 10
157.7122020517036
 20
116.2268541045391
 30
0.0
 10
155.12359926379
 20
120.9845365599081
 30
0.0
 10
150.9547952349113
 20
126.0166109532399
 30
0.0
 10
145.9359510446394
 20
130.1222135966487
 30
0.0
 10
141.1443845908384
 20
132.6893666523469
 30
0.0
 10
137.0956617499009
 20
134.1577523699182
 30
0.0
 10
134.7618462501429
 20
134.7570093757851
 30
0.0
 10
133.2037858594748
 20
135.0602280863431
 30
0.0
 10
132.4209627598889
 20
135.1944611426507
 30
0.0
 10
131.5640325596328
 20
135.3199134071703
 30
0.0
 10
130.6372878286473
 20
135.4305436110618
 30
0.0
 10
129.645199698667
 20
135.5194494051786
 30
0.0
 10
128.5922692378438
 20
135.5837664196572
 30
0.0
 10
127.8701870223038
 20
135.597813311754
 30
0.0
 10
127.4999999946106
 20
135.6050146762547
 30
0.0
  0
SPLINE
  5
2C8
330
299
100
AcDbEntity
  8
0
  6
Continuous
 62
     7
370
    25
100
AcDbSpline
210
0.0
220
0.0
230
1.0
 70
     8
 71
     3
 72
    30
 73
    26
 74
     0
 42
0.000000001
 43
0.00000001
 40
0.0
 40
0.0
 40
0.0
 40
0.0
 40
0.124999999999999
 40
0.124999999999999
 40
0.1874999999999984
 40
0.1874999999999984
 40
0.2499999999999979
 40
0.2499999999999979
 40
0.3749999999999969
 40
0.3749999999999969
 40
0.4374999999999967
 40
0.4374999999999967
 40
0.4999999999999966
 40
0.4999999999999966
 40
0.6249999999999962
 40
0.6249999999999962
 40
0.6874999999999966
 40
0.6874999999999966
 40
0.7499999999999969
 40
0.7499999999999969
 40
0.8749999999999981
 40
0.8749999999999981
 40
0.9374999999999991
 40
0.9374999999999991
 40
1.0
 40
1.0
 40
1.0
 40
1.0
 10
127.6370483236836
 20
145.3034535048386
 30
0.0
 10
130.4447659193812
 20
145.2637777372435
 30
0.0
 10
133.2021372672519
 20
144.9522202843298
 30
0.0
 10
137.2673655337582
 20
144.1023920188102
 30
0.0
 10
138.6104484920806
 20
143.7543501795823
 30
0.0
 10
141.272055761885
 20
142.9256439804843
 30
0.0
 10
142.5961125025992
 20
142.442339082125
 30
0.0
 10
146.4519812373802
 20
140.8208054207932
 30
0.0
 10
148.8891890882778
 20
139.5069735386484
 30
0.0
 10
152.3480779156161
 20
137.1924821979271
 30
0.0
 10
153.4681290991645
 20
136.3635351841387
 30
0.0
 10
155.6392957788784
 20
134.585308834797
 30
0.0
 10
156.675020638369
 20
133.6493354617099
 30
0.0
 10
159.6272814163744
 20
130.7130730900405
 30
0.0
 10
161.3948850240442
 20
128.5822445621747
 30
0.0
 10
163.7425161154355
 20
125.1234989728135
 30
0.0
 10
164.4769101979894
 20
123.9204530599061
 30
0.0
 10
165.8136311537125
 20
121.4718536801399
 30
0.0
 10
166.4190977860461
 20
120.2227584973676
 30
0.0
 10
168.0510970331254
 20
116.4027741823325
 30
0.0
 10
168.8959802686471
 20
113.7602709540776
 30
0.0
 10
169.7830974798456
 20
109.6466217014129
 30
0.0
 10
170.0123285419506
 20
108.2642876292297
 30
0.0
 10
170.3369672537694
 20
105.4877226266128
 30
0.0
 10
170.4324041823155
 20
104.0918023760322
 30
0.0
 10
170.459504143845
 20
102.6880782726212
 30
0.0
  0
SPLINE
  5
2CA
330
299
100
AcDbEntity
  8
0
  6
Continuous
 62
     7
370
    25
100
AcDbSpline
210
0.0
220
0.0
230
1.0
 70
     8
 71
     3
 72
    15
 73
    11
 74
     0
 42
0.000000001
 43
0.00000001
 40
0.0
 40
0.0
 40
0.0
 40
0.0
 40
0.015625
 40
0.015625
 40
0.03125
 40
0.0625
 40
0.1249999999999999
 40
0.2499999999999999
 40
0.5
 40
1.0
 40
1.0
 40
1.0
 40
1.0
 10
170.459504143845
 20
102.6880782726212
 30
0.0
 10
170.4725946118035
 20
102.0100180702756
 30
0.0
 10
170.4675602102042
 20
101.3319541101341
 30
0.0
 10
170.467560210204
 20
99.97582827739699
 30
0.0
 10
170.467560210204
 20
97.94163952829192
 30
0.0
 10
170.467560210204
 20
93.1951991137127
 30
0.0
 10
170.4675602102046
 20
83.70231828455482
 30
0.0
 10
170.4675602102045
 20
64.71655662623868
 30
0.0
 10
170.4675602102041
 20
26.74503330960664
 30
0.0
 10
170.467560210204
 20
-5.801986676078029
 30
0.0
 10
170.467560210204
 20
-27.49999999986781
 30
0.0
  0
SPLINE
  5
2CC
330
299
100
AcDbEntity
  8
0
  6
Continuous
 62
     7
370
    25
100
AcDbSpline
210
0.0
220
0.0
230
1.0
 70
     8
 71
     3
 72
    11
 73
     7
 74
     0
 42
0.000000001
 43
0.00000001
 40
0.0
 40
0.0
 40
0.0
 40
0.0
 40
0.2499999999999839
 40
0.2499999999999839
 40
0.4999999999999678
 40
1.0
 40
1.0
 40
1.0
 40
1.0
 10
160.7202370249215
 20
101.8528134583874
 30
0.0
 10
160.7205206651838
 20
101.9067597324237
 30
0.0
 10
160.7206750680591
 20
101.9606788839616
 30
0.0
 10
160.7207250672009
 20
102.0685462692962
 30
0.0
 10
160.7204117734696
 20
102.2303483779343
 30
0.0
 10
160.7189313663747
 20
102.3921452163608
 30
0.0
 10
160.717423723677
 20
102.5
 30
0.0
  0
SPLINE
  5
2DE
330
299
100
AcDbEntity
  8
0
  6
Continuous
 62
     7
370
    25
100
AcDbSpline
210
0.0
220
0.0
230
1.0
 70
     8
 71
     3
 72
    30
 73
    26
 74
     0
 42
0.000000001
 43
0.00000001
 40
0.0
 40
0.0
 40
0.0
 40
0.0
 40
0.0411920285229679
 40
0.0825905321787871
 40
0.124195720365766
 40
0.1660077993715776
 40
0.2080269724314213
 40
0.2502534397849234
 40
0.2926873987317747
 40
0.3353290436861581
 40
0.3781785662300077
 40
0.4212361551650728
 40
0.4645019965638967
 40
0.5079762738196572
 40
0.55165916769496
 40
0.5955508563695674
 40
0.6396515154870926
 40
0.6839613182007359
 40
0.72848043521798
 40
0.7732090348444217
 40
0.818147283026576
 40
0.8632953433938517
 40
0.9086533772996014
 40
0.9542215438613221
 40
1.0
 40
1.0
 40
1.0
 40
1.0
 10
-200.3589820441531
 20
180.3589820441532
 30
0.0
 10
-200.4344215388232
 20
180.282117832379
 30
0.0
 10
-200.5856786687953
 20
180.1280041268015
 30
0.0
 10
-200.8034464195323
 20
179.8870523273307
 30
0.0
 10
-201.0148373699982
 20
179.6384105640785
 30
0.0
 10
-201.2188255281696
 20
179.381560803858
 30
0.0
 10
-201.4152507650657
 20
179.1168640518811
 30
0.0
 10
-201.6037218713991
 20
178.8444629367982
 30
0.0
 10
-201.7839134597608
 20
178.5645781378407
 30
0.0
 10
-201.9554866196638
 20
178.2774285158242
 30
0.0
 10
-202.1181111574164
 20
177.9832527917494
 30
0.0
 10
-202.27146043429
 20
177.6823037824099
 30
0.0
 10
-202.4152136182754
 20
177.3748500102691
 30
0.0
 10
-202.5490559557795
 20
177.0611752881607
 30
0.0
 10
-202.6726795790728
 20
176.7415788144685
 30
0.0
 10
-202.785784238775
 20
176.4163750930256
 30
0.0
 10
-202.8880778633012
 20
176.0858938613971
 30
0.0
 10
-202.979277953442
 20
175.7504799769255
 30
0.0
 10
-203.0591098431455
 20
175.4104932718946
 30
0.0
 10
-203.1273167850531
 20
175.0663083773577
 30
0.0
 10
-203.1836256208832
 20
174.7183145000874
 30
0.0
 10
-203.227879402745
 20
174.3669152100918
 30
0.0
 10
-203.259542591642
 20
174.0125280177176
 30
0.0
 10
-203.2795641979254
 20
173.6555845671029
 30
0.0
 10
-203.2821020371852
 20
173.4167638062136
 30
0.0
 10
-203.2833738780022
 20
173.2970785304565
 30
0.0
  0
SPLINE
  5
2DF
330
299
100
AcDbEntity
  8
0
  6
Continuous
 62
     7
370
    25
100
AcDbSpline
210
0.0
220
0.0
230
1.0
 70
     8
 71
     3
 72
    33
 73
    29
 74
     0
 42
0.000000001
 43
0.00000001
 40
0.0
 40
0.0
 40
0.0
 40
0.0
 40
0.0405071054937116
 40
0.0808496321441097
 40
0.1210276883608481
 40
0.1610413838929681
 40
0.2008908298501195
 40
0.2405761387241427
 40
0.280097424411038
 40
0.3194548022334278
 40
0.3586483889633545
 40
0.3976783028456023
 40
0.4365446636213963
 40
0.4752475925525822
 40
0.5137872124463053
 40
0.5521636476800937
 40
0.5903770242275009
 40
0.6284274696841895
 40
0.6663151132945643
 40
0.7040400859788798
 40
0.7416025203609269
 40
0.7790025507962174
 40
0.8162403134007598
 40
0.8533159460803609
 40
0.8902295885605415
 40
0.9269813824170284
 40
0.963571471106837
 40
1.0
 40
1.0
 40
1.0
 40
1.0
 10
-193.2970785304565
 20
183.2833738780023
 30
0.0
 10
-193.4029820662262
 20
183.2823747291504
 30
0.0
 10
-193.6143588556903
 20
183.2803804909508
 30
0.0
 10
-193.9304572183405
 20
183.2646824779294
 30
0.0
 10
-194.2446345919915
 20
183.2398388198569
 30
0.0
 10
-194.5565894529129
 20
183.2050834039497
 30
0.0
 10
-194.8660289260235
 20
183.1608117185797
 30
0.0
 10
-195.17266856681
 20
183.1071202337475
 30
0.0
 10
-195.4762326332731
 20
183.0441948519261
 30
0.0
 10
-195.77645420486
 20
182.9722069405218
 30
0.0
 10
-196.0730753200591
 20
182.8913404971803
 30
0.0
 10
-196.3658470873886
 20
182.8017843973858
 30
0.0
 10
-196.6545297823213
 20
182.7037339433675
 30
0.0
 10
-196.9388929272528
 20
182.5973899400055
 30
0.0
 10
-197.2187153559841
 20
182.482958433918
 30
0.0
 10
-197.4937852621595
 20
182.3606502806066
 30
0.0
 10
-197.763900234962
 20
182.2306807652733
 30
0.0
 10
-198.0288672720692
 20
182.0932692081598
 30
0.0
 10
-198.2885028090029
 20
181.9486386092862
 30
0.0
 10
-198.5426326219155
 20
181.7970151853971
 30
0.0
 10
-198.791092136091
 20
181.6386283324209
 30
0.0
 10
-199.0337251686919
 20
181.4737090416049
 30
0.0
 10
-199.2703884180104
 20
181.3024940813822
 30
0.0
 10
-199.5009345889756
 20
181.1252088350698
 30
0.0
 10
-199.7252746746576
 20
180.9421293119538
 30
0.0
 10
-199.9431467046447
 20
180.7533506498278
 30
0.0
 10
-200.1549727292661
 20
180.5596438502262
 30
0.0
 10
-200.291079321596
 20
180.4257705775745
 30
0.0
 10
-200.3589820441531
 20
180.3589820441532
 30
0.0
  0
SPLINE
  5
2E2
330
299
100
AcDbEntity
  8
0
  6
Continuous
 62
     7
370
    25
100
AcDbSpline
210
0.0
220
0.0
230
1.0
 70
     8
 71
     3
 72
    30
 73
    26
 74
     0
 42
0.000000001
 43
0.00000001
 40
0.0
 40
0.0
 40
0.0
 40
0.0
 40
0.0411920285229689
 40
0.0825905321787865
 40
0.1241957203657669
 40
0.1660077993715789
 40
0.2080269724314215
 40
0.2502534397849247
 40
0.292687398731777
 40
0.3353290436861596
 40
0.3781785662300103
 40
0.4212361551650732
 40
0.4645019965638997
 40
0.5079762738196585
 40
0.5516591676949625
 40
0.5955508563695722
 40
0.6396515154870975
 40
0.683961318200735
 40
0.7284804352179837
 40
0.773209034844423
 40
0.8181472830265785
 40
0.8632953433938514
 40
0.9086533772996026
 40
0.9542215438613211
 40
1.0
 40
1.0
 40
1.0
 40
1.0
 10
200.3589820441533
 20
180.3589820441533
 30
0.0
 10
200.2821178323791
 20
180.4344215388234
 30
0.0
 10
200.1280041268015
 20
180.5856786687954
 30
0.0
 10
199.8870523273309
 20
180.8034464195326
 30
0.0
 10
199.6384105640785
 20
181.0148373699984
 30
0.0
 10
199.381560803858
 20
181.2188255281699
 30
0.0
 10
199.1168640518812
 20
181.4152507650658
 30
0.0
 10
198.8444629367983
 20
181.6037218713993
 30
0.0
 10
198.5645781378409
 20
181.7839134597611
 30
0.0
 10
198.2774285158243
 20
181.955486619664
 30
0.0
 10
197.9832527917495
 20
182.1181111574167
 30
0.0
 10
197.68230378241
 20
182.2714604342901
 30
0.0
 10
197.3748500102694
 20
182.4152136182757
 30
0.0
 10
197.0611752881608
 20
182.5490559557796
 30
0.0
 10
196.7415788144686
 20
182.6726795790729
 30
0.0
 10
196.4163750930256
 20
182.7857842387751
 30
0.0
 10
196.0858938613972
 20
182.8880778633013
 30
0.0
 10
195.7504799769256
 20
182.9792779534421
 30
0.0
 10
195.4104932718948
 20
183.0591098431457
 30
0.0
 10
195.0663083773579
 20
183.1273167850534
 30
0.0
 10
194.7183145000876
 20
183.1836256208832
 30
0.0
 10
194.366915210092
 20
183.2278794027451
 30
0.0
 10
194.0125280177178
 20
183.2595425916421
 30
0.0
 10
193.6555845671031
 20
183.2795641979256
 30
0.0
 10
193.4167638062139
 20
183.2821020371854
 30
0.0
 10
193.2970785304568
 20
183.2833738780024
 30
0.0
  0
SPLINE
  5
2E3
330
299
100
AcDbEntity
  8
0
  6
Continuous
 62
     7
370
    25
100
AcDbSpline
210
0.0
220
0.0
230
1.0
 70
     8
 71
     3
 72
    33
 73
    29
 74
     0
 42
0.000000001
 43
0.00000001
 40
0.0
 40
0.0
 40
0.0
 40
0.0
 40
0.0405071054937107
 40
0.0808496321441114
 40
0.1210276883608488
 40
0.1610413838929676
 40
0.2008908298501185
 40
0.2405761387241408
 40
0.2800974244110387
 40
0.3194548022334267
 40
0.3586483889633604
 40
0.3976783028456072
 40
0.4365446636213937
 40
0.4752475925525819
 40
0.5137872124463042
 40
0.5521636476800919
 40
0.5903770242275014
 40
0.6284274696841937
 40
0.6663151132945645
 40
0.7040400859788792
 40
0.7416025203609254
 40
0.779002550796215
 40
0.8162403134007595
 40
0.8533159460803591
 40
0.8902295885605417
 40
0.9269813824170278
 40
0.9635714711068379
 40
1.0
 40
1.0
 40
1.0
 40
1.0
 10
203.2833738780024
 20
173.2970785304566
 30
0.0
 10
203.2823747291505
 20
173.4029820662263
 30
0.0
 10
203.2803804909509
 20
173.6143588556904
 30
0.0
 10
203.2646824779296
 20
173.9304572183406
 30
0.0
 10
203.2398388198571
 20
174.2446345919917
 30
0.0
 10
203.2050834039499
 20
174.556589452913
 30
0.0
 10
203.1608117185798
 20
174.8660289260236
 30
0.0
 10
203.1071202337475
 20
175.1726685668102
 30
0.0
 10
203.0441948519264
 20
175.4762326332733
 30
0.0
 10
202.972206940522
 20
175.7764542048601
 30
0.0
 10
202.8913404971804
 20
176.0730753200592
 30
0.0
 10
202.801784397386
 20
176.3658470873888
 30
0.0
 10
202.7037339433677
 20
176.6545297823215
 30
0.0
 10
202.5973899400057
 20
176.938892927253
 30
0.0
 10
202.4829584339182
 20
177.2187153559843
 30
0.0
 10
202.3606502806067
 20
177.4937852621596
 30
0.0
 10
202.2306807652735
 20
177.7639002349622
 30
0.0
 10
202.09326920816
 20
178.0288672720693
 30
0.0
 10
201.9486386092864
 20
178.2885028090032
 30
0.0
 10
201.7970151853972
 20
178.5426326219157
 30
0.0
 10
201.638628332421
 20
178.7910921360912
 30
0.0
 10
201.473709041605
 20
179.0337251686921
 30
0.0
 10
201.3024940813823
 20
179.2703884180107
 30
0.0
 10
201.1252088350699
 20
179.5009345889759
 30
0.0
 10
200.9421293119539
 20
179.7252746746578
 30
0.0
 10
200.7533506498279
 20
179.943146704645
 30
0.0
 10
200.5596438502263
 20
180.1549727292663
 30
0.0
 10
200.4257705775745
 20
180.2910793215962
 30
0.0
 10
200.3589820441533
 20
180.3589820441533
 30
0.0
  0
SPLINE
  5
2EA
330
299
100
AcDbEntity
  8
0
  6
Continuous
 62
     7
370
    25
100
AcDbSpline
210
0.0
220
0.0
230
1.0
 70
     8
 71
     3
 72
    25
 73
    21
 74
     0
 42
0.000000001
 43
0.00000001
 40
0.0
 40
0.0
 40
0.0
 40
0.0
 40
0.0431910275260453
 40
0.0868350260906717
 40
0.1309321350764241
 40
0.1754824893871991
 40
0.2204862196251681
 40
0.2659434522589053
 40
0.3118543097834219
 40
0.3582189108724468
 40
0.4050373705234026
 40
0.452309800195565
 40
0.5000363079416728
 40
0.5519196210930781
 40
0.6103189585269437
 40
0.6752329193677815
 40
0.746659897104842
 40
0.8245980913874729
 40
0.9090455152906745
 40
1.0
 40
1.0
 40
1.0
 40
1.0
 10
-203.2833738780024
 20
-180.5
 30
0.0
 10
-203.2824869882362
 20
-180.5452280538767
 30
0.0
 10
-203.2807039073418
 20
-180.6361584962249
 30
0.0
 10
-203.2661888144476
 20
-180.7726319213608
 30
0.0
 10
-203.2427403967065
 20
-180.909223280481
 30
0.0
 10
-203.2093243534293
 20
-181.0452271978447
 30
0.0
 10
-203.1660470811057
 20
-181.1799067122513
 30
0.0
 10
-203.1127741712822
 20
-181.3124967506152
 30
0.0
 10
-203.0495114909502
 20
-181.4422079784077
 30
0.0
 10
-202.9763063640321
 20
-181.5682311947885
 30
0.0
 10
-202.8932792646938
 20
-181.6897421174502
 30
0.0
 10
-202.8006185890326
 20
-181.8059070106814
 30
0.0
 10
-202.6959504401392
 20
-181.9187315330884
 30
0.0
 10
-202.5741930495617
 20
-182.0309474257182
 30
0.0
 10
-202.4288944504402
 20
-182.1432641246021
 30
0.0
 10
-202.2560232156896
 20
-182.251908116743
 30
0.0
 10
-202.054052044246
 20
-182.3506191570999
 30
0.0
 10
-201.8225075869158
 20
-182.4312007032189
 30
0.0
 10
-201.5623844052649
 20
-182.4885344228702
 30
0.0
 10
-201.3786482152601
 20
-182.4960847733117
 30
0.0
 10
-201.2833719972499
 20
-182.5
 30
0.0
  0
SPLINE
  5
2EC
330
299
100
AcDbEntity
  8
0
  6
Continuous
 62
     7
370
    25
100
AcDbSpline
210
0.0
220
0.0
230
1.0
 70
     8
 71
     3
 72
    27
 73
    23
 74
     0
 42
0.000000001
 43
0.00000001
 40
0.0
 40
0.0
 40
0.0
 40
0.0
 40
0.0463201251548618
 40
0.0910109910121557
 40
0.134072528905386
 40
0.1755046733542361
 40
0.2153073621502485
 40
0.2534805364607458
 40
0.2900241409559015
 40
0.3249381239654509
 40
0.358222437673772
 40
0.389877038365117
 40
0.4199018867353795
 40
0.4482969482933812
 40
0.4750621938842136
 40
0.5001976003823336
 40
0.5873011718396799
 40
0.6728826212142412
 40
0.7569425558242453
 40
0.8394816254801243
 40
0.9205005254983933
 40
1.0
 40
1.0
 40
1.0
 40
1.0
 10
201.2833719972499
 20
-182.5
 30
0.0
 10
201.331859883536
 20
-182.4989843125659
 30
0.0
 10
201.4271301482045
 20
-182.4969886633828
 30
0.0
 10
201.5667450597645
 20
-182.481306483534
 30
0.0
 10
201.6999414414733
 20
-182.4576649224722
 30
0.0
 10
201.8262929452901
 20
-182.4262990116571
 30
0.0
 10
201.9455054447514
 20
-182.3885376827072
 30
0.0
 10
202.0574031052489
 20
-182.345385969599
 30
0.0
 10
202.1619148794424
 20
-182.2978720543184
 30
0.0
 10
202.2590609973441
 20
-182.246950837654
 30
0.0
 10
202.348939909945
 20
-182.1935218353669
 30
0.0
 10
202.4317156158084
 20
-182.1384207039079
 30
0.0
 10
202.5076062221075
 20
-182.0824186773481
 30
0.0
 10
202.5768713933609
 20
-182.0262238690665
 30
0.0
 10
202.6398071327681
 20
-181.9704759617533
 30
0.0
 10
202.7447192574762
 20
-181.8696295770608
 30
0.0
 10
202.8812835710683
 20
-181.712990274971
 30
0.0
 10
203.0292456298551
 20
-181.4877087523965
 30
0.0
 10
203.1440744446797
 20
-181.2490645172048
 30
0.0
 10
203.2246293243175
 20
-181.0020687938363
 30
0.0
 10
203.2742805027194
 20
-180.7514428533963
 30
0.0
 10
203.2803619413511
 20
-180.5832837007484
 30
0.0
 10
203.2833738780024
 20
-180.5
 30
0.0
  0
SPLINE
  5
2F2
330
299
100
AcDbEntity
  8
0
  6
Continuous
 62
     7
370
    25
100
AcDbSpline
210
0.0
220
0.0
230
1.0
 70
     8
 71
     3
 72
    27
 73
    23
 74
     0
 42
0.000000001
 43
0.00000001
 40
0.0
 40
0.0
 40
0.0
 40
0.0
 40
0.0166790886827714
 40
0.0320605382280744
 40
0.04629120427389
 40
0.0594957954409719
 40
0.0717792004341191
 40
0.1054077924429204
 40
0.1434931899172494
 40
0.1955935985152027
 40
0.2507903482981416
 40
0.3818861151978721
 40
0.5002184100532324
 40
0.6179962958434989
 40
0.749488304922802
 40
0.8010455558682765
 40
0.8497896652271614
 40
0.8890637327910279
 40
0.9247745453301173
 40
0.9477907094325817
 40
0.9727077185489823
 40
1.0
 40
1.0
 40
1.0
 40
1.0
 10
-136.7797629750785
 20
93.1471865319521
 30
0.0
 10
-136.7772071537082
 20
93.28864371017345
 30
0.0
 10
-136.7722943547956
 20
93.560552646942
 30
0.0
 10
-136.7523883110224
 20
93.95275743715074
 30
0.0
 10
-136.7258486489999
 20
94.31500057560791
 30
0.0
 10
-136.6935869424592
 20
94.65041443464432
 30
0.0
 10
-136.63553776248
 20
95.14859435729981
 30
0.0
 10
-136.5287891400819
 20
95.85361975656586
 30
0.0
 10
-136.3139144967127
 20
96.88261248903717
 30
0.0
 10
-135.9771619731036
 20
98.07105789777626
 30
0.0
 10
-135.2672144237367
 20
99.96752209871569
 30
0.0
 10
-134.0151585956453
 20
102.2526083095501
 30
0.0
 10
-132.0065956256163
 20
104.6596572683283
 30
0.0
 10
-129.5873116999132
 20
106.6588056423583
 30
0.0
 10
-127.3251619535507
 20
107.8868678852296
 30
0.0
 10
-125.4801619494826
 20
108.5755839254585
 30
0.0
 10
-124.3404695790009
 20
108.9044174796881
 30
0.0
 10
-123.3131635108519
 20
109.1261203059773
 30
0.0
 10
-122.4907375674553
 20
109.2543021487307
 30
0.0
 10
-121.7850050736462
 20
109.3324239315259
 30
0.0
 10
-121.1480513405314
 20
109.3797624818731
 30
0.0
 10
-120.7050126452902
 20
109.3888897039531
 30
0.0
 10
-120.4734152297191
 20
109.3936609374092
 30
0.0
  0
SPLINE
  5
2F5
330
299
100
AcDbEntity
  8
0
  6
Continuous
 62
     7
370
    25
100
AcDbSpline
210
0.0
220
0.0
230
1.0
 70
     8
 71
     3
 72
     8
 73
     4
 74
     0
 42
0.000000001
 43
0.00000001
 40
0.0
 40
0.0
 40
0.0
 40
0.0
 40
1.0
 40
1.0
 40
1.0
 40
1.0
 10
-136.7086607919637
 20
-38.55137012047027
 30
0.0
 10
-136.7589194965345
 20
-38.02654588010365
 30
0.0
 10
-136.786574461003
 20
-37.46867723244128
 30
0.0
 10
-136.7797629750785
 20
-36.85281345916779
 30
0.0
  0
SPLINE
  5
2F6
330
299
100
AcDbEntity
  8
0
  6
Continuous
 62
     7
370
    25
100
AcDbSpline
210
0.0
220
0.0
230
1.0
 70
     8
 71
     3
 72
    28
 73
    24
 74
     0
 42
0.000000001
 43
0.00000001
 40
0.0
 40
0.0
 40
0.0
 40
0.0
 40
0.0166298471634994
 40
0.0347408281727443
 40
0.0541761298763934
 40
0.0748317774017422
 40
0.0966711818087395
 40
0.119652134544049
 40
0.1437097645263373
 40
0.2222707947707883
 40
0.2863476501637309
 40
0.3545943977087456
 40
0.4291668159088259
 40
0.500862228083542
 40
0.5722270901468905
 40
0.6354744780309627
 40
0.7858605755547714
 40
0.82603326684731
 40
0.8643168741860825
 40
0.90081398032122
 40
0.9355957764314116
 40
0.9686802355773496
 40
1.0
 40
1.0
 40
1.0
 40
1.0
 10
-120.5730965704475
 20
-53.26412876678855
 30
0.0
 10
-120.7058703660579
 20
-53.26279798474196
 30
0.0
 10
-120.9832434275052
 20
-53.26001789482521
 30
0.0
 10
-121.4154581307349
 20
-53.24164390736624
 30
0.0
 10
-121.879039277649
 20
-53.20933134476588
 30
0.0
 10
-122.3709899809789
 20
-53.15944549645582
 30
0.0
 10
-122.8892058543607
 20
-53.09076892733155
 30
0.0
 10
-123.4317773791351
 20
-53.00120966295928
 30
0.0
 10
-124.4148140147256
 20
-52.80391798793133
 30
0.0
 10
-125.699034952825
 20
-52.44392866240836
 30
0.0
 10
-127.2661208486608
 20
-51.82528795359615
 30
0.0
 10
-128.738282938751
 20
-51.07327881260901
 30
0.0
 10
-130.1752639213491
 20
-50.13851640060789
 30
0.0
 10
-131.5213420009142
 20
-49.03799333261568
 30
0.0
 10
-132.6781763220289
 20
-47.86362937115705
 30
0.0
 10
-134.1043339652483
 20
-46.09106657638004
 30
0.0
 10
-135.1174977008325
 20
-44.31423138989903
 30
0.0
 10
-135.793197182584
 20
-42.6182199713777
 30
0.0
 10
-136.0838529426404
 20
-41.74798817509442
 30
0.0
 10
-136.3155006273619
 20
-40.9048525561284
 30
0.0
 10
-136.4930871126994
 20
-40.09118740673854
 30
0.0
 10
-136.625474172975
 20
-39.31062717988313
 30
0.0
 10
-136.681443107405
 20
-38.79979011148884
 30
0.0
 10
-136.7086607919637
 20
-38.55137012047027
 30
0.0
  0
SPLINE
  5
2F8
330
299
100
AcDbEntity
  8
0
  6
Continuous
 62
     7
370
    25
100
AcDbSpline
210
0.0
220
0.0
230
1.0
 70
     8
 71
     3
 72
    15
 73
    11
 74
     0
 42
0.000000001
 43
0.00000001
 40
0.0
 40
0.0
 40
0.0
 40
0.0
 40
0.0828408473543546
 40
0.2238429149950433
 40
0.3651345242164929
 40
0.5064983715197429
 40
0.6476965988735357
 40
0.7886457596969448
 40
0.9297824024940041
 40
1.0
 40
1.0
 40
1.0
 40
1.0
 10
9.250439397918335
 20
-60.9794974131637
 30
0.0
 10
8.914789857826438
 20
-61.01984470245618
 30
0.0
 10
8.007836659369492
 20
-61.12886646087385
 30
0.0
 10
5.869579572408895
 20
-61.25853071004367
 30
0.0
 10
3.090343530793156
 20
-61.3585852370683
 30
0.0
 10
0.0707058982758789
 20
-61.39279154654137
 30
0.0
 10
-2.952349908486871
 20
-61.36168910115367
 30
0.0
 10
-5.740286845965793
 20
-61.26438776673582
 30
0.0
 10
-7.833824106969703
 20
-61.14230948552576
 30
0.0
 10
-8.709857721100661
 20
-61.04058882803504
 30
0.0
 10
-9.000899791657506
 20
-61.00679447323293
 30
0.0
  0
SPLINE
  5
2F9
330
299
100
AcDbEntity
  8
0
  6
Continuous
 62
     7
370
    25
100
AcDbSpline
210
0.0
220
0.0
230
1.0
 70
     8
 71
     3
 72
    53
 73
    49
 74
     0
 42
0.000000001
 43
0.00000001
 40
0.0
 40
0.0
 40
0.0
 40
0.0
 40
0.0312499999999998
 40
0.0312499999999998
 40
0.0624999999999996
 40
0.0624999999999996
 40
0.0937499999999994
 40
0.0937499999999994
 40
0.1249999999999992
 40
0.1249999999999992
 40
0.1874999999999988
 40
0.1874999999999988
 40
0.2187499999999988
 40
0.2187499999999988
 40
0.2499999999999987
 40
0.2499999999999987
 40
0.3124999999999984
 40
0.3124999999999984
 40
0.3437499999999984
 40
0.3437499999999984
 40
0.3749999999999983
 40
0.4062499999999983
 40
0.4062499999999983
 40
0.4374999999999983
 40
0.4374999999999983
 40
0.4999999999999983
 40
0.4999999999999983
 40
0.5312499999999983
 40
0.5312499999999983
 40
0.5624999999999983
 40
0.5624999999999983
 40
0.6249999999999983
 40
0.6249999999999983
 40
0.6562499999999983
 40
0.6562499999999983
 40
0.6874999999999983
 40
0.6874999999999983
 40
0.7499999999999984
 40
0.7499999999999984
 40
0.8124999999999987
 40
0.8124999999999987
 40
0.8437499999999988
 40
0.8437499999999988
 40
0.874999999999999
 40
0.874999999999999
 40
0.9374999999999996
 40
0.9374999999999996
 40
1.0
 40
1.0
 40
1.0
 40
1.0
 10
-11.49973989198942
 20
-60.43003263025441
 30
0.0
 10
-11.5022839476361
 20
-60.39851198844421
 30
0.0
 10
-11.48606198448608
 20
-60.36698953961101
 30
0.0
 10
-11.41732577764691
 20
-60.3046927592622
 30
0.0
 10
-11.36482959846123
 20
-60.2738005261544
 30
0.0
 10
-11.22387166717516
 20
-60.2125242680781
 30
0.0
 10
-11.13541101326792
 20
-60.18214022759184
 30
0.0
 10
-10.92177307881696
 20
-60.12189096745252
 30
0.0
 10
-10.79598850974063
 20
-60.09194224670322
 30
0.0
 10
-10.37095589876946
 20
-60.004759227687
 30
0.0
 10
-10.02282770353047
 20
-59.94956167747723
 30
0.0
 10
-9.404208565585273
 20
-59.87111895878009
 30
0.0
 10
-9.181012968037711
 20
-59.8456201681158
 30
0.0
 10
-8.704520455258635
 20
-59.79650770388823
 30
0.0
 10
-8.45355273023644
 20
-59.77311647154303
 30
0.0
 10
-7.663636628137072
 20
-59.70633232430522
 30
0.0
 10
-7.088027243087457
 20
-59.66629673135713
 30
0.0
 10
-6.149198435513
 20
-59.61314963125889
 30
0.0
 10
-5.82378284724583
 20
-59.5966305178525
 30
0.0
 10
-5.161914779463597
 20
-59.56664438571701
 30
0.0
 10
-4.485558513397482
 20
-59.53950423386863
 30
0.0
 10
-3.780630433394082
 20
-59.51797656865541
 30
0.0
 10
-3.061203853500205
 20
-59.49929690731908
 30
0.0
 10
-2.692183822568864
 20
-59.491349496858
 30
0.0
 10
-1.579129423505093
 20
-59.47223445801379
 30
0.0
 10
-0.8323861875287974
 20
-59.46571888716171
 30
0.0
 10
0.2946150843592261
 20
-59.46505694525581
 30
0.0
 10
0.6714381653213184
 20
-59.46636578789322
 30
0.0
 10
1.427469503982466
 20
-59.47213929871372
 30
0.0
 10
1.803568080002866
 20
-59.47659335237319
 30
0.0
 10
2.912336893444559
 20
-59.49437406928011
 30
0.0
 10
3.631477228673869
 20
-59.5121183759757
 30
0.0
 10
4.679918541098698
 20
-59.5476325680001
 30
0.0
 10
5.026041516529093
 20
-59.56105021657122
 30
0.0
 10
5.694605358374104
 20
-59.590402840938
 30
0.0
 10
6.018071817495285
 20
-59.6063538942243
 30
0.0
 10
6.956795992816775
 20
-59.65794038352679
 30
0.0
 10
7.540688306554864
 20
-59.6972726351264
 30
0.0
 10
8.621305914653732
 20
-59.78621089126032
 30
0.0
 10
9.100607815743386
 20
-59.83439458875299
 30
0.0
 10
9.73043828224832
 20
-59.91185898620319
 30
0.0
 10
9.92551210372418
 20
-59.93855956608441
 30
0.0
 10
10.28529669950732
 20
-59.99375582866681
 30
0.0
 10
10.45039947335577
 20
-60.02236563438941
 30
0.0
 10
10.88924737104775
 20
-60.1091055192947
 30
0.0
 10
11.11090348533184
 20
-60.1686324894664
 30
0.0
 10
11.41414676602741
 20
-60.29104524129782
 30
0.0
 10
11.49467665482623
 20
-60.35431195773742
 30
0.0
 10
11.49974069080984
 20
-60.417151521318
 30
0.0
  0
SPLINE
  5
2FD
330
299
100
AcDbEntity
  8
0
  6
Continuous
 62
     7
370
    25
100
AcDbSpline
210
0.0
220
0.0
230
1.0
 70
     8
 71
     3
 72
    28
 73
    24
 74
     0
 42
0.000000001
 43
0.00000001
 40
0.0
 40
0.0
 40
0.0
 40
0.0
 40
0.0170743976787908
 40
0.0343945387187319
 40
0.0519596169513902
 40
0.069773388744284
 40
0.0878487899142531
 40
0.1062026922304443
 40
0.124846709382103
 40
0.1437975261222241
 40
0.1986537423538777
 40
0.2863855243187939
 40
0.3589749550022018
 40
0.4291825541718126
 40
0.5004098852026405
 40
0.571890271618171
 40
0.6761323643146306
 40
0.7851805780206409
 40
0.841819871832568
 40
0.8926485175300297
 40
0.9201775335068613
 40
0.9552439808505191
 40
1.0
 40
1.0
 40
1.0
 40
1.0
 10
136.7086607919296
 20
-38.55137012082408
 30
0.0
 10
136.6946175525534
 20
-38.68688026953575
 30
0.0
 10
136.6663289564021
 20
-38.95985089750899
 30
0.0
 10
136.6107591986948
 20
-39.37072397363445
 30
0.0
 10
136.5445417885348
 20
-39.78595208380558
 30
0.0
 10
136.4661793322131
 20
-40.20519701851747
 30
0.0
 10
136.3754751482433
 20
-40.62837056539668
 30
0.0
 10
136.2719788361359
 20
-41.05541147059407
 30
0.0
 10
136.1550520708167
 20
-41.48621287219788
 30
0.0
 10
135.9422317236345
 20
-42.19242600835299
 30
0.0
 10
135.5047118462384
 20
-43.40596837907655
 30
0.0
 10
134.7556783120122
 20
-44.95608842934102
 30
0.0
 10
133.7652099559056
 20
-46.50927964295231
 30
0.0
 10
132.6982249290548
 20
-47.84563470379085
 30
0.0
 10
131.5018646687975
 20
-49.05520240581716
 30
0.0
 10
129.972851243139
 20
-50.30184868745403
 30
0.0
 10
128.0329289360744
 20
-51.50068280803372
 30
0.0
 10
126.0382537888048
 20
-52.33856375055454
 30
0.0
 10
124.375148185061
 20
-52.81371187706918
 30
0.0
 10
123.3177827638563
 20
-53.02779940344833
 30
0.0
 10
122.4212978985134
 20
-53.15597735324362
 30
0.0
 10
121.5679806465646
 20
-53.24274843234117
 30
0.0
 10
120.9305182434796
 20
-53.25644767600459
 30
0.0
 10
120.5730965704473
 20
-53.26412876678855
 30
0.0
  0
SPLINE
  5
2FE
330
299
100
AcDbEntity
  8
0
  6
Continuous
 62
     7
370
    25
100
AcDbSpline
210
0.0
220
0.0
230
1.0
 70
     8
 71
     3
 72
     8
 73
     4
 74
     0
 42
0.000000001
 43
0.00000001
 40
0.0
 40
0.0
 40
0.0
 40
0.0
 40
1.0
 40
1.0
 40
1.0
 40
1.0
 10
136.7797629750785
 20
-36.85281345916791
 30
0.0
 10
136.7865744610044
 20
-37.46867723257974
 30
0.0
 10
136.7589194965219
 20
-38.02654588035439
 30
0.0
 10
136.7086607919296
 20
-38.55137012082408
 30
0.0
  0
SPLINE
  5
301
330
299
100
AcDbEntity
  8
0
  6
Continuous
 62
     7
370
    25
100
AcDbSpline
210
0.0
220
0.0
230
1.0
 70
     8
 71
     3
 72
    26
 73
    22
 74
     0
 42
0.000000001
 43
0.00000001
 40
0.0
 40
0.0
 40
0.0
 40
0.0
 40
0.0160028072021436
 40
0.0310808353458513
 40
0.0453400088594438
 40
0.0588758146340163
 40
0.0717738408153563
 40
0.105816148899125
 40
0.1434641796486762
 40
0.1961311071302046
 40
0.2508129561212122
 40
0.3824095893370902
 40
0.5003032925970218
 40
0.6184941770330807
 40
0.7494494581514927
 40
0.8142596781669044
 40
0.8747349657498842
 40
0.9092129643831742
 40
0.9372402703019278
 40
0.9655165422126971
 40
0.9999999999999999
 40
0.9999999999999999
 40
0.9999999999999999
 40
0.9999999999999999
 10
120.473415229719
 20
109.3936609374092
 30
0.0
 10
120.6092066272584
 20
109.3915378679739
 30
0.0
 10
120.87294223408
 20
109.3874144182121
 30
0.0
 10
121.2573483308135
 20
109.3693605130424
 30
0.0
 10
121.620355700925
 20
109.3442466286219
 30
0.0
 10
121.964292107659
 20
109.3124893496732
 30
0.0
 10
122.4743406115867
 20
109.254596093278
 30
0.0
 10
123.1848620375299
 20
109.1486332363781
 30
0.0
 10
124.2193122983914
 20
108.9354047486404
 30
0.0
 10
125.405956556964
 20
108.6024918162049
 30
0.0
 10
127.3093941913317
 20
107.8960483123317
 30
0.0
 10
129.5959804381824
 20
106.653207709032
 30
0.0
 10
132.014339154554
 20
104.6519097751886
 30
0.0
 10
134.0203088316191
 20
102.2446030314296
 30
0.0
 10
135.3094107987803
 20
99.88921400151293
 30
0.0
 10
136.0572077118815
 20
97.84415198688194
 30
0.0
 10
136.3989849183693
 20
96.52993239305512
 30
0.0
 10
136.5861434012145
 20
95.50288820730037
 30
0.0
 10
136.6876341150327
 20
94.73919960666974
 30
0.0
 10
136.75838515834
 20
93.97192835757323
 30
0.0
 10
136.772182176257
 20
93.43964866389848
 30
0.0
 10
136.7797629750785
 20
93.14718653195217
 30
0.0
  0
SPLINE
  5
30D
330
299
100
AcDbEntity
  8
0
  6
Continuous
 62
     7
370
    25
100
AcDbSpline
210
0.0
220
0.0
230
1.0
 70
     8
 71
     3
 72
    26
 73
    22
 74
     0
 42
0.000000001
 43
0.00000001
 40
0.0
 40
0.0
 40
0.0
 40
0.0
 40
0.0625000000000001
 40
0.0625000000000001
 40
0.1250000000000002
 40
0.1250000000000002
 40
0.2500000000000002
 40
0.2500000000000002
 40
0.3750000000000001
 40
0.3750000000000001
 40
0.4375000000000001
 40
0.4375000000000001
 40
0.5000000000000001
 40
0.5000000000000001
 40
0.6250000000000001
 40
0.6250000000000001
 40
0.75
 40
0.75
 40
0.875
 40
0.875
 40
1.0
 40
1.0
 40
1.0
 40
1.0
 10
119.999999998672
 20
-43.29867118433975
 30
0.0
 10
120.209503317141
 20
-43.29867118433975
 30
0.0
 10
120.4191736833965
 20
-43.3001837143548
 30
0.0
 10
120.8377956667744
 20
-43.29670087829395
 30
0.0
 10
121.0459006673615
 20
-43.28403984393335
 30
0.0
 10
121.666594588499
 20
-43.21326975670636
 30
0.0
 10
122.0785108880594
 20
-43.12780212449789
 30
0.0
 10
122.8833151395584
 20
-42.87686579265902
 30
0.0
 10
123.268379123884
 20
-42.71674608871483
 30
0.0
 10
123.8197098102566
 20
-42.42407343812968
 30
0.0
 10
123.9991547914236
 20
-42.31785824182082
 30
0.0
 10
124.348830254673
 20
-42.08701200187129
 30
0.0
 10
124.520056707607
 20
-41.96150260642104
 30
0.0
 10
125.0095298643466
 20
-41.56289231594271
 30
0.0
 10
125.304194306937
 20
-41.26816745162382
 30
0.0
 10
125.8316834051844
 20
-40.62208740709895
 30
0.0
 10
126.0663976891871
 20
-40.26655872867622
 30
0.0
 10
126.4593627126032
 20
-39.52579348922661
 30
0.0
 10
126.618957077269
 20
-39.13966186839642
 30
0.0
 10
126.867053841085
 20
-38.3370466699869
 30
0.0
 10
126.9525481813944
 20
-37.92055517913421
 30
0.0
 10
126.9980819397476
 20
-37.499999999031
 30
0.0
  0
SPLINE
  5
310
330
299
100
AcDbEntity
  8
0
  6
Continuous
 62
     7
370
    25
100
AcDbSpline
210
0.0
220
0.0
230
1.0
 70
     8
 71
     3
 72
    28
 73
    24
 74
     0
 42
0.000000001
 43
0.00000001
 40
0.0
 40
0.0
 40
0.0
 40
0.0
 40
0.1250000000000003
 40
0.1250000000000003
 40
0.1875000000000002
 40
0.1875000000000002
 40
0.2500000000000001
 40
0.2500000000000001
 40
0.3750000000000017
 40
0.3750000000000017
 40
0.5000000000000033
 40
0.5000000000000033
 40
0.625000000000005
 40
0.625000000000005
 40
0.6875000000000034
 40
0.6875000000000034
 40
0.7500000000000019
 40
0.7500000000000019
 40
0.8749999999999989
 40
0.8749999999999989
 40
0.9374999999999996
 40
0.9374999999999996
 40
1.0
 40
1.0
 40
1.0
 40
1.0
 10
-126.998081939763
 20
-37.49999999889229
 30
0.0
 10
-126.9525953551918
 20
-37.92011947644718
 30
0.0
 10
-126.8686857767413
 20
-38.32934105663127
 30
0.0
 10
-126.6851132167654
 20
-38.92680567693191
 30
0.0
 10
-126.6147258826501
 20
-39.12335215644005
 30
0.0
 10
-126.4549654326914
 20
-39.51106018628074
 30
0.0
 10
-126.3649787865285
 20
-39.70312322478848
 30
0.0
 10
-126.070583361742
 20
-40.25981392144713
 30
0.0
 10
-125.8418049772502
 20
-40.60779765631582
 30
0.0
 10
-125.3161730145493
 20
-41.25531049203035
 30
0.0
 10
-125.0152152812493
 20
-41.55734413881674
 30
0.0
 10
-124.3674826982109
 20
-42.08664909782261
 30
0.0
 10
-124.0197969767059
 20
-42.31671394103023
 30
0.0
 10
-123.4647013724829
 20
-42.61306931957237
 30
0.0
 10
-123.2730592756504
 20
-42.7038807850126
 30
0.0
 10
-122.8854425993219
 20
-42.8657245399136
 30
0.0
 10
-122.6889274723999
 20
-42.93716385650825
 30
0.0
 10
-122.0916274025436
 20
-43.12431518274555
 30
0.0
 10
-121.6822495489216
 20
-43.21084472313481
 30
0.0
 10
-121.0526901375202
 20
-43.28357473433534
 30
0.0
 10
-120.8424734118613
 20
-43.29655083753662
 30
0.0
 10
-120.4213226772051
 20
-43.30027517216542
 30
0.0
 10
-120.2106354586226
 20
-43.29867118433976
 30
0.0
 10
-120.0
 20
-43.29867118433975
 30
0.0
  0
SPLINE
  5
314
330
299
100
AcDbEntity
  8
0
  6
Continuous
 62
     7
370
    25
100
AcDbSpline
210
0.0
220
0.0
230
1.0
 70
     8
 71
     3
 72
    18
 73
    14
 74
     0
 42
0.000000001
 43
0.00000001
 40
0.0
 40
0.0
 40
0.0
 40
0.0
 40
0.5000000000000001
 40
0.7500000000000002
 40
0.8750000000000002
 40
0.9375000000000002
 40
0.9687500000000002
 40
0.9843750000000001
 40
0.9921875000000001
 40
0.9921875000000001
 40
0.9960937500000001
 40
0.9960937500000001
 40
1.0
 40
1.0
 40
1.0
 40
1.0
 10
-127.0324397897958
 20
92.499999999031
 30
0.0
 10
-127.0324397897956
 20
70.833326774589
 30
0.0
 10
-127.0324397897961
 20
38.33331693792599
 30
0.0
 10
-127.0324397897958
 20
0.4166387951524708
 30
0.0
 10
-127.0324397897956
 20
-18.54170027623433
 30
0.0
 10
-127.0324397897957
 20
-28.02086981192755
 30
0.0
 10
-127.0324397897961
 20
-32.76045457977438
 30
0.0
 10
-127.0324397897956
 20
-35.13024696369749
 30
0.0
 10
-127.0324397897958
 20
-36.14587227109345
 30
0.0
 10
-127.0324397897957
 20
-36.65368492479129
 30
0.0
 10
-127.0345958660952
 20
-36.82295827862838
 30
0.0
 10
-127.0273430331992
 20
-37.16149174136875
 30
0.0
 10
-127.0164067264135
 20
-37.33075010100214
 30
0.0
 10
-126.998081939763
 20
-37.49999999889231
 30
0.0
  0
SPLINE
  5
315
330
299
100
AcDbEntity
  8
0
  6
Continuous
 62
     7
370
    25
100
AcDbSpline
210
0.0
220
0.0
230
1.0
 70
     8
 71
     3
 72
    18
 73
    14
 74
     0
 42
0.000000001
 43
0.00000001
 40
0.0
 40
0.0
 40
0.0
 40
0.0
 40
0.0039062500000001
 40
0.0039062500000001
 40
0.0078125000000002
 40
0.0078125000000002
 40
0.0156250000000003
 40
0.0312500000000002
 40
0.0625000000000003
 40
0.1250000000000002
 40
0.2500000000000002
 40
0.5000000000000001
 40
1.0
 40
1.0
 40
1.0
 40
1.0
 10
126.9980819397476
 20
-37.499999999031
 30
0.0
 10
127.0164026640262
 20
-37.33078762172721
 30
0.0
 10
127.027339920822
 20
-37.16155162828903
 30
0.0
 10
127.0345960963367
 20
-36.82303288443409
 30
0.0
 10
127.0324397897958
 20
-36.65375501103274
 30
0.0
 10
127.0324397897956
 20
-36.14594208176692
 30
0.0
 10
127.0324397897956
 20
-35.13031622323538
 30
0.0
 10
127.0324397897956
 20
-32.76052255332834
 30
0.0
 10
127.0324397897957
 20
-28.02093521351448
 30
0.0
 10
127.0324397897956
 20
-18.54176053388663
 30
0.0
 10
127.0324397897956
 20
0.4165888253692069
 30
0.0
 10
127.0324397897958
 20
38.3332875438806
 30
0.0
 10
127.0324397897956
 20
70.83331501689057
 30
0.0
 10
127.0324397897956
 20
92.4999999988972
 30
0.0
  0
SPLINE
  5
317
330
299
100
AcDbEntity
  8
0
  6
Continuous
 62
     7
370
    25
100
AcDbSpline
210
0.0
220
0.0
230
1.0
 70
     8
 71
     3
 72
    30
 73
    26
 74
     0
 42
0.000000001
 43
0.00000001
 40
0.0
 40
0.0
 40
0.0
 40
0.0
 40
0.0624999999999998
 40
0.0624999999999998
 40
0.1249999999999996
 40
0.1249999999999996
 40
0.1874999999999994
 40
0.1874999999999994
 40
0.2499999999999992
 40
0.2499999999999992
 40
0.3749999999999998
 40
0.3749999999999998
 40
0.5000000000000004
 40
0.5000000000000004
 40
0.6249999999999984
 40
0.6249999999999984
 40
0.7499999999999966
 40
0.7499999999999966
 40
0.8749999999999947
 40
0.8749999999999947
 40
0.9374999999999954
 40
0.9374999999999954
 40
0.9687499999999977
 40
0.9687499999999977
 40
1.0
 40
1.0
 40
1.0
 40
1.0
 10
127.0324397897956
 20
92.4999999988972
 30
0.0
 10
127.0324397897956
 20
92.73748969128344
 30
0.0
 10
127.0344424435559
 20
92.97519060209504
 30
0.0
 10
127.0298039905777
 20
93.44968077262742
 30
0.0
 10
127.013168076865
 20
93.68541588737236
 30
0.0
 10
126.9537387669676
 20
94.1541273063337
 30
0.0
 10
126.9120077805918
 20
94.38721566213606
 30
0.0
 10
126.8021897229354
 20
94.8506126167571
 30
0.0
 10
126.7338393223641
 20
95.0816465129094
 30
0.0
 10
126.4964449891082
 20
95.75398939193859
 30
0.0
 10
126.2939152995584
 20
96.18001532512493
 30
0.0
 10
125.7987673317062
 20
96.9868819595
 30
0.0
 10
125.5017424049615
 20
97.36998263370612
 30
0.0
 10
124.840741196611
 20
98.04768734383644
 30
0.0
 10
124.4745399683473
 20
98.34752088317111
 30
0.0
 10
123.671168254555
 20
98.8696224726442
 30
0.0
 10
123.2461212362584
 20
99.08440401116204
 30
0.0
 10
122.3599617956714
 20
99.42236574142972
 30
0.0
 10
121.8928081552217
 20
99.54714867632529
 30
0.0
 10
121.1881591976019
 20
99.65459068501029
 30
0.0
 10
120.9521461283052
 20
99.67877644031327
 30
0.0
 10
120.5959129646718
 20
99.69227815285352
 30
0.0
 10
120.4767270890235
 20
99.69223593595581
 30
0.0
 10
120.2383635433662
 20
99.69223593595578
 30
0.0
 10
120.1191817705374
 20
99.69223593595582
 30
0.0
 10
119.999999997709
 20
99.6922359359558
 30
0.0
  0
SPLINE
  5
31A
330
299
100
AcDbEntity
  8
0
  6
Continuous
 62
     7
370
    25
100
AcDbSpline
210
0.0
220
0.0
230
1.0
 70
     8
 71
     3
 72
    32
 73
    28
 74
     0
 42
0.000000001
 43
0.00000001
 40
0.0
 40
0.0
 40
0.0
 40
0.0
 40
0.0312499999999994
 40
0.0312499999999994
 40
0.0624999999999989
 40
0.0624999999999989
 40
0.1249999999999978
 40
0.1249999999999978
 40
0.1874999999999967
 40
0.1874999999999967
 40
0.2499999999999956
 40
0.2499999999999956
 40
0.3749999999999981
 40
0.3749999999999981
 40
0.4374999999999993
 40
0.4374999999999993
 40
0.5000000000000006
 40
0.5000000000000006
 40
0.6250000000000004
 40
0.6250000000000004
 40
0.7500000000000003
 40
0.7500000000000003
 40
0.8750000000000002
 40
0.8750000000000002
 40
0.9375000000000001
 40
0.9375000000000001
 40
1.0
 40
1.0
 40
1.0
 40
1.0
 10
-119.999999998805
 20
99.6922359359558
 30
0.0
 10
-120.1189402619224
 20
99.69223593595581
 30
0.0
 10
-120.2378805250399
 20
99.69223593595581
 30
0.0
 10
-120.4757610512748
 20
99.69223593595578
 30
0.0
 10
-120.5947082063794
 20
99.69229278528938
 30
0.0
 10
-120.9499081089364
 20
99.67892271814891
 30
0.0
 10
-121.184879613251
 20
99.65492732346299
 30
0.0
 10
-121.6520443454626
 20
99.58401960841312
 30
0.0
 10
-121.8841111459244
 20
99.53606443712317
 30
0.0
 10
-122.3451287867374
 20
99.41445174689898
 30
0.0
 10
-122.5741161549292
 20
99.34041320226115
 30
0.0
 10
-123.2401163238134
 20
99.08723885281694
 30
0.0
 10
-123.6616182583204
 20
98.8745019185174
 30
0.0
 10
-124.2593687718604
 20
98.4879902069852
 30
0.0
 10
-124.4539541473731
 20
98.34668613845953
 30
0.0
 10
-124.824028933996
 20
98.04475680492094
 30
0.0
 10
-124.9991378531252
 20
97.88475426809357
 30
0.0
 10
-125.4950028094486
 20
97.37792763941837
 30
0.0
 10
-125.7873694886132
 20
97.00345076021979
 30
0.0
 10
-126.2904363840808
 20
96.18763038917751
 30
0.0
 10
-126.4940421189662
 20
95.75941497702027
 30
0.0
 10
-126.810916230861
 20
94.86471150382302
 30
0.0
 10
-126.9230427745572
 20
94.39423838263427
 30
0.0
 10
-127.0129485599032
 20
93.68812761735909
 30
0.0
 10
-127.0297330424826
 20
93.45161684380079
 30
0.0
 10
-127.0344852408484
 20
92.9761024436607
 30
0.0
 10
-127.032439789796
 20
92.73796274839343
 30
0.0
 10
-127.0324397897958
 20
92.499999999031
 30
0.0
  0
SPLINE
  5
326
330
299
100
AcDbEntity
  8
0
  6
Continuous
 62
     8
370
    25
100
AcDbSpline
210
0.0
220
0.0
230
1.0
 70
     8
 71
     3
 72
    10
 73
     6
 74
     0
 42
0.000000001
 43
0.00000001
 40
0.0
 40
0.0
 40
0.0
 40
0.0
 40
0.414989137977967
 40
0.8293176691613003
 40
1.0
 40
1.0
 40
1.0
 40
1.0
 10
11.49974069080984
 20
-60.417151521318
 30
0.0
 10
11.42300632945374
 20
-60.50042870915932
 30
0.0
 10
11.26965975750612
 20
-60.66685051877914
 30
0.0
 10
10.40007809827422
 20
-60.86087588611868
 30
0.0
 10
9.510099025466783
 20
-60.95270532489961
 30
0.0
 10
9.250439397918335
 20
-60.9794974131637
 30
0.0
  0
SPLINE
  5
327
330
299
100
AcDbEntity
  8
0
  6
Continuous
 62
     8
370
    25
100
AcDbSpline
210
0.0
220
0.0
230
1.0
 70
     8
 71
     3
 72
    10
 73
     6
 74
     0
 42
0.000000001
 43
0.00000001
 40
0.0
 40
0.0
 40
0.0
 40
0.0
 40
0.2013754255432227
 40
0.6013723575361091
 40
1.0
 40
1.0
 40
1.0
 40
1.0
 10
-9.000899791657508
 20
-61.00679447323294
 30
0.0
 10
-9.324894809360396
 20
-60.97449467430739
 30
0.0
 10
-10.2924490533817
 20
-60.87803699494855
 30
0.0
 10
-11.23440288902425
 20
-60.67874609110399
 30
0.0
 10
-11.41139537906592
 20
-60.51284229988483
 30
0.0
 10
-11.49973989198942
 20
-60.43003263025441
 30
0.0
  0
SPLINE
  5
329
330
299
100
AcDbEntity
  8
0
  6
Continuous
 62
     8
370
    25
100
AcDbSpline
210
0.0
220
0.0
230
1.0
 70
     8
 71
     3
 72
    21
 73
    17
 74
     0
 42
0.000000001
 43
0.00000001
 40
0.0
 40
0.0
 40
0.0
 40
0.0
 40
0.0656522095918891
 40
0.1481061080338421
 40
0.2366841402592831
 40
0.3214498960482931
 40
0.4086132388455441
 40
0.4946491093717675
 40
0.5806250694543538
 40
0.6677756206138297
 40
0.7524078962047867
 40
0.8409044130935828
 40
0.8810405585971921
 40
0.9233199290801042
 40
0.9677433821337946
 40
1.0
 40
1.0
 40
1.0
 40
1.0
 10
9.392214497204018
 20
-61.00085916990852
 30
0.0
 10
9.159920815501891
 20
-60.95848846439797
 30
0.0
 10
8.63588494021881
 20
-60.86290355831749
 30
0.0
 10
7.396166706193491
 20
-60.73246858818612
 30
0.0
 10
5.824230043430715
 20
-60.61528982401949
 30
0.0
 10
3.986809858323484
 20
-60.52697977967473
 30
0.0
 10
2.017763712189522
 20
-60.47349044005387
 30
0.0
 10
-0.0387712798234464
 20
-60.45565896861514
 30
0.0
 10
-2.093437956969183
 20
-60.47487407755813
 30
0.0
 10
-4.057317109324372
 20
-60.5295965790302
 30
0.0
 10
-5.883386441050168
 20
-60.61911179337127
 30
0.0
 10
-7.195250220334201
 20
-60.71730590631547
 30
0.0
 10
-8.105162893033848
 20
-60.80873956293672
 30
0.0
 10
-8.705437188792727
 20
-60.88214762604569
 30
0.0
 10
-9.204238155388156
 20
-60.95499316901424
 30
0.0
 10
-9.454251833936537
 20
-61.00528658164703
 30
0.0
 10
-9.559423824435658
 20
-61.02644325733893
 30
0.0
  0
LINE
  5
32A
330
299
100
AcDbEntity
  8
0
  6
Continuous
 62
     7
370
    25
100
AcDbLine
 10
127.6724683832
 20
-71.6948796118
 30
0.0
 11
127.5
 21
-61.7318323517
 31
0.0
  0
LINE
  5
32B
330
299
100
AcDbEntity
  8
0
  6
Continuous
 62
     7
370
    25
100
AcDbLine
 10
-127.6724683828
 20
-71.6948796118
 30
0.0
 11
-127.4999999997
 21
-61.7318323517
 31
0.0
  0
LINE
  5
32C
330
299
100
AcDbEntity
  8
0
  6
Continuous
 62
     7
370
    25
100
AcDbLine
 10
-160.7202370249
 20
-27.4999999999
 30
0.0
 11
-160.7202370249
 21
-28.1471865312
 31
0.0
  0
LINE
  5
32D
330
299
100
AcDbEntity
  8
0
  6
Continuous
 62
     7
370
    25
100
AcDbLine
 10
-160.7202370249
 20
-27.4999999999
 30
0.0
 11
-170.4675602102
 21
-27.4999999999
 31
0.0
  0
LINE
  5
32E
330
299
100
AcDbEntity
  8
0
  6
Continuous
 62
     7
370
    25
100
AcDbLine
 10
170.4675602102
 20
-27.4999999999
 30
0.0
 11
160.7202370249
 21
-27.4999999999
 31
0.0
  0
LINE
  5
32F
330
299
100
AcDbEntity
  8
0
  6
Continuous
 62
     7
370
    25
100
AcDbLine
 10
-192.7620294927
 20
177.7551771664
 30
0.0
 11
-192.7620294927
 21
182.7483248402
 31
0.0
  0
LINE
  5
330
330
299
100
AcDbEntity
  8
0
  6
Continuous
 62
     7
370
    25
100
AcDbLine
 10
-199.8194097735
 20
179.8194097735
 30
0.0
 11
-196.2935466536
 21
176.2935466536
 31
0.0
  0
LINE
  5
331
330
299
100
AcDbEntity
  8
0
  6
Continuous
 62
     7
370
    25
100
AcDbLine
 10
192.7620294927
 20
177.7551771664
 30
0.0
 11
192.7620294927
 21
182.7483248402
 31
0.0
  0
LINE
  5
332
330
299
100
AcDbEntity
  8
0
  6
Continuous
 62
     7
370
    25
100
AcDbLine
 10
199.8194097735
 20
179.8194097735
 30
0.0
 11
196.2935466536
 21
176.2935466536
 31
0.0
  0
LINE
  5
333
330
299
100
AcDbEntity
  8
0
  6
Continuous
 62
     7
370
    25
100
AcDbLine
 10
197.7551771664
 20
172.7620294927
 30
0.0
 11
202.7483248402
 21
172.7620294927
 31
0.0
  0
LINE
  5
334
330
299
100
AcDbEntity
  8
0
  6
Continuous
 62
     7
370
    25
100
AcDbLine
 10
-197.7551771664
 20
172.7620294927
 30
0.0
 11
-202.7483248402
 21
172.7620294927
 31
0.0
  0
LINE
  5
335
330
299
100
AcDbEntity
  8
0
  6
Continuous
 62
     7
370
    25
100
AcDbLine
 10
-160.7174237237
 20
102.4999999999
 30
0.0
 11
-170.4595041438
 21
102.6880782724
 31
0.0
  0
LINE
  5
336
330
299
100
AcDbEntity
  8
0
  6
Continuous
 62
     7
370
    25
100
AcDbLine
 10
-127.5
 20
135.6050146762
 30
0.0
 11
-127.6370483306
 21
145.3034535047
 31
0.0
  0
LINE
  5
337
330
299
100
AcDbEntity
  8
0
  6
Continuous
 62
     7
370
    25
100
AcDbLine
 10
127.4999999946
 20
135.6050146763
 30
0.0
 11
127.6370483237
 21
145.3034535048
 31
0.0
  0
LINE
  5
338
330
299
100
AcDbEntity
  8
0
  6
Continuous
 62
     7
370
    25
100
AcDbLine
 10
170.4595041438
 20
102.6880782726
 30
0.0
 11
160.7174237237
 21
102.5
 31
0.0
  0
LINE
  5
339
330
299
100
AcDbEntity
  8
0
  6
Continuous
 62
     7
370
    25
100
AcDbLine
 10
160.7202370249
 20
-27.4999999999
 30
0.0
 11
160.7202370249
 21
101.8528134584
 31
0.0
  0
LINE
  5
33A
330
299
100
AcDbEntity
  8
0
  6
Continuous
 62
     7
370
    25
100
AcDbLine
 10
202.7483248402
 20
172.7620294927
 30
0.0
 11
202.7483248402
 21
-180.5
 31
0.0
  0
LINE
  5
33B
330
299
100
AcDbEntity
  8
0
  6
Continuous
 62
     7
370
    25
100
AcDbLine
 10
197.7551771664
 20
-182.5
 30
0.0
 11
197.7551771664
 21
172.7620294927
 31
0.0
  0
LINE
  5
33C
330
299
100
AcDbEntity
  8
0
  6
Continuous
 62
     7
370
    25
100
AcDbLine
 10
-197.7551771664
 20
172.7620294927
 30
0.0
 11
-197.7551771664
 21
-182.5
 31
0.0
  0
LINE
  5
33D
330
299
100
AcDbEntity
  8
0
  6
Continuous
 62
     7
370
    25
100
AcDbLine
 10
-203.2847443432
 20
-180.5
 30
0.0
 11
203.2847443432
 21
-180.5
 31
0.0
  0
LINE
  5
33E
330
299
100
AcDbEntity
  8
0
  6
Continuous
 62
     7
370
    25
100
AcDbLine
 10
-202.7483248402
 20
-180.5
 30
0.0
 11
-202.7483248402
 21
172.7620294927
 31
0.0
  0
LINE
  5
33F
330
299
100
AcDbEntity
  8
0
  6
Continuous
 62
     7
370
    25
100
AcDbLine
 10
192.7620294927
 20
177.7551771664
 30
0.0
 11
-192.7620294927
 21
177.7551771664
 31
0.0
  0
LINE
  5
340
330
299
100
AcDbEntity
  8
0
  6
Continuous
 62
     7
370
    25
100
AcDbLine
 10
-192.7620294927
 20
182.7483248402
 30
0.0
 11
192.7620294927
 21
182.7483248402
 31
0.0
  0
LINE
  5
341
330
299
100
AcDbEntity
  8
0
  6
Continuous
 62
     7
370
    25
100
AcDbLine
 10
201.2833719973
 20
-182.5
 30
0.0
 11
-201.2833719973
 21
-182.5
 31
0.0
  0
LINE
  5
342
330
299
100
AcDbEntity
  8
0
  6
Continuous
 62
     7
370
    25
100
AcDbLine
 10
-202.7483248402
 20
172.7620294927
 30
0.0
 11
-203.283373878
 21
173.2970785305
 31
0.0
  0
LINE
  5
343
330
299
100
AcDbEntity
  8
0
  6
Continuous
 62
     7
370
    25
100
AcDbLine
 10
-193.2970785305
 20
183.283373878
 30
0.0
 11
-192.7620294927
 21
182.7483248402
 31
0.0
  0
LINE
  5
344
330
299
100
AcDbEntity
  8
0
  6
Continuous
 62
     7
370
    25
100
AcDbLine
 10
192.7620294927
 20
182.7483248402
 30
0.0
 11
193.2970785305
 21
183.283373878
 31
0.0
  0
LINE
  5
345
330
299
100
AcDbEntity
  8
0
  6
Continuous
 62
     7
370
    25
100
AcDbLine
 10
203.283373878
 20
173.2970785305
 30
0.0
 11
202.7483248402
 21
172.7620294927
 31
0.0
  0
LINE
  5
346
330
299
100
AcDbEntity
  8
0
  6
Continuous
 62
     7
370
    25
100
AcDbLine
 10
203.283373878
 20
-180.5
 30
0.0
 11
203.283373878
 21
173.2970785305
 31
0.0
  0
LINE
  5
347
330
299
100
AcDbEntity
  8
0
  6
Continuous
 62
     7
370
    25
100
AcDbLine
 10
193.2970785305
 20
183.283373878
 30
0.0
 11
-193.2970785305
 21
183.283373878
 31
0.0
  0
LINE
  5
348
330
299
100
AcDbEntity
  8
0
  6
Continuous
 62
     7
370
    25
100
AcDbLine
 10
-203.283373878
 20
173.2970785305
 30
0.0
 11
-203.283373878
 21
-180.5
 31
0.0
  0
LINE
  5
349
330
299
100
AcDbEntity
  8
0
  6
Continuous
 62
     7
370
    25
100
AcDbLine
 10
127.0265847603
 20
135.6063390626
 30
0.0
 11
120.4734152297
 21
109.3936609374
 31
0.0
  0
LINE
  5
34A
330
299
100
AcDbEntity
  8
0
  6
Continuous
 62
     7
370
    25
100
AcDbLine
 10
-120.4734152297
 20
109.3936609374
 30
0.0
 11
120.4734152297
 21
109.3936609374
 31
0.0
  0
LINE
  5
34B
330
299
100
AcDbEntity
  8
0
  6
Continuous
 62
     7
370
    25
100
AcDbLine
 10
-136.7797629751
 20
-36.8528134592
 30
0.0
 11
-136.7797629751
 21
93.147186532
 31
0.0
  0
LINE
  5
34C
330
299
100
AcDbEntity
  8
0
  6
Continuous
 62
     7
370
    25
100
AcDbLine
 10
-126.9269034196
 20
-61.7358712332
 30
0.0
 11
-120.5730965704
 21
-53.2641287668
 31
0.0
  0
LINE
  5
34D
330
299
100
AcDbEntity
  8
0
  6
Continuous
 62
     7
370
    25
100
AcDbLine
 10
120.5730965704
 20
-53.2641287668
 30
0.0
 11
-120.5730965704
 21
-53.2641287668
 31
0.0
  0
LINE
  5
34E
330
299
100
AcDbEntity
  8
0
  6
Continuous
 62
     7
370
    25
100
AcDbLine
 10
136.7797629751
 20
93.147186532
 30
0.0
 11
136.7797629751
 21
-36.8528134592
 31
0.0
  0
LINE
  5
34F
330
299
100
AcDbEntity
  8
0
  6
Continuous
 62
     7
370
    25
100
AcDbLine
 10
203.2847443432
 20
173.2970785305
 30
0.0
 11
203.283373878
 21
173.2970785305
 31
0.0
  0
LINE
  5
350
330
299
100
AcDbEntity
  8
0
  6
Continuous
 62
     7
370
    25
100
AcDbLine
 10
193.2970785305
 20
183.2847443432
 30
0.0
 11
193.2970785305
 21
183.283373878
 31
0.0
  0
LINE
  5
351
330
299
100
AcDbEntity
  8
0
  6
Continuous
 62
     7
370
    25
100
AcDbLine
 10
-193.2970785305
 20
183.2847443432
 30
0.0
 11
-193.2970785305
 21
183.283373878
 31
0.0
  0
LINE
  5
352
330
299
100
AcDbEntity
  8
0
  6
Continuous
 62
     7
370
    25
100
AcDbLine
 10
-203.2847443432
 20
173.2970785305
 30
0.0
 11
-203.283373878
 21
173.2970785305
 31
0.0
  0
LINE
  5
353
330
299
100
AcDbEntity
  8
0
  6
Continuous
 62
     7
370
    25
100
AcDbLine
 10
-193.2970785305
 20
183.2847443432
 30
0.0
 11
193.2970785305
 21
183.2847443432
 31
0.0
  0
LINE
  5
354
330
299
100
AcDbEntity
  8
0
  6
Continuous
 62
     7
370
    25
100
AcDbLine
 10
-203.2847443432
 20
-180.5
 30
0.0
 11
-203.2847443432
 21
173.2970785305
 31
0.0
  0
LINE
  5
355
330
299
100
AcDbEntity
  8
0
  6
Continuous
 62
     7
370
    25
100
AcDbLine
 10
203.2847443432
 20
173.2970785305
 30
0.0
 11
203.2847443432
 21
-180.5
 31
0.0
  0
LINE
  5
356
330
299
100
AcDbEntity
  8
0
  6
Continuous
 62
     7
370
    25
100
AcDbLine
 10
119.9999999987
 20
-53.2641287668
 30
0.0
 11
119.9999999987
 21
-43.2986711843
 31
0.0
  0
LINE
  5
357
330
299
100
AcDbEntity
  8
0
  6
Continuous
 62
     7
370
    25
100
AcDbLine
 10
136.7086607919
 20
-38.5513701208
 30
0.0
 11
126.9980819397
 21
-37.499999999
 31
0.0
  0
LINE
  5
358
330
299
100
AcDbEntity
  8
0
  6
Continuous
 62
     7
370
    25
100
AcDbLine
 10
-126.9980819398
 20
-37.4999999989
 30
0.0
 11
-136.708660792
 21
-38.5513701205
 31
0.0
  0
LINE
  5
359
330
299
100
AcDbEntity
  8
0
  6
Continuous
 62
     7
370
    25
100
AcDbLine
 10
-120.0
 20
-53.2641287668
 30
0.0
 11
-120.0
 21
-43.2986711843
 31
0.0
  0
LINE
  5
35A
330
299
100
AcDbEntity
  8
0
  6
Continuous
 62
     7
370
    25
100
AcDbLine
 10
-120.0
 20
-43.2986711843
 30
0.0
 11
119.9999999987
 21
-43.2986711843
 31
0.0
  0
LINE
  5
35B
330
299
100
AcDbEntity
  8
0
  6
Continuous
 62
     7
370
    25
100
AcDbLine
 10
-127.0324397898
 20
92.499999999
 30
0.0
 11
-136.7797629751
 21
92.499999999
 31
0.0
  0
LINE
  5
35C
330
299
100
AcDbEntity
  8
0
  6
Continuous
 62
     7
370
    25
100
AcDbLine
 10
136.7797629751
 20
92.4999999989
 30
0.0
 11
127.0324397898
 21
92.4999999989
 31
0.0
  0
LINE
  5
35D
330
299
100
AcDbEntity
  8
0
  6
Continuous
 62
     7
370
    25
100
AcDbLine
 10
119.9999999977
 20
99.692235936
 30
0.0
 11
119.9999999977
 21
109.3936609374
 31
0.0
  0
LINE
  5
35E
330
299
100
AcDbEntity
  8
0
  6
Continuous
 62
     7
370
    25
100
AcDbLine
 10
-119.9999999988
 20
99.692235936
 30
0.0
 11
-119.9999999988
 21
109.3936609374
 31
0.0
  0
LINE
  5
35F
330
299
100
AcDbEntity
  8
0
  6
Continuous
 62
     7
370
    25
100
AcDbLine
 10
119.9999999977
 20
99.692235936
 30
0.0
 11
-119.9999999988
 21
99.692235936
 31
0.0
  0
LINE
  5
360
330
299
100
AcDbEntity
  8
0
  6
Continuous
 62
     7
370
    25
100
AcDbLine
 10
0.0
 20
-14.5
 30
0.0
 11
0.0
 21
-25.3284271247
 31
0.0
  0
LINE
  5
361
330
299
100
AcDbEntity
  8
0
  6
Continuous
 62
     7
370
    25
100
AcDbLine
 10
0.0
 20
33.5
 30
0.0
 11
0.0
 21
44.3284271247
 31
0.0
  0
ARC
  5
362
330
299
100
AcDbEntity
  8
0
  6
Continuous
 62
     7
370
    25
100
AcDbCircle
 10
-200.7496943651
 20
-180.5013695262
 30
0.0
 40
1.998630944352235
100
AcDbArc
 50
179.9607390873
 51
269.9606852078
  0
ARC
  5
363
330
299
100
AcDbEntity
  8
0
  6
Continuous
 62
     7
370
    25
100
AcDbCircle
 10
200.7496943651
 20
-180.5013695262
 30
0.0
 40
1.998630944352235
100
AcDbArc
 50
270.0393147922
 51
0.0392609127
  0
ARC
  5
364
330
299
100
AcDbEntity
  8
0
  6
Continuous
 62
     7
370
    25
100
AcDbCircle
 10
11.4986789823
 20
-61.4160695168
 30
0.0
 40
0.9989185596606082
100
AcDbArc
 50
89.9391027146
 51
179.8639335453
  0
ARC
  5
365
330
299
100
AcDbEntity
  8
0
  6
Continuous
 62
     7
370
    25
100
AcDbCircle
 10
0.0
 20
9.5
 30
0.0
 40
33.41421356237318
100
AcDbArc
 50
270.0
 51
90.0
  0
ARC
  5
366
330
299
100
AcDbEntity
  8
0
  6
Continuous
 62
     7
370
    25
100
AcDbCircle
 10
0.0
 20
9.5
 30
0.0
 40
34.82842712474628
100
AcDbArc
 50
270.0
 51
90.0
  0
ARC
  5
367
330
299
100
AcDbEntity
  8
0
  6
Continuous
 62
     7
370
    25
100
AcDbCircle
 10
0.0
 20
9.5
 30
0.0
 40
24.0
100
AcDbArc
 50
90.0
 51
270.0
  0
ARC
  5
368
330
299
100
AcDbEntity
  8
0
  6
Continuous
 62
     8
370
    25
100
AcDbCircle
 10
-11.4978074775
 20
-61.4287216981
 30
0.0
 40
0.9986909374430699
100
AcDbArc
 50
21.2461972415
 51
90.1108643925
  0
VIEWPORT
  5
36D
330
299
100
AcDbEntity
  8
0
100
AcDbViewport
 10
0.0
 20
0.0
 30
0.0
 40
205.6
 41
156.0
 68
     1
 69
     1
 12
0.0
 22
-68.5
 13
0.0
 23
0.0
 14
10.0
 24
10.0
 15
10.0
 25
10.0
 16
0.0
 26
0.0
 36
1.0
 17
0.0
 27
0.0
 37
0.0
 42
50.0
 43
0.0
 44
0.0
 45
314.6563085593
 50
0.0
 51
0.0
 72
   100
 90
   557152
  1

281
     0
 71
     1
 74
     0
110
0.0
120
0.0
130
0.0
111
1.0
121
0.0
131
0.0
112
0.0
122
1.0
132
0.0
 79
     0
146
0.0
  0
ENDBLK
  5
29C
330
299
100
AcDbEntity
  8
0
100
AcDbBlockEnd
  0
ENDSEC
  0
SECTION
  2
ENTITIES
  0
SPLINE
  5
73
330
1F
100
AcDbEntity
  8
0
  6
Continuous
 62
     7
370
    25
100
AcDbSpline
210
0.0
220
0.0
230
1.0
 70
     8
 71
     3
 72
    12
 73
     8
 74
     0
 42
0.000000001
 43
0.00000001
 40
0.0
 40
0.0
 40
0.0
 40
0.0
 40
0.1661616044381324
 40
0.3054617128200148
 40
0.5637806671669674
 40
0.8190147200050443
 40
1.0
 40
1.0
 40
1.0
 40
1.0
 10
172.9054729646251
 20
1.974578251722856
 30
0.0
 10
173.0089879079185
 20
2.193112123817856
 30
0.0
 10
173.1992836864639
 20
2.594851930706771
 30
0.0
 10
173.7484240111931
 20
3.354016658454112
 30
0.0
 10
174.5776724649701
 20
4.084515425534563
 30
0.0
 10
175.6006305608514
 20
4.650612375911855
 30
0.0
 10
176.2606418380712
 20
4.830958518595885
 30
0.0
 10
176.5344773075624
 20
4.90578325622891
 30
0.0
  0
SPLINE
  5
7C
330
1F
100
AcDbEntity
  8
0
  6
Continuous
 62
     7
370
    25
100
AcDbSpline
210
0.0
220
0.0
230
1.0
 70
     8
 71
     3
 72
     9
 73
     5
 74
     0
 42
0.000000001
 43
0.00000001
 40
0.0
 40
0.0
 40
0.0
 40
0.0
 40
0.960793144298319
 40
0.9999999999999999
 40
0.9999999999999999
 40
0.9999999999999999
 40
0.9999999999999999
 10
-172.4998433129475
 20
0.0885084112660639
 30
0.0
 10
-172.5455353210106
 20
0.7227049835864252
 30
0.0
 10
-172.5930918719021
 20
1.38278106352506
 30
0.0
 10
-172.8996287896055
 20
1.949077500809957
 30
0.0
 10
-172.9116471383052
 20
1.97128020351095
 30
0.0
  0
SPLINE
  5
7D
330
1F
100
AcDbEntity
  8
0
  6
Continuous
 62
     7
370
    25
100
AcDbSpline
210
0.0
220
0.0
230
1.0
 70
     8
 71
     3
 72
     8
 73
     4
 74
     0
 42
0.000000001
 43
0.00000001
 40
0.0
 40
0.0
 40
0.0
 40
0.0
 40
1.0
 40
1.0
 40
1.0
 40
1.0
 10
-175.6766664637327
 20
4.656058659938525
 30
0.0
 10
-176.2860137090817
 20
4.894558749357055
 30
0.0
 10
-176.9150429217882
 20
5.000000000000004
 30
0.0
 10
-177.4990598776836
 20
5.000000000000004
 30
0.0
  0
SPLINE
  5
7E
330
1F
100
AcDbEntity
  8
0
  6
Continuous
 62
     7
370
    25
100
AcDbSpline
210
0.0
220
0.0
230
1.0
 70
     8
 71
     3
 72
    24
 73
    20
 74
     0
 42
0.000000001
 43
0.00000001
 40
0.0
 40
0.0
 40
0.0
 40
0.0
 40
0.0145673087364399
 40
0.0291375215028986
 40
0.0437114915731484
 40
0.0582751818526347
 40
0.072959278599738
 40
0.0879121232755598
 40
0.1149188986436096
 40
0.1443326349151244
 40
0.1779909298259258
 40
0.2171383198509372
 40
0.2756759209934322
 40
0.3465651885183488
 40
0.4302100529961307
 40
0.5268546725924104
 40
0.671360595625801
 40
0.8290131569145053
 40
1.0
 40
1.0
 40
1.0
 40
1.0
 10
-177.4990598776836
 20
5.000000000000004
 30
0.0
 10
-177.4991364763223
 20
5.000642721291512
 30
0.0
 10
-177.4992896888699
 20
5.001928292002661
 30
0.0
 10
-177.5000173603651
 20
5.012312240231298
 30
0.0
 10
-177.5025063354211
 20
5.028791866641042
 30
0.0
 10
-177.5012001933118
 20
5.05199716016623
 30
0.0
 10
-177.4899218311159
 20
5.081545426061512
 30
0.0
 10
-177.4670228699036
 20
5.126632023344651
 30
0.0
 10
-177.4112071008313
 20
5.193266561145271
 30
0.0
 10
-177.2985997512741
 20
5.276346518452671
 30
0.0
 10
-177.1437203288535
 20
5.360044710459588
 30
0.0
 10
-176.9239478017352
 20
5.449502324413228
 30
0.0
 10
-176.6264832705495
 20
5.54124723178584
 30
0.0
 10
-176.2411672600769
 20
5.634444800286853
 30
0.0
 10
-175.7805169527738
 20
5.721902905931206
 30
0.0
 10
-175.1802762271132
 20
5.811743744749146
 30
0.0
 10
-174.4393094363037
 20
5.894913966424623
 30
0.0
 10
-173.55727226356
 20
5.96340422597022
 30
0.0
 10
-172.9433536667795
 20
5.987475846388299
 30
0.0
 10
-172.6239397396065
 20
6.000000000000005
 30
0.0
  0
SPLINE
  5
7F
330
1F
100
AcDbEntity
  8
0
  6
Continuous
 62
     7
370
    25
100
AcDbSpline
210
0.0
220
0.0
230
1.0
 70
     8
 71
     3
 72
    33
 73
    29
 74
     0
 42
0.000000001
 43
0.00000001
 40
0.0
 40
0.0
 40
0.0
 40
0.0
 40
0.0275277570584546
 40
0.0575772693906332
 40
0.0901796506400369
 40
0.1253592416532827
 40
0.1954609368803806
 40
0.2507829423991518
 40
0.2919893115734745
 40
0.3241176255617596
 40
0.3502365144799476
 40
0.375689770780529
 40
0.3914124670842735
 40
0.4122674622825164
 40
0.438470502099467
 40
0.4720956443656106
 40
0.4929807325409868
 40
0.5011257935498874
 40
0.551240250864125
 40
0.6008519436832745
 40
0.6503128268019523
 40
0.6999780612763222
 40
0.7501984728031659
 40
0.8005527430296864
 40
0.8503734171314097
 40
0.8999957911220335
 40
0.9497591695000237
 40
1.0
 40
1.0
 40
1.0
 40
1.0
 10
-172.6239397396067
 20
6.000000000000005
 30
0.0
 10
-172.6911847842388
 20
5.974324456876873
 30
0.0
 10
-172.8318350392433
 20
5.920621292466787
 30
0.0
 10
-173.048045494174
 20
5.826400576418783
 30
0.0
 10
-173.2797888548786
 20
5.718100435372755
 30
0.0
 10
-173.6024463181944
 20
5.557256094099697
 30
0.0
 10
-173.9717374752994
 20
5.356938774691955
 30
0.0
 10
-174.3378272559958
 20
5.119217000984749
 30
0.0
 10
-174.5931217229133
 20
4.89798799713026
 30
0.0
 10
-174.7496831357545
 20
4.68589459132028
 30
0.0
 10
-174.8051717762274
 20
4.46542005951045
 30
0.0
 10
-174.7508052791376
 20
4.289472533752544
 30
0.0
 10
-174.6541097541777
 20
4.158759506135132
 30
0.0
 10
-174.5420877693239
 20
4.038412064143571
 30
0.0
 10
-174.3863010163983
 20
3.896052976476633
 30
0.0
 10
-174.2274159024902
 20
3.757195916629472
 30
0.0
 10
-174.1049287483725
 20
3.648417910955562
 30
0.0
 10
-173.9498675002914
 20
3.511395237973128
 30
0.0
 10
-173.750377790573
 20
3.311386256496434
 30
0.0
 10
-173.4966026897854
 20
3.014693924317538
 30
0.0
 10
-173.2701393891366
 20
2.697935945501273
 30
0.0
 10
-173.0703664173704
 20
2.361913840230962
 30
0.0
 10
-172.898447412323
 20
2.008234390115271
 30
0.0
 10
-172.755068212085
 20
1.641660273030199
 30
0.0
 10
-172.642221748187
 20
1.266121564475684
 30
0.0
 10
-172.5617595523518
 20
0.8840448254241878
 30
0.0
 10
-172.5108584405339
 20
0.4955015207168401
 30
0.0
 10
-172.5037324203303
 20
0.233991591143401
 30
0.0
 10
-172.5001523992772
 20
0.1026123602773099
 30
0.0
  0
SPLINE
  5
80
330
1F
100
AcDbEntity
  8
0
  6
Continuous
 62
     7
370
    25
100
AcDbSpline
210
0.0
220
0.0
230
1.0
 70
     8
 71
     3
 72
    33
 73
    29
 74
     0
 42
0.000000001
 43
0.00000001
 40
0.0
 40
0.0
 40
0.0
 40
0.0
 40
0.0279196423203265
 40
0.0556477320085928
 40
0.0832404144016761
 40
0.1107546637817725
 40
0.1382479420452768
 40
0.1657778424050377
 40
0.1934017290139426
 40
0.2211763836898286
 40
0.2491576704144816
 40
0.3312972033086662
 40
0.4137645874711802
 40
0.4981331556942437
 40
0.5160255079090119
 40
0.560919444825743
 40
0.5870110662207523
 40
0.6078146347351666
 40
0.6235319978959929
 40
0.6492506779498439
 40
0.6754331761057479
 40
0.7075381010121877
 40
0.7487334828456592
 40
0.8037224553447008
 40
0.8743842060809474
 40
0.9210143370573531
 40
0.9628650558908264
 40
1.0
 40
1.0
 40
1.0
 40
1.0
 10
172.5001538719035
 20
0.1025899497020949
 30
0.0
 10
172.5014186575631
 20
0.1755812344421542
 30
0.0
 10
172.5039395513707
 20
0.3210630212636401
 30
0.0
 10
172.5199990460068
 20
0.5381953115667221
 30
0.0
 10
172.5450677229034
 20
0.7533536857285139
 30
0.0
 10
172.5800100804667
 20
0.9665316298697046
 30
0.0
 10
172.6245950567533
 20
1.177727371501847
 30
0.0
 10
172.6788869179818
 20
1.386937646435868
 30
0.0
 10
172.7428550641222
 20
1.594160811410839
 30
0.0
 10
172.8165512914049
 20
1.799391245824081
 30
0.0
 10
172.953196248416
 20
2.133051992477583
 30
0.0
 10
173.1861313967461
 20
2.581593756050673
 30
0.0
 10
173.5668621741633
 20
3.111669337086301
 30
0.0
 10
173.8975857596854
 20
3.466184436807684
 30
0.0
 10
174.1859183096796
 20
3.720894512550893
 30
0.0
 10
174.3606459865175
 20
3.874020592614713
 30
0.0
 10
174.5380543345487
 20
4.035724959882775
 30
0.0
 10
174.6500347066581
 20
4.155494854981997
 30
0.0
 10
174.7478435355281
 20
4.285934504176914
 30
0.0
 10
174.8051337353392
 20
4.461791158384326
 30
0.0
 10
174.7522369404137
 20
4.683937460418536
 30
0.0
 10
174.5966216775961
 20
4.897008807823844
 30
0.0
 10
174.342457646796
 20
5.118086859942014
 30
0.0
 10
173.9754463786428
 20
5.355417994677078
 30
0.0
 10
173.579081855879
 20
5.56979277016853
 30
0.0
 10
173.2058518655885
 20
5.753648336947636
 30
0.0
 10
172.9070216854309
 20
5.890205376573906
 30
0.0
 10
172.7144683073035
 20
5.96488808224542
 30
0.0
 10
172.6239397396065
 20
6.000000000000005
 30
0.0
  0
SPLINE
  5
81
330
1F
100
AcDbEntity
  8
0
  6
Continuous
 62
     7
370
    25
100
AcDbSpline
210
0.0
220
0.0
230
1.0
 70
     8
 71
     3
 72
    22
 73
    18
 74
     0
 42
0.000000001
 43
0.00000001
 40
0.0
 40
0.0
 40
0.0
 40
0.0
 40
0.103894717490476
 40
0.2030183895154599
 40
0.2974055266308527
 40
0.3870960982068054
 40
0.4721366845199719
 40
0.5686036049083849
 40
0.6521872675867937
 40
0.7231274678060998
 40
0.7818191230830864
 40
0.833306915372927
 40
0.8755088477289654
 40
0.9121121699369499
 40
0.9342549958134271
 40
0.9634656359182998
 40
1.0
 40
1.0
 40
1.0
 40
1.0
 10
172.6239397396065
 20
6.000000000000005
 30
0.0
 10
172.8179519095124
 20
5.992950502467245
 30
0.0
 10
173.1970668369323
 20
5.979175233901513
 30
0.0
 10
173.7518937297848
 20
5.946813688335384
 30
0.0
 10
174.2795538088604
 20
5.906365081501358
 30
0.0
 10
174.7800285522495
 20
5.857188332260025
 30
0.0
 10
175.283045949584
 20
5.796233210245916
 30
0.0
 10
175.7727937974285
 20
5.72320085492653
 30
0.0
 10
176.2329730074078
 20
5.636184997867277
 30
0.0
 10
176.6185551248676
 20
5.54333795330958
 30
0.0
 10
176.9382086881241
 20
5.445470152213431
 30
0.0
 10
177.1921657826822
 20
5.339485485345172
 30
0.0
 10
177.3786544832737
 20
5.224982748665924
 30
0.0
 10
177.4707102673923
 20
5.127702682742763
 30
0.0
 10
177.4961147178738
 20
5.059633837434532
 30
0.0
 10
177.5047718897212
 20
5.011200682032105
 30
0.0
 10
177.5011002180861
 20
5.00400090264784
 30
0.0
 10
177.4990598776835
 20
5.000000000000004
 30
0.0
  0
SPLINE
  5
82
330
1F
100
AcDbEntity
  8
0
  6
Continuous
 62
     7
370
    25
100
AcDbSpline
210
0.0
220
0.0
230
1.0
 70
     8
 71
     3
 72
    14
 73
    10
 74
     0
 42
0.000000001
 43
0.00000001
 40
0.0
 40
0.0
 40
0.0
 40
0.0
 40
0.25
 40
0.25
 40
0.5
 40
0.5
 40
0.75
 40
0.75
 40
1.0
 40
1.0
 40
1.0
 40
1.0
 10
172.499843312947
 20
0.0885084112661055
 30
0.0
 10
172.5113004419395
 20
0.735640906633861
 30
0.0
 10
172.6499142077693
 20
1.380055669504457
 30
0.0
 10
173.1610317214849
 20
2.56910083395065
 30
0.0
 10
173.5333412740872
 20
3.113172551604482
 30
0.0
 10
174.4565750105369
 20
4.020205618145201
 30
0.0
 10
175.0071519845982
 20
4.382825849991557
 30
0.0
 10
176.2050584808826
 20
4.872815178524434
 30
0.0
 10
176.8518259691436
 20
5.000000000000004
 30
0.0
 10
177.4990598776835
 20
5.000000000000004
 30
0.0
  0
SPLINE
  5
9F
330
1F
100
AcDbEntity
  8
0
  6
Continuous
 62
     7
370
    25
100
AcDbSpline
210
0.0
220
0.0
230
1.0
 70
    24
 71
     3
 72
    14
 73
    10
 74
     0
 42
0.000000001
 43
0.00000001
 40
0.0
 40
0.0
 40
0.0
 40
0.0
 40
0.25
 40
0.25
 40
0.5
 40
0.5
 40
0.75
 40
0.75
 40
1.0
 40
1.0
 40
1.0
 40
1.0
 10
202.2847443432475
 20
0.0
 30
0.0
 10
202.2847443432474
 20
0.0
 30
0.0
 10
202.2632361281728
 20
0.0
 30
0.0
 10
202.1656364509591
 20
0.0
 30
0.0
 10
202.0892142301476
 20
0.0
 30
0.0
 10
201.8936841170477
 20
0.0
 30
0.0
 10
201.7752377421044
 20
0.0
 30
0.0
 10
201.5287059781223
 20
0.0
 30
0.0
 10
201.4013848599747
 20
0.0
 30
0.0
 10
201.28337199725
 20
0.0
 30
0.0
  0
SPLINE
  5
A1
330
1F
100
AcDbEntity
  8
0
  6
Continuous
 62
     7
370
    25
100
AcDbSpline
210
0.0
220
0.0
230
1.0
 70
     8
 71
     3
 72
    27
 73
    23
 74
     0
 42
0.000000001
 43
0.00000001
 40
0.0
 40
0.0
 40
0.0
 40
0.0
 40
0.0463201251548618
 40
0.0910109910121557
 40
0.134072528905386
 40
0.1755046733542361
 40
0.2153073621502485
 40
0.2534805364607458
 40
0.2900241409559015
 40
0.3249381239654509
 40
0.358222437673772
 40
0.389877038365117
 40
0.4199018867353795
 40
0.4482969482933812
 40
0.4750621938842136
 40
0.5001976003823336
 40
0.5873011718396799
 40
0.6728826212142412
 40
0.7569425558242453
 40
0.8394816254801243
 40
0.9205005254983933
 40
1.0
 40
1.0
 40
1.0
 40
1.0
 10
201.2833719972499
 20
0.9999999999999731
 30
0.0
 10
201.331859883536
 20
1.001272702454176
 30
0.0
 10
201.4271301482045
 20
1.003773341457889
 30
0.0
 10
201.5667450597645
 20
1.007471847090449
 30
0.0
 10
201.6999414414733
 20
1.01100738773402
 30
0.0
 10
201.8262929452901
 20
1.01436103583992
 30
0.0
 10
201.9455054447514
 20
1.017516501175653
 30
0.0
 10
202.0574031052489
 20
1.020464777819099
 30
0.0
 10
202.1619148794424
 20
1.023202073935053
 30
0.0
 10
202.2590609973441
 20
1.025729453338814
 30
0.0
 10
202.348939909945
 20
1.028052040870211
 30
0.0
 10
202.4317156158084
 20
1.030178460271119
 30
0.0
 10
202.5076062221075
 20
1.032119947665513
 30
0.0
 10
202.5768713933609
 20
1.033890660616987
 30
0.0
 10
202.6398071327681
 20
1.035504085992789
 30
0.0
 10
202.7447192574762
 20
1.038230262286208
 30
0.0
 10
202.8812835710683
 20
1.041835071208946
 30
0.0
 10
203.0292456298551
 20
1.045737779918399
 30
0.0
 10
203.1440744446797
 20
1.048756599877965
 30
0.0
 10
203.2246293243175
 20
1.050849674585241
 30
0.0
 10
203.2742805027194
 20
1.052112549057543
 30
0.0
 10
203.2803619413511
 20
1.052261958605222
 30
0.0
 10
203.2833738780024
 20
1.052335956242947
 30
0.0
  0
SPLINE
  5
A4
330
1F
100
AcDbEntity
  8
0
  6
Continuous
 62
     7
370
    25
100
AcDbSpline
210
0.0
220
0.0
230
1.0
 70
    24
 71
     3
 72
    14
 73
    10
 74
     0
 42
0.000000001
 43
0.00000001
 40
0.0
 40
0.0
 40
0.0
 40
0.0
 40
0.25
 40
0.25
 40
0.5
 40
0.5
 40
0.75
 40
0.75
 40
1.0
 40
1.0
 40
1.0
 40
1.0
 10
-201.28337199725
 20
0.0
 30
0.0
 10
-201.4013848599745
 20
0.0
 30
0.0
 10
-201.5287059781222
 20
0.0
 30
0.0
 10
-201.7752377421043
 20
0.0
 30
0.0
 10
-201.8936841170476
 20
0.0
 30
0.0
 10
-202.0892142301475
 20
0.0
 30
0.0
 10
-202.1656364509592
 20
0.0
 30
0.0
 10
-202.2632361281729
 20
0.0
 30
0.0
 10
-202.2847443432476
 20
0.0
 30
0.0
 10
-202.2847443432475
 20
0.0
 30
0.0
  0
SPLINE
  5
A7
330
1F
100
AcDbEntity
  8
0
  6
Continuous
 62
     7
370
    25
100
AcDbSpline
210
0.0
220
0.0
230
1.0
 70
     8
 71
     3
 72
    25
 73
    21
 74
     0
 42
0.000000001
 43
0.00000001
 40
0.0
 40
0.0
 40
0.0
 40
0.0
 40
0.0431910275260453
 40
0.0868350260906717
 40
0.1309321350764241
 40
0.1754824893871991
 40
0.2204862196251681
 40
0.2659434522589053
 40
0.3118543097834219
 40
0.3582189108724468
 40
0.4050373705234026
 40
0.452309800195565
 40
0.5000363079416728
 40
0.5519196210930781
 40
0.6103189585269437
 40
0.6752329193677815
 40
0.746659897104842
 40
0.8245980913874729
 40
0.9090455152906745
 40
1.0
 40
1.0
 40
1.0
 40
1.0
 10
-203.2833738780024
 20
1.052335956242947
 30
0.0
 10
-203.2824869882362
 20
1.05231419869084
 30
0.0
 10
-203.2807039073418
 20
1.052270455401696
 30
0.0
 10
-203.2661888144476
 20
1.051906897450147
 30
0.0
 10
-203.2427403967065
 20
1.051310439886849
 30
0.0
 10
-203.2093243534293
 20
1.050450748317666
 30
0.0
 10
-203.1660470811057
 20
1.049326899447991
 30
0.0
 10
-203.1127741712822
 20
1.047933635648021
 30
0.0
 10
-203.0495114909502
 20
1.046270713898595
 30
0.0
 10
-202.9763063640321
 20
1.044341012514716
 30
0.0
 10
-202.8932792646938
 20
1.042149799962769
 30
0.0
 10
-202.8006185890326
 20
1.039710785880513
 30
0.0
 10
-202.6959504401392
 20
1.036953851918876
 30
0.0
 10
-202.5741930495617
 20
1.033816953170508
 30
0.0
 10
-202.4288944504402
 20
1.030111302559158
 30
0.0
 10
-202.2560232156896
 20
1.025658965165738
 30
0.0
 10
-202.054052044246
 20
1.020385134497801
 30
0.0
 10
-201.8225075869158
 20
1.014266768556843
 30
0.0
 10
-201.5623844052649
 20
1.00734462556662
 30
0.0
 10
-201.3786482152601
 20
1.002508018018502
 30
0.0
 10
-201.2833719972499
 20
1.000000000000001
 30
0.0
  0
LWPOLYLINE
  5
C4
330
1F
100
AcDbEntity
  8
0
  6
Continuous
 62
     7
370
    25
100
AcDbPolyline
 90
        9
 70
   128
 43
0.0
 10
-30.0
 20
-122.3412044417
 10
-29.903926402
 20
-122.5105898362
 10
-29.6193976626
 20
-122.6734658449
 10
-29.1573480615
 20
-122.8235732343
 10
-28.5355339059
 20
-122.9551434615
 10
-27.7778511651
 20
-123.0631203565
 10
-26.9134171618
 20
-123.1433544277
 10
-25.9754516101
 20
-123.1927623248
 10
-25.0
 20
-123.20944533
  0
LWPOLYLINE
  5
C5
330
1F
100
AcDbEntity
  8
0
  6
Continuous
 62
     7
370
    25
100
AcDbPolyline
 90
        9
 70
   128
 43
0.0
 10
25.0
 20
-123.20944533
 10
25.9754516101
 20
-123.1927623248
 10
26.9134171618
 20
-123.1433544277
 10
27.7778511651
 20
-123.0631203565
 10
28.5355339059
 20
-122.9551434615
 10
29.1573480615
 20
-122.8235732343
 10
29.6193976626
 20
-122.6734658449
 10
29.903926402
 20
-122.5105898362
 10
30.0
 20
-122.3412044417
  0
LWPOLYLINE
  5
C7
330
1F
100
AcDbEntity
  8
0
  6
Continuous
 62
     7
370
    25
100
AcDbPolyline
 90
        9
 70
   128
 43
0.0
 10
-35.0
 20
-101.4729635533
 10
-34.0245483899
 20
-101.4896465586
 10
-33.0865828382
 20
-101.5390544557
 10
-32.2221488349
 20
-101.6192885269
 10
-31.4644660941
 20
-101.7272654218
 10
-30.8426519385
 20
-101.858835649
 10
-30.3806023374
 20
-102.0089430384
 10
-30.096073598
 20
-102.1718190472
 10
-30.0
 20
-102.3412044417
  0
LWPOLYLINE
  5
CF
330
1F
100
AcDbEntity
  8
0
  6
Continuous
 62
     7
370
    25
100
AcDbPolyline
 90
        9
 70
   128
 43
0.0
 10
35.0
 20
-101.4729635533
 10
34.0245483899
 20
-101.4896465586
 10
33.0865828382
 20
-101.5390544557
 10
32.2221488349
 20
-101.6192885269
 10
31.4644660941
 20
-101.7272654218
 10
30.8426519385
 20
-101.858835649
 10
30.3806023374
 20
-102.0089430384
 10
30.096073598
 20
-102.1718190472
 10
30.0
 20
-102.3412044417
  0
LWPOLYLINE
  5
D0
330
1F
100
AcDbEntity
  8
0
  6
Continuous
 62
     7
370
    25
100
AcDbPolyline
 90
        3
 70
   128
 43
0.0
 10
101.9352075323
 20
-118.2207311183
 10
101.5822156578
 20
-118.1519224699
 10
99.8457338811
 20
-118.0
  0
LWPOLYLINE
  5
D1
330
1F
100
AcDbEntity
  8
0
  6
Continuous
 62
     7
370
    25
100
AcDbPolyline
 90
        3
 70
   128
 43
0.0
 10
-101.9352075323
 20
-118.2207311183
 10
-101.5822156578
 20
-118.1519224699
 10
-99.8457338811
 20
-118.0
  0
LWPOLYLINE
  5
DA
330
1F
100
AcDbEntity
  8
0
  6
Continuous
 62
     7
370
    25
100
AcDbPolyline
 90
        9
 70
   128
 43
0.0
 10
-24.375
 20
-149.0
 10
-24.3870091997
 20
-148.804909678
 10
-24.4225752922
 20
-148.6173165676
 10
-24.4803314923
 20
-148.444429767
 10
-24.5580582618
 20
-148.2928932188
 10
-24.6527686044
 20
-148.1685303877
 10
-24.7608228548
 20
-148.0761204675
 10
-24.8780685487
 20
-148.0192147196
 10
-25.0
 20
-148.0
  0
LWPOLYLINE
  5
DB
330
1F
100
AcDbEntity
  8
0
  6
Continuous
 62
     7
370
    25
100
AcDbPolyline
 90
        9
 70
   128
 43
0.0
 10
24.375
 20
-149.0
 10
24.3870091997
 20
-148.804909678
 10
24.4225752922
 20
-148.6173165676
 10
24.4803314923
 20
-148.444429767
 10
24.5580582618
 20
-148.2928932188
 10
24.6527686044
 20
-148.1685303877
 10
24.7608228548
 20
-148.0761204675
 10
24.8780685487
 20
-148.0192147196
 10
25.0
 20
-148.0
  0
SPLINE
  5
DC
330
1F
100
AcDbEntity
  8
0
  6
Continuous
 62
     7
370
    25
100
AcDbSpline
210
0.0
220
0.0
230
1.0
 70
     8
 71
     3
 72
    28
 73
    24
 74
     0
 42
0.000000001
 43
0.00000001
 40
0.0
 40
0.0
 40
0.0
 40
0.0
 40
0.0177557096442489
 40
0.0355084065871898
 40
0.0533036975759021
 40
0.0711868634765878
 40
0.0892025225597661
 40
0.1073943182285318
 40
0.1258046412689743
 40
0.1870277039679184
 40
0.2511031241135985
 40
0.3123244631147006
 40
0.3762959608702606
 40
0.5014859593592216
 40
0.5629672089329859
 40
0.6255245045663939
 40
0.6878001702500655
 40
0.7503994560848141
 40
0.8011438458034839
 40
0.8513202481481579
 40
0.9010827187878878
 40
0.9505891777974335
 40
1.0
 40
1.0
 40
1.0
 40
1.0
 10
30.22500000000003
 20
-143.0
 30
0.0
 10
30.22438982153334
 20
-143.06614026412
 30
0.0
 10
30.22316956813206
 20
-143.198409570006
 30
0.0
 10
30.21327006924428
 20
-143.3964562129945
 30
0.0
 10
30.19745056311174
 20
-143.5939544388048
 30
0.0
 10
30.17511815978247
 20
-143.7909012519619
 30
0.0
 10
30.14641004469364
 20
-143.9872912766809
 30
0.0
 10
30.11125359437246
 20
-144.1831296690132
 30
0.0
 10
30.03761653683495
 20
-144.5287092967832
 30
0.0
 10
29.89652633248593
 20
-145.0186765321132
 30
0.0
 10
29.65573808403443
 20
-145.6070307007992
 30
0.0
 10
29.36353214160014
 20
-146.153891387086
 30
0.0
 10
28.92298859834579
 20
-146.8098145400103
 30
0.0
 10
28.41240583310277
 20
-147.3694727951169
 30
0.0
 10
27.85403826688135
 20
-147.8341040438587
 30
0.0
 10
27.41302769312133
 20
-148.1370239892561
 30
0.0
 10
26.94820960112028
 20
-148.3975942034057
 30
0.0
 10
26.49441623452617
 20
-148.599461784533
 30
0.0
 10
26.05828710888251
 20
-148.7521073542677
 30
0.0
 10
25.64612314578303
 20
-148.8630079787611
 30
0.0
 10
25.2281584207848
 20
-148.9416235720931
 30
0.0
 10
24.80491666284746
 20
-148.9908773617773
 30
0.0
 10
24.5182131558407
 20
-148.9969610812458
 30
0.0
 10
24.37500000000005
 20
-149.0
 30
0.0
  0
SPLINE
  5
E0
330
1F
100
AcDbEntity
  8
0
  6
Continuous
 62
     7
370
    25
100
AcDbSpline
210
0.0
220
0.0
230
1.0
 70
     8
 71
     3
 72
    26
 73
    22
 74
     0
 42
0.000000001
 43
0.00000001
 40
0.0
 40
0.0
 40
0.0
 40
0.0
 40
0.0248036387746245
 40
0.0496936658310942
 40
0.0746910880135786
 40
0.0998166427965747
 40
0.1250907522571023
 40
0.1875521129605945
 40
0.2503066931000248
 40
0.3126824136370187
 40
0.3747431369051772
 40
0.4992051536638644
 40
0.624172816803255
 40
0.6881555547439085
 40
0.7493938008578712
 40
0.8135602376160698
 40
0.874882637249213
 40
0.9067710063948866
 40
0.9380981572215173
 40
0.9690950374112398
 40
1.0
 40
1.0
 40
1.0
 40
1.0
 10
-24.375
 20
-149.0
 30
0.0
 10
-24.44699284295626
 20
-148.9992160184958
 30
0.0
 10
-24.59122927183696
 20
-148.9976453249682
 30
0.0
 10
-24.80625730002444
 20
-148.98498205331
 30
0.0
 10
-25.0206704960846
 20
-148.9647817933595
 30
0.0
 10
-25.23433787803161
 20
-148.9362967300311
 30
0.0
 10
-25.55118156012987
 20
-148.8818849818924
 30
0.0
 10
-25.96632896413089
 20
-148.7823860573509
 30
0.0
 10
-26.4681968437478
 20
-148.6114343279581
 30
0.0
 10
-26.95164163938502
 20
-148.3957745611002
 30
0.0
 10
-27.56862364085537
 20
-148.0495797190744
 30
0.0
 10
-28.28868826286057
 20
-147.5059543592355
 30
0.0
 10
-28.92616819352551
 20
-146.8057105180729
 30
0.0
 10
-29.36599011931813
 20
-146.1498212099625
 30
0.0
 10
-29.65798058942542
 20
-145.602293796085
 30
0.0
 10
-29.89858469825586
 20
-145.0128957977895
 30
0.0
 10
-30.05247681807483
 20
-144.47610036975
 30
0.0
 10
-30.14103987744291
 20
-144.0331949410114
 30
0.0
 10
-30.1892873263904
 20
-143.6903404953927
 30
0.0
 10
-30.21943784514376
 20
-143.3457427099841
 30
0.0
 10
-30.22314778466874
 20
-143.1151334266395
 30
0.0
 10
-30.22499999999999
 20
-143.0
 30
0.0
  0
SPLINE
  5
104
330
1F
100
AcDbEntity
  8
0
  6
Continuous
 62
     8
370
    25
100
AcDbSpline
210
0.0
220
0.0
230
1.0
 70
     8
 71
     3
 72
    11
 73
     7
 74
     0
 42
0.000000001
 43
0.00000001
 40
0.0
 40
0.0
 40
0.0
 40
0.0
 40
0.3257846869410918
 40
0.6553565136434284
 40
0.9998945191898037
 40
1.0
 40
1.0
 40
1.0
 40
1.0
 10
99.8457338811425
 20
-118.0
 30
0.0
 10
99.83198316858295
 20
-117.9484420725431
 30
0.0
 10
99.8043218959561
 20
-117.8447268736917
 30
0.0
 10
99.55456474408746
 20
-116.8981094961651
 30
0.0
 10
99.33575208938619
 20
-116.0733774915405
 30
0.0
 10
99.1591115677007
 20
-115.4051502989919
 30
0.0
 10
99.15905750549997
 20
-115.4049457828804
 30
0.0
  0
SPLINE
  5
105
330
1F
100
AcDbEntity
  8
0
  6
Continuous
 62
     8
370
    25
100
AcDbSpline
210
0.0
220
0.0
230
1.0
 70
     8
 71
     3
 72
    11
 73
     7
 74
     0
 42
0.000000001
 43
0.00000001
 40
0.0
 40
0.0
 40
0.0
 40
0.0
 40
0.0032649757271973
 40
0.3467171492950658
 40
0.6752440631769987
 40
1.0
 40
1.0
 40
1.0
 40
1.0
 10
-99.15417785228827
 20
-115.3864863116897
 30
0.0
 10
-99.15585843546135
 20
-115.3928439658007
 30
0.0
 10
-99.33432438915078
 20
-116.0679815146711
 30
0.0
 10
-99.55473586502735
 20
-116.8987626801486
 30
0.0
 10
-99.80428114293126
 20
-117.8445658521435
 30
0.0
 10
-99.83196957751437
 20
-117.9483883840343
 30
0.0
 10
-99.8457338811426
 20
-118.0
 30
0.0
  0
LINE
  5
112
330
1F
100
AcDbEntity
  8
0
  6
Continuous
 62
     7
370
    25
100
AcDbLine
 10
-172.6964245474
 20
1.3909355539
 30
0.0
 11
-172.4998433129
 21
0.0885084113
 31
0.0
  0
LINE
  5
113
330
1F
100
AcDbEntity
  8
0
  6
Continuous
 62
     7
370
    25
100
AcDbLine
 10
172.4998433129
 20
0.0885084113
 30
0.0
 11
172.6964251403
 21
1.3909376011
 31
0.0
  0
LINE
  5
114
330
1F
100
AcDbEntity
  8
0
  6
Continuous
 62
     7
370
    25
100
AcDbLine
 10
39.0
 20
-152.0
 30
0.0
 11
39.0
 21
-123.0
 31
0.0
  0
LINE
  5
115
330
1F
100
AcDbEntity
  8
0
  6
Continuous
 62
     7
370
    25
100
AcDbLine
 10
-39.0
 20
-123.0
 30
0.0
 11
-39.0
 21
-152.0
 31
0.0
  0
LINE
  5
116
330
1F
100
AcDbEntity
  8
0
  6
Continuous
 62
     7
370
    25
100
AcDbLine
 10
-185.3385244685
 20
0.0
 30
0.0
 11
-185.3385244685
 21
6.0
 31
0.0
  0
LINE
  5
117
330
1F
100
AcDbEntity
  8
0
  6
Continuous
 62
     7
370
    25
100
AcDbLine
 10
-185.3385244685
 20
6.0
 30
0.0
 11
-172.6239397396
 21
6.0
 31
0.0
  0
LINE
  5
118
330
1F
100
AcDbEntity
  8
0
  6
Continuous
 62
     7
370
    25
100
AcDbLine
 10
-177.499059053
 20
5.0
 30
0.0
 11
-185.3385244685
 21
5.0
 31
0.0
  0
LINE
  5
119
330
1F
100
AcDbEntity
  8
0
  6
Continuous
 62
     7
370
    25
100
AcDbLine
 10
-188.3385244685
 20
2.0
 30
0.0
 11
-188.3385244685
 21
3.0
 31
0.0
  0
LINE
  5
11A
330
1F
100
AcDbEntity
  8
0
  6
Continuous
 62
     7
370
    25
100
AcDbLine
 10
-201.2833719973
 20
1.0
 30
0.0
 11
-189.3385244685
 21
1.0
 31
0.0
  0
LINE
  5
11B
330
1F
100
AcDbEntity
  8
0
  6
Continuous
 62
     7
370
    25
100
AcDbLine
 10
-200.7510657707
 20
11.1570078687
 30
0.0
 11
-201.2833719973
 21
1.0
 31
0.0
  0
LINE
  5
11C
330
1F
100
AcDbEntity
  8
0
  6
Continuous
 62
     7
370
    25
100
AcDbLine
 10
197.7551771664
 20
14.0
 30
0.0
 11
-197.7551771664
 21
14.0
 31
0.0
  0
LINE
  5
11D
330
1F
100
AcDbEntity
  8
0
  6
Continuous
 62
     7
370
    25
100
AcDbLine
 10
201.2833719973
 20
1.0
 30
0.0
 11
200.7510657707
 21
11.1570078687
 31
0.0
  0
LINE
  5
11E
330
1F
100
AcDbEntity
  8
0
  6
Continuous
 62
     7
370
    25
100
AcDbLine
 10
189.3385244685
 20
1.0
 30
0.0
 11
201.2833719973
 21
1.0
 31
0.0
  0
LINE
  5
11F
330
1F
100
AcDbEntity
  8
0
  6
Continuous
 62
     7
370
    25
100
AcDbLine
 10
188.3385244685
 20
3.0
 30
0.0
 11
188.3385244685
 21
2.0
 31
0.0
  0
LINE
  5
120
330
1F
100
AcDbEntity
  8
0
  6
Continuous
 62
     7
370
    25
100
AcDbLine
 10
172.6239397396
 20
6.0
 30
0.0
 11
185.3385244685
 21
6.0
 31
0.0
  0
LINE
  5
121
330
1F
100
AcDbEntity
  8
0
  6
Continuous
 62
     7
370
    25
100
AcDbLine
 10
172.4776904963
 20
-0.103840599
 30
0.0
 11
145.339431343
 21
-126.4201013851
 31
0.0
  0
LINE
  5
122
330
1F
100
AcDbEntity
  8
0
  6
Continuous
 62
     7
370
    25
100
AcDbLine
 10
143.3840503504
 20
-128.0
 30
0.0
 11
39.0
 21
-128.0
 31
0.0
  0
LINE
  5
123
330
1F
100
AcDbEntity
  8
0
  6
Continuous
 62
     7
370
    25
100
AcDbLine
 10
-39.0
 20
-128.0
 30
0.0
 11
-143.3840503504
 21
-128.0
 31
0.0
  0
LINE
  5
124
330
1F
100
AcDbEntity
  8
0
  6
Continuous
 62
     7
370
    25
100
AcDbLine
 10
-145.339431343
 20
-126.4201013851
 30
0.0
 11
-172.4776904963
 21
-0.103840599
 31
0.0
  0
LINE
  5
125
330
1F
100
AcDbEntity
  8
0
  6
Continuous
 62
     7
370
    25
100
AcDbLine
 10
185.3385244685
 20
0.0
 30
0.0
 11
185.3385244685
 21
6.0
 31
0.0
  0
LINE
  5
126
330
1F
100
AcDbEntity
  8
0
  6
Continuous
 62
     7
370
    25
100
AcDbLine
 10
185.3385244685
 20
5.0
 30
0.0
 11
177.4990592874
 21
5.0
 31
0.0
  0
LINE
  5
127
330
1F
100
AcDbEntity
  8
0
  6
Continuous
 62
     7
370
    25
100
AcDbLine
 10
201.2833719973
 20
0.0
 30
0.0
 11
201.2833719973
 21
1.0
 31
0.0
  0
LINE
  5
128
330
1F
100
AcDbEntity
  8
0
  6
Continuous
 62
     7
370
    25
100
AcDbLine
 10
-201.2833719973
 20
0.0
 30
0.0
 11
-201.2833719973
 21
1.0
 31
0.0
  0
LINE
  5
129
330
1F
100
AcDbEntity
  8
0
  6
Continuous
 62
     7
370
    25
100
AcDbLine
 10
201.2833719973
 20
0.0
 30
0.0
 11
172.4943437112
 21
0.0
 31
0.0
  0
LINE
  5
12A
330
1F
100
AcDbEntity
  8
0
  6
Continuous
 62
     7
370
    25
100
AcDbLine
 10
189.3385244685
 20
0.0
 30
0.0
 11
189.3385244685
 21
1.0
 31
0.0
  0
LINE
  5
12B
330
1F
100
AcDbEntity
  8
0
  6
Continuous
 62
     7
370
    25
100
AcDbLine
 10
-172.4943437112
 20
0.0
 30
0.0
 11
-201.2833719973
 21
0.0
 31
0.0
  0
LINE
  5
12C
330
1F
100
AcDbEntity
  8
0
  6
Continuous
 62
     7
370
    25
100
AcDbLine
 10
-189.3385244685
 20
0.0
 30
0.0
 11
-189.3385244685
 21
1.0
 31
0.0
  0
LINE
  5
12D
330
1F
100
AcDbEntity
  8
0
  6
Continuous
 62
     7
370
    25
100
AcDbLine
 10
-200.7510657707
 20
11.1570078687
 30
0.0
 11
-202.7483248402
 21
11.2616797812
 31
0.0
  0
LINE
  5
12E
330
1F
100
AcDbEntity
  8
0
  6
Continuous
 62
     7
370
    25
100
AcDbLine
 10
-203.283373878
 20
1.0523359562
 30
0.0
 11
-202.7483248402
 21
11.2616797812
 31
0.0
  0
LINE
  5
12F
330
1F
100
AcDbEntity
  8
0
  6
Continuous
 62
     7
370
    25
100
AcDbLine
 10
200.7510657707
 20
11.1570078687
 30
0.0
 11
202.7483248402
 21
11.2616797812
 31
0.0
  0
LINE
  5
130
330
1F
100
AcDbEntity
  8
0
  6
Continuous
 62
     7
370
    25
100
AcDbLine
 10
202.7483248402
 20
11.2616797812
 30
0.0
 11
203.283373878
 21
1.0523359562
 31
0.0
  0
LINE
  5
131
330
1F
100
AcDbEntity
  8
0
  6
Continuous
 62
     7
370
    25
100
AcDbLine
 10
-187.3385244685
 20
3.0
 30
0.0
 11
-187.3385244685
 21
2.0
 31
0.0
  0
LINE
  5
132
330
1F
100
AcDbEntity
  8
0
  6
Continuous
 62
     7
370
    25
100
AcDbLine
 10
-188.3385244685
 20
2.0
 30
0.0
 11
-172.9269883448
 21
2.0
 31
0.0
  0
LINE
  5
133
330
1F
100
AcDbEntity
  8
0
  6
Continuous
 62
     7
370
    25
100
AcDbLine
 10
-173.5250115328
 20
3.0
 30
0.0
 11
-188.3385244685
 21
3.0
 31
0.0
  0
LINE
  5
134
330
1F
100
AcDbEntity
  8
0
  6
Continuous
 62
     7
370
    25
100
AcDbLine
 10
188.3385244685
 20
3.0
 30
0.0
 11
173.6071714723
 21
3.0
 31
0.0
  0
LINE
  5
135
330
1F
100
AcDbEntity
  8
0
  6
Continuous
 62
     7
370
    25
100
AcDbLine
 10
-197.7551771664
 20
14.0
 30
0.0
 11
-197.7551771664
 21
16.0
 31
0.0
  0
LINE
  5
136
330
1F
100
AcDbEntity
  8
0
  6
Continuous
 62
     7
370
    25
100
AcDbLine
 10
-197.7551771664
 20
16.0
 30
0.0
 11
197.7551771664
 21
16.0
 31
0.0
  0
LINE
  5
137
330
1F
100
AcDbEntity
  8
0
  6
Continuous
 62
     7
370
    25
100
AcDbLine
 10
197.7551771664
 20
14.0
 30
0.0
 11
197.7551771664
 21
16.0
 31
0.0
  0
LINE
  5
138
330
1F
100
AcDbEntity
  8
0
  6
Continuous
 62
     7
370
    25
100
AcDbLine
 10
187.3385244685
 20
2.0
 30
0.0
 11
187.3385244685
 21
3.0
 31
0.0
  0
LINE
  5
139
330
1F
100
AcDbEntity
  8
0
  6
Continuous
 62
     7
370
    25
100
AcDbLine
 10
172.9228691266
 20
2.0
 30
0.0
 11
188.3385244685
 21
2.0
 31
0.0
  0
LINE
  5
13A
330
1F
100
AcDbEntity
  8
0
  6
Continuous
 62
     7
370
    25
100
AcDbLine
 10
-25.0
 20
-123.20944533
 30
0.0
 11
25.0
 21
-123.20944533
 31
0.0
  0
LINE
  5
13B
330
1F
100
AcDbEntity
  8
0
  6
Continuous
 62
     7
370
    25
100
AcDbLine
 10
-30.0
 20
-143.0
 30
0.0
 11
-30.0
 21
-76.3126309968
 31
0.0
  0
LINE
  5
13C
330
1F
100
AcDbEntity
  8
0
  6
Continuous
 62
     7
370
    25
100
AcDbLine
 10
30.0
 20
-76.3126309968
 30
0.0
 11
30.0
 21
-143.0
 31
0.0
  0
LINE
  5
13D
330
1F
100
AcDbEntity
  8
0
  6
Continuous
 62
     7
370
    25
100
AcDbLine
 10
25.0
 20
-148.0
 30
0.0
 11
25.0
 21
-75.2918271701
 31
0.0
  0
LINE
  5
13E
330
1F
100
AcDbEntity
  8
0
  6
Continuous
 62
     7
370
    25
100
AcDbLine
 10
-25.0
 20
-75.2918271701
 30
0.0
 11
-25.0
 21
-148.0
 31
0.0
  0
LINE
  5
13F
330
1F
100
AcDbEntity
  8
0
  6
Continuous
 62
     7
370
    25
100
AcDbLine
 10
25.0
 20
-148.0
 30
0.0
 11
-25.0
 21
-148.0
 31
0.0
  0
LINE
  5
140
330
1F
100
AcDbEntity
  8
0
  6
Continuous
 62
     7
370
    25
100
AcDbLine
 10
35.0
 20
-77.5291385303
 30
0.0
 11
35.0
 21
-118.0
 31
0.0
  0
LINE
  5
141
330
1F
100
AcDbEntity
  8
0
  6
Continuous
 62
     7
370
    25
100
AcDbLine
 10
-35.0
 20
-118.0
 30
0.0
 11
-35.0
 21
-77.5291385303
 31
0.0
  0
LINE
  5
142
330
1F
100
AcDbEntity
  8
0
  6
Continuous
 62
     7
370
    25
100
AcDbLine
 10
-35.0
 20
-118.0
 30
0.0
 11
-99.8457338811
 21
-118.0
 31
0.0
  0
LINE
  5
143
330
1F
100
AcDbEntity
  8
0
  6
Continuous
 62
     7
370
    25
100
AcDbLine
 10
99.8457338811
 20
-118.0
 30
0.0
 11
35.0
 21
-118.0
 31
0.0
  0
LINE
  5
144
330
1F
100
AcDbEntity
  8
0
  6
Continuous
 62
     7
370
    25
100
AcDbLine
 10
24.375
 20
-149.0
 30
0.0
 11
-24.375
 21
-149.0
 31
0.0
  0
LINE
  5
145
330
1F
100
AcDbEntity
  8
0
  6
Continuous
 62
     7
370
    25
100
AcDbLine
 10
30.225
 20
-123.0
 30
0.0
 11
30.225
 21
-143.0
 31
0.0
  0
LINE
  5
146
330
1F
100
AcDbEntity
  8
0
  6
Continuous
 62
     7
370
    25
100
AcDbLine
 10
0.0
 20
-149.0
 30
0.0
 11
0.0
 21
-153.0
 31
0.0
  0
LINE
  5
147
330
1F
100
AcDbEntity
  8
0
  6
Continuous
 62
     7
370
    25
100
AcDbLine
 10
-30.225
 20
-143.0
 30
0.0
 11
-30.225
 21
-123.0
 31
0.0
  0
LINE
  5
148
330
1F
100
AcDbEntity
  8
0
  6
Continuous
 62
     7
370
    25
100
AcDbLine
 10
38.0
 20
-153.0
 30
0.0
 11
-38.0
 21
-153.0
 31
0.0
  0
LINE
  5
149
330
1F
100
AcDbEntity
  8
0
  6
Continuous
 62
     7
370
    25
100
AcDbLine
 10
-30.225
 20
-143.0
 30
0.0
 11
-30.0
 21
-143.0
 31
0.0
  0
LINE
  5
14A
330
1F
100
AcDbEntity
  8
0
  6
Continuous
 62
     7
370
    25
100
AcDbLine
 10
30.225
 20
-143.0
 30
0.0
 11
30.0
 21
-143.0
 31
0.0
  0
LINE
  5
14B
330
1F
100
AcDbEntity
  8
0
  6
Continuous
 62
     7
370
    25
100
AcDbLine
 10
39.0
 20
-123.0
 30
0.0
 11
30.0
 21
-123.0
 31
0.0
  0
LINE
  5
14C
330
1F
100
AcDbEntity
  8
0
  6
Continuous
 62
     7
370
    25
100
AcDbLine
 10
-30.0
 20
-123.0
 30
0.0
 11
-39.0
 21
-123.0
 31
0.0
  0
LINE
  5
14D
330
1F
100
AcDbEntity
  8
0
  6
Continuous
 62
     7
370
    25
100
AcDbLine
 10
-90.0
 20
-128.0
 30
0.0
 11
-90.0
 21
-118.0
 31
0.0
  0
LINE
  5
14E
330
1F
100
AcDbEntity
  8
0
  6
Continuous
 62
     7
370
    25
100
AcDbLine
 10
90.0
 20
-128.0
 30
0.0
 11
90.0
 21
-118.0
 31
0.0
  0
LINE
  5
14F
330
1F
100
AcDbEntity
  8
0
  6
Continuous
 62
     8
370
    25
100
AcDbLine
 10
-83.7815929883
 20
-101.4729635533
 30
0.0
 11
-35.0
 21
-101.4729635533
 31
0.0
  0
LINE
  5
150
330
1F
100
AcDbEntity
  8
0
  6
Continuous
 62
     8
370
    25
100
AcDbLine
 10
35.0
 20
-101.4729635533
 30
0.0
 11
83.7815929883
 21
-101.4729635533
 31
0.0
  0
LINE
  5
151
330
1F
100
AcDbEntity
  8
0
  6
Continuous
 62
     8
370
    25
100
AcDbLine
 10
-39.0
 20
-152.0
 30
0.0
 11
39.0
 21
-152.0
 31
0.0
  0
LINE
  5
152
330
1F
100
AcDbEntity
  8
0
  6
Continuous
 62
     8
370
    25
100
AcDbLine
 10
-39.0
 20
-126.2635182233
 30
0.0
 11
-108.6759639382
 21
-126.2635182233
 31
0.0
  0
LINE
  5
153
330
1F
100
AcDbEntity
  8
0
  6
Continuous
 62
     8
370
    25
100
AcDbLine
 10
108.6759639382
 20
-126.2635182233
 30
0.0
 11
39.0
 21
-126.2635182233
 31
0.0
  0
ARC
  5
154
330
1F
100
AcDbEntity
  8
0
  6
Continuous
 62
     7
370
    25
100
AcDbCircle
 10
38.0
 20
-152.0
 30
0.0
 40
1.0
100
AcDbArc
 50
270.0
 51
0.0
  0
ARC
  5
155
330
1F
100
AcDbEntity
  8
0
  6
Continuous
 62
     7
370
    25
100
AcDbCircle
 10
-38.0
 20
-152.0
 30
0.0
 40
1.000000000000007
100
AcDbArc
 50
180.0
 51
270.0
  0
ARC
  5
156
330
1F
100
AcDbEntity
  8
0
  6
Continuous
 62
     7
370
    25
100
AcDbCircle
 10
44.0
 20
-123.0
 30
0.0
 40
5.000000000000014
100
AcDbArc
 50
90.0
 51
180.0
  0
ARC
  5
157
330
1F
100
AcDbEntity
  8
0
  6
Continuous
 62
     7
370
    25
100
AcDbCircle
 10
-44.0
 20
-123.0
 30
0.0
 40
5.0
100
AcDbArc
 50
0.0
 51
90.0
  0
ARC
  5
158
330
1F
100
AcDbEntity
  8
0
  6
Continuous
 62
     7
370
    25
100
AcDbCircle
 10
-171.5
 20
0.1062100935
 30
0.0
 40
0.9999999999723189
100
AcDbArc
 50
180.2061026315
 51
192.1253229743
  0
ARC
  5
159
330
1F
100
AcDbEntity
  8
0
  6
Continuous
 62
     7
370
    25
100
AcDbCircle
 10
-185.3385244685
 20
3.0
 30
0.0
 40
3.000000000000029
100
AcDbArc
 50
90.0
 51
180.0
  0
ARC
  5
15A
330
1F
100
AcDbEntity
  8
0
  6
Continuous
 62
     7
370
    25
100
AcDbCircle
 10
-189.3385244685
 20
2.0
 30
0.0
 40
1.0
100
AcDbArc
 50
270.0
 51
0.0
  0
ARC
  5
15B
330
1F
100
AcDbEntity
  8
0
  6
Continuous
 62
     7
370
    25
100
AcDbCircle
 10
-197.7551771664
 20
11.0
 30
0.0
 40
3.00000000000056
100
AcDbArc
 50
90.0
 51
177.0
  0
ARC
  5
15C
330
1F
100
AcDbEntity
  8
0
  6
Continuous
 62
     7
370
    25
100
AcDbCircle
 10
197.7551771664
 20
11.0
 30
0.0
 40
2.999999999999689
100
AcDbArc
 50
3.0
 51
90.0
  0
ARC
  5
15D
330
1F
100
AcDbEntity
  8
0
  6
Continuous
 62
     7
370
    25
100
AcDbCircle
 10
189.3385244685
 20
2.0
 30
0.0
 40
1.000000000000057
100
AcDbArc
 50
180.0
 51
270.0
  0
ARC
  5
15E
330
1F
100
AcDbEntity
  8
0
  6
Continuous
 62
     7
370
    25
100
AcDbCircle
 10
185.3385244685
 20
3.0
 30
0.0
 40
3.0
100
AcDbArc
 50
0.0
 51
90.0
  0
ARC
  5
15F
330
1F
100
AcDbEntity
  8
0
  6
Continuous
 62
     7
370
    25
100
AcDbCircle
 10
171.5
 20
0.1062100935
 30
0.0
 40
1.000000000015782
100
AcDbArc
 50
347.874677026
 51
359.7926138546
  0
ARC
  5
160
330
1F
100
AcDbEntity
  8
0
  6
Continuous
 62
     7
370
    25
100
AcDbCircle
 10
143.3840503504
 20
-126.0
 30
0.0
 40
1.999999999999645
100
AcDbArc
 50
270.0
 51
347.8746770259
  0
ARC
  5
161
330
1F
100
AcDbEntity
  8
0
  6
Continuous
 62
     7
370
    25
100
AcDbCircle
 10
0.0
 20
-210.5
 30
0.0
 40
137.5
100
AcDbArc
 50
36.8698976458
 51
143.1301023542
  0
ARC
  5
162
330
1F
100
AcDbEntity
  8
0
  6
Continuous
 62
     7
370
    25
100
AcDbCircle
 10
-143.3840503504
 20
-126.0
 30
0.0
 40
2.000000000000227
100
AcDbArc
 50
192.1253229741
 51
270.0
  0
ARC
  5
163
330
1F
100
AcDbEntity
  8
0
  6
Continuous
 62
     7
370
    25
100
AcDbCircle
 10
202.2847443432
 20
1.0
 30
0.0
 40
0.9999999999999513
100
AcDbArc
 50
270.0
 51
3.0000000003
  0
ARC
  5
164
330
1F
100
AcDbEntity
  8
0
  6
Continuous
 62
     7
370
    25
100
AcDbCircle
 10
-202.2847443425
 20
1.0
 30
0.0
 40
1.000000000743057
100
AcDbArc
 50
177.0000000016
 51
270.0
  0
ARC
  5
165
330
1F
100
AcDbEntity
  8
0
  6
Continuous
 62
     7
370
    25
100
AcDbCircle
 10
-189.3385244685
 20
2.0
 30
0.0
 40
1.999999999999972
100
AcDbArc
 50
270.0
 51
0.0
  0
ARC
  5
166
330
1F
100
AcDbEntity
  8
0
  6
Continuous
 62
     7
370
    25
100
AcDbCircle
 10
185.3385244685
 20
3.0
 30
0.0
 40
1.999999999999978
100
AcDbArc
 50
0.0
 51
90.0
  0
ARC
  5
167
330
1F
100
AcDbEntity
  8
0
  6
Continuous
 62
     7
370
    25
100
AcDbCircle
 10
-185.3385244685
 20
3.0
 30
0.0
 40
2.000000000000035
100
AcDbArc
 50
90.0
 51
180.0
  0
ARC
  5
168
330
1F
100
AcDbEntity
  8
0
  6
Continuous
 62
     7
370
    25
100
AcDbCircle
 10
197.7551771664
 20
11.0
 30
0.0
 40
5.00000000000025
100
AcDbArc
 50
3.0
 51
90.0
  0
ARC
  5
169
330
1F
100
AcDbEntity
  8
0
  6
Continuous
 62
     7
370
    25
100
AcDbCircle
 10
-197.7551771664
 20
11.0
 30
0.0
 40
4.99999999999987
100
AcDbArc
 50
90.0
 51
177.0
  0
ARC
  5
16A
330
1F
100
AcDbEntity
  8
0
  6
Continuous
 62
     7
370
    25
100
AcDbCircle
 10
189.3385244685
 20
2.0
 30
0.0
 40
2.000000000000057
100
AcDbArc
 50
180.0
 51
270.0
  0
ARC
  5
16B
330
1F
100
AcDbEntity
  8
0
  6
Continuous
 62
     7
370
    25
100
AcDbCircle
 10
25.0
 20
-143.0
 30
0.0
 40
4.999999999999982
100
AcDbArc
 50
270.0
 51
0.0
  0
ARC
  5
16C
330
1F
100
AcDbEntity
  8
0
  6
Continuous
 62
     7
370
    25
100
AcDbCircle
 10
-25.0
 20
-143.0
 30
0.0
 40
5.000000000000039
100
AcDbArc
 50
180.0
 51
270.0
  0
ARC
  5
16D
330
1F
100
AcDbEntity
  8
0
  6
Continuous
 62
     7
370
    25
100
AcDbCircle
 10
35.0
 20
-123.0
 30
0.0
 40
5.0
100
AcDbArc
 50
90.0
 51
180.0
  0
ARC
  5
16E
330
1F
100
AcDbEntity
  8
0
  6
Continuous
 62
     7
370
    25
100
AcDbCircle
 10
-35.0
 20
-123.0
 30
0.0
 40
5.0
100
AcDbArc
 50
0.0
 51
90.0
  0
SPLINE
  5
16F
330
1B
100
AcDbEntity
 67
     1
  8
0
  6
Continuous
 62
     7
370
    25
100
AcDbSpline
210
0.0
220
0.0
230
1.0
 70
     8
 71
     3
 72
    11
 73
     7
 74
     0
 42
0.000000001
 43
0.00000001
 40
0.0
 40
0.0
 40
0.0
 40
0.0
 40
0.2546937546833429
 40
0.5132680943919228
 40
0.7647679051213889
 40
1.0
 40
1.0
 40
1.0
 40
1.0
 10
-199.541810342379
 20
15.66989741799349
 30
0.0
 10
-199.9840264831973
 20
15.45587681780175
 30
0.0
 10
-200.875196493194
 20
15.02457473990983
 30
0.0
 10
-201.8757234709241
 20
13.92921750273429
 30
0.0
 10
-202.5371987149447
 20
12.65223340357302
 30
0.0
 10
-202.646053496949
 20
11.73111631454021
 30
0.0
 10
-202.6986617975625
 20
11.28595071108346
 30
0.0
  0
SPLINE
  5
170
330
1B
100
AcDbEntity
 67
     1
  8
0
  6
Continuous
 62
     7
370
    25
100
AcDbSpline
210
0.0
220
0.0
230
1.0
 70
     8
 71
     3
 72
    11
 73
     7
 74
     0
 42
0.000000001
 43
0.00000001
 40
0.0
 40
0.0
 40
0.0
 40
0.0
 40
0.2352320948785245
 40
0.4867319056080008
 40
0.7453062453166125
 40
1.0
 40
1.0
 40
1.0
 40
1.0
 10
202.6986617975625
 20
11.28595071108457
 30
0.0
 10
202.646053496949
 20
11.73111631454105
 30
0.0
 10
202.5371987149449
 20
12.65223340357349
 30
0.0
 10
201.8757234709242
 20
13.92921750273404
 30
0.0
 10
200.8751964931944
 20
15.02457473990947
 30
0.0
 10
199.984026483198
 20
15.45587681780146
 30
0.0
 10
199.5418103423797
 20
15.66989741799321
 30
0.0
  0
SPLINE
  5
172
330
1B
100
AcDbEntity
 67
     1
  8
0
  6
Continuous
 62
     7
370
    25
100
AcDbSpline
210
0.0
220
0.0
230
1.0
 70
     8
 71
     3
 72
    17
 73
    13
 74
     0
 42
0.000000001
 43
0.00000001
 40
0.0
 40
0.0
 40
0.0
 40
0.0
 40
0.0173665406948252
 40
0.0352788670777755
 40
0.0546408299540294
 40
0.0762383696529041
 40
0.1283264345478917
 40
0.2807043860047975
 40
0.4684535263175124
 40
0.7329803123957448
 40
0.9361225132277956
 40
1.0
 40
1.0
 40
1.0
 40
1.0
 10
-145.2018155573575
 20
-126.4273325545703
 30
0.0
 10
-145.1728477841703
 20
-126.5267621715195
 30
0.0
 10
-145.1140018552215
 20
-126.7287462224356
 30
0.0
 10
-144.9640953996038
 20
-126.9968672478018
 30
0.0
 10
-144.7858088246567
 20
-127.2245235549348
 30
0.0
 10
-144.5018931810844
 20
-127.4864302905466
 30
0.0
 10
-143.8951471324047
 20
-127.8133820530384
 30
0.0
 10
-143.2515988418535
 20
-127.8690704983768
 30
0.0
 10
-142.233738823793
 20
-127.9169979350177
 30
0.0
 10
-140.6228098489967
 20
-127.9474897816913
 30
0.0
 10
-139.0756557704271
 20
-127.960314893103
 30
0.0
 10
-138.1555652088838
 20
-127.96187917066
 30
0.0
 10
-137.9354575711229
 20
-127.9622533832129
 30
0.0
  0
SPLINE
  5
173
330
1B
100
AcDbEntity
 67
     1
  8
0
  6
Continuous
 62
     7
370
    25
100
AcDbSpline
210
0.0
220
0.0
230
1.0
 70
     8
 71
     3
 72
    13
 73
     9
 74
     0
 42
0.000000001
 43
0.00000001
 40
0.0
 40
0.0
 40
0.0
 40
0.0
 40
0.0633728512705953
 40
0.3332280753259004
 40
0.4797982412588788
 40
0.6382723604713634
 40
0.8108015869432857
 40
1.0
 40
1.0
 40
1.0
 40
1.0
 10
136.6248719647131
 20
-127.9645864303118
 30
0.0
 10
136.8933232701718
 20
-127.964516216103
 30
0.0
 10
138.3048979436037
 20
-127.9641470146993
 30
0.0
 10
139.814601618742
 20
-127.9632614323131
 30
0.0
 10
141.4060444387817
 20
-127.9605832421322
 30
0.0
 10
142.8024537029203
 20
-127.876081783994
 30
0.0
 10
144.344813062323
 20
-127.4857025706653
 30
0.0
 10
144.9109378536027
 20
-126.7903009314669
 30
0.0
 10
145.2070443724237
 20
-126.4265773112735
 30
0.0
  0
SPLINE
  5
174
330
1B
100
AcDbEntity
 67
     1
  8
0
  6
Continuous
 62
     7
370
    25
100
AcDbSpline
210
0.0
220
0.0
230
1.0
 70
     8
 71
     3
 72
    11
 73
     7
 74
     0
 42
0.000000001
 43
0.00000001
 40
0.0
 40
0.0
 40
0.0
 40
0.0
 40
0.0899699933963781
 40
0.3848105566906965
 40
0.6648232544172329
 40
1.0
 40
1.0
 40
1.0
 40
1.0
 10
128.7672569260434
 20
-127.9650575098448
 30
0.0
 10
129.0448587308357
 20
-127.9651156492487
 30
0.0
 10
130.2321890951922
 20
-127.9653643172268
 30
0.0
 10
132.0801100667331
 20
-127.9653995018576
 30
0.0
 10
134.5079457383559
 20
-127.9653076979765
 30
0.0
 10
135.878270863493
 20
-127.9648408082046
 30
0.0
 10
136.6248719647131
 20
-127.9645864303118
 30
0.0
  0
SPLINE
  5
175
330
1B
100
AcDbEntity
 67
     1
  8
0
  6
Continuous
 62
     7
370
    25
100
AcDbSpline
210
0.0
220
0.0
230
1.0
 70
     8
 71
     3
 72
    11
 73
     7
 74
     0
 42
0.000000001
 43
0.00000001
 40
0.0
 40
0.0
 40
0.0
 40
0.0
 40
0.2050485115895668
 40
0.5046861060704877
 40
0.7724259429015545
 40
0.9999999999999999
 40
0.9999999999999999
 40
0.9999999999999999
 40
0.9999999999999999
 10
116.5864380948464
 20
-127.9604580287474
 30
0.0
 10
117.4786283058664
 20
-127.9609833247728
 30
0.0
 10
119.674576962032
 20
-127.962276236404
 30
0.0
 10
122.8924035299289
 20
-127.9635724359629
 30
0.0
 10
126.0929929658788
 20
-127.964599155043
 30
0.0
 10
127.9253655951651
 20
-127.964913214091
 30
0.0
 10
128.7672569260434
 20
-127.9650575098448
 30
0.0
  0
SPLINE
  5
176
330
1B
100
AcDbEntity
 67
     1
  8
0
  6
Continuous
 62
     7
370
    25
100
AcDbSpline
210
0.0
220
0.0
230
1.0
 70
     8
 71
     3
 72
     9
 73
     5
 74
     0
 42
0.000000001
 43
0.00000001
 40
0.0
 40
0.0
 40
0.0
 40
0.0
 40
0.7416469051809937
 40
1.0
 40
1.0
 40
1.0
 40
1.0
 10
110.0
 20
-127.9560371670789
 30
0.0
 10
111.6477249373372
 20
-127.9572884265727
 30
0.0
 10
113.8694357350583
 20
-127.9589755629784
 30
0.0
 10
116.0286089996807
 20
-127.9601536629689
 30
0.0
 10
116.5864380948464
 20
-127.9604580287474
 30
0.0
  0
SPLINE
  5
17C
330
1B
100
AcDbEntity
 67
     1
  8
0
  6
Continuous
 62
     7
370
    25
100
AcDbSpline
210
0.0
220
0.0
230
1.0
 70
     8
 71
     3
 72
    30
 73
    26
 74
     0
 42
0.000000001
 43
0.00000001
 40
0.0
 40
0.0
 40
0.0
 40
0.0
 40
0.0411920285229689
 40
0.0825905321787865
 40
0.1241957203657669
 40
0.1660077993715789
 40
0.2080269724314215
 40
0.2502534397849247
 40
0.292687398731777
 40
0.3353290436861596
 40
0.3781785662300103
 40
0.4212361551650732
 40
0.4645019965638997
 40
0.5079762738196585
 40
0.5516591676949625
 40
0.5955508563695722
 40
0.6396515154870975
 40
0.683961318200735
 40
0.7284804352179837
 40
0.773209034844423
 40
0.8181472830265785
 40
0.8632953433938514
 40
0.9086533772996026
 40
0.9542215438613211
 40
1.0
 40
1.0
 40
1.0
 40
1.0
 10
-200.3589820441533
 20
1.073913062467097
 30
0.0
 10
-200.2821178323791
 20
1.073909814663557
 30
0.0
 10
-200.1280041268015
 20
1.07390330277686
 30
0.0
 10
-199.8870523273309
 20
1.073839752051817
 30
0.0
 10
-199.6384105640785
 20
1.073723479784641
 30
0.0
 10
-199.381560803858
 20
1.073541795328412
 30
0.0
 10
-199.1168640518812
 20
1.073286807751137
 30
0.0
 10
-198.8444629367983
 20
1.072950461622924
 30
0.0
 10
-198.5645781378409
 20
1.072525927390461
 30
0.0
 10
-198.2774285158243
 20
1.072007275913139
 30
0.0
 10
-197.9832527917495
 20
1.071389615634688
 30
0.0
 10
-197.68230378241
 20
1.070669104210664
 30
0.0
 10
-197.3748500102694
 20
1.069842993230041
 30
0.0
 10
-197.0611752881608
 20
1.068909663086051
 30
0.0
 10
-196.7415788144686
 20
1.067868659427138
 30
0.0
 10
-196.4163750930256
 20
1.066720728061257
 30
0.0
 10
-196.0858938613972
 20
1.065467848649984
 30
0.0
 10
-195.7504799769256
 20
1.064113268331432
 30
0.0
 10
-195.4104932718948
 20
1.062661529653008
 30
0.0
 10
-195.0663083773579
 20
1.061118513587714
 30
0.0
 10
-194.7183145000876
 20
1.05949141893627
 30
0.0
 10
-194.366915210092
 20
1.057788973329504
 30
0.0
 10
-194.0125280177178
 20
1.056020765758267
 30
0.0
 10
-193.6555845671031
 20
1.054199871860992
 30
0.0
 10
-193.4167638062139
 20
1.052958214257965
 30
0.0
 10
-193.2970785304568
 20
1.052335956242947
 30
0.0
  0
SPLINE
  5
17F
330
1B
100
AcDbEntity
 67
     1
  8
0
  6
Continuous
 62
     7
370
    25
100
AcDbSpline
210
0.0
220
0.0
230
1.0
 70
    24
 71
     3
 72
    14
 73
    10
 74
     0
 42
0.000000001
 43
0.00000001
 40
0.0
 40
0.0
 40
0.0
 40
0.0
 40
0.25
 40
0.25
 40
0.5
 40
0.5
 40
0.75
 40
0.75
 40
1.0
 40
1.0
 40
1.0
 40
1.0
 10
-193.2970785304565
 20
0.0
 30
0.0
 10
-193.8709388913724
 20
0.0
 30
0.0
 10
-194.4557401350944
 20
0.0
 30
0.0
 10
-195.6142570969228
 20
0.0
 30
0.0
 10
-196.1877561942724
 20
0.0
 30
0.0
 10
-197.2889800110615
 20
0.0
 30
0.0
 10
-197.816494931858
 20
0.0
 30
0.0
 10
-198.7963577236098
 20
0.0
 30
0.0
 10
-199.2485834555809
 20
0.0
 30
0.0
 10
-199.653809420182
 20
0.0
 30
0.0
  0
SPLINE
  5
183
330
1B
100
AcDbEntity
 67
     1
  8
0
  6
Continuous
 62
     7
370
    25
100
AcDbSpline
210
0.0
220
0.0
230
1.0
 70
     8
 71
     3
 72
    33
 73
    29
 74
     0
 42
0.000000001
 43
0.00000001
 40
0.0
 40
0.0
 40
0.0
 40
0.0
 40
0.0405071054937116
 40
0.0808496321441097
 40
0.1210276883608481
 40
0.1610413838929681
 40
0.2008908298501195
 40
0.2405761387241427
 40
0.280097424411038
 40
0.3194548022334278
 40
0.3586483889633545
 40
0.3976783028456023
 40
0.4365446636213963
 40
0.4752475925525822
 40
0.5137872124463053
 40
0.5521636476800937
 40
0.5903770242275009
 40
0.6284274696841895
 40
0.6663151132945643
 40
0.7040400859788798
 40
0.7416025203609269
 40
0.7790025507962174
 40
0.8162403134007598
 40
0.8533159460803609
 40
0.8902295885605415
 40
0.9269813824170284
 40
0.963571471106837
 40
1.0
 40
1.0
 40
1.0
 40
1.0
 10
193.2970785304565
 20
1.052335956242961
 30
0.0
 10
193.4029820662262
 20
1.052886738990899
 30
0.0
 10
193.6143588556903
 20
1.053986066677212
 30
0.0
 10
193.9304572183405
 20
1.055603767536994
 30
0.0
 10
194.2446345919915
 20
1.057182483945693
 30
0.0
 10
194.5565894529129
 20
1.058712728770062
 30
0.0
 10
194.8660289260235
 20
1.060187505495844
 30
0.0
 10
195.17266856681
 20
1.061600258034506
 30
0.0
 10
195.4762326332731
 20
1.062945400502086
 30
0.0
 10
195.77645420486
 20
1.064218158790653
 30
0.0
 10
196.0730753200591
 20
1.065414594331238
 30
0.0
 10
196.3658470873886
 20
1.066531578327645
 30
0.0
 10
196.6545297823213
 20
1.067566778232345
 30
0.0
 10
196.9388929272528
 20
1.068518640079716
 30
0.0
 10
197.2187153559841
 20
1.069386371104472
 30
0.0
 10
197.4937852621595
 20
1.070169921526074
 30
0.0
 10
197.763900234962
 20
1.070869965870858
 30
0.0
 10
198.0288672720692
 20
1.071487883749986
 30
0.0
 10
198.2885028090029
 20
1.072025740338198
 30
0.0
 10
198.5426326219155
 20
1.072486265940475
 30
0.0
 10
198.791092136091
 20
1.072872837116115
 30
0.0
 10
199.0337251686919
 20
1.073189450418857
 30
0.0
 10
199.2703884180104
 20
1.073440722112809
 30
0.0
 10
199.5009345889756
 20
1.073631790373106
 30
0.0
 10
199.7252746746576
 20
1.073768578038786
 30
0.0
 10
199.9431467046447
 20
1.073856717756477
 30
0.0
 10
200.1549727292661
 20
1.073905435733033
 30
0.0
 10
200.291079321596
 20
1.073910523975097
 30
0.0
 10
200.3589820441531
 20
1.073913062467055
 30
0.0
  0
SPLINE
  5
185
330
1B
100
AcDbEntity
 67
     1
  8
0
  6
Continuous
 62
     7
370
    25
100
AcDbSpline
210
0.0
220
0.0
230
1.0
 70
    24
 71
     3
 72
    14
 73
    10
 74
     0
 42
0.000000001
 43
0.00000001
 40
0.0
 40
0.0
 40
0.0
 40
0.0
 40
0.25
 40
0.25
 40
0.5
 40
0.5
 40
0.75
 40
0.75
 40
1.0
 40
1.0
 40
1.0
 40
1.0
 10
199.653809420182
 20
0.0
 30
0.0
 10
199.2485834555809
 20
0.0
 30
0.0
 10
198.7963577236098
 20
0.0
 30
0.0
 10
197.8164949318581
 20
0.0
 30
0.0
 10
197.2889800110617
 20
0.0
 30
0.0
 10
196.1877561942724
 20
0.0
 30
0.0
 10
195.614257096923
 20
0.0
 30
0.0
 10
194.4557401350942
 20
0.0
 30
0.0
 10
193.8709388913724
 20
0.0
 30
0.0
 10
193.2970785304565
 20
0.0
 30
0.0
  0
SPLINE
  5
186
330
1B
100
AcDbEntity
 67
     1
  8
0
  6
Continuous
 62
     7
370
    25
100
AcDbSpline
210
0.0
220
0.0
230
1.0
 70
     8
 71
     3
 72
    30
 73
    26
 74
     0
 42
0.000000001
 43
0.00000001
 40
0.0
 40
0.0
 40
0.0
 40
0.0
 40
0.0412034049556803
 40
0.0826131950665261
 40
0.1242294347929911
 40
0.1660521876355948
 40
0.2080815161534434
 40
0.2503174819823565
 40
0.2927601458525553
 40
0.3354095676059163
 40
0.3782658062128406
 40
0.4213289197887351
 40
0.4645989656100795
 40
0.5080760001301619
 40
0.5517600789944378
 40
0.5956512570555056
 40
0.6397495883878073
 40
0.6840551263019238
 40
0.728567923358607
 40
0.77328803138244
 40
0.8182155014752412
 40
0.8633503840291425
 40
0.9086927287393672
 40
0.9542425846167615
 40
1.0
 40
1.0
 40
1.0
 40
1.0
 10
-199.8194097734672
 20
11.36956531233528
 30
0.0
 10
-199.8948508792173
 20
11.36953049649808
 30
0.0
 10
-200.0461109702723
 20
11.36946069043347
 30
0.0
 10
-200.2639050401077
 20
11.36888817154598
 30
0.0
 10
-200.4753381958409
 20
11.3679603779763
 30
0.0
 10
-200.6793860351211
 20
11.36663446145918
 30
0.0
 10
-200.8758879979878
 20
11.36491067206138
 30
0.0
 10
-201.0644529926355
 20
11.36277875666587
 30
0.0
 10
-201.2447555998577
 20
11.36023247884556
 30
0.0
 10
-201.4164569179662
 20
11.35726574925311
 30
0.0
 10
-201.5792267508953
 20
11.35387371945741
 30
0.0
 10
-201.7327384605068
 20
11.35005253535393
 30
0.0
 10
-201.8766712144802
 20
11.34579945156353
 30
0.0
 10
-202.010710259065
 20
11.34111284756713
 30
0.0
 10
-202.1345477262429
 20
11.33599226895246
 30
0.0
 10
-202.2478833662747
 20
11.33043846200611
 30
0.0
 10
-202.3504251072039
 20
11.32445340380206
 30
0.0
 10
-202.4418904490946
 20
11.31804035066766
 30
0.0
 10
-202.5220047262942
 20
11.31120380998318
 30
0.0
 10
-202.5905111867452
 20
11.30394979425567
 30
0.0
 10
-202.6471366883124
 20
11.296285007317
 30
0.0
 10
-202.6917242126056
 20
11.28822003619828
 30
0.0
 10
-202.7237385065124
 20
11.27975748187268
 30
0.0
 10
-202.7441274054532
 20
11.2709366783485
 30
0.0
 10
-202.7469235765333
 20
11.26477008622094
 30
0.0
 10
-202.7483248401986
 20
11.26167978121473
 30
0.0
  0
SPLINE
  5
187
330
1B
100
AcDbEntity
 67
     1
  8
0
  6
Continuous
 62
     7
370
    25
100
AcDbSpline
210
0.0
220
0.0
230
1.0
 70
     8
 71
     3
 72
    33
 73
    29
 74
     0
 42
0.000000001
 43
0.00000001
 40
0.0
 40
0.0
 40
0.0
 40
0.0
 40
0.0404883517816217
 40
0.0808142708051842
 40
0.1209777904973024
 40
0.1609789446943254
 40
0.2008177676489162
 40
0.2404942940367488
 40
0.2800085589633728
 40
0.3193605979712131
 40
0.3585504470466552
 40
0.3975781426273644
 40
0.4364437216096657
 40
0.4751472213561347
 40
0.5136886797033166
 40
0.5520681349696109
 40
0.5902856259633078
 40
0.6283411919908098
 40
0.6662348728650042
 40
0.7039667089138341
 40
0.7415367409890113
 40
0.7789450104749654
 40
0.8161915592979024
 40
0.8532764299351604
 40
0.8901996654246609
 40
0.9269613093746261
 40
0.9635614059734899
 40
1.0
 40
1.0
 40
1.0
 40
1.0
 10
-192.762029492653
 20
11.26167978121474
 30
0.0
 10
-192.8678195855391
 20
11.26441725810315
 30
0.0
 10
-193.0789753584664
 20
11.26988122956277
 30
0.0
 10
-193.3947452857234
 20
11.27774264406484
 30
0.0
 10
-193.7086079365916
 20
11.28532597979352
 30
0.0
 10
-194.0202613554122
 20
11.29260116846563
 30
0.0
 10
-194.3294127832266
 20
11.29956669506277
 30
0.0
 10
-194.6357777456979
 20
11.30621454373963
 30
0.0
 10
-194.9390805098921
 20
11.31253951747027
 30
0.0
 10
-195.2390541539824
 20
11.31853673868524
 30
0.0
 10
-195.5354407179528
 20
11.32420229646175
 30
0.0
 10
-195.8279913110932
 20
11.32953305473286
 30
0.0
 10
-196.116466209854
 20
11.3345266829763
 30
0.0
 10
-196.4006349375636
 20
11.33918162677258
 30
0.0
 10
-196.6802763289776
 20
11.34349709356403
 30
0.0
 10
-196.9551785786975
 20
11.34747303358341
 30
0.0
 10
-197.2251392768659
 20
11.3511101214757
 30
0.0
 10
-197.4899654221352
 20
11.35440973672987
 30
0.0
 10
-197.749473450958
 20
11.35737394523652
 30
0.0
 10
-198.0034891405914
 20
11.36000547490822
 30
0.0
 10
-198.251847916788
 20
11.36230771142174
 30
0.0
 10
-198.4943935995115
 20
11.36428461775703
 30
0.0
 10
-198.7309828812873
 20
11.36594093488773
 30
0.0
 10
-198.9614684927486
 20
11.36728133879372
 30
0.0
 10
-199.1857613368528
 20
11.36831346620004
 30
0.0
 10
-199.4035997798649
 20
11.36903659548166
 30
0.0
 10
-199.6154046334169
 20
11.36948351162508
 30
0.0
 10
-199.7515083772894
 20
11.36953808565644
 30
0.0
 10
-199.8194097734672
 20
11.36956531233528
 30
0.0
  0
SPLINE
  5
189
330
1B
100
AcDbEntity
 67
     1
  8
0
  6
Continuous
 62
     7
370
    25
100
AcDbSpline
210
0.0
220
0.0
230
1.0
 70
     8
 71
     3
 72
    33
 73
    29
 74
     0
 42
0.000000001
 43
0.00000001
 40
0.0
 40
0.0
 40
0.0
 40
0.0
 40
0.0405071054937107
 40
0.0808496321441114
 40
0.1210276883608488
 40
0.1610413838929676
 40
0.2008908298501185
 40
0.2405761387241408
 40
0.2800974244110387
 40
0.3194548022334267
 40
0.3586483889633604
 40
0.3976783028456072
 40
0.4365446636213937
 40
0.4752475925525819
 40
0.5137872124463042
 40
0.5521636476800919
 40
0.5903770242275014
 40
0.6284274696841937
 40
0.6663151132945645
 40
0.7040400859788792
 40
0.7416025203609254
 40
0.779002550796215
 40
0.8162403134007595
 40
0.8533159460803591
 40
0.8902295885605417
 40
0.9269813824170278
 40
0.9635714711068379
 40
1.0
 40
1.0
 40
1.0
 40
1.0
 10
-203.2833738780024
 20
1.052335956242934
 30
0.0
 10
-203.2823747291505
 20
1.052886738990871
 30
0.0
 10
-203.2803804909509
 20
1.053986066677198
 30
0.0
 10
-203.2646824779296
 20
1.055603767536981
 30
0.0
 10
-203.2398388198571
 20
1.057182483945693
 30
0.0
 10
-203.2050834039499
 20
1.058712728770048
 30
0.0
 10
-203.1608117185798
 20
1.06018750549583
 30
0.0
 10
-203.1071202337475
 20
1.06160025803452
 30
0.0
 10
-203.0441948519264
 20
1.0629454005021
 30
0.0
 10
-202.972206940522
 20
1.064218158790681
 30
0.0
 10
-202.8913404971804
 20
1.065414594331238
 30
0.0
 10
-202.801784397386
 20
1.066531578327659
 30
0.0
 10
-202.7037339433677
 20
1.067566778232373
 30
0.0
 10
-202.5973899400057
 20
1.06851864007973
 30
0.0
 10
-202.4829584339182
 20
1.0693863711045
 30
0.0
 10
-202.3606502806067
 20
1.070169921526087
 30
0.0
 10
-202.2306807652735
 20
1.070869965870885
 30
0.0
 10
-202.09326920816
 20
1.071487883750013
 30
0.0
 10
-201.9486386092864
 20
1.072025740338239
 30
0.0
 10
-201.7970151853972
 20
1.072486265940503
 30
0.0
 10
-201.638628332421
 20
1.072872837116157
 30
0.0
 10
-201.473709041605
 20
1.073189450418885
 30
0.0
 10
-201.3024940813823
 20
1.073440722112851
 30
0.0
 10
-201.1252088350699
 20
1.073631790373147
 30
0.0
 10
-200.9421293119539
 20
1.073768578038828
 30
0.0
 10
-200.7533506498279
 20
1.073856717756519
 30
0.0
 10
-200.5596438502263
 20
1.073905435733061
 30
0.0
 10
-200.4257705775745
 20
1.073910523975139
 30
0.0
 10
-200.3589820441533
 20
1.073913062467097
 30
0.0
  0
SPLINE
  5
18B
330
1B
100
AcDbEntity
 67
     1
  8
0
  6
Continuous
 62
     7
370
    25
100
AcDbSpline
210
0.0
220
0.0
230
1.0
 70
     8
 71
     3
 72
    30
 73
    26
 74
     0
 42
0.000000001
 43
0.00000001
 40
0.0
 40
0.0
 40
0.0
 40
0.0
 40
0.0412034049556782
 40
0.0826131950665219
 40
0.1242294347929873
 40
0.1660521876355892
 40
0.2080815161534354
 40
0.2503174819823489
 40
0.2927601458525461
 40
0.3354095676059063
 40
0.3782658062128341
 40
0.4213289197887259
 40
0.4645989656100691
 40
0.5080760001301552
 40
0.5517600789944263
 40
0.5956512570554978
 40
0.6397495883877966
 40
0.6840551263019169
 40
0.7285679233586007
 40
0.7732880313824341
 40
0.8182155014752358
 40
0.863350384029138
 40
0.9086927287393664
 40
0.9542425846167609
 40
1.0
 40
1.0
 40
1.0
 40
1.0
 10
199.8194097734671
 20
11.36956531233523
 30
0.0
 10
199.7425472632588
 20
11.36953049649804
 30
0.0
 10
199.5884372435657
 20
11.36946069043342
 30
0.0
 10
199.3475125579598
 20
11.36888817154592
 30
0.0
 10
199.0989137744258
 20
11.36796037797624
 30
0.0
 10
198.842124446648
 20
11.36663446145914
 30
0.0
 10
198.5775051470001
 20
11.36491067206133
 30
0.0
 10
198.3051986195725
 20
11.36277875666583
 30
0.0
 10
198.0254255098845
 20
11.36023247884552
 30
0.0
 10
197.7384046856813
 20
11.35726574925307
 30
0.0
 10
197.4443748637933
 20
11.35387371945737
 30
0.0
 10
197.1435888598787
 20
11.3500525353539
 30
0.0
 10
196.8363151944363
 20
11.34579945156348
 30
0.0
 10
196.5228376785701
 20
11.34111284756709
 30
0.0
 10
196.203455508875
 20
11.33599226895242
 30
0.0
 10
195.878483187441
 20
11.33043846200607
 30
0.0
 10
195.5482504500335
 20
11.32445340380203
 30
0.0
 10
195.2131021524614
 20
11.31804035066764
 30
0.0
 10
194.8733981245616
 20
11.31120380998316
 30
0.0
 10
194.5295129984711
 20
11.30394979425563
 30
0.0
 10
194.1818359688889
 20
11.29628500731698
 30
0.0
 10
193.8307706433236
 20
11.28822003619827
 30
0.0
 10
193.4767343834759
 20
11.27975748187265
 30
0.0
 10
193.120159384459
 20
11.27093667834848
 30
0.0
 10
192.8815868974211
 20
11.26477008622093
 30
0.0
 10
192.7620294926527
 20
11.26167978121472
 30
0.0
  0
SPLINE
  5
18E
330
1B
100
AcDbEntity
 67
     1
  8
0
  6
Continuous
 62
     7
370
    25
100
AcDbSpline
210
0.0
220
0.0
230
1.0
 70
     8
 71
     3
 72
    30
 73
    26
 74
     0
 42
0.000000001
 43
0.00000001
 40
0.0
 40
0.0
 40
0.0
 40
0.0
 40
0.0411920285229679
 40
0.0825905321787871
 40
0.124195720365766
 40
0.1660077993715776
 40
0.2080269724314213
 40
0.2502534397849234
 40
0.2926873987317747
 40
0.3353290436861581
 40
0.3781785662300077
 40
0.4212361551650728
 40
0.4645019965638967
 40
0.5079762738196572
 40
0.55165916769496
 40
0.5955508563695674
 40
0.6396515154870926
 40
0.6839613182007359
 40
0.72848043521798
 40
0.7732090348444217
 40
0.818147283026576
 40
0.8632953433938517
 40
0.9086533772996014
 40
0.9542215438613221
 40
1.0
 40
1.0
 40
1.0
 40
1.0
 10
200.3589820441531
 20
1.073913062467055
 30
0.0
 10
200.4344215388232
 20
1.073909814663515
 30
0.0
 10
200.5856786687953
 20
1.073903302776819
 30
0.0
 10
200.8034464195323
 20
1.073839752051775
 30
0.0
 10
201.0148373699982
 20
1.0737234797846
 30
0.0
 10
201.2188255281696
 20
1.073541795328384
 30
0.0
 10
201.4152507650657
 20
1.073286807751109
 30
0.0
 10
201.6037218713991
 20
1.072950461622882
 30
0.0
 10
201.7839134597608
 20
1.072525927390447
 30
0.0
 10
201.9554866196638
 20
1.072007275913098
 30
0.0
 10
202.1181111574164
 20
1.071389615634646
 30
0.0
 10
202.27146043429
 20
1.070669104210636
 30
0.0
 10
202.4152136182754
 20
1.06984299323
 30
0.0
 10
202.5490559557795
 20
1.068909663086024
 30
0.0
 10
202.6726795790728
 20
1.067868659427138
 30
0.0
 10
202.785784238775
 20
1.06672072806123
 30
0.0
 10
202.8880778633012
 20
1.06546784864997
 30
0.0
 10
202.979277953442
 20
1.064113268331418
 30
0.0
 10
203.0591098431455
 20
1.062661529653008
 30
0.0
 10
203.1273167850531
 20
1.0611185135877
 30
0.0
 10
203.1836256208832
 20
1.059491418936256
 30
0.0
 10
203.227879402745
 20
1.057788973329504
 30
0.0
 10
203.259542591642
 20
1.056020765758253
 30
0.0
 10
203.2795641979254
 20
1.054199871860992
 30
0.0
 10
203.2821020371852
 20
1.052958214257965
 30
0.0
 10
203.2833738780022
 20
1.052335956242961
 30
0.0
  0
SPLINE
  5
197
330
1B
100
AcDbEntity
 67
     1
  8
0
  6
Continuous
 62
     7
370
    25
100
AcDbSpline
210
0.0
220
0.0
230
1.0
 70
    24
 71
     3
 72
    10
 73
     6
 74
     0
 42
0.000000001
 43
0.00000001
 40
0.0
 40
0.0
 40
0.0
 40
0.0
 40
0.5
 40
0.5
 40
1.0
 40
1.0
 40
1.0
 40
1.0
 10
-196.293546653611
 20
16.0
 30
0.0
 10
-195.843295581832
 20
16.00000000000001
 30
0.0
 10
-195.2856480420968
 20
16.00000000000001
 30
0.0
 10
-194.0620660234424
 20
16.00000000000001
 30
0.0
 10
-193.3996521158928
 20
16.00000000000001
 30
0.0
 10
-192.762029492653
 20
16.0
 30
0.0
  0
LWPOLYLINE
  5
198
330
1B
100
AcDbEntity
 67
     1
  8
0
  6
Continuous
 62
     7
370
    25
100
AcDbPolyline
 90
        9
 70
   128
 43
0.0
 10
-199.8194097735
 20
11.3695653123
 10
-199.7092652807
 20
12.290632605
 10
-199.4798946407
 20
13.1666501819
 10
-199.1393040683
 20
13.9670405244
 10
-198.6993819264
 20
14.6638658929
 10
-198.17548376
 20
15.2328034983
 10
-197.5858963098
 20
15.6539944921
 10
-196.95119921
 20
15.9127371424
 10
-196.2935466536
 20
16.0
  0
SPLINE
  5
199
330
1B
100
AcDbEntity
 67
     1
  8
0
  6
Continuous
 62
     7
370
    25
100
AcDbSpline
210
0.0
220
0.0
230
1.0
 70
    24
 71
     3
 72
    10
 73
     6
 74
     0
 42
0.000000001
 43
0.00000001
 40
0.0
 40
0.0
 40
0.0
 40
0.0
 40
0.5
 40
0.5
 40
1.0
 40
1.0
 40
1.0
 40
1.0
 10
192.762029492653
 20
16.0
 30
0.0
 10
193.3996521158929
 20
16.00000000000001
 30
0.0
 10
194.0620660234426
 20
16.00000000000003
 30
0.0
 10
195.2856480420972
 20
16.00000000000001
 30
0.0
 10
195.8432955818325
 20
16.00000000000001
 30
0.0
 10
196.2935466536115
 20
16.0
 30
0.0
  0
LWPOLYLINE
  5
19A
330
1B
100
AcDbEntity
 67
     1
  8
0
  6
Continuous
 62
     7
370
    25
100
AcDbPolyline
 90
        9
 70
   128
 43
0.0
 10
199.8194097735
 20
11.3695653123
 10
199.7092652807
 20
12.290632605
 10
199.4798946407
 20
13.1666501819
 10
199.1393040683
 20
13.9670405244
 10
198.6993819264
 20
14.6638658929
 10
198.17548376
 20
15.2328034983
 10
197.5858963098
 20
15.6539944921
 10
196.95119921
 20
15.9127371424
 10
196.2935466536
 20
16.0
  0
SPLINE
  5
19D
330
1B
100
AcDbEntity
 67
     1
  8
0
  6
Continuous
 62
     7
370
    25
100
AcDbSpline
210
0.0
220
0.0
230
1.0
 70
    24
 71
     3
 72
    14
 73
    10
 74
     0
 42
0.000000001
 43
0.00000001
 40
0.0
 40
0.0
 40
0.0
 40
0.0
 40
0.25
 40
0.25
 40
0.5
 40
0.5
 40
0.75
 40
0.75
 40
1.0
 40
1.0
 40
1.0
 40
1.0
 10
-199.653809420182
 20
0.0
 30
0.0
 10
-200.059035384783
 20
0.0
 30
0.0
 10
-200.4329271546979
 20
0.0
 30
0.0
 10
-201.0900970015473
 20
0.0
 30
0.0
 10
-201.3731914560913
 20
0.0
 30
0.0
 10
-201.8289678996694
 20
0.0
 30
0.0
 10
-202.0015630568734
 20
0.0
 30
0.0
 10
-202.2294295707049
 20
0.0
 30
0.0
 10
-202.2847443432475
 20
0.0
 30
0.0
 10
-202.2847443432475
 20
0.0
 30
0.0
  0
SPLINE
  5
1A0
330
1B
100
AcDbEntity
 67
     1
  8
0
  6
Continuous
 62
     7
370
    25
100
AcDbSpline
210
0.0
220
0.0
230
1.0
 70
    24
 71
     3
 72
    14
 73
    10
 74
     0
 42
0.000000001
 43
0.00000001
 40
0.0
 40
0.0
 40
0.0
 40
0.0
 40
0.25
 40
0.25
 40
0.5
 40
0.5
 40
0.75
 40
0.75
 40
1.0
 40
1.0
 40
1.0
 40
1.0
 10
202.2847443432475
 20
0.0
 30
0.0
 10
202.2847443432476
 20
0.0
 30
0.0
 10
202.2294295707051
 20
0.0
 30
0.0
 10
202.0015630568737
 20
0.0
 30
0.0
 10
201.8289678996697
 20
0.0
 30
0.0
 10
201.3731914560916
 20
0.0
 30
0.0
 10
201.0900970015477
 20
0.0
 30
0.0
 10
200.4329271546982
 20
0.0
 30
0.0
 10
200.0590353847832
 20
0.0
 30
0.0
 10
199.653809420182
 20
0.0
 30
0.0
  0
LWPOLYLINE
  5
1A2
330
1B
100
AcDbEntity
 67
     1
  8
0
  6
Continuous
 62
     7
370
    25
100
AcDbPolyline
 90
        3
 70
   128
 43
0.0
 10
-202.5189162395
 20
12.5188120502
 10
-202.6092832086
 20
12.1990223233
 10
-202.7483248402
 20
11.2616797812
  0
SPLINE
  5
1A3
330
1B
100
AcDbEntity
 67
     1
  8
0
  6
Continuous
 62
     7
370
    25
100
AcDbSpline
210
0.0
220
0.0
230
1.0
 70
    24
 71
     3
 72
    10
 73
     6
 74
     0
 42
0.000000001
 43
0.00000001
 40
0.0
 40
0.0
 40
0.0
 40
0.0
 40
0.5
 40
0.5
 40
1.0
 40
1.0
 40
1.0
 40
1.0
 10
-197.7551771664255
 20
16.0
 30
0.0
 10
-197.7551771664255
 20
16.00000000000001
 30
0.0
 10
-197.628572598765
 20
16.00000000000003
 30
0.0
 10
-197.1221543281225
 20
16.00000000000001
 30
0.0
 10
-196.7437977253902
 20
16.00000000000001
 30
0.0
 10
-196.293546653611
 20
16.0
 30
0.0
  0
SPLINE
  5
1A4
330
1B
100
AcDbEntity
 67
     1
  8
0
  6
Continuous
 62
     7
370
    25
100
AcDbSpline
210
0.0
220
0.0
230
1.0
 70
    24
 71
     3
 72
    10
 73
     6
 74
     0
 42
0.000000001
 43
0.00000001
 40
0.0
 40
0.0
 40
0.0
 40
0.0
 40
0.5
 40
0.5
 40
1.0
 40
1.0
 40
1.0
 40
1.0
 10
196.2935466536115
 20
16.0
 30
0.0
 10
196.7437977253906
 20
16.0
 30
0.0
 10
197.1221543281228
 20
16.0
 30
0.0
 10
197.6285725987651
 20
16.0
 30
0.0
 10
197.7551771664256
 20
16.0
 30
0.0
 10
197.7551771664255
 20
16.0
 30
0.0
  0
SPLINE
  5
1A6
330
1B
100
AcDbEntity
 67
     1
  8
0
  6
Continuous
 62
     7
370
    25
100
AcDbSpline
210
0.0
220
0.0
230
1.0
 70
     8
 71
     3
 72
    23
 73
    19
 74
     0
 42
0.000000001
 43
0.00000001
 40
0.0
 40
0.0
 40
0.0
 40
0.0
 40
0.0078125
 40
0.0078125
 40
0.015625
 40
0.0312500000000001
 40
0.0625000000000001
 40
0.1250000000000001
 40
0.2500000000000001
 40
0.4999999999999999
 40
0.7499999999999999
 40
0.8749999999999999
 40
0.9374999999999999
 40
0.9687499999999999
 40
0.984375
 40
0.9921875
 40
0.9921875
 40
1.0
 40
1.0
 40
1.0
 40
1.0
 10
137.5007277677242
 20
-0.1195386087884526
 30
0.0
 10
136.784578147408
 20
-0.1176376708336146
 30
0.0
 10
136.0684285204056
 20
-0.1194299994183717
 30
0.0
 10
134.6361292729018
 20
-0.1194299994184134
 30
0.0
 10
132.487680401646
 20
-0.1194299994184828
 30
0.0
 10
127.4746330353823
 20
-0.119429999418677
 30
0.0
 10
117.448538302855
 20
-0.1194299994187187
 30
0.0
 10
97.39634883780037
 20
-0.1194299994187187
 30
0.0
 10
57.29196990769109
 20
-0.1194299994182885
 30
0.0
 10
0.0000000075350052
 20
-0.1194299994194403
 30
0.0
 10
-57.29196989262123
 20
-0.1194299994184134
 30
0.0
 10
-97.39634882273037
 20
-0.1194299994186909
 30
0.0
 10
-117.4485382877851
 20
-0.1194299994186632
 30
0.0
 10
-127.4746330203123
 20
-0.1194299994187603
 30
0.0
 10
-132.4876803865757
 20
-0.1194299994192044
 30
0.0
 10
-134.6361292578318
 20
-0.1194299994187187
 30
0.0
 10
-136.0684285053356
 20
-0.1194299994186909
 30
0.0
 10
-136.7845781302192
 20
-0.1176376696024606
 30
0.0
 10
-137.5007277527776
 20
-0.119538607871908
 30
0.0
  0
SPLINE
  5
1A7
330
1B
100
AcDbEntity
 67
     1
  8
0
  6
Continuous
 62
     7
370
    25
100
AcDbSpline
210
0.0
220
0.0
230
1.0
 70
     8
 71
     3
 72
    76
 73
    72
 74
     0
 42
0.000000001
 43
0.00000001
 40
0.0
 40
0.0
 40
0.0
 40
0.0
 40
0.0109023780610157
 40
0.0217869652791911
 40
0.032655149961979
 40
0.0435082821952507
 40
0.0543476723598431
 40
0.0651745897245692
 40
0.075990261118886
 40
0.0867958696881734
 40
0.0975925537341528
 40
0.1083814056427295
 40
0.1191634709012153
 40
0.1299397474209611
 40
0.1407112525705504
 40
0.1514791293250851
 40
0.1622445176240517
 40
0.173008530399265
 40
0.1837722530226341
 40
0.1945367428201185
 40
0.2053030286532191
 40
0.2160721105691734
 40
0.2268449595208913
 40
0.2376225171575256
 40
0.2484056956863844
 40
0.2591953850736671
 40
0.2699925462589081
 40
0.2807981986568783
 40
0.2916133588533074
 40
0.3024390395805878
 40
0.313276250111529
 40
0.3241259967003718
 40
0.3349892830713099
 40
0.3458671109547352
 40
0.3567604806712876
 40
0.3676703917637814
 40
0.3785978436733056
 40
0.3895438363140235
 40
0.400509370729848
 40
0.4114954500523135
 40
0.4225030803789218
 40
0.4335332716871132
 40
0.4445870387949569
 40
0.455665402368017
 40
0.4667693899717565
 40
0.4779000371688196
 40
0.489058388660368
 40
0.5002455005379366
 40
0.5225518761446636
 40
0.5447493284015803
 40
0.5668463841411887
 40
0.5888515713489082
 40
0.6107734323161332
 40
0.6326204101326024
 40
0.6543999056275979
 40
0.6761189312459566
 40
0.6977847361193484
 40
0.7194048087558393
 40
0.7409868695990526
 40
0.7625386680978228
 40
0.7840676457501593
 40
0.805581643379144
 40
0.8270890302915165
 40
0.8485986622238434
 40
0.8701198340391776
 40
0.8916616874969094
 40
0.9132325607646942
 40
0.9348414980390397
 40
0.9564984369502938
 40
0.9782141198670754
 40
1.0
 40
1.0
 40
1.0
 40
1.0
 10
172.4776520549432
 20
-0.1039722282418498
 30
0.0
 10
172.4763814600821
 20
-0.1046087866952011
 30
0.0
 10
172.4738423437563
 20
-0.1058808648458226
 30
0.0
 10
172.4571150592139
 20
-0.1077433557184759
 30
0.0
 10
172.43096924122
 20
-0.1095703114493279
 30
0.0
 10
172.3945152818891
 20
-0.1113585957991381
 30
0.0
 10
172.3480380107086
 20
-0.1131090472828861
 30
0.0
 10
172.2915101245507
 20
-0.1148214417174553
 30
0.0
 10
172.2249896779877
 20
-0.1164958391311616
 30
0.0
 10
172.1485138025252
 20
-0.1181322235712379
 30
0.0
 10
172.0621271250577
 20
-0.119730599410256
 30
0.0
 10
171.9658742614376
 20
-0.1212909657112154
 30
0.0
 10
171.8598015290085
 20
-0.1228133226105488
 30
0.0
 10
171.7439574078431
 20
-0.1242976745419039
 30
0.0
 10
171.618387172022
 20
-0.1257440306862839
 30
0.0
 10
171.4831166302875
 20
-0.127152379210127
 30
0.0
 10
171.3381744058337
 20
-0.1285227198625366
 30
0.0
 10
171.1835896851826
 20
-0.1298550525326569
 30
0.0
 10
171.0193930570227
 20
-0.1311493773672873
 30
0.0
 10
170.8456163239833
 20
-0.132405694459492
 30
0.0
 10
170.6622925589796
 20
-0.1336240039274406
 30
0.0
 10
170.4694561194289
 20
-0.1348043059056503
 30
0.0
 10
170.2671425856011
 20
-0.1359466004964838
 30
0.0
 10
170.0553890449016
 20
-0.1370508879678517
 30
0.0
 10
169.834233017987
 20
-0.1381171682451054
 30
0.0
 10
169.6037155994721
 20
-0.1391454468445269
 30
0.0
 10
169.3638604786728
 20
-0.1401357223458632
 30
0.0
 10
169.114681991295
 20
-0.1410879914017366
 30
0.0
 10
168.8561972179128
 20
-0.1420022543545396
 30
0.0
 10
168.5884235977636
 20
-0.1428785111510927
 30
0.0
 10
168.3113797069331
 20
-0.1437167618569962
 30
0.0
 10
168.0250850605312
 20
-0.144517006506778
 30
0.0
 10
167.7295601739473
 20
-0.1452792451434731
 30
0.0
 10
167.4248265549256
 20
-0.1460034778075076
 30
0.0
 10
167.1109067130573
 20
-0.1466897045389465
 30
0.0
 10
166.7878241690436
 20
-0.1473379253767726
 30
0.0
 10
166.4556034492256
 20
-0.1479481403533905
 30
0.0
 10
166.1142701539823
 20
-0.1485203495006915
 30
0.0
 10
165.7638509890316
 20
-0.1490545528573251
 30
0.0
 10
165.4043736860539
 20
-0.149550750450006
 30
0.0
 10
165.0358670237444
 20
-0.1500089423150525
 30
0.0
 10
164.6583608342947
 20
-0.1504291284377679
 30
0.0
 10
164.2718859929368
 20
-0.150811308975346
 30
0.0
 10
163.87647449208
 20
-0.1511554834212614
 30
0.0
 10
163.4721591932317
 20
-0.1514616537325736
 30
0.0
 10
163.0589747872007
 20
-0.1517298126162692
 30
0.0
 10
162.6369542148849
 20
-0.1519599874099109
 30
0.0
 10
162.0637963558223
 20
-0.1522155440867312
 30
0.0
 10
161.3300418162727
 20
-0.1524397347730938
 30
0.0
 10
160.4236221494021
 20
-0.1525559093138312
 30
0.0
 10
159.4936766532208
 20
-0.1525186429018333
 30
0.0
 10
158.5413022303553
 20
-0.1523279849616477
 30
0.0
 10
157.567564349725
 20
-0.1519839199655426
 30
0.0
 10
156.5735307803899
 20
-0.1514864670506405
 30
0.0
 10
155.5602366108283
 20
-0.1508356245188552
 30
0.0
 10
154.5287081552972
 20
-0.1500313820006205
 30
0.0
 10
153.4799602908245
 20
-0.1490737370946627
 30
0.0
 10
152.4149831563243
 20
-0.1479626866981998
 30
0.0
 10
151.3347481042719
 20
-0.1466982327749528
 30
0.0
 10
150.2402109351664
 20
-0.1452803922684098
 30
0.0
 10
149.1322481054172
 20
-0.1437091354666159
 30
0.0
 10
148.0117361742039
 20
-0.1419844548554705
 30
0.0
 10
146.8795324895407
 20
-0.140106346078181
 30
0.0
 10
145.7364729133195
 20
-0.138074809354502
 30
0.0
 10
144.5833855316393
 20
-0.1358898518160345
 30
0.0
 10
143.421096432743
 20
-0.1335515948262672
 30
0.0
 10
142.2503887881062
 20
-0.1310596933263436
 30
0.0
 10
141.0720705040392
 20
-0.1284150473337409
 30
0.0
 10
139.8869288409204
 20
-0.1256142513662989
 30
0.0
 10
138.6957366615475
 20
-0.1226700529884939
 30
0.0
 10
137.8994923578124
 20
-0.1205835458338994
 30
0.0
 10
137.5007277677245
 20
-0.1195386087884387
 30
0.0
  0
SPLINE
  5
1A8
330
1B
100
AcDbEntity
 67
     1
  8
0
  6
Continuous
 62
     7
370
    25
100
AcDbSpline
210
0.0
220
0.0
230
1.0
 70
     8
 71
     3
 72
    76
 73
    72
 74
     0
 42
0.000000001
 43
0.00000001
 40
0.0
 40
0.0
 40
0.0
 40
0.0
 40
0.0109127006146146
 40
0.0218063518560317
 40
0.0326824487056141
 40
0.0435424477031947
 40
0.0543877638322818
 40
0.065219767464355
 40
0.0760397813703066
 40
0.0868490778068336
 40
0.0976488756847864
 40
0.1084403378262662
 40
0.1192245683164836
 40
0.1300026099559318
 40
0.1407754626024294
 40
0.1515442580344754
 40
0.1623101979215923
 40
0.1730744603065024
 40
0.1838381971308843
 40
0.1946025326902075
 40
0.205368562147798
 40
0.2161373501119845
 40
0.2269099292800263
 40
0.2376872991523554
 40
0.2484704248202533
 40
0.2592602358300949
 40
0.2700576439926857
 40
0.2808636246311219
 40
0.2916791661318087
 40
0.3025052430305832
 40
0.3133428156141429
 40
0.3241928295904805
 40
0.3350562158234504
 40
0.3459338901333958
 40
0.3568267531657596
 40
0.3677356903294651
 40
0.3786615718067465
 40
0.3896052596416429
 40
0.4005677255031475
 40
0.411550040609451
 40
0.4225532777608921
 40
0.4335785082633692
 40
0.4446268021943942
 40
0.4556992287278666
 40
0.4667968565185834
 40
0.4779207541473231
 40
0.4890719906273323
 40
0.5002516359729018
 40
0.5225723326599551
 40
0.5447826561638288
 40
0.5668909031754694
 40
0.5889052426861678
 40
0.6108337509096627
 40
0.6326844425694871
 40
0.654465299937301
 40
0.6761842975671034
 40
0.697849422689987
 40
0.7194686943896358
 40
0.7410501798892214
 40
0.7626019347822515
 40
0.7841314105965483
 40
0.8056460136878614
 40
0.8271536108028312
 40
0.8486625276643709
 40
0.8701815367349793
 40
0.8917195895806618
 40
0.9132848932046161
 40
0.9348859791945766
 40
0.9565321104944322
 40
0.9782332460712929
 40
0.9999999999999999
 40
0.9999999999999999
 40
0.9999999999999999
 40
0.9999999999999999
 10
-137.500727752777
 20
-0.1195386078718802
 30
0.0
 10
-137.7004657953881
 20
-0.1200653933531581
 30
0.0
 10
-138.0995932148994
 20
-0.121118044751109
 30
0.0
 10
-138.6975967140042
 20
-0.1226505948919848
 30
0.0
 10
-139.2942750988132
 20
-0.1241472619970957
 30
0.0
 10
-139.889534472809
 20
-0.1256048395255061
 30
0.0
 10
-140.483281249187
 20
-0.1270241845612724
 30
0.0
 10
-141.0754200722461
 20
-0.1284050679025983
 30
0.0
 10
-141.6658543610305
 20
-0.129747550843759
 30
0.0
 10
-142.2544861493122
 20
-0.1310516170274223
 30
0.0
 10
-142.84121612299
 20
-0.1323172709267045
 30
0.0
 10
-143.4259435697596
 20
-0.1335445114113154
 30
0.0
 10
-144.0085664820038
 20
-0.1347333391539945
 30
0.0
 10
-144.5889815075562
 20
-0.1358837541367147
 30
0.0
 10
-145.1670890071535
 20
-0.1369957678548916
 30
0.0
 10
-145.7427860392595
 20
-0.1380693749790662
 30
0.0
 10
-146.315970210675
 20
-0.1391045704904198
 30
0.0
 10
-146.8865401758839
 20
-0.1401013548717606
 30
0.0
 10
-147.4543931297635
 20
-0.1410597280481762
 30
0.0
 10
-148.0194250074838
 20
-0.1419796901240694
 30
0.0
 10
-148.5815304153583
 20
-0.1428612411775304
 30
0.0
 10
-149.1406026367668
 20
-0.1437043813139194
 30
0.0
 10
-149.6965336220797
 20
-0.1445091106530433
 30
0.0
 10
-150.2492139672369
 20
-0.1452754293227859
 30
0.0
 10
-150.7985329534742
 20
-0.1460033374927616
 30
0.0
 10
-151.3443786714799
 20
-0.1466928356427533
 30
0.0
 10
-151.8866403810585
 20
-0.1473439269647908
 30
0.0
 10
-152.425198829415
 20
-0.1479566090618195
 30
0.0
 10
-152.9599343945825
 20
-0.1485308813591463
 30
0.0
 10
-153.4907266200327
 20
-0.1490667439595361
 30
0.0
 10
-154.0174535340687
 20
-0.1495641969345568
 30
0.0
 10
-154.5399917010522
 20
-0.1500232403712914
 30
0.0
 10
-155.058216193797
 20
-0.1504438743579056
 30
0.0
 10
-155.5720005923732
 20
-0.1508260989902671
 30
0.0
 10
-156.081216956083
 20
-0.151169914355806
 30
0.0
 10
-156.5857358762627
 20
-0.1514753205870273
 30
0.0
 10
-157.0854263386014
 20
-0.1517423177159333
 30
0.0
 10
-157.5801584601058
 20
-0.1519709072501652
 30
0.0
 10
-158.0698008585414
 20
-0.1521610883492563
 30
0.0
 10
-158.5542213834426
 20
-0.1523128598102108
 30
0.0
 10
-159.0332886077268
 20
-0.152426221770266
 30
0.0
 10
-159.5068695130268
 20
-0.1525011742749827
 30
0.0
 10
-159.9748296536666
 20
-0.1525377172196946
 30
0.0
 10
-160.4370330332874
 20
-0.1525358512137337
 30
0.0
 10
-160.8933423284704
 20
-0.1524955741486339
 30
0.0
 10
-161.3436180578718
 20
-0.1524168940993109
 30
0.0
 10
-161.7877216347789
 20
-0.1522997809869364
 30
0.0
 10
-162.3705381013357
 20
-0.1520928536666299
 30
0.0
 10
-163.0788829572151
 20
-0.1517396538524146
 30
0.0
 10
-163.8950927217528
 20
-0.1511631096760419
 30
0.0
 10
-164.6757475563312
 20
-0.1504348167871566
 30
0.0
 10
-165.4205826979165
 20
-0.1495547191686097
 30
0.0
 10
-166.129357735092
 20
-0.1485228309799497
 30
0.0
 10
-166.8018468714029
 20
-0.1473391473630487
 30
0.0
 10
-167.4378415520906
 20
-0.146003668269723
 30
0.0
 10
-168.0371501295236
 20
-0.1445163923441267
 30
0.0
 10
-168.599596442524
 20
-0.1428773181072207
 30
0.0
 10
-169.1250219119965
 20
-0.1410864452073696
 30
0.0
 10
-169.6132764614992
 20
-0.1391437709134663
 30
0.0
 10
-170.0642447658336
 20
-0.1370493348545332
 30
0.0
 10
-170.4776724142736
 20
-0.1348031076865014
 30
0.0
 10
-170.8532502232615
 20
-0.1324050596544363
 30
0.0
 10
-171.1907005064127
 20
-0.1298551871719705
 30
0.0
 10
-171.4897641642036
 20
-0.1271534914775996
 30
0.0
 10
-171.7501930554043
 20
-0.1242999608638135
 30
0.0
 10
-171.9717885436861
 20
-0.1212947475469628
 30
0.0
 10
-172.1541106545415
 20
-0.118137520911818
 30
0.0
 10
-172.2970542333339
 20
-0.1148291418600622
 30
0.0
 10
-172.3992953309389
 20
-0.1113662788302106
 30
0.0
 10
-172.4641966028697
 20
-0.1077614012254952
 30
0.0
 10
-172.473162392716
 20
-0.105236556373095
 30
0.0
 10
-172.4776520549375
 20
-0.1039722282164812
 30
0.0
  0
SPLINE
  5
1A9
330
1B
100
AcDbEntity
 67
     1
  8
0
  6
Continuous
 62
     7
370
    25
100
AcDbSpline
210
0.0
220
0.0
230
1.0
 70
     8
 71
     3
 72
     8
 73
     4
 74
     0
 42
0.000000001
 43
0.00000001
 40
0.0
 40
0.0
 40
0.0
 40
0.0
 40
1.0
 40
1.0
 40
1.0
 40
1.0
 10
145.3469629844634
 20
-126.3850450177708
 30
0.0
 10
145.346995165335
 20
-126.3848952259552
 30
0.0
 10
145.3470113387232
 20
-126.3848199506704
 30
0.0
 10
145.3470113387232
 20
-126.3848199506702
 30
0.0
  0
SPLINE
  5
1AA
330
1B
100
AcDbEntity
 67
     1
  8
0
  6
Continuous
 62
     7
370
    25
100
AcDbSpline
210
0.0
220
0.0
230
1.0
 70
     8
 71
     3
 72
    77
 73
    73
 74
     0
 42
0.000000001
 43
0.00000001
 40
0.0
 40
0.0
 40
0.0
 40
0.0
 40
0.0108517712344777
 40
0.0217190021871586
 40
0.032600562262301
 40
0.0434954029878366
 40
0.0544025597786484
 40
0.0653211534967594
 40
0.0762503918141429
 40
0.0871895703828898
 40
0.0981380738166838
 40
0.1090953764867353
 40
0.1200610395549508
 40
0.1310343332713484
 40
0.142013892421676
 40
0.1529983439463793
 40
0.1639863877114911
 40
0.1749767991729712
 40
0.1859684318137679
 40
0.1969602193629691
 40
0.2079511778051359
 40
0.2189404071867158
 40
0.229927093225426
 40
0.2409105082491096
 40
0.2518897778163856
 40
0.2628634841359005
 40
0.2738301618718998
 40
0.2847883990982015
 40
0.2957368408748546
 40
0.3066741925748028
 40
0.3175992229735866
 40
0.3285107671137912
 40
0.3394077289546223
 40
0.3502890838158514
 40
0.3611538806241497
 40
0.3720012221192717
 40
0.3828299494478378
 40
0.3936386836629028
 40
0.4044260666294406
 40
0.415190771799719
 40
0.4259315082641708
 40
0.4366470245524062
 40
0.4473361121980993
 40
0.4579976090803531
 40
0.4686304025532207
 40
0.4792334323739313
 40
0.489805693439466
 40
0.5003462323310737
 40
0.5202332479168861
 40
0.540259266805801
 40
0.5604170948612329
 40
0.5806991604450701
 40
0.6010976105796235
 40
0.6216044171085041
 40
0.6422116672821915
 40
0.6629121648515354
 40
0.6836983319076052
 40
0.7045618801320632
 40
0.7254938999736412
 40
0.7464849605794348
 40
0.7675254890528282
 40
0.7886080297713475
 40
0.8097256639424191
 40
0.8308705032825892
 40
0.8520337474427483
 40
0.8732057689598441
 40
0.8943767249588029
 40
0.9155403225084339
 40
0.9366913343033283
 40
0.9578234109903124
 40
0.9789291181975542
 40
1.0
 40
1.0
 40
1.0
 40
1.0
 10
110.3319616367616
 20
-126.4548694153047
 30
0.0
 10
110.5305963688266
 20
-126.4572510253751
 30
0.0
 10
110.9281488132107
 20
-126.4620176384202
 30
0.0
 10
111.5246708756662
 20
-126.468940423524
 30
0.0
 10
112.1216062008138
 20
-126.4757039389415
 30
0.0
 10
112.7187196323071
 20
-126.4822913980762
 30
0.0
 10
113.315783283333
 20
-126.4887073052698
 30
0.0
 10
113.912572297594
 20
-126.4949504490911
 30
0.0
 10
114.5088659481008
 20
-126.5010211520697
 30
0.0
 10
115.104447321249
 20
-126.506919325707
 30
0.0
 10
115.6991033128172
 20
-126.5126449889852
 30
0.0
 10
116.2926247291464
 20
-126.518198141681
 30
0.0
 10
116.8847985900115
 20
-126.5235786870934
 30
0.0
 10
117.4753983664335
 20
-126.5287865251111
 30
0.0
 10
118.0641893604072
 20
-126.5338218556232
 30
0.0
 10
118.6509264271598
 20
-126.5386846738504
 30
0.0
 10
119.2353679975093
 20
-126.5433749827268
 30
0.0
 10
119.8172770677983
 20
-126.5478927796891
 30
0.0
 10
120.3964212668185
 20
-126.5522380635506
 30
0.0
 10
120.9725727889113
 20
-126.5564108325956
 30
0.0
 10
121.545508388085
 20
-126.5604110853588
 30
0.0
 10
122.1150092620684
 20
-126.5642388194521
 30
0.0
 10
122.6808613074292
 20
-126.5678940354548
 30
0.0
 10
123.2428499671253
 20
-126.5713766975133
 30
0.0
 10
123.8007538409652
 20
-126.5746867317025
 30
0.0
 10
124.354364062709
 20
-126.5778242445008
 30
0.0
 10
124.9034627322552
 20
-126.5807892389731
 30
0.0
 10
125.4478356122815
 20
-126.5835817159278
 30
0.0
 10
125.9872730328124
 20
-126.5862016740122
 30
0.0
 10
126.5215700397332
 20
-126.5886491123048
 30
0.0
 10
127.0505263172122
 20
-126.5909240296487
 30
0.0
 10
127.5739461265164
 20
-126.5930264247758
 30
0.0
 10
128.0916384049164
 20
-126.594956296511
 30
0.0
 10
128.6034162093062
 20
-126.5967136428712
 30
0.0
 10
129.1090982770988
 20
-126.5982984634255
 30
0.0
 10
129.6084965917112
 20
-126.5997107324715
 30
0.0
 10
130.101447898211
 20
-126.6009504614405
 30
0.0
 10
130.5878041238803
 20
-126.6020176683499
 30
0.0
 10
131.0674129379014
 20
-126.602912351257
 30
0.0
 10
131.5401271434755
 20
-126.6036345102265
 30
0.0
 10
132.0058032217442
 20
-126.6041841444823
 30
0.0
 10
132.4643016974586
 20
-126.6045612536162
 30
0.0
 10
132.9154870215791
 20
-126.6047658358887
 30
0.0
 10
133.3592274721934
 20
-126.6047978938377
 30
0.0
 10
133.7953954622891
 20
-126.60465741365
 30
0.0
 10
134.2238662086077
 20
-126.6043444418067
 30
0.0
 10
134.644522445656
 20
-126.6038588003722
 30
0.0
 10
135.1796524687957
 20
-126.6030060769588
 30
0.0
 10
135.8226078053012
 20
-126.6015483802205
 30
0.0
 10
136.5631562363787
 20
-126.5991836444839
 30
0.0
 10
137.2826462912346
 20
-126.5961788948268
 30
0.0
 10
137.9796204343652
 20
-126.5925338106402
 30
0.0
 10
138.6525836971807
 20
-126.5882484728874
 30
0.0
 10
139.3000115750234
 20
-126.5833228364641
 30
0.0
 10
139.9203094055052
 20
-126.5777567745958
 30
0.0
 10
140.5123193092017
 20
-126.5715504584189
 30
0.0
 10
141.0749359757605
 20
-126.564703949531
 30
0.0
 10
141.6070226173183
 20
-126.5572172613522
 30
0.0
 10
142.1074183986158
 20
-126.5490903847013
 30
0.0
 10
142.5749586070848
 20
-126.5403233344958
 30
0.0
 10
143.008403722137
 20
-126.5309154464027
 30
0.0
 10
143.4069525655961
 20
-126.5208671045006
 30
0.0
 10
143.7700051666854
 20
-126.5101786991148
 30
0.0
 10
144.0969298379203
 20
-126.4988502265187
 30
0.0
 10
144.3871006965732
 20
-126.4868817043812
 30
0.0
 10
144.6398980433974
 20
-126.4742730703408
 30
0.0
 10
144.8546780603583
 20
-126.4610231052124
 30
0.0
 10
145.0311400592682
 20
-126.4471315148265
 30
0.0
 10
145.1694772063554
 20
-126.4326034940738
 30
0.0
 10
145.2686764533416
 20
-126.4174224320639
 30
0.0
 10
145.3322148753917
 20
-126.4016501816168
 30
0.0
 10
145.3420496549804
 20
-126.3905770246671
 30
0.0
 10
145.3469629844633
 20
-126.3850450177708
 30
0.0
  0
LWPOLYLINE
  5
1B0
330
1B
100
AcDbEntity
 67
     1
  8
0
  6
Continuous
 62
     7
370
    25
100
AcDbPolyline
 90
        2
 70
   128
 43
0.0
 10
-172.4776904963
 20
-0.103840599
 10
-172.4776904963
 20
-0.103840599
  0
LWPOLYLINE
  5
1B1
330
1B
100
AcDbEntity
 67
     1
  8
0
  6
Continuous
 62
     7
370
    25
100
AcDbPolyline
 90
        2
 70
   128
 43
0.0
 10
172.4776904963
 20
-0.103840599
 10
172.4776904963
 20
-0.103840599
  0
SPLINE
  5
1B4
330
1B
100
AcDbEntity
 67
     1
  8
0
  6
Continuous
 62
     7
370
    25
100
AcDbSpline
210
0.0
220
0.0
230
1.0
 70
     8
 71
     3
 72
    24
 73
    20
 74
     0
 42
0.000000001
 43
0.00000001
 40
0.0
 40
0.0
 40
0.0
 40
0.0
 40
0.0262600447710042
 40
0.0785041853020484
 40
0.1296510928342952
 40
0.1815056504459518
 40
0.2311387276695545
 40
0.2965298001065759
 40
0.3579742961343967
 40
0.4264319510599549
 40
0.4874190851374175
 40
0.5536002330940613
 40
0.6162746710115458
 40
0.6810339155839222
 40
0.7435909106222577
 40
0.807412519897774
 40
0.8711693114941986
 40
0.9354737297459755
 40
1.0
 40
1.0
 40
1.0
 40
1.0
 10
-111.2761662898094
 20
-127.9632618435072
 30
0.0
 10
-111.7235272777666
 20
-127.9636824396479
 30
0.0
 10
-113.0609092282452
 20
-127.9649398083106
 30
0.0
 10
-115.2580079164618
 20
-127.9668524549095
 30
0.0
 10
-117.8579658299156
 20
-127.9687038545529
 30
0.0
 10
-120.3667056134843
 20
-127.9702401682891
 30
0.0
 10
-123.0405104533248
 20
-127.9715379983734
 30
0.0
 10
-125.7676793546006
 20
-127.9726317395082
 30
0.0
 10
-128.6298692972097
 20
-127.9732933511097
 30
0.0
 10
-131.2467464717774
 20
-127.9735651929286
 30
0.0
 10
-133.7142204802531
 20
-127.9734880819462
 30
0.0
 10
-135.8820900146504
 20
-127.9729690962789
 30
0.0
 10
-137.8359052266262
 20
-127.9720511257197
 30
0.0
 10
-139.4847362056827
 20
-127.970670000095
 30
0.0
 10
-140.8571585046309
 20
-127.9688582053715
 30
0.0
 10
-141.9284725960134
 20
-127.9665888331284
 30
0.0
 10
-142.689648382743
 20
-127.9636319208252
 30
0.0
 10
-143.1534793291027
 20
-127.9599863321781
 30
0.0
 10
-143.1871431373401
 20
-127.9572624788752
 30
0.0
 10
-143.2040040267238
 20
-127.9558982069272
 30
0.0
  0
SPLINE
  5
1B7
330
1B
100
AcDbEntity
 67
     1
  8
0
  6
Continuous
 62
     7
370
    25
100
AcDbSpline
210
0.0
220
0.0
230
1.0
 70
     8
 71
     3
 72
    13
 73
     9
 74
     0
 42
0.000000001
 43
0.00000001
 40
0.0
 40
0.0
 40
0.0
 40
0.0
 40
0.010301059499226
 40
0.1532783813402201
 40
0.3652849806076935
 40
0.5771666987514007
 40
0.78878460665667
 40
1.0
 40
1.0
 40
1.0
 40
1.0
 10
136.730533766864
 20
-127.9724970112454
 30
0.0
 10
136.6724849257545
 20
-127.972534883132
 30
0.0
 10
135.8087259692511
 20
-127.9730984117177
 30
0.0
 10
133.2058677803125
 20
-127.9735849381057
 30
0.0
 10
128.7213663430173
 20
-127.9735835682935
 30
0.0
 10
122.8727228606724
 20
-127.9717342307236
 30
0.0
 10
116.5566563055145
 20
-127.9683147605344
 30
0.0
 10
112.1841646428711
 20
-127.9641515264522
 30
0.0
 10
110.0
 20
-127.9620718909986
 30
0.0
  0
SPLINE
  5
1CB
330
1B
100
AcDbEntity
 67
     1
  8
0
  6
Continuous
 62
     8
370
    25
100
AcDbSpline
210
0.0
220
0.0
230
1.0
 70
     8
 71
     3
 72
    11
 73
     7
 74
     0
 42
0.000000001
 43
0.00000001
 40
0.0
 40
0.0
 40
0.0
 40
0.0
 40
0.1547145492439438
 40
0.4442694991599966
 40
0.7260277499342062
 40
1.0
 40
1.0
 40
1.0
 40
1.0
 10
202.6474868704628
 20
11.28456028639577
 30
0.0
 10
202.6217549262663
 20
11.29315931878042
 30
0.0
 10
202.5478645389924
 20
11.31785181104737
 30
0.0
 10
201.9935732909588
 20
11.34498628166475
 30
0.0
 10
201.0909513679517
 20
11.36604623467045
 30
0.0
 10
200.2392795537141
 20
11.36840329422101
 30
0.0
 10
199.819409773467
 20
11.36956531233524
 30
0.0
  0
SPLINE
  5
1D0
330
1B
100
AcDbEntity
 67
     1
  8
0
  6
Continuous
 62
     8
370
    25
100
AcDbSpline
210
0.0
220
0.0
230
1.0
 70
     8
 71
     3
 72
    17
 73
    13
 74
     0
 42
0.000000001
 43
0.00000001
 40
0.0
 40
0.0
 40
0.0
 40
0.0
 40
0.0242763113773939
 40
0.0896680628701184
 40
0.2057721942155978
 40
0.3382942963388176
 40
0.4704253419948954
 40
0.603407247031966
 40
0.7351359771276754
 40
0.82378490184508
 40
0.9117093127571594
 40
1.0
 40
1.0
 40
1.0
 40
1.0
 10
-145.146369578368
 20
-126.4264754214358
 30
0.0
 10
-145.1245863761208
 20
-126.4322020393062
 30
0.0
 10
-145.0441269719615
 20
-126.4533541296403
 30
0.0
 10
-144.3397293532331
 20
-126.4937045543083
 30
0.0
 10
-142.7236458606919
 20
-126.5455353518021
 30
0.0
 10
-139.5729204048318
 20
-126.5868377869031
 30
0.0
 10
-135.1868605158049
 20
-126.6070824525259
 30
0.0
 10
-129.8547534922658
 20
-126.6041808817709
 30
0.0
 10
-124.4423430169154
 20
-126.5812636438509
 30
0.0
 10
-119.3933596419704
 20
-126.5463259448592
 30
0.0
 10
-114.8994977103801
 20
-126.5068574431763
 30
0.0
 10
-111.8565818422186
 20
-126.4723864454777
 30
0.0
 10
-110.3319614434266
 20
-126.455115121348
 30
0.0
  0
LINE
  5
1D7
330
1B
100
AcDbEntity
 67
     1
  8
0
  6
Continuous
 62
     7
370
    25
100
AcDbLine
 10
-111.2861441762
 20
-127.9569247344
 30
0.0
 11
-110.0
 21
-127.9560371671
 31
0.0
  0
LINE
  5
1D8
330
1B
100
AcDbEntity
 67
     1
  8
0
  6
Continuous
 62
     7
370
    25
100
AcDbLine
 10
-110.0
 20
-127.9560371671
 30
0.0
 11
110.0
 21
-127.9560371671
 31
0.0
  0
LINE
  5
1D9
330
1B
100
AcDbEntity
 67
     1
  8
0
  6
Continuous
 62
     7
370
    25
100
AcDbLine
 10
39.0
 20
-152.0
 30
0.0
 11
39.0
 21
-128.0
 31
0.0
  0
LINE
  5
1DA
330
1B
100
AcDbEntity
 67
     1
  8
0
  6
Continuous
 62
     7
370
    25
100
AcDbLine
 10
-39.0
 20
-128.0
 30
0.0
 11
-39.0
 21
-152.0
 31
0.0
  0
LINE
  5
1DB
330
1B
100
AcDbEntity
 67
     1
  8
0
  6
Continuous
 62
     7
370
    25
100
AcDbLine
 10
-193.2970785305
 20
0.0
 30
0.0
 11
-193.2970785305
 21
1.0523359562
 31
0.0
  0
LINE
  5
1DC
330
1B
100
AcDbEntity
 67
     1
  8
0
  6
Continuous
 62
     7
370
    25
100
AcDbLine
 10
193.2970785305
 20
0.0
 30
0.0
 11
193.2970785305
 21
1.0523359562
 31
0.0
  0
LINE
  5
1DD
330
1B
100
AcDbEntity
 67
     1
  8
0
  6
Continuous
 62
     7
370
    25
100
AcDbLine
 10
-192.7620294927
 20
11.2616797812
 30
0.0
 11
-193.2970785305
 21
1.0523359562
 31
0.0
  0
LINE
  5
1DE
330
1B
100
AcDbEntity
 67
     1
  8
0
  6
Continuous
 62
     7
370
    25
100
AcDbLine
 10
-203.283373878
 20
1.0523359562
 30
0.0
 11
-202.7483248402
 21
11.2616797812
 31
0.0
  0
LINE
  5
1DF
330
1B
100
AcDbEntity
 67
     1
  8
0
  6
Continuous
 62
     7
370
    25
100
AcDbLine
 10
202.7483248402
 20
11.2616797812
 30
0.0
 11
202.6474868705
 21
11.2845602864
 31
0.0
  0
LINE
  5
1E0
330
1B
100
AcDbEntity
 67
     1
  8
0
  6
Continuous
 62
     7
370
    25
100
AcDbLine
 10
202.7483248402
 20
11.2616797812
 30
0.0
 11
203.283373878
 21
1.0523359562
 31
0.0
  0
LINE
  5
1E1
330
1B
100
AcDbEntity
 67
     1
  8
0
  6
Continuous
 62
     7
370
    25
100
AcDbLine
 10
193.2970785305
 20
1.0523359562
 30
0.0
 11
192.7620294927
 21
11.2616797812
 31
0.0
  0
LINE
  5
1E2
330
1B
100
AcDbEntity
 67
     1
  8
0
  6
Continuous
 62
     7
370
    25
100
AcDbLine
 10
-193.2970785305
 20
1.0523359562
 30
0.0
 11
193.2970785305
 21
1.0523359562
 31
0.0
  0
LINE
  5
1E3
330
1B
100
AcDbEntity
 67
     1
  8
0
  6
Continuous
 62
     7
370
    25
100
AcDbLine
 10
193.2970785305
 20
1.0
 30
0.0
 11
-193.2970785305
 21
1.0
 31
0.0
  0
LINE
  5
1E4
330
1B
100
AcDbEntity
 67
     1
  8
0
  6
Continuous
 62
     7
370
    25
100
AcDbLine
 10
192.7620294927
 20
11.2616797812
 30
0.0
 11
-192.7620294927
 21
11.2616797812
 31
0.0
  0
LINE
  5
1E5
330
1B
100
AcDbEntity
 67
     1
  8
0
  6
Continuous
 62
     7
370
    25
100
AcDbLine
 10
193.2970785305
 20
0.0
 30
0.0
 11
-193.2970785305
 21
0.0
 31
0.0
  0
LINE
  5
1E6
330
1B
100
AcDbEntity
 67
     1
  8
0
  6
Continuous
 62
     7
370
    25
100
AcDbLine
 10
-192.7620294927
 20
16.0
 30
0.0
 11
192.7620294927
 21
16.0
 31
0.0
  0
LINE
  5
1E7
330
1B
100
AcDbEntity
 67
     1
  8
0
  6
Continuous
 62
     7
370
    25
100
AcDbLine
 10
192.7620294927
 20
16.0
 30
0.0
 11
192.7620294927
 21
11.2616797812
 31
0.0
  0
LINE
  5
1E8
330
1B
100
AcDbEntity
 67
     1
  8
0
  6
Continuous
 62
     7
370
    25
100
AcDbLine
 10
-192.7620294927
 20
16.0
 30
0.0
 11
-192.7620294927
 21
11.2616797812
 31
0.0
  0
LINE
  5
1E9
330
1B
100
AcDbEntity
 67
     1
  8
0
  6
Continuous
 62
     7
370
    25
100
AcDbLine
 10
109.9999999997
 20
-126.4547287629
 30
0.0
 11
110.3319616368
 21
-126.4548694153
 31
0.0
  0
LINE
  5
1EA
330
1B
100
AcDbEntity
 67
     1
  8
0
  6
Continuous
 62
     7
370
    25
100
AcDbLine
 10
-110.0000000003
 20
-126.4547287629
 30
0.0
 11
109.9999999997
 21
-126.4547287629
 31
0.0
  0
LINE
  5
1EB
330
1B
100
AcDbEntity
 67
     1
  8
0
  6
Continuous
 62
     7
370
    25
100
AcDbLine
 10
-110.3319616368
 20
-126.4548694153
 30
0.0
 11
-110.0000000003
 21
-126.4547287629
 31
0.0
  0
LINE
  5
1EC
330
1B
100
AcDbEntity
 67
     1
  8
0
  6
Continuous
 62
     7
370
    25
100
AcDbLine
 10
-145.3469597401
 20
-126.385064797
 30
0.0
 11
-145.1463695784
 21
-126.4264754214
 31
0.0
  0
LINE
  5
1ED
330
1B
100
AcDbEntity
 67
     1
  8
0
  6
Continuous
 62
     7
370
    25
100
AcDbLine
 10
-172.4776904963
 20
-0.103840599
 30
0.0
 11
-145.3470113387
 21
-126.3848199507
 31
0.0
  0
LINE
  5
1EE
330
1B
100
AcDbEntity
 67
     1
  8
0
  6
Continuous
 62
     7
370
    25
100
AcDbLine
 10
145.3470113387
 20
-126.3848199507
 30
0.0
 11
172.4776904963
 21
-0.103840599
 31
0.0
  0
LINE
  5
1EF
330
1B
100
AcDbEntity
 67
     1
  8
0
  6
Continuous
 62
     7
370
    25
100
AcDbLine
 10
-110.0
 20
-126.4547287629
 30
0.0
 11
-110.0
 21
-128.0
 31
0.0
  0
LINE
  5
1F0
330
1B
100
AcDbEntity
 67
     1
  8
0
  6
Continuous
 62
     7
370
    25
100
AcDbLine
 10
110.0
 20
-126.4547287629
 30
0.0
 11
110.0
 21
-128.0
 31
0.0
  0
LINE
  5
1F1
330
1B
100
AcDbEntity
 67
     1
  8
0
  6
Continuous
 62
     7
370
    25
100
AcDbLine
 10
110.0
 20
-127.962071891
 30
0.0
 11
-110.0
 21
-127.962071891
 31
0.0
  0
LINE
  5
1F2
330
1B
100
AcDbEntity
 67
     1
  8
0
  6
Continuous
 62
     7
370
    25
100
AcDbLine
 10
111.6589251385
 20
-127.9678634449
 30
0.0
 11
110.8578643763
 21
-128.0
 31
0.0
  0
LINE
  5
1F3
330
1B
100
AcDbEntity
 67
     1
  8
0
  6
Continuous
 62
     7
370
    25
100
AcDbLine
 10
-111.5412269912
 20
-127.9766234537
 30
0.0
 11
-110.8578643763
 21
-128.0
 31
0.0
  0
LINE
  5
1F4
330
1B
100
AcDbEntity
 67
     1
  8
0
  6
Continuous
 62
     7
370
    25
100
AcDbLine
 10
0.0
 20
-128.0
 30
0.0
 11
0.0
 21
-153.0
 31
0.0
  0
LINE
  5
1F5
330
1B
100
AcDbEntity
 67
     1
  8
0
  6
Continuous
 62
     7
370
    25
100
AcDbLine
 10
38.0
 20
-153.0
 30
0.0
 11
-38.0
 21
-153.0
 31
0.0
  0
LINE
  5
1F6
330
1B
100
AcDbEntity
 67
     1
  8
0
  6
Continuous
 62
     7
370
    25
100
AcDbLine
 10
143.3840503504
 20
-128.0
 30
0.0
 11
143.2260392616
 21
-127.9612956699
 31
0.0
  0
LINE
  5
1F7
330
1B
100
AcDbEntity
 67
     1
  8
0
  6
Continuous
 62
     7
370
    25
100
AcDbLine
 10
143.3840503504
 20
-128.0
 30
0.0
 11
-143.3840503504
 21
-128.0
 31
0.0
  0
LINE
  5
1F8
330
1B
100
AcDbEntity
 67
     1
  8
0
  6
Continuous
 62
     8
370
    25
100
AcDbLine
 10
-137.5003692753
 20
0.0
 30
0.0
 11
-137.5007277528
 21
-0.1195386079
 31
0.0
  0
LINE
  5
1F9
330
1B
100
AcDbEntity
 67
     1
  8
0
  6
Continuous
 62
     8
370
    25
100
AcDbLine
 10
137.50036929
 20
0.0
 30
0.0
 11
137.5007277677
 21
-0.1195386088
 31
0.0
  0
LINE
  5
1FA
330
1B
100
AcDbEntity
 67
     1
  8
0
  6
Continuous
 62
     8
370
    25
100
AcDbLine
 10
-39.0
 20
-152.0
 30
0.0
 11
39.0
 21
-152.0
 31
0.0
  0
ARC
  5
1FB
330
1B
100
AcDbEntity
 67
     1
  8
0
  6
Continuous
 62
     7
370
    25
100
AcDbCircle
 10
-38.0
 20
-152.0
 30
0.0
 40
1.000000000000007
100
AcDbArc
 50
180.0
 51
270.0
  0
ARC
  5
1FC
330
1B
100
AcDbEntity
 67
     1
  8
0
  6
Continuous
 62
     7
370
    25
100
AcDbCircle
 10
38.0
 20
-152.0
 30
0.0
 40
1.0
100
AcDbArc
 50
270.0
 51
0.0
  0
ARC
  5
1FD
330
1B
100
AcDbEntity
 67
     1
  8
0
  6
Continuous
 62
     7
370
    25
100
AcDbCircle
 10
-199.4594313988
 20
0.896114351
 30
0.0
 40
0.9169535131569436
100
AcDbArc
 50
168.8194373997
 51
257.7614477466
  0
ARC
  5
1FE
330
1B
100
AcDbEntity
 67
     1
  8
0
  6
Continuous
 62
     7
370
    25
100
AcDbCircle
 10
199.4594313988
 20
0.896114351
 30
0.0
 40
0.9169535131578443
100
AcDbArc
 50
282.2385522534
 51
11.1805626002
  0
ARC
  5
1FF
330
1B
100
AcDbEntity
 67
     1
  8
0
  6
Continuous
 62
     7
370
    25
100
AcDbCircle
 10
-202.2847443425
 20
1.0
 30
0.0
 40
1.000000000742318
100
AcDbArc
 50
177.0000000016
 51
270.0
  0
ARC
  5
200
330
1B
100
AcDbEntity
 67
     1
  8
0
  6
Continuous
 62
     7
370
    25
100
AcDbCircle
 10
202.2847443432
 20
1.0
 30
0.0
 40
1.000000000743085
100
AcDbArc
 50
270.0
 51
2.9999999984
  0
ARC
  5
201
330
1B
100
AcDbEntity
 67
     1
  8
0
  6
Continuous
 62
     7
370
    25
100
AcDbCircle
 10
-197.7551771664
 20
11.0
 30
0.0
 40
4.999999999991516
100
AcDbArc
 50
90.0
 51
111.9141745476
  0
ARC
  5
202
330
1B
100
AcDbEntity
 67
     1
  8
0
  6
Continuous
 62
     7
370
    25
100
AcDbCircle
 10
197.7551771664
 20
11.0
 30
0.0
 40
5.00000000000025
100
AcDbArc
 50
3.0
 51
90.0
  0
ARC
  5
203
330
1B
100
AcDbEntity
 67
     1
  8
0
  6
Continuous
 62
     7
370
    25
100
AcDbCircle
 10
-143.3916303461
 20
-125.9647185655
 30
0.0
 40
2.000000000000455
100
AcDbArc
 50
192.1253229741
 51
275.3830137947
  0
ARC
  5
204
330
1B
100
AcDbEntity
 67
     1
  8
0
  6
Continuous
 62
     7
370
    25
100
AcDbCircle
 10
143.3916303461
 20
-125.9647185655
 30
0.0
 40
1.999999999999822
100
AcDbArc
 50
264.6169862053
 51
347.8746770259
  0
ARC
  5
205
330
1B
100
AcDbEntity
 67
     1
  8
0
  6
Continuous
 62
     7
370
    25
100
AcDbCircle
 10
143.3840503504
 20
-126.0
 30
0.0
 40
2.000000000000227
100
AcDbArc
 50
270.0
 51
347.8746770259
  0
ARC
  5
206
330
1B
100
AcDbEntity
 67
     1
  8
0
  6
Continuous
 62
     7
370
    25
100
AcDbCircle
 10
-143.3840503504
 20
-126.0
 30
0.0
 40
2.000000000000298
100
AcDbArc
 50
192.1253229741
 51
270.0000000001
  0
ARC
  5
207
330
1B
100
AcDbEntity
 67
     1
  8
0
  6
Continuous
 62
     8
370
    25
100
AcDbCircle
 10
171.5000120248
 20
0.1062560457
 30
0.0
 40
0.9999879777809236
100
AcDbArc
 50
347.8641218681
 51
353.9003888461
  0
ARC
  5
208
330
1B
100
AcDbEntity
 67
     1
  8
0
  6
Continuous
 62
     8
370
    25
100
AcDbCircle
 10
-171.5000120246
 20
0.1062560458
 30
0.0
 40
0.9999879779529469
100
AcDbArc
 50
186.0996111617
 51
192.1358781373
  0
VIEWPORT
  5
369
330
1B
100
AcDbEntity
 67
     1
  8
0
100
AcDbViewport
 10
0.0
 20
0.0
 30
0.0
 40
205.6
 41
156.0
 68
     1
 69
     1
 12
0.0
 22
-68.5
 13
0.0
 23
0.0
 14
10.0
 24
10.0
 15
10.0
 25
10.0
 16
0.0
 26
0.0
 36
1.0
 17
0.0
 27
0.0
 37
0.0
 42
50.0
 43
0.0
 44
0.0
 45
314.6563085593
 50
0.0
 51
0.0
 72
   100
 90
   557152
  1

281
     0
 71
     1
 74
     0
110
0.0
120
0.0
130
0.0
111
1.0
121
0.0
131
0.0
112
0.0
122
1.0
132
0.0
 79
     0
146
0.0
  0
ENDSEC
  0
SECTION
  2
OBJECTS
  0
DICTIONARY
  5
C
330
0
100
AcDbDictionary
281
     1
  3
ACAD_GROUP
350
D
  3
ACAD_LAYOUT
350
1A
  3
ACAD_MLINESTYLE
350
17
  3
ACAD_PLOTSETTINGS
350
19
  3
ACAD_PLOTSTYLENAME
350
E
  3
ACAD_SCALELIST
350
47
  0
DICTIONARY
  5
D
102
{ACAD_REACTORS
330
C
102
}
330
C
100
AcDbDictionary
281
     1
  0
DICTIONARY
  5
1A
102
{ACAD_REACTORS
330
C
102
}
330
C
100
AcDbDictionary
281
     1
  3
_Back
350
1E
  3
_Left
350
26
  3
_Top
350
29A
  3
Model
350
22
  0
DICTIONARY
  5
17
102
{ACAD_REACTORS
330
C
102
}
330
C
100
AcDbDictionary
281
     1
  3
Standard
350
18
  0
DICTIONARY
  5
19
102
{ACAD_REACTORS
330
C
102
}
330
C
100
AcDbDictionary
281
     1
  0
ACDBDICTIONARYWDFLT
  5
E
102
{ACAD_REACTORS
330
C
102
}
330
C
100
AcDbDictionary
281
     1
  3
Normal
350
F
100
AcDbDictionaryWithDefault
340
F
  0
DICTIONARY
  5
47
102
{ACAD_REACTORS
330
C
102
}
330
C
100
AcDbDictionary
281
     1
  3
A0
350
48
  3
A1
350
49
  3
A2
350
4A
  3
A3
350
4B
  3
A4
350
4C
  3
A5
350
4D
  3
A6
350
4E
  3
A7
350
4F
  3
A8
350
50
  3
A9
350
51
  3
B0
350
52
  3
B1
350
53
  3
B2
350
54
  3
B3
350
55
  3
B4
350
56
  3
B5
350
57
  3
B6
350
58
  3
B7
350
59
  3
B8
350
5A
  3
B9
350
5B
  3
C0
350
5C
  3
C1
350
5D
  3
C2
350
5E
  3
C3
350
5F
  3
C4
350
60
  3
C5
350
61
  3
C6
350
62
  3
C7
350
63
  3
C8
350
64
  3
C9
350
65
  3
D0
350
66
  3
D1
350
67
  3
D2
350
68
  0
LAYOUT
  5
1E
102
{ACAD_REACTORS
330
1A
102
}
330
1A
100
AcDbPlotSettings
  1

  2
none_device
  4
ISO_A4_(210.00_x_297.00_MM)
  6

 40
7.5
 41
20.0
 42
7.5
 43
20.0
 44
210.0
 45
297.0
 46
0.0
 47
0.0
 48
0.0
 49
0.0
140
0.0
141
0.0
142
1.0
143
1.5819824463
 70
   688
 72
     1
 73
     1
 74
     1
  7

 75
     0
147
0.6321182655
148
203.2847443432
149
153.0
100
AcDbLayout
  1
_Back
 70
     1
 71
     1
 10
-234.9243932683
 20
-164.8648683469
 11
234.9243932691
 21
167.3514453664
 12
0.0
 22
0.0
 32
0.0
 14
-203.2847443432
 24
-153.0
 34
0.0
 15
203.284744344
 25
16.0
 35
0.0
146
0.0
 13
0.0
 23
0.0
 33
0.0
 16
1.0
 26
0.0
 36
0.0
 17
0.0
 27
1.0
 37
0.0
 76
     0
330
1B
331
369
  0
LAYOUT
  5
26
102
{ACAD_REACTORS
330
1A
102
}
330
1A
100
AcDbPlotSettings
  1

  2
none_device
  4
ISO_A4_(210.00_x_297.00_MM)
  6

 40
7.5
 41
20.0
 42
7.5
 43
20.0
 44
210.0
 45
297.0
 46
0.0
 47
0.0
 48
0.0
 49
0.0
140
0.0
141
0.0
142
1.0
143
1.5819824463
 70
   688
 72
     1
 73
     1
 74
     1
  7

 75
     0
147
0.6321182655
148
203.2847443432
149
153.0
100
AcDbLayout
  1
_Left
 70
     1
 71
     2
 10
0.0
 20
0.0
 11
0.0
 21
0.0
 12
0.0
 22
0.0
 32
0.0
 14
0.0
 24
0.0
 34
0.0
 15
0.0
 25
0.0
 35
0.0
146
0.0
 13
0.0
 23
0.0
 33
0.0
 16
1.0
 26
0.0
 36
0.0
 17
0.0
 27
1.0
 37
0.0
 76
     0
330
23
331
36B
  0
LAYOUT
  5
29A
102
{ACAD_REACTORS
330
1A
102
}
330
1A
100
AcDbPlotSettings
  1

  2
none_device
  4
ISO_A4_(210.00_x_297.00_MM)
  6

 40
7.5
 41
20.0
 42
7.5
 43
20.0
 44
210.0
 45
297.0
 46
0.0
 47
0.0
 48
0.0
 49
0.0
140
0.0
141
0.0
142
1.0
143
1.5819824463
 70
   688
 72
     1
 73
     1
 74
     1
  7

 75
     0
147
0.6321182655
148
203.2847443432
149
153.0
100
AcDbLayout
  1
_Top
 70
     1
 71
     3
 10
0.0
 20
0.0
 11
0.0
 21
0.0
 12
0.0
 22
0.0
 32
0.0
 14
0.0
 24
0.0
 34
0.0
 15
0.0
 25
0.0
 35
0.0
146
0.0
 13
0.0
 23
0.0
 33
0.0
 16
1.0
 26
0.0
 36
0.0
 17
0.0
 27
1.0
 37
0.0
 76
     0
330
299
331
36D
  0
LAYOUT
  5
22
102
{ACAD_REACTORS
330
1A
102
}
330
1A
100
AcDbPlotSettings
  1

  2
none_device
  4
ANSI_A_(11.00_x_8.50_Inches)
  6

 40
6.35
 41
19.05
 42
6.35000508
 43
19.05000254
 44
279.4
 45
215.9
 46
133.34999746
 47
135.5033753415
 48
0.0
 49
0.0
140
0.0
141
0.0
142
0.0267850891
143
1.0
 70
  1696
 72
     0
 73
     0
 74
     0
  7

 75
     0
147
0.0179189148
148
-1300.4909072572
149
0.0
100
AcDbLayout
  1
Model
 70
     1
 71
     0
 10
0.0
 20
0.0
 11
420.0
 21
297.0
 12
0.0
 22
0.0
 32
0.0
 14
-203.2847443432
 24
-153.0
 34
0.0
 15
203.2847443432
 25
16.0
 35
0.0
146
0.0
 13
0.0
 23
0.0
 33
0.0
 16
1.0
 26
0.0
 36
0.0
 17
0.0
 27
1.0
 37
0.0
 76
     0
330
1F
331
29
  0
MLINESTYLE
  5
18
102
{ACAD_REACTORS
330
17
102
}
330
17
100
AcDbMlineStyle
  2
Standard
 70
     0
  3

 62
   256
 51
90.0
 52
90.0
 71
     2
 49
0.5
 62
   256
  6
BYLAYER
 49
-0.5
 62
   256
  6
BYLAYER
  0
ACDBPLACEHOLDER
  5
F
102
{ACAD_REACTORS
330
E
102
}
330
E
  0
SCALE
  5
48
102
{ACAD_REACTORS
330
47
102
}
330
47
100
AcDbScale
 70
     0
300
1:1
140
1.0
141
1.0
290
     1
  0
SCALE
  5
49
102
{ACAD_REACTORS
330
47
102
}
330
47
100
AcDbScale
 70
     0
300
1:2
140
1.0
141
2.0
290
     0
  0
SCALE
  5
4A
102
{ACAD_REACTORS
330
47
102
}
330
47
100
AcDbScale
 70
     0
300
1:4
140
1.0
141
4.0
290
     0
  0
SCALE
  5
4B
102
{ACAD_REACTORS
330
47
102
}
330
47
100
AcDbScale
 70
     0
300
1:5
140
1.0
141
5.0
290
     0
  0
SCALE
  5
4C
102
{ACAD_REACTORS
330
47
102
}
330
47
100
AcDbScale
 70
     0
300
1:8
140
1.0
141
8.0
290
     0
  0
SCALE
  5
4D
102
{ACAD_REACTORS
330
47
102
}
330
47
100
AcDbScale
 70
     0
300
1:10
140
1.0
141
10.0
290
     0
  0
SCALE
  5
4E
102
{ACAD_REACTORS
330
47
102
}
330
47
100
AcDbScale
 70
     0
300
1:16
140
1.0
141
16.0
290
     0
  0
SCALE
  5
4F
102
{ACAD_REACTORS
330
47
102
}
330
47
100
AcDbScale
 70
     0
300
1:20
140
1.0
141
20.0
290
     0
  0
SCALE
  5
50
102
{ACAD_REACTORS
330
47
102
}
330
47
100
AcDbScale
 70
     0
300
1:30
140
1.0
141
30.0
290
     0
  0
SCALE
  5
51
102
{ACAD_REACTORS
330
47
102
}
330
47
100
AcDbScale
 70
     0
300
1:40
140
1.0
141
40.0
290
     0
  0
SCALE
  5
52
102
{ACAD_REACTORS
330
47
102
}
330
47
100
AcDbScale
 70
     0
300
1:50
140
1.0
141
50.0
290
     0
  0
SCALE
  5
53
102
{ACAD_REACTORS
330
47
102
}
330
47
100
AcDbScale
 70
     0
300
1:100
140
1.0
141
100.0
290
     0
  0
SCALE
  5
54
102
{ACAD_REACTORS
330
47
102
}
330
47
100
AcDbScale
 70
     0
300
2:1
140
2.0
141
1.0
290
     0
  0
SCALE
  5
55
102
{ACAD_REACTORS
330
47
102
}
330
47
100
AcDbScale
 70
     0
300
4:1
140
4.0
141
1.0
290
     0
  0
SCALE
  5
56
102
{ACAD_REACTORS
330
47
102
}
330
47
100
AcDbScale
 70
     0
300
8:1
140
8.0
141
1.0
290
     0
  0
SCALE
  5
57
102
{ACAD_REACTORS
330
47
102
}
330
47
100
AcDbScale
 70
     0
300
10:1
140
10.0
141
1.0
290
     0
  0
SCALE
  5
58
102
{ACAD_REACTORS
330
47
102
}
330
47
100
AcDbScale
 70
     0
300
100:1
140
100.0
141
1.0
290
     0
  0
SCALE
  5
59
102
{ACAD_REACTORS
330
47
102
}
330
47
100
AcDbScale
 70
     0
300
1/128" = 1'-0"
140
0.0078125
141
12.0
290
     0
  0
SCALE
  5
5A
102
{ACAD_REACTORS
330
47
102
}
330
47
100
AcDbScale
 70
     0
300
1/64" = 1'-0"
140
0.015625
141
12.0
290
     0
  0
SCALE
  5
5B
102
{ACAD_REACTORS
330
47
102
}
330
47
100
AcDbScale
 70
     0
300
1/32" = 1'-0"
140
0.03125
141
12.0
290
     0
  0
SCALE
  5
5C
102
{ACAD_REACTORS
330
47
102
}
330
47
100
AcDbScale
 70
     0
300
1/16" = 1'-0"
140
0.0625
141
12.0
290
     0
  0
SCALE
  5
5D
102
{ACAD_REACTORS
330
47
102
}
330
47
100
AcDbScale
 70
     0
300
3/32" = 1'-0"
140
0.09375
141
12.0
290
     0
  0
SCALE
  5
5E
102
{ACAD_REACTORS
330
47
102
}
330
47
100
AcDbScale
 70
     0
300
1/8" = 1'-0"
140
0.125
141
12.0
290
     0
  0
SCALE
  5
5F
102
{ACAD_REACTORS
330
47
102
}
330
47
100
AcDbScale
 70
     0
300
3/16" = 1'-0"
140
0.1875
141
12.0
290
     0
  0
SCALE
  5
60
102
{ACAD_REACTORS
330
47
102
}
330
47
100
AcDbScale
 70
     0
300
1/4" = 1'-0"
140
0.25
141
12.0
290
     0
  0
SCALE
  5
61
102
{ACAD_REACTORS
330
47
102
}
330
47
100
AcDbScale
 70
     0
300
3/8" = 1'-0"
140
0.375
141
12.0
290
     0
  0
SCALE
  5
62
102
{ACAD_REACTORS
330
47
102
}
330
47
100
AcDbScale
 70
     0
300
1/2" = 1'-0"
140
0.5
141
12.0
290
     0
  0
SCALE
  5
63
102
{ACAD_REACTORS
330
47
102
}
330
47
100
AcDbScale
 70
     0
300
3/4" = 1'-0"
140
0.75
141
12.0
290
     0
  0
SCALE
  5
64
102
{ACAD_REACTORS
330
47
102
}
330
47
100
AcDbScale
 70
     0
300
1" = 1'-0"
140
1.0
141
12.0
290
     0
  0
SCALE
  5
65
102
{ACAD_REACTORS
330
47
102
}
330
47
100
AcDbScale
 70
     0
300
1-1/2" = 1'-0"
140
1.5
141
12.0
290
     0
  0
SCALE
  5
66
102
{ACAD_REACTORS
330
47
102
}
330
47
100
AcDbScale
 70
     0
300
3" = 1'-0"
140
3.0
141
12.0
290
     0
  0
SCALE
  5
67
102
{ACAD_REACTORS
330
47
102
}
330
47
100
AcDbScale
 70
     0
300
6" = 1'-0"
140
6.0
141
12.0
290
     0
  0
SCALE
  5
68
102
{ACAD_REACTORS
330
47
102
}
330
47
100
AcDbScale
 70
     0
300
1'-0" = 1'-0"
140
12.0
141
12.0
290
     0
  0
ENDSEC
  0
EOF
