  0
SECTION
  2
HEADER
  9
$ACADVER
  1
AC1015
  9
$ACADMAINTVER
 70
     6
  9
$DWGCODEPAGE
  3
ANSI_1252
  9
$INSBASE
 10
0.0
 20
0.0
 30
0.0
  9
$EXTMIN
 10
-67.3
 20
-349.0
 30
0.0
  9
$EXTMAX
 10
62.7
 20
349.0
 30
0.0
  9
$LIMMIN
 10
0.0
 20
0.0
  9
$LIMMAX
 10
420.0
 20
297.0
  9
$ORTHOMODE
 70
     0
  9
$REGENMODE
 70
     1
  9
$FILLMODE
 70
     1
  9
$QTEXTMODE
 70
     0
  9
$MIRRTEXT
 70
     1
  9
$LTSCALE
 40
1.0
  9
$ATTMODE
 70
     1
  9
$TEXTSIZE
 40
3.5
  9
$TRACEWID
 40
1.0
  9
$TEXTSTYLE
  7
Standard
  9
$CLAYER
  8
0
  9
$CELTYPE
  6
ByLayer
  9
$CECOLOR
 62
   256
  9
$CELTSCALE
 40
1.0
  9
$DISPSILH
 70
     0
  9
$DIMSCALE
 40
1.0
  9
$DIMASZ
 40
3.302
  9
$DIMEXO
 40
1.0
  9
$DIMDLI
 40
3.75
  9
$DIMRND
 40
0.0
  9
$DIMDLE
 40
0.0
  9
$DIMEXE
 40
1.0
  9
$DIMTP
 40
0.0
  9
$DIMTM
 40
0.0
  9
$DIMTXT
 40
3.5
  9
$DIMCEN
 40
2.5
  9
$DIMTSZ
 40
0.0
  9
$DIMTOL
 70
     0
  9
$DIMLIM
 70
     0
  9
$DIMTIH
 70
     1
  9
$DIMTOH
 70
     1
  9
$DIMSE1
 70
     0
  9
$DIMSE2
 70
     0
  9
$DIMTAD
 70
     1
  9
$DIMZIN
 70
     1
  9
$DIMBLK
  1

  9
$DIMASO
 70
     1
  9
$DIMSHO
 70
     1
  9
$DIMPOST
  1

  9
$DIMAPOST
  1

  9
$DIMALT
 70
     0
  9
$DIMALTD
 70
     3
  9
$DIMALTF
 40
0.0393700787
  9
$DIMLFAC
 40
1.0
  9
$DIMTOFL
 70
     1
  9
$DIMTVP
 40
0.0
  9
$DIMTIX
 70
     0
  9
$DIMSOXD
 70
     0
  9
$DIMSAH
 70
     0
  9
$DIMBLK1
  1

  9
$DIMBLK2
  1

  9
$DIMSTYLE
  2
ISO-25
  9
$DIMCLRD
 70
     0
  9
$DIMCLRE
 70
     0
  9
$DIMCLRT
 70
     0
  9
$DIMTFAC
 40
1.0
  9
$DIMGAP
 40
1.524
  9
$DIMJUST
 70
     0
  9
$DIMSD1
 70
     0
  9
$DIMSD2
 70
     0
  9
$DIMTOLJ
 70
     0
  9
$DIMTZIN
 70
     1
  9
$DIMALTZ
 70
     0
  9
$DIMALTTZ
 70
     0
  9
$DIMUPT
 70
     0
  9
$DIMDEC
 70
     2
  9
$DIMTDEC
 70
     2
  9
$DIMALTU
 70
     2
  9
$DIMALTTD
 70
     3
  9
$DIMTXSTY
  7
Standard
  9
$DIMAUNIT
 70
     0
  9
$DIMADEC
 70
     2
  9
$DIMALTRND
 40
0.0
  9
$DIMAZIN
 70
     0
  9
$DIMDSEP
 70
    44
  9
$DIMATFIT
 70
     3
  9
$DIMFRAC
 70
     0
  9
$DIMLDRBLK
  1

  9
$DIMLUNIT
 70
     2
  9
$DIMLWD
 70
    -2
  9
$DIMLWE
 70
    -2
  9
$DIMTMOVE
 70
     0
  9
$LUNITS
 70
     2
  9
$LUPREC
 70
     2
  9
$SKETCHINC
 40
1.0
  9
$FILLETRAD
 40
10.0
  9
$AUNITS
 70
     0
  9
$AUPREC
 70
     2
  9
$MENU
  1
.
  9
$ELEVATION
 40
0.0
  9
$PELEVATION
 40
0.0
  9
$THICKNESS
 40
0.0
  9
$LIMCHECK
 70
     0
  9
$CHAMFERA
 40
0.0
  9
$CHAMFERB
 40
0.0
  9
$CHAMFERC
 40
0.0
  9
$CHAMFERD
 40
0.0
  9
$SKPOLY
 70
     0
  9
$TDCREATE
 40
2458778.539536609
  9
$TDUCREATE
 40
2458778.497869942
  9
$TDUPDATE
 40
2458778.539567998
  9
$TDUUPDATE
 40
2458778.497901331
  9
$TDINDWG
 40
0.0000000116
  9
$TDUSRTIMER
 40
0.0000000116
  9
$USRTIMER
 70
     1
  9
$ANGBASE
 50
0.0
  9
$ANGDIR
 70
     0
  9
$PDMODE
 70
     0
  9
$PDSIZE
 40
-1.0
  9
$PLINEWID
 40
0.0
  9
$SPLFRAME
 70
     0
  9
$SPLINETYPE
 70
     6
  9
$SPLINESEGS
 70
     8
  9
$HANDSEED
  5
2EC
  9
$SURFTAB1
 70
     6
  9
$SURFTAB2
 70
     6
  9
$SURFTYPE
 70
     6
  9
$SURFU
 70
     6
  9
$SURFV
 70
     6
  9
$UCSBASE
  2

  9
$UCSNAME
  2

  9
$UCSORG
 10
0.0
 20
0.0
 30
0.0
  9
$UCSXDIR
 10
1.0
 20
0.0
 30
0.0
  9
$UCSYDIR
 10
0.0
 20
1.0
 30
0.0
  9
$UCSORTHOREF
  2

  9
$UCSORTHOVIEW
 70
     0
  9
$UCSORGTOP
 10
0.0
 20
0.0
 30
0.0
  9
$UCSORGBOTTOM
 10
0.0
 20
0.0
 30
0.0
  9
$UCSORGLEFT
 10
0.0
 20
0.0
 30
0.0
  9
$UCSORGRIGHT
 10
0.0
 20
0.0
 30
0.0
  9
$UCSORGFRONT
 10
0.0
 20
0.0
 30
0.0
  9
$UCSORGBACK
 10
0.0
 20
0.0
 30
0.0
  9
$PUCSBASE
  2

  9
$PUCSNAME
  2

  9
$PUCSORG
 10
0.0
 20
0.0
 30
0.0
  9
$PUCSXDIR
 10
1.0
 20
0.0
 30
0.0
  9
$PUCSYDIR
 10
0.0
 20
1.0
 30
0.0
  9
$PUCSORTHOREF
  2

  9
$PUCSORTHOVIEW
 70
     0
  9
$PUCSORGTOP
 10
0.0
 20
0.0
 30
0.0
  9
$PUCSORGBOTTOM
 10
0.0
 20
0.0
 30
0.0
  9
$PUCSORGLEFT
 10
0.0
 20
0.0
 30
0.0
  9
$PUCSORGRIGHT
 10
0.0
 20
0.0
 30
0.0
  9
$PUCSORGFRONT
 10
0.0
 20
0.0
 30
0.0
  9
$PUCSORGBACK
 10
0.0
 20
0.0
 30
0.0
  9
$USERI1
 70
     0
  9
$USERI2
 70
     0
  9
$USERI3
 70
     0
  9
$USERI4
 70
     0
  9
$USERI5
 70
     0
  9
$USERR1
 40
0.0
  9
$USERR2
 40
0.0
  9
$USERR3
 40
0.0
  9
$USERR4
 40
0.0
  9
$USERR5
 40
0.0
  9
$WORLDVIEW
 70
     1
  9
$SHADEDGE
 70
     3
  9
$SHADEDIF
 70
    70
  9
$TILEMODE
 70
     1
  9
$MAXACTVP
 70
    64
  9
$PINSBASE
 10
0.0
 20
0.0
 30
0.0
  9
$PLIMCHECK
 70
     0
  9
$PEXTMIN
 10
-62.7
 20
-349.0
 30
0.0
  9
$PEXTMAX
 10
67.3
 20
349.0
 30
0.0
  9
$PLIMMIN
 10
-134.2897435897
 20
-375.8461538462
  9
$PLIMMAX
 10
928.8179487179
 20
375.8461538462
  9
$UNITMODE
 70
     0
  9
$VISRETAIN
 70
     1
  9
$PLINEGEN
 70
     0
  9
$PSLTSCALE
 70
     1
  9
$TREEDEPTH
 70
  3020
  9
$CMLSTYLE
  2
Standard
  9
$CMLJUST
 70
     0
  9
$CMLSCALE
 40
20.0
  9
$PROXYGRAPHICS
 70
     1
  9
$MEASUREMENT
 70
     1
  9
$CELWEIGHT
370
    -1
  9
$ENDCAPS
280
     0
  9
$JOINSTYLE
280
     0
  9
$LWDISPLAY
290
     1
  9
$INSUNITS
 70
     4
  9
$HYPERLINKBASE
  1

  9
$STYLESHEET
  1

  9
$XEDIT
290
     1
  9
$CEPSNTYPE
380
     0
  9
$PSTYLEMODE
290
     1
  9
$FINGERPRINTGUID
  2
{3ab635b5-2e7e-45a2-a989-ab5959456229}
  9
$VERSIONGUID
  2
{FAEB1C32-E019-11D5-929B-00C0DF256EC4}
  9
$EXTNAMES
290
     1
  9
$PSVPSCALE
 40
0.0
  9
$OLESTARTUP
290
     0
  0
ENDSEC
  0
SECTION
  2
CLASSES
  0
CLASS
  1
ACDBDICTIONARYWDFLT
  2
AcDbDictionaryWithDefault
  3
ObjectDBX Classes
 90
        0
280
     0
281
     0
  0
CLASS
  1
VISUALSTYLE
  2
AcDbVisualStyle
  3
ObjectDBX Classes
 90
     4095
280
     0
281
     0
  0
CLASS
  1
MATERIAL
  2
AcDbMaterial
  3
ObjectDBX Classes
 90
     1153
280
     0
281
     0
  0
CLASS
  1
SCALE
  2
AcDbScale
  3
ObjectDBX Classes
 90
     1153
280
     0
281
     0
  0
CLASS
  1
TABLESTYLE
  2
AcDbTableStyle
  3
ObjectDBX Classes
 90
     4095
280
     0
281
     0
  0
CLASS
  1
MLEADERSTYLE
  2
AcDbMLeaderStyle
  3
ACDB_MLEADERSTYLE_CLASS
 90
     4095
280
     0
281
     0
  0
CLASS
  1
SUN
  2
AcDbSun
  3
SCENEOE
 90
     1153
280
     0
281
     0
  0
CLASS
  1
ACDBPLACEHOLDER
  2
AcDbPlaceHolder
  3
ObjectDBX Classes
 90
        0
280
     0
281
     0
  0
CLASS
  1
LAYOUT
  2
AcDbLayout
  3
ObjectDBX Classes
 90
        0
280
     0
281
     0
  0
ENDSEC
  0
SECTION
  2
TABLES
  0
TABLE
  2
VPORT
  5
8
330
0
100
AcDbSymbolTable
 70
     1
  0
VPORT
  5
29
330
8
100
AcDbSymbolTableRecord
100
AcDbViewportTableRecord
  2
*Active
 70
     0
 10
0.0
 20
0.0
 11
1.0
 21
1.0
 12
-2.3
 22
0.0
 13
0.0
 23
0.0
 14
10.0
 24
10.0
 15
10.0
 25
10.0
 16
0.0
 26
0.0
 36
1.0
 17
0.0
 27
0.0
 37
0.0
 40
711.96
 41
0.1862464183
 42
50.0
 43
0.0
 44
0.0
 50
0.0
 51
0.0
 71
     0
 72
   100
 73
     1
 74
     3
 75
     0
 76
     0
 77
     0
 78
     0
281
     0
 65
     1
110
0.0
120
0.0
130
0.0
111
1.0
121
0.0
131
0.0
112
0.0
122
1.0
132
0.0
 79
     0
146
0.0
  0
ENDTAB
  0
TABLE
  2
LTYPE
  5
5
330
0
100
AcDbSymbolTable
 70
     6
  0
LTYPE
  5
14
330
5
100
AcDbSymbolTableRecord
100
AcDbLinetypeTableRecord
  2
ByBlock
 70
     0
  3

 72
    65
 73
     0
 40
0.0
  0
LTYPE
  5
15
330
5
100
AcDbSymbolTableRecord
100
AcDbLinetypeTableRecord
  2
ByLayer
 70
     0
  3

 72
    65
 73
     0
 40
0.0
  0
LTYPE
  5
16
330
5
100
AcDbSymbolTableRecord
100
AcDbLinetypeTableRecord
  2
Continuous
 70
     0
  3
Solid line
 72
    65
 73
     0
 40
0.0
  0
LTYPE
  5
6E
330
5
100
AcDbSymbolTableRecord
100
AcDbLinetypeTableRecord
  2
HIDDEN
 70
     0
  3
Hidden __ __ __ __ __ __ __ __ __ __ __ __ __ __
 72
    65
 73
     2
 40
1.905
 49
1.27
 74
     0
 49
-0.635
 74
     0
  0
LTYPE
  5
6F
330
5
100
AcDbSymbolTableRecord
100
AcDbLinetypeTableRecord
  2
PHANTOM
 70
     0
  3
Phantom ______  __  __  ______  __  __  ______
 72
    65
 73
     6
 40
12.7
 49
6.35
 74
     0
 49
-1.27
 74
     0
 49
1.27
 74
     0
 49
-1.27
 74
     0
 49
1.27
 74
     0
 49
-1.27
 74
     0
  0
LTYPE
  5
70
330
5
100
AcDbSymbolTableRecord
100
AcDbLinetypeTableRecord
  2
CENTER
 70
     0
  3
Center ____ _ ____ _ ____ _ ____ _ ____ _ ____
 72
    65
 73
     4
 40
10.16
 49
6.35
 74
     0
 49
-1.27
 74
     0
 49
1.27
 74
     0
 49
-1.27
 74
     0
  0
LTYPE
  5
71
330
5
100
AcDbSymbolTableRecord
100
AcDbLinetypeTableRecord
  2
CENTERX2
 70
     0
  3
Center (2x) ________  __  ________  __  _____
 72
    65
 73
     4
 40
20.32
 49
12.7
 74
     0
 49
-2.54
 74
     0
 49
2.54
 74
     0
 49
-2.54
 74
     0
  0
LTYPE
  5
72
330
5
100
AcDbSymbolTableRecord
100
AcDbLinetypeTableRecord
  2
DOT2
 70
     0
  3
Dot (.5x) ........................................
 72
    65
 73
     2
 40
0.635
 49
0.0
 74
     0
 49
-0.635
 74
     0
  0
ENDTAB
  0
TABLE
  2
LAYER
  5
2
330
0
100
AcDbSymbolTable
 70
     1
  0
LAYER
  5
10
330
2
100
AcDbSymbolTableRecord
100
AcDbLayerTableRecord
  2
0
 70
     0
 62
     7
  6
Continuous
370
    -3
390
F
  0
ENDTAB
  0
TABLE
  2
STYLE
  5
3
330
0
100
AcDbSymbolTable
 70
     1
  0
STYLE
  5
11
330
3
100
AcDbSymbolTableRecord
100
AcDbTextStyleTableRecord
  2
Standard
 70
     0
 40
0.0
 41
1.0
 50
0.0
 71
     0
 42
3.5
  3
txt
  4

  0
ENDTAB
  0
TABLE
  2
VIEW
  5
6
330
0
100
AcDbSymbolTable
 70
     0
  0
ENDTAB
  0
TABLE
  2
UCS
  5
7
330
0
100
AcDbSymbolTable
 70
     0
  0
ENDTAB
  0
TABLE
  2
APPID
  5
9
330
0
100
AcDbSymbolTable
 70
     1
  0
APPID
  5
12
330
9
100
AcDbSymbolTableRecord
100
AcDbRegAppTableRecord
  2
ACAD
 70
     0
  0
ENDTAB
  0
TABLE
  2
DIMSTYLE
  5
A
330
0
100
AcDbSymbolTable
 70
     1
100
AcDbDimStyleTable
  0
DIMSTYLE
105
27
330
A
100
AcDbSymbolTableRecord
100
AcDbDimStyleTableRecord
  2
ISO-25
 70
     0
 41
2.5
 42
0.625
 43
3.75
 44
1.25
 73
     0
 74
     0
 77
     1
 78
     8
140
2.5
141
2.5
143
0.0393700787
147
0.625
171
     3
172
     1
178
     0
271
     2
272
     2
274
     3
278
    44
283
     0
284
     8
340
11
  0
ENDTAB
  0
TABLE
  2
BLOCK_RECORD
  5
1
330
0
100
AcDbSymbolTable
 70
     7
  0
BLOCK_RECORD
  5
1F
330
1
100
AcDbSymbolTableRecord
100
AcDbBlockTableRecord
  2
*Model_Space
340
22
  0
BLOCK_RECORD
  5
1B
330
1
100
AcDbSymbolTableRecord
100
AcDbBlockTableRecord
  2
*Paper_Space
340
1E
  0
BLOCK_RECORD
  5
23
330
1
100
AcDbSymbolTableRecord
100
AcDbBlockTableRecord
  2
*Paper_Space0
340
26
  0
BLOCK_RECORD
  5
DB
330
1
100
AcDbSymbolTableRecord
100
AcDbBlockTableRecord
  2
*Paper_Space1
340
DC
  0
BLOCK_RECORD
  5
FB
330
1
100
AcDbSymbolTableRecord
100
AcDbBlockTableRecord
  2
*Paper_Space2
340
FC
  0
BLOCK_RECORD
  5
141
330
1
100
AcDbSymbolTableRecord
100
AcDbBlockTableRecord
  2
*Paper_Space3
340
142
  0
BLOCK_RECORD
  5
17D
330
1
100
AcDbSymbolTableRecord
100
AcDbBlockTableRecord
  2
*Paper_Space4
340
17E
  0
BLOCK_RECORD
  5
1F0
330
1
100
AcDbSymbolTableRecord
100
AcDbBlockTableRecord
  2
*Paper_Space5
340
1F1
  0
BLOCK_RECORD
  5
267
330
1
100
AcDbSymbolTableRecord
100
AcDbBlockTableRecord
  2
*Paper_Space6
340
268
  0
ENDTAB
  0
ENDSEC
  0
SECTION
  2
BLOCKS
  0
BLOCK
  5
20
330
1F
100
AcDbEntity
  8
0
100
AcDbBlockBegin
  2
*Model_Space
 70
     0
 10
0.0
 20
0.0
 30
0.0
  3
*Model_Space
  1

  0
ENDBLK
  5
21
330
1F
100
AcDbEntity
  8
0
100
AcDbBlockEnd
  0
BLOCK
  5
1C
330
1B
100
AcDbEntity
 67
     1
  8
0
100
AcDbBlockBegin
  2
*Paper_Space
 70
     0
 10
0.0
 20
0.0
 30
0.0
  3
*Paper_Space
  1

  0
ENDBLK
  5
1D
330
1B
100
AcDbEntity
 67
     1
  8
0
100
AcDbBlockEnd
  0
BLOCK
  5
24
330
23
100
AcDbEntity
  8
0
100
AcDbBlockBegin
  2
*Paper_Space0
 70
     0
 10
0.0
 20
0.0
 30
0.0
  3
*Paper_Space0
  1

  0
LINE
  5
CD
330
23
100
AcDbEntity
  8
0
  6
Continuous
 62
     7
370
    25
100
AcDbLine
 10
-61.25
 20
28.8228687886
 30
0.0
 11
-61.25
 21
43.8228687886
 31
0.0
  0
LINE
  5
CE
330
23
100
AcDbEntity
  8
0
  6
Continuous
 62
     7
370
    25
100
AcDbLine
 10
-88.85
 20
28.8228687886
 30
0.0
 11
-88.85
 21
43.8228687886
 31
0.0
  0
LINE
  5
CF
330
23
100
AcDbEntity
  8
0
  6
Continuous
 62
     7
370
    25
100
AcDbLine
 10
-61.25
 20
43.8228687886
 30
0.0
 11
-88.85
 21
43.8228687886
 31
0.0
  0
LINE
  5
D0
330
23
100
AcDbEntity
  8
0
  6
Continuous
 62
     7
370
    25
100
AcDbLine
 10
-61.25
 20
28.8228687886
 30
0.0
 11
-88.85
 21
28.8228687886
 31
0.0
  0
LINE
  5
D1
330
23
100
AcDbEntity
  8
0
  6
Continuous
 62
     7
370
    25
100
AcDbLine
 10
0.0
 20
349.0
 30
0.0
 11
-80.0
 21
349.0
 31
0.0
  0
LINE
  5
D2
330
23
100
AcDbEntity
  8
0
  6
Continuous
 62
     7
370
    25
100
AcDbLine
 10
0.0
 20
349.0
 30
0.0
 11
0.0
 21
334.0
 31
0.0
  0
LINE
  5
D3
330
23
100
AcDbEntity
  8
0
  6
Continuous
 62
     7
370
    25
100
AcDbLine
 10
0.0
 20
334.0
 30
0.0
 11
-70.0
 21
334.0
 31
0.0
  0
LINE
  5
D4
330
23
100
AcDbEntity
  8
0
  6
Continuous
 62
     7
370
    25
100
AcDbLine
 10
-70.0
 20
334.0
 30
0.0
 11
-70.0
 21
43.8228687886
 31
0.0
  0
LINE
  5
D5
330
23
100
AcDbEntity
  8
0
  6
Continuous
 62
     7
370
    25
100
AcDbLine
 10
-70.0
 20
28.8228687886
 30
0.0
 11
-70.0
 21
-334.0
 31
0.0
  0
LINE
  5
D6
330
23
100
AcDbEntity
  8
0
  6
Continuous
 62
     7
370
    25
100
AcDbLine
 10
0.0
 20
-334.0
 30
0.0
 11
-70.0
 21
-334.0
 31
0.0
  0
LINE
  5
D7
330
23
100
AcDbEntity
  8
0
  6
Continuous
 62
     7
370
    25
100
AcDbLine
 10
0.0
 20
-349.0
 30
0.0
 11
-80.0
 21
-349.0
 31
0.0
  0
LINE
  5
D8
330
23
100
AcDbEntity
  8
0
  6
Continuous
 62
     7
370
    25
100
AcDbLine
 10
-80.0
 20
349.0
 30
0.0
 11
-80.0
 21
43.8228687886
 31
0.0
  0
LINE
  5
D9
330
23
100
AcDbEntity
  8
0
  6
Continuous
 62
     7
370
    25
100
AcDbLine
 10
-80.0
 20
28.8228687886
 30
0.0
 11
-80.0
 21
-349.0
 31
0.0
  0
LINE
  5
DA
330
23
100
AcDbEntity
  8
0
  6
Continuous
 62
     7
370
    25
100
AcDbLine
 10
0.0
 20
-349.0
 30
0.0
 11
0.0
 21
-334.0
 31
0.0
  0
VIEWPORT
  5
2DE
330
23
100
AcDbEntity
  8
0
100
AcDbViewport
 10
0.0
 20
0.0
 30
0.0
 40
205.6
 41
156.0
 68
     1
 69
     1
 12
-2.3
 22
0.0
 13
0.0
 23
0.0
 14
10.0
 24
10.0
 15
10.0
 25
10.0
 16
0.0
 26
0.0
 36
1.0
 17
0.0
 27
0.0
 37
0.0
 42
50.0
 43
0.0
 44
0.0
 45
711.96
 50
0.0
 51
0.0
 72
   100
 90
   557152
  1

281
     0
 71
     1
 74
     0
110
0.0
120
0.0
130
0.0
111
1.0
121
0.0
131
0.0
112
0.0
122
1.0
132
0.0
 79
     0
146
0.0
  0
ENDBLK
  5
25
330
23
100
AcDbEntity
  8
0
100
AcDbBlockEnd
  0
BLOCK
  5
DD
330
DB
100
AcDbEntity
  8
0
100
AcDbBlockBegin
  2
*Paper_Space1
 70
     0
 10
0.0
 20
0.0
 30
0.0
  3
*Paper_Space1
  1

  0
LINE
  5
ED
330
DB
100
AcDbEntity
  8
0
  6
Continuous
 62
     7
370
    25
100
AcDbLine
 10
61.25
 20
43.8228687886
 30
0.0
 11
88.85
 21
43.8228687886
 31
0.0
  0
LINE
  5
EE
330
DB
100
AcDbEntity
  8
0
  6
Continuous
 62
     7
370
    25
100
AcDbLine
 10
61.25
 20
28.8228687886
 30
0.0
 11
88.85
 21
28.8228687886
 31
0.0
  0
LINE
  5
EF
330
DB
100
AcDbEntity
  8
0
  6
Continuous
 62
     7
370
    25
100
AcDbLine
 10
61.25
 20
43.8228687886
 30
0.0
 11
61.25
 21
28.8228687886
 31
0.0
  0
LINE
  5
F0
330
DB
100
AcDbEntity
  8
0
  6
Continuous
 62
     7
370
    25
100
AcDbLine
 10
88.85
 20
43.8228687886
 30
0.0
 11
88.85
 21
28.8228687886
 31
0.0
  0
LINE
  5
F1
330
DB
100
AcDbEntity
  8
0
  6
Continuous
 62
     7
370
    25
100
AcDbLine
 10
0.0
 20
-349.0
 30
0.0
 11
80.0
 21
-349.0
 31
0.0
  0
LINE
  5
F2
330
DB
100
AcDbEntity
  8
0
  6
Continuous
 62
     7
370
    25
100
AcDbLine
 10
0.0
 20
-334.0
 30
0.0
 11
0.0
 21
-349.0
 31
0.0
  0
LINE
  5
F3
330
DB
100
AcDbEntity
  8
0
  6
Continuous
 62
     7
370
    25
100
AcDbLine
 10
0.0
 20
-334.0
 30
0.0
 11
70.0
 21
-334.0
 31
0.0
  0
LINE
  5
F4
330
DB
100
AcDbEntity
  8
0
  6
Continuous
 62
     7
370
    25
100
AcDbLine
 10
70.0
 20
-334.0
 30
0.0
 11
70.0
 21
28.8228687886
 31
0.0
  0
LINE
  5
F5
330
DB
100
AcDbEntity
  8
0
  6
Continuous
 62
     7
370
    25
100
AcDbLine
 10
70.0
 20
43.8228687886
 30
0.0
 11
70.0
 21
334.0
 31
0.0
  0
LINE
  5
F6
330
DB
100
AcDbEntity
  8
0
  6
Continuous
 62
     7
370
    25
100
AcDbLine
 10
0.0
 20
334.0
 30
0.0
 11
70.0
 21
334.0
 31
0.0
  0
LINE
  5
F7
330
DB
100
AcDbEntity
  8
0
  6
Continuous
 62
     7
370
    25
100
AcDbLine
 10
0.0
 20
334.0
 30
0.0
 11
0.0
 21
349.0
 31
0.0
  0
LINE
  5
F8
330
DB
100
AcDbEntity
  8
0
  6
Continuous
 62
     7
370
    25
100
AcDbLine
 10
0.0
 20
349.0
 30
0.0
 11
80.0
 21
349.0
 31
0.0
  0
LINE
  5
F9
330
DB
100
AcDbEntity
  8
0
  6
Continuous
 62
     7
370
    25
100
AcDbLine
 10
80.0
 20
-349.0
 30
0.0
 11
80.0
 21
28.8228687886
 31
0.0
  0
LINE
  5
FA
330
DB
100
AcDbEntity
  8
0
  6
Continuous
 62
     7
370
    25
100
AcDbLine
 10
80.0
 20
43.8228687886
 30
0.0
 11
80.0
 21
349.0
 31
0.0
  0
VIEWPORT
  5
2E0
330
DB
100
AcDbEntity
  8
0
100
AcDbViewport
 10
0.0
 20
0.0
 30
0.0
 40
205.6
 41
156.0
 68
     1
 69
     1
 12
-2.3
 22
0.0
 13
0.0
 23
0.0
 14
10.0
 24
10.0
 15
10.0
 25
10.0
 16
0.0
 26
0.0
 36
1.0
 17
0.0
 27
0.0
 37
0.0
 42
50.0
 43
0.0
 44
0.0
 45
711.96
 50
0.0
 51
0.0
 72
   100
 90
   557152
  1

281
     0
 71
     1
 74
     0
110
0.0
120
0.0
130
0.0
111
1.0
121
0.0
131
0.0
112
0.0
122
1.0
132
0.0
 79
     0
146
0.0
  0
ENDBLK
  5
DE
330
DB
100
AcDbEntity
  8
0
100
AcDbBlockEnd
  0
BLOCK
  5
FD
330
FB
100
AcDbEntity
  8
0
100
AcDbBlockBegin
  2
*Paper_Space2
 70
     0
 10
0.0
 20
0.0
 30
0.0
  3
*Paper_Space2
  1

  0
SPLINE
  5
103
330
FB
100
AcDbEntity
  8
0
  6
Continuous
 62
     7
370
    25
100
AcDbSpline
210
0.0
220
0.0
230
1.0
 70
     8
 71
     3
 72
     8
 73
     4
 74
     0
 42
0.000000001
 43
0.00000001
 40
0.0
 40
0.0
 40
0.0
 40
0.0
 40
0.0150237788630014
 40
0.0150237788630014
 40
0.0150237788630014
 40
0.0150237788630014
 10
-60.21388331075443
 20
83.54023900300608
 30
0.0
 10
-60.47591974298601
 20
83.64575110148799
 30
0.0
 10
-60.73795879269066
 20
83.7489101312794
 30
0.0
 10
-61.00000000000006
 20
83.85000000000015
 30
0.0
  0
SPLINE
  5
105
330
FB
100
AcDbEntity
  8
0
  6
Continuous
 62
     7
370
    25
100
AcDbSpline
210
0.0
220
0.0
230
1.0
 70
     8
 71
     3
 72
     8
 73
     4
 74
     0
 42
0.000000001
 43
0.00000001
 40
0.0
 40
0.0
 40
0.0
 40
0.0
 40
0.0150237788630015
 40
0.0150237788630015
 40
0.0150237788630015
 40
0.0150237788630015
 10
-45.48611668924567
 20
83.54023900300606
 30
0.0
 10
-45.22408025701408
 20
83.64575110148797
 30
0.0
 10
-44.96204120730943
 20
83.7489101312794
 30
0.0
 10
-44.70000000000005
 20
83.85000000000015
 30
0.0
  0
LINE
  5
128
330
FB
100
AcDbEntity
  8
0
  6
Continuous
 62
     7
370
    25
100
AcDbLine
 10
62.7
 20
61.25
 30
0.0
 11
62.7
 21
88.85
 31
0.0
  0
LINE
  5
129
330
FB
100
AcDbEntity
  8
0
  6
Continuous
 62
     7
370
    25
100
AcDbLine
 10
15.0
 20
61.25
 30
0.0
 11
62.7
 21
61.25
 31
0.0
  0
LINE
  5
12A
330
FB
100
AcDbEntity
  8
0
  6
Continuous
 62
     7
370
    25
100
AcDbLine
 10
32.7
 20
88.85
 30
0.0
 11
32.7
 21
61.25
 31
0.0
  0
LINE
  5
12B
330
FB
100
AcDbEntity
  8
0
  6
Continuous
 62
     7
370
    25
100
AcDbLine
 10
62.7
 20
88.85
 30
0.0
 11
-45.4861166892
 21
88.85
 31
0.0
  0
LINE
  5
12C
330
FB
100
AcDbEntity
  8
0
  6
Continuous
 62
     7
370
    25
100
AcDbLine
 10
-67.3
 20
61.25
 30
0.0
 11
-67.3
 21
88.85
 31
0.0
  0
LINE
  5
12D
330
FB
100
AcDbEntity
  8
0
  6
Continuous
 62
     7
370
    25
100
AcDbLine
 10
-67.3
 20
88.85
 30
0.0
 11
-60.2138833108
 21
88.85
 31
0.0
  0
LINE
  5
12E
330
FB
100
AcDbEntity
  8
0
  6
Continuous
 62
     7
370
    25
100
AcDbLine
 10
-61.0
 20
88.85
 30
0.0
 11
-61.0
 21
83.85
 31
0.0
  0
LINE
  5
12F
330
FB
100
AcDbEntity
  8
0
  6
Continuous
 62
     7
370
    25
100
AcDbLine
 10
-44.7
 20
83.85
 30
0.0
 11
-44.7
 21
88.85
 31
0.0
  0
LINE
  5
130
330
FB
100
AcDbEntity
  8
0
  6
Continuous
 62
     7
370
    25
100
AcDbLine
 10
-15.0
 20
61.25
 30
0.0
 11
-67.3
 21
61.25
 31
0.0
  0
LINE
  5
131
330
FB
100
AcDbEntity
  8
0
  6
Continuous
 62
     7
370
    25
100
AcDbLine
 10
-32.3
 20
88.85
 30
0.0
 11
-32.3
 21
61.25
 31
0.0
  0
LINE
  5
132
330
FB
100
AcDbEntity
  8
0
  6
Continuous
 62
     7
370
    25
100
AcDbLine
 10
-45.4861166892
 20
83.540239003
 30
0.0
 11
-45.4861166892
 21
88.85
 31
0.0
  0
LINE
  5
133
330
FB
100
AcDbEntity
  8
0
  6
Continuous
 62
     7
370
    25
100
AcDbLine
 10
-60.2138833108
 20
88.85
 30
0.0
 11
-60.2138833108
 21
83.540239003
 31
0.0
  0
LINE
  5
134
330
FB
100
AcDbEntity
  8
0
  6
Continuous
 62
     7
370
    25
100
AcDbLine
 10
-14.6
 20
80.1
 30
0.0
 11
-14.6
 21
80.0
 31
0.0
  0
LINE
  5
135
330
FB
100
AcDbEntity
  8
0
  6
Continuous
 62
     7
370
    25
100
AcDbLine
 10
-16.3
 20
68.3
 30
0.0
 11
-15.0
 21
68.3
 31
0.0
  0
LINE
  5
136
330
FB
100
AcDbEntity
  8
0
  6
Continuous
 62
     7
370
    25
100
AcDbLine
 10
15.0
 20
68.3
 30
0.0
 11
16.7
 21
68.3
 31
0.0
  0
LINE
  5
137
330
FB
100
AcDbEntity
  8
0
  6
Continuous
 62
     7
370
    25
100
AcDbLine
 10
-16.3
 20
81.8
 30
0.0
 11
-16.3
 21
68.3
 31
0.0
  0
LINE
  5
138
330
FB
100
AcDbEntity
  8
0
  6
Continuous
 62
     7
370
    25
100
AcDbLine
 10
16.7
 20
81.8
 30
0.0
 11
-16.3
 21
81.8
 31
0.0
  0
LINE
  5
139
330
FB
100
AcDbEntity
  8
0
  6
Continuous
 62
     7
370
    25
100
AcDbLine
 10
16.7
 20
68.3
 30
0.0
 11
16.7
 21
81.8
 31
0.0
  0
LINE
  5
13A
330
FB
100
AcDbEntity
  8
0
  6
Continuous
 62
     7
370
    25
100
AcDbLine
 10
15.0
 20
0.0
 30
0.0
 11
15.0
 21
80.1
 31
0.0
  0
LINE
  5
13B
330
FB
100
AcDbEntity
  8
0
  6
Continuous
 62
     7
370
    25
100
AcDbLine
 10
15.0
 20
80.1
 30
0.0
 11
-14.6
 21
80.1
 31
0.0
  0
LINE
  5
13C
330
FB
100
AcDbEntity
  8
0
  6
Continuous
 62
     7
370
    25
100
AcDbLine
 10
15.0
 20
0.0
 30
0.0
 11
-15.0
 21
0.0
 31
0.0
  0
LINE
  5
13D
330
FB
100
AcDbEntity
  8
0
  6
Continuous
 62
     7
370
    25
100
AcDbLine
 10
-15.0
 20
0.0
 30
0.0
 11
-15.0
 21
80.0
 31
0.0
  0
LINE
  5
13E
330
FB
100
AcDbEntity
  8
0
  6
Continuous
 62
     7
370
    25
100
AcDbLine
 10
15.0
 20
80.0
 30
0.0
 11
-15.0
 21
80.0
 31
0.0
  0
ARC
  5
13F
330
FB
100
AcDbEntity
  8
0
  6
Continuous
 62
     7
370
    25
100
AcDbCircle
 10
-52.85
 20
76.4623413723
 30
0.0
 40
10.21388331075439
100
AcDbArc
 50
136.1344605743
 51
43.8655394257
  0
ARC
  5
140
330
FB
100
AcDbEntity
  8
0
  6
Continuous
 62
     7
370
    25
100
AcDbCircle
 10
-52.85
 20
76.4623413723
 30
0.0
 40
11.00000000000001
100
AcDbArc
 50
137.808913847
 51
42.191086153
  0
VIEWPORT
  5
2E2
330
FB
100
AcDbEntity
  8
0
100
AcDbViewport
 10
0.0
 20
0.0
 30
0.0
 40
205.6
 41
156.0
 68
     1
 69
     1
 12
-2.3
 22
0.0
 13
0.0
 23
0.0
 14
10.0
 24
10.0
 15
10.0
 25
10.0
 16
0.0
 26
0.0
 36
1.0
 17
0.0
 27
0.0
 37
0.0
 42
50.0
 43
0.0
 44
0.0
 45
711.96
 50
0.0
 51
0.0
 72
   100
 90
   557152
  1

281
     0
 71
     1
 74
     0
110
0.0
120
0.0
130
0.0
111
1.0
121
0.0
131
0.0
112
0.0
122
1.0
132
0.0
 79
     0
146
0.0
  0
ENDBLK
  5
FE
330
FB
100
AcDbEntity
  8
0
100
AcDbBlockEnd
  0
BLOCK
  5
143
330
141
100
AcDbEntity
  8
0
100
AcDbBlockBegin
  2
*Paper_Space3
 70
     0
 10
0.0
 20
0.0
 30
0.0
  3
*Paper_Space3
  1

  0
LINE
  5
167
330
141
100
AcDbEntity
  8
0
  6
Continuous
 62
     7
370
    25
100
AcDbLine
 10
62.7
 20
-61.25
 30
0.0
 11
62.7
 21
-88.85
 31
0.0
  0
LINE
  5
168
330
141
100
AcDbEntity
  8
0
  6
Continuous
 62
     7
370
    25
100
AcDbLine
 10
32.7
 20
-88.85
 30
0.0
 11
32.7
 21
-61.25
 31
0.0
  0
LINE
  5
169
330
141
100
AcDbEntity
  8
0
  6
Continuous
 62
     7
370
    25
100
AcDbLine
 10
15.0
 20
-61.25
 30
0.0
 11
62.7
 21
-61.25
 31
0.0
  0
LINE
  5
16A
330
141
100
AcDbEntity
  8
0
  6
Continuous
 62
     7
370
    25
100
AcDbLine
 10
-15.0
 20
-61.25
 30
0.0
 11
-67.3
 21
-61.25
 31
0.0
  0
LINE
  5
16B
330
141
100
AcDbEntity
  8
0
  6
Continuous
 62
     7
370
    25
100
AcDbLine
 10
-32.3
 20
-88.85
 30
0.0
 11
-32.3
 21
-61.25
 31
0.0
  0
LINE
  5
16C
330
141
100
AcDbEntity
  8
0
  6
Continuous
 62
     7
370
    25
100
AcDbLine
 10
62.7
 20
-88.85
 30
0.0
 11
-45.4861166892
 21
-88.85
 31
0.0
  0
LINE
  5
16D
330
141
100
AcDbEntity
  8
0
  6
Continuous
 62
     7
370
    25
100
AcDbLine
 10
-60.2138833108
 20
-88.85
 30
0.0
 11
-60.2138833108
 21
-83.540239003
 31
0.0
  0
LINE
  5
16E
330
141
100
AcDbEntity
  8
0
  6
Continuous
 62
     7
370
    25
100
AcDbLine
 10
-45.4861166892
 20
-83.540239003
 30
0.0
 11
-45.4861166892
 21
-88.85
 31
0.0
  0
LINE
  5
16F
330
141
100
AcDbEntity
  8
0
  6
Continuous
 62
     7
370
    25
100
AcDbLine
 10
-67.3
 20
-88.85
 30
0.0
 11
-60.2138833108
 21
-88.85
 31
0.0
  0
LINE
  5
170
330
141
100
AcDbEntity
  8
0
  6
Continuous
 62
     7
370
    25
100
AcDbLine
 10
-67.3
 20
-61.25
 30
0.0
 11
-67.3
 21
-88.85
 31
0.0
  0
LINE
  5
171
330
141
100
AcDbEntity
  8
0
  6
Continuous
 62
     7
370
    25
100
AcDbLine
 10
15.0
 20
0.0
 30
0.0
 11
15.0
 21
-80.1
 31
0.0
  0
LINE
  5
172
330
141
100
AcDbEntity
  8
0
  6
Continuous
 62
     7
370
    25
100
AcDbLine
 10
-14.6
 20
-80.1
 30
0.0
 11
-14.6
 21
-80.0
 31
0.0
  0
LINE
  5
173
330
141
100
AcDbEntity
  8
0
  6
Continuous
 62
     7
370
    25
100
AcDbLine
 10
15.0
 20
-80.1
 30
0.0
 11
-14.6
 21
-80.1
 31
0.0
  0
LINE
  5
174
330
141
100
AcDbEntity
  8
0
  6
Continuous
 62
     7
370
    25
100
AcDbLine
 10
16.7
 20
-81.8
 30
0.0
 11
-16.3
 21
-81.8
 31
0.0
  0
LINE
  5
175
330
141
100
AcDbEntity
  8
0
  6
Continuous
 62
     7
370
    25
100
AcDbLine
 10
-16.3
 20
-81.8
 30
0.0
 11
-16.3
 21
-68.3
 31
0.0
  0
LINE
  5
176
330
141
100
AcDbEntity
  8
0
  6
Continuous
 62
     7
370
    25
100
AcDbLine
 10
-16.3
 20
-68.3
 30
0.0
 11
-15.0
 21
-68.3
 31
0.0
  0
LINE
  5
177
330
141
100
AcDbEntity
  8
0
  6
Continuous
 62
     7
370
    25
100
AcDbLine
 10
15.0
 20
-68.3
 30
0.0
 11
16.7
 21
-68.3
 31
0.0
  0
LINE
  5
178
330
141
100
AcDbEntity
  8
0
  6
Continuous
 62
     7
370
    25
100
AcDbLine
 10
16.7
 20
-68.3
 30
0.0
 11
16.7
 21
-81.8
 31
0.0
  0
LINE
  5
179
330
141
100
AcDbEntity
  8
0
  6
Continuous
 62
     7
370
    25
100
AcDbLine
 10
-15.0
 20
0.0
 30
0.0
 11
-15.0
 21
-80.0
 31
0.0
  0
LINE
  5
17A
330
141
100
AcDbEntity
  8
0
  6
Continuous
 62
     7
370
    25
100
AcDbLine
 10
15.0
 20
0.0
 30
0.0
 11
-15.0
 21
0.0
 31
0.0
  0
LINE
  5
17B
330
141
100
AcDbEntity
  8
0
  6
Continuous
 62
     7
370
    25
100
AcDbLine
 10
-15.0
 20
-80.0
 30
0.0
 11
15.0
 21
-80.0
 31
0.0
  0
ARC
  5
17C
330
141
100
AcDbEntity
  8
0
  6
Continuous
 62
     7
370
    25
100
AcDbCircle
 10
-52.85
 20
-76.4623413723
 30
0.0
 40
10.2138833107544
100
AcDbArc
 50
316.1344605743
 51
223.8655394257
  0
VIEWPORT
  5
2E4
330
141
100
AcDbEntity
  8
0
100
AcDbViewport
 10
0.0
 20
0.0
 30
0.0
 40
205.6
 41
156.0
 68
     1
 69
     1
 12
-2.3
 22
0.0
 13
0.0
 23
0.0
 14
10.0
 24
10.0
 15
10.0
 25
10.0
 16
0.0
 26
0.0
 36
1.0
 17
0.0
 27
0.0
 37
0.0
 42
50.0
 43
0.0
 44
0.0
 45
711.96
 50
0.0
 51
0.0
 72
   100
 90
   557152
  1

281
     0
 71
     1
 74
     0
110
0.0
120
0.0
130
0.0
111
1.0
121
0.0
131
0.0
112
0.0
122
1.0
132
0.0
 79
     0
146
0.0
  0
ENDBLK
  5
144
330
141
100
AcDbEntity
  8
0
100
AcDbBlockEnd
  0
BLOCK
  5
17F
330
17D
100
AcDbEntity
  8
0
100
AcDbBlockBegin
  2
*Paper_Space4
 70
     0
 10
0.0
 20
0.0
 30
0.0
  3
*Paper_Space4
  1

  0
LWPOLYLINE
  5
193
330
17D
100
AcDbEntity
  8
0
  6
Continuous
 62
     7
370
    25
100
AcDbPolyline
 90
       26
 70
   128
 43
0.0
 10
16.1573899501
 20
94.9115183586
 10
14.1501705255
 20
94.7466758274
 10
12.2294501369
 20
94.3719721384
 10
10.4604771903
 20
93.8001362753
 10
8.9033451101
 20
93.0505939593
 10
7.610950917
 20
92.1488077416
 10
6.6271982742
 20
91.1254120204
 10
5.9855060449
 20
90.015172366
 10
5.7076730268
 20
88.8558045065
 10
5.8031374295
 20
87.6866930942
 10
6.2686562509
 20
86.5475537779
 10
7.0884154449
 20
85.4770840301
 10
8.2345671366
 20
84.5116485634
 10
9.6681756374
 20
83.6840439919
 10
11.3405401213
 20
83.0223847041
 10
13.1948490306
 20
82.5491477946
 10
15.1681100104
 20
82.2804094992
 10
17.1932898086
 20
82.2252990726
 10
19.2015914496
 20
82.38568866
 10
21.1247913223
 20
82.7561296989
 10
22.8975567904
 20
83.3240380113
 10
24.4596655949
 20
84.0701212982
 10
25.7580516515
 20
84.9690345142
 10
26.7486077487
 20
85.9902408592
 10
27.3976839046
 20
87.0990491379
 10
27.6832304835
 20
88.2577922472
  0
SPLINE
  5
195
330
17D
100
AcDbEntity
  8
0
  6
Continuous
 62
     7
370
    25
100
AcDbSpline
210
0.0
220
0.0
230
1.0
 70
     8
 71
     3
 72
     8
 73
     4
 74
     0
 42
0.000000001
 43
0.00000001
 40
0.0
 40
0.0
 40
0.0
 40
0.0
 40
0.0150237788630014
 40
0.0150237788630014
 40
0.0150237788630014
 40
0.0150237788630014
 10
16.49422429036074
 20
82.2160644639911
 30
0.0
 10
16.38354487254564
 20
86.44876493112221
 30
0.0
 10
16.27119973306993
 20
90.68054671614262
 30
0.0
 10
16.15738995011286
 20
94.91151835858314
 30
0.0
  0
LINE
  5
1C0
330
17D
100
AcDbEntity
  8
0
  6
Continuous
 62
     7
370
    25
100
AcDbLine
 10
107.1620326888
 20
46.4576969219
 30
0.0
 11
67.1751442127
 21
69.5416362837
 31
0.0
  0
LINE
  5
1C1
330
17D
100
AcDbEntity
  8
0
  6
Continuous
 62
     7
370
    25
100
AcDbLine
 10
87.6458855281
 20
35.1912649788
 30
0.0
 11
107.1620326888
 21
46.4576969219
 31
0.0
  0
LINE
  5
1C2
330
17D
100
AcDbEntity
  8
0
  6
Continuous
 62
     7
370
    25
100
AcDbLine
 10
85.9488292532
 20
58.7038185992
 30
0.0
 11
66.4326820925
 21
47.4373866561
 31
0.0
  0
LINE
  5
1C3
330
17D
100
AcDbEntity
  8
0
  6
Continuous
 62
     7
370
    25
100
AcDbLine
 10
87.6458855281
 20
35.1912649788
 30
0.0
 11
87.6458855281
 21
22.9431528005
 31
0.0
  0
LINE
  5
1C4
330
17D
100
AcDbEntity
  8
0
  6
Continuous
 62
     7
370
    25
100
AcDbLine
 10
107.1620326888
 20
46.4576969219
 30
0.0
 11
107.1620326888
 21
34.2095847436
 31
0.0
  0
LINE
  5
1C5
330
17D
100
AcDbEntity
  8
0
  6
Continuous
 62
     7
370
    25
100
AcDbLine
 10
87.6458855281
 20
22.9431528005
 30
0.0
 11
107.1620326888
 21
34.2095847436
 31
0.0
  0
LINE
  5
1C6
330
17D
100
AcDbEntity
  8
0
  6
Continuous
 62
     7
370
    25
100
AcDbLine
 10
66.4326820925
 20
47.4373866561
 30
0.0
 11
66.4326820925
 21
35.1892744778
 31
0.0
  0
LINE
  5
1C7
330
17D
100
AcDbEntity
  8
0
  6
Continuous
 62
     7
370
    25
100
AcDbLine
 10
20.4707413154
 20
73.9706502903
 30
0.0
 11
20.4707413154
 21
61.722538112
 31
0.0
  0
LINE
  5
1C8
330
17D
100
AcDbEntity
  8
0
  6
Continuous
 62
     7
370
    25
100
AcDbLine
 10
38.8908729653
 20
84.6043659468
 30
0.0
 11
20.4707413154
 21
73.9706502903
 31
0.0
  0
LINE
  5
1C9
330
17D
100
AcDbEntity
  8
0
  6
Continuous
 62
     7
370
    25
100
AcDbLine
 10
-4.2779960262
 20
76.0096800689
 30
0.0
 11
87.6458855281
 21
22.9431528005
 31
0.0
  0
LINE
  5
1CA
330
17D
100
AcDbEntity
  8
0
  6
Continuous
 62
     7
370
    25
100
AcDbLine
 10
-4.2779960262
 20
76.0096800689
 30
0.0
 11
-4.2779960262
 21
88.2577922472
 31
0.0
  0
LINE
  5
1CB
330
17D
100
AcDbEntity
  8
0
  6
Continuous
 62
     7
370
    25
100
AcDbLine
 10
-4.2779960262
 20
88.2577922472
 30
0.0
 11
87.6458855281
 21
35.1912649788
 31
0.0
  0
LINE
  5
1CC
330
17D
100
AcDbEntity
  8
0
  6
Continuous
 62
     7
370
    25
100
AcDbLine
 10
31.2187643894
 20
90.2988125268
 30
0.0
 11
38.8908729653
 21
85.8697985201
 31
0.0
  0
LINE
  5
1CD
330
17D
100
AcDbEntity
  8
0
  6
Continuous
 62
     7
370
    25
100
AcDbLine
 10
-4.2779960262
 20
88.2577922472
 30
0.0
 11
15.2381511346
 21
99.5242241904
 31
0.0
  0
LINE
  5
1CE
330
17D
100
AcDbEntity
  8
0
  6
Continuous
 62
     7
370
    25
100
AcDbLine
 10
15.2381511346
 20
99.5242241904
 30
0.0
 11
19.692923856
 21
96.9525386381
 31
0.0
  0
LINE
  5
1CF
330
17D
100
AcDbEntity
  8
0
  6
Continuous
 62
     7
370
    25
100
AcDbLine
 10
19.692923856
 20
96.9525386381
 30
0.0
 11
16.1573899501
 21
94.9115183586
 31
0.0
  0
LINE
  5
1D0
330
17D
100
AcDbEntity
  8
0
  6
Continuous
 62
     7
370
    25
100
AcDbLine
 10
27.6832304835
 20
88.2577922472
 30
0.0
 11
31.2187643894
 21
90.2988125268
 31
0.0
  0
LINE
  5
1D1
330
17D
100
AcDbEntity
  8
0
  6
Continuous
 62
     7
370
    25
100
AcDbLine
 10
19.692923856
 20
96.9525386381
 30
0.0
 11
20.2487922978
 21
84.3835304389
 31
0.0
  0
LINE
  5
1D2
330
17D
100
AcDbEntity
  8
0
  6
Continuous
 62
     7
370
    25
100
AcDbLine
 10
20.2487922978
 20
84.3835304389
 30
0.0
 11
16.5007356865
 21
82.2198234129
 31
0.0
  0
LINE
  5
1D3
330
17D
100
AcDbEntity
  8
0
  6
Continuous
 62
     7
370
    25
100
AcDbLine
 10
36.7695526217
 20
70.3172239899
 30
0.0
 11
60.1040764009
 21
56.8464901448
 31
0.0
  0
LINE
  5
1D4
330
17D
100
AcDbEntity
  8
0
  6
Continuous
 62
     7
370
    25
100
AcDbLine
 10
60.1040764009
 20
56.8464901448
 30
0.0
 11
69.6500179469
 21
62.3572448997
 31
0.0
  0
LINE
  5
1D5
330
17D
100
AcDbEntity
  8
0
  6
Continuous
 62
     7
370
    25
100
AcDbLine
 10
39.1737156777
 20
70.3172239899
 30
0.0
 11
60.1040764009
 21
58.2343839349
 31
0.0
  0
LINE
  5
1D6
330
17D
100
AcDbEntity
  8
0
  6
Continuous
 62
     7
370
    25
100
AcDbLine
 10
60.1040764009
 20
58.2343839349
 30
0.0
 11
67.2458548908
 21
62.3572448997
 31
0.0
  0
LINE
  5
1D7
330
17D
100
AcDbEntity
  8
0
  6
Continuous
 62
     7
370
    25
100
AcDbLine
 10
67.2458548908
 20
62.3572448997
 30
0.0
 11
67.1751442127
 21
62.3980653052
 31
0.0
  0
LINE
  5
1D8
330
17D
100
AcDbEntity
  8
0
  6
Continuous
 62
     7
370
    25
100
AcDbLine
 10
38.8908729653
 20
71.5418361577
 30
0.0
 11
36.7695526217
 21
70.3172239899
 31
0.0
  0
LINE
  5
1D9
330
17D
100
AcDbEntity
  8
0
  6
Continuous
 62
     7
370
    25
100
AcDbLine
 10
69.6500179469
 20
62.3572448997
 30
0.0
 11
67.1751442127
 21
63.7859590953
 31
0.0
  0
LINE
  5
1DA
330
17D
100
AcDbEntity
  8
0
  6
Continuous
 62
     7
370
    25
100
AcDbLine
 10
10.6066017178
 20
-291.0958041868
 30
0.0
 11
67.1751442127
 21
-258.4394797139
 31
0.0
  0
LINE
  5
1DB
330
17D
100
AcDbEntity
  8
0
  6
Continuous
 62
     7
370
    25
100
AcDbLine
 10
10.6066017178
 20
-278.8476920085
 30
0.0
 11
10.6066017178
 21
-291.0958041868
 31
0.0
  0
LINE
  5
1DC
330
17D
100
AcDbEntity
  8
0
  6
Continuous
 62
     7
370
    25
100
AcDbLine
 10
10.6066017178
 20
-278.8476920085
 30
0.0
 11
60.1040764009
 21
-250.2734080947
 31
0.0
  0
LINE
  5
1DD
330
17D
100
AcDbEntity
  8
0
  6
Continuous
 62
     7
370
    25
100
AcDbLine
 10
60.1040764009
 20
-250.2734080947
 30
0.0
 11
60.1040764009
 21
38.8427007782
 31
0.0
  0
LINE
  5
1DE
330
17D
100
AcDbEntity
  8
0
  6
Continuous
 62
     7
370
    25
100
AcDbLine
 10
60.1040764009
 20
58.2343839349
 30
0.0
 11
60.1040764009
 21
295.175854245
 31
0.0
  0
LINE
  5
1DF
330
17D
100
AcDbEntity
  8
0
  6
Continuous
 62
     7
370
    25
100
AcDbLine
 10
10.6066017178
 20
266.6015703312
 30
0.0
 11
60.1040764009
 21
295.175854245
 31
0.0
  0
LINE
  5
1E0
330
17D
100
AcDbEntity
  8
0
  6
Continuous
 62
     7
370
    25
100
AcDbLine
 10
10.6066017178
 20
266.6015703312
 30
0.0
 11
10.6066017178
 21
278.8496825095
 31
0.0
  0
LINE
  5
1E1
330
17D
100
AcDbEntity
  8
0
  6
Continuous
 62
     7
370
    25
100
AcDbLine
 10
10.6066017178
 20
278.8496825095
 30
0.0
 11
67.1751442127
 21
311.5060069824
 31
0.0
  0
LINE
  5
1E2
330
17D
100
AcDbEntity
  8
0
  6
Continuous
 62
     7
370
    25
100
AcDbLine
 10
67.1751442127
 20
-258.4394797139
 30
0.0
 11
67.1751442127
 21
34.7606602191
 31
0.0
  0
LINE
  5
1E3
330
17D
100
AcDbEntity
  8
0
  6
Continuous
 62
     7
370
    25
100
AcDbLine
 10
67.1751442127
 20
62.3164244941
 30
0.0
 11
67.1751442127
 21
311.5060069824
 31
0.0
  0
LINE
  5
1E4
330
17D
100
AcDbEntity
  8
0
  6
Continuous
 62
     7
370
    25
100
AcDbLine
 10
10.6066017178
 20
278.8496825095
 30
0.0
 11
-10.6066017178
 21
291.0958041868
 31
0.0
  0
LINE
  5
1E5
330
17D
100
AcDbEntity
  8
0
  6
Continuous
 62
     7
370
    25
100
AcDbLine
 10
-10.6066017178
 20
278.8476920085
 30
0.0
 11
10.6066017178
 21
266.6015703312
 31
0.0
  0
LINE
  5
1E6
330
17D
100
AcDbEntity
  8
0
  6
Continuous
 62
     7
370
    25
100
AcDbLine
 10
-10.6066017178
 20
291.0958041868
 30
0.0
 11
-10.6066017178
 21
278.8476920085
 31
0.0
  0
LINE
  5
1E7
330
17D
100
AcDbEntity
  8
0
  6
Continuous
 62
     7
370
    25
100
AcDbLine
 10
-10.6066017178
 20
291.0958041868
 30
0.0
 11
45.9619407771
 21
323.7521286597
 31
0.0
  0
LINE
  5
1E8
330
17D
100
AcDbEntity
  8
0
  6
Continuous
 62
     7
370
    25
100
AcDbLine
 10
67.1751442127
 20
311.5060069824
 30
0.0
 11
45.9619407771
 21
323.7521286597
 31
0.0
  0
LINE
  5
1E9
330
17D
100
AcDbEntity
  8
0
  6
Continuous
 62
     7
370
    25
100
AcDbLine
 10
38.8908729653
 20
-238.0272864174
 30
0.0
 11
60.1040764009
 21
-250.2734080947
 31
0.0
  0
LINE
  5
1EA
330
17D
100
AcDbEntity
  8
0
  6
Continuous
 62
     7
370
    25
100
AcDbLine
 10
38.8908729653
 20
282.9297325676
 30
0.0
 11
38.8908729653
 21
70.4805056123
 31
0.0
  0
LINE
  5
1EB
330
17D
100
AcDbEntity
  8
0
  6
Continuous
 62
     7
370
    25
100
AcDbLine
 10
38.8908729653
 20
51.0888224556
 30
0.0
 11
38.8908729653
 21
-238.0272864174
 31
0.0
  0
LINE
  5
1EC
330
17D
100
AcDbEntity
  8
0
  6
Continuous
 62
     7
370
    25
100
AcDbLine
 10
-10.6066017178
 20
-266.6015703312
 30
0.0
 11
10.6066017178
 21
-278.8476920085
 31
0.0
  0
LINE
  5
1ED
330
17D
100
AcDbEntity
  8
0
  6
Continuous
 62
     7
370
    25
100
AcDbLine
 10
10.6066017178
 20
-291.0958041868
 30
0.0
 11
-10.6066017178
 21
-278.8496825095
 31
0.0
  0
LINE
  5
1EE
330
17D
100
AcDbEntity
  8
0
  6
Continuous
 62
     7
370
    25
100
AcDbLine
 10
-10.6066017178
 20
-278.8496825095
 30
0.0
 11
-10.6066017178
 21
-266.6015703312
 31
0.0
  0
LINE
  5
1EF
330
17D
100
AcDbEntity
  8
0
  6
Continuous
 62
     7
370
    25
100
AcDbLine
 10
-10.6066017178
 20
-266.6015703312
 30
0.0
 11
38.8908729653
 21
-238.0272864174
 31
0.0
  0
VIEWPORT
  5
2E6
330
17D
100
AcDbEntity
  8
0
100
AcDbViewport
 10
0.0
 20
0.0
 30
0.0
 40
205.6
 41
156.0
 68
     1
 69
     1
 12
-2.3
 22
0.0
 13
0.0
 23
0.0
 14
10.0
 24
10.0
 15
10.0
 25
10.0
 16
0.0
 26
0.0
 36
1.0
 17
0.0
 27
0.0
 37
0.0
 42
50.0
 43
0.0
 44
0.0
 45
711.96
 50
0.0
 51
0.0
 72
   100
 90
   557152
  1

281
     0
 71
     1
 74
     0
110
0.0
120
0.0
130
0.0
111
1.0
121
0.0
131
0.0
112
0.0
122
1.0
132
0.0
 79
     0
146
0.0
  0
ENDBLK
  5
180
330
17D
100
AcDbEntity
  8
0
100
AcDbBlockEnd
  0
BLOCK
  5
1F2
330
1F0
100
AcDbEntity
  8
0
100
AcDbBlockBegin
  2
*Paper_Space5
 70
     0
 10
0.0
 20
0.0
 30
0.0
  3
*Paper_Space5
  1

  0
LWPOLYLINE
  5
206
330
1F0
100
AcDbEntity
  8
0
  6
Continuous
 62
     7
370
    25
100
AcDbPolyline
 90
       26
 70
   128
 43
0.0
 10
-14.8170970605
 20
90.4202799448
 10
-16.6504142165
 20
89.9744179138
 10
-18.2937143965
 20
89.3628373217
 10
-19.6911733805
 20
88.6063140496
 10
-20.7953183705
 20
87.7305477977
 10
-21.568640679
 20
86.765289045
 10
-21.9848699293
 20
85.7433284027
 10
-22.0298664814
 20
84.6993826901
 10
-21.7021017664
 20
83.6689155771
 10
-21.0127102135
 20
82.6869328548
 10
-19.9851110046
 20
81.7867932607
 10
-18.6542125056
 20
80.9990752561
 10
-17.065226402
 20
80.3505382509
 10
-15.272131821
 20
79.8632135651
 10
-13.3358416181
 20
79.5536560078
 10
-11.3221331184
 20
79.4323814964
 10
-9.2994136084
 20
79.5035098231
 10
-7.3363964858
 20
79.7646247016
 10
-5.4997670105
 20
80.206855851
 10
-3.8519169531
 20
80.8151803259
 10
-2.4488250965
 20
81.5689328578
 10
-1.338155592
 20
82.4425078711
 10
-0.55763877
 20
83.4062293246
 10
-0.1337894105
 20
84.4273588306
 10
-0.0810060149
 20
85.4712078041
 10
-0.4010816772
 20
86.5023158615
  0
LINE
  5
235
330
1F0
100
AcDbEntity
  8
0
  6
Continuous
 62
     7
370
    25
100
AcDbLine
 10
96.9189015356
 20
62.9645638064
 30
0.0
 11
50.6019029396
 21
75.5525315716
 31
0.0
  0
LINE
  5
236
330
1F0
100
AcDbEntity
  8
0
  6
Continuous
 62
     7
370
    25
100
AcDbLine
 10
84.0381088011
 20
50.3925152186
 30
0.0
 11
96.9189015356
 21
62.9645638064
 31
0.0
  0
LINE
  5
237
330
1F0
100
AcDbEntity
  8
0
  6
Continuous
 62
     7
370
    25
100
AcDbLine
 10
70.3863578853
 20
70.175540647
 30
0.0
 11
57.5055651508
 21
57.6034920592
 31
0.0
  0
LINE
  5
238
330
1F0
100
AcDbEntity
  8
0
  6
Continuous
 62
     7
370
    25
100
AcDbLine
 10
84.0381088011
 20
50.3925152186
 30
0.0
 11
84.0381088011
 21
37.5350057081
 31
0.0
  0
LINE
  5
239
330
1F0
100
AcDbEntity
  8
0
  6
Continuous
 62
     7
370
    25
100
AcDbLine
 10
96.9189015356
 20
62.9645638064
 30
0.0
 11
96.9189015356
 21
50.1070542959
 31
0.0
  0
LINE
  5
23A
330
1F0
100
AcDbEntity
  8
0
  6
Continuous
 62
     7
370
    25
100
AcDbLine
 10
84.0381088011
 20
37.5350057081
 30
0.0
 11
96.9189015356
 21
50.1070542959
 31
0.0
  0
LINE
  5
23B
330
1F0
100
AcDbEntity
  8
0
  6
Continuous
 62
     7
370
    25
100
AcDbLine
 10
57.5055651508
 20
57.6034920592
 30
0.0
 11
57.5055651508
 21
44.7459825486
 31
0.0
  0
LINE
  5
23C
330
1F0
100
AcDbEntity
  8
0
  6
Continuous
 62
     7
370
    25
100
AcDbLine
 10
0.0183872418
 20
73.2272752136
 30
0.0
 11
0.0183872418
 21
60.3697657031
 31
0.0
  0
LINE
  5
23D
330
1F0
100
AcDbEntity
  8
0
  6
Continuous
 62
     7
370
    25
100
AcDbLine
 10
12.8991799763
 20
85.7993238014
 30
0.0
 11
0.0183872418
 21
73.2272752136
 31
0.0
  0
LINE
  5
23E
330
1F0
100
AcDbEntity
  8
0
  6
Continuous
 62
     7
370
    25
100
AcDbLine
 10
-30.9362470169
 20
68.782572017
 30
0.0
 11
84.0381088011
 21
37.5350057081
 31
0.0
  0
LINE
  5
23F
330
1F0
100
AcDbEntity
  8
0
  6
Continuous
 62
     7
370
    25
100
AcDbLine
 10
-30.9362470169
 20
68.782572017
 30
0.0
 11
-30.9362470169
 21
81.6400815276
 31
0.0
  0
LINE
  5
240
330
1F0
100
AcDbEntity
  8
0
  6
Continuous
 62
     7
370
    25
100
AcDbLine
 10
-30.9362470169
 20
81.6400815276
 30
0.0
 11
84.0381088011
 21
50.3925152186
 31
0.0
  0
LINE
  5
241
330
1F0
100
AcDbEntity
  8
0
  6
Continuous
 62
     7
370
    25
100
AcDbLine
 10
1.9323952675
 20
88.7798608955
 30
0.0
 11
19.4024053999
 21
84.0318864785
 31
0.0
  0
LINE
  5
242
330
1F0
100
AcDbEntity
  8
0
  6
Continuous
 62
     7
370
    25
100
AcDbLine
 10
-30.9362470169
 20
81.6400815276
 30
0.0
 11
-18.0554542825
 21
94.2121301154
 31
0.0
  0
LINE
  5
243
330
1F0
100
AcDbEntity
  8
0
  6
Continuous
 62
     7
370
    25
100
AcDbLine
 10
-18.0554542825
 20
94.2121301154
 30
0.0
 11
-12.4836201159
 21
92.6978249788
 31
0.0
  0
LINE
  5
244
330
1F0
100
AcDbEntity
  8
0
  6
Continuous
 62
     7
370
    25
100
AcDbLine
 10
-12.4836201159
 20
92.6978249788
 30
0.0
 11
-14.8170970605
 21
90.4202799448
 31
0.0
  0
LINE
  5
245
330
1F0
100
AcDbEntity
  8
0
  6
Continuous
 62
     7
370
    25
100
AcDbLine
 10
-0.4010816772
 20
86.5023158615
 30
0.0
 11
1.9323952675
 21
88.7798608955
 31
0.0
  0
LINE
  5
246
330
1F0
100
AcDbEntity
  8
0
  6
Continuous
 62
     7
370
    25
100
AcDbLine
 10
-14.3698014986
 20
79.7087736086
 30
0.0
 11
-14.8170970605
 21
90.4202799448
 31
0.0
  0
LINE
  5
247
330
1F0
100
AcDbEntity
  8
0
  6
Continuous
 62
     7
370
    25
100
AcDbLine
 10
-0.5860014918
 20
83.6817602984
 30
0.0
 11
-0.4010816772
 21
86.5023158615
 31
0.0
  0
LINE
  5
248
330
1F0
100
AcDbEntity
  8
0
  6
Continuous
 62
     7
370
    25
100
AcDbLine
 10
-12.4836201159
 20
92.6978249788
 30
0.0
 11
-11.7883642702
 21
79.651359827
 31
0.0
  0
LINE
  5
249
330
1F0
100
AcDbEntity
  8
0
  6
Continuous
 62
     7
370
    25
100
AcDbLine
 10
-11.7883642702
 20
79.651359827
 30
0.0
 11
-11.9933354666
 21
79.4513016556
 31
0.0
  0
LINE
  5
24A
330
1F0
100
AcDbEntity
  8
0
  6
Continuous
 62
     7
370
    25
100
AcDbLine
 10
17.4592796806
 20
72.5927593966
 30
0.0
 11
46.6450776959
 21
64.6606848721
 31
0.0
  0
LINE
  5
24B
330
1F0
100
AcDbEntity
  8
0
  6
Continuous
 62
     7
370
    25
100
AcDbLine
 10
19.7561726486
 20
72.9585026873
 30
0.0
 11
45.9349490503
 21
65.8436722046
 31
0.0
  0
LINE
  5
24C
330
1F0
100
AcDbEntity
  8
0
  6
Continuous
 62
     7
370
    25
100
AcDbLine
 10
45.9349490503
 20
65.8436722046
 30
0.0
 11
50.6485724785
 21
70.4443131733
 31
0.0
  0
LINE
  5
24D
330
1F0
100
AcDbEntity
  8
0
  6
Continuous
 62
     7
370
    25
100
AcDbLine
 10
50.6485724785
 20
70.4443131733
 30
0.0
 11
50.6019029396
 21
70.456996954
 31
0.0
  0
LINE
  5
24E
330
1F0
100
AcDbEntity
  8
0
  6
Continuous
 62
     7
370
    25
100
AcDbLine
 10
19.4024053999
 20
74.489309668
 30
0.0
 11
17.4592796806
 21
72.5927593966
 31
0.0
  0
LINE
  5
24F
330
1F0
100
AcDbEntity
  8
0
  6
Continuous
 62
     7
370
    25
100
AcDbLine
 10
52.9454654465
 20
70.8100564639
 30
0.0
 11
50.6019029396
 21
71.4469865368
 31
0.0
  0
LINE
  5
250
330
1F0
100
AcDbEntity
  8
0
  6
Continuous
 62
     7
370
    25
100
AcDbLine
 10
46.6450776959
 20
64.6606848721
 30
0.0
 11
52.9454654465
 21
70.8100564639
 31
0.0
  0
LINE
  5
251
330
1F0
100
AcDbEntity
  8
0
  6
Continuous
 62
     7
370
    25
100
AcDbLine
 10
13.2662718252
 20
-302.7568763653
 30
0.0
 11
50.6019029396
 21
-266.316155821
 31
0.0
  0
LINE
  5
252
330
1F0
100
AcDbEntity
  8
0
  6
Continuous
 62
     7
370
    25
100
AcDbLine
 10
13.2662718252
 20
-289.8993668548
 30
0.0
 11
13.2662718252
 21
-302.7568763653
 31
0.0
  0
LINE
  5
253
330
1F0
100
AcDbEntity
  8
0
  6
Continuous
 62
     7
370
    25
100
AcDbLine
 10
13.2662718252
 20
-289.8993668548
 30
0.0
 11
45.9349490503
 21
-258.0137363785
 31
0.0
  0
LINE
  5
254
330
1F0
100
AcDbEntity
  8
0
  6
Continuous
 62
     7
370
    25
100
AcDbLine
 10
45.9349490503
 20
-258.0137363785
 30
0.0
 11
45.9349490503
 21
47.8906280764
 31
0.0
  0
LINE
  5
255
330
1F0
100
AcDbEntity
  8
0
  6
Continuous
 62
     7
370
    25
100
AcDbLine
 10
45.9349490503
 20
65.8436722046
 30
0.0
 11
45.9349490503
 21
314.5740204906
 31
0.0
  0
LINE
  5
256
330
1F0
100
AcDbEntity
  8
0
  6
Continuous
 62
     7
370
    25
100
AcDbLine
 10
13.2662718252
 20
282.6883900143
 30
0.0
 11
45.9349490503
 21
314.5740204906
 31
0.0
  0
LINE
  5
257
330
1F0
100
AcDbEntity
  8
0
  6
Continuous
 62
     7
370
    25
100
AcDbLine
 10
13.2662718252
 20
282.6883900143
 30
0.0
 11
13.2662718252
 21
295.5458995248
 31
0.0
  0
LINE
  5
258
330
1F0
100
AcDbEntity
  8
0
  6
Continuous
 62
     7
370
    25
100
AcDbLine
 10
13.2662718252
 20
295.5458995248
 30
0.0
 11
50.6019029396
 21
331.9866200691
 31
0.0
  0
LINE
  5
259
330
1F0
100
AcDbEntity
  8
0
  6
Continuous
 62
     7
370
    25
100
AcDbLine
 10
50.6019029396
 20
-266.316155821
 30
0.0
 11
50.6019029396
 21
46.6222500101
 31
0.0
  0
LINE
  5
25A
330
1F0
100
AcDbEntity
  8
0
  6
Continuous
 62
     7
370
    25
100
AcDbLine
 10
50.6019029396
 20
70.3987622726
 30
0.0
 11
50.6019029396
 21
331.9866200691
 31
0.0
  0
LINE
  5
25B
330
1F0
100
AcDbEntity
  8
0
  6
Continuous
 62
     7
370
    25
100
AcDbLine
 10
13.2662718252
 20
295.5458995248
 30
0.0
 11
-13.2662718252
 21
302.7568763653
 31
0.0
  0
LINE
  5
25C
330
1F0
100
AcDbEntity
  8
0
  6
Continuous
 62
     7
370
    25
100
AcDbLine
 10
-13.2662718252
 20
289.8993668548
 30
0.0
 11
13.2662718252
 21
282.6883900143
 31
0.0
  0
LINE
  5
25D
330
1F0
100
AcDbEntity
  8
0
  6
Continuous
 62
     7
370
    25
100
AcDbLine
 10
-13.2662718252
 20
302.7568763653
 30
0.0
 11
-13.2662718252
 21
289.8993668548
 31
0.0
  0
LINE
  5
25E
330
1F0
100
AcDbEntity
  8
0
  6
Continuous
 62
     7
370
    25
100
AcDbLine
 10
-13.2662718252
 20
302.7568763653
 30
0.0
 11
24.0693592892
 21
339.1975969096
 31
0.0
  0
LINE
  5
25F
330
1F0
100
AcDbEntity
  8
0
  6
Continuous
 62
     7
370
    25
100
AcDbLine
 10
50.6019029396
 20
331.9866200691
 30
0.0
 11
24.0693592892
 21
339.1975969096
 31
0.0
  0
LINE
  5
260
330
1F0
100
AcDbEntity
  8
0
  6
Continuous
 62
     7
370
    25
100
AcDbLine
 10
19.4024053999
 20
-250.802759538
 30
0.0
 11
45.9349490503
 21
-258.0137363785
 31
0.0
  0
LINE
  5
261
330
1F0
100
AcDbEntity
  8
0
  6
Continuous
 62
     7
370
    25
100
AcDbLine
 10
19.4024053999
 20
288.6774444951
 30
0.0
 11
19.4024053999
 21
73.0546490451
 31
0.0
  0
LINE
  5
262
330
1F0
100
AcDbEntity
  8
0
  6
Continuous
 62
     7
370
    25
100
AcDbLine
 10
19.4024053999
 20
55.101604917
 30
0.0
 11
19.4024053999
 21
-250.802759538
 31
0.0
  0
LINE
  5
263
330
1F0
100
AcDbEntity
  8
0
  6
Continuous
 62
     7
370
    25
100
AcDbLine
 10
-13.2662718252
 20
-282.6883900143
 30
0.0
 11
13.2662718252
 21
-289.8993668548
 31
0.0
  0
LINE
  5
264
330
1F0
100
AcDbEntity
  8
0
  6
Continuous
 62
     7
370
    25
100
AcDbLine
 10
13.2662718252
 20
-302.7568763653
 30
0.0
 11
-13.2662718252
 21
-295.5458995248
 31
0.0
  0
LINE
  5
265
330
1F0
100
AcDbEntity
  8
0
  6
Continuous
 62
     7
370
    25
100
AcDbLine
 10
-13.2662718252
 20
-295.5458995248
 30
0.0
 11
-13.2662718252
 21
-282.6883900143
 31
0.0
  0
LINE
  5
266
330
1F0
100
AcDbEntity
  8
0
  6
Continuous
 62
     7
370
    25
100
AcDbLine
 10
-13.2662718252
 20
-282.6883900143
 30
0.0
 11
19.4024053999
 21
-250.802759538
 31
0.0
  0
VIEWPORT
  5
2E8
330
1F0
100
AcDbEntity
  8
0
100
AcDbViewport
 10
0.0
 20
0.0
 30
0.0
 40
205.6
 41
156.0
 68
     1
 69
     1
 12
-2.3
 22
0.0
 13
0.0
 23
0.0
 14
10.0
 24
10.0
 15
10.0
 25
10.0
 16
0.0
 26
0.0
 36
1.0
 17
0.0
 27
0.0
 37
0.0
 42
50.0
 43
0.0
 44
0.0
 45
711.96
 50
0.0
 51
0.0
 72
   100
 90
   557152
  1

281
     0
 71
     1
 74
     0
110
0.0
120
0.0
130
0.0
111
1.0
121
0.0
131
0.0
112
0.0
122
1.0
132
0.0
 79
     0
146
0.0
  0
ENDBLK
  5
1F3
330
1F0
100
AcDbEntity
  8
0
100
AcDbBlockEnd
  0
BLOCK
  5
269
330
267
100
AcDbEntity
  8
0
100
AcDbBlockBegin
  2
*Paper_Space6
 70
     0
 10
0.0
 20
0.0
 30
0.0
  3
*Paper_Space6
  1

  0
LWPOLYLINE
  5
27A
330
267
100
AcDbEntity
  8
0
  6
Continuous
 62
     7
370
    25
100
AcDbPolyline
 90
       26
 70
   128
 43
0.0
 10
-27.4148233557
 20
74.6503468466
 10
-29.1267944037
 20
74.2883121955
 10
-30.6103571387
 20
73.8276956669
 10
-31.8151137494
 20
73.2841447723
 10
-32.7001376913
 20
72.6761243699
 10
-33.2353639939
 20
72.0242893984
 10
-33.4026105922
 20
71.3507832126
 10
-33.1961959856
 20
70.6784853557
 10
-32.6231322432
 20
70.030234323
 10
-31.7028867982
 20
69.4280517199
 10
-30.4667211236
 20
68.8923941707
 10
-28.9566287548
 20
68.44145839
 10
-27.223908736
 20
68.0905630268
 10
-25.3274229507
 20
67.8516282768
 10
-23.3315965359
 20
67.7327709443
 10
-21.3042293095
 20
67.7380287079
 10
-19.3141925558
 20
67.8672229572
 10
-17.4290894133
 20
68.1159648602
 10
-15.7129583416
 20
68.4758044559
 10
-14.2240976844
 20
68.9345177057
 10
-13.0130852275
 20
69.476521754
 10
-12.1210600317
 20
70.0834042903
 10
-11.5783249054
 20
70.73454903
 10
-11.4033169945
 20
71.4078360661
 10
-11.6019814576
 20
72.0803933
 10
-12.1675695041
 20
72.7293734253
  0
LINE
  5
2AB
330
267
100
AcDbEntity
  8
0
  6
Continuous
 62
     7
370
    25
100
AcDbLine
 10
90.0636982866
 20
61.6311859588
 30
0.0
 11
42.3154864418
 21
67.6468951982
 31
0.0
  0
LINE
  5
2AC
330
267
100
AcDbEntity
  8
0
  6
Continuous
 62
     7
370
    25
100
AcDbLine
 10
80.3056247085
 20
53.025373971
 30
0.0
 11
90.0636982866
 21
61.6311859588
 31
0.0
  0
LINE
  5
2AD
330
267
100
AcDbEntity
  8
0
  6
Continuous
 62
     7
370
    25
100
AcDbLine
 10
62.0012678849
 20
65.1667198631
 30
0.0
 11
52.2431943067
 21
56.5609078753
 31
0.0
  0
LINE
  5
2AE
330
267
100
AcDbEntity
  8
0
  6
Continuous
 62
     7
370
    25
100
AcDbLine
 10
80.3056247085
 20
53.025373971
 30
0.0
 11
80.3056247085
 21
38.8832383468
 31
0.0
  0
LINE
  5
2AF
330
267
100
AcDbEntity
  8
0
  6
Continuous
 62
     7
370
    25
100
AcDbLine
 10
90.0636982866
 20
61.6311859588
 30
0.0
 11
90.0636982866
 21
47.4890503347
 31
0.0
  0
LINE
  5
2B0
330
267
100
AcDbEntity
  8
0
  6
Continuous
 62
     7
370
    25
100
AcDbLine
 10
80.3056247085
 20
38.8832383468
 30
0.0
 11
90.0636982866
 21
47.4890503347
 31
0.0
  0
LINE
  5
2B1
330
267
100
AcDbEntity
  8
0
  6
Continuous
 62
     7
370
    25
100
AcDbLine
 10
52.2431943067
 20
56.5609078753
 30
0.0
 11
52.2431943067
 21
42.4187722511
 31
0.0
  0
LINE
  5
2B2
330
267
100
AcDbEntity
  8
0
  6
Continuous
 62
     7
370
    25
100
AcDbLine
 10
-10.3998025516
 20
74.2883973361
 30
0.0
 11
10.717522135
 21
71.6278645053
 31
0.0
  0
LINE
  5
2B3
330
267
100
AcDbEntity
  8
0
  6
Continuous
 62
     7
370
    25
100
AcDbLine
 10
1.1993353478
 20
72.8270433224
 30
0.0
 11
-8.5587382303
 21
64.2212313346
 31
0.0
  0
LINE
  5
2B4
330
267
100
AcDbEntity
  8
0
  6
Continuous
 62
     7
370
    25
100
AcDbLine
 10
-41.2982403657
 20
68.3460208895
 30
0.0
 11
80.3056247085
 21
53.025373971
 31
0.0
  0
LINE
  5
2B5
330
267
100
AcDbEntity
  8
0
  6
Continuous
 62
     7
370
    25
100
AcDbLine
 10
-41.2982403657
 20
68.3460208895
 30
0.0
 11
-31.5401667875
 21
76.9518328774
 31
0.0
  0
LINE
  5
2B6
330
267
100
AcDbEntity
  8
0
  6
Continuous
 62
     7
370
    25
100
AcDbLine
 10
-31.5401667875
 20
76.9518328774
 30
0.0
 11
-25.6470564032
 21
76.2093707575
 31
0.0
  0
LINE
  5
2B7
330
267
100
AcDbEntity
  8
0
  6
Continuous
 62
     7
370
    25
100
AcDbLine
 10
-25.6470564032
 20
76.2093707575
 30
0.0
 11
-27.4148233557
 21
74.6503468466
 31
0.0
  0
LINE
  5
2B8
330
267
100
AcDbEntity
  8
0
  6
Continuous
 62
     7
370
    25
100
AcDbLine
 10
-12.1675695041
 20
72.7293734253
 30
0.0
 11
-10.3998025516
 21
74.2883973361
 31
0.0
  0
LINE
  5
2B9
330
267
100
AcDbEntity
  8
0
  6
Continuous
 62
     7
370
    25
100
AcDbLine
 10
-8.5587382303
 20
50.0790957104
 30
0.0
 11
-8.5587382303
 21
64.2212313346
 31
0.0
  0
LINE
  5
2BA
330
267
100
AcDbEntity
  8
0
  6
Continuous
 62
     7
370
    25
100
AcDbLine
 10
-41.2982403657
 20
54.2038852654
 30
0.0
 11
80.3056247085
 21
38.8832383468
 31
0.0
  0
LINE
  5
2BB
330
267
100
AcDbEntity
  8
0
  6
Continuous
 62
     7
370
    25
100
AcDbLine
 10
-41.2982403657
 20
54.2038852654
 30
0.0
 11
-41.2982403657
 21
68.3460208895
 31
0.0
  0
LINE
  5
2BC
330
267
100
AcDbEntity
  8
0
  6
Continuous
 62
     7
370
    25
100
AcDbLine
 10
-27.1296053482
 20
68.118895859
 30
0.0
 11
-27.4148233557
 21
74.6503468466
 31
0.0
  0
LINE
  5
2BD
330
267
100
AcDbEntity
  8
0
  6
Continuous
 62
     7
370
    25
100
AcDbLine
 10
-12.3296375991
 20
70.0157611566
 30
0.0
 11
-12.1675695041
 21
72.7293734253
 31
0.0
  0
LINE
  5
2BE
330
267
100
AcDbEntity
  8
0
  6
Continuous
 62
     7
370
    25
100
AcDbLine
 10
-25.6470564032
 20
76.2093707575
 30
0.0
 11
-25.214785659
 21
67.8414882953
 31
0.0
  0
LINE
  5
2BF
330
267
100
AcDbEntity
  8
0
  6
Continuous
 62
     7
370
    25
100
AcDbLine
 10
11.0916878737
 20
64.863558175
 30
0.0
 11
38.7799525367
 21
61.3751647228
 31
0.0
  0
LINE
  5
2C0
330
267
100
AcDbEntity
  8
0
  6
Continuous
 62
     7
370
    25
100
AcDbLine
 10
38.7799525367
 20
61.3751647228
 30
0.0
 11
42.3508417809
 21
64.5243930227
 31
0.0
  0
LINE
  5
2C1
330
267
100
AcDbEntity
  8
0
  6
Continuous
 62
     7
370
    25
100
AcDbLine
 10
42.3508417809
 20
64.5243930227
 30
0.0
 11
42.3154864418
 21
64.5288473767
 31
0.0
  0
LINE
  5
2C2
330
267
100
AcDbEntity
  8
0
  6
Continuous
 62
     7
370
    25
100
AcDbLine
 10
8.9004427204
 20
64.5338369666
 30
0.0
 11
39.7691161623
 21
60.6447496718
 31
0.0
  0
LINE
  5
2C3
330
267
100
AcDbEntity
  8
0
  6
Continuous
 62
     7
370
    25
100
AcDbLine
 10
10.717522135
 20
66.1363503811
 30
0.0
 11
8.9004427204
 21
64.5338369666
 31
0.0
  0
LINE
  5
2C4
330
267
100
AcDbEntity
  8
0
  6
Continuous
 62
     7
370
    25
100
AcDbLine
 10
44.5420869342
 20
64.8541142311
 30
0.0
 11
42.3154864418
 21
65.1346395249
 31
0.0
  0
LINE
  5
2C5
330
267
100
AcDbEntity
  8
0
  6
Continuous
 62
     7
370
    25
100
AcDbLine
 10
39.7691161623
 20
60.6447496718
 30
0.0
 11
44.5420869342
 21
64.8541142311
 31
0.0
  0
LINE
  5
2C6
330
267
100
AcDbEntity
  8
0
  6
Continuous
 62
     7
370
    25
100
AcDbLine
 10
14.0312152009
 20
-330.8081224741
 30
0.0
 11
42.3154864418
 21
-305.8637399007
 31
0.0
  0
LINE
  5
2C7
330
267
100
AcDbEntity
  8
0
  6
Continuous
 62
     7
370
    25
100
AcDbLine
 10
14.0312152009
 20
-316.6659868499
 30
0.0
 11
14.0312152009
 21
-330.8081224741
 31
0.0
  0
LINE
  5
2C8
330
267
100
AcDbEntity
  8
0
  6
Continuous
 62
     7
370
    25
100
AcDbLine
 10
14.0312152009
 20
-316.6659868499
 30
0.0
 11
38.7799525367
 21
-294.8396520982
 31
0.0
  0
LINE
  5
2C9
330
267
100
AcDbEntity
  8
0
  6
Continuous
 62
     7
370
    25
100
AcDbLine
 10
38.7799525367
 20
-294.8396520982
 30
0.0
 11
38.7799525367
 21
44.1149812771
 31
0.0
  0
LINE
  5
2CA
330
267
100
AcDbEntity
  8
0
  6
Continuous
 62
     7
370
    25
100
AcDbLine
 10
38.7799525367
 20
61.3751647228
 30
0.0
 11
38.7799525367
 21
334.9567876973
 31
0.0
  0
LINE
  5
2CB
330
267
100
AcDbEntity
  8
0
  6
Continuous
 62
     7
370
    25
100
AcDbLine
 10
14.0312152009
 20
313.1304529456
 30
0.0
 11
38.7799525367
 21
334.9567876973
 31
0.0
  0
LINE
  5
2CC
330
267
100
AcDbEntity
  8
0
  6
Continuous
 62
     7
370
    25
100
AcDbLine
 10
14.0312152009
 20
313.1304529456
 30
0.0
 11
14.0312152009
 21
327.2725885698
 31
0.0
  0
LINE
  5
2CD
330
267
100
AcDbEntity
  8
0
  6
Continuous
 62
     7
370
    25
100
AcDbLine
 10
14.0312152009
 20
327.2725885698
 30
0.0
 11
42.3154864418
 21
352.2169711432
 31
0.0
  0
LINE
  5
2CE
330
267
100
AcDbEntity
  8
0
  6
Continuous
 62
     7
370
    25
100
AcDbLine
 10
42.3154864418
 20
-305.8637399007
 30
0.0
 11
42.3154864418
 21
43.6695458743
 31
0.0
  0
LINE
  5
2CF
330
267
100
AcDbEntity
  8
0
  6
Continuous
 62
     7
370
    25
100
AcDbLine
 10
42.3154864418
 20
64.4932125444
 30
0.0
 11
42.3154864418
 21
352.2169711432
 31
0.0
  0
LINE
  5
2D0
330
267
100
AcDbEntity
  8
0
  6
Continuous
 62
     7
370
    25
100
AcDbLine
 10
14.0312152009
 20
327.2725885698
 30
0.0
 11
-14.0312152009
 21
330.8081224741
 31
0.0
  0
LINE
  5
2D1
330
267
100
AcDbEntity
  8
0
  6
Continuous
 62
     7
370
    25
100
AcDbLine
 10
-14.0312152009
 20
316.6659868499
 30
0.0
 11
14.0312152009
 21
313.1304529456
 31
0.0
  0
LINE
  5
2D2
330
267
100
AcDbEntity
  8
0
  6
Continuous
 62
     7
370
    25
100
AcDbLine
 10
-14.0312152009
 20
330.8081224741
 30
0.0
 11
-14.0312152009
 21
316.6659868499
 31
0.0
  0
LINE
  5
2D3
330
267
100
AcDbEntity
  8
0
  6
Continuous
 62
     7
370
    25
100
AcDbLine
 10
-14.0312152009
 20
330.8081224741
 30
0.0
 11
14.2530560401
 21
355.7525050474
 31
0.0
  0
LINE
  5
2D4
330
267
100
AcDbEntity
  8
0
  6
Continuous
 62
     7
370
    25
100
AcDbLine
 10
42.3154864418
 20
352.2169711432
 30
0.0
 11
14.2530560401
 21
355.7525050474
 31
0.0
  0
LINE
  5
2D5
330
267
100
AcDbEntity
  8
0
  6
Continuous
 62
     7
370
    25
100
AcDbLine
 10
10.717522135
 20
-291.3041181939
 30
0.0
 11
38.7799525367
 21
-294.8396520982
 31
0.0
  0
LINE
  5
2D6
330
267
100
AcDbEntity
  8
0
  6
Continuous
 62
     7
370
    25
100
AcDbLine
 10
10.717522135
 20
313.5479390299
 30
0.0
 11
10.717522135
 21
64.910698627
 31
0.0
  0
LINE
  5
2D7
330
267
100
AcDbEntity
  8
0
  6
Continuous
 62
     7
370
    25
100
AcDbLine
 10
10.717522135
 20
47.6505151814
 30
0.0
 11
10.717522135
 21
-291.3041181939
 31
0.0
  0
LINE
  5
2D8
330
267
100
AcDbEntity
  8
0
  6
Continuous
 62
     7
370
    25
100
AcDbLine
 10
-14.0312152009
 20
-313.1304529456
 30
0.0
 11
14.0312152009
 21
-316.6659868499
 31
0.0
  0
LINE
  5
2D9
330
267
100
AcDbEntity
  8
0
  6
Continuous
 62
     7
370
    25
100
AcDbLine
 10
14.0312152009
 20
-330.8081224741
 30
0.0
 11
-14.0312152009
 21
-327.2725885698
 31
0.0
  0
LINE
  5
2DA
330
267
100
AcDbEntity
  8
0
  6
Continuous
 62
     7
370
    25
100
AcDbLine
 10
-14.0312152009
 20
-327.2725885698
 30
0.0
 11
-14.0312152009
 21
-313.1304529456
 31
0.0
  0
LINE
  5
2DB
330
267
100
AcDbEntity
  8
0
  6
Continuous
 62
     7
370
    25
100
AcDbLine
 10
-14.0312152009
 20
-313.1304529456
 30
0.0
 11
10.717522135
 21
-291.3041181939
 31
0.0
  0
VIEWPORT
  5
2EA
330
267
100
AcDbEntity
  8
0
100
AcDbViewport
 10
0.0
 20
0.0
 30
0.0
 40
205.6
 41
156.0
 68
     1
 69
     1
 12
-2.3
 22
0.0
 13
0.0
 23
0.0
 14
10.0
 24
10.0
 15
10.0
 25
10.0
 16
0.0
 26
0.0
 36
1.0
 17
0.0
 27
0.0
 37
0.0
 42
50.0
 43
0.0
 44
0.0
 45
711.96
 50
0.0
 51
0.0
 72
   100
 90
   557152
  1

281
     0
 71
     1
 74
     0
110
0.0
120
0.0
130
0.0
111
1.0
121
0.0
131
0.0
112
0.0
122
1.0
132
0.0
 79
     0
146
0.0
  0
ENDBLK
  5
26A
330
267
100
AcDbEntity
  8
0
100
AcDbBlockEnd
  0
ENDSEC
  0
SECTION
  2
ENTITIES
  0
LINE
  5
8B
330
1F
100
AcDbEntity
  8
0
  6
Continuous
 62
     7
370
    25
100
AcDbLine
 10
32.7
 20
43.8228687886
 30
0.0
 11
32.7
 21
28.8228687886
 31
0.0
  0
LINE
  5
8C
330
1F
100
AcDbEntity
  8
0
  6
Continuous
 62
     7
370
    25
100
AcDbLine
 10
62.7
 20
43.8228687886
 30
0.0
 11
62.7
 21
28.8228687886
 31
0.0
  0
LINE
  5
8D
330
1F
100
AcDbEntity
  8
0
  6
Continuous
 62
     7
370
    25
100
AcDbLine
 10
-32.3
 20
43.8228687886
 30
0.0
 11
-32.3
 21
28.8228687886
 31
0.0
  0
LINE
  5
8E
330
1F
100
AcDbEntity
  8
0
  6
Continuous
 62
     7
370
    25
100
AcDbLine
 10
-67.3
 20
28.8228687886
 30
0.0
 11
62.7
 21
28.8228687886
 31
0.0
  0
LINE
  5
8F
330
1F
100
AcDbEntity
  8
0
  6
Continuous
 62
     7
370
    25
100
AcDbLine
 10
-67.3
 20
28.8228687886
 30
0.0
 11
-67.3
 21
43.8228687886
 31
0.0
  0
LINE
  5
90
330
1F
100
AcDbEntity
  8
0
  6
Continuous
 62
     7
370
    25
100
AcDbLine
 10
-67.3
 20
43.8228687886
 30
0.0
 11
62.7
 21
43.8228687886
 31
0.0
  0
LINE
  5
91
330
1F
100
AcDbEntity
  8
0
  6
Continuous
 62
     7
370
    25
100
AcDbLine
 10
-15.0
 20
334.0
 30
0.0
 11
15.0
 21
334.0
 31
0.0
  0
LINE
  5
92
330
1F
100
AcDbEntity
  8
0
  6
Continuous
 62
     7
370
    25
100
AcDbLine
 10
15.0
 20
43.8228687886
 30
0.0
 11
15.0
 21
349.0
 31
0.0
  0
LINE
  5
93
330
1F
100
AcDbEntity
  8
0
  6
Continuous
 62
     7
370
    25
100
AcDbLine
 10
-15.0
 20
349.0
 30
0.0
 11
-15.0
 21
43.8228687886
 31
0.0
  0
LINE
  5
94
330
1F
100
AcDbEntity
  8
0
  6
Continuous
 62
     7
370
    25
100
AcDbLine
 10
15.0
 20
349.0
 30
0.0
 11
-15.0
 21
349.0
 31
0.0
  0
LINE
  5
95
330
1F
100
AcDbEntity
  8
0
  6
Continuous
 62
     7
370
    25
100
AcDbLine
 10
-15.0
 20
-334.0
 30
0.0
 11
15.0
 21
-334.0
 31
0.0
  0
LINE
  5
96
330
1F
100
AcDbEntity
  8
0
  6
Continuous
 62
     7
370
    25
100
AcDbLine
 10
15.0
 20
-349.0
 30
0.0
 11
15.0
 21
28.8228687886
 31
0.0
  0
LINE
  5
97
330
1F
100
AcDbEntity
  8
0
  6
Continuous
 62
     7
370
    25
100
AcDbLine
 10
-15.0
 20
28.8228687886
 30
0.0
 11
-15.0
 21
-349.0
 31
0.0
  0
LINE
  5
98
330
1F
100
AcDbEntity
  8
0
  6
Continuous
 62
     7
370
    25
100
AcDbLine
 10
15.0
 20
-349.0
 30
0.0
 11
-15.0
 21
-349.0
 31
0.0
  0
LINE
  5
B1
330
1B
100
AcDbEntity
 67
     1
  8
0
  6
Continuous
 62
     7
370
    25
100
AcDbLine
 10
-62.7
 20
43.8228687886
 30
0.0
 11
-62.7
 21
28.8228687886
 31
0.0
  0
LINE
  5
B2
330
1B
100
AcDbEntity
 67
     1
  8
0
  6
Continuous
 62
     7
370
    25
100
AcDbLine
 10
-32.7
 20
43.8228687886
 30
0.0
 11
-32.7
 21
28.8228687886
 31
0.0
  0
LINE
  5
B3
330
1B
100
AcDbEntity
 67
     1
  8
0
  6
Continuous
 62
     7
370
    25
100
AcDbLine
 10
32.3
 20
43.8228687886
 30
0.0
 11
32.3
 21
28.8228687886
 31
0.0
  0
LINE
  5
B4
330
1B
100
AcDbEntity
 67
     1
  8
0
  6
Continuous
 62
     7
370
    25
100
AcDbLine
 10
45.4861166892
 20
28.8228687886
 30
0.0
 11
44.7
 21
43.8228687886
 31
0.0
  0
LINE
  5
B5
330
1B
100
AcDbEntity
 67
     1
  8
0
  6
Continuous
 62
     7
370
    25
100
AcDbLine
 10
61.0
 20
43.8228687886
 30
0.0
 11
60.2138833108
 21
28.8228687886
 31
0.0
  0
LINE
  5
B6
330
1B
100
AcDbEntity
 67
     1
  8
0
  6
Continuous
 62
     7
370
    25
100
AcDbLine
 10
67.3
 20
28.8228687886
 30
0.0
 11
67.3
 21
43.8228687886
 31
0.0
  0
LINE
  5
B7
330
1B
100
AcDbEntity
 67
     1
  8
0
  6
Continuous
 62
     7
370
    25
100
AcDbLine
 10
-62.7
 20
43.8228687886
 30
0.0
 11
67.3
 21
43.8228687886
 31
0.0
  0
LINE
  5
B8
330
1B
100
AcDbEntity
 67
     1
  8
0
  6
Continuous
 62
     7
370
    25
100
AcDbLine
 10
-62.7
 20
28.8228687886
 30
0.0
 11
67.3
 21
28.8228687886
 31
0.0
  0
LINE
  5
B9
330
1B
100
AcDbEntity
 67
     1
  8
0
  6
Continuous
 62
     7
370
    25
100
AcDbLine
 10
-15.0
 20
349.0
 30
0.0
 11
15.0
 21
349.0
 31
0.0
  0
LINE
  5
BA
330
1B
100
AcDbEntity
 67
     1
  8
0
  6
Continuous
 62
     7
370
    25
100
AcDbLine
 10
15.0
 20
349.0
 30
0.0
 11
15.0
 21
43.8228687886
 31
0.0
  0
LINE
  5
BB
330
1B
100
AcDbEntity
 67
     1
  8
0
  6
Continuous
 62
     7
370
    25
100
AcDbLine
 10
15.0
 20
28.8228687886
 30
0.0
 11
15.0
 21
-349.0
 31
0.0
  0
LINE
  5
BC
330
1B
100
AcDbEntity
 67
     1
  8
0
  6
Continuous
 62
     7
370
    25
100
AcDbLine
 10
15.0
 20
-349.0
 30
0.0
 11
-15.0
 21
-349.0
 31
0.0
  0
LINE
  5
BD
330
1B
100
AcDbEntity
 67
     1
  8
0
  6
Continuous
 62
     7
370
    25
100
AcDbLine
 10
-15.0
 20
-349.0
 30
0.0
 11
-15.0
 21
28.8228687886
 31
0.0
  0
LINE
  5
BE
330
1B
100
AcDbEntity
 67
     1
  8
0
  6
Continuous
 62
     7
370
    25
100
AcDbLine
 10
-15.0
 20
43.8228687886
 30
0.0
 11
-15.0
 21
349.0
 31
0.0
  0
VIEWPORT
  5
2DC
330
1B
100
AcDbEntity
 67
     1
  8
0
100
AcDbViewport
 10
0.0
 20
0.0
 30
0.0
 40
205.6
 41
156.0
 68
     1
 69
     1
 12
-2.3
 22
0.0
 13
0.0
 23
0.0
 14
10.0
 24
10.0
 15
10.0
 25
10.0
 16
0.0
 26
0.0
 36
1.0
 17
0.0
 27
0.0
 37
0.0
 42
50.0
 43
0.0
 44
0.0
 45
711.96
 50
0.0
 51
0.0
 72
   100
 90
   557152
  1

281
     0
 71
     1
 74
     0
110
0.0
120
0.0
130
0.0
111
1.0
121
0.0
131
0.0
112
0.0
122
1.0
132
0.0
 79
     0
146
0.0
  0
ENDSEC
  0
SECTION
  2
OBJECTS
  0
DICTIONARY
  5
C
330
0
100
AcDbDictionary
281
     1
  3
ACAD_GROUP
350
D
  3
ACAD_LAYOUT
350
1A
  3
ACAD_MLINESTYLE
350
17
  3
ACAD_PLOTSETTINGS
350
19
  3
ACAD_PLOTSTYLENAME
350
E
  3
ACAD_SCALELIST
350
47
  0
DICTIONARY
  5
D
102
{ACAD_REACTORS
330
C
102
}
330
C
100
AcDbDictionary
281
     1
  0
DICTIONARY
  5
1A
102
{ACAD_REACTORS
330
C
102
}
330
C
100
AcDbDictionary
281
     1
  3
_Back
350
1E
  3
_Bottom
350
142
  3
_Dimetric
350
268
  3
_Isometric
350
17E
  3
_Left
350
26
  3
_Right
350
DC
  3
_Top
350
FC
  3
_Trimetric
350
1F1
  3
Model
350
22
  0
DICTIONARY
  5
17
102
{ACAD_REACTORS
330
C
102
}
330
C
100
AcDbDictionary
281
     1
  3
Standard
350
18
  0
DICTIONARY
  5
19
102
{ACAD_REACTORS
330
C
102
}
330
C
100
AcDbDictionary
281
     1
  0
ACDBDICTIONARYWDFLT
  5
E
102
{ACAD_REACTORS
330
C
102
}
330
C
100
AcDbDictionary
281
     1
  3
Normal
350
F
100
AcDbDictionaryWithDefault
340
F
  0
DICTIONARY
  5
47
102
{ACAD_REACTORS
330
C
102
}
330
C
100
AcDbDictionary
281
     1
  3
A0
350
48
  3
A1
350
49
  3
A2
350
4A
  3
A3
350
4B
  3
A4
350
4C
  3
A5
350
4D
  3
A6
350
4E
  3
A7
350
4F
  3
A8
350
50
  3
A9
350
51
  3
B0
350
52
  3
B1
350
53
  3
B2
350
54
  3
B3
350
55
  3
B4
350
56
  3
B5
350
57
  3
B6
350
58
  3
B7
350
59
  3
B8
350
5A
  3
B9
350
5B
  3
C0
350
5C
  3
C1
350
5D
  3
C2
350
5E
  3
C3
350
5F
  3
C4
350
60
  3
C5
350
61
  3
C6
350
62
  3
C7
350
63
  3
C8
350
64
  3
C9
350
65
  3
D0
350
66
  3
D1
350
67
  3
D2
350
68
  0
LAYOUT
  5
1E
102
{ACAD_REACTORS
330
1A
102
}
330
1A
100
AcDbPlotSettings
  1

  2
none_device
  4
ISO_A4_(210.00_x_297.00_MM)
  6

 40
7.5
 41
20.0
 42
7.5
 43
20.0
 44
210.0
 45
297.0
 46
0.0
 47
0.0
 48
0.0
 49
0.0
140
0.0
141
0.0
142
1.0
143
3.5794871795
 70
   688
 72
     1
 73
     1
 74
     1
  7

 75
     0
147
0.2793696275
148
62.7
149
349.0
100
AcDbLayout
  1
_Back
 70
     1
 71
     1
 10
-134.2897435897
 20
-375.8461538462
 11
928.8179487179
 21
375.8461538462
 12
0.0
 22
0.0
 32
0.0
 14
-62.7
 24
-349.0
 34
0.0
 15
67.3
 25
349.0
 35
0.0
146
0.0
 13
0.0
 23
0.0
 33
0.0
 16
1.0
 26
0.0
 36
0.0
 17
0.0
 27
1.0
 37
0.0
 76
     0
330
1B
331
2DC
  0
LAYOUT
  5
142
102
{ACAD_REACTORS
330
1A
102
}
330
1A
100
AcDbPlotSettings
  1

  2
none_device
  4
ISO_A4_(210.00_x_297.00_MM)
  6

 40
7.5
 41
20.0
 42
7.5
 43
20.0
 44
210.0
 45
297.0
 46
0.0
 47
0.0
 48
0.0
 49
0.0
140
0.0
141
0.0
142
1.0
143
3.5794871795
 70
   688
 72
     1
 73
     1
 74
     1
  7

 75
     0
147
0.2793696275
148
62.7
149
349.0
100
AcDbLayout
  1
_Bottom
 70
     1
 71
     5
 10
0.0
 20
0.0
 11
0.0
 21
0.0
 12
0.0
 22
0.0
 32
0.0
 14
0.0
 24
0.0
 34
0.0
 15
0.0
 25
0.0
 35
0.0
146
0.0
 13
0.0
 23
0.0
 33
0.0
 16
1.0
 26
0.0
 36
0.0
 17
0.0
 27
1.0
 37
0.0
 76
     0
330
141
331
2E4
  0
LAYOUT
  5
268
102
{ACAD_REACTORS
330
1A
102
}
330
1A
100
AcDbPlotSettings
  1

  2
none_device
  4
ISO_A4_(210.00_x_297.00_MM)
  6

 40
7.5
 41
20.0
 42
7.5
 43
20.0
 44
210.0
 45
297.0
 46
0.0
 47
0.0
 48
0.0
 49
0.0
140
0.0
141
0.0
142
1.0
143
3.5794871795
 70
   688
 72
     1
 73
     1
 74
     1
  7

 75
     0
147
0.2793696275
148
62.7
149
349.0
100
AcDbLayout
  1
_Dimetric
 70
     1
 71
     8
 10
0.0
 20
0.0
 11
0.0
 21
0.0
 12
0.0
 22
0.0
 32
0.0
 14
0.0
 24
0.0
 34
0.0
 15
0.0
 25
0.0
 35
0.0
146
0.0
 13
0.0
 23
0.0
 33
0.0
 16
1.0
 26
0.0
 36
0.0
 17
0.0
 27
1.0
 37
0.0
 76
     0
330
267
331
2EA
  0
LAYOUT
  5
17E
102
{ACAD_REACTORS
330
1A
102
}
330
1A
100
AcDbPlotSettings
  1

  2
none_device
  4
ISO_A4_(210.00_x_297.00_MM)
  6

 40
7.5
 41
20.0
 42
7.5
 43
20.0
 44
210.0
 45
297.0
 46
0.0
 47
0.0
 48
0.0
 49
0.0
140
0.0
141
0.0
142
1.0
143
3.5794871795
 70
   688
 72
     1
 73
     1
 74
     1
  7

 75
     0
147
0.2793696275
148
62.7
149
349.0
100
AcDbLayout
  1
_Isometric
 70
     1
 71
     6
 10
0.0
 20
0.0
 11
0.0
 21
0.0
 12
0.0
 22
0.0
 32
0.0
 14
0.0
 24
0.0
 34
0.0
 15
0.0
 25
0.0
 35
0.0
146
0.0
 13
0.0
 23
0.0
 33
0.0
 16
1.0
 26
0.0
 36
0.0
 17
0.0
 27
1.0
 37
0.0
 76
     0
330
17D
331
2E6
  0
LAYOUT
  5
26
102
{ACAD_REACTORS
330
1A
102
}
330
1A
100
AcDbPlotSettings
  1

  2
none_device
  4
ISO_A4_(210.00_x_297.00_MM)
  6

 40
7.5
 41
20.0
 42
7.5
 43
20.0
 44
210.0
 45
297.0
 46
0.0
 47
0.0
 48
0.0
 49
0.0
140
0.0
141
0.0
142
1.0
143
3.5794871795
 70
   688
 72
     1
 73
     1
 74
     1
  7

 75
     0
147
0.2793696275
148
62.7
149
349.0
100
AcDbLayout
  1
_Left
 70
     1
 71
     2
 10
0.0
 20
0.0
 11
0.0
 21
0.0
 12
0.0
 22
0.0
 32
0.0
 14
0.0
 24
0.0
 34
0.0
 15
0.0
 25
0.0
 35
0.0
146
0.0
 13
0.0
 23
0.0
 33
0.0
 16
1.0
 26
0.0
 36
0.0
 17
0.0
 27
1.0
 37
0.0
 76
     0
330
23
331
2DE
  0
LAYOUT
  5
DC
102
{ACAD_REACTORS
330
1A
102
}
330
1A
100
AcDbPlotSettings
  1

  2
none_device
  4
ISO_A4_(210.00_x_297.00_MM)
  6

 40
7.5
 41
20.0
 42
7.5
 43
20.0
 44
210.0
 45
297.0
 46
0.0
 47
0.0
 48
0.0
 49
0.0
140
0.0
141
0.0
142
1.0
143
3.5794871795
 70
   688
 72
     1
 73
     1
 74
     1
  7

 75
     0
147
0.2793696275
148
62.7
149
349.0
100
AcDbLayout
  1
_Right
 70
     1
 71
     3
 10
0.0
 20
0.0
 11
0.0
 21
0.0
 12
0.0
 22
0.0
 32
0.0
 14
0.0
 24
0.0
 34
0.0
 15
0.0
 25
0.0
 35
0.0
146
0.0
 13
0.0
 23
0.0
 33
0.0
 16
1.0
 26
0.0
 36
0.0
 17
0.0
 27
1.0
 37
0.0
 76
     0
330
DB
331
2E0
  0
LAYOUT
  5
FC
102
{ACAD_REACTORS
330
1A
102
}
330
1A
100
AcDbPlotSettings
  1

  2
none_device
  4
ISO_A4_(210.00_x_297.00_MM)
  6

 40
7.5
 41
20.0
 42
7.5
 43
20.0
 44
210.0
 45
297.0
 46
0.0
 47
0.0
 48
0.0
 49
0.0
140
0.0
141
0.0
142
1.0
143
3.5794871795
 70
   688
 72
     1
 73
     1
 74
     1
  7

 75
     0
147
0.2793696275
148
62.7
149
349.0
100
AcDbLayout
  1
_Top
 70
     1
 71
     4
 10
0.0
 20
0.0
 11
0.0
 21
0.0
 12
0.0
 22
0.0
 32
0.0
 14
0.0
 24
0.0
 34
0.0
 15
0.0
 25
0.0
 35
0.0
146
0.0
 13
0.0
 23
0.0
 33
0.0
 16
1.0
 26
0.0
 36
0.0
 17
0.0
 27
1.0
 37
0.0
 76
     0
330
FB
331
2E2
  0
LAYOUT
  5
1F1
102
{ACAD_REACTORS
330
1A
102
}
330
1A
100
AcDbPlotSettings
  1

  2
none_device
  4
ISO_A4_(210.00_x_297.00_MM)
  6

 40
7.5
 41
20.0
 42
7.5
 43
20.0
 44
210.0
 45
297.0
 46
0.0
 47
0.0
 48
0.0
 49
0.0
140
0.0
141
0.0
142
1.0
143
3.5794871795
 70
   688
 72
     1
 73
     1
 74
     1
  7

 75
     0
147
0.2793696275
148
62.7
149
349.0
100
AcDbLayout
  1
_Trimetric
 70
     1
 71
     7
 10
0.0
 20
0.0
 11
0.0
 21
0.0
 12
0.0
 22
0.0
 32
0.0
 14
0.0
 24
0.0
 34
0.0
 15
0.0
 25
0.0
 35
0.0
146
0.0
 13
0.0
 23
0.0
 33
0.0
 16
1.0
 26
0.0
 36
0.0
 17
0.0
 27
1.0
 37
0.0
 76
     0
330
1F0
331
2E8
  0
LAYOUT
  5
22
102
{ACAD_REACTORS
330
1A
102
}
330
1A
100
AcDbPlotSettings
  1

  2
none_device
  4
ANSI_A_(11.00_x_8.50_Inches)
  6

 40
6.35
 41
19.05
 42
6.35000508
 43
19.05000254
 44
279.4
 45
215.9
 46
134.0543016147
 47
88.89999873
 48
0.0
 49
0.0
140
0.0
141
0.0
142
0.0120558739
143
1.0
 70
  1696
 72
     0
 73
     0
 74
     0
  7

 75
     0
147
0.0179189148
148
-1300.4909072572
149
0.0
100
AcDbLayout
  1
Model
 70
     1
 71
     0
 10
0.0
 20
0.0
 11
420.0
 21
297.0
 12
0.0
 22
0.0
 32
0.0
 14
-67.3
 24
-349.0
 34
0.0
 15
62.7
 25
349.0
 35
0.0
146
0.0
 13
0.0
 23
0.0
 33
0.0
 16
1.0
 26
0.0
 36
0.0
 17
0.0
 27
1.0
 37
0.0
 76
     0
330
1F
331
29
  0
MLINESTYLE
  5
18
102
{ACAD_REACTORS
330
17
102
}
330
17
100
AcDbMlineStyle
  2
Standard
 70
     0
  3

 62
   256
 51
90.0
 52
90.0
 71
     2
 49
0.5
 62
   256
  6
BYLAYER
 49
-0.5
 62
   256
  6
BYLAYER
  0
ACDBPLACEHOLDER
  5
F
102
{ACAD_REACTORS
330
E
102
}
330
E
  0
SCALE
  5
48
102
{ACAD_REACTORS
330
47
102
}
330
47
100
AcDbScale
 70
     0
300
1:1
140
1.0
141
1.0
290
     1
  0
SCALE
  5
49
102
{ACAD_REACTORS
330
47
102
}
330
47
100
AcDbScale
 70
     0
300
1:2
140
1.0
141
2.0
290
     0
  0
SCALE
  5
4A
102
{ACAD_REACTORS
330
47
102
}
330
47
100
AcDbScale
 70
     0
300
1:4
140
1.0
141
4.0
290
     0
  0
SCALE
  5
4B
102
{ACAD_REACTORS
330
47
102
}
330
47
100
AcDbScale
 70
     0
300
1:5
140
1.0
141
5.0
290
     0
  0
SCALE
  5
4C
102
{ACAD_REACTORS
330
47
102
}
330
47
100
AcDbScale
 70
     0
300
1:8
140
1.0
141
8.0
290
     0
  0
SCALE
  5
4D
102
{ACAD_REACTORS
330
47
102
}
330
47
100
AcDbScale
 70
     0
300
1:10
140
1.0
141
10.0
290
     0
  0
SCALE
  5
4E
102
{ACAD_REACTORS
330
47
102
}
330
47
100
AcDbScale
 70
     0
300
1:16
140
1.0
141
16.0
290
     0
  0
SCALE
  5
4F
102
{ACAD_REACTORS
330
47
102
}
330
47
100
AcDbScale
 70
     0
300
1:20
140
1.0
141
20.0
290
     0
  0
SCALE
  5
50
102
{ACAD_REACTORS
330
47
102
}
330
47
100
AcDbScale
 70
     0
300
1:30
140
1.0
141
30.0
290
     0
  0
SCALE
  5
51
102
{ACAD_REACTORS
330
47
102
}
330
47
100
AcDbScale
 70
     0
300
1:40
140
1.0
141
40.0
290
     0
  0
SCALE
  5
52
102
{ACAD_REACTORS
330
47
102
}
330
47
100
AcDbScale
 70
     0
300
1:50
140
1.0
141
50.0
290
     0
  0
SCALE
  5
53
102
{ACAD_REACTORS
330
47
102
}
330
47
100
AcDbScale
 70
     0
300
1:100
140
1.0
141
100.0
290
     0
  0
SCALE
  5
54
102
{ACAD_REACTORS
330
47
102
}
330
47
100
AcDbScale
 70
     0
300
2:1
140
2.0
141
1.0
290
     0
  0
SCALE
  5
55
102
{ACAD_REACTORS
330
47
102
}
330
47
100
AcDbScale
 70
     0
300
4:1
140
4.0
141
1.0
290
     0
  0
SCALE
  5
56
102
{ACAD_REACTORS
330
47
102
}
330
47
100
AcDbScale
 70
     0
300
8:1
140
8.0
141
1.0
290
     0
  0
SCALE
  5
57
102
{ACAD_REACTORS
330
47
102
}
330
47
100
AcDbScale
 70
     0
300
10:1
140
10.0
141
1.0
290
     0
  0
SCALE
  5
58
102
{ACAD_REACTORS
330
47
102
}
330
47
100
AcDbScale
 70
     0
300
100:1
140
100.0
141
1.0
290
     0
  0
SCALE
  5
59
102
{ACAD_REACTORS
330
47
102
}
330
47
100
AcDbScale
 70
     0
300
1/128" = 1'-0"
140
0.0078125
141
12.0
290
     0
  0
SCALE
  5
5A
102
{ACAD_REACTORS
330
47
102
}
330
47
100
AcDbScale
 70
     0
300
1/64" = 1'-0"
140
0.015625
141
12.0
290
     0
  0
SCALE
  5
5B
102
{ACAD_REACTORS
330
47
102
}
330
47
100
AcDbScale
 70
     0
300
1/32" = 1'-0"
140
0.03125
141
12.0
290
     0
  0
SCALE
  5
5C
102
{ACAD_REACTORS
330
47
102
}
330
47
100
AcDbScale
 70
     0
300
1/16" = 1'-0"
140
0.0625
141
12.0
290
     0
  0
SCALE
  5
5D
102
{ACAD_REACTORS
330
47
102
}
330
47
100
AcDbScale
 70
     0
300
3/32" = 1'-0"
140
0.09375
141
12.0
290
     0
  0
SCALE
  5
5E
102
{ACAD_REACTORS
330
47
102
}
330
47
100
AcDbScale
 70
     0
300
1/8" = 1'-0"
140
0.125
141
12.0
290
     0
  0
SCALE
  5
5F
102
{ACAD_REACTORS
330
47
102
}
330
47
100
AcDbScale
 70
     0
300
3/16" = 1'-0"
140
0.1875
141
12.0
290
     0
  0
SCALE
  5
60
102
{ACAD_REACTORS
330
47
102
}
330
47
100
AcDbScale
 70
     0
300
1/4" = 1'-0"
140
0.25
141
12.0
290
     0
  0
SCALE
  5
61
102
{ACAD_REACTORS
330
47
102
}
330
47
100
AcDbScale
 70
     0
300
3/8" = 1'-0"
140
0.375
141
12.0
290
     0
  0
SCALE
  5
62
102
{ACAD_REACTORS
330
47
102
}
330
47
100
AcDbScale
 70
     0
300
1/2" = 1'-0"
140
0.5
141
12.0
290
     0
  0
SCALE
  5
63
102
{ACAD_REACTORS
330
47
102
}
330
47
100
AcDbScale
 70
     0
300
3/4" = 1'-0"
140
0.75
141
12.0
290
     0
  0
SCALE
  5
64
102
{ACAD_REACTORS
330
47
102
}
330
47
100
AcDbScale
 70
     0
300
1" = 1'-0"
140
1.0
141
12.0
290
     0
  0
SCALE
  5
65
102
{ACAD_REACTORS
330
47
102
}
330
47
100
AcDbScale
 70
     0
300
1-1/2" = 1'-0"
140
1.5
141
12.0
290
     0
  0
SCALE
  5
66
102
{ACAD_REACTORS
330
47
102
}
330
47
100
AcDbScale
 70
     0
300
3" = 1'-0"
140
3.0
141
12.0
290
     0
  0
SCALE
  5
67
102
{ACAD_REACTORS
330
47
102
}
330
47
100
AcDbScale
 70
     0
300
6" = 1'-0"
140
6.0
141
12.0
290
     0
  0
SCALE
  5
68
102
{ACAD_REACTORS
330
47
102
}
330
47
100
AcDbScale
 70
     0
300
1'-0" = 1'-0"
140
12.0
141
12.0
290
     0
  0
ENDSEC
  0
EOF
