  0
SECTION
  2
HEADER
  9
$ACADVER
  1
AC1015
  9
$ACADMAINTVER
 70
     6
  9
$DWGCODEPAGE
  3
ANSI_1252
  9
$INSBASE
 10
0.0
 20
0.0
 30
0.0
  9
$EXTMIN
 10
-25.0
 20
0.0
 30
0.0
  9
$EXTMAX
 10
154.5
 20
288.15
 30
0.0
  9
$LIMMIN
 10
0.0
 20
0.0
  9
$LIMMAX
 10
420.0
 20
297.0
  9
$ORTHOMODE
 70
     0
  9
$REGENMODE
 70
     1
  9
$FILLMODE
 70
     1
  9
$QTEXTMODE
 70
     0
  9
$MIRRTEXT
 70
     1
  9
$LTSCALE
 40
1.0
  9
$ATTMODE
 70
     1
  9
$TEXTSIZE
 40
3.5
  9
$TRACEWID
 40
1.0
  9
$TEXTSTYLE
  7
Standard
  9
$CLAYER
  8
0
  9
$CELTYPE
  6
ByLayer
  9
$CECOLOR
 62
   256
  9
$CELTSCALE
 40
1.0
  9
$DISPSILH
 70
     0
  9
$DIMSCALE
 40
1.0
  9
$DIMASZ
 40
3.302
  9
$DIMEXO
 40
1.0
  9
$DIMDLI
 40
3.75
  9
$DIMRND
 40
0.0
  9
$DIMDLE
 40
0.0
  9
$DIMEXE
 40
1.0
  9
$DIMTP
 40
0.0
  9
$DIMTM
 40
0.0
  9
$DIMTXT
 40
3.5
  9
$DIMCEN
 40
2.5
  9
$DIMTSZ
 40
0.0
  9
$DIMTOL
 70
     0
  9
$DIMLIM
 70
     0
  9
$DIMTIH
 70
     1
  9
$DIMTOH
 70
     1
  9
$DIMSE1
 70
     0
  9
$DIMSE2
 70
     0
  9
$DIMTAD
 70
     1
  9
$DIMZIN
 70
     1
  9
$DIMBLK
  1

  9
$DIMASO
 70
     1
  9
$DIMSHO
 70
     1
  9
$DIMPOST
  1

  9
$DIMAPOST
  1

  9
$DIMALT
 70
     0
  9
$DIMALTD
 70
     3
  9
$DIMALTF
 40
0.0393700787
  9
$DIMLFAC
 40
1.0
  9
$DIMTOFL
 70
     1
  9
$DIMTVP
 40
0.0
  9
$DIMTIX
 70
     0
  9
$DIMSOXD
 70
     0
  9
$DIMSAH
 70
     0
  9
$DIMBLK1
  1

  9
$DIMBLK2
  1

  9
$DIMSTYLE
  2
ISO-25
  9
$DIMCLRD
 70
     0
  9
$DIMCLRE
 70
     0
  9
$DIMCLRT
 70
     0
  9
$DIMTFAC
 40
1.0
  9
$DIMGAP
 40
1.524
  9
$DIMJUST
 70
     0
  9
$DIMSD1
 70
     0
  9
$DIMSD2
 70
     0
  9
$DIMTOLJ
 70
     0
  9
$DIMTZIN
 70
     1
  9
$DIMALTZ
 70
     0
  9
$DIMALTTZ
 70
     0
  9
$DIMUPT
 70
     0
  9
$DIMDEC
 70
     2
  9
$DIMTDEC
 70
     2
  9
$DIMALTU
 70
     2
  9
$DIMALTTD
 70
     3
  9
$DIMTXSTY
  7
Standard
  9
$DIMAUNIT
 70
     0
  9
$DIMADEC
 70
     2
  9
$DIMALTRND
 40
0.0
  9
$DIMAZIN
 70
     0
  9
$DIMDSEP
 70
    44
  9
$DIMATFIT
 70
     3
  9
$DIMFRAC
 70
     0
  9
$DIMLDRBLK
  1

  9
$DIMLUNIT
 70
     2
  9
$DIMLWD
 70
    -2
  9
$DIMLWE
 70
    -2
  9
$DIMTMOVE
 70
     0
  9
$LUNITS
 70
     2
  9
$LUPREC
 70
     2
  9
$SKETCHINC
 40
1.0
  9
$FILLETRAD
 40
10.0
  9
$AUNITS
 70
     0
  9
$AUPREC
 70
     2
  9
$MENU
  1
.
  9
$ELEVATION
 40
0.0
  9
$PELEVATION
 40
0.0
  9
$THICKNESS
 40
0.0
  9
$LIMCHECK
 70
     0
  9
$CHAMFERA
 40
0.0
  9
$CHAMFERB
 40
0.0
  9
$CHAMFERC
 40
0.0
  9
$CHAMFERD
 40
0.0
  9
$SKPOLY
 70
     0
  9
$TDCREATE
 40
2459229.341195243
  9
$TDUCREATE
 40
2459229.341195243
  9
$TDUPDATE
 40
2459229.341318137
  9
$TDUUPDATE
 40
2459229.341318137
  9
$TDINDWG
 40
0.0000000116
  9
$TDUSRTIMER
 40
0.0000000116
  9
$USRTIMER
 70
     1
  9
$ANGBASE
 50
0.0
  9
$ANGDIR
 70
     0
  9
$PDMODE
 70
     0
  9
$PDSIZE
 40
-1.0
  9
$PLINEWID
 40
0.0
  9
$SPLFRAME
 70
     0
  9
$SPLINETYPE
 70
     6
  9
$SPLINESEGS
 70
     8
  9
$HANDSEED
  5
A42
  9
$SURFTAB1
 70
     6
  9
$SURFTAB2
 70
     6
  9
$SURFTYPE
 70
     6
  9
$SURFU
 70
     6
  9
$SURFV
 70
     6
  9
$UCSBASE
  2

  9
$UCSNAME
  2

  9
$UCSORG
 10
0.0
 20
0.0
 30
0.0
  9
$UCSXDIR
 10
1.0
 20
0.0
 30
0.0
  9
$UCSYDIR
 10
0.0
 20
1.0
 30
0.0
  9
$UCSORTHOREF
  2

  9
$UCSORTHOVIEW
 70
     0
  9
$UCSORGTOP
 10
0.0
 20
0.0
 30
0.0
  9
$UCSORGBOTTOM
 10
0.0
 20
0.0
 30
0.0
  9
$UCSORGLEFT
 10
0.0
 20
0.0
 30
0.0
  9
$UCSORGRIGHT
 10
0.0
 20
0.0
 30
0.0
  9
$UCSORGFRONT
 10
0.0
 20
0.0
 30
0.0
  9
$UCSORGBACK
 10
0.0
 20
0.0
 30
0.0
  9
$PUCSBASE
  2

  9
$PUCSNAME
  2

  9
$PUCSORG
 10
0.0
 20
0.0
 30
0.0
  9
$PUCSXDIR
 10
1.0
 20
0.0
 30
0.0
  9
$PUCSYDIR
 10
0.0
 20
1.0
 30
0.0
  9
$PUCSORTHOREF
  2

  9
$PUCSORTHOVIEW
 70
     0
  9
$PUCSORGTOP
 10
0.0
 20
0.0
 30
0.0
  9
$PUCSORGBOTTOM
 10
0.0
 20
0.0
 30
0.0
  9
$PUCSORGLEFT
 10
0.0
 20
0.0
 30
0.0
  9
$PUCSORGRIGHT
 10
0.0
 20
0.0
 30
0.0
  9
$PUCSORGFRONT
 10
0.0
 20
0.0
 30
0.0
  9
$PUCSORGBACK
 10
0.0
 20
0.0
 30
0.0
  9
$USERI1
 70
     0
  9
$USERI2
 70
     0
  9
$USERI3
 70
     0
  9
$USERI4
 70
     0
  9
$USERI5
 70
     0
  9
$USERR1
 40
0.0
  9
$USERR2
 40
0.0
  9
$USERR3
 40
0.0
  9
$USERR4
 40
0.0
  9
$USERR5
 40
0.0
  9
$WORLDVIEW
 70
     1
  9
$SHADEDGE
 70
     3
  9
$SHADEDIF
 70
    70
  9
$TILEMODE
 70
     0
  9
$MAXACTVP
 70
    64
  9
$PINSBASE
 10
0.0
 20
0.0
 30
0.0
  9
$PLIMCHECK
 70
     0
  9
$PEXTMIN
 10
-25.0
 20
0.0
 30
0.0
  9
$PEXTMAX
 10
154.5
 20
288.15
 30
0.0
  9
$PLIMMIN
 10
0.0
 20
0.0
  9
$PLIMMAX
 10
0.0
 20
0.0
  9
$UNITMODE
 70
     0
  9
$VISRETAIN
 70
     1
  9
$PLINEGEN
 70
     0
  9
$PSLTSCALE
 70
     1
  9
$TREEDEPTH
 70
  3020
  9
$CMLSTYLE
  2
Standard
  9
$CMLJUST
 70
     0
  9
$CMLSCALE
 40
20.0
  9
$PROXYGRAPHICS
 70
     1
  9
$MEASUREMENT
 70
     1
  9
$CELWEIGHT
370
    -1
  9
$ENDCAPS
280
     0
  9
$JOINSTYLE
280
     0
  9
$LWDISPLAY
290
     1
  9
$INSUNITS
 70
     4
  9
$HYPERLINKBASE
  1

  9
$STYLESHEET
  1

  9
$XEDIT
290
     1
  9
$CEPSNTYPE
380
     0
  9
$PSTYLEMODE
290
     1
  9
$FINGERPRINTGUID
  2
{2d9aab4d-3b21-448a-8681-3a8bcd0c8e34}
  9
$VERSIONGUID
  2
{FAEB1C32-E019-11D5-929B-00C0DF256EC4}
  9
$EXTNAMES
290
     1
  9
$PSVPSCALE
 40
0.0
  9
$OLESTARTUP
290
     0
  0
ENDSEC
  0
SECTION
  2
CLASSES
  0
CLASS
  1
ACDBDICTIONARYWDFLT
  2
AcDbDictionaryWithDefault
  3
ObjectDBX Classes
 90
        0
280
     0
281
     0
  0
CLASS
  1
VISUALSTYLE
  2
AcDbVisualStyle
  3
ObjectDBX Classes
 90
     4095
280
     0
281
     0
  0
CLASS
  1
MATERIAL
  2
AcDbMaterial
  3
ObjectDBX Classes
 90
     1153
280
     0
281
     0
  0
CLASS
  1
SCALE
  2
AcDbScale
  3
ObjectDBX Classes
 90
     1153
280
     0
281
     0
  0
CLASS
  1
TABLESTYLE
  2
AcDbTableStyle
  3
ObjectDBX Classes
 90
     4095
280
     0
281
     0
  0
CLASS
  1
MLEADERSTYLE
  2
AcDbMLeaderStyle
  3
ACDB_MLEADERSTYLE_CLASS
 90
     4095
280
     0
281
     0
  0
CLASS
  1
SUN
  2
AcDbSun
  3
SCENEOE
 90
     1153
280
     0
281
     0
  0
CLASS
  1
ACDBPLACEHOLDER
  2
AcDbPlaceHolder
  3
ObjectDBX Classes
 90
        0
280
     0
281
     0
  0
CLASS
  1
LAYOUT
  2
AcDbLayout
  3
ObjectDBX Classes
 90
        0
280
     0
281
     0
  0
ENDSEC
  0
SECTION
  2
TABLES
  0
TABLE
  2
VPORT
  5
8
330
0
100
AcDbSymbolTable
 70
     1
  0
VPORT
  5
29
330
8
100
AcDbSymbolTableRecord
100
AcDbViewportTableRecord
  2
*Active
 70
     0
 10
0.0
 20
0.0
 11
1.0
 21
1.0
 12
64.75
 22
144.075
 13
0.0
 23
0.0
 14
10.0
 24
10.0
 15
10.0
 25
10.0
 16
0.0
 26
0.0
 36
1.0
 17
0.0
 27
0.0
 37
0.0
 40
293.913
 41
0.6229394413
 42
50.0
 43
0.0
 44
0.0
 50
0.0
 51
0.0
 71
     0
 72
   100
 73
     1
 74
     3
 75
     0
 76
     0
 77
     0
 78
     0
281
     0
 65
     1
110
0.0
120
0.0
130
0.0
111
1.0
121
0.0
131
0.0
112
0.0
122
1.0
132
0.0
 79
     0
146
0.0
  0
ENDTAB
  0
TABLE
  2
LTYPE
  5
5
330
0
100
AcDbSymbolTable
 70
     6
  0
LTYPE
  5
14
330
5
100
AcDbSymbolTableRecord
100
AcDbLinetypeTableRecord
  2
ByBlock
 70
     0
  3

 72
    65
 73
     0
 40
0.0
  0
LTYPE
  5
15
330
5
100
AcDbSymbolTableRecord
100
AcDbLinetypeTableRecord
  2
ByLayer
 70
     0
  3

 72
    65
 73
     0
 40
0.0
  0
LTYPE
  5
16
330
5
100
AcDbSymbolTableRecord
100
AcDbLinetypeTableRecord
  2
Continuous
 70
     0
  3
Solid line
 72
    65
 73
     0
 40
0.0
  0
LTYPE
  5
6E
330
5
100
AcDbSymbolTableRecord
100
AcDbLinetypeTableRecord
  2
HIDDEN
 70
     0
  3
Hidden __ __ __ __ __ __ __ __ __ __ __ __ __ __
 72
    65
 73
     2
 40
1.905
 49
1.27
 74
     0
 49
-0.635
 74
     0
  0
LTYPE
  5
6F
330
5
100
AcDbSymbolTableRecord
100
AcDbLinetypeTableRecord
  2
PHANTOM
 70
     0
  3
Phantom ______  __  __  ______  __  __  ______
 72
    65
 73
     6
 40
12.7
 49
6.35
 74
     0
 49
-1.27
 74
     0
 49
1.27
 74
     0
 49
-1.27
 74
     0
 49
1.27
 74
     0
 49
-1.27
 74
     0
  0
LTYPE
  5
70
330
5
100
AcDbSymbolTableRecord
100
AcDbLinetypeTableRecord
  2
CENTER
 70
     0
  3
Center ____ _ ____ _ ____ _ ____ _ ____ _ ____
 72
    65
 73
     4
 40
10.16
 49
6.35
 74
     0
 49
-1.27
 74
     0
 49
1.27
 74
     0
 49
-1.27
 74
     0
  0
LTYPE
  5
71
330
5
100
AcDbSymbolTableRecord
100
AcDbLinetypeTableRecord
  2
CENTERX2
 70
     0
  3
Center (2x) ________  __  ________  __  _____
 72
    65
 73
     4
 40
20.32
 49
12.7
 74
     0
 49
-2.54
 74
     0
 49
2.54
 74
     0
 49
-2.54
 74
     0
  0
LTYPE
  5
72
330
5
100
AcDbSymbolTableRecord
100
AcDbLinetypeTableRecord
  2
DOT2
 70
     0
  3
Dot (.5x) ........................................
 72
    65
 73
     2
 40
0.635
 49
0.0
 74
     0
 49
-0.635
 74
     0
  0
ENDTAB
  0
TABLE
  2
LAYER
  5
2
330
0
100
AcDbSymbolTable
 70
     1
  0
LAYER
  5
10
330
2
100
AcDbSymbolTableRecord
100
AcDbLayerTableRecord
  2
0
 70
     0
 62
     7
  6
Continuous
370
    -3
390
F
  0
ENDTAB
  0
TABLE
  2
STYLE
  5
3
330
0
100
AcDbSymbolTable
 70
     1
  0
STYLE
  5
11
330
3
100
AcDbSymbolTableRecord
100
AcDbTextStyleTableRecord
  2
Standard
 70
     0
 40
0.0
 41
1.0
 50
0.0
 71
     0
 42
3.5
  3
txt
  4

  0
ENDTAB
  0
TABLE
  2
VIEW
  5
6
330
0
100
AcDbSymbolTable
 70
     0
  0
ENDTAB
  0
TABLE
  2
UCS
  5
7
330
0
100
AcDbSymbolTable
 70
     0
  0
ENDTAB
  0
TABLE
  2
APPID
  5
9
330
0
100
AcDbSymbolTable
 70
     1
  0
APPID
  5
12
330
9
100
AcDbSymbolTableRecord
100
AcDbRegAppTableRecord
  2
ACAD
 70
     0
  0
ENDTAB
  0
TABLE
  2
DIMSTYLE
  5
A
330
0
100
AcDbSymbolTable
 70
     1
100
AcDbDimStyleTable
  0
DIMSTYLE
105
27
330
A
100
AcDbSymbolTableRecord
100
AcDbDimStyleTableRecord
  2
ISO-25
 70
     0
 41
2.5
 42
0.625
 43
3.75
 44
1.25
 73
     0
 74
     0
 77
     1
 78
     8
140
2.5
141
2.5
143
0.0393700787
147
0.625
171
     3
172
     1
178
     0
271
     2
272
     2
274
     3
278
    44
283
     0
284
     8
340
11
  0
ENDTAB
  0
TABLE
  2
BLOCK_RECORD
  5
1
330
0
100
AcDbSymbolTable
 70
     1
  0
BLOCK_RECORD
  5
1F
330
1
100
AcDbSymbolTableRecord
100
AcDbBlockTableRecord
  2
*Model_Space
340
22
  0
BLOCK_RECORD
  5
23
330
1
100
AcDbSymbolTableRecord
100
AcDbBlockTableRecord
  2
*Paper_Space
340
26
  0
BLOCK_RECORD
  5
1B
330
1
100
AcDbSymbolTableRecord
100
AcDbBlockTableRecord
  2
*Paper_Space0
340
1E
  0
ENDTAB
  0
ENDSEC
  0
SECTION
  2
BLOCKS
  0
BLOCK
  5
20
330
1F
100
AcDbEntity
  8
0
100
AcDbBlockBegin
  2
*Model_Space
 70
     0
 10
0.0
 20
0.0
 30
0.0
  3
*Model_Space
  1

  0
ENDBLK
  5
21
330
1F
100
AcDbEntity
  8
0
100
AcDbBlockEnd
  0
BLOCK
  5
24
330
23
100
AcDbEntity
 67
     1
  8
0
100
AcDbBlockBegin
  2
*Paper_Space
 70
     0
 10
0.0
 20
0.0
 30
0.0
  3
*Paper_Space
  1

  0
ENDBLK
  5
25
330
23
100
AcDbEntity
 67
     1
  8
0
100
AcDbBlockEnd
  0
BLOCK
  5
1C
330
1B
100
AcDbEntity
  8
0
100
AcDbBlockBegin
  2
*Paper_Space0
 70
     0
 10
0.0
 20
0.0
 30
0.0
  3
*Paper_Space0
  1

  0
SPLINE
  5
10F
330
1B
100
AcDbEntity
  8
0
  6
Continuous
 62
     7
370
    25
100
AcDbSpline
210
0.0
220
0.0
230
1.0
 70
     8
 71
     3
 72
    10
 73
     6
 74
     0
 42
0.000000001
 43
0.00000001
 40
0.0
 40
0.0
 40
0.0
 40
0.0
 40
0.2387679553541686
 40
0.5916900006114241
 40
1.0
 40
1.0
 40
1.0
 40
1.0
 10
-15.22957348127265
 20
225.1395440873579
 30
0.0
 10
-15.22501661895183
 20
225.0671230445113
 30
0.0
 10
-15.2137242750299
 20
224.8876567219782
 30
0.0
 10
-15.02002933746104
 20
224.6957530390773
 30
0.0
 10
-14.83682894986963
 20
224.5944299844298
 30
0.0
 10
-14.73856384047025
 20
224.5400822770886
 30
0.0
  0
SPLINE
  5
110
330
1B
100
AcDbEntity
  8
0
  6
Continuous
 62
     7
370
    25
100
AcDbSpline
210
0.0
220
0.0
230
1.0
 70
     8
 71
     3
 72
    10
 73
     6
 74
     0
 42
0.000000001
 43
0.00000001
 40
0.0
 40
0.0
 40
0.0
 40
0.0
 40
0.4234593507031136
 40
0.868306078844312
 40
1.0
 40
1.0
 40
1.0
 40
1.0
 10
2.899523761001308
 20
224.6427327586559
 30
0.0
 10
2.972835545815726
 20
224.6897106833174
 30
0.0
 10
3.123161824594527
 20
224.7860392151763
 30
0.0
 10
3.263778265204007
 20
224.9943577243973
 30
0.0
 10
3.235933749898516
 20
225.1277891081799
 30
0.0
 10
3.22957348127265
 20
225.1582676219793
 30
0.0
  0
LWPOLYLINE
  5
117
330
1B
100
AcDbEntity
  8
0
  6
Continuous
 62
     7
370
    25
100
AcDbPolyline
 90
        3
 70
   128
 43
0.0
 10
-22.8093083748
 20
253.15
 10
-22.8531700045
 20
252.2964203941
 10
-22.85
 20
251.0
  0
LWPOLYLINE
  5
118
330
1B
100
AcDbEntity
  8
0
  6
Continuous
 62
     7
370
    25
100
AcDbPolyline
 90
        3
 70
   128
 43
0.0
 10
10.85
 20
251.0
 10
10.8531700045
 20
252.2964203941
 10
10.8093083748
 20
253.15
  0
LWPOLYLINE
  5
11D
330
1B
100
AcDbEntity
  8
0
  6
Continuous
 62
     7
370
    25
100
AcDbPolyline
 90
       11
 70
   128
 43
0.0
 10
-6.0
 20
226.0974246876
 10
-7.473121583
 20
226.0804363373
 10
-8.9060602494
 20
226.0299346843
 10
-10.2597291677
 20
225.9472972821
 10
-11.4972037786
 20
225.8347782635
 10
-12.5847290005
 20
225.6954468541
 10
-13.4926399804
 20
225.5331036516
 10
-14.1961712736
 20
225.3521769552
 10
-14.6761323802
 20
225.1576019736
 10
-14.9194312124
 20
224.9546862051
 10
-14.9240708867
 20
224.9465714321
  0
LWPOLYLINE
  5
11F
330
1B
100
AcDbEntity
  8
0
  6
Continuous
 62
     7
370
    25
100
AcDbPolyline
 90
       10
 70
   128
 43
0.0
 10
-6.0
 20
223.6062261805
 10
-4.526878417
 20
223.6232145308
 10
-3.0939397506
 20
223.6737161837
 10
-1.7402708323
 20
223.756353586
 10
-0.5027962214
 20
223.8688726046
 10
0.5847290005
 20
224.008204014
 10
1.4926399804
 20
224.1705472165
 10
2.1961712736
 20
224.3514739129
 10
2.6761323802
 20
224.5460488945
 10
2.7448451772
 20
224.5866583866
  0
LWPOLYLINE
  5
120
330
1B
100
AcDbEntity
  8
0
  6
Continuous
 62
     7
370
    25
100
AcDbPolyline
 90
       10
 70
   128
 43
0.0
 10
2.8986275649
 20
224.9850924869
 10
2.6761323802
 20
225.1576019736
 10
2.1961712736
 20
225.3521769552
 10
1.4926399804
 20
225.5331036516
 10
0.5847290005
 20
225.6954468541
 10
-0.5027962214
 20
225.8347782635
 10
-1.7402708323
 20
225.9472972821
 10
-3.0939397506
 20
226.0299346843
 10
-4.526878417
 20
226.0804363373
 10
-6.0
 20
226.0974246876
  0
LWPOLYLINE
  5
121
330
1B
100
AcDbEntity
  8
0
  6
Continuous
 62
     7
370
    25
100
AcDbPolyline
 90
       12
 70
   128
 43
0.0
 10
2.278395448
 20
224.5834641535
 10
2.3708659006
 20
224.6464046135
 10
2.5
 20
224.851825434
 10
2.3708659006
 20
225.0572462546
 10
1.9873872767
 20
225.2564254675
 10
1.3612159322
 20
225.4433111131
 10
0.5113777665
 20
225.6122247657
 10
-0.5363053177
 20
225.7580340693
 10
-1.75
 20
225.8763086822
 10
-3.0928287817
 20
225.9634548899
 10
-4.5239904898
 20
226.0168247992
 10
-6.0
 20
226.0347967922
  0
LWPOLYLINE
  5
122
330
1B
100
AcDbEntity
  8
0
  6
Continuous
 62
     7
370
    25
100
AcDbPolyline
 90
       10
 70
   128
 43
0.0
 10
-6.0
 20
226.0347967922
 10
-7.4760095102
 20
226.0168247992
 10
-8.9071712183
 20
225.9634548899
 10
-10.25
 20
225.8763086822
 10
-11.4636946823
 20
225.7580340693
 10
-12.5113777665
 20
225.6122247657
 10
-13.3612159322
 20
225.4433111131
 10
-13.9873872767
 20
225.2564254675
 10
-14.3708659006
 20
225.0572462546
 10
-14.5
 20
224.851825434
  0
LWPOLYLINE
  5
124
330
1B
100
AcDbEntity
  8
0
  6
Continuous
 62
     7
370
    25
100
AcDbPolyline
 90
        3
 70
   128
 43
0.0
 10
-14.4832313869
 20
224.9260955392
 10
-14.3708659006
 20
224.7949448238
 10
-14.236751201
 20
224.7082370404
  0
LWPOLYLINE
  5
125
330
1B
100
AcDbEntity
  8
0
  6
Continuous
 62
     7
370
    25
100
AcDbPolyline
 90
        3
 70
   128
 43
0.0
 10
2.236751201
 20
224.7082370404
 10
2.3708659006
 20
224.7949448238
 10
2.4832313869
 20
224.9260955392
  0
LWPOLYLINE
  5
128
330
1B
100
AcDbEntity
  8
0
  6
Continuous
 62
     7
370
    25
100
AcDbPolyline
 90
        3
 70
   128
 43
0.0
 10
2.358714384
 20
225.0666166444
 10
2.4
 20
224.9508522409
 10
2.3166290165
 20
224.7865524092
  0
LWPOLYLINE
  5
129
330
1B
100
AcDbEntity
  8
0
  6
Continuous
 62
     7
370
    25
100
AcDbPolyline
 90
        3
 70
   128
 43
0.0
 10
-14.3166290165
 20
224.7865524092
 10
-14.4
 20
224.9508522409
 10
-14.358714384
 20
225.0666166444
  0
LWPOLYLINE
  5
12A
330
1B
100
AcDbEntity
  8
0
  6
Continuous
 62
     7
370
    25
100
AcDbPolyline
 90
       19
 70
   128
 43
0.0
 10
-6.0
 20
223.6966886961
 10
-7.4412798746
 20
223.7142378187
 10
-8.8387671896
 20
223.7663519654
 10
-10.15
 20
223.8514476741
 10
-11.3351371604
 20
223.9669393549
 10
-12.3581688779
 20
224.1093178514
 10
-13.1880108514
 20
224.2742570651
 10
-13.7994487525
 20
224.4567454014
 10
-14.17390435
 20
224.6512380445
 10
-14.3
 20
224.851825434
 10
-14.17390435
 20
225.0524128236
 10
-13.7994487525
 20
225.2469054667
 10
-13.1880108514
 20
225.429393803
 10
-12.3581688779
 20
225.5943330167
 10
-11.3351371604
 20
225.7367115132
 10
-10.15
 20
225.852203194
 10
-8.8387671896
 20
225.9372989027
 10
-7.4412798746
 20
225.9894130494
 10
-6.0
 20
226.006962172
  0
LWPOLYLINE
  5
12B
330
1B
100
AcDbEntity
  8
0
  6
Continuous
 62
     7
370
    25
100
AcDbPolyline
 90
       19
 70
   128
 43
0.0
 10
-6.0
 20
226.006962172
 10
-4.5587201254
 20
225.9894130494
 10
-3.1612328104
 20
225.9372989027
 10
-1.85
 20
225.852203194
 10
-0.6648628396
 20
225.7367115132
 10
0.3581688779
 20
225.5943330167
 10
1.1880108514
 20
225.429393803
 10
1.7994487525
 20
225.2469054667
 10
2.17390435
 20
225.0524128236
 10
2.3
 20
224.851825434
 10
2.17390435
 20
224.6512380445
 10
1.7994487525
 20
224.4567454014
 10
1.1880108514
 20
224.2742570651
 10
0.3581688779
 20
224.1093178514
 10
-0.6648628396
 20
223.9669393549
 10
-1.85
 20
223.8514476741
 10
-3.1612328104
 20
223.7663519654
 10
-4.5587201254
 20
223.7142378187
 10
-6.0
 20
223.6966886961
  0
LWPOLYLINE
  5
12C
330
1B
100
AcDbEntity
  8
0
  6
Continuous
 62
     7
370
    25
100
AcDbPolyline
 90
       19
 70
   128
 43
0.0
 10
-6.0
 20
225.9791275518
 10
-4.5934497609
 20
225.9620012996
 10
-3.2296368391
 20
225.9111429155
 10
-1.95
 20
225.8280977058
 10
-0.7934203615
 20
225.7153889571
 10
0.2049599893
 20
225.5764412677
 10
1.0148057707
 20
225.4154764929
 10
1.6115102284
 20
225.2373854659
 10
1.9769427994
 20
225.0475793925
 10
2.1
 20
224.851825434
 10
1.9769427994
 20
224.6560714756
 10
1.6115102284
 20
224.4662654022
 10
1.0148057707
 20
224.2881743752
 10
0.2049599893
 20
224.1272096004
 10
-0.7934203615
 20
223.988261911
 10
-1.95
 20
223.8755531623
 10
-3.2296368391
 20
223.7925079526
 10
-4.5934497609
 20
223.7416495685
 10
-6.0
 20
223.7245233163
  0
LWPOLYLINE
  5
12D
330
1B
100
AcDbEntity
  8
0
  6
Continuous
 62
     7
370
    25
100
AcDbPolyline
 90
       19
 70
   128
 43
0.0
 10
-6.0
 20
225.9791275518
 10
-7.4065502391
 20
225.9620012996
 10
-8.7703631609
 20
225.9111429155
 10
-10.05
 20
225.8280977058
 10
-11.2065796385
 20
225.7153889571
 10
-12.2049599893
 20
225.5764412677
 10
-13.0148057707
 20
225.4154764929
 10
-13.6115102284
 20
225.2373854659
 10
-13.9769427994
 20
225.0475793925
 10
-14.1
 20
224.851825434
 10
-13.9769427994
 20
224.6560714756
 10
-13.6115102284
 20
224.4662654022
 10
-13.0148057707
 20
224.2881743752
 10
-12.2049599893
 20
224.1272096004
 10
-11.2065796385
 20
223.988261911
 10
-10.05
 20
223.8755531623
 10
-8.7703631609
 20
223.7925079526
 10
-7.4065502391
 20
223.7416495685
 10
-6.0
 20
223.7245233163
  0
SPLINE
  5
546
330
1B
100
AcDbEntity
  8
0
  6
Continuous
 62
     7
370
    25
100
AcDbSpline
210
0.0
220
0.0
230
1.0
 70
    24
 71
     3
 72
    15
 73
    11
 74
     0
 42
0.000000001
 43
0.00000001
 40
0.0
 40
0.0
 40
0.0
 40
0.0
 40
0.1084774110151658
 40
0.2147307583157465
 40
0.318831288529988
 40
0.4208547585527432
 40
0.5208816446702573
 40
0.6837319250716344
 40
0.843289544217223
 40
1.0
 40
1.0
 40
1.0
 40
1.0
 10
4.949999999999999
 20
226.5252831844553
 30
0.0
 10
4.949999999999999
 20
226.4532352094282
 30
0.0
 10
4.949999999999999
 20
226.3106164266985
 30
0.0
 10
4.949999999999999
 20
226.1106759304265
 30
0.0
 10
4.949999999999999
 20
225.9239415436167
 30
0.0
 10
4.949999999999999
 20
225.7512334094953
 30
0.0
 10
4.949999999999999
 20
225.5579448996973
 30
0.0
 10
4.949999999999999
 20
225.3553826760383
 30
0.0
 10
4.950000000000001
 20
225.1542947097256
 30
0.0
 10
4.949999999999999
 20
225.0495341714283
 30
0.0
 10
4.949999999999999
 20
224.9976254490309
 30
0.0
  0
LWPOLYLINE
  5
547
330
1B
100
AcDbEntity
  8
0
  6
Continuous
 62
     7
370
    25
100
AcDbPolyline
 90
       21
 70
   128
 43
0.0
 10
4.95
 20
224.997625449
 10
4.6770271112
 20
225.22007157
 10
4.1720530788
 20
225.43451607
 10
3.4460504846
 20
225.6362992839
 10
2.5147946403
 20
225.821036664
 10
1.3985208062
 20
225.9847140513
 10
0.1214844985
 20
226.1237748996
 10
-1.2885655582
 20
226.2351975553
 10
-2.8009903834
 20
226.3165609155
 10
-4.382926495
 20
226.3660970354
 10
-6.0
 20
226.3827295447
 10
-7.617073505
 20
226.3660970354
 10
-9.1990096166
 20
226.3165609155
 10
-10.7114344418
 20
226.2351975553
 10
-12.1214844985
 20
226.1237748996
 10
-13.3985208062
 20
225.9847140513
 10
-14.5147946403
 20
225.821036664
 10
-15.4460504846
 20
225.6362992839
 10
-16.1720530788
 20
225.43451607
 10
-16.6770271112
 20
225.22007157
 10
-16.95
 20
224.997625449
  0
SPLINE
  5
548
330
1B
100
AcDbEntity
  8
0
  6
Continuous
 62
     7
370
    25
100
AcDbSpline
210
0.0
220
0.0
230
1.0
 70
    24
 71
     3
 72
    16
 73
    12
 74
     0
 42
0.000000001
 43
0.00000001
 40
0.0
 40
0.0
 40
0.0
 40
0.0
 40
0.0780869957768681
 40
0.1568510155216603
 40
0.2363503102227592
 40
0.316641530566574
 40
0.3977796684878961
 40
0.4798180128220711
 40
0.6473153377624536
 40
0.8205926783568681
 40
1.0
 40
1.0
 40
1.0
 40
1.0
 10
-16.95
 20
224.9976254490309
 30
0.0
 10
-16.95
 20
225.0226640812066
 30
0.0
 10
-16.95
 20
225.0729584336137
 30
0.0
 10
-16.94999999999999
 20
225.1594053815912
 30
0.0
 10
-16.95
 20
225.2542570655892
 30
0.0
 10
-16.95
 20
225.3582985092685
 30
0.0
 10
-16.95
 20
225.471329355885
 30
0.0
 10
-16.95
 20
225.635240701096
 30
0.0
 10
-16.95
 20
225.8647806999614
 30
0.0
 10
-16.95
 20
226.1746139315703
 30
0.0
 10
-16.95
 20
226.4070468017459
 30
0.0
 10
-16.95
 20
226.5252831844552
 30
0.0
  0
LWPOLYLINE
  5
54A
330
1B
100
AcDbEntity
  8
0
  6
Continuous
 62
     7
370
    25
100
AcDbPolyline
 90
        9
 70
   128
 43
0.0
 10
-16.95
 20
228.7038729357
 10
-17.4055290728
 20
228.5398176988
 10
-17.7345643294
 20
228.3700049651
 10
-17.9334565812
 20
228.1963180546
 10
-18.0
 20
228.0206832541
 10
-17.9334565812
 20
227.8450484536
 10
-17.7345643294
 20
227.671361543
 10
-17.4055290728
 20
227.5015488094
 10
-16.95
 20
227.3374935725
  0
LWPOLYLINE
  5
54B
330
1B
100
AcDbEntity
  8
0
  6
Continuous
 62
     7
370
    25
100
AcDbPolyline
 90
        9
 70
   128
 43
0.0
 10
4.95
 20
227.3374935725
 10
5.4055290728
 20
227.5015488094
 10
5.7345643294
 20
227.671361543
 10
5.9334565812
 20
227.8450484536
 10
6.0
 20
228.0206832541
 10
5.9334565812
 20
228.1963180546
 10
5.7345643294
 20
228.3700049651
 10
5.4055290728
 20
228.5398176988
 10
4.95
 20
228.7038729357
  0
LWPOLYLINE
  5
54D
330
1B
100
AcDbEntity
  8
0
  6
Continuous
 62
     7
370
    25
100
AcDbPolyline
 90
       21
 70
   128
 43
0.0
 10
-6.0
 20
226.2435564437
 10
-4.4356553496
 20
226.2264219255
 10
-2.9098300563
 20
226.1754402797
 10
-1.4600950026
 20
226.0918668436
 10
-0.1221474771
 20
225.9777594725
 10
1.0710678119
 20
225.8359278686
 10
2.0901699437
 20
225.6698643967
 10
2.9100652419
 20
225.4836580907
 10
3.510565163
 20
225.2818939677
 10
3.876883406
 20
225.0695401301
 10
4.0
 20
224.8518254341
 10
3.876883406
 20
224.6341107381
 10
3.510565163
 20
224.4217569005
 10
2.9100652419
 20
224.2199927775
 10
2.0901699437
 20
224.0337864715
 10
1.0710678119
 20
223.8677229996
 10
-0.1221474771
 20
223.7258913957
 10
-1.4600950026
 20
223.6117840246
 10
-2.9098300563
 20
223.5282105885
 10
-4.4356553496
 20
223.4772289427
 10
-6.0
 20
223.4600944245
  0
LWPOLYLINE
  5
54E
330
1B
100
AcDbEntity
  8
0
  6
Continuous
 62
     7
370
    25
100
AcDbPolyline
 90
       21
 70
   128
 43
0.0
 10
-6.0
 20
226.2435564437
 10
-7.5643446504
 20
226.2264219255
 10
-9.0901699437
 20
226.1754402797
 10
-10.5399049974
 20
226.0918668436
 10
-11.8778525229
 20
225.9777594725
 10
-13.0710678119
 20
225.8359278686
 10
-14.0901699437
 20
225.6698643967
 10
-14.9100652419
 20
225.4836580907
 10
-15.510565163
 20
225.2818939677
 10
-15.876883406
 20
225.0695401301
 10
-16.0
 20
224.8518254341
 10
-15.876883406
 20
224.6341107381
 10
-15.510565163
 20
224.4217569005
 10
-14.9100652419
 20
224.2199927775
 10
-14.0901699437
 20
224.0337864715
 10
-13.0710678119
 20
223.8677229996
 10
-11.8778525229
 20
223.7258913957
 10
-10.5399049974
 20
223.6117840246
 10
-9.0901699437
 20
223.5282105885
 10
-7.5643446504
 20
223.4772289427
 10
-6.0
 20
223.4600944245
  0
LWPOLYLINE
  5
550
330
1B
100
AcDbEntity
  8
0
  6
Continuous
 62
     7
370
    25
100
AcDbPolyline
 90
       21
 70
   128
 43
0.0
 10
-16.95
 20
224.7060254192
 10
-16.6770271112
 20
224.4835792982
 10
-16.1720530788
 20
224.2691347982
 10
-15.4460504846
 20
224.0673515843
 10
-14.5147946403
 20
223.8826142042
 10
-13.3985208062
 20
223.7189368169
 10
-12.1214844985
 20
223.5798759686
 10
-10.7114344418
 20
223.4684533129
 10
-9.1990096166
 20
223.3870899527
 10
-7.617073505
 20
223.3375538328
 10
-6.0
 20
223.3209213235
 10
-4.382926495
 20
223.3375538328
 10
-2.8009903834
 20
223.3870899527
 10
-1.2885655582
 20
223.4684533129
 10
0.1214844985
 20
223.5798759686
 10
1.3985208062
 20
223.7189368169
 10
2.5147946403
 20
223.8826142042
 10
3.4460504846
 20
224.0673515843
 10
4.1720530788
 20
224.2691347982
 10
4.6770271112
 20
224.4835792982
 10
4.95
 20
224.7060254192
  0
LWPOLYLINE
  5
58F
330
1B
100
AcDbEntity
  8
0
  6
Continuous
 62
     8
370
    25
100
AcDbPolyline
 90
        4
 70
   128
 43
0.0
 10
-14.9240708867
 20
224.9465714321
 10
-14.9194312124
 20
224.748964663
 10
-14.6761323802
 20
224.5460488945
 10
-14.6060632162
 20
224.5098395464
  0
LWPOLYLINE
  5
590
330
1B
100
AcDbEntity
  8
0
  6
Continuous
 62
     8
370
    25
100
AcDbPolyline
 90
        4
 70
   128
 43
0.0
 10
-14.9557681089
 20
225.4710162041
 10
-14.9669524599
 20
225.4649318872
 10
-15.2184065603
 20
225.2552144728
 10
-15.2499378322
 20
225.1441860609
  0
LWPOLYLINE
  5
592
330
1B
100
AcDbEntity
  8
0
  6
Continuous
 62
     8
370
    25
100
AcDbPolyline
 90
        4
 70
   128
 43
0.0
 10
2.7448451772
 20
224.5866583866
 10
2.9194312124
 20
224.748964663
 10
2.9194312124
 20
224.9546862051
 10
2.8986275649
 20
224.9850924869
  0
LWPOLYLINE
  5
593
330
1B
100
AcDbEntity
  8
0
  6
Continuous
 62
     8
370
    25
100
AcDbPolyline
 90
        4
 70
   128
 43
0.0
 10
3.2499378322
 20
225.1536256485
 10
3.2184065603
 20
225.2552144728
 10
2.9669524599
 20
225.4649318872
 10
2.9557681089
 20
225.4710162041
  0
LINE
  5
59B
330
1B
100
AcDbEntity
  8
0
  6
Continuous
 62
     7
370
    25
100
AcDbLine
 10
-15.25
 20
225.3806374351
 30
0.0
 11
-15.25
 21
225.1489058547
 31
0.0
  0
LINE
  5
59C
330
1B
100
AcDbEntity
  8
0
  6
Continuous
 62
     7
370
    25
100
AcDbLine
 10
3.25
 20
225.1489058547
 30
0.0
 11
3.25
 21
225.3806374351
 31
0.0
  0
LINE
  5
59D
330
1B
100
AcDbEntity
  8
0
  6
Continuous
 62
     7
370
    25
100
AcDbLine
 10
2.4
 20
224.9508522409
 30
0.0
 11
2.4
 21
225.0003656444
 31
0.0
  0
LINE
  5
59E
330
1B
100
AcDbEntity
  8
0
  6
Continuous
 62
     7
370
    25
100
AcDbLine
 10
-14.3166290165
 20
224.7865524092
 30
0.0
 11
-14.2176215282
 21
224.6894815527
 31
0.0
  0
LINE
  5
59F
330
1B
100
AcDbEntity
  8
0
  6
Continuous
 62
     7
370
    25
100
AcDbLine
 10
-14.4
 20
225.0003656444
 30
0.0
 11
-14.4
 21
224.9508522409
 31
0.0
  0
LINE
  5
5A0
330
1B
100
AcDbEntity
  8
0
  6
Continuous
 62
     7
370
    25
100
AcDbLine
 10
2.2176215282
 20
224.6894815527
 30
0.0
 11
2.3166290165
 21
224.7865524092
 31
0.0
  0
LINE
  5
5A1
330
1B
100
AcDbEntity
  8
0
  6
Continuous
 62
     7
370
    25
100
AcDbLine
 10
-18.0
 20
231.5
 30
0.0
 11
-18.0
 21
228.0206832541
 31
0.0
  0
LINE
  5
5A2
330
1B
100
AcDbEntity
  8
0
  6
Continuous
 62
     7
370
    25
100
AcDbLine
 10
6.0
 20
228.0206832541
 30
0.0
 11
6.0
 21
231.5
 31
0.0
  0
LINE
  5
5A3
330
1B
100
AcDbEntity
  8
0
  6
Continuous
 62
     7
370
    25
100
AcDbLine
 10
-16.9525
 20
224.697140764
 30
0.0
 11
-16.8908237121
 21
224.6366708926
 31
0.0
  0
LINE
  5
5A4
330
1B
100
AcDbEntity
  8
0
  6
Continuous
 62
     7
370
    25
100
AcDbLine
 10
4.8908237121
 20
224.6366708926
 30
0.0
 11
4.9525
 21
224.697140764
 31
0.0
  0
LINE
  5
5A5
330
1B
100
AcDbEntity
  8
0
  6
Continuous
 62
     7
370
    25
100
AcDbLine
 10
-6.6385234473
 20
223.6721965963
 30
0.0
 11
-6.0
 21
223.6688540759
 31
0.0
  0
LINE
  5
5A6
330
1B
100
AcDbEntity
  8
0
  6
Continuous
 62
     7
370
    25
100
AcDbLine
 10
2.3960350587
 20
225.0362807438
 30
0.0
 11
2.4
 21
225.0003656444
 31
0.0
  0
LINE
  5
5A7
330
1B
100
AcDbEntity
  8
0
  6
Continuous
 62
     7
370
    25
100
AcDbLine
 10
-14.3960350587
 20
225.0362807438
 30
0.0
 11
-14.4
 21
225.0003656444
 31
0.0
  0
LINE
  5
5A8
330
1B
100
AcDbEntity
  8
0
  6
Continuous
 62
     7
370
    25
100
AcDbLine
 10
-3.2284018381
 20
223.9906241409
 30
0.0
 11
-2.9894194535
 21
224.0033342992
 31
0.0
  0
LINE
  5
5A9
330
1B
100
AcDbEntity
  8
0
  6
Continuous
 62
     7
370
    25
100
AcDbLine
 10
-1.0483052158
 20
224.157751042
 30
0.0
 11
-0.7944272418
 21
224.1861979605
 31
0.0
  0
LINE
  5
5AA
330
1B
100
AcDbEntity
  8
0
  6
Continuous
 62
     7
370
    25
100
AcDbLine
 10
-6.0
 20
223.92257693
 30
0.0
 11
-6.0
 21
223.7245233163
 31
0.0
  0
LINE
  5
5AB
330
1B
100
AcDbEntity
  8
0
  6
Continuous
 62
     7
370
    25
100
AcDbLine
 10
-6.0
 20
223.92257693
 30
0.0
 11
-5.6958897546
 21
223.9233717257
 31
0.0
  0
LINE
  5
5AC
330
1B
100
AcDbEntity
  8
0
  6
Continuous
 62
     7
370
    25
100
AcDbLine
 10
-11.2055727582
 20
224.1861979605
 30
0.0
 11
-10.9516947842
 21
224.157751042
 31
0.0
  0
LINE
  5
5AD
330
1B
100
AcDbEntity
  8
0
  6
Continuous
 62
     7
370
    25
100
AcDbLine
 10
-9.0105805465
 20
224.0033342992
 30
0.0
 11
-8.7715981619
 21
223.9906241409
 31
0.0
  0
LINE
  5
5AE
330
1B
100
AcDbEntity
  8
0
  6
Continuous
 62
     7
370
    25
100
AcDbLine
 10
-6.3041102454
 20
223.9233717257
 30
0.0
 11
-6.0
 21
223.92257693
 31
0.0
  0
LINE
  5
5AF
330
1B
100
AcDbEntity
  8
0
  6
Continuous
 62
     7
370
    25
100
AcDbLine
 10
-7.9113248654
 20
225.1194655983
 30
0.0
 11
-8.4886751346
 21
225.1194655983
 31
0.0
  0
LINE
  5
5B0
330
1B
100
AcDbEntity
  8
0
  6
Continuous
 62
     7
370
    25
100
AcDbLine
 10
-8.4886751346
 20
225.1194655983
 30
0.0
 11
-8.7773502692
 21
225.0498790478
 31
0.0
  0
LINE
  5
5B1
330
1B
100
AcDbEntity
  8
0
  6
Continuous
 62
     7
370
    25
100
AcDbLine
 10
-8.7773502692
 20
225.0498790478
 30
0.0
 11
-8.4886751346
 21
224.9802924973
 31
0.0
  0
LINE
  5
5B2
330
1B
100
AcDbEntity
  8
0
  6
Continuous
 62
     7
370
    25
100
AcDbLine
 10
-8.4886751346
 20
224.9802924973
 30
0.0
 11
-7.9113248654
 21
224.9802924973
 31
0.0
  0
LINE
  5
5B3
330
1B
100
AcDbEntity
  8
0
  6
Continuous
 62
     7
370
    25
100
AcDbLine
 10
-7.9113248654
 20
224.9802924973
 30
0.0
 11
-7.6226497308
 21
225.0498790478
 31
0.0
  0
LINE
  5
5B4
330
1B
100
AcDbEntity
  8
0
  6
Continuous
 62
     7
370
    25
100
AcDbLine
 10
-7.6226497308
 20
225.0498790478
 30
0.0
 11
-7.9113248654
 21
225.1194655983
 31
0.0
  0
LINE
  5
5B5
330
1B
100
AcDbEntity
  8
0
  6
Continuous
 62
     7
370
    25
100
AcDbLine
 10
-7.4337130991
 20
225.9613280833
 30
0.0
 11
-7.3886751346
 21
225.9504714621
 31
0.0
  0
LINE
  5
5B6
330
1B
100
AcDbEntity
  8
0
  6
Continuous
 62
     7
370
    25
100
AcDbLine
 10
-7.3886751346
 20
225.9504714621
 30
0.0
 11
-6.8113248654
 21
225.9504714621
 31
0.0
  0
LINE
  5
5B7
330
1B
100
AcDbEntity
  8
0
  6
Continuous
 62
     7
370
    25
100
AcDbLine
 10
-6.8113248654
 20
225.9504714621
 30
0.0
 11
-6.7104711586
 21
225.9747827405
 31
0.0
  0
LINE
  5
5B8
330
1B
100
AcDbEntity
  8
0
  6
Continuous
 62
     7
370
    25
100
AcDbLine
 10
-0.2113248654
 20
225.5593238229
 30
0.0
 11
-0.7886751346
 21
225.5593238229
 31
0.0
  0
LINE
  5
5B9
330
1B
100
AcDbEntity
  8
0
  6
Continuous
 62
     7
370
    25
100
AcDbLine
 10
-0.7886751346
 20
225.5593238229
 30
0.0
 11
-1.0773502692
 21
225.4897372724
 31
0.0
  0
LINE
  5
5BA
330
1B
100
AcDbEntity
  8
0
  6
Continuous
 62
     7
370
    25
100
AcDbLine
 10
-1.0773502692
 20
225.4897372724
 30
0.0
 11
-0.7886751346
 21
225.4201507219
 31
0.0
  0
LINE
  5
5BB
330
1B
100
AcDbEntity
  8
0
  6
Continuous
 62
     7
370
    25
100
AcDbLine
 10
-0.7886751346
 20
225.4201507219
 30
0.0
 11
-0.2113248654
 21
225.4201507219
 31
0.0
  0
LINE
  5
5BC
330
1B
100
AcDbEntity
  8
0
  6
Continuous
 62
     7
370
    25
100
AcDbLine
 10
-0.2113248654
 20
225.4201507219
 30
0.0
 11
0.0773502692
 21
225.4897372724
 31
0.0
  0
LINE
  5
5BD
330
1B
100
AcDbEntity
  8
0
  6
Continuous
 62
     7
370
    25
100
AcDbLine
 10
0.0773502692
 20
225.4897372724
 30
0.0
 11
-0.2113248654
 21
225.5593238229
 31
0.0
  0
LINE
  5
5BE
330
1B
100
AcDbEntity
  8
0
  6
Continuous
 62
     7
370
    25
100
AcDbLine
 10
0.8886751346
 20
225.2941634528
 30
0.0
 11
0.3113248654
 21
225.2941634528
 31
0.0
  0
LINE
  5
5BF
330
1B
100
AcDbEntity
  8
0
  6
Continuous
 62
     7
370
    25
100
AcDbLine
 10
0.3113248654
 20
225.2941634528
 30
0.0
 11
0.0226497308
 21
225.2245769023
 31
0.0
  0
LINE
  5
5C0
330
1B
100
AcDbEntity
  8
0
  6
Continuous
 62
     7
370
    25
100
AcDbLine
 10
0.0226497308
 20
225.2245769023
 30
0.0
 11
0.3113248654
 21
225.1549903518
 31
0.0
  0
LINE
  5
5C1
330
1B
100
AcDbEntity
  8
0
  6
Continuous
 62
     7
370
    25
100
AcDbLine
 10
0.3113248654
 20
225.1549903518
 30
0.0
 11
0.8886751346
 21
225.1549903518
 31
0.0
  0
LINE
  5
5C2
330
1B
100
AcDbEntity
  8
0
  6
Continuous
 62
     7
370
    25
100
AcDbLine
 10
0.8886751346
 20
225.1549903518
 30
0.0
 11
1.1773502692
 21
225.2245769023
 31
0.0
  0
LINE
  5
5C3
330
1B
100
AcDbEntity
  8
0
  6
Continuous
 62
     7
370
    25
100
AcDbLine
 10
1.1773502692
 20
225.2245769023
 30
0.0
 11
0.8886751346
 21
225.2941634528
 31
0.0
  0
LINE
  5
5C4
330
1B
100
AcDbEntity
  8
0
  6
Continuous
 62
     7
370
    25
100
AcDbLine
 10
0.8886751346
 20
224.7638427125
 30
0.0
 11
0.3113248654
 21
224.7638427125
 31
0.0
  0
LINE
  5
5C5
330
1B
100
AcDbEntity
  8
0
  6
Continuous
 62
     7
370
    25
100
AcDbLine
 10
0.3113248654
 20
224.7638427125
 30
0.0
 11
0.0226497308
 21
224.6942561621
 31
0.0
  0
LINE
  5
5C6
330
1B
100
AcDbEntity
  8
0
  6
Continuous
 62
     7
370
    25
100
AcDbLine
 10
0.0226497308
 20
224.6942561621
 30
0.0
 11
0.3113248654
 21
224.6246696116
 31
0.0
  0
LINE
  5
5C7
330
1B
100
AcDbEntity
  8
0
  6
Continuous
 62
     7
370
    25
100
AcDbLine
 10
0.3113248654
 20
224.6246696116
 30
0.0
 11
0.8886751346
 21
224.6246696116
 31
0.0
  0
LINE
  5
5C8
330
1B
100
AcDbEntity
  8
0
  6
Continuous
 62
     7
370
    25
100
AcDbLine
 10
0.8886751346
 20
224.6246696116
 30
0.0
 11
1.1773502692
 21
224.6942561621
 31
0.0
  0
LINE
  5
5C9
330
1B
100
AcDbEntity
  8
0
  6
Continuous
 62
     7
370
    25
100
AcDbLine
 10
1.1773502692
 20
224.6942561621
 30
0.0
 11
0.8886751346
 21
224.7638427125
 31
0.0
  0
LINE
  5
5CA
330
1B
100
AcDbEntity
  8
0
  6
Continuous
 62
     7
370
    25
100
AcDbLine
 10
-0.2113248654
 20
224.4986823424
 30
0.0
 11
-0.7886751346
 21
224.4986823424
 31
0.0
  0
LINE
  5
5CB
330
1B
100
AcDbEntity
  8
0
  6
Continuous
 62
     7
370
    25
100
AcDbLine
 10
-0.7886751346
 20
224.4986823424
 30
0.0
 11
-1.0773502692
 21
224.429095792
 31
0.0
  0
LINE
  5
5CC
330
1B
100
AcDbEntity
  8
0
  6
Continuous
 62
     7
370
    25
100
AcDbLine
 10
-1.0773502692
 20
224.429095792
 30
0.0
 11
-0.7886751346
 21
224.3595092415
 31
0.0
  0
LINE
  5
5CD
330
1B
100
AcDbEntity
  8
0
  6
Continuous
 62
     7
370
    25
100
AcDbLine
 10
-0.7886751346
 20
224.3595092415
 30
0.0
 11
-0.2113248654
 21
224.3595092415
 31
0.0
  0
LINE
  5
5CE
330
1B
100
AcDbEntity
  8
0
  6
Continuous
 62
     7
370
    25
100
AcDbLine
 10
-0.2113248654
 20
224.3595092415
 30
0.0
 11
0.0773502692
 21
224.429095792
 31
0.0
  0
LINE
  5
5CF
330
1B
100
AcDbEntity
  8
0
  6
Continuous
 62
     7
370
    25
100
AcDbLine
 10
0.0773502692
 20
224.429095792
 30
0.0
 11
-0.2113248654
 21
224.4986823424
 31
0.0
  0
LINE
  5
5D0
330
1B
100
AcDbEntity
  8
0
  6
Continuous
 62
     7
370
    25
100
AcDbLine
 10
-12.3113248654
 20
225.2941634528
 30
0.0
 11
-12.8886751346
 21
225.2941634528
 31
0.0
  0
LINE
  5
5D1
330
1B
100
AcDbEntity
  8
0
  6
Continuous
 62
     7
370
    25
100
AcDbLine
 10
-12.8886751346
 20
225.2941634528
 30
0.0
 11
-13.1773502692
 21
225.2245769023
 31
0.0
  0
LINE
  5
5D2
330
1B
100
AcDbEntity
  8
0
  6
Continuous
 62
     7
370
    25
100
AcDbLine
 10
-13.1773502692
 20
225.2245769023
 30
0.0
 11
-12.8886751346
 21
225.1549903518
 31
0.0
  0
LINE
  5
5D3
330
1B
100
AcDbEntity
  8
0
  6
Continuous
 62
     7
370
    25
100
AcDbLine
 10
-12.8886751346
 20
225.1549903518
 30
0.0
 11
-12.3113248654
 21
225.1549903518
 31
0.0
  0
LINE
  5
5D4
330
1B
100
AcDbEntity
  8
0
  6
Continuous
 62
     7
370
    25
100
AcDbLine
 10
-12.3113248654
 20
225.1549903518
 30
0.0
 11
-12.0226497308
 21
225.2245769023
 31
0.0
  0
LINE
  5
5D5
330
1B
100
AcDbEntity
  8
0
  6
Continuous
 62
     7
370
    25
100
AcDbLine
 10
-12.0226497308
 20
225.2245769023
 30
0.0
 11
-12.3113248654
 21
225.2941634528
 31
0.0
  0
LINE
  5
5D6
330
1B
100
AcDbEntity
  8
0
  6
Continuous
 62
     7
370
    25
100
AcDbLine
 10
-11.2113248654
 20
225.5593238229
 30
0.0
 11
-11.7886751346
 21
225.5593238229
 31
0.0
  0
LINE
  5
5D7
330
1B
100
AcDbEntity
  8
0
  6
Continuous
 62
     7
370
    25
100
AcDbLine
 10
-11.7886751346
 20
225.5593238229
 30
0.0
 11
-12.0773502692
 21
225.4897372724
 31
0.0
  0
LINE
  5
5D8
330
1B
100
AcDbEntity
  8
0
  6
Continuous
 62
     7
370
    25
100
AcDbLine
 10
-12.0773502692
 20
225.4897372724
 30
0.0
 11
-11.7886751346
 21
225.4201507219
 31
0.0
  0
LINE
  5
5D9
330
1B
100
AcDbEntity
  8
0
  6
Continuous
 62
     7
370
    25
100
AcDbLine
 10
-11.7886751346
 20
225.4201507219
 30
0.0
 11
-11.2113248654
 21
225.4201507219
 31
0.0
  0
LINE
  5
5DA
330
1B
100
AcDbEntity
  8
0
  6
Continuous
 62
     7
370
    25
100
AcDbLine
 10
-11.2113248654
 20
225.4201507219
 30
0.0
 11
-10.9226497308
 21
225.4897372724
 31
0.0
  0
LINE
  5
5DB
330
1B
100
AcDbEntity
  8
0
  6
Continuous
 62
     7
370
    25
100
AcDbLine
 10
-10.9226497308
 20
225.4897372724
 30
0.0
 11
-11.2113248654
 21
225.5593238229
 31
0.0
  0
LINE
  5
5DC
330
1B
100
AcDbEntity
  8
0
  6
Continuous
 62
     7
370
    25
100
AcDbLine
 10
-7.9113248654
 20
225.824484193
 30
0.0
 11
-8.4886751346
 21
225.824484193
 31
0.0
  0
LINE
  5
5DD
330
1B
100
AcDbEntity
  8
0
  6
Continuous
 62
     7
370
    25
100
AcDbLine
 10
-8.4886751346
 20
225.824484193
 30
0.0
 11
-8.7773502692
 21
225.7548976425
 31
0.0
  0
LINE
  5
5DE
330
1B
100
AcDbEntity
  8
0
  6
Continuous
 62
     7
370
    25
100
AcDbLine
 10
-8.7773502692
 20
225.7548976425
 30
0.0
 11
-8.4886751346
 21
225.685311092
 31
0.0
  0
LINE
  5
5DF
330
1B
100
AcDbEntity
  8
0
  6
Continuous
 62
     7
370
    25
100
AcDbLine
 10
-8.4886751346
 20
225.685311092
 30
0.0
 11
-7.9113248654
 21
225.685311092
 31
0.0
  0
LINE
  5
5E0
330
1B
100
AcDbEntity
  8
0
  6
Continuous
 62
     7
370
    25
100
AcDbLine
 10
-7.9113248654
 20
225.685311092
 30
0.0
 11
-7.6226497308
 21
225.7548976425
 31
0.0
  0
LINE
  5
5E1
330
1B
100
AcDbEntity
  8
0
  6
Continuous
 62
     7
370
    25
100
AcDbLine
 10
-7.6226497308
 20
225.7548976425
 30
0.0
 11
-7.9113248654
 21
225.824484193
 31
0.0
  0
LINE
  5
5E2
330
1B
100
AcDbEntity
  8
0
  6
Continuous
 62
     7
370
    25
100
AcDbLine
 10
-5.7113248654
 20
225.824484193
 30
0.0
 11
-6.2886751346
 21
225.824484193
 31
0.0
  0
LINE
  5
5E3
330
1B
100
AcDbEntity
  8
0
  6
Continuous
 62
     7
370
    25
100
AcDbLine
 10
-6.2886751346
 20
225.824484193
 30
0.0
 11
-6.5773502692
 21
225.7548976425
 31
0.0
  0
LINE
  5
5E4
330
1B
100
AcDbEntity
  8
0
  6
Continuous
 62
     7
370
    25
100
AcDbLine
 10
-6.5773502692
 20
225.7548976425
 30
0.0
 11
-6.2886751346
 21
225.685311092
 31
0.0
  0
LINE
  5
5E5
330
1B
100
AcDbEntity
  8
0
  6
Continuous
 62
     7
370
    25
100
AcDbLine
 10
-6.2886751346
 20
225.685311092
 30
0.0
 11
-5.7113248654
 21
225.685311092
 31
0.0
  0
LINE
  5
5E6
330
1B
100
AcDbEntity
  8
0
  6
Continuous
 62
     7
370
    25
100
AcDbLine
 10
-5.7113248654
 20
225.685311092
 30
0.0
 11
-5.4226497308
 21
225.7548976425
 31
0.0
  0
LINE
  5
5E7
330
1B
100
AcDbEntity
  8
0
  6
Continuous
 62
     7
370
    25
100
AcDbLine
 10
-5.4226497308
 20
225.7548976425
 30
0.0
 11
-5.7113248654
 21
225.824484193
 31
0.0
  0
LINE
  5
5E8
330
1B
100
AcDbEntity
  8
0
  6
Continuous
 62
     7
370
    25
100
AcDbLine
 10
-3.5113248654
 20
225.824484193
 30
0.0
 11
-4.0886751346
 21
225.824484193
 31
0.0
  0
LINE
  5
5E9
330
1B
100
AcDbEntity
  8
0
  6
Continuous
 62
     7
370
    25
100
AcDbLine
 10
-4.0886751346
 20
225.824484193
 30
0.0
 11
-4.3773502692
 21
225.7548976425
 31
0.0
  0
LINE
  5
5EA
330
1B
100
AcDbEntity
  8
0
  6
Continuous
 62
     7
370
    25
100
AcDbLine
 10
-4.3773502692
 20
225.7548976425
 30
0.0
 11
-4.0886751346
 21
225.685311092
 31
0.0
  0
LINE
  5
5EB
330
1B
100
AcDbEntity
  8
0
  6
Continuous
 62
     7
370
    25
100
AcDbLine
 10
-4.0886751346
 20
225.685311092
 30
0.0
 11
-3.5113248654
 21
225.685311092
 31
0.0
  0
LINE
  5
5EC
330
1B
100
AcDbEntity
  8
0
  6
Continuous
 62
     7
370
    25
100
AcDbLine
 10
-3.5113248654
 20
225.685311092
 30
0.0
 11
-3.2226497308
 21
225.7548976425
 31
0.0
  0
LINE
  5
5ED
330
1B
100
AcDbEntity
  8
0
  6
Continuous
 62
     7
370
    25
100
AcDbLine
 10
-3.2226497308
 20
225.7548976425
 30
0.0
 11
-3.5113248654
 21
225.824484193
 31
0.0
  0
LINE
  5
5EE
330
1B
100
AcDbEntity
  8
0
  6
Continuous
 62
     7
370
    25
100
AcDbLine
 10
-2.4113248654
 20
225.5593238229
 30
0.0
 11
-2.9886751346
 21
225.5593238229
 31
0.0
  0
LINE
  5
5EF
330
1B
100
AcDbEntity
  8
0
  6
Continuous
 62
     7
370
    25
100
AcDbLine
 10
-2.9886751346
 20
225.5593238229
 30
0.0
 11
-3.2773502692
 21
225.4897372724
 31
0.0
  0
LINE
  5
5F0
330
1B
100
AcDbEntity
  8
0
  6
Continuous
 62
     7
370
    25
100
AcDbLine
 10
-3.2773502692
 20
225.4897372724
 30
0.0
 11
-2.9886751346
 21
225.4201507219
 31
0.0
  0
LINE
  5
5F1
330
1B
100
AcDbEntity
  8
0
  6
Continuous
 62
     7
370
    25
100
AcDbLine
 10
-2.9886751346
 20
225.4201507219
 30
0.0
 11
-2.4113248654
 21
225.4201507219
 31
0.0
  0
LINE
  5
5F2
330
1B
100
AcDbEntity
  8
0
  6
Continuous
 62
     7
370
    25
100
AcDbLine
 10
-2.4113248654
 20
225.4201507219
 30
0.0
 11
-2.1226497308
 21
225.4897372724
 31
0.0
  0
LINE
  5
5F3
330
1B
100
AcDbEntity
  8
0
  6
Continuous
 62
     7
370
    25
100
AcDbLine
 10
-2.1226497308
 20
225.4897372724
 30
0.0
 11
-2.4113248654
 21
225.5593238229
 31
0.0
  0
LINE
  5
5F4
330
1B
100
AcDbEntity
  8
0
  6
Continuous
 62
     7
370
    25
100
AcDbLine
 10
-1.3113248654
 20
225.2941634528
 30
0.0
 11
-1.8886751346
 21
225.2941634528
 31
0.0
  0
LINE
  5
5F5
330
1B
100
AcDbEntity
  8
0
  6
Continuous
 62
     7
370
    25
100
AcDbLine
 10
-1.8886751346
 20
225.2941634528
 30
0.0
 11
-2.1773502692
 21
225.2245769023
 31
0.0
  0
LINE
  5
5F6
330
1B
100
AcDbEntity
  8
0
  6
Continuous
 62
     7
370
    25
100
AcDbLine
 10
-2.1773502692
 20
225.2245769023
 30
0.0
 11
-1.8886751346
 21
225.1549903518
 31
0.0
  0
LINE
  5
5F7
330
1B
100
AcDbEntity
  8
0
  6
Continuous
 62
     7
370
    25
100
AcDbLine
 10
-1.8886751346
 20
225.1549903518
 30
0.0
 11
-1.3113248654
 21
225.1549903518
 31
0.0
  0
LINE
  5
5F8
330
1B
100
AcDbEntity
  8
0
  6
Continuous
 62
     7
370
    25
100
AcDbLine
 10
-1.3113248654
 20
225.1549903518
 30
0.0
 11
-1.0226497308
 21
225.2245769023
 31
0.0
  0
LINE
  5
5F9
330
1B
100
AcDbEntity
  8
0
  6
Continuous
 62
     7
370
    25
100
AcDbLine
 10
-1.0226497308
 20
225.2245769023
 30
0.0
 11
-1.3113248654
 21
225.2941634528
 31
0.0
  0
LINE
  5
5FA
330
1B
100
AcDbEntity
  8
0
  6
Continuous
 62
     7
370
    25
100
AcDbLine
 10
-0.2113248654
 20
225.0290030827
 30
0.0
 11
-0.7886751346
 21
225.0290030827
 31
0.0
  0
LINE
  5
5FB
330
1B
100
AcDbEntity
  8
0
  6
Continuous
 62
     7
370
    25
100
AcDbLine
 10
-0.7886751346
 20
225.0290030827
 30
0.0
 11
-1.0773502692
 21
224.9594165322
 31
0.0
  0
LINE
  5
5FC
330
1B
100
AcDbEntity
  8
0
  6
Continuous
 62
     7
370
    25
100
AcDbLine
 10
-1.0773502692
 20
224.9594165322
 30
0.0
 11
-0.7886751346
 21
224.8898299817
 31
0.0
  0
LINE
  5
5FD
330
1B
100
AcDbEntity
  8
0
  6
Continuous
 62
     7
370
    25
100
AcDbLine
 10
-0.7886751346
 20
224.8898299817
 30
0.0
 11
-0.2113248654
 21
224.8898299817
 31
0.0
  0
LINE
  5
5FE
330
1B
100
AcDbEntity
  8
0
  6
Continuous
 62
     7
370
    25
100
AcDbLine
 10
-0.2113248654
 20
224.8898299817
 30
0.0
 11
0.0773502692
 21
224.9594165322
 31
0.0
  0
LINE
  5
5FF
330
1B
100
AcDbEntity
  8
0
  6
Continuous
 62
     7
370
    25
100
AcDbLine
 10
0.0773502692
 20
224.9594165322
 30
0.0
 11
-0.2113248654
 21
225.0290030827
 31
0.0
  0
LINE
  5
600
330
1B
100
AcDbEntity
  8
0
  6
Continuous
 62
     7
370
    25
100
AcDbLine
 10
-1.3113248654
 20
224.7638427125
 30
0.0
 11
-1.8886751346
 21
224.7638427125
 31
0.0
  0
LINE
  5
601
330
1B
100
AcDbEntity
  8
0
  6
Continuous
 62
     7
370
    25
100
AcDbLine
 10
-1.8886751346
 20
224.7638427125
 30
0.0
 11
-2.1773502692
 21
224.6942561621
 31
0.0
  0
LINE
  5
602
330
1B
100
AcDbEntity
  8
0
  6
Continuous
 62
     7
370
    25
100
AcDbLine
 10
-2.1773502692
 20
224.6942561621
 30
0.0
 11
-1.8886751346
 21
224.6246696116
 31
0.0
  0
LINE
  5
603
330
1B
100
AcDbEntity
  8
0
  6
Continuous
 62
     7
370
    25
100
AcDbLine
 10
-1.8886751346
 20
224.6246696116
 30
0.0
 11
-1.3113248654
 21
224.6246696116
 31
0.0
  0
LINE
  5
604
330
1B
100
AcDbEntity
  8
0
  6
Continuous
 62
     7
370
    25
100
AcDbLine
 10
-1.3113248654
 20
224.6246696116
 30
0.0
 11
-1.0226497308
 21
224.6942561621
 31
0.0
  0
LINE
  5
605
330
1B
100
AcDbEntity
  8
0
  6
Continuous
 62
     7
370
    25
100
AcDbLine
 10
-1.0226497308
 20
224.6942561621
 30
0.0
 11
-1.3113248654
 21
224.7638427125
 31
0.0
  0
LINE
  5
606
330
1B
100
AcDbEntity
  8
0
  6
Continuous
 62
     7
370
    25
100
AcDbLine
 10
-2.4113248654
 20
224.4986823424
 30
0.0
 11
-2.9886751346
 21
224.4986823424
 31
0.0
  0
LINE
  5
607
330
1B
100
AcDbEntity
  8
0
  6
Continuous
 62
     7
370
    25
100
AcDbLine
 10
-2.9886751346
 20
224.4986823424
 30
0.0
 11
-3.2773502692
 21
224.429095792
 31
0.0
  0
LINE
  5
608
330
1B
100
AcDbEntity
  8
0
  6
Continuous
 62
     7
370
    25
100
AcDbLine
 10
-3.2773502692
 20
224.429095792
 30
0.0
 11
-2.9886751346
 21
224.3595092415
 31
0.0
  0
LINE
  5
609
330
1B
100
AcDbEntity
  8
0
  6
Continuous
 62
     7
370
    25
100
AcDbLine
 10
-2.9886751346
 20
224.3595092415
 30
0.0
 11
-2.4113248654
 21
224.3595092415
 31
0.0
  0
LINE
  5
60A
330
1B
100
AcDbEntity
  8
0
  6
Continuous
 62
     7
370
    25
100
AcDbLine
 10
-2.4113248654
 20
224.3595092415
 30
0.0
 11
-2.1226497308
 21
224.429095792
 31
0.0
  0
LINE
  5
60B
330
1B
100
AcDbEntity
  8
0
  6
Continuous
 62
     7
370
    25
100
AcDbLine
 10
-2.1226497308
 20
224.429095792
 30
0.0
 11
-2.4113248654
 21
224.4986823424
 31
0.0
  0
LINE
  5
60C
330
1B
100
AcDbEntity
  8
0
  6
Continuous
 62
     7
370
    25
100
AcDbLine
 10
-3.5113248654
 20
224.2335219723
 30
0.0
 11
-4.0886751346
 21
224.2335219723
 31
0.0
  0
LINE
  5
60D
330
1B
100
AcDbEntity
  8
0
  6
Continuous
 62
     7
370
    25
100
AcDbLine
 10
-4.0886751346
 20
224.2335219723
 30
0.0
 11
-4.3773502692
 21
224.1639354219
 31
0.0
  0
LINE
  5
60E
330
1B
100
AcDbEntity
  8
0
  6
Continuous
 62
     7
370
    25
100
AcDbLine
 10
-4.3773502692
 20
224.1639354219
 30
0.0
 11
-4.0886751346
 21
224.0943488714
 31
0.0
  0
LINE
  5
60F
330
1B
100
AcDbEntity
  8
0
  6
Continuous
 62
     7
370
    25
100
AcDbLine
 10
-4.0886751346
 20
224.0943488714
 30
0.0
 11
-3.5113248654
 21
224.0943488714
 31
0.0
  0
LINE
  5
610
330
1B
100
AcDbEntity
  8
0
  6
Continuous
 62
     7
370
    25
100
AcDbLine
 10
-3.5113248654
 20
224.0943488714
 30
0.0
 11
-3.2226497308
 21
224.1639354219
 31
0.0
  0
LINE
  5
611
330
1B
100
AcDbEntity
  8
0
  6
Continuous
 62
     7
370
    25
100
AcDbLine
 10
-3.2226497308
 20
224.1639354219
 30
0.0
 11
-3.5113248654
 21
224.2335219723
 31
0.0
  0
LINE
  5
612
330
1B
100
AcDbEntity
  8
0
  6
Continuous
 62
     7
370
    25
100
AcDbLine
 10
-5.7113248654
 20
224.2335219723
 30
0.0
 11
-6.2886751346
 21
224.2335219723
 31
0.0
  0
LINE
  5
613
330
1B
100
AcDbEntity
  8
0
  6
Continuous
 62
     7
370
    25
100
AcDbLine
 10
-6.2886751346
 20
224.2335219723
 30
0.0
 11
-6.5773502692
 21
224.1639354219
 31
0.0
  0
LINE
  5
614
330
1B
100
AcDbEntity
  8
0
  6
Continuous
 62
     7
370
    25
100
AcDbLine
 10
-6.5773502692
 20
224.1639354219
 30
0.0
 11
-6.2886751346
 21
224.0943488714
 31
0.0
  0
LINE
  5
615
330
1B
100
AcDbEntity
  8
0
  6
Continuous
 62
     7
370
    25
100
AcDbLine
 10
-6.2886751346
 20
224.0943488714
 30
0.0
 11
-5.7113248654
 21
224.0943488714
 31
0.0
  0
LINE
  5
616
330
1B
100
AcDbEntity
  8
0
  6
Continuous
 62
     7
370
    25
100
AcDbLine
 10
-5.7113248654
 20
224.0943488714
 30
0.0
 11
-5.4226497308
 21
224.1639354219
 31
0.0
  0
LINE
  5
617
330
1B
100
AcDbEntity
  8
0
  6
Continuous
 62
     7
370
    25
100
AcDbLine
 10
-5.4226497308
 20
224.1639354219
 30
0.0
 11
-5.7113248654
 21
224.2335219723
 31
0.0
  0
LINE
  5
618
330
1B
100
AcDbEntity
  8
0
  6
Continuous
 62
     7
370
    25
100
AcDbLine
 10
-7.9113248654
 20
224.2335219723
 30
0.0
 11
-8.4886751346
 21
224.2335219723
 31
0.0
  0
LINE
  5
619
330
1B
100
AcDbEntity
  8
0
  6
Continuous
 62
     7
370
    25
100
AcDbLine
 10
-8.4886751346
 20
224.2335219723
 30
0.0
 11
-8.7773502692
 21
224.1639354219
 31
0.0
  0
LINE
  5
61A
330
1B
100
AcDbEntity
  8
0
  6
Continuous
 62
     7
370
    25
100
AcDbLine
 10
-8.7773502692
 20
224.1639354219
 30
0.0
 11
-8.4886751346
 21
224.0943488714
 31
0.0
  0
LINE
  5
61B
330
1B
100
AcDbEntity
  8
0
  6
Continuous
 62
     7
370
    25
100
AcDbLine
 10
-8.4886751346
 20
224.0943488714
 30
0.0
 11
-7.9113248654
 21
224.0943488714
 31
0.0
  0
LINE
  5
61C
330
1B
100
AcDbEntity
  8
0
  6
Continuous
 62
     7
370
    25
100
AcDbLine
 10
-7.9113248654
 20
224.0943488714
 30
0.0
 11
-7.6226497308
 21
224.1639354219
 31
0.0
  0
LINE
  5
61D
330
1B
100
AcDbEntity
  8
0
  6
Continuous
 62
     7
370
    25
100
AcDbLine
 10
-7.6226497308
 20
224.1639354219
 30
0.0
 11
-7.9113248654
 21
224.2335219723
 31
0.0
  0
LINE
  5
61E
330
1B
100
AcDbEntity
  8
0
  6
Continuous
 62
     7
370
    25
100
AcDbLine
 10
-11.2113248654
 20
224.4986823424
 30
0.0
 11
-11.7886751346
 21
224.4986823424
 31
0.0
  0
LINE
  5
61F
330
1B
100
AcDbEntity
  8
0
  6
Continuous
 62
     7
370
    25
100
AcDbLine
 10
-11.7886751346
 20
224.4986823424
 30
0.0
 11
-12.0773502692
 21
224.429095792
 31
0.0
  0
LINE
  5
620
330
1B
100
AcDbEntity
  8
0
  6
Continuous
 62
     7
370
    25
100
AcDbLine
 10
-12.0773502692
 20
224.429095792
 30
0.0
 11
-11.7886751346
 21
224.3595092415
 31
0.0
  0
LINE
  5
621
330
1B
100
AcDbEntity
  8
0
  6
Continuous
 62
     7
370
    25
100
AcDbLine
 10
-11.7886751346
 20
224.3595092415
 30
0.0
 11
-11.2113248654
 21
224.3595092415
 31
0.0
  0
LINE
  5
622
330
1B
100
AcDbEntity
  8
0
  6
Continuous
 62
     7
370
    25
100
AcDbLine
 10
-11.2113248654
 20
224.3595092415
 30
0.0
 11
-10.9226497308
 21
224.429095792
 31
0.0
  0
LINE
  5
623
330
1B
100
AcDbEntity
  8
0
  6
Continuous
 62
     7
370
    25
100
AcDbLine
 10
-10.9226497308
 20
224.429095792
 30
0.0
 11
-11.2113248654
 21
224.4986823424
 31
0.0
  0
LINE
  5
624
330
1B
100
AcDbEntity
  8
0
  6
Continuous
 62
     7
370
    25
100
AcDbLine
 10
-12.3113248654
 20
224.7638427125
 30
0.0
 11
-12.8886751346
 21
224.7638427125
 31
0.0
  0
LINE
  5
625
330
1B
100
AcDbEntity
  8
0
  6
Continuous
 62
     7
370
    25
100
AcDbLine
 10
-12.8886751346
 20
224.7638427125
 30
0.0
 11
-13.1773502692
 21
224.6942561621
 31
0.0
  0
LINE
  5
626
330
1B
100
AcDbEntity
  8
0
  6
Continuous
 62
     7
370
    25
100
AcDbLine
 10
-13.1773502692
 20
224.6942561621
 30
0.0
 11
-12.8886751346
 21
224.6246696116
 31
0.0
  0
LINE
  5
627
330
1B
100
AcDbEntity
  8
0
  6
Continuous
 62
     7
370
    25
100
AcDbLine
 10
-12.8886751346
 20
224.6246696116
 30
0.0
 11
-12.3113248654
 21
224.6246696116
 31
0.0
  0
LINE
  5
628
330
1B
100
AcDbEntity
  8
0
  6
Continuous
 62
     7
370
    25
100
AcDbLine
 10
-12.3113248654
 20
224.6246696116
 30
0.0
 11
-12.0226497308
 21
224.6942561621
 31
0.0
  0
LINE
  5
629
330
1B
100
AcDbEntity
  8
0
  6
Continuous
 62
     7
370
    25
100
AcDbLine
 10
-12.0226497308
 20
224.6942561621
 30
0.0
 11
-12.3113248654
 21
224.7638427125
 31
0.0
  0
LINE
  5
62A
330
1B
100
AcDbEntity
  8
0
  6
Continuous
 62
     7
370
    25
100
AcDbLine
 10
-10.1113248654
 20
225.2941634528
 30
0.0
 11
-10.6886751346
 21
225.2941634528
 31
0.0
  0
LINE
  5
62B
330
1B
100
AcDbEntity
  8
0
  6
Continuous
 62
     7
370
    25
100
AcDbLine
 10
-10.6886751346
 20
225.2941634528
 30
0.0
 11
-10.9773502692
 21
225.2245769023
 31
0.0
  0
LINE
  5
62C
330
1B
100
AcDbEntity
  8
0
  6
Continuous
 62
     7
370
    25
100
AcDbLine
 10
-10.9773502692
 20
225.2245769023
 30
0.0
 11
-10.6886751346
 21
225.1549903518
 31
0.0
  0
LINE
  5
62D
330
1B
100
AcDbEntity
  8
0
  6
Continuous
 62
     7
370
    25
100
AcDbLine
 10
-10.6886751346
 20
225.1549903518
 30
0.0
 11
-10.1113248654
 21
225.1549903518
 31
0.0
  0
LINE
  5
62E
330
1B
100
AcDbEntity
  8
0
  6
Continuous
 62
     7
370
    25
100
AcDbLine
 10
-10.1113248654
 20
225.1549903518
 30
0.0
 11
-9.8226497308
 21
225.2245769023
 31
0.0
  0
LINE
  5
62F
330
1B
100
AcDbEntity
  8
0
  6
Continuous
 62
     7
370
    25
100
AcDbLine
 10
-9.8226497308
 20
225.2245769023
 30
0.0
 11
-10.1113248654
 21
225.2941634528
 31
0.0
  0
LINE
  5
630
330
1B
100
AcDbEntity
  8
0
  6
Continuous
 62
     7
370
    25
100
AcDbLine
 10
-9.0113248654
 20
225.5593238229
 30
0.0
 11
-9.5886751346
 21
225.5593238229
 31
0.0
  0
LINE
  5
631
330
1B
100
AcDbEntity
  8
0
  6
Continuous
 62
     7
370
    25
100
AcDbLine
 10
-9.5886751346
 20
225.5593238229
 30
0.0
 11
-9.8773502692
 21
225.4897372724
 31
0.0
  0
LINE
  5
632
330
1B
100
AcDbEntity
  8
0
  6
Continuous
 62
     7
370
    25
100
AcDbLine
 10
-9.8773502692
 20
225.4897372724
 30
0.0
 11
-9.5886751346
 21
225.4201507219
 31
0.0
  0
LINE
  5
633
330
1B
100
AcDbEntity
  8
0
  6
Continuous
 62
     7
370
    25
100
AcDbLine
 10
-9.5886751346
 20
225.4201507219
 30
0.0
 11
-9.0113248654
 21
225.4201507219
 31
0.0
  0
LINE
  5
634
330
1B
100
AcDbEntity
  8
0
  6
Continuous
 62
     7
370
    25
100
AcDbLine
 10
-9.0113248654
 20
225.4201507219
 30
0.0
 11
-8.7226497308
 21
225.4897372724
 31
0.0
  0
LINE
  5
635
330
1B
100
AcDbEntity
  8
0
  6
Continuous
 62
     7
370
    25
100
AcDbLine
 10
-8.7226497308
 20
225.4897372724
 30
0.0
 11
-9.0113248654
 21
225.5593238229
 31
0.0
  0
LINE
  5
636
330
1B
100
AcDbEntity
  8
0
  6
Continuous
 62
     7
370
    25
100
AcDbLine
 10
-6.8113248654
 20
225.5593238229
 30
0.0
 11
-7.3886751346
 21
225.5593238229
 31
0.0
  0
LINE
  5
637
330
1B
100
AcDbEntity
  8
0
  6
Continuous
 62
     7
370
    25
100
AcDbLine
 10
-7.3886751346
 20
225.5593238229
 30
0.0
 11
-7.6773502692
 21
225.4897372724
 31
0.0
  0
LINE
  5
638
330
1B
100
AcDbEntity
  8
0
  6
Continuous
 62
     7
370
    25
100
AcDbLine
 10
-7.6773502692
 20
225.4897372724
 30
0.0
 11
-7.3886751346
 21
225.4201507219
 31
0.0
  0
LINE
  5
639
330
1B
100
AcDbEntity
  8
0
  6
Continuous
 62
     7
370
    25
100
AcDbLine
 10
-7.3886751346
 20
225.4201507219
 30
0.0
 11
-6.8113248654
 21
225.4201507219
 31
0.0
  0
LINE
  5
63A
330
1B
100
AcDbEntity
  8
0
  6
Continuous
 62
     7
370
    25
100
AcDbLine
 10
-6.8113248654
 20
225.4201507219
 30
0.0
 11
-6.5226497308
 21
225.4897372724
 31
0.0
  0
LINE
  5
63B
330
1B
100
AcDbEntity
  8
0
  6
Continuous
 62
     7
370
    25
100
AcDbLine
 10
-6.5226497308
 20
225.4897372724
 30
0.0
 11
-6.8113248654
 21
225.5593238229
 31
0.0
  0
LINE
  5
63C
330
1B
100
AcDbEntity
  8
0
  6
Continuous
 62
     7
370
    25
100
AcDbLine
 10
-4.6113248654
 20
225.5593238229
 30
0.0
 11
-5.1886751346
 21
225.5593238229
 31
0.0
  0
LINE
  5
63D
330
1B
100
AcDbEntity
  8
0
  6
Continuous
 62
     7
370
    25
100
AcDbLine
 10
-5.1886751346
 20
225.5593238229
 30
0.0
 11
-5.4773502692
 21
225.4897372724
 31
0.0
  0
LINE
  5
63E
330
1B
100
AcDbEntity
  8
0
  6
Continuous
 62
     7
370
    25
100
AcDbLine
 10
-5.4773502692
 20
225.4897372724
 30
0.0
 11
-5.1886751346
 21
225.4201507219
 31
0.0
  0
LINE
  5
63F
330
1B
100
AcDbEntity
  8
0
  6
Continuous
 62
     7
370
    25
100
AcDbLine
 10
-5.1886751346
 20
225.4201507219
 30
0.0
 11
-4.6113248654
 21
225.4201507219
 31
0.0
  0
LINE
  5
640
330
1B
100
AcDbEntity
  8
0
  6
Continuous
 62
     7
370
    25
100
AcDbLine
 10
-4.6113248654
 20
225.4201507219
 30
0.0
 11
-4.3226497308
 21
225.4897372724
 31
0.0
  0
LINE
  5
641
330
1B
100
AcDbEntity
  8
0
  6
Continuous
 62
     7
370
    25
100
AcDbLine
 10
-4.3226497308
 20
225.4897372724
 30
0.0
 11
-4.6113248654
 21
225.5593238229
 31
0.0
  0
LINE
  5
642
330
1B
100
AcDbEntity
  8
0
  6
Continuous
 62
     7
370
    25
100
AcDbLine
 10
-3.5113248654
 20
225.2941634528
 30
0.0
 11
-4.0886751346
 21
225.2941634528
 31
0.0
  0
LINE
  5
643
330
1B
100
AcDbEntity
  8
0
  6
Continuous
 62
     7
370
    25
100
AcDbLine
 10
-4.0886751346
 20
225.2941634528
 30
0.0
 11
-4.3773502692
 21
225.2245769023
 31
0.0
  0
LINE
  5
644
330
1B
100
AcDbEntity
  8
0
  6
Continuous
 62
     7
370
    25
100
AcDbLine
 10
-4.3773502692
 20
225.2245769023
 30
0.0
 11
-4.0886751346
 21
225.1549903518
 31
0.0
  0
LINE
  5
645
330
1B
100
AcDbEntity
  8
0
  6
Continuous
 62
     7
370
    25
100
AcDbLine
 10
-4.0886751346
 20
225.1549903518
 30
0.0
 11
-3.5113248654
 21
225.1549903518
 31
0.0
  0
LINE
  5
646
330
1B
100
AcDbEntity
  8
0
  6
Continuous
 62
     7
370
    25
100
AcDbLine
 10
-3.5113248654
 20
225.1549903518
 30
0.0
 11
-3.2226497308
 21
225.2245769023
 31
0.0
  0
LINE
  5
647
330
1B
100
AcDbEntity
  8
0
  6
Continuous
 62
     7
370
    25
100
AcDbLine
 10
-3.2226497308
 20
225.2245769023
 30
0.0
 11
-3.5113248654
 21
225.2941634528
 31
0.0
  0
LINE
  5
648
330
1B
100
AcDbEntity
  8
0
  6
Continuous
 62
     7
370
    25
100
AcDbLine
 10
-2.4113248654
 20
225.0290030827
 30
0.0
 11
-2.9886751346
 21
225.0290030827
 31
0.0
  0
LINE
  5
649
330
1B
100
AcDbEntity
  8
0
  6
Continuous
 62
     7
370
    25
100
AcDbLine
 10
-2.9886751346
 20
225.0290030827
 30
0.0
 11
-3.2773502692
 21
224.9594165322
 31
0.0
  0
LINE
  5
64A
330
1B
100
AcDbEntity
  8
0
  6
Continuous
 62
     7
370
    25
100
AcDbLine
 10
-3.2773502692
 20
224.9594165322
 30
0.0
 11
-2.9886751346
 21
224.8898299817
 31
0.0
  0
LINE
  5
64B
330
1B
100
AcDbEntity
  8
0
  6
Continuous
 62
     7
370
    25
100
AcDbLine
 10
-2.9886751346
 20
224.8898299817
 30
0.0
 11
-2.4113248654
 21
224.8898299817
 31
0.0
  0
LINE
  5
64C
330
1B
100
AcDbEntity
  8
0
  6
Continuous
 62
     7
370
    25
100
AcDbLine
 10
-2.4113248654
 20
224.8898299817
 30
0.0
 11
-2.1226497308
 21
224.9594165322
 31
0.0
  0
LINE
  5
64D
330
1B
100
AcDbEntity
  8
0
  6
Continuous
 62
     7
370
    25
100
AcDbLine
 10
-2.1226497308
 20
224.9594165322
 30
0.0
 11
-2.4113248654
 21
225.0290030827
 31
0.0
  0
LINE
  5
64E
330
1B
100
AcDbEntity
  8
0
  6
Continuous
 62
     7
370
    25
100
AcDbLine
 10
-3.5113248654
 20
224.7638427125
 30
0.0
 11
-4.0886751346
 21
224.7638427125
 31
0.0
  0
LINE
  5
64F
330
1B
100
AcDbEntity
  8
0
  6
Continuous
 62
     7
370
    25
100
AcDbLine
 10
-4.0886751346
 20
224.7638427125
 30
0.0
 11
-4.3773502692
 21
224.6942561621
 31
0.0
  0
LINE
  5
650
330
1B
100
AcDbEntity
  8
0
  6
Continuous
 62
     7
370
    25
100
AcDbLine
 10
-4.3773502692
 20
224.6942561621
 30
0.0
 11
-4.0886751346
 21
224.6246696116
 31
0.0
  0
LINE
  5
651
330
1B
100
AcDbEntity
  8
0
  6
Continuous
 62
     7
370
    25
100
AcDbLine
 10
-4.0886751346
 20
224.6246696116
 30
0.0
 11
-3.5113248654
 21
224.6246696116
 31
0.0
  0
LINE
  5
652
330
1B
100
AcDbEntity
  8
0
  6
Continuous
 62
     7
370
    25
100
AcDbLine
 10
-3.5113248654
 20
224.6246696116
 30
0.0
 11
-3.2226497308
 21
224.6942561621
 31
0.0
  0
LINE
  5
653
330
1B
100
AcDbEntity
  8
0
  6
Continuous
 62
     7
370
    25
100
AcDbLine
 10
-3.2226497308
 20
224.6942561621
 30
0.0
 11
-3.5113248654
 21
224.7638427125
 31
0.0
  0
LINE
  5
654
330
1B
100
AcDbEntity
  8
0
  6
Continuous
 62
     7
370
    25
100
AcDbLine
 10
-4.6113248654
 20
224.4986823424
 30
0.0
 11
-5.1886751346
 21
224.4986823424
 31
0.0
  0
LINE
  5
655
330
1B
100
AcDbEntity
  8
0
  6
Continuous
 62
     7
370
    25
100
AcDbLine
 10
-5.1886751346
 20
224.4986823424
 30
0.0
 11
-5.4773502692
 21
224.429095792
 31
0.0
  0
LINE
  5
656
330
1B
100
AcDbEntity
  8
0
  6
Continuous
 62
     7
370
    25
100
AcDbLine
 10
-5.4773502692
 20
224.429095792
 30
0.0
 11
-5.1886751346
 21
224.3595092415
 31
0.0
  0
LINE
  5
657
330
1B
100
AcDbEntity
  8
0
  6
Continuous
 62
     7
370
    25
100
AcDbLine
 10
-5.1886751346
 20
224.3595092415
 30
0.0
 11
-4.6113248654
 21
224.3595092415
 31
0.0
  0
LINE
  5
658
330
1B
100
AcDbEntity
  8
0
  6
Continuous
 62
     7
370
    25
100
AcDbLine
 10
-4.6113248654
 20
224.3595092415
 30
0.0
 11
-4.3226497308
 21
224.429095792
 31
0.0
  0
LINE
  5
659
330
1B
100
AcDbEntity
  8
0
  6
Continuous
 62
     7
370
    25
100
AcDbLine
 10
-4.3226497308
 20
224.429095792
 30
0.0
 11
-4.6113248654
 21
224.4986823424
 31
0.0
  0
LINE
  5
65A
330
1B
100
AcDbEntity
  8
0
  6
Continuous
 62
     7
370
    25
100
AcDbLine
 10
-6.8113248654
 20
224.4986823424
 30
0.0
 11
-7.3886751346
 21
224.4986823424
 31
0.0
  0
LINE
  5
65B
330
1B
100
AcDbEntity
  8
0
  6
Continuous
 62
     7
370
    25
100
AcDbLine
 10
-7.3886751346
 20
224.4986823424
 30
0.0
 11
-7.6773502692
 21
224.429095792
 31
0.0
  0
LINE
  5
65C
330
1B
100
AcDbEntity
  8
0
  6
Continuous
 62
     7
370
    25
100
AcDbLine
 10
-7.6773502692
 20
224.429095792
 30
0.0
 11
-7.3886751346
 21
224.3595092415
 31
0.0
  0
LINE
  5
65D
330
1B
100
AcDbEntity
  8
0
  6
Continuous
 62
     7
370
    25
100
AcDbLine
 10
-7.3886751346
 20
224.3595092415
 30
0.0
 11
-6.8113248654
 21
224.3595092415
 31
0.0
  0
LINE
  5
65E
330
1B
100
AcDbEntity
  8
0
  6
Continuous
 62
     7
370
    25
100
AcDbLine
 10
-6.8113248654
 20
224.3595092415
 30
0.0
 11
-6.5226497308
 21
224.429095792
 31
0.0
  0
LINE
  5
65F
330
1B
100
AcDbEntity
  8
0
  6
Continuous
 62
     7
370
    25
100
AcDbLine
 10
-6.5226497308
 20
224.429095792
 30
0.0
 11
-6.8113248654
 21
224.4986823424
 31
0.0
  0
LINE
  5
660
330
1B
100
AcDbEntity
  8
0
  6
Continuous
 62
     7
370
    25
100
AcDbLine
 10
-9.0113248654
 20
224.4986823424
 30
0.0
 11
-9.5886751346
 21
224.4986823424
 31
0.0
  0
LINE
  5
661
330
1B
100
AcDbEntity
  8
0
  6
Continuous
 62
     7
370
    25
100
AcDbLine
 10
-9.5886751346
 20
224.4986823424
 30
0.0
 11
-9.8773502692
 21
224.429095792
 31
0.0
  0
LINE
  5
662
330
1B
100
AcDbEntity
  8
0
  6
Continuous
 62
     7
370
    25
100
AcDbLine
 10
-9.8773502692
 20
224.429095792
 30
0.0
 11
-9.5886751346
 21
224.3595092415
 31
0.0
  0
LINE
  5
663
330
1B
100
AcDbEntity
  8
0
  6
Continuous
 62
     7
370
    25
100
AcDbLine
 10
-9.5886751346
 20
224.3595092415
 30
0.0
 11
-9.0113248654
 21
224.3595092415
 31
0.0
  0
LINE
  5
664
330
1B
100
AcDbEntity
  8
0
  6
Continuous
 62
     7
370
    25
100
AcDbLine
 10
-9.0113248654
 20
224.3595092415
 30
0.0
 11
-8.7226497308
 21
224.429095792
 31
0.0
  0
LINE
  5
665
330
1B
100
AcDbEntity
  8
0
  6
Continuous
 62
     7
370
    25
100
AcDbLine
 10
-8.7226497308
 20
224.429095792
 30
0.0
 11
-9.0113248654
 21
224.4986823424
 31
0.0
  0
LINE
  5
666
330
1B
100
AcDbEntity
  8
0
  6
Continuous
 62
     7
370
    25
100
AcDbLine
 10
-10.1113248654
 20
224.7638427125
 30
0.0
 11
-10.6886751346
 21
224.7638427125
 31
0.0
  0
LINE
  5
667
330
1B
100
AcDbEntity
  8
0
  6
Continuous
 62
     7
370
    25
100
AcDbLine
 10
-10.6886751346
 20
224.7638427125
 30
0.0
 11
-10.9773502692
 21
224.6942561621
 31
0.0
  0
LINE
  5
668
330
1B
100
AcDbEntity
  8
0
  6
Continuous
 62
     7
370
    25
100
AcDbLine
 10
-10.9773502692
 20
224.6942561621
 30
0.0
 11
-10.6886751346
 21
224.6246696116
 31
0.0
  0
LINE
  5
669
330
1B
100
AcDbEntity
  8
0
  6
Continuous
 62
     7
370
    25
100
AcDbLine
 10
-10.6886751346
 20
224.6246696116
 30
0.0
 11
-10.1113248654
 21
224.6246696116
 31
0.0
  0
LINE
  5
66A
330
1B
100
AcDbEntity
  8
0
  6
Continuous
 62
     7
370
    25
100
AcDbLine
 10
-10.1113248654
 20
224.6246696116
 30
0.0
 11
-9.8226497308
 21
224.6942561621
 31
0.0
  0
LINE
  5
66B
330
1B
100
AcDbEntity
  8
0
  6
Continuous
 62
     7
370
    25
100
AcDbLine
 10
-9.8226497308
 20
224.6942561621
 30
0.0
 11
-10.1113248654
 21
224.7638427125
 31
0.0
  0
LINE
  5
66C
330
1B
100
AcDbEntity
  8
0
  6
Continuous
 62
     7
370
    25
100
AcDbLine
 10
-11.2113248654
 20
225.0290030827
 30
0.0
 11
-11.7886751346
 21
225.0290030827
 31
0.0
  0
LINE
  5
66D
330
1B
100
AcDbEntity
  8
0
  6
Continuous
 62
     7
370
    25
100
AcDbLine
 10
-11.7886751346
 20
225.0290030827
 30
0.0
 11
-12.0773502692
 21
224.9594165322
 31
0.0
  0
LINE
  5
66E
330
1B
100
AcDbEntity
  8
0
  6
Continuous
 62
     7
370
    25
100
AcDbLine
 10
-12.0773502692
 20
224.9594165322
 30
0.0
 11
-11.7886751346
 21
224.8898299817
 31
0.0
  0
LINE
  5
66F
330
1B
100
AcDbEntity
  8
0
  6
Continuous
 62
     7
370
    25
100
AcDbLine
 10
-11.7886751346
 20
224.8898299817
 30
0.0
 11
-11.2113248654
 21
224.8898299817
 31
0.0
  0
LINE
  5
670
330
1B
100
AcDbEntity
  8
0
  6
Continuous
 62
     7
370
    25
100
AcDbLine
 10
-11.2113248654
 20
224.8898299817
 30
0.0
 11
-10.9226497308
 21
224.9594165322
 31
0.0
  0
LINE
  5
671
330
1B
100
AcDbEntity
  8
0
  6
Continuous
 62
     7
370
    25
100
AcDbLine
 10
-10.9226497308
 20
224.9594165322
 30
0.0
 11
-11.2113248654
 21
225.0290030827
 31
0.0
  0
LINE
  5
672
330
1B
100
AcDbEntity
  8
0
  6
Continuous
 62
     7
370
    25
100
AcDbLine
 10
-7.9113248654
 20
225.2941634528
 30
0.0
 11
-8.4886751346
 21
225.2941634528
 31
0.0
  0
LINE
  5
673
330
1B
100
AcDbEntity
  8
0
  6
Continuous
 62
     7
370
    25
100
AcDbLine
 10
-8.4886751346
 20
225.2941634528
 30
0.0
 11
-8.7773502692
 21
225.2245769023
 31
0.0
  0
LINE
  5
674
330
1B
100
AcDbEntity
  8
0
  6
Continuous
 62
     7
370
    25
100
AcDbLine
 10
-8.7773502692
 20
225.2245769023
 30
0.0
 11
-8.4886751346
 21
225.1549903518
 31
0.0
  0
LINE
  5
675
330
1B
100
AcDbEntity
  8
0
  6
Continuous
 62
     7
370
    25
100
AcDbLine
 10
-8.4886751346
 20
225.1549903518
 30
0.0
 11
-7.9113248654
 21
225.1549903518
 31
0.0
  0
LINE
  5
676
330
1B
100
AcDbEntity
  8
0
  6
Continuous
 62
     7
370
    25
100
AcDbLine
 10
-7.9113248654
 20
225.1549903518
 30
0.0
 11
-7.6226497308
 21
225.2245769023
 31
0.0
  0
LINE
  5
677
330
1B
100
AcDbEntity
  8
0
  6
Continuous
 62
     7
370
    25
100
AcDbLine
 10
-7.6226497308
 20
225.2245769023
 30
0.0
 11
-7.9113248654
 21
225.2941634528
 31
0.0
  0
LINE
  5
678
330
1B
100
AcDbEntity
  8
0
  6
Continuous
 62
     7
370
    25
100
AcDbLine
 10
-5.7113248654
 20
225.2941634528
 30
0.0
 11
-6.2886751346
 21
225.2941634528
 31
0.0
  0
LINE
  5
679
330
1B
100
AcDbEntity
  8
0
  6
Continuous
 62
     7
370
    25
100
AcDbLine
 10
-6.2886751346
 20
225.2941634528
 30
0.0
 11
-6.5773502692
 21
225.2245769023
 31
0.0
  0
LINE
  5
67A
330
1B
100
AcDbEntity
  8
0
  6
Continuous
 62
     7
370
    25
100
AcDbLine
 10
-6.5773502692
 20
225.2245769023
 30
0.0
 11
-6.2886751346
 21
225.1549903518
 31
0.0
  0
LINE
  5
67B
330
1B
100
AcDbEntity
  8
0
  6
Continuous
 62
     7
370
    25
100
AcDbLine
 10
-6.2886751346
 20
225.1549903518
 30
0.0
 11
-5.7113248654
 21
225.1549903518
 31
0.0
  0
LINE
  5
67C
330
1B
100
AcDbEntity
  8
0
  6
Continuous
 62
     7
370
    25
100
AcDbLine
 10
-5.7113248654
 20
225.1549903518
 30
0.0
 11
-5.4226497308
 21
225.2245769023
 31
0.0
  0
LINE
  5
67D
330
1B
100
AcDbEntity
  8
0
  6
Continuous
 62
     7
370
    25
100
AcDbLine
 10
-5.4226497308
 20
225.2245769023
 30
0.0
 11
-5.7113248654
 21
225.2941634528
 31
0.0
  0
LINE
  5
67E
330
1B
100
AcDbEntity
  8
0
  6
Continuous
 62
     7
370
    25
100
AcDbLine
 10
-4.6113248654
 20
225.0290030827
 30
0.0
 11
-5.1886751346
 21
225.0290030827
 31
0.0
  0
LINE
  5
67F
330
1B
100
AcDbEntity
  8
0
  6
Continuous
 62
     7
370
    25
100
AcDbLine
 10
-5.1886751346
 20
225.0290030827
 30
0.0
 11
-5.4773502692
 21
224.9594165322
 31
0.0
  0
LINE
  5
680
330
1B
100
AcDbEntity
  8
0
  6
Continuous
 62
     7
370
    25
100
AcDbLine
 10
-5.4773502692
 20
224.9594165322
 30
0.0
 11
-5.1886751346
 21
224.8898299817
 31
0.0
  0
LINE
  5
681
330
1B
100
AcDbEntity
  8
0
  6
Continuous
 62
     7
370
    25
100
AcDbLine
 10
-5.1886751346
 20
224.8898299817
 30
0.0
 11
-4.6113248654
 21
224.8898299817
 31
0.0
  0
LINE
  5
682
330
1B
100
AcDbEntity
  8
0
  6
Continuous
 62
     7
370
    25
100
AcDbLine
 10
-4.6113248654
 20
224.8898299817
 30
0.0
 11
-4.3226497308
 21
224.9594165322
 31
0.0
  0
LINE
  5
683
330
1B
100
AcDbEntity
  8
0
  6
Continuous
 62
     7
370
    25
100
AcDbLine
 10
-4.3226497308
 20
224.9594165322
 30
0.0
 11
-4.6113248654
 21
225.0290030827
 31
0.0
  0
LINE
  5
684
330
1B
100
AcDbEntity
  8
0
  6
Continuous
 62
     7
370
    25
100
AcDbLine
 10
-5.7113248654
 20
224.7638427125
 30
0.0
 11
-6.2886751346
 21
224.7638427125
 31
0.0
  0
LINE
  5
685
330
1B
100
AcDbEntity
  8
0
  6
Continuous
 62
     7
370
    25
100
AcDbLine
 10
-6.2886751346
 20
224.7638427125
 30
0.0
 11
-6.5773502692
 21
224.6942561621
 31
0.0
  0
LINE
  5
686
330
1B
100
AcDbEntity
  8
0
  6
Continuous
 62
     7
370
    25
100
AcDbLine
 10
-6.5773502692
 20
224.6942561621
 30
0.0
 11
-6.2886751346
 21
224.6246696116
 31
0.0
  0
LINE
  5
687
330
1B
100
AcDbEntity
  8
0
  6
Continuous
 62
     7
370
    25
100
AcDbLine
 10
-6.2886751346
 20
224.6246696116
 30
0.0
 11
-5.7113248654
 21
224.6246696116
 31
0.0
  0
LINE
  5
688
330
1B
100
AcDbEntity
  8
0
  6
Continuous
 62
     7
370
    25
100
AcDbLine
 10
-5.7113248654
 20
224.6246696116
 30
0.0
 11
-5.4226497308
 21
224.6942561621
 31
0.0
  0
LINE
  5
689
330
1B
100
AcDbEntity
  8
0
  6
Continuous
 62
     7
370
    25
100
AcDbLine
 10
-5.4226497308
 20
224.6942561621
 30
0.0
 11
-5.7113248654
 21
224.7638427125
 31
0.0
  0
LINE
  5
68A
330
1B
100
AcDbEntity
  8
0
  6
Continuous
 62
     7
370
    25
100
AcDbLine
 10
-7.9113248654
 20
224.7638427125
 30
0.0
 11
-8.4886751346
 21
224.7638427125
 31
0.0
  0
LINE
  5
68B
330
1B
100
AcDbEntity
  8
0
  6
Continuous
 62
     7
370
    25
100
AcDbLine
 10
-8.4886751346
 20
224.7638427125
 30
0.0
 11
-8.7773502692
 21
224.6942561621
 31
0.0
  0
LINE
  5
68C
330
1B
100
AcDbEntity
  8
0
  6
Continuous
 62
     7
370
    25
100
AcDbLine
 10
-8.7773502692
 20
224.6942561621
 30
0.0
 11
-8.4886751346
 21
224.6246696116
 31
0.0
  0
LINE
  5
68D
330
1B
100
AcDbEntity
  8
0
  6
Continuous
 62
     7
370
    25
100
AcDbLine
 10
-8.4886751346
 20
224.6246696116
 30
0.0
 11
-7.9113248654
 21
224.6246696116
 31
0.0
  0
LINE
  5
68E
330
1B
100
AcDbEntity
  8
0
  6
Continuous
 62
     7
370
    25
100
AcDbLine
 10
-7.9113248654
 20
224.6246696116
 30
0.0
 11
-7.6226497308
 21
224.6942561621
 31
0.0
  0
LINE
  5
68F
330
1B
100
AcDbEntity
  8
0
  6
Continuous
 62
     7
370
    25
100
AcDbLine
 10
-7.6226497308
 20
224.6942561621
 30
0.0
 11
-7.9113248654
 21
224.7638427125
 31
0.0
  0
LINE
  5
690
330
1B
100
AcDbEntity
  8
0
  6
Continuous
 62
     7
370
    25
100
AcDbLine
 10
-9.0113248654
 20
225.0290030827
 30
0.0
 11
-9.5886751346
 21
225.0290030827
 31
0.0
  0
LINE
  5
691
330
1B
100
AcDbEntity
  8
0
  6
Continuous
 62
     7
370
    25
100
AcDbLine
 10
-9.5886751346
 20
225.0290030827
 30
0.0
 11
-9.8773502692
 21
224.9594165322
 31
0.0
  0
LINE
  5
692
330
1B
100
AcDbEntity
  8
0
  6
Continuous
 62
     7
370
    25
100
AcDbLine
 10
-9.8773502692
 20
224.9594165322
 30
0.0
 11
-9.5886751346
 21
224.8898299817
 31
0.0
  0
LINE
  5
693
330
1B
100
AcDbEntity
  8
0
  6
Continuous
 62
     7
370
    25
100
AcDbLine
 10
-9.5886751346
 20
224.8898299817
 30
0.0
 11
-9.0113248654
 21
224.8898299817
 31
0.0
  0
LINE
  5
694
330
1B
100
AcDbEntity
  8
0
  6
Continuous
 62
     7
370
    25
100
AcDbLine
 10
-9.0113248654
 20
224.8898299817
 30
0.0
 11
-8.7226497308
 21
224.9594165322
 31
0.0
  0
LINE
  5
695
330
1B
100
AcDbEntity
  8
0
  6
Continuous
 62
     7
370
    25
100
AcDbLine
 10
-8.7226497308
 20
224.9594165322
 30
0.0
 11
-9.0113248654
 21
225.0290030827
 31
0.0
  0
LINE
  5
696
330
1B
100
AcDbEntity
  8
0
  6
Continuous
 62
     7
370
    25
100
AcDbLine
 10
-6.8113248654
 20
225.0290030827
 30
0.0
 11
-7.3886751346
 21
225.0290030827
 31
0.0
  0
LINE
  5
697
330
1B
100
AcDbEntity
  8
0
  6
Continuous
 62
     7
370
    25
100
AcDbLine
 10
-7.3886751346
 20
225.0290030827
 30
0.0
 11
-7.6773502692
 21
224.9594165322
 31
0.0
  0
LINE
  5
698
330
1B
100
AcDbEntity
  8
0
  6
Continuous
 62
     7
370
    25
100
AcDbLine
 10
-7.6773502692
 20
224.9594165322
 30
0.0
 11
-7.3886751346
 21
224.8898299817
 31
0.0
  0
LINE
  5
699
330
1B
100
AcDbEntity
  8
0
  6
Continuous
 62
     7
370
    25
100
AcDbLine
 10
-7.3886751346
 20
224.8898299817
 30
0.0
 11
-6.8113248654
 21
224.8898299817
 31
0.0
  0
LINE
  5
69A
330
1B
100
AcDbEntity
  8
0
  6
Continuous
 62
     7
370
    25
100
AcDbLine
 10
-6.8113248654
 20
224.8898299817
 30
0.0
 11
-6.5226497308
 21
224.9594165322
 31
0.0
  0
LINE
  5
69B
330
1B
100
AcDbEntity
  8
0
  6
Continuous
 62
     7
370
    25
100
AcDbLine
 10
-6.5226497308
 20
224.9594165322
 30
0.0
 11
-6.8113248654
 21
225.0290030827
 31
0.0
  0
LINE
  5
69C
330
1B
100
AcDbEntity
  8
0
  6
Continuous
 62
     7
370
    25
100
AcDbLine
 10
0.3113248654
 20
225.468129829
 30
0.0
 11
0.0226497308
 21
225.3985432785
 31
0.0
  0
LINE
  5
69D
330
1B
100
AcDbEntity
  8
0
  6
Continuous
 62
     7
370
    25
100
AcDbLine
 10
0.0226497308
 20
225.3985432785
 30
0.0
 11
0.3113248654
 21
225.328956728
 31
0.0
  0
LINE
  5
69E
330
1B
100
AcDbEntity
  8
0
  6
Continuous
 62
     7
370
    25
100
AcDbLine
 10
0.3113248654
 20
225.328956728
 30
0.0
 11
0.8886751346
 21
225.328956728
 31
0.0
  0
LINE
  5
69F
330
1B
100
AcDbEntity
  8
0
  6
Continuous
 62
     7
370
    25
100
AcDbLine
 10
0.8886751346
 20
225.328956728
 30
0.0
 11
1.1292366977
 21
225.3869452672
 31
0.0
  0
LINE
  5
6A0
330
1B
100
AcDbEntity
  8
0
  6
Continuous
 62
     7
370
    25
100
AcDbLine
 10
0.8886751346
 20
224.9378090887
 30
0.0
 11
0.3113248654
 21
224.9378090887
 31
0.0
  0
LINE
  5
6A1
330
1B
100
AcDbEntity
  8
0
  6
Continuous
 62
     7
370
    25
100
AcDbLine
 10
0.3113248654
 20
224.9378090887
 30
0.0
 11
0.0226497308
 21
224.8682225383
 31
0.0
  0
LINE
  5
6A2
330
1B
100
AcDbEntity
  8
0
  6
Continuous
 62
     7
370
    25
100
AcDbLine
 10
0.0226497308
 20
224.8682225383
 30
0.0
 11
0.3113248654
 21
224.7986359878
 31
0.0
  0
LINE
  5
6A3
330
1B
100
AcDbEntity
  8
0
  6
Continuous
 62
     7
370
    25
100
AcDbLine
 10
0.3113248654
 20
224.7986359878
 30
0.0
 11
0.8886751346
 21
224.7986359878
 31
0.0
  0
LINE
  5
6A4
330
1B
100
AcDbEntity
  8
0
  6
Continuous
 62
     7
370
    25
100
AcDbLine
 10
0.8886751346
 20
224.7986359878
 30
0.0
 11
1.1773502692
 21
224.8682225383
 31
0.0
  0
LINE
  5
6A5
330
1B
100
AcDbEntity
  8
0
  6
Continuous
 62
     7
370
    25
100
AcDbLine
 10
1.1773502692
 20
224.8682225383
 30
0.0
 11
0.8886751346
 21
224.9378090887
 31
0.0
  0
LINE
  5
6A6
330
1B
100
AcDbEntity
  8
0
  6
Continuous
 62
     7
370
    25
100
AcDbLine
 10
-0.2113248654
 20
224.6726487186
 30
0.0
 11
-0.7886751346
 21
224.6726487186
 31
0.0
  0
LINE
  5
6A7
330
1B
100
AcDbEntity
  8
0
  6
Continuous
 62
     7
370
    25
100
AcDbLine
 10
-0.7886751346
 20
224.6726487186
 30
0.0
 11
-1.0773502692
 21
224.6030621682
 31
0.0
  0
LINE
  5
6A8
330
1B
100
AcDbEntity
  8
0
  6
Continuous
 62
     7
370
    25
100
AcDbLine
 10
-1.0773502692
 20
224.6030621682
 30
0.0
 11
-0.7886751346
 21
224.5334756177
 31
0.0
  0
LINE
  5
6A9
330
1B
100
AcDbEntity
  8
0
  6
Continuous
 62
     7
370
    25
100
AcDbLine
 10
-0.7886751346
 20
224.5334756177
 30
0.0
 11
-0.2113248654
 21
224.5334756177
 31
0.0
  0
LINE
  5
6AA
330
1B
100
AcDbEntity
  8
0
  6
Continuous
 62
     7
370
    25
100
AcDbLine
 10
-0.2113248654
 20
224.5334756177
 30
0.0
 11
0.0773502692
 21
224.6030621682
 31
0.0
  0
LINE
  5
6AB
330
1B
100
AcDbEntity
  8
0
  6
Continuous
 62
     7
370
    25
100
AcDbLine
 10
0.0773502692
 20
224.6030621682
 30
0.0
 11
-0.2113248654
 21
224.6726487186
 31
0.0
  0
LINE
  5
6AC
330
1B
100
AcDbEntity
  8
0
  6
Continuous
 62
     7
370
    25
100
AcDbLine
 10
-1.3113248654
 20
224.4074883485
 30
0.0
 11
-1.8886751346
 21
224.4074883485
 31
0.0
  0
LINE
  5
6AD
330
1B
100
AcDbEntity
  8
0
  6
Continuous
 62
     7
370
    25
100
AcDbLine
 10
-1.8886751346
 20
224.4074883485
 30
0.0
 11
-2.1773502692
 21
224.3379017981
 31
0.0
  0
LINE
  5
6AE
330
1B
100
AcDbEntity
  8
0
  6
Continuous
 62
     7
370
    25
100
AcDbLine
 10
-2.1773502692
 20
224.3379017981
 30
0.0
 11
-1.8886751346
 21
224.2683152476
 31
0.0
  0
LINE
  5
6AF
330
1B
100
AcDbEntity
  8
0
  6
Continuous
 62
     7
370
    25
100
AcDbLine
 10
-1.8886751346
 20
224.2683152476
 30
0.0
 11
-1.3113248654
 21
224.2683152476
 31
0.0
  0
LINE
  5
6B0
330
1B
100
AcDbEntity
  8
0
  6
Continuous
 62
     7
370
    25
100
AcDbLine
 10
-1.3113248654
 20
224.2683152476
 30
0.0
 11
-1.0226497308
 21
224.3379017981
 31
0.0
  0
LINE
  5
6B1
330
1B
100
AcDbEntity
  8
0
  6
Continuous
 62
     7
370
    25
100
AcDbLine
 10
-1.0226497308
 20
224.3379017981
 30
0.0
 11
-1.3113248654
 21
224.4074883485
 31
0.0
  0
LINE
  5
6B2
330
1B
100
AcDbEntity
  8
0
  6
Continuous
 62
     7
370
    25
100
AcDbLine
 10
-4.6113248654
 20
224.1423279784
 30
0.0
 11
-5.1886751346
 21
224.1423279784
 31
0.0
  0
LINE
  5
6B3
330
1B
100
AcDbEntity
  8
0
  6
Continuous
 62
     7
370
    25
100
AcDbLine
 10
-5.1886751346
 20
224.1423279784
 30
0.0
 11
-5.4773502692
 21
224.072741428
 31
0.0
  0
LINE
  5
6B4
330
1B
100
AcDbEntity
  8
0
  6
Continuous
 62
     7
370
    25
100
AcDbLine
 10
-5.4773502692
 20
224.072741428
 30
0.0
 11
-5.1886751346
 21
224.0031548775
 31
0.0
  0
LINE
  5
6B5
330
1B
100
AcDbEntity
  8
0
  6
Continuous
 62
     7
370
    25
100
AcDbLine
 10
-5.1886751346
 20
224.0031548775
 30
0.0
 11
-4.6113248654
 21
224.0031548775
 31
0.0
  0
LINE
  5
6B6
330
1B
100
AcDbEntity
  8
0
  6
Continuous
 62
     7
370
    25
100
AcDbLine
 10
-4.6113248654
 20
224.0031548775
 30
0.0
 11
-4.3226497308
 21
224.072741428
 31
0.0
  0
LINE
  5
6B7
330
1B
100
AcDbEntity
  8
0
  6
Continuous
 62
     7
370
    25
100
AcDbLine
 10
-4.3226497308
 20
224.072741428
 30
0.0
 11
-4.6113248654
 21
224.1423279784
 31
0.0
  0
LINE
  5
6B8
330
1B
100
AcDbEntity
  8
0
  6
Continuous
 62
     7
370
    25
100
AcDbLine
 10
-6.8113248654
 20
224.1423279784
 30
0.0
 11
-7.3886751346
 21
224.1423279784
 31
0.0
  0
LINE
  5
6B9
330
1B
100
AcDbEntity
  8
0
  6
Continuous
 62
     7
370
    25
100
AcDbLine
 10
-7.3886751346
 20
224.1423279784
 30
0.0
 11
-7.6773502692
 21
224.072741428
 31
0.0
  0
LINE
  5
6BA
330
1B
100
AcDbEntity
  8
0
  6
Continuous
 62
     7
370
    25
100
AcDbLine
 10
-7.6773502692
 20
224.072741428
 30
0.0
 11
-7.3886751346
 21
224.0031548775
 31
0.0
  0
LINE
  5
6BB
330
1B
100
AcDbEntity
  8
0
  6
Continuous
 62
     7
370
    25
100
AcDbLine
 10
-7.3886751346
 20
224.0031548775
 30
0.0
 11
-6.8113248654
 21
224.0031548775
 31
0.0
  0
LINE
  5
6BC
330
1B
100
AcDbEntity
  8
0
  6
Continuous
 62
     7
370
    25
100
AcDbLine
 10
-6.8113248654
 20
224.0031548775
 30
0.0
 11
-6.5226497308
 21
224.072741428
 31
0.0
  0
LINE
  5
6BD
330
1B
100
AcDbEntity
  8
0
  6
Continuous
 62
     7
370
    25
100
AcDbLine
 10
-6.5226497308
 20
224.072741428
 30
0.0
 11
-6.8113248654
 21
224.1423279784
 31
0.0
  0
LINE
  5
6BE
330
1B
100
AcDbEntity
  8
0
  6
Continuous
 62
     7
370
    25
100
AcDbLine
 10
-13.1292366977
 20
225.3869452672
 30
0.0
 11
-12.8886751346
 21
225.328956728
 31
0.0
  0
LINE
  5
6BF
330
1B
100
AcDbEntity
  8
0
  6
Continuous
 62
     7
370
    25
100
AcDbLine
 10
-12.8886751346
 20
225.328956728
 30
0.0
 11
-12.3113248654
 21
225.328956728
 31
0.0
  0
LINE
  5
6C0
330
1B
100
AcDbEntity
  8
0
  6
Continuous
 62
     7
370
    25
100
AcDbLine
 10
-12.3113248654
 20
225.328956728
 30
0.0
 11
-12.0226497308
 21
225.3985432785
 31
0.0
  0
LINE
  5
6C1
330
1B
100
AcDbEntity
  8
0
  6
Continuous
 62
     7
370
    25
100
AcDbLine
 10
-12.0226497308
 20
225.3985432785
 30
0.0
 11
-12.3113248654
 21
225.468129829
 31
0.0
  0
LINE
  5
6C2
330
1B
100
AcDbEntity
  8
0
  6
Continuous
 62
     7
370
    25
100
AcDbLine
 10
-11.9083556328
 20
225.6229666664
 30
0.0
 11
-11.7886751346
 21
225.5941170981
 31
0.0
  0
LINE
  5
6C3
330
1B
100
AcDbEntity
  8
0
  6
Continuous
 62
     7
370
    25
100
AcDbLine
 10
-11.7886751346
 20
225.5941170981
 30
0.0
 11
-11.2113248654
 21
225.5941170981
 31
0.0
  0
LINE
  5
6C4
330
1B
100
AcDbEntity
  8
0
  6
Continuous
 62
     7
370
    25
100
AcDbLine
 10
-11.2113248654
 20
225.5941170981
 30
0.0
 11
-10.9226497308
 21
225.6637036486
 31
0.0
  0
LINE
  5
6C5
330
1B
100
AcDbEntity
  8
0
  6
Continuous
 62
     7
370
    25
100
AcDbLine
 10
-10.9226497308
 20
225.6637036486
 30
0.0
 11
-11.1596327539
 21
225.7208295632
 31
0.0
  0
LINE
  5
6C6
330
1B
100
AcDbEntity
  8
0
  6
Continuous
 62
     7
370
    25
100
AcDbLine
 10
-6.3738182124
 20
225.9779264146
 30
0.0
 11
-6.5773502692
 21
225.9288640187
 31
0.0
  0
LINE
  5
6C7
330
1B
100
AcDbEntity
  8
0
  6
Continuous
 62
     7
370
    25
100
AcDbLine
 10
-6.5773502692
 20
225.9288640187
 30
0.0
 11
-6.2886751346
 21
225.8592774682
 31
0.0
  0
LINE
  5
6C8
330
1B
100
AcDbEntity
  8
0
  6
Continuous
 62
     7
370
    25
100
AcDbLine
 10
-6.2886751346
 20
225.8592774682
 30
0.0
 11
-5.7113248654
 21
225.8592774682
 31
0.0
  0
LINE
  5
6C9
330
1B
100
AcDbEntity
  8
0
  6
Continuous
 62
     7
370
    25
100
AcDbLine
 10
-5.7113248654
 20
225.8592774682
 30
0.0
 11
-5.4226497308
 21
225.9288640187
 31
0.0
  0
LINE
  5
6CA
330
1B
100
AcDbEntity
  8
0
  6
Continuous
 62
     7
370
    25
100
AcDbLine
 10
-5.4226497308
 20
225.9288640187
 30
0.0
 11
-5.6261817876
 21
225.9779264146
 31
0.0
  0
LINE
  5
6CB
330
1B
100
AcDbEntity
  8
0
  6
Continuous
 62
     7
370
    25
100
AcDbLine
 10
-2.4113248654
 20
225.7332901991
 30
0.0
 11
-2.9886751346
 21
225.7332901991
 31
0.0
  0
LINE
  5
6CC
330
1B
100
AcDbEntity
  8
0
  6
Continuous
 62
     7
370
    25
100
AcDbLine
 10
-2.9886751346
 20
225.7332901991
 30
0.0
 11
-3.2773502692
 21
225.6637036486
 31
0.0
  0
LINE
  5
6CD
330
1B
100
AcDbEntity
  8
0
  6
Continuous
 62
     7
370
    25
100
AcDbLine
 10
-3.2773502692
 20
225.6637036486
 30
0.0
 11
-2.9886751346
 21
225.5941170981
 31
0.0
  0
LINE
  5
6CE
330
1B
100
AcDbEntity
  8
0
  6
Continuous
 62
     7
370
    25
100
AcDbLine
 10
-2.9886751346
 20
225.5941170981
 30
0.0
 11
-2.4113248654
 21
225.5941170981
 31
0.0
  0
LINE
  5
6CF
330
1B
100
AcDbEntity
  8
0
  6
Continuous
 62
     7
370
    25
100
AcDbLine
 10
-2.4113248654
 20
225.5941170981
 30
0.0
 11
-2.1226497308
 21
225.6637036486
 31
0.0
  0
LINE
  5
6D0
330
1B
100
AcDbEntity
  8
0
  6
Continuous
 62
     7
370
    25
100
AcDbLine
 10
-2.1226497308
 20
225.6637036486
 30
0.0
 11
-2.4113248654
 21
225.7332901991
 31
0.0
  0
LINE
  5
6D1
330
1B
100
AcDbEntity
  8
0
  6
Continuous
 62
     7
370
    25
100
AcDbLine
 10
-1.3113248654
 20
225.468129829
 30
0.0
 11
-1.8886751346
 21
225.468129829
 31
0.0
  0
LINE
  5
6D2
330
1B
100
AcDbEntity
  8
0
  6
Continuous
 62
     7
370
    25
100
AcDbLine
 10
-1.8886751346
 20
225.468129829
 30
0.0
 11
-2.1773502692
 21
225.3985432785
 31
0.0
  0
LINE
  5
6D3
330
1B
100
AcDbEntity
  8
0
  6
Continuous
 62
     7
370
    25
100
AcDbLine
 10
-2.1773502692
 20
225.3985432785
 30
0.0
 11
-1.8886751346
 21
225.328956728
 31
0.0
  0
LINE
  5
6D4
330
1B
100
AcDbEntity
  8
0
  6
Continuous
 62
     7
370
    25
100
AcDbLine
 10
-1.8886751346
 20
225.328956728
 30
0.0
 11
-1.3113248654
 21
225.328956728
 31
0.0
  0
LINE
  5
6D5
330
1B
100
AcDbEntity
  8
0
  6
Continuous
 62
     7
370
    25
100
AcDbLine
 10
-1.3113248654
 20
225.328956728
 30
0.0
 11
-1.0226497308
 21
225.3985432785
 31
0.0
  0
LINE
  5
6D6
330
1B
100
AcDbEntity
  8
0
  6
Continuous
 62
     7
370
    25
100
AcDbLine
 10
-1.0226497308
 20
225.3985432785
 30
0.0
 11
-1.3113248654
 21
225.468129829
 31
0.0
  0
LINE
  5
6D7
330
1B
100
AcDbEntity
  8
0
  6
Continuous
 62
     7
370
    25
100
AcDbLine
 10
-0.2113248654
 20
225.2029694589
 30
0.0
 11
-0.7886751346
 21
225.2029694589
 31
0.0
  0
LINE
  5
6D8
330
1B
100
AcDbEntity
  8
0
  6
Continuous
 62
     7
370
    25
100
AcDbLine
 10
-0.7886751346
 20
225.2029694589
 30
0.0
 11
-1.0773502692
 21
225.1333829084
 31
0.0
  0
LINE
  5
6D9
330
1B
100
AcDbEntity
  8
0
  6
Continuous
 62
     7
370
    25
100
AcDbLine
 10
-1.0773502692
 20
225.1333829084
 30
0.0
 11
-0.7886751346
 21
225.0637963579
 31
0.0
  0
LINE
  5
6DA
330
1B
100
AcDbEntity
  8
0
  6
Continuous
 62
     7
370
    25
100
AcDbLine
 10
-0.7886751346
 20
225.0637963579
 30
0.0
 11
-0.2113248654
 21
225.0637963579
 31
0.0
  0
LINE
  5
6DB
330
1B
100
AcDbEntity
  8
0
  6
Continuous
 62
     7
370
    25
100
AcDbLine
 10
-0.2113248654
 20
225.0637963579
 30
0.0
 11
0.0773502692
 21
225.1333829084
 31
0.0
  0
LINE
  5
6DC
330
1B
100
AcDbEntity
  8
0
  6
Continuous
 62
     7
370
    25
100
AcDbLine
 10
0.0773502692
 20
225.1333829084
 30
0.0
 11
-0.2113248654
 21
225.2029694589
 31
0.0
  0
LINE
  5
6DD
330
1B
100
AcDbEntity
  8
0
  6
Continuous
 62
     7
370
    25
100
AcDbLine
 10
-1.3113248654
 20
224.9378090887
 30
0.0
 11
-1.8886751346
 21
224.9378090887
 31
0.0
  0
LINE
  5
6DE
330
1B
100
AcDbEntity
  8
0
  6
Continuous
 62
     7
370
    25
100
AcDbLine
 10
-1.8886751346
 20
224.9378090887
 30
0.0
 11
-2.1773502692
 21
224.8682225383
 31
0.0
  0
LINE
  5
6DF
330
1B
100
AcDbEntity
  8
0
  6
Continuous
 62
     7
370
    25
100
AcDbLine
 10
-2.1773502692
 20
224.8682225383
 30
0.0
 11
-1.8886751346
 21
224.7986359878
 31
0.0
  0
LINE
  5
6E0
330
1B
100
AcDbEntity
  8
0
  6
Continuous
 62
     7
370
    25
100
AcDbLine
 10
-1.8886751346
 20
224.7986359878
 30
0.0
 11
-1.3113248654
 21
224.7986359878
 31
0.0
  0
LINE
  5
6E1
330
1B
100
AcDbEntity
  8
0
  6
Continuous
 62
     7
370
    25
100
AcDbLine
 10
-1.3113248654
 20
224.7986359878
 30
0.0
 11
-1.0226497308
 21
224.8682225383
 31
0.0
  0
LINE
  5
6E2
330
1B
100
AcDbEntity
  8
0
  6
Continuous
 62
     7
370
    25
100
AcDbLine
 10
-1.0226497308
 20
224.8682225383
 30
0.0
 11
-1.3113248654
 21
224.9378090887
 31
0.0
  0
LINE
  5
6E3
330
1B
100
AcDbEntity
  8
0
  6
Continuous
 62
     7
370
    25
100
AcDbLine
 10
-2.4113248654
 20
224.6726487186
 30
0.0
 11
-2.9886751346
 21
224.6726487186
 31
0.0
  0
LINE
  5
6E4
330
1B
100
AcDbEntity
  8
0
  6
Continuous
 62
     7
370
    25
100
AcDbLine
 10
-2.9886751346
 20
224.6726487186
 30
0.0
 11
-3.2773502692
 21
224.6030621682
 31
0.0
  0
LINE
  5
6E5
330
1B
100
AcDbEntity
  8
0
  6
Continuous
 62
     7
370
    25
100
AcDbLine
 10
-3.2773502692
 20
224.6030621682
 30
0.0
 11
-2.9886751346
 21
224.5334756177
 31
0.0
  0
LINE
  5
6E6
330
1B
100
AcDbEntity
  8
0
  6
Continuous
 62
     7
370
    25
100
AcDbLine
 10
-2.9886751346
 20
224.5334756177
 30
0.0
 11
-2.4113248654
 21
224.5334756177
 31
0.0
  0
LINE
  5
6E7
330
1B
100
AcDbEntity
  8
0
  6
Continuous
 62
     7
370
    25
100
AcDbLine
 10
-2.4113248654
 20
224.5334756177
 30
0.0
 11
-2.1226497308
 21
224.6030621682
 31
0.0
  0
LINE
  5
6E8
330
1B
100
AcDbEntity
  8
0
  6
Continuous
 62
     7
370
    25
100
AcDbLine
 10
-2.1226497308
 20
224.6030621682
 30
0.0
 11
-2.4113248654
 21
224.6726487186
 31
0.0
  0
LINE
  5
6E9
330
1B
100
AcDbEntity
  8
0
  6
Continuous
 62
     7
370
    25
100
AcDbLine
 10
-3.5113248654
 20
224.4074883485
 30
0.0
 11
-4.0886751346
 21
224.4074883485
 31
0.0
  0
LINE
  5
6EA
330
1B
100
AcDbEntity
  8
0
  6
Continuous
 62
     7
370
    25
100
AcDbLine
 10
-4.0886751346
 20
224.4074883485
 30
0.0
 11
-4.3773502692
 21
224.3379017981
 31
0.0
  0
LINE
  5
6EB
330
1B
100
AcDbEntity
  8
0
  6
Continuous
 62
     7
370
    25
100
AcDbLine
 10
-4.3773502692
 20
224.3379017981
 30
0.0
 11
-4.0886751346
 21
224.2683152476
 31
0.0
  0
LINE
  5
6EC
330
1B
100
AcDbEntity
  8
0
  6
Continuous
 62
     7
370
    25
100
AcDbLine
 10
-4.0886751346
 20
224.2683152476
 30
0.0
 11
-3.5113248654
 21
224.2683152476
 31
0.0
  0
LINE
  5
6ED
330
1B
100
AcDbEntity
  8
0
  6
Continuous
 62
     7
370
    25
100
AcDbLine
 10
-3.5113248654
 20
224.2683152476
 30
0.0
 11
-3.2226497308
 21
224.3379017981
 31
0.0
  0
LINE
  5
6EE
330
1B
100
AcDbEntity
  8
0
  6
Continuous
 62
     7
370
    25
100
AcDbLine
 10
-3.2226497308
 20
224.3379017981
 30
0.0
 11
-3.5113248654
 21
224.4074883485
 31
0.0
  0
LINE
  5
6EF
330
1B
100
AcDbEntity
  8
0
  6
Continuous
 62
     7
370
    25
100
AcDbLine
 10
-5.7113248654
 20
224.4074883485
 30
0.0
 11
-6.2886751346
 21
224.4074883485
 31
0.0
  0
LINE
  5
6F0
330
1B
100
AcDbEntity
  8
0
  6
Continuous
 62
     7
370
    25
100
AcDbLine
 10
-6.2886751346
 20
224.4074883485
 30
0.0
 11
-6.5773502692
 21
224.3379017981
 31
0.0
  0
LINE
  5
6F1
330
1B
100
AcDbEntity
  8
0
  6
Continuous
 62
     7
370
    25
100
AcDbLine
 10
-6.5773502692
 20
224.3379017981
 30
0.0
 11
-6.2886751346
 21
224.2683152476
 31
0.0
  0
LINE
  5
6F2
330
1B
100
AcDbEntity
  8
0
  6
Continuous
 62
     7
370
    25
100
AcDbLine
 10
-6.2886751346
 20
224.2683152476
 30
0.0
 11
-5.7113248654
 21
224.2683152476
 31
0.0
  0
LINE
  5
6F3
330
1B
100
AcDbEntity
  8
0
  6
Continuous
 62
     7
370
    25
100
AcDbLine
 10
-5.7113248654
 20
224.2683152476
 30
0.0
 11
-5.4226497308
 21
224.3379017981
 31
0.0
  0
LINE
  5
6F4
330
1B
100
AcDbEntity
  8
0
  6
Continuous
 62
     7
370
    25
100
AcDbLine
 10
-5.4226497308
 20
224.3379017981
 30
0.0
 11
-5.7113248654
 21
224.4074883485
 31
0.0
  0
LINE
  5
6F5
330
1B
100
AcDbEntity
  8
0
  6
Continuous
 62
     7
370
    25
100
AcDbLine
 10
-7.9113248654
 20
224.4074883485
 30
0.0
 11
-8.4886751346
 21
224.4074883485
 31
0.0
  0
LINE
  5
6F6
330
1B
100
AcDbEntity
  8
0
  6
Continuous
 62
     7
370
    25
100
AcDbLine
 10
-8.4886751346
 20
224.4074883485
 30
0.0
 11
-8.7773502692
 21
224.3379017981
 31
0.0
  0
LINE
  5
6F7
330
1B
100
AcDbEntity
  8
0
  6
Continuous
 62
     7
370
    25
100
AcDbLine
 10
-8.7773502692
 20
224.3379017981
 30
0.0
 11
-8.4886751346
 21
224.2683152476
 31
0.0
  0
LINE
  5
6F8
330
1B
100
AcDbEntity
  8
0
  6
Continuous
 62
     7
370
    25
100
AcDbLine
 10
-8.4886751346
 20
224.2683152476
 30
0.0
 11
-7.9113248654
 21
224.2683152476
 31
0.0
  0
LINE
  5
6F9
330
1B
100
AcDbEntity
  8
0
  6
Continuous
 62
     7
370
    25
100
AcDbLine
 10
-7.9113248654
 20
224.2683152476
 30
0.0
 11
-7.6226497308
 21
224.3379017981
 31
0.0
  0
LINE
  5
6FA
330
1B
100
AcDbEntity
  8
0
  6
Continuous
 62
     7
370
    25
100
AcDbLine
 10
-7.6226497308
 20
224.3379017981
 30
0.0
 11
-7.9113248654
 21
224.4074883485
 31
0.0
  0
LINE
  5
6FB
330
1B
100
AcDbEntity
  8
0
  6
Continuous
 62
     7
370
    25
100
AcDbLine
 10
-10.1113248654
 20
224.4074883485
 30
0.0
 11
-10.6886751346
 21
224.4074883485
 31
0.0
  0
LINE
  5
6FC
330
1B
100
AcDbEntity
  8
0
  6
Continuous
 62
     7
370
    25
100
AcDbLine
 10
-10.6886751346
 20
224.4074883485
 30
0.0
 11
-10.9773502692
 21
224.3379017981
 31
0.0
  0
LINE
  5
6FD
330
1B
100
AcDbEntity
  8
0
  6
Continuous
 62
     7
370
    25
100
AcDbLine
 10
-10.9773502692
 20
224.3379017981
 30
0.0
 11
-10.6886751346
 21
224.2683152476
 31
0.0
  0
LINE
  5
6FE
330
1B
100
AcDbEntity
  8
0
  6
Continuous
 62
     7
370
    25
100
AcDbLine
 10
-10.6886751346
 20
224.2683152476
 30
0.0
 11
-10.1113248654
 21
224.2683152476
 31
0.0
  0
LINE
  5
6FF
330
1B
100
AcDbEntity
  8
0
  6
Continuous
 62
     7
370
    25
100
AcDbLine
 10
-10.1113248654
 20
224.2683152476
 30
0.0
 11
-9.8226497308
 21
224.3379017981
 31
0.0
  0
LINE
  5
700
330
1B
100
AcDbEntity
  8
0
  6
Continuous
 62
     7
370
    25
100
AcDbLine
 10
-9.8226497308
 20
224.3379017981
 30
0.0
 11
-10.1113248654
 21
224.4074883485
 31
0.0
  0
LINE
  5
701
330
1B
100
AcDbEntity
  8
0
  6
Continuous
 62
     7
370
    25
100
AcDbLine
 10
-11.2113248654
 20
224.6726487186
 30
0.0
 11
-11.7886751346
 21
224.6726487186
 31
0.0
  0
LINE
  5
702
330
1B
100
AcDbEntity
  8
0
  6
Continuous
 62
     7
370
    25
100
AcDbLine
 10
-11.7886751346
 20
224.6726487186
 30
0.0
 11
-12.0773502692
 21
224.6030621682
 31
0.0
  0
LINE
  5
703
330
1B
100
AcDbEntity
  8
0
  6
Continuous
 62
     7
370
    25
100
AcDbLine
 10
-12.0773502692
 20
224.6030621682
 30
0.0
 11
-11.7886751346
 21
224.5334756177
 31
0.0
  0
LINE
  5
704
330
1B
100
AcDbEntity
  8
0
  6
Continuous
 62
     7
370
    25
100
AcDbLine
 10
-11.7886751346
 20
224.5334756177
 30
0.0
 11
-11.2113248654
 21
224.5334756177
 31
0.0
  0
LINE
  5
705
330
1B
100
AcDbEntity
  8
0
  6
Continuous
 62
     7
370
    25
100
AcDbLine
 10
-11.2113248654
 20
224.5334756177
 30
0.0
 11
-10.9226497308
 21
224.6030621682
 31
0.0
  0
LINE
  5
706
330
1B
100
AcDbEntity
  8
0
  6
Continuous
 62
     7
370
    25
100
AcDbLine
 10
-10.9226497308
 20
224.6030621682
 30
0.0
 11
-11.2113248654
 21
224.6726487186
 31
0.0
  0
LINE
  5
707
330
1B
100
AcDbEntity
  8
0
  6
Continuous
 62
     7
370
    25
100
AcDbLine
 10
-12.3113248654
 20
224.9378090887
 30
0.0
 11
-12.8886751346
 21
224.9378090887
 31
0.0
  0
LINE
  5
708
330
1B
100
AcDbEntity
  8
0
  6
Continuous
 62
     7
370
    25
100
AcDbLine
 10
-12.8886751346
 20
224.9378090887
 30
0.0
 11
-13.1773502692
 21
224.8682225383
 31
0.0
  0
LINE
  5
709
330
1B
100
AcDbEntity
  8
0
  6
Continuous
 62
     7
370
    25
100
AcDbLine
 10
-13.1773502692
 20
224.8682225383
 30
0.0
 11
-12.8886751346
 21
224.7986359878
 31
0.0
  0
LINE
  5
70A
330
1B
100
AcDbEntity
  8
0
  6
Continuous
 62
     7
370
    25
100
AcDbLine
 10
-12.8886751346
 20
224.7986359878
 30
0.0
 11
-12.3113248654
 21
224.7986359878
 31
0.0
  0
LINE
  5
70B
330
1B
100
AcDbEntity
  8
0
  6
Continuous
 62
     7
370
    25
100
AcDbLine
 10
-12.3113248654
 20
224.7986359878
 30
0.0
 11
-12.0226497308
 21
224.8682225383
 31
0.0
  0
LINE
  5
70C
330
1B
100
AcDbEntity
  8
0
  6
Continuous
 62
     7
370
    25
100
AcDbLine
 10
-12.0226497308
 20
224.8682225383
 30
0.0
 11
-12.3113248654
 21
224.9378090887
 31
0.0
  0
LINE
  5
70D
330
1B
100
AcDbEntity
  8
0
  6
Continuous
 62
     7
370
    25
100
AcDbLine
 10
-10.1113248654
 20
225.468129829
 30
0.0
 11
-10.6886751346
 21
225.468129829
 31
0.0
  0
LINE
  5
70E
330
1B
100
AcDbEntity
  8
0
  6
Continuous
 62
     7
370
    25
100
AcDbLine
 10
-10.6886751346
 20
225.468129829
 30
0.0
 11
-10.9773502692
 21
225.3985432785
 31
0.0
  0
LINE
  5
70F
330
1B
100
AcDbEntity
  8
0
  6
Continuous
 62
     7
370
    25
100
AcDbLine
 10
-10.9773502692
 20
225.3985432785
 30
0.0
 11
-10.6886751346
 21
225.328956728
 31
0.0
  0
LINE
  5
710
330
1B
100
AcDbEntity
  8
0
  6
Continuous
 62
     7
370
    25
100
AcDbLine
 10
-10.6886751346
 20
225.328956728
 30
0.0
 11
-10.1113248654
 21
225.328956728
 31
0.0
  0
LINE
  5
711
330
1B
100
AcDbEntity
  8
0
  6
Continuous
 62
     7
370
    25
100
AcDbLine
 10
-10.1113248654
 20
225.328956728
 30
0.0
 11
-9.8226497308
 21
225.3985432785
 31
0.0
  0
LINE
  5
712
330
1B
100
AcDbEntity
  8
0
  6
Continuous
 62
     7
370
    25
100
AcDbLine
 10
-9.8226497308
 20
225.3985432785
 30
0.0
 11
-10.1113248654
 21
225.468129829
 31
0.0
  0
LINE
  5
713
330
1B
100
AcDbEntity
  8
0
  6
Continuous
 62
     7
370
    25
100
AcDbLine
 10
-9.0113248654
 20
225.7332901991
 30
0.0
 11
-9.5886751346
 21
225.7332901991
 31
0.0
  0
LINE
  5
714
330
1B
100
AcDbEntity
  8
0
  6
Continuous
 62
     7
370
    25
100
AcDbLine
 10
-9.5886751346
 20
225.7332901991
 30
0.0
 11
-9.8773502692
 21
225.6637036486
 31
0.0
  0
LINE
  5
715
330
1B
100
AcDbEntity
  8
0
  6
Continuous
 62
     7
370
    25
100
AcDbLine
 10
-9.8773502692
 20
225.6637036486
 30
0.0
 11
-9.5886751346
 21
225.5941170981
 31
0.0
  0
LINE
  5
716
330
1B
100
AcDbEntity
  8
0
  6
Continuous
 62
     7
370
    25
100
AcDbLine
 10
-9.5886751346
 20
225.5941170981
 30
0.0
 11
-9.0113248654
 21
225.5941170981
 31
0.0
  0
LINE
  5
717
330
1B
100
AcDbEntity
  8
0
  6
Continuous
 62
     7
370
    25
100
AcDbLine
 10
-9.0113248654
 20
225.5941170981
 30
0.0
 11
-8.7226497308
 21
225.6637036486
 31
0.0
  0
LINE
  5
718
330
1B
100
AcDbEntity
  8
0
  6
Continuous
 62
     7
370
    25
100
AcDbLine
 10
-8.7226497308
 20
225.6637036486
 30
0.0
 11
-9.0113248654
 21
225.7332901991
 31
0.0
  0
LINE
  5
719
330
1B
100
AcDbEntity
  8
0
  6
Continuous
 62
     7
370
    25
100
AcDbLine
 10
-6.8113248654
 20
225.7332901991
 30
0.0
 11
-7.3886751346
 21
225.7332901991
 31
0.0
  0
LINE
  5
71A
330
1B
100
AcDbEntity
  8
0
  6
Continuous
 62
     7
370
    25
100
AcDbLine
 10
-7.3886751346
 20
225.7332901991
 30
0.0
 11
-7.6773502692
 21
225.6637036486
 31
0.0
  0
LINE
  5
71B
330
1B
100
AcDbEntity
  8
0
  6
Continuous
 62
     7
370
    25
100
AcDbLine
 10
-7.6773502692
 20
225.6637036486
 30
0.0
 11
-7.3886751346
 21
225.5941170981
 31
0.0
  0
LINE
  5
71C
330
1B
100
AcDbEntity
  8
0
  6
Continuous
 62
     7
370
    25
100
AcDbLine
 10
-7.3886751346
 20
225.5941170981
 30
0.0
 11
-6.8113248654
 21
225.5941170981
 31
0.0
  0
LINE
  5
71D
330
1B
100
AcDbEntity
  8
0
  6
Continuous
 62
     7
370
    25
100
AcDbLine
 10
-6.8113248654
 20
225.5941170981
 30
0.0
 11
-6.5226497308
 21
225.6637036486
 31
0.0
  0
LINE
  5
71E
330
1B
100
AcDbEntity
  8
0
  6
Continuous
 62
     7
370
    25
100
AcDbLine
 10
-6.5226497308
 20
225.6637036486
 30
0.0
 11
-6.8113248654
 21
225.7332901991
 31
0.0
  0
LINE
  5
71F
330
1B
100
AcDbEntity
  8
0
  6
Continuous
 62
     7
370
    25
100
AcDbLine
 10
-4.6113248654
 20
225.7332901991
 30
0.0
 11
-5.1886751346
 21
225.7332901991
 31
0.0
  0
LINE
  5
720
330
1B
100
AcDbEntity
  8
0
  6
Continuous
 62
     7
370
    25
100
AcDbLine
 10
-5.1886751346
 20
225.7332901991
 30
0.0
 11
-5.4773502692
 21
225.6637036486
 31
0.0
  0
LINE
  5
721
330
1B
100
AcDbEntity
  8
0
  6
Continuous
 62
     7
370
    25
100
AcDbLine
 10
-5.4773502692
 20
225.6637036486
 30
0.0
 11
-5.1886751346
 21
225.5941170981
 31
0.0
  0
LINE
  5
722
330
1B
100
AcDbEntity
  8
0
  6
Continuous
 62
     7
370
    25
100
AcDbLine
 10
-5.1886751346
 20
225.5941170981
 30
0.0
 11
-4.6113248654
 21
225.5941170981
 31
0.0
  0
LINE
  5
723
330
1B
100
AcDbEntity
  8
0
  6
Continuous
 62
     7
370
    25
100
AcDbLine
 10
-4.6113248654
 20
225.5941170981
 30
0.0
 11
-4.3226497308
 21
225.6637036486
 31
0.0
  0
LINE
  5
724
330
1B
100
AcDbEntity
  8
0
  6
Continuous
 62
     7
370
    25
100
AcDbLine
 10
-4.3226497308
 20
225.6637036486
 30
0.0
 11
-4.6113248654
 21
225.7332901991
 31
0.0
  0
LINE
  5
725
330
1B
100
AcDbEntity
  8
0
  6
Continuous
 62
     7
370
    25
100
AcDbLine
 10
-3.5113248654
 20
225.468129829
 30
0.0
 11
-4.0886751346
 21
225.468129829
 31
0.0
  0
LINE
  5
726
330
1B
100
AcDbEntity
  8
0
  6
Continuous
 62
     7
370
    25
100
AcDbLine
 10
-4.0886751346
 20
225.468129829
 30
0.0
 11
-4.3773502692
 21
225.3985432785
 31
0.0
  0
LINE
  5
727
330
1B
100
AcDbEntity
  8
0
  6
Continuous
 62
     7
370
    25
100
AcDbLine
 10
-4.3773502692
 20
225.3985432785
 30
0.0
 11
-4.0886751346
 21
225.328956728
 31
0.0
  0
LINE
  5
728
330
1B
100
AcDbEntity
  8
0
  6
Continuous
 62
     7
370
    25
100
AcDbLine
 10
-4.0886751346
 20
225.328956728
 30
0.0
 11
-3.5113248654
 21
225.328956728
 31
0.0
  0
LINE
  5
729
330
1B
100
AcDbEntity
  8
0
  6
Continuous
 62
     7
370
    25
100
AcDbLine
 10
-3.5113248654
 20
225.328956728
 30
0.0
 11
-3.2226497308
 21
225.3985432785
 31
0.0
  0
LINE
  5
72A
330
1B
100
AcDbEntity
  8
0
  6
Continuous
 62
     7
370
    25
100
AcDbLine
 10
-3.2226497308
 20
225.3985432785
 30
0.0
 11
-3.5113248654
 21
225.468129829
 31
0.0
  0
LINE
  5
72B
330
1B
100
AcDbEntity
  8
0
  6
Continuous
 62
     7
370
    25
100
AcDbLine
 10
-2.4113248654
 20
225.2029694589
 30
0.0
 11
-2.9886751346
 21
225.2029694589
 31
0.0
  0
LINE
  5
72C
330
1B
100
AcDbEntity
  8
0
  6
Continuous
 62
     7
370
    25
100
AcDbLine
 10
-2.9886751346
 20
225.2029694589
 30
0.0
 11
-3.2773502692
 21
225.1333829084
 31
0.0
  0
LINE
  5
72D
330
1B
100
AcDbEntity
  8
0
  6
Continuous
 62
     7
370
    25
100
AcDbLine
 10
-3.2773502692
 20
225.1333829084
 30
0.0
 11
-2.9886751346
 21
225.0637963579
 31
0.0
  0
LINE
  5
72E
330
1B
100
AcDbEntity
  8
0
  6
Continuous
 62
     7
370
    25
100
AcDbLine
 10
-2.9886751346
 20
225.0637963579
 30
0.0
 11
-2.4113248654
 21
225.0637963579
 31
0.0
  0
LINE
  5
72F
330
1B
100
AcDbEntity
  8
0
  6
Continuous
 62
     7
370
    25
100
AcDbLine
 10
-2.4113248654
 20
225.0637963579
 30
0.0
 11
-2.1226497308
 21
225.1333829084
 31
0.0
  0
LINE
  5
730
330
1B
100
AcDbEntity
  8
0
  6
Continuous
 62
     7
370
    25
100
AcDbLine
 10
-2.1226497308
 20
225.1333829084
 30
0.0
 11
-2.4113248654
 21
225.2029694589
 31
0.0
  0
LINE
  5
731
330
1B
100
AcDbEntity
  8
0
  6
Continuous
 62
     7
370
    25
100
AcDbLine
 10
-3.5113248654
 20
224.9378090887
 30
0.0
 11
-4.0886751346
 21
224.9378090887
 31
0.0
  0
LINE
  5
732
330
1B
100
AcDbEntity
  8
0
  6
Continuous
 62
     7
370
    25
100
AcDbLine
 10
-4.0886751346
 20
224.9378090887
 30
0.0
 11
-4.3773502692
 21
224.8682225383
 31
0.0
  0
LINE
  5
733
330
1B
100
AcDbEntity
  8
0
  6
Continuous
 62
     7
370
    25
100
AcDbLine
 10
-4.3773502692
 20
224.8682225383
 30
0.0
 11
-4.0886751346
 21
224.7986359878
 31
0.0
  0
LINE
  5
734
330
1B
100
AcDbEntity
  8
0
  6
Continuous
 62
     7
370
    25
100
AcDbLine
 10
-4.0886751346
 20
224.7986359878
 30
0.0
 11
-3.5113248654
 21
224.7986359878
 31
0.0
  0
LINE
  5
735
330
1B
100
AcDbEntity
  8
0
  6
Continuous
 62
     7
370
    25
100
AcDbLine
 10
-3.5113248654
 20
224.7986359878
 30
0.0
 11
-3.2226497308
 21
224.8682225383
 31
0.0
  0
LINE
  5
736
330
1B
100
AcDbEntity
  8
0
  6
Continuous
 62
     7
370
    25
100
AcDbLine
 10
-3.2226497308
 20
224.8682225383
 30
0.0
 11
-3.5113248654
 21
224.9378090887
 31
0.0
  0
LINE
  5
737
330
1B
100
AcDbEntity
  8
0
  6
Continuous
 62
     7
370
    25
100
AcDbLine
 10
-4.6113248654
 20
224.6726487186
 30
0.0
 11
-5.1886751346
 21
224.6726487186
 31
0.0
  0
LINE
  5
738
330
1B
100
AcDbEntity
  8
0
  6
Continuous
 62
     7
370
    25
100
AcDbLine
 10
-5.1886751346
 20
224.6726487186
 30
0.0
 11
-5.4773502692
 21
224.6030621682
 31
0.0
  0
LINE
  5
739
330
1B
100
AcDbEntity
  8
0
  6
Continuous
 62
     7
370
    25
100
AcDbLine
 10
-5.4773502692
 20
224.6030621682
 30
0.0
 11
-5.1886751346
 21
224.5334756177
 31
0.0
  0
LINE
  5
73A
330
1B
100
AcDbEntity
  8
0
  6
Continuous
 62
     7
370
    25
100
AcDbLine
 10
-5.1886751346
 20
224.5334756177
 30
0.0
 11
-4.6113248654
 21
224.5334756177
 31
0.0
  0
LINE
  5
73B
330
1B
100
AcDbEntity
  8
0
  6
Continuous
 62
     7
370
    25
100
AcDbLine
 10
-4.6113248654
 20
224.5334756177
 30
0.0
 11
-4.3226497308
 21
224.6030621682
 31
0.0
  0
LINE
  5
73C
330
1B
100
AcDbEntity
  8
0
  6
Continuous
 62
     7
370
    25
100
AcDbLine
 10
-4.3226497308
 20
224.6030621682
 30
0.0
 11
-4.6113248654
 21
224.6726487186
 31
0.0
  0
LINE
  5
73D
330
1B
100
AcDbEntity
  8
0
  6
Continuous
 62
     7
370
    25
100
AcDbLine
 10
-6.8113248654
 20
224.6726487186
 30
0.0
 11
-7.3886751346
 21
224.6726487186
 31
0.0
  0
LINE
  5
73E
330
1B
100
AcDbEntity
  8
0
  6
Continuous
 62
     7
370
    25
100
AcDbLine
 10
-7.3886751346
 20
224.6726487186
 30
0.0
 11
-7.6773502692
 21
224.6030621682
 31
0.0
  0
LINE
  5
73F
330
1B
100
AcDbEntity
  8
0
  6
Continuous
 62
     7
370
    25
100
AcDbLine
 10
-7.6773502692
 20
224.6030621682
 30
0.0
 11
-7.3886751346
 21
224.5334756177
 31
0.0
  0
LINE
  5
740
330
1B
100
AcDbEntity
  8
0
  6
Continuous
 62
     7
370
    25
100
AcDbLine
 10
-7.3886751346
 20
224.5334756177
 30
0.0
 11
-6.8113248654
 21
224.5334756177
 31
0.0
  0
LINE
  5
741
330
1B
100
AcDbEntity
  8
0
  6
Continuous
 62
     7
370
    25
100
AcDbLine
 10
-6.8113248654
 20
224.5334756177
 30
0.0
 11
-6.5226497308
 21
224.6030621682
 31
0.0
  0
LINE
  5
742
330
1B
100
AcDbEntity
  8
0
  6
Continuous
 62
     7
370
    25
100
AcDbLine
 10
-6.5226497308
 20
224.6030621682
 30
0.0
 11
-6.8113248654
 21
224.6726487186
 31
0.0
  0
LINE
  5
743
330
1B
100
AcDbEntity
  8
0
  6
Continuous
 62
     7
370
    25
100
AcDbLine
 10
-9.0113248654
 20
224.6726487186
 30
0.0
 11
-9.5886751346
 21
224.6726487186
 31
0.0
  0
LINE
  5
744
330
1B
100
AcDbEntity
  8
0
  6
Continuous
 62
     7
370
    25
100
AcDbLine
 10
-9.5886751346
 20
224.6726487186
 30
0.0
 11
-9.8773502692
 21
224.6030621682
 31
0.0
  0
LINE
  5
745
330
1B
100
AcDbEntity
  8
0
  6
Continuous
 62
     7
370
    25
100
AcDbLine
 10
-9.8773502692
 20
224.6030621682
 30
0.0
 11
-9.5886751346
 21
224.5334756177
 31
0.0
  0
LINE
  5
746
330
1B
100
AcDbEntity
  8
0
  6
Continuous
 62
     7
370
    25
100
AcDbLine
 10
-9.5886751346
 20
224.5334756177
 30
0.0
 11
-9.0113248654
 21
224.5334756177
 31
0.0
  0
LINE
  5
747
330
1B
100
AcDbEntity
  8
0
  6
Continuous
 62
     7
370
    25
100
AcDbLine
 10
-9.0113248654
 20
224.5334756177
 30
0.0
 11
-8.7226497308
 21
224.6030621682
 31
0.0
  0
LINE
  5
748
330
1B
100
AcDbEntity
  8
0
  6
Continuous
 62
     7
370
    25
100
AcDbLine
 10
-8.7226497308
 20
224.6030621682
 30
0.0
 11
-9.0113248654
 21
224.6726487186
 31
0.0
  0
LINE
  5
749
330
1B
100
AcDbEntity
  8
0
  6
Continuous
 62
     7
370
    25
100
AcDbLine
 10
-10.1113248654
 20
224.9378090887
 30
0.0
 11
-10.6886751346
 21
224.9378090887
 31
0.0
  0
LINE
  5
74A
330
1B
100
AcDbEntity
  8
0
  6
Continuous
 62
     7
370
    25
100
AcDbLine
 10
-10.6886751346
 20
224.9378090887
 30
0.0
 11
-10.9773502692
 21
224.8682225383
 31
0.0
  0
LINE
  5
74B
330
1B
100
AcDbEntity
  8
0
  6
Continuous
 62
     7
370
    25
100
AcDbLine
 10
-10.9773502692
 20
224.8682225383
 30
0.0
 11
-10.6886751346
 21
224.7986359878
 31
0.0
  0
LINE
  5
74C
330
1B
100
AcDbEntity
  8
0
  6
Continuous
 62
     7
370
    25
100
AcDbLine
 10
-10.6886751346
 20
224.7986359878
 30
0.0
 11
-10.1113248654
 21
224.7986359878
 31
0.0
  0
LINE
  5
74D
330
1B
100
AcDbEntity
  8
0
  6
Continuous
 62
     7
370
    25
100
AcDbLine
 10
-10.1113248654
 20
224.7986359878
 30
0.0
 11
-9.8226497308
 21
224.8682225383
 31
0.0
  0
LINE
  5
74E
330
1B
100
AcDbEntity
  8
0
  6
Continuous
 62
     7
370
    25
100
AcDbLine
 10
-9.8226497308
 20
224.8682225383
 30
0.0
 11
-10.1113248654
 21
224.9378090887
 31
0.0
  0
LINE
  5
74F
330
1B
100
AcDbEntity
  8
0
  6
Continuous
 62
     7
370
    25
100
AcDbLine
 10
-11.2113248654
 20
225.2029694589
 30
0.0
 11
-11.7886751346
 21
225.2029694589
 31
0.0
  0
LINE
  5
750
330
1B
100
AcDbEntity
  8
0
  6
Continuous
 62
     7
370
    25
100
AcDbLine
 10
-11.7886751346
 20
225.2029694589
 30
0.0
 11
-12.0773502692
 21
225.1333829084
 31
0.0
  0
LINE
  5
751
330
1B
100
AcDbEntity
  8
0
  6
Continuous
 62
     7
370
    25
100
AcDbLine
 10
-12.0773502692
 20
225.1333829084
 30
0.0
 11
-11.7886751346
 21
225.0637963579
 31
0.0
  0
LINE
  5
752
330
1B
100
AcDbEntity
  8
0
  6
Continuous
 62
     7
370
    25
100
AcDbLine
 10
-11.7886751346
 20
225.0637963579
 30
0.0
 11
-11.2113248654
 21
225.0637963579
 31
0.0
  0
LINE
  5
753
330
1B
100
AcDbEntity
  8
0
  6
Continuous
 62
     7
370
    25
100
AcDbLine
 10
-11.2113248654
 20
225.0637963579
 30
0.0
 11
-10.9226497308
 21
225.1333829084
 31
0.0
  0
LINE
  5
754
330
1B
100
AcDbEntity
  8
0
  6
Continuous
 62
     7
370
    25
100
AcDbLine
 10
-10.9226497308
 20
225.1333829084
 30
0.0
 11
-11.2113248654
 21
225.2029694589
 31
0.0
  0
LINE
  5
755
330
1B
100
AcDbEntity
  8
0
  6
Continuous
 62
     7
370
    25
100
AcDbLine
 10
-7.9113248654
 20
225.468129829
 30
0.0
 11
-8.4886751346
 21
225.468129829
 31
0.0
  0
LINE
  5
756
330
1B
100
AcDbEntity
  8
0
  6
Continuous
 62
     7
370
    25
100
AcDbLine
 10
-8.4886751346
 20
225.468129829
 30
0.0
 11
-8.7773502692
 21
225.3985432785
 31
0.0
  0
LINE
  5
757
330
1B
100
AcDbEntity
  8
0
  6
Continuous
 62
     7
370
    25
100
AcDbLine
 10
-8.7773502692
 20
225.3985432785
 30
0.0
 11
-8.4886751346
 21
225.328956728
 31
0.0
  0
LINE
  5
758
330
1B
100
AcDbEntity
  8
0
  6
Continuous
 62
     7
370
    25
100
AcDbLine
 10
-8.4886751346
 20
225.328956728
 30
0.0
 11
-7.9113248654
 21
225.328956728
 31
0.0
  0
LINE
  5
759
330
1B
100
AcDbEntity
  8
0
  6
Continuous
 62
     7
370
    25
100
AcDbLine
 10
-7.9113248654
 20
225.328956728
 30
0.0
 11
-7.6226497308
 21
225.3985432785
 31
0.0
  0
LINE
  5
75A
330
1B
100
AcDbEntity
  8
0
  6
Continuous
 62
     7
370
    25
100
AcDbLine
 10
-7.6226497308
 20
225.3985432785
 30
0.0
 11
-7.9113248654
 21
225.468129829
 31
0.0
  0
LINE
  5
75B
330
1B
100
AcDbEntity
  8
0
  6
Continuous
 62
     7
370
    25
100
AcDbLine
 10
-5.7113248654
 20
225.468129829
 30
0.0
 11
-6.2886751346
 21
225.468129829
 31
0.0
  0
LINE
  5
75C
330
1B
100
AcDbEntity
  8
0
  6
Continuous
 62
     7
370
    25
100
AcDbLine
 10
-6.2886751346
 20
225.468129829
 30
0.0
 11
-6.5773502692
 21
225.3985432785
 31
0.0
  0
LINE
  5
75D
330
1B
100
AcDbEntity
  8
0
  6
Continuous
 62
     7
370
    25
100
AcDbLine
 10
-6.5773502692
 20
225.3985432785
 30
0.0
 11
-6.2886751346
 21
225.328956728
 31
0.0
  0
LINE
  5
75E
330
1B
100
AcDbEntity
  8
0
  6
Continuous
 62
     7
370
    25
100
AcDbLine
 10
-6.2886751346
 20
225.328956728
 30
0.0
 11
-5.7113248654
 21
225.328956728
 31
0.0
  0
LINE
  5
75F
330
1B
100
AcDbEntity
  8
0
  6
Continuous
 62
     7
370
    25
100
AcDbLine
 10
-5.7113248654
 20
225.328956728
 30
0.0
 11
-5.4226497308
 21
225.3985432785
 31
0.0
  0
LINE
  5
760
330
1B
100
AcDbEntity
  8
0
  6
Continuous
 62
     7
370
    25
100
AcDbLine
 10
-5.4226497308
 20
225.3985432785
 30
0.0
 11
-5.7113248654
 21
225.468129829
 31
0.0
  0
LINE
  5
761
330
1B
100
AcDbEntity
  8
0
  6
Continuous
 62
     7
370
    25
100
AcDbLine
 10
-4.6113248654
 20
225.2029694589
 30
0.0
 11
-5.1886751346
 21
225.2029694589
 31
0.0
  0
LINE
  5
762
330
1B
100
AcDbEntity
  8
0
  6
Continuous
 62
     7
370
    25
100
AcDbLine
 10
-5.1886751346
 20
225.2029694589
 30
0.0
 11
-5.4773502692
 21
225.1333829084
 31
0.0
  0
LINE
  5
763
330
1B
100
AcDbEntity
  8
0
  6
Continuous
 62
     7
370
    25
100
AcDbLine
 10
-5.4773502692
 20
225.1333829084
 30
0.0
 11
-5.1886751346
 21
225.0637963579
 31
0.0
  0
LINE
  5
764
330
1B
100
AcDbEntity
  8
0
  6
Continuous
 62
     7
370
    25
100
AcDbLine
 10
-5.1886751346
 20
225.0637963579
 30
0.0
 11
-4.6113248654
 21
225.0637963579
 31
0.0
  0
LINE
  5
765
330
1B
100
AcDbEntity
  8
0
  6
Continuous
 62
     7
370
    25
100
AcDbLine
 10
-4.6113248654
 20
225.0637963579
 30
0.0
 11
-4.3226497308
 21
225.1333829084
 31
0.0
  0
LINE
  5
766
330
1B
100
AcDbEntity
  8
0
  6
Continuous
 62
     7
370
    25
100
AcDbLine
 10
-4.3226497308
 20
225.1333829084
 30
0.0
 11
-4.6113248654
 21
225.2029694589
 31
0.0
  0
LINE
  5
767
330
1B
100
AcDbEntity
  8
0
  6
Continuous
 62
     7
370
    25
100
AcDbLine
 10
-5.7113248654
 20
224.9378090887
 30
0.0
 11
-6.2886751346
 21
224.9378090887
 31
0.0
  0
LINE
  5
768
330
1B
100
AcDbEntity
  8
0
  6
Continuous
 62
     7
370
    25
100
AcDbLine
 10
-6.2886751346
 20
224.9378090887
 30
0.0
 11
-6.5773502692
 21
224.8682225383
 31
0.0
  0
LINE
  5
769
330
1B
100
AcDbEntity
  8
0
  6
Continuous
 62
     7
370
    25
100
AcDbLine
 10
-6.5773502692
 20
224.8682225383
 30
0.0
 11
-6.2886751346
 21
224.7986359878
 31
0.0
  0
LINE
  5
76A
330
1B
100
AcDbEntity
  8
0
  6
Continuous
 62
     7
370
    25
100
AcDbLine
 10
-6.2886751346
 20
224.7986359878
 30
0.0
 11
-5.7113248654
 21
224.7986359878
 31
0.0
  0
LINE
  5
76B
330
1B
100
AcDbEntity
  8
0
  6
Continuous
 62
     7
370
    25
100
AcDbLine
 10
-5.7113248654
 20
224.7986359878
 30
0.0
 11
-5.4226497308
 21
224.8682225383
 31
0.0
  0
LINE
  5
76C
330
1B
100
AcDbEntity
  8
0
  6
Continuous
 62
     7
370
    25
100
AcDbLine
 10
-5.4226497308
 20
224.8682225383
 30
0.0
 11
-5.7113248654
 21
224.9378090887
 31
0.0
  0
LINE
  5
76D
330
1B
100
AcDbEntity
  8
0
  6
Continuous
 62
     7
370
    25
100
AcDbLine
 10
-7.9113248654
 20
224.9378090887
 30
0.0
 11
-8.4886751346
 21
224.9378090887
 31
0.0
  0
LINE
  5
76E
330
1B
100
AcDbEntity
  8
0
  6
Continuous
 62
     7
370
    25
100
AcDbLine
 10
-8.4886751346
 20
224.9378090887
 30
0.0
 11
-8.7773502692
 21
224.8682225383
 31
0.0
  0
LINE
  5
76F
330
1B
100
AcDbEntity
  8
0
  6
Continuous
 62
     7
370
    25
100
AcDbLine
 10
-8.7773502692
 20
224.8682225383
 30
0.0
 11
-8.4886751346
 21
224.7986359878
 31
0.0
  0
LINE
  5
770
330
1B
100
AcDbEntity
  8
0
  6
Continuous
 62
     7
370
    25
100
AcDbLine
 10
-8.4886751346
 20
224.7986359878
 30
0.0
 11
-7.9113248654
 21
224.7986359878
 31
0.0
  0
LINE
  5
771
330
1B
100
AcDbEntity
  8
0
  6
Continuous
 62
     7
370
    25
100
AcDbLine
 10
-7.9113248654
 20
224.7986359878
 30
0.0
 11
-7.6226497308
 21
224.8682225383
 31
0.0
  0
LINE
  5
772
330
1B
100
AcDbEntity
  8
0
  6
Continuous
 62
     7
370
    25
100
AcDbLine
 10
-7.6226497308
 20
224.8682225383
 30
0.0
 11
-7.9113248654
 21
224.9378090887
 31
0.0
  0
LINE
  5
773
330
1B
100
AcDbEntity
  8
0
  6
Continuous
 62
     7
370
    25
100
AcDbLine
 10
-9.0113248654
 20
225.2029694589
 30
0.0
 11
-9.5886751346
 21
225.2029694589
 31
0.0
  0
LINE
  5
774
330
1B
100
AcDbEntity
  8
0
  6
Continuous
 62
     7
370
    25
100
AcDbLine
 10
-9.5886751346
 20
225.2029694589
 30
0.0
 11
-9.8773502692
 21
225.1333829084
 31
0.0
  0
LINE
  5
775
330
1B
100
AcDbEntity
  8
0
  6
Continuous
 62
     7
370
    25
100
AcDbLine
 10
-9.8773502692
 20
225.1333829084
 30
0.0
 11
-9.5886751346
 21
225.0637963579
 31
0.0
  0
LINE
  5
776
330
1B
100
AcDbEntity
  8
0
  6
Continuous
 62
     7
370
    25
100
AcDbLine
 10
-9.5886751346
 20
225.0637963579
 30
0.0
 11
-9.0113248654
 21
225.0637963579
 31
0.0
  0
LINE
  5
777
330
1B
100
AcDbEntity
  8
0
  6
Continuous
 62
     7
370
    25
100
AcDbLine
 10
-9.0113248654
 20
225.0637963579
 30
0.0
 11
-8.7226497308
 21
225.1333829084
 31
0.0
  0
LINE
  5
778
330
1B
100
AcDbEntity
  8
0
  6
Continuous
 62
     7
370
    25
100
AcDbLine
 10
-8.7226497308
 20
225.1333829084
 30
0.0
 11
-9.0113248654
 21
225.2029694589
 31
0.0
  0
LINE
  5
779
330
1B
100
AcDbEntity
  8
0
  6
Continuous
 62
     7
370
    25
100
AcDbLine
 10
-6.8113248654
 20
225.2029694589
 30
0.0
 11
-7.3886751346
 21
225.2029694589
 31
0.0
  0
LINE
  5
77A
330
1B
100
AcDbEntity
  8
0
  6
Continuous
 62
     7
370
    25
100
AcDbLine
 10
-7.3886751346
 20
225.2029694589
 30
0.0
 11
-7.6773502692
 21
225.1333829084
 31
0.0
  0
LINE
  5
77B
330
1B
100
AcDbEntity
  8
0
  6
Continuous
 62
     7
370
    25
100
AcDbLine
 10
-7.6773502692
 20
225.1333829084
 30
0.0
 11
-7.3886751346
 21
225.0637963579
 31
0.0
  0
LINE
  5
77C
330
1B
100
AcDbEntity
  8
0
  6
Continuous
 62
     7
370
    25
100
AcDbLine
 10
-7.3886751346
 20
225.0637963579
 30
0.0
 11
-6.8113248654
 21
225.0637963579
 31
0.0
  0
LINE
  5
77D
330
1B
100
AcDbEntity
  8
0
  6
Continuous
 62
     7
370
    25
100
AcDbLine
 10
-6.8113248654
 20
225.0637963579
 30
0.0
 11
-6.5226497308
 21
225.1333829084
 31
0.0
  0
LINE
  5
77E
330
1B
100
AcDbEntity
  8
0
  6
Continuous
 62
     7
370
    25
100
AcDbLine
 10
-6.5226497308
 20
225.1333829084
 30
0.0
 11
-6.8113248654
 21
225.2029694589
 31
0.0
  0
LINE
  5
77F
330
1B
100
AcDbEntity
  8
0
  6
Continuous
 62
     7
370
    25
100
AcDbLine
 10
-11.2113248654
 20
225.3846259684
 30
0.0
 11
-11.7886751346
 21
225.3846259684
 31
0.0
  0
LINE
  5
780
330
1B
100
AcDbEntity
  8
0
  6
Continuous
 62
     7
370
    25
100
AcDbLine
 10
-11.7886751346
 20
225.3846259684
 30
0.0
 11
-12.0773502692
 21
225.3150394179
 31
0.0
  0
LINE
  5
781
330
1B
100
AcDbEntity
  8
0
  6
Continuous
 62
     7
370
    25
100
AcDbLine
 10
-12.0773502692
 20
225.3150394179
 30
0.0
 11
-11.7886751346
 21
225.2454528674
 31
0.0
  0
LINE
  5
782
330
1B
100
AcDbEntity
  8
0
  6
Continuous
 62
     7
370
    25
100
AcDbLine
 10
-11.7886751346
 20
225.2454528674
 30
0.0
 11
-11.2113248654
 21
225.2454528674
 31
0.0
  0
LINE
  5
783
330
1B
100
AcDbEntity
  8
0
  6
Continuous
 62
     7
370
    25
100
AcDbLine
 10
-11.2113248654
 20
225.2454528674
 30
0.0
 11
-10.9226497308
 21
225.3150394179
 31
0.0
  0
LINE
  5
784
330
1B
100
AcDbEntity
  8
0
  6
Continuous
 62
     7
370
    25
100
AcDbLine
 10
-10.9226497308
 20
225.3150394179
 30
0.0
 11
-11.2113248654
 21
225.3846259684
 31
0.0
  0
LINE
  5
785
330
1B
100
AcDbEntity
  8
0
  6
Continuous
 62
     7
370
    25
100
AcDbLine
 10
-10.1113248654
 20
225.6497863385
 30
0.0
 11
-10.6886751346
 21
225.6497863385
 31
0.0
  0
LINE
  5
786
330
1B
100
AcDbEntity
  8
0
  6
Continuous
 62
     7
370
    25
100
AcDbLine
 10
-10.6886751346
 20
225.6497863385
 30
0.0
 11
-10.9773502692
 21
225.580199788
 31
0.0
  0
LINE
  5
787
330
1B
100
AcDbEntity
  8
0
  6
Continuous
 62
     7
370
    25
100
AcDbLine
 10
-10.9773502692
 20
225.580199788
 30
0.0
 11
-10.6886751346
 21
225.5106132375
 31
0.0
  0
LINE
  5
788
330
1B
100
AcDbEntity
  8
0
  6
Continuous
 62
     7
370
    25
100
AcDbLine
 10
-10.6886751346
 20
225.5106132375
 30
0.0
 11
-10.1113248654
 21
225.5106132375
 31
0.0
  0
LINE
  5
789
330
1B
100
AcDbEntity
  8
0
  6
Continuous
 62
     7
370
    25
100
AcDbLine
 10
-10.1113248654
 20
225.5106132375
 30
0.0
 11
-9.8226497308
 21
225.580199788
 31
0.0
  0
LINE
  5
78A
330
1B
100
AcDbEntity
  8
0
  6
Continuous
 62
     7
370
    25
100
AcDbLine
 10
-9.8226497308
 20
225.580199788
 30
0.0
 11
-10.1113248654
 21
225.6497863385
 31
0.0
  0
LINE
  5
78B
330
1B
100
AcDbEntity
  8
0
  6
Continuous
 62
     7
370
    25
100
AcDbLine
 10
-9.8654222649
 20
225.8424848544
 30
0.0
 11
-9.5886751346
 21
225.7757736076
 31
0.0
  0
LINE
  5
78C
330
1B
100
AcDbEntity
  8
0
  6
Continuous
 62
     7
370
    25
100
AcDbLine
 10
-9.5886751346
 20
225.7757736076
 30
0.0
 11
-9.0113248654
 21
225.7757736076
 31
0.0
  0
LINE
  5
78D
330
1B
100
AcDbEntity
  8
0
  6
Continuous
 62
     7
370
    25
100
AcDbLine
 10
-9.0113248654
 20
225.7757736076
 30
0.0
 11
-8.7226497308
 21
225.8453601581
 31
0.0
  0
LINE
  5
78E
330
1B
100
AcDbEntity
  8
0
  6
Continuous
 62
     7
370
    25
100
AcDbLine
 10
-8.7226497308
 20
225.8453601581
 30
0.0
 11
-8.9552188072
 21
225.9014220693
 31
0.0
  0
LINE
  5
78F
330
1B
100
AcDbEntity
  8
0
  6
Continuous
 62
     7
370
    25
100
AcDbLine
 10
-6.8113248654
 20
225.9149467086
 30
0.0
 11
-7.3886751346
 21
225.9149467086
 31
0.0
  0
LINE
  5
790
330
1B
100
AcDbEntity
  8
0
  6
Continuous
 62
     7
370
    25
100
AcDbLine
 10
-7.3886751346
 20
225.9149467086
 30
0.0
 11
-7.6773502692
 21
225.8453601581
 31
0.0
  0
LINE
  5
791
330
1B
100
AcDbEntity
  8
0
  6
Continuous
 62
     7
370
    25
100
AcDbLine
 10
-7.6773502692
 20
225.8453601581
 30
0.0
 11
-7.3886751346
 21
225.7757736076
 31
0.0
  0
LINE
  5
792
330
1B
100
AcDbEntity
  8
0
  6
Continuous
 62
     7
370
    25
100
AcDbLine
 10
-7.3886751346
 20
225.7757736076
 30
0.0
 11
-6.8113248654
 21
225.7757736076
 31
0.0
  0
LINE
  5
793
330
1B
100
AcDbEntity
  8
0
  6
Continuous
 62
     7
370
    25
100
AcDbLine
 10
-6.8113248654
 20
225.7757736076
 30
0.0
 11
-6.5226497308
 21
225.8453601581
 31
0.0
  0
LINE
  5
794
330
1B
100
AcDbEntity
  8
0
  6
Continuous
 62
     7
370
    25
100
AcDbLine
 10
-6.5226497308
 20
225.8453601581
 30
0.0
 11
-6.8113248654
 21
225.9149467086
 31
0.0
  0
LINE
  5
795
330
1B
100
AcDbEntity
  8
0
  6
Continuous
 62
     7
370
    25
100
AcDbLine
 10
-4.6113248654
 20
225.9149467086
 30
0.0
 11
-5.1886751346
 21
225.9149467086
 31
0.0
  0
LINE
  5
796
330
1B
100
AcDbEntity
  8
0
  6
Continuous
 62
     7
370
    25
100
AcDbLine
 10
-5.1886751346
 20
225.9149467086
 30
0.0
 11
-5.4773502692
 21
225.8453601581
 31
0.0
  0
LINE
  5
797
330
1B
100
AcDbEntity
  8
0
  6
Continuous
 62
     7
370
    25
100
AcDbLine
 10
-5.4773502692
 20
225.8453601581
 30
0.0
 11
-5.1886751346
 21
225.7757736076
 31
0.0
  0
LINE
  5
798
330
1B
100
AcDbEntity
  8
0
  6
Continuous
 62
     7
370
    25
100
AcDbLine
 10
-5.1886751346
 20
225.7757736076
 30
0.0
 11
-4.6113248654
 21
225.7757736076
 31
0.0
  0
LINE
  5
799
330
1B
100
AcDbEntity
  8
0
  6
Continuous
 62
     7
370
    25
100
AcDbLine
 10
-4.6113248654
 20
225.7757736076
 30
0.0
 11
-4.3226497308
 21
225.8453601581
 31
0.0
  0
LINE
  5
79A
330
1B
100
AcDbEntity
  8
0
  6
Continuous
 62
     7
370
    25
100
AcDbLine
 10
-4.3226497308
 20
225.8453601581
 30
0.0
 11
-4.6113248654
 21
225.9149467086
 31
0.0
  0
LINE
  5
79B
330
1B
100
AcDbEntity
  8
0
  6
Continuous
 62
     7
370
    25
100
AcDbLine
 10
-3.0447811928
 20
225.9014220693
 30
0.0
 11
-3.2773502692
 21
225.8453601581
 31
0.0
  0
LINE
  5
79C
330
1B
100
AcDbEntity
  8
0
  6
Continuous
 62
     7
370
    25
100
AcDbLine
 10
-3.2773502692
 20
225.8453601581
 30
0.0
 11
-2.9886751346
 21
225.7757736076
 31
0.0
  0
LINE
  5
79D
330
1B
100
AcDbEntity
  8
0
  6
Continuous
 62
     7
370
    25
100
AcDbLine
 10
-2.9886751346
 20
225.7757736076
 30
0.0
 11
-2.4113248654
 21
225.7757736076
 31
0.0
  0
LINE
  5
79E
330
1B
100
AcDbEntity
  8
0
  6
Continuous
 62
     7
370
    25
100
AcDbLine
 10
-2.4113248654
 20
225.7757736076
 30
0.0
 11
-2.1345777351
 21
225.8424848544
 31
0.0
  0
LINE
  5
79F
330
1B
100
AcDbEntity
  8
0
  6
Continuous
 62
     7
370
    25
100
AcDbLine
 10
-1.3113248654
 20
225.6497863385
 30
0.0
 11
-1.8886751346
 21
225.6497863385
 31
0.0
  0
LINE
  5
7A0
330
1B
100
AcDbEntity
  8
0
  6
Continuous
 62
     7
370
    25
100
AcDbLine
 10
-1.8886751346
 20
225.6497863385
 30
0.0
 11
-2.1773502692
 21
225.580199788
 31
0.0
  0
LINE
  5
7A1
330
1B
100
AcDbEntity
  8
0
  6
Continuous
 62
     7
370
    25
100
AcDbLine
 10
-2.1773502692
 20
225.580199788
 30
0.0
 11
-1.8886751346
 21
225.5106132375
 31
0.0
  0
LINE
  5
7A2
330
1B
100
AcDbEntity
  8
0
  6
Continuous
 62
     7
370
    25
100
AcDbLine
 10
-1.8886751346
 20
225.5106132375
 30
0.0
 11
-1.3113248654
 21
225.5106132375
 31
0.0
  0
LINE
  5
7A3
330
1B
100
AcDbEntity
  8
0
  6
Continuous
 62
     7
370
    25
100
AcDbLine
 10
-1.3113248654
 20
225.5106132375
 30
0.0
 11
-1.0226497308
 21
225.580199788
 31
0.0
  0
LINE
  5
7A4
330
1B
100
AcDbEntity
  8
0
  6
Continuous
 62
     7
370
    25
100
AcDbLine
 10
-1.0226497308
 20
225.580199788
 30
0.0
 11
-1.3113248654
 21
225.6497863385
 31
0.0
  0
LINE
  5
7A5
330
1B
100
AcDbEntity
  8
0
  6
Continuous
 62
     7
370
    25
100
AcDbLine
 10
-0.2113248654
 20
225.3846259684
 30
0.0
 11
-0.7886751346
 21
225.3846259684
 31
0.0
  0
LINE
  5
7A6
330
1B
100
AcDbEntity
  8
0
  6
Continuous
 62
     7
370
    25
100
AcDbLine
 10
-0.7886751346
 20
225.3846259684
 30
0.0
 11
-1.0773502692
 21
225.3150394179
 31
0.0
  0
LINE
  5
7A7
330
1B
100
AcDbEntity
  8
0
  6
Continuous
 62
     7
370
    25
100
AcDbLine
 10
-1.0773502692
 20
225.3150394179
 30
0.0
 11
-0.7886751346
 21
225.2454528674
 31
0.0
  0
LINE
  5
7A8
330
1B
100
AcDbEntity
  8
0
  6
Continuous
 62
     7
370
    25
100
AcDbLine
 10
-0.7886751346
 20
225.2454528674
 30
0.0
 11
-0.2113248654
 21
225.2454528674
 31
0.0
  0
LINE
  5
7A9
330
1B
100
AcDbEntity
  8
0
  6
Continuous
 62
     7
370
    25
100
AcDbLine
 10
-0.2113248654
 20
225.2454528674
 30
0.0
 11
0.0773502692
 21
225.3150394179
 31
0.0
  0
LINE
  5
7AA
330
1B
100
AcDbEntity
  8
0
  6
Continuous
 62
     7
370
    25
100
AcDbLine
 10
0.0773502692
 20
225.3150394179
 30
0.0
 11
-0.2113248654
 21
225.3846259684
 31
0.0
  0
LINE
  5
7AB
330
1B
100
AcDbEntity
  8
0
  6
Continuous
 62
     7
370
    25
100
AcDbLine
 10
0.8886751346
 20
225.1194655983
 30
0.0
 11
0.3113248654
 21
225.1194655983
 31
0.0
  0
LINE
  5
7AC
330
1B
100
AcDbEntity
  8
0
  6
Continuous
 62
     7
370
    25
100
AcDbLine
 10
0.3113248654
 20
225.1194655983
 30
0.0
 11
0.0226497308
 21
225.0498790478
 31
0.0
  0
LINE
  5
7AD
330
1B
100
AcDbEntity
  8
0
  6
Continuous
 62
     7
370
    25
100
AcDbLine
 10
0.0226497308
 20
225.0498790478
 30
0.0
 11
0.3113248654
 21
224.9802924973
 31
0.0
  0
LINE
  5
7AE
330
1B
100
AcDbEntity
  8
0
  6
Continuous
 62
     7
370
    25
100
AcDbLine
 10
0.3113248654
 20
224.9802924973
 30
0.0
 11
0.8886751346
 21
224.9802924973
 31
0.0
  0
LINE
  5
7AF
330
1B
100
AcDbEntity
  8
0
  6
Continuous
 62
     7
370
    25
100
AcDbLine
 10
0.8886751346
 20
224.9802924973
 30
0.0
 11
1.1773502692
 21
225.0498790478
 31
0.0
  0
LINE
  5
7B0
330
1B
100
AcDbEntity
  8
0
  6
Continuous
 62
     7
370
    25
100
AcDbLine
 10
1.1773502692
 20
225.0498790478
 30
0.0
 11
0.8886751346
 21
225.1194655983
 31
0.0
  0
LINE
  5
7B1
330
1B
100
AcDbEntity
  8
0
  6
Continuous
 62
     7
370
    25
100
AcDbLine
 10
-0.2113248654
 20
224.8543052282
 30
0.0
 11
-0.7886751346
 21
224.8543052282
 31
0.0
  0
LINE
  5
7B2
330
1B
100
AcDbEntity
  8
0
  6
Continuous
 62
     7
370
    25
100
AcDbLine
 10
-0.7886751346
 20
224.8543052282
 30
0.0
 11
-1.0773502692
 21
224.7847186777
 31
0.0
  0
LINE
  5
7B3
330
1B
100
AcDbEntity
  8
0
  6
Continuous
 62
     7
370
    25
100
AcDbLine
 10
-1.0773502692
 20
224.7847186777
 30
0.0
 11
-0.7886751346
 21
224.7151321272
 31
0.0
  0
LINE
  5
7B4
330
1B
100
AcDbEntity
  8
0
  6
Continuous
 62
     7
370
    25
100
AcDbLine
 10
-0.7886751346
 20
224.7151321272
 30
0.0
 11
-0.2113248654
 21
224.7151321272
 31
0.0
  0
LINE
  5
7B5
330
1B
100
AcDbEntity
  8
0
  6
Continuous
 62
     7
370
    25
100
AcDbLine
 10
-0.2113248654
 20
224.7151321272
 30
0.0
 11
0.0773502692
 21
224.7847186777
 31
0.0
  0
LINE
  5
7B6
330
1B
100
AcDbEntity
  8
0
  6
Continuous
 62
     7
370
    25
100
AcDbLine
 10
0.0773502692
 20
224.7847186777
 30
0.0
 11
-0.2113248654
 21
224.8543052282
 31
0.0
  0
LINE
  5
7B7
330
1B
100
AcDbEntity
  8
0
  6
Continuous
 62
     7
370
    25
100
AcDbLine
 10
-1.3113248654
 20
224.5891448581
 30
0.0
 11
-1.8886751346
 21
224.5891448581
 31
0.0
  0
LINE
  5
7B8
330
1B
100
AcDbEntity
  8
0
  6
Continuous
 62
     7
370
    25
100
AcDbLine
 10
-1.8886751346
 20
224.5891448581
 30
0.0
 11
-2.1773502692
 21
224.5195583076
 31
0.0
  0
LINE
  5
7B9
330
1B
100
AcDbEntity
  8
0
  6
Continuous
 62
     7
370
    25
100
AcDbLine
 10
-2.1773502692
 20
224.5195583076
 30
0.0
 11
-1.8886751346
 21
224.4499717571
 31
0.0
  0
LINE
  5
7BA
330
1B
100
AcDbEntity
  8
0
  6
Continuous
 62
     7
370
    25
100
AcDbLine
 10
-1.8886751346
 20
224.4499717571
 30
0.0
 11
-1.3113248654
 21
224.4499717571
 31
0.0
  0
LINE
  5
7BB
330
1B
100
AcDbEntity
  8
0
  6
Continuous
 62
     7
370
    25
100
AcDbLine
 10
-1.3113248654
 20
224.4499717571
 30
0.0
 11
-1.0226497308
 21
224.5195583076
 31
0.0
  0
LINE
  5
7BC
330
1B
100
AcDbEntity
  8
0
  6
Continuous
 62
     7
370
    25
100
AcDbLine
 10
-1.0226497308
 20
224.5195583076
 30
0.0
 11
-1.3113248654
 21
224.5891448581
 31
0.0
  0
LINE
  5
7BD
330
1B
100
AcDbEntity
  8
0
  6
Continuous
 62
     7
370
    25
100
AcDbLine
 10
-2.4113248654
 20
224.323984488
 30
0.0
 11
-2.9886751346
 21
224.323984488
 31
0.0
  0
LINE
  5
7BE
330
1B
100
AcDbEntity
  8
0
  6
Continuous
 62
     7
370
    25
100
AcDbLine
 10
-2.9886751346
 20
224.323984488
 30
0.0
 11
-3.2773502692
 21
224.2543979375
 31
0.0
  0
LINE
  5
7BF
330
1B
100
AcDbEntity
  8
0
  6
Continuous
 62
     7
370
    25
100
AcDbLine
 10
-3.2773502692
 20
224.2543979375
 30
0.0
 11
-2.9886751346
 21
224.184811387
 31
0.0
  0
LINE
  5
7C0
330
1B
100
AcDbEntity
  8
0
  6
Continuous
 62
     7
370
    25
100
AcDbLine
 10
-2.9886751346
 20
224.184811387
 30
0.0
 11
-2.4113248654
 21
224.184811387
 31
0.0
  0
LINE
  5
7C1
330
1B
100
AcDbEntity
  8
0
  6
Continuous
 62
     7
370
    25
100
AcDbLine
 10
-2.4113248654
 20
224.184811387
 30
0.0
 11
-2.1226497308
 21
224.2543979375
 31
0.0
  0
LINE
  5
7C2
330
1B
100
AcDbEntity
  8
0
  6
Continuous
 62
     7
370
    25
100
AcDbLine
 10
-2.1226497308
 20
224.2543979375
 30
0.0
 11
-2.4113248654
 21
224.323984488
 31
0.0
  0
LINE
  5
7C3
330
1B
100
AcDbEntity
  8
0
  6
Continuous
 62
     7
370
    25
100
AcDbLine
 10
-4.6113248654
 20
224.323984488
 30
0.0
 11
-5.1886751346
 21
224.323984488
 31
0.0
  0
LINE
  5
7C4
330
1B
100
AcDbEntity
  8
0
  6
Continuous
 62
     7
370
    25
100
AcDbLine
 10
-5.1886751346
 20
224.323984488
 30
0.0
 11
-5.4773502692
 21
224.2543979375
 31
0.0
  0
LINE
  5
7C5
330
1B
100
AcDbEntity
  8
0
  6
Continuous
 62
     7
370
    25
100
AcDbLine
 10
-5.4773502692
 20
224.2543979375
 30
0.0
 11
-5.1886751346
 21
224.184811387
 31
0.0
  0
LINE
  5
7C6
330
1B
100
AcDbEntity
  8
0
  6
Continuous
 62
     7
370
    25
100
AcDbLine
 10
-5.1886751346
 20
224.184811387
 30
0.0
 11
-4.6113248654
 21
224.184811387
 31
0.0
  0
LINE
  5
7C7
330
1B
100
AcDbEntity
  8
0
  6
Continuous
 62
     7
370
    25
100
AcDbLine
 10
-4.6113248654
 20
224.184811387
 30
0.0
 11
-4.3226497308
 21
224.2543979375
 31
0.0
  0
LINE
  5
7C8
330
1B
100
AcDbEntity
  8
0
  6
Continuous
 62
     7
370
    25
100
AcDbLine
 10
-4.3226497308
 20
224.2543979375
 30
0.0
 11
-4.6113248654
 21
224.323984488
 31
0.0
  0
LINE
  5
7C9
330
1B
100
AcDbEntity
  8
0
  6
Continuous
 62
     7
370
    25
100
AcDbLine
 10
-6.8113248654
 20
224.323984488
 30
0.0
 11
-7.3886751346
 21
224.323984488
 31
0.0
  0
LINE
  5
7CA
330
1B
100
AcDbEntity
  8
0
  6
Continuous
 62
     7
370
    25
100
AcDbLine
 10
-7.3886751346
 20
224.323984488
 30
0.0
 11
-7.6773502692
 21
224.2543979375
 31
0.0
  0
LINE
  5
7CB
330
1B
100
AcDbEntity
  8
0
  6
Continuous
 62
     7
370
    25
100
AcDbLine
 10
-7.6773502692
 20
224.2543979375
 30
0.0
 11
-7.3886751346
 21
224.184811387
 31
0.0
  0
LINE
  5
7CC
330
1B
100
AcDbEntity
  8
0
  6
Continuous
 62
     7
370
    25
100
AcDbLine
 10
-7.3886751346
 20
224.184811387
 30
0.0
 11
-6.8113248654
 21
224.184811387
 31
0.0
  0
LINE
  5
7CD
330
1B
100
AcDbEntity
  8
0
  6
Continuous
 62
     7
370
    25
100
AcDbLine
 10
-6.8113248654
 20
224.184811387
 30
0.0
 11
-6.5226497308
 21
224.2543979375
 31
0.0
  0
LINE
  5
7CE
330
1B
100
AcDbEntity
  8
0
  6
Continuous
 62
     7
370
    25
100
AcDbLine
 10
-6.5226497308
 20
224.2543979375
 30
0.0
 11
-6.8113248654
 21
224.323984488
 31
0.0
  0
LINE
  5
7CF
330
1B
100
AcDbEntity
  8
0
  6
Continuous
 62
     7
370
    25
100
AcDbLine
 10
-9.0113248654
 20
224.323984488
 30
0.0
 11
-9.5886751346
 21
224.323984488
 31
0.0
  0
LINE
  5
7D0
330
1B
100
AcDbEntity
  8
0
  6
Continuous
 62
     7
370
    25
100
AcDbLine
 10
-9.5886751346
 20
224.323984488
 30
0.0
 11
-9.8773502692
 21
224.2543979375
 31
0.0
  0
LINE
  5
7D1
330
1B
100
AcDbEntity
  8
0
  6
Continuous
 62
     7
370
    25
100
AcDbLine
 10
-9.8773502692
 20
224.2543979375
 30
0.0
 11
-9.5886751346
 21
224.184811387
 31
0.0
  0
LINE
  5
7D2
330
1B
100
AcDbEntity
  8
0
  6
Continuous
 62
     7
370
    25
100
AcDbLine
 10
-9.5886751346
 20
224.184811387
 30
0.0
 11
-9.0113248654
 21
224.184811387
 31
0.0
  0
LINE
  5
7D3
330
1B
100
AcDbEntity
  8
0
  6
Continuous
 62
     7
370
    25
100
AcDbLine
 10
-9.0113248654
 20
224.184811387
 30
0.0
 11
-8.7226497308
 21
224.2543979375
 31
0.0
  0
LINE
  5
7D4
330
1B
100
AcDbEntity
  8
0
  6
Continuous
 62
     7
370
    25
100
AcDbLine
 10
-8.7226497308
 20
224.2543979375
 30
0.0
 11
-9.0113248654
 21
224.323984488
 31
0.0
  0
LINE
  5
7D5
330
1B
100
AcDbEntity
  8
0
  6
Continuous
 62
     7
370
    25
100
AcDbLine
 10
-10.1113248654
 20
224.5891448581
 30
0.0
 11
-10.6886751346
 21
224.5891448581
 31
0.0
  0
LINE
  5
7D6
330
1B
100
AcDbEntity
  8
0
  6
Continuous
 62
     7
370
    25
100
AcDbLine
 10
-10.6886751346
 20
224.5891448581
 30
0.0
 11
-10.9773502692
 21
224.5195583076
 31
0.0
  0
LINE
  5
7D7
330
1B
100
AcDbEntity
  8
0
  6
Continuous
 62
     7
370
    25
100
AcDbLine
 10
-10.9773502692
 20
224.5195583076
 30
0.0
 11
-10.6886751346
 21
224.4499717571
 31
0.0
  0
LINE
  5
7D8
330
1B
100
AcDbEntity
  8
0
  6
Continuous
 62
     7
370
    25
100
AcDbLine
 10
-10.6886751346
 20
224.4499717571
 30
0.0
 11
-10.1113248654
 21
224.4499717571
 31
0.0
  0
LINE
  5
7D9
330
1B
100
AcDbEntity
  8
0
  6
Continuous
 62
     7
370
    25
100
AcDbLine
 10
-10.1113248654
 20
224.4499717571
 30
0.0
 11
-9.8226497308
 21
224.5195583076
 31
0.0
  0
LINE
  5
7DA
330
1B
100
AcDbEntity
  8
0
  6
Continuous
 62
     7
370
    25
100
AcDbLine
 10
-9.8226497308
 20
224.5195583076
 30
0.0
 11
-10.1113248654
 21
224.5891448581
 31
0.0
  0
LINE
  5
7DB
330
1B
100
AcDbEntity
  8
0
  6
Continuous
 62
     7
370
    25
100
AcDbLine
 10
-11.2113248654
 20
224.8543052282
 30
0.0
 11
-11.7886751346
 21
224.8543052282
 31
0.0
  0
LINE
  5
7DC
330
1B
100
AcDbEntity
  8
0
  6
Continuous
 62
     7
370
    25
100
AcDbLine
 10
-11.7886751346
 20
224.8543052282
 30
0.0
 11
-12.0773502692
 21
224.7847186777
 31
0.0
  0
LINE
  5
7DD
330
1B
100
AcDbEntity
  8
0
  6
Continuous
 62
     7
370
    25
100
AcDbLine
 10
-12.0773502692
 20
224.7847186777
 30
0.0
 11
-11.7886751346
 21
224.7151321272
 31
0.0
  0
LINE
  5
7DE
330
1B
100
AcDbEntity
  8
0
  6
Continuous
 62
     7
370
    25
100
AcDbLine
 10
-11.7886751346
 20
224.7151321272
 30
0.0
 11
-11.2113248654
 21
224.7151321272
 31
0.0
  0
LINE
  5
7DF
330
1B
100
AcDbEntity
  8
0
  6
Continuous
 62
     7
370
    25
100
AcDbLine
 10
-11.2113248654
 20
224.7151321272
 30
0.0
 11
-10.9226497308
 21
224.7847186777
 31
0.0
  0
LINE
  5
7E0
330
1B
100
AcDbEntity
  8
0
  6
Continuous
 62
     7
370
    25
100
AcDbLine
 10
-10.9226497308
 20
224.7847186777
 30
0.0
 11
-11.2113248654
 21
224.8543052282
 31
0.0
  0
LINE
  5
7E1
330
1B
100
AcDbEntity
  8
0
  6
Continuous
 62
     7
370
    25
100
AcDbLine
 10
-12.3113248654
 20
225.1194655983
 30
0.0
 11
-12.8886751346
 21
225.1194655983
 31
0.0
  0
LINE
  5
7E2
330
1B
100
AcDbEntity
  8
0
  6
Continuous
 62
     7
370
    25
100
AcDbLine
 10
-12.8886751346
 20
225.1194655983
 30
0.0
 11
-13.1773502692
 21
225.0498790478
 31
0.0
  0
LINE
  5
7E3
330
1B
100
AcDbEntity
  8
0
  6
Continuous
 62
     7
370
    25
100
AcDbLine
 10
-13.1773502692
 20
225.0498790478
 30
0.0
 11
-12.8886751346
 21
224.9802924973
 31
0.0
  0
LINE
  5
7E4
330
1B
100
AcDbEntity
  8
0
  6
Continuous
 62
     7
370
    25
100
AcDbLine
 10
-12.8886751346
 20
224.9802924973
 30
0.0
 11
-12.3113248654
 21
224.9802924973
 31
0.0
  0
LINE
  5
7E5
330
1B
100
AcDbEntity
  8
0
  6
Continuous
 62
     7
370
    25
100
AcDbLine
 10
-12.3113248654
 20
224.9802924973
 30
0.0
 11
-12.0226497308
 21
225.0498790478
 31
0.0
  0
LINE
  5
7E6
330
1B
100
AcDbEntity
  8
0
  6
Continuous
 62
     7
370
    25
100
AcDbLine
 10
-12.0226497308
 20
225.0498790478
 30
0.0
 11
-12.3113248654
 21
225.1194655983
 31
0.0
  0
LINE
  5
7E7
330
1B
100
AcDbEntity
  8
0
  6
Continuous
 62
     7
370
    25
100
AcDbLine
 10
-9.0113248654
 20
225.3846259684
 30
0.0
 11
-9.5886751346
 21
225.3846259684
 31
0.0
  0
LINE
  5
7E8
330
1B
100
AcDbEntity
  8
0
  6
Continuous
 62
     7
370
    25
100
AcDbLine
 10
-9.5886751346
 20
225.3846259684
 30
0.0
 11
-9.8773502692
 21
225.3150394179
 31
0.0
  0
LINE
  5
7E9
330
1B
100
AcDbEntity
  8
0
  6
Continuous
 62
     7
370
    25
100
AcDbLine
 10
-9.8773502692
 20
225.3150394179
 30
0.0
 11
-9.5886751346
 21
225.2454528674
 31
0.0
  0
LINE
  5
7EA
330
1B
100
AcDbEntity
  8
0
  6
Continuous
 62
     7
370
    25
100
AcDbLine
 10
-9.5886751346
 20
225.2454528674
 30
0.0
 11
-9.0113248654
 21
225.2454528674
 31
0.0
  0
LINE
  5
7EB
330
1B
100
AcDbEntity
  8
0
  6
Continuous
 62
     7
370
    25
100
AcDbLine
 10
-9.0113248654
 20
225.2454528674
 30
0.0
 11
-8.7226497308
 21
225.3150394179
 31
0.0
  0
LINE
  5
7EC
330
1B
100
AcDbEntity
  8
0
  6
Continuous
 62
     7
370
    25
100
AcDbLine
 10
-8.7226497308
 20
225.3150394179
 30
0.0
 11
-9.0113248654
 21
225.3846259684
 31
0.0
  0
LINE
  5
7ED
330
1B
100
AcDbEntity
  8
0
  6
Continuous
 62
     7
370
    25
100
AcDbLine
 10
-7.9113248654
 20
225.6497863385
 30
0.0
 11
-8.4886751346
 21
225.6497863385
 31
0.0
  0
LINE
  5
7EE
330
1B
100
AcDbEntity
  8
0
  6
Continuous
 62
     7
370
    25
100
AcDbLine
 10
-8.4886751346
 20
225.6497863385
 30
0.0
 11
-8.7773502692
 21
225.580199788
 31
0.0
  0
LINE
  5
7EF
330
1B
100
AcDbEntity
  8
0
  6
Continuous
 62
     7
370
    25
100
AcDbLine
 10
-8.7773502692
 20
225.580199788
 30
0.0
 11
-8.4886751346
 21
225.5106132375
 31
0.0
  0
LINE
  5
7F0
330
1B
100
AcDbEntity
  8
0
  6
Continuous
 62
     7
370
    25
100
AcDbLine
 10
-8.4886751346
 20
225.5106132375
 30
0.0
 11
-7.9113248654
 21
225.5106132375
 31
0.0
  0
LINE
  5
7F1
330
1B
100
AcDbEntity
  8
0
  6
Continuous
 62
     7
370
    25
100
AcDbLine
 10
-7.9113248654
 20
225.5106132375
 30
0.0
 11
-7.6226497308
 21
225.580199788
 31
0.0
  0
LINE
  5
7F2
330
1B
100
AcDbEntity
  8
0
  6
Continuous
 62
     7
370
    25
100
AcDbLine
 10
-7.6226497308
 20
225.580199788
 30
0.0
 11
-7.9113248654
 21
225.6497863385
 31
0.0
  0
LINE
  5
7F3
330
1B
100
AcDbEntity
  8
0
  6
Continuous
 62
     7
370
    25
100
AcDbLine
 10
-5.7113248654
 20
225.6497863385
 30
0.0
 11
-6.2886751346
 21
225.6497863385
 31
0.0
  0
LINE
  5
7F4
330
1B
100
AcDbEntity
  8
0
  6
Continuous
 62
     7
370
    25
100
AcDbLine
 10
-6.2886751346
 20
225.6497863385
 30
0.0
 11
-6.5773502692
 21
225.580199788
 31
0.0
  0
LINE
  5
7F5
330
1B
100
AcDbEntity
  8
0
  6
Continuous
 62
     7
370
    25
100
AcDbLine
 10
-6.5773502692
 20
225.580199788
 30
0.0
 11
-6.2886751346
 21
225.5106132375
 31
0.0
  0
LINE
  5
7F6
330
1B
100
AcDbEntity
  8
0
  6
Continuous
 62
     7
370
    25
100
AcDbLine
 10
-6.2886751346
 20
225.5106132375
 30
0.0
 11
-5.7113248654
 21
225.5106132375
 31
0.0
  0
LINE
  5
7F7
330
1B
100
AcDbEntity
  8
0
  6
Continuous
 62
     7
370
    25
100
AcDbLine
 10
-5.7113248654
 20
225.5106132375
 30
0.0
 11
-5.4226497308
 21
225.580199788
 31
0.0
  0
LINE
  5
7F8
330
1B
100
AcDbEntity
  8
0
  6
Continuous
 62
     7
370
    25
100
AcDbLine
 10
-5.4226497308
 20
225.580199788
 30
0.0
 11
-5.7113248654
 21
225.6497863385
 31
0.0
  0
LINE
  5
7F9
330
1B
100
AcDbEntity
  8
0
  6
Continuous
 62
     7
370
    25
100
AcDbLine
 10
-2.4113248654
 20
225.3846259684
 30
0.0
 11
-2.9886751346
 21
225.3846259684
 31
0.0
  0
LINE
  5
7FA
330
1B
100
AcDbEntity
  8
0
  6
Continuous
 62
     7
370
    25
100
AcDbLine
 10
-2.9886751346
 20
225.3846259684
 30
0.0
 11
-3.2773502692
 21
225.3150394179
 31
0.0
  0
LINE
  5
7FB
330
1B
100
AcDbEntity
  8
0
  6
Continuous
 62
     7
370
    25
100
AcDbLine
 10
-3.2773502692
 20
225.3150394179
 30
0.0
 11
-2.9886751346
 21
225.2454528674
 31
0.0
  0
LINE
  5
7FC
330
1B
100
AcDbEntity
  8
0
  6
Continuous
 62
     7
370
    25
100
AcDbLine
 10
-2.9886751346
 20
225.2454528674
 30
0.0
 11
-2.4113248654
 21
225.2454528674
 31
0.0
  0
LINE
  5
7FD
330
1B
100
AcDbEntity
  8
0
  6
Continuous
 62
     7
370
    25
100
AcDbLine
 10
-2.4113248654
 20
225.2454528674
 30
0.0
 11
-2.1226497308
 21
225.3150394179
 31
0.0
  0
LINE
  5
7FE
330
1B
100
AcDbEntity
  8
0
  6
Continuous
 62
     7
370
    25
100
AcDbLine
 10
-2.1226497308
 20
225.3150394179
 30
0.0
 11
-2.4113248654
 21
225.3846259684
 31
0.0
  0
LINE
  5
7FF
330
1B
100
AcDbEntity
  8
0
  6
Continuous
 62
     7
370
    25
100
AcDbLine
 10
-1.3113248654
 20
225.1194655983
 30
0.0
 11
-1.8886751346
 21
225.1194655983
 31
0.0
  0
LINE
  5
800
330
1B
100
AcDbEntity
  8
0
  6
Continuous
 62
     7
370
    25
100
AcDbLine
 10
-1.8886751346
 20
225.1194655983
 30
0.0
 11
-2.1773502692
 21
225.0498790478
 31
0.0
  0
LINE
  5
801
330
1B
100
AcDbEntity
  8
0
  6
Continuous
 62
     7
370
    25
100
AcDbLine
 10
-2.1773502692
 20
225.0498790478
 30
0.0
 11
-1.8886751346
 21
224.9802924973
 31
0.0
  0
LINE
  5
802
330
1B
100
AcDbEntity
  8
0
  6
Continuous
 62
     7
370
    25
100
AcDbLine
 10
-1.8886751346
 20
224.9802924973
 30
0.0
 11
-1.3113248654
 21
224.9802924973
 31
0.0
  0
LINE
  5
803
330
1B
100
AcDbEntity
  8
0
  6
Continuous
 62
     7
370
    25
100
AcDbLine
 10
-1.3113248654
 20
224.9802924973
 30
0.0
 11
-1.0226497308
 21
225.0498790478
 31
0.0
  0
LINE
  5
804
330
1B
100
AcDbEntity
  8
0
  6
Continuous
 62
     7
370
    25
100
AcDbLine
 10
-1.0226497308
 20
225.0498790478
 30
0.0
 11
-1.3113248654
 21
225.1194655983
 31
0.0
  0
LINE
  5
805
330
1B
100
AcDbEntity
  8
0
  6
Continuous
 62
     7
370
    25
100
AcDbLine
 10
-2.4113248654
 20
224.8543052282
 30
0.0
 11
-2.9886751346
 21
224.8543052282
 31
0.0
  0
LINE
  5
806
330
1B
100
AcDbEntity
  8
0
  6
Continuous
 62
     7
370
    25
100
AcDbLine
 10
-2.9886751346
 20
224.8543052282
 30
0.0
 11
-3.2773502692
 21
224.7847186777
 31
0.0
  0
LINE
  5
807
330
1B
100
AcDbEntity
  8
0
  6
Continuous
 62
     7
370
    25
100
AcDbLine
 10
-3.2773502692
 20
224.7847186777
 30
0.0
 11
-2.9886751346
 21
224.7151321272
 31
0.0
  0
LINE
  5
808
330
1B
100
AcDbEntity
  8
0
  6
Continuous
 62
     7
370
    25
100
AcDbLine
 10
-2.9886751346
 20
224.7151321272
 30
0.0
 11
-2.4113248654
 21
224.7151321272
 31
0.0
  0
LINE
  5
809
330
1B
100
AcDbEntity
  8
0
  6
Continuous
 62
     7
370
    25
100
AcDbLine
 10
-2.4113248654
 20
224.7151321272
 30
0.0
 11
-2.1226497308
 21
224.7847186777
 31
0.0
  0
LINE
  5
80A
330
1B
100
AcDbEntity
  8
0
  6
Continuous
 62
     7
370
    25
100
AcDbLine
 10
-2.1226497308
 20
224.7847186777
 30
0.0
 11
-2.4113248654
 21
224.8543052282
 31
0.0
  0
LINE
  5
80B
330
1B
100
AcDbEntity
  8
0
  6
Continuous
 62
     7
370
    25
100
AcDbLine
 10
-5.7113248654
 20
224.5891448581
 30
0.0
 11
-6.2886751346
 21
224.5891448581
 31
0.0
  0
LINE
  5
80C
330
1B
100
AcDbEntity
  8
0
  6
Continuous
 62
     7
370
    25
100
AcDbLine
 10
-6.2886751346
 20
224.5891448581
 30
0.0
 11
-6.5773502692
 21
224.5195583076
 31
0.0
  0
LINE
  5
80D
330
1B
100
AcDbEntity
  8
0
  6
Continuous
 62
     7
370
    25
100
AcDbLine
 10
-6.5773502692
 20
224.5195583076
 30
0.0
 11
-6.2886751346
 21
224.4499717571
 31
0.0
  0
LINE
  5
80E
330
1B
100
AcDbEntity
  8
0
  6
Continuous
 62
     7
370
    25
100
AcDbLine
 10
-6.2886751346
 20
224.4499717571
 30
0.0
 11
-5.7113248654
 21
224.4499717571
 31
0.0
  0
LINE
  5
80F
330
1B
100
AcDbEntity
  8
0
  6
Continuous
 62
     7
370
    25
100
AcDbLine
 10
-5.7113248654
 20
224.4499717571
 30
0.0
 11
-5.4226497308
 21
224.5195583076
 31
0.0
  0
LINE
  5
810
330
1B
100
AcDbEntity
  8
0
  6
Continuous
 62
     7
370
    25
100
AcDbLine
 10
-5.4226497308
 20
224.5195583076
 30
0.0
 11
-5.7113248654
 21
224.5891448581
 31
0.0
  0
LINE
  5
811
330
1B
100
AcDbEntity
  8
0
  6
Continuous
 62
     7
370
    25
100
AcDbLine
 10
-7.9113248654
 20
224.5891448581
 30
0.0
 11
-8.4886751346
 21
224.5891448581
 31
0.0
  0
LINE
  5
812
330
1B
100
AcDbEntity
  8
0
  6
Continuous
 62
     7
370
    25
100
AcDbLine
 10
-8.4886751346
 20
224.5891448581
 30
0.0
 11
-8.7773502692
 21
224.5195583076
 31
0.0
  0
LINE
  5
813
330
1B
100
AcDbEntity
  8
0
  6
Continuous
 62
     7
370
    25
100
AcDbLine
 10
-8.7773502692
 20
224.5195583076
 30
0.0
 11
-8.4886751346
 21
224.4499717571
 31
0.0
  0
LINE
  5
814
330
1B
100
AcDbEntity
  8
0
  6
Continuous
 62
     7
370
    25
100
AcDbLine
 10
-8.4886751346
 20
224.4499717571
 30
0.0
 11
-7.9113248654
 21
224.4499717571
 31
0.0
  0
LINE
  5
815
330
1B
100
AcDbEntity
  8
0
  6
Continuous
 62
     7
370
    25
100
AcDbLine
 10
-7.9113248654
 20
224.4499717571
 30
0.0
 11
-7.6226497308
 21
224.5195583076
 31
0.0
  0
LINE
  5
816
330
1B
100
AcDbEntity
  8
0
  6
Continuous
 62
     7
370
    25
100
AcDbLine
 10
-7.6226497308
 20
224.5195583076
 30
0.0
 11
-7.9113248654
 21
224.5891448581
 31
0.0
  0
LINE
  5
817
330
1B
100
AcDbEntity
  8
0
  6
Continuous
 62
     7
370
    25
100
AcDbLine
 10
-9.0113248654
 20
224.8543052282
 30
0.0
 11
-9.5886751346
 21
224.8543052282
 31
0.0
  0
LINE
  5
818
330
1B
100
AcDbEntity
  8
0
  6
Continuous
 62
     7
370
    25
100
AcDbLine
 10
-9.5886751346
 20
224.8543052282
 30
0.0
 11
-9.8773502692
 21
224.7847186777
 31
0.0
  0
LINE
  5
819
330
1B
100
AcDbEntity
  8
0
  6
Continuous
 62
     7
370
    25
100
AcDbLine
 10
-9.8773502692
 20
224.7847186777
 30
0.0
 11
-9.5886751346
 21
224.7151321272
 31
0.0
  0
LINE
  5
81A
330
1B
100
AcDbEntity
  8
0
  6
Continuous
 62
     7
370
    25
100
AcDbLine
 10
-9.5886751346
 20
224.7151321272
 30
0.0
 11
-9.0113248654
 21
224.7151321272
 31
0.0
  0
LINE
  5
81B
330
1B
100
AcDbEntity
  8
0
  6
Continuous
 62
     7
370
    25
100
AcDbLine
 10
-9.0113248654
 20
224.7151321272
 30
0.0
 11
-8.7226497308
 21
224.7847186777
 31
0.0
  0
LINE
  5
81C
330
1B
100
AcDbEntity
  8
0
  6
Continuous
 62
     7
370
    25
100
AcDbLine
 10
-8.7226497308
 20
224.7847186777
 30
0.0
 11
-9.0113248654
 21
224.8543052282
 31
0.0
  0
LINE
  5
81D
330
1B
100
AcDbEntity
  8
0
  6
Continuous
 62
     7
370
    25
100
AcDbLine
 10
-6.8113248654
 20
225.3846259684
 30
0.0
 11
-7.3886751346
 21
225.3846259684
 31
0.0
  0
LINE
  5
81E
330
1B
100
AcDbEntity
  8
0
  6
Continuous
 62
     7
370
    25
100
AcDbLine
 10
-7.3886751346
 20
225.3846259684
 30
0.0
 11
-7.6773502692
 21
225.3150394179
 31
0.0
  0
LINE
  5
81F
330
1B
100
AcDbEntity
  8
0
  6
Continuous
 62
     7
370
    25
100
AcDbLine
 10
-7.6773502692
 20
225.3150394179
 30
0.0
 11
-7.3886751346
 21
225.2454528674
 31
0.0
  0
LINE
  5
820
330
1B
100
AcDbEntity
  8
0
  6
Continuous
 62
     7
370
    25
100
AcDbLine
 10
-7.3886751346
 20
225.2454528674
 30
0.0
 11
-6.8113248654
 21
225.2454528674
 31
0.0
  0
LINE
  5
821
330
1B
100
AcDbEntity
  8
0
  6
Continuous
 62
     7
370
    25
100
AcDbLine
 10
-6.8113248654
 20
225.2454528674
 30
0.0
 11
-6.5226497308
 21
225.3150394179
 31
0.0
  0
LINE
  5
822
330
1B
100
AcDbEntity
  8
0
  6
Continuous
 62
     7
370
    25
100
AcDbLine
 10
-6.5226497308
 20
225.3150394179
 30
0.0
 11
-6.8113248654
 21
225.3846259684
 31
0.0
  0
LINE
  5
823
330
1B
100
AcDbEntity
  8
0
  6
Continuous
 62
     7
370
    25
100
AcDbLine
 10
-4.6113248654
 20
225.3846259684
 30
0.0
 11
-5.1886751346
 21
225.3846259684
 31
0.0
  0
LINE
  5
824
330
1B
100
AcDbEntity
  8
0
  6
Continuous
 62
     7
370
    25
100
AcDbLine
 10
-5.1886751346
 20
225.3846259684
 30
0.0
 11
-5.4773502692
 21
225.3150394179
 31
0.0
  0
LINE
  5
825
330
1B
100
AcDbEntity
  8
0
  6
Continuous
 62
     7
370
    25
100
AcDbLine
 10
-5.4773502692
 20
225.3150394179
 30
0.0
 11
-5.1886751346
 21
225.2454528674
 31
0.0
  0
LINE
  5
826
330
1B
100
AcDbEntity
  8
0
  6
Continuous
 62
     7
370
    25
100
AcDbLine
 10
-5.1886751346
 20
225.2454528674
 30
0.0
 11
-4.6113248654
 21
225.2454528674
 31
0.0
  0
LINE
  5
827
330
1B
100
AcDbEntity
  8
0
  6
Continuous
 62
     7
370
    25
100
AcDbLine
 10
-4.6113248654
 20
225.2454528674
 30
0.0
 11
-4.3226497308
 21
225.3150394179
 31
0.0
  0
LINE
  5
828
330
1B
100
AcDbEntity
  8
0
  6
Continuous
 62
     7
370
    25
100
AcDbLine
 10
-4.3226497308
 20
225.3150394179
 30
0.0
 11
-4.6113248654
 21
225.3846259684
 31
0.0
  0
LINE
  5
829
330
1B
100
AcDbEntity
  8
0
  6
Continuous
 62
     7
370
    25
100
AcDbLine
 10
-3.5113248654
 20
225.1194655983
 30
0.0
 11
-4.0886751346
 21
225.1194655983
 31
0.0
  0
LINE
  5
82A
330
1B
100
AcDbEntity
  8
0
  6
Continuous
 62
     7
370
    25
100
AcDbLine
 10
-4.0886751346
 20
225.1194655983
 30
0.0
 11
-4.3773502692
 21
225.0498790478
 31
0.0
  0
LINE
  5
82B
330
1B
100
AcDbEntity
  8
0
  6
Continuous
 62
     7
370
    25
100
AcDbLine
 10
-4.3773502692
 20
225.0498790478
 30
0.0
 11
-4.0886751346
 21
224.9802924973
 31
0.0
  0
LINE
  5
82C
330
1B
100
AcDbEntity
  8
0
  6
Continuous
 62
     7
370
    25
100
AcDbLine
 10
-4.0886751346
 20
224.9802924973
 30
0.0
 11
-3.5113248654
 21
224.9802924973
 31
0.0
  0
LINE
  5
82D
330
1B
100
AcDbEntity
  8
0
  6
Continuous
 62
     7
370
    25
100
AcDbLine
 10
-3.5113248654
 20
224.9802924973
 30
0.0
 11
-3.2226497308
 21
225.0498790478
 31
0.0
  0
LINE
  5
82E
330
1B
100
AcDbEntity
  8
0
  6
Continuous
 62
     7
370
    25
100
AcDbLine
 10
-3.2226497308
 20
225.0498790478
 30
0.0
 11
-3.5113248654
 21
225.1194655983
 31
0.0
  0
LINE
  5
82F
330
1B
100
AcDbEntity
  8
0
  6
Continuous
 62
     7
370
    25
100
AcDbLine
 10
-4.6113248654
 20
224.8543052282
 30
0.0
 11
-5.1886751346
 21
224.8543052282
 31
0.0
  0
LINE
  5
830
330
1B
100
AcDbEntity
  8
0
  6
Continuous
 62
     7
370
    25
100
AcDbLine
 10
-5.1886751346
 20
224.8543052282
 30
0.0
 11
-5.4773502692
 21
224.7847186777
 31
0.0
  0
LINE
  5
831
330
1B
100
AcDbEntity
  8
0
  6
Continuous
 62
     7
370
    25
100
AcDbLine
 10
-5.4773502692
 20
224.7847186777
 30
0.0
 11
-5.1886751346
 21
224.7151321272
 31
0.0
  0
LINE
  5
832
330
1B
100
AcDbEntity
  8
0
  6
Continuous
 62
     7
370
    25
100
AcDbLine
 10
-5.1886751346
 20
224.7151321272
 30
0.0
 11
-4.6113248654
 21
224.7151321272
 31
0.0
  0
LINE
  5
833
330
1B
100
AcDbEntity
  8
0
  6
Continuous
 62
     7
370
    25
100
AcDbLine
 10
-4.6113248654
 20
224.7151321272
 30
0.0
 11
-4.3226497308
 21
224.7847186777
 31
0.0
  0
LINE
  5
834
330
1B
100
AcDbEntity
  8
0
  6
Continuous
 62
     7
370
    25
100
AcDbLine
 10
-4.3226497308
 20
224.7847186777
 30
0.0
 11
-4.6113248654
 21
224.8543052282
 31
0.0
  0
LINE
  5
835
330
1B
100
AcDbEntity
  8
0
  6
Continuous
 62
     7
370
    25
100
AcDbLine
 10
-6.8113248654
 20
224.8543052282
 30
0.0
 11
-7.3886751346
 21
224.8543052282
 31
0.0
  0
LINE
  5
836
330
1B
100
AcDbEntity
  8
0
  6
Continuous
 62
     7
370
    25
100
AcDbLine
 10
-7.3886751346
 20
224.8543052282
 30
0.0
 11
-7.6773502692
 21
224.7847186777
 31
0.0
  0
LINE
  5
837
330
1B
100
AcDbEntity
  8
0
  6
Continuous
 62
     7
370
    25
100
AcDbLine
 10
-7.6773502692
 20
224.7847186777
 30
0.0
 11
-7.3886751346
 21
224.7151321272
 31
0.0
  0
LINE
  5
838
330
1B
100
AcDbEntity
  8
0
  6
Continuous
 62
     7
370
    25
100
AcDbLine
 10
-7.3886751346
 20
224.7151321272
 30
0.0
 11
-6.8113248654
 21
224.7151321272
 31
0.0
  0
LINE
  5
839
330
1B
100
AcDbEntity
  8
0
  6
Continuous
 62
     7
370
    25
100
AcDbLine
 10
-6.8113248654
 20
224.7151321272
 30
0.0
 11
-6.5226497308
 21
224.7847186777
 31
0.0
  0
LINE
  5
83A
330
1B
100
AcDbEntity
  8
0
  6
Continuous
 62
     7
370
    25
100
AcDbLine
 10
-6.5226497308
 20
224.7847186777
 30
0.0
 11
-6.8113248654
 21
224.8543052282
 31
0.0
  0
LINE
  5
83B
330
1B
100
AcDbEntity
  8
0
  6
Continuous
 62
     7
370
    25
100
AcDbLine
 10
1.6970187651
 20
225.2029694589
 30
0.0
 11
1.4113248654
 21
225.2029694589
 31
0.0
  0
LINE
  5
83C
330
1B
100
AcDbEntity
  8
0
  6
Continuous
 62
     7
370
    25
100
AcDbLine
 10
1.4113248654
 20
225.2029694589
 30
0.0
 11
1.1226497308
 21
225.1333829084
 31
0.0
  0
LINE
  5
83D
330
1B
100
AcDbEntity
  8
0
  6
Continuous
 62
     7
370
    25
100
AcDbLine
 10
1.1226497308
 20
225.1333829084
 30
0.0
 11
1.4113248654
 21
225.0637963579
 31
0.0
  0
LINE
  5
83E
330
1B
100
AcDbEntity
  8
0
  6
Continuous
 62
     7
370
    25
100
AcDbLine
 10
1.9555166872
 20
225.0637963579
 30
0.0
 11
1.4113248654
 21
225.0637963579
 31
0.0
  0
LINE
  5
83F
330
1B
100
AcDbEntity
  8
0
  6
Continuous
 62
     7
370
    25
100
AcDbLine
 10
2.0033279586
 20
225.0254709479
 30
0.0
 11
1.9886751346
 21
225.0290030827
 31
0.0
  0
LINE
  5
840
330
1B
100
AcDbEntity
  8
0
  6
Continuous
 62
     7
370
    25
100
AcDbLine
 10
1.9886751346
 20
225.0290030827
 30
0.0
 11
1.4113248654
 21
225.0290030827
 31
0.0
  0
LINE
  5
841
330
1B
100
AcDbEntity
  8
0
  6
Continuous
 62
     7
370
    25
100
AcDbLine
 10
1.4113248654
 20
225.0290030827
 30
0.0
 11
1.1226497308
 21
224.9594165322
 31
0.0
  0
LINE
  5
842
330
1B
100
AcDbEntity
  8
0
  6
Continuous
 62
     7
370
    25
100
AcDbLine
 10
1.1226497308
 20
224.9594165322
 30
0.0
 11
1.4113248654
 21
224.8898299817
 31
0.0
  0
LINE
  5
843
330
1B
100
AcDbEntity
  8
0
  6
Continuous
 62
     7
370
    25
100
AcDbLine
 10
1.9886751346
 20
224.8898299817
 30
0.0
 11
1.4113248654
 21
224.8898299817
 31
0.0
  0
LINE
  5
844
330
1B
100
AcDbEntity
  8
0
  6
Continuous
 62
     7
370
    25
100
AcDbLine
 10
1.9886751346
 20
224.8898299817
 30
0.0
 11
2.0272471321
 21
224.89912795
 31
0.0
  0
LINE
  5
845
330
1B
100
AcDbEntity
  8
0
  6
Continuous
 62
     7
370
    25
100
AcDbLine
 10
1.9771709201
 20
224.8543052282
 30
0.0
 11
1.4113248654
 21
224.8543052282
 31
0.0
  0
LINE
  5
846
330
1B
100
AcDbEntity
  8
0
  6
Continuous
 62
     7
370
    25
100
AcDbLine
 10
1.4113248654
 20
224.8543052282
 30
0.0
 11
1.1226497308
 21
224.7847186777
 31
0.0
  0
LINE
  5
847
330
1B
100
AcDbEntity
  8
0
  6
Continuous
 62
     7
370
    25
100
AcDbLine
 10
1.1226497308
 20
224.7847186777
 30
0.0
 11
1.4113248654
 21
224.7151321272
 31
0.0
  0
LINE
  5
848
330
1B
100
AcDbEntity
  8
0
  6
Continuous
 62
     7
370
    25
100
AcDbLine
 10
1.4113248654
 20
224.7151321272
 30
0.0
 11
1.7346457005
 21
224.7151321272
 31
0.0
  0
LINE
  5
849
330
1B
100
AcDbEntity
  8
0
  6
Continuous
 62
     7
370
    25
100
AcDbLine
 10
1.1619151583
 20
224.5232790164
 30
0.0
 11
0.8886751346
 21
224.5891448581
 31
0.0
  0
LINE
  5
84A
330
1B
100
AcDbEntity
  8
0
  6
Continuous
 62
     7
370
    25
100
AcDbLine
 10
0.8886751346
 20
224.5891448581
 30
0.0
 11
0.3113248654
 21
224.5891448581
 31
0.0
  0
LINE
  5
84B
330
1B
100
AcDbEntity
  8
0
  6
Continuous
 62
     7
370
    25
100
AcDbLine
 10
0.3113248654
 20
224.5891448581
 30
0.0
 11
0.0226497308
 21
224.5195583076
 31
0.0
  0
LINE
  5
84C
330
1B
100
AcDbEntity
  8
0
  6
Continuous
 62
     7
370
    25
100
AcDbLine
 10
0.0226497308
 20
224.5195583076
 30
0.0
 11
0.3113248654
 21
224.4499717571
 31
0.0
  0
LINE
  5
84D
330
1B
100
AcDbEntity
  8
0
  6
Continuous
 62
     7
370
    25
100
AcDbLine
 10
0.3113248654
 20
224.4499717571
 30
0.0
 11
0.8578049129
 21
224.4499717571
 31
0.0
  0
LINE
  5
84E
330
1B
100
AcDbEntity
  8
0
  6
Continuous
 62
     7
370
    25
100
AcDbLine
 10
-0.0496644479
 20
224.2850154551
 30
0.0
 11
-0.2113248654
 21
224.323984488
 31
0.0
  0
LINE
  5
84F
330
1B
100
AcDbEntity
  8
0
  6
Continuous
 62
     7
370
    25
100
AcDbLine
 10
-0.2113248654
 20
224.323984488
 30
0.0
 11
-0.7886751346
 21
224.323984488
 31
0.0
  0
LINE
  5
850
330
1B
100
AcDbEntity
  8
0
  6
Continuous
 62
     7
370
    25
100
AcDbLine
 10
-0.7886751346
 20
224.323984488
 30
0.0
 11
-1.0773502692
 21
224.2543979375
 31
0.0
  0
LINE
  5
851
330
1B
100
AcDbEntity
  8
0
  6
Continuous
 62
     7
370
    25
100
AcDbLine
 10
-1.0773502692
 20
224.2543979375
 30
0.0
 11
-0.7944272418
 21
224.1861979605
 31
0.0
  0
LINE
  5
852
330
1B
100
AcDbEntity
  8
0
  6
Continuous
 62
     7
370
    25
100
AcDbLine
 10
-1.0483052158
 20
224.157751042
 30
0.0
 11
-1.0226497308
 21
224.1639354219
 31
0.0
  0
LINE
  5
853
330
1B
100
AcDbEntity
  8
0
  6
Continuous
 62
     7
370
    25
100
AcDbLine
 10
-1.0226497308
 20
224.1639354219
 30
0.0
 11
-1.3113248654
 21
224.2335219723
 31
0.0
  0
LINE
  5
854
330
1B
100
AcDbEntity
  8
0
  6
Continuous
 62
     7
370
    25
100
AcDbLine
 10
-1.3113248654
 20
224.2335219723
 30
0.0
 11
-1.8886751346
 21
224.2335219723
 31
0.0
  0
LINE
  5
855
330
1B
100
AcDbEntity
  8
0
  6
Continuous
 62
     7
370
    25
100
AcDbLine
 10
-1.8886751346
 20
224.2335219723
 30
0.0
 11
-2.1773502692
 21
224.1639354219
 31
0.0
  0
LINE
  5
856
330
1B
100
AcDbEntity
  8
0
  6
Continuous
 62
     7
370
    25
100
AcDbLine
 10
-2.1773502692
 20
224.1639354219
 30
0.0
 11
-1.8886751346
 21
224.0943488714
 31
0.0
  0
LINE
  5
857
330
1B
100
AcDbEntity
  8
0
  6
Continuous
 62
     7
370
    25
100
AcDbLine
 10
-1.8886751346
 20
224.0943488714
 30
0.0
 11
-1.7021826039
 21
224.0943488714
 31
0.0
  0
LINE
  5
858
330
1B
100
AcDbEntity
  8
0
  6
Continuous
 62
     7
370
    25
100
AcDbLine
 10
-2.1986031173
 20
224.0544324934
 30
0.0
 11
-2.1226497308
 21
224.072741428
 31
0.0
  0
LINE
  5
859
330
1B
100
AcDbEntity
  8
0
  6
Continuous
 62
     7
370
    25
100
AcDbLine
 10
-2.1226497308
 20
224.072741428
 30
0.0
 11
-2.4113248654
 21
224.1423279784
 31
0.0
  0
LINE
  5
85A
330
1B
100
AcDbEntity
  8
0
  6
Continuous
 62
     7
370
    25
100
AcDbLine
 10
-2.4113248654
 20
224.1423279784
 30
0.0
 11
-2.9886751346
 21
224.1423279784
 31
0.0
  0
LINE
  5
85B
330
1B
100
AcDbEntity
  8
0
  6
Continuous
 62
     7
370
    25
100
AcDbLine
 10
-2.9886751346
 20
224.1423279784
 30
0.0
 11
-3.2773502692
 21
224.072741428
 31
0.0
  0
LINE
  5
85C
330
1B
100
AcDbEntity
  8
0
  6
Continuous
 62
     7
370
    25
100
AcDbLine
 10
-3.2773502692
 20
224.072741428
 30
0.0
 11
-2.9894197803
 21
224.003334378
 31
0.0
  0
LINE
  5
85D
330
1B
100
AcDbEntity
  8
0
  6
Continuous
 62
     7
370
    25
100
AcDbLine
 10
-3.2284018381
 20
223.9906241409
 30
0.0
 11
-3.5113248654
 21
224.0588241179
 31
0.0
  0
LINE
  5
85E
330
1B
100
AcDbEntity
  8
0
  6
Continuous
 62
     7
370
    25
100
AcDbLine
 10
-3.5113248654
 20
224.0588241179
 30
0.0
 11
-4.0886751346
 21
224.0588241179
 31
0.0
  0
LINE
  5
85F
330
1B
100
AcDbEntity
  8
0
  6
Continuous
 62
     7
370
    25
100
AcDbLine
 10
-4.0886751346
 20
224.0588241179
 30
0.0
 11
-4.3773502692
 21
223.9892375674
 31
0.0
  0
LINE
  5
860
330
1B
100
AcDbEntity
  8
0
  6
Continuous
 62
     7
370
    25
100
AcDbLine
 10
-4.3773502692
 20
223.9892375674
 30
0.0
 11
-4.2156898517
 21
223.9502685345
 31
0.0
  0
LINE
  5
861
330
1B
100
AcDbEntity
  8
0
  6
Continuous
 62
     7
370
    25
100
AcDbLine
 10
-5.6958897546
 20
223.9233717257
 30
0.0
 11
-5.4226497308
 21
223.9892375674
 31
0.0
  0
LINE
  5
862
330
1B
100
AcDbEntity
  8
0
  6
Continuous
 62
     7
370
    25
100
AcDbLine
 10
-5.4226497308
 20
223.9892375674
 30
0.0
 11
-5.7113248654
 21
224.0588241179
 31
0.0
  0
LINE
  5
863
330
1B
100
AcDbEntity
  8
0
  6
Continuous
 62
     7
370
    25
100
AcDbLine
 10
-5.7113248654
 20
224.0588241179
 30
0.0
 11
-6.2886751346
 21
224.0588241179
 31
0.0
  0
LINE
  5
864
330
1B
100
AcDbEntity
  8
0
  6
Continuous
 62
     7
370
    25
100
AcDbLine
 10
-6.2886751346
 20
224.0588241179
 30
0.0
 11
-6.5773502692
 21
223.9892375674
 31
0.0
  0
LINE
  5
865
330
1B
100
AcDbEntity
  8
0
  6
Continuous
 62
     7
370
    25
100
AcDbLine
 10
-6.5773502692
 20
223.9892375674
 30
0.0
 11
-6.3041102454
 21
223.9233717257
 31
0.0
  0
LINE
  5
866
330
1B
100
AcDbEntity
  8
0
  6
Continuous
 62
     7
370
    25
100
AcDbLine
 10
-7.7843101483
 20
223.9502685345
 30
0.0
 11
-7.6226497308
 21
223.9892375674
 31
0.0
  0
LINE
  5
867
330
1B
100
AcDbEntity
  8
0
  6
Continuous
 62
     7
370
    25
100
AcDbLine
 10
-7.6226497308
 20
223.9892375674
 30
0.0
 11
-7.9113248654
 21
224.0588241179
 31
0.0
  0
LINE
  5
868
330
1B
100
AcDbEntity
  8
0
  6
Continuous
 62
     7
370
    25
100
AcDbLine
 10
-7.9113248654
 20
224.0588241179
 30
0.0
 11
-8.4886751346
 21
224.0588241179
 31
0.0
  0
LINE
  5
869
330
1B
100
AcDbEntity
  8
0
  6
Continuous
 62
     7
370
    25
100
AcDbLine
 10
-8.4886751346
 20
224.0588241179
 30
0.0
 11
-8.7715981619
 21
223.9906241409
 31
0.0
  0
LINE
  5
86A
330
1B
100
AcDbEntity
  8
0
  6
Continuous
 62
     7
370
    25
100
AcDbLine
 10
-9.0105804626
 20
224.0033343194
 30
0.0
 11
-8.7226497308
 21
224.072741428
 31
0.0
  0
LINE
  5
86B
330
1B
100
AcDbEntity
  8
0
  6
Continuous
 62
     7
370
    25
100
AcDbLine
 10
-8.7226497308
 20
224.072741428
 30
0.0
 11
-9.0113248654
 21
224.1423279784
 31
0.0
  0
LINE
  5
86C
330
1B
100
AcDbEntity
  8
0
  6
Continuous
 62
     7
370
    25
100
AcDbLine
 10
-9.0113248654
 20
224.1423279784
 30
0.0
 11
-9.5886751346
 21
224.1423279784
 31
0.0
  0
LINE
  5
86D
330
1B
100
AcDbEntity
  8
0
  6
Continuous
 62
     7
370
    25
100
AcDbLine
 10
-9.5886751346
 20
224.1423279784
 30
0.0
 11
-9.8773502692
 21
224.072741428
 31
0.0
  0
LINE
  5
86E
330
1B
100
AcDbEntity
  8
0
  6
Continuous
 62
     7
370
    25
100
AcDbLine
 10
-9.8773502692
 20
224.072741428
 30
0.0
 11
-9.8013968827
 21
224.0544324934
 31
0.0
  0
LINE
  5
86F
330
1B
100
AcDbEntity
  8
0
  6
Continuous
 62
     7
370
    25
100
AcDbLine
 10
-10.2978173961
 20
224.0943488714
 30
0.0
 11
-10.1113248654
 21
224.0943488714
 31
0.0
  0
LINE
  5
870
330
1B
100
AcDbEntity
  8
0
  6
Continuous
 62
     7
370
    25
100
AcDbLine
 10
-10.1113248654
 20
224.0943488714
 30
0.0
 11
-9.8226497308
 21
224.1639354219
 31
0.0
  0
LINE
  5
871
330
1B
100
AcDbEntity
  8
0
  6
Continuous
 62
     7
370
    25
100
AcDbLine
 10
-9.8226497308
 20
224.1639354219
 30
0.0
 11
-10.1113248654
 21
224.2335219723
 31
0.0
  0
LINE
  5
872
330
1B
100
AcDbEntity
  8
0
  6
Continuous
 62
     7
370
    25
100
AcDbLine
 10
-10.1113248654
 20
224.2335219723
 30
0.0
 11
-10.6886751346
 21
224.2335219723
 31
0.0
  0
LINE
  5
873
330
1B
100
AcDbEntity
  8
0
  6
Continuous
 62
     7
370
    25
100
AcDbLine
 10
-10.6886751346
 20
224.2335219723
 30
0.0
 11
-10.9773502692
 21
224.1639354219
 31
0.0
  0
LINE
  5
874
330
1B
100
AcDbEntity
  8
0
  6
Continuous
 62
     7
370
    25
100
AcDbLine
 10
-10.9773502692
 20
224.1639354219
 30
0.0
 11
-10.9516947842
 21
224.157751042
 31
0.0
  0
LINE
  5
875
330
1B
100
AcDbEntity
  8
0
  6
Continuous
 62
     7
370
    25
100
AcDbLine
 10
-11.2055727582
 20
224.1861979605
 30
0.0
 11
-10.9226497308
 21
224.2543979375
 31
0.0
  0
LINE
  5
876
330
1B
100
AcDbEntity
  8
0
  6
Continuous
 62
     7
370
    25
100
AcDbLine
 10
-10.9226497308
 20
224.2543979375
 30
0.0
 11
-11.2113248654
 21
224.323984488
 31
0.0
  0
LINE
  5
877
330
1B
100
AcDbEntity
  8
0
  6
Continuous
 62
     7
370
    25
100
AcDbLine
 10
-11.2113248654
 20
224.323984488
 30
0.0
 11
-11.7886751346
 21
224.323984488
 31
0.0
  0
LINE
  5
878
330
1B
100
AcDbEntity
  8
0
  6
Continuous
 62
     7
370
    25
100
AcDbLine
 10
-11.7886751346
 20
224.323984488
 30
0.0
 11
-11.9503355521
 21
224.2850154551
 31
0.0
  0
LINE
  5
879
330
1B
100
AcDbEntity
  8
0
  6
Continuous
 62
     7
370
    25
100
AcDbLine
 10
-12.8578049129
 20
224.4499717571
 30
0.0
 11
-12.3113248654
 21
224.4499717571
 31
0.0
  0
LINE
  5
87A
330
1B
100
AcDbEntity
  8
0
  6
Continuous
 62
     7
370
    25
100
AcDbLine
 10
-12.3113248654
 20
224.4499717571
 30
0.0
 11
-12.0226497308
 21
224.5195583076
 31
0.0
  0
LINE
  5
87B
330
1B
100
AcDbEntity
  8
0
  6
Continuous
 62
     7
370
    25
100
AcDbLine
 10
-12.0226497308
 20
224.5195583076
 30
0.0
 11
-12.3113248654
 21
224.5891448581
 31
0.0
  0
LINE
  5
87C
330
1B
100
AcDbEntity
  8
0
  6
Continuous
 62
     7
370
    25
100
AcDbLine
 10
-12.3113248654
 20
224.5891448581
 30
0.0
 11
-12.8886751346
 21
224.5891448581
 31
0.0
  0
LINE
  5
87D
330
1B
100
AcDbEntity
  8
0
  6
Continuous
 62
     7
370
    25
100
AcDbLine
 10
-12.8886751346
 20
224.5891448581
 30
0.0
 11
-13.1619151583
 21
224.5232790164
 31
0.0
  0
LINE
  5
87E
330
1B
100
AcDbEntity
  8
0
  6
Continuous
 62
     7
370
    25
100
AcDbLine
 10
-13.7346457005
 20
224.7151321272
 30
0.0
 11
-13.4113248654
 21
224.7151321272
 31
0.0
  0
LINE
  5
87F
330
1B
100
AcDbEntity
  8
0
  6
Continuous
 62
     7
370
    25
100
AcDbLine
 10
-13.4113248654
 20
224.7151321272
 30
0.0
 11
-13.1226497308
 21
224.7847186777
 31
0.0
  0
LINE
  5
880
330
1B
100
AcDbEntity
  8
0
  6
Continuous
 62
     7
370
    25
100
AcDbLine
 10
-13.1226497308
 20
224.7847186777
 30
0.0
 11
-13.4113248654
 21
224.8543052282
 31
0.0
  0
LINE
  5
881
330
1B
100
AcDbEntity
  8
0
  6
Continuous
 62
     7
370
    25
100
AcDbLine
 10
-13.4113248654
 20
224.8543052282
 30
0.0
 11
-13.9771709201
 21
224.8543052282
 31
0.0
  0
LINE
  5
882
330
1B
100
AcDbEntity
  8
0
  6
Continuous
 62
     7
370
    25
100
AcDbLine
 10
-14.0272471321
 20
224.89912795
 30
0.0
 11
-13.9886751346
 21
224.8898299817
 31
0.0
  0
LINE
  5
883
330
1B
100
AcDbEntity
  8
0
  6
Continuous
 62
     7
370
    25
100
AcDbLine
 10
-13.9886751346
 20
224.8898299817
 30
0.0
 11
-13.4113248654
 21
224.8898299817
 31
0.0
  0
LINE
  5
884
330
1B
100
AcDbEntity
  8
0
  6
Continuous
 62
     7
370
    25
100
AcDbLine
 10
-13.4113248654
 20
224.8898299817
 30
0.0
 11
-13.1226497308
 21
224.9594165322
 31
0.0
  0
LINE
  5
885
330
1B
100
AcDbEntity
  8
0
  6
Continuous
 62
     7
370
    25
100
AcDbLine
 10
-13.1226497308
 20
224.9594165322
 30
0.0
 11
-13.4113248654
 21
225.0290030827
 31
0.0
  0
LINE
  5
886
330
1B
100
AcDbEntity
  8
0
  6
Continuous
 62
     7
370
    25
100
AcDbLine
 10
-13.9886751346
 20
225.0290030827
 30
0.0
 11
-13.4113248654
 21
225.0290030827
 31
0.0
  0
LINE
  5
887
330
1B
100
AcDbEntity
  8
0
  6
Continuous
 62
     7
370
    25
100
AcDbLine
 10
-13.9886751346
 20
225.0290030827
 30
0.0
 11
-14.0033279586
 21
225.0254709479
 31
0.0
  0
LINE
  5
888
330
1B
100
AcDbEntity
  8
0
  6
Continuous
 62
     7
370
    25
100
AcDbLine
 10
-13.9555166872
 20
225.0637963579
 30
0.0
 11
-13.4113248654
 21
225.0637963579
 31
0.0
  0
LINE
  5
889
330
1B
100
AcDbEntity
  8
0
  6
Continuous
 62
     7
370
    25
100
AcDbLine
 10
-13.4113248654
 20
225.0637963579
 30
0.0
 11
-13.1226497308
 21
225.1333829084
 31
0.0
  0
LINE
  5
88A
330
1B
100
AcDbEntity
  8
0
  6
Continuous
 62
     7
370
    25
100
AcDbLine
 10
-13.1226497308
 20
225.1333829084
 30
0.0
 11
-13.4113248654
 21
225.2029694589
 31
0.0
  0
LINE
  5
88B
330
1B
100
AcDbEntity
  8
0
  6
Continuous
 62
     7
370
    25
100
AcDbLine
 10
-13.6970187651
 20
225.2029694589
 30
0.0
 11
-13.4113248654
 21
225.2029694589
 31
0.0
  0
LINE
  5
88C
330
1B
100
AcDbEntity
  8
0
  6
Continuous
 62
     7
370
    25
100
AcDbLine
 10
-6.8113248654
 20
225.9504714621
 30
0.0
 11
-6.8113248654
 21
225.9734583323
 31
0.0
  0
LINE
  5
88D
330
1B
100
AcDbEntity
  8
0
  6
Continuous
 62
     7
370
    25
100
AcDbLine
 10
-7.3886751346
 20
225.9504714621
 30
0.0
 11
-7.3886751346
 21
225.9624370814
 31
0.0
  0
LINE
  5
88E
330
1B
100
AcDbEntity
  8
0
  6
Continuous
 62
     7
370
    25
100
AcDbLine
 10
-6.2886751346
 20
225.8592774682
 30
0.0
 11
-6.2886751346
 21
225.9784114133
 31
0.0
  0
LINE
  5
88F
330
1B
100
AcDbEntity
  8
0
  6
Continuous
 62
     7
370
    25
100
AcDbLine
 10
-5.7113248654
 20
225.8592774682
 30
0.0
 11
-5.7113248654
 21
225.9784114133
 31
0.0
  0
LINE
  5
890
330
1B
100
AcDbEntity
  8
0
  6
Continuous
 62
     7
370
    25
100
AcDbLine
 10
-9.0113248654
 20
225.7757736076
 30
0.0
 11
-9.0113248654
 21
225.898328704
 31
0.0
  0
LINE
  5
891
330
1B
100
AcDbEntity
  8
0
  6
Continuous
 62
     7
370
    25
100
AcDbLine
 10
-7.3886751346
 20
225.7757736076
 30
0.0
 11
-7.3886751346
 21
225.9149467086
 31
0.0
  0
LINE
  5
892
330
1B
100
AcDbEntity
  8
0
  6
Continuous
 62
     7
370
    25
100
AcDbLine
 10
-6.8113248654
 20
225.7757736076
 30
0.0
 11
-6.8113248654
 21
225.9149467086
 31
0.0
  0
LINE
  5
893
330
1B
100
AcDbEntity
  8
0
  6
Continuous
 62
     7
370
    25
100
AcDbLine
 10
-4.6113248654
 20
225.7757736076
 30
0.0
 11
-4.6113248654
 21
225.9149467086
 31
0.0
  0
LINE
  5
894
330
1B
100
AcDbEntity
  8
0
  6
Continuous
 62
     7
370
    25
100
AcDbLine
 10
-9.5886751346
 20
225.7757736076
 30
0.0
 11
-9.5886751346
 21
225.8624503458
 31
0.0
  0
LINE
  5
895
330
1B
100
AcDbEntity
  8
0
  6
Continuous
 62
     7
370
    25
100
AcDbLine
 10
-5.1886751346
 20
225.7757736076
 30
0.0
 11
-5.1886751346
 21
225.9149467086
 31
0.0
  0
LINE
  5
896
330
1B
100
AcDbEntity
  8
0
  6
Continuous
 62
     7
370
    25
100
AcDbLine
 10
-2.9886751346
 20
225.7757736076
 30
0.0
 11
-2.9886751346
 21
225.898328704
 31
0.0
  0
LINE
  5
897
330
1B
100
AcDbEntity
  8
0
  6
Continuous
 62
     7
370
    25
100
AcDbLine
 10
-2.4113248654
 20
225.7757736076
 30
0.0
 11
-2.4113248654
 21
225.8624503458
 31
0.0
  0
LINE
  5
898
330
1B
100
AcDbEntity
  8
0
  6
Continuous
 62
     7
370
    25
100
AcDbLine
 10
-3.5113248654
 20
225.685311092
 30
0.0
 11
-3.5113248654
 21
225.824484193
 31
0.0
  0
LINE
  5
899
330
1B
100
AcDbEntity
  8
0
  6
Continuous
 62
     7
370
    25
100
AcDbLine
 10
-8.4886751346
 20
225.685311092
 30
0.0
 11
-8.4886751346
 21
225.824484193
 31
0.0
  0
LINE
  5
89A
330
1B
100
AcDbEntity
  8
0
  6
Continuous
 62
     7
370
    25
100
AcDbLine
 10
-5.7113248654
 20
225.685311092
 30
0.0
 11
-5.7113248654
 21
225.824484193
 31
0.0
  0
LINE
  5
89B
330
1B
100
AcDbEntity
  8
0
  6
Continuous
 62
     7
370
    25
100
AcDbLine
 10
-4.0886751346
 20
225.685311092
 30
0.0
 11
-4.0886751346
 21
225.824484193
 31
0.0
  0
LINE
  5
89C
330
1B
100
AcDbEntity
  8
0
  6
Continuous
 62
     7
370
    25
100
AcDbLine
 10
-7.9113248654
 20
225.685311092
 30
0.0
 11
-7.9113248654
 21
225.824484193
 31
0.0
  0
LINE
  5
89D
330
1B
100
AcDbEntity
  8
0
  6
Continuous
 62
     7
370
    25
100
AcDbLine
 10
-6.2886751346
 20
225.685311092
 30
0.0
 11
-6.2886751346
 21
225.824484193
 31
0.0
  0
LINE
  5
89E
330
1B
100
AcDbEntity
  8
0
  6
Continuous
 62
     7
370
    25
100
AcDbLine
 10
-11.7886751346
 20
225.5941170981
 30
0.0
 11
-11.7886751346
 21
225.6403517821
 31
0.0
  0
LINE
  5
89F
330
1B
100
AcDbEntity
  8
0
  6
Continuous
 62
     7
370
    25
100
AcDbLine
 10
-9.0113248654
 20
225.5941170981
 30
0.0
 11
-9.0113248654
 21
225.7332901991
 31
0.0
  0
LINE
  5
8A0
330
1B
100
AcDbEntity
  8
0
  6
Continuous
 62
     7
370
    25
100
AcDbLine
 10
-9.5886751346
 20
225.5941170981
 30
0.0
 11
-9.5886751346
 21
225.7332901991
 31
0.0
  0
LINE
  5
8A1
330
1B
100
AcDbEntity
  8
0
  6
Continuous
 62
     7
370
    25
100
AcDbLine
 10
-2.4113248654
 20
225.5941170981
 30
0.0
 11
-2.4113248654
 21
225.7332901991
 31
0.0
  0
LINE
  5
8A2
330
1B
100
AcDbEntity
  8
0
  6
Continuous
 62
     7
370
    25
100
AcDbLine
 10
-4.6113248654
 20
225.5941170981
 30
0.0
 11
-4.6113248654
 21
225.7332901991
 31
0.0
  0
LINE
  5
8A3
330
1B
100
AcDbEntity
  8
0
  6
Continuous
 62
     7
370
    25
100
AcDbLine
 10
-5.1886751346
 20
225.5941170981
 30
0.0
 11
-5.1886751346
 21
225.7332901991
 31
0.0
  0
LINE
  5
8A4
330
1B
100
AcDbEntity
  8
0
  6
Continuous
 62
     7
370
    25
100
AcDbLine
 10
-11.2113248654
 20
225.5941170981
 30
0.0
 11
-11.2113248654
 21
225.7148343784
 31
0.0
  0
LINE
  5
8A5
330
1B
100
AcDbEntity
  8
0
  6
Continuous
 62
     7
370
    25
100
AcDbLine
 10
-6.8113248654
 20
225.5941170981
 30
0.0
 11
-6.8113248654
 21
225.7332901991
 31
0.0
  0
LINE
  5
8A6
330
1B
100
AcDbEntity
  8
0
  6
Continuous
 62
     7
370
    25
100
AcDbLine
 10
-7.3886751346
 20
225.5941170981
 30
0.0
 11
-7.3886751346
 21
225.7332901991
 31
0.0
  0
LINE
  5
8A7
330
1B
100
AcDbEntity
  8
0
  6
Continuous
 62
     7
370
    25
100
AcDbLine
 10
-2.9886751346
 20
225.5941170981
 30
0.0
 11
-2.9886751346
 21
225.7332901991
 31
0.0
  0
LINE
  5
8A8
330
1B
100
AcDbEntity
  8
0
  6
Continuous
 62
     7
370
    25
100
AcDbLine
 10
-8.4886751346
 20
225.5106132375
 30
0.0
 11
-8.4886751346
 21
225.6497863385
 31
0.0
  0
LINE
  5
8A9
330
1B
100
AcDbEntity
  8
0
  6
Continuous
 62
     7
370
    25
100
AcDbLine
 10
-6.2886751346
 20
225.5106132375
 30
0.0
 11
-6.2886751346
 21
225.6497863385
 31
0.0
  0
LINE
  5
8AA
330
1B
100
AcDbEntity
  8
0
  6
Continuous
 62
     7
370
    25
100
AcDbLine
 10
-1.3113248654
 20
225.5106132375
 30
0.0
 11
-1.3113248654
 21
225.6497863385
 31
0.0
  0
LINE
  5
8AB
330
1B
100
AcDbEntity
  8
0
  6
Continuous
 62
     7
370
    25
100
AcDbLine
 10
-1.8886751346
 20
225.5106132375
 30
0.0
 11
-1.8886751346
 21
225.6497863385
 31
0.0
  0
LINE
  5
8AC
330
1B
100
AcDbEntity
  8
0
  6
Continuous
 62
     7
370
    25
100
AcDbLine
 10
-10.1113248654
 20
225.5106132375
 30
0.0
 11
-10.1113248654
 21
225.6497863385
 31
0.0
  0
LINE
  5
8AD
330
1B
100
AcDbEntity
  8
0
  6
Continuous
 62
     7
370
    25
100
AcDbLine
 10
-7.9113248654
 20
225.5106132375
 30
0.0
 11
-7.9113248654
 21
225.6497863385
 31
0.0
  0
LINE
  5
8AE
330
1B
100
AcDbEntity
  8
0
  6
Continuous
 62
     7
370
    25
100
AcDbLine
 10
-5.7113248654
 20
225.5106132375
 30
0.0
 11
-5.7113248654
 21
225.6497863385
 31
0.0
  0
LINE
  5
8AF
330
1B
100
AcDbEntity
  8
0
  6
Continuous
 62
     7
370
    25
100
AcDbLine
 10
-10.6886751346
 20
225.5106132375
 30
0.0
 11
-10.6886751346
 21
225.6497863385
 31
0.0
  0
LINE
  5
8B0
330
1B
100
AcDbEntity
  8
0
  6
Continuous
 62
     7
370
    25
100
AcDbLine
 10
-11.7886751346
 20
225.4201507219
 30
0.0
 11
-11.7886751346
 21
225.5593238229
 31
0.0
  0
LINE
  5
8B1
330
1B
100
AcDbEntity
  8
0
  6
Continuous
 62
     7
370
    25
100
AcDbLine
 10
-7.3886751346
 20
225.4201507219
 30
0.0
 11
-7.3886751346
 21
225.5593238229
 31
0.0
  0
LINE
  5
8B2
330
1B
100
AcDbEntity
  8
0
  6
Continuous
 62
     7
370
    25
100
AcDbLine
 10
-11.2113248654
 20
225.4201507219
 30
0.0
 11
-11.2113248654
 21
225.5593238229
 31
0.0
  0
LINE
  5
8B3
330
1B
100
AcDbEntity
  8
0
  6
Continuous
 62
     7
370
    25
100
AcDbLine
 10
-2.4113248654
 20
225.4201507219
 30
0.0
 11
-2.4113248654
 21
225.5593238229
 31
0.0
  0
LINE
  5
8B4
330
1B
100
AcDbEntity
  8
0
  6
Continuous
 62
     7
370
    25
100
AcDbLine
 10
-6.8113248654
 20
225.4201507219
 30
0.0
 11
-6.8113248654
 21
225.5593238229
 31
0.0
  0
LINE
  5
8B5
330
1B
100
AcDbEntity
  8
0
  6
Continuous
 62
     7
370
    25
100
AcDbLine
 10
-5.1886751346
 20
225.4201507219
 30
0.0
 11
-5.1886751346
 21
225.5593238229
 31
0.0
  0
LINE
  5
8B6
330
1B
100
AcDbEntity
  8
0
  6
Continuous
 62
     7
370
    25
100
AcDbLine
 10
-0.2113248654
 20
225.4201507219
 30
0.0
 11
-0.2113248654
 21
225.5593238229
 31
0.0
  0
LINE
  5
8B7
330
1B
100
AcDbEntity
  8
0
  6
Continuous
 62
     7
370
    25
100
AcDbLine
 10
-4.6113248654
 20
225.4201507219
 30
0.0
 11
-4.6113248654
 21
225.5593238229
 31
0.0
  0
LINE
  5
8B8
330
1B
100
AcDbEntity
  8
0
  6
Continuous
 62
     7
370
    25
100
AcDbLine
 10
-2.9886751346
 20
225.4201507219
 30
0.0
 11
-2.9886751346
 21
225.5593238229
 31
0.0
  0
LINE
  5
8B9
330
1B
100
AcDbEntity
  8
0
  6
Continuous
 62
     7
370
    25
100
AcDbLine
 10
-0.7886751346
 20
225.4201507219
 30
0.0
 11
-0.7886751346
 21
225.5593238229
 31
0.0
  0
LINE
  5
8BA
330
1B
100
AcDbEntity
  8
0
  6
Continuous
 62
     7
370
    25
100
AcDbLine
 10
-9.5886751346
 20
225.4201507219
 30
0.0
 11
-9.5886751346
 21
225.5593238229
 31
0.0
  0
LINE
  5
8BB
330
1B
100
AcDbEntity
  8
0
  6
Continuous
 62
     7
370
    25
100
AcDbLine
 10
-9.0113248654
 20
225.4201507219
 30
0.0
 11
-9.0113248654
 21
225.5593238229
 31
0.0
  0
LINE
  5
8BC
330
1B
100
AcDbEntity
  8
0
  6
Continuous
 62
     7
370
    25
100
AcDbLine
 10
0.3113248654
 20
225.328956728
 30
0.0
 11
0.3113248654
 21
225.468129829
 31
0.0
  0
LINE
  5
8BD
330
1B
100
AcDbEntity
  8
0
  6
Continuous
 62
     7
370
    25
100
AcDbLine
 10
-10.1113248654
 20
225.328956728
 30
0.0
 11
-10.1113248654
 21
225.468129829
 31
0.0
  0
LINE
  5
8BE
330
1B
100
AcDbEntity
  8
0
  6
Continuous
 62
     7
370
    25
100
AcDbLine
 10
-5.7113248654
 20
225.328956728
 30
0.0
 11
-5.7113248654
 21
225.468129829
 31
0.0
  0
LINE
  5
8BF
330
1B
100
AcDbEntity
  8
0
  6
Continuous
 62
     7
370
    25
100
AcDbLine
 10
-1.8886751346
 20
225.328956728
 30
0.0
 11
-1.8886751346
 21
225.468129829
 31
0.0
  0
LINE
  5
8C0
330
1B
100
AcDbEntity
  8
0
  6
Continuous
 62
     7
370
    25
100
AcDbLine
 10
-1.3113248654
 20
225.328956728
 30
0.0
 11
-1.3113248654
 21
225.468129829
 31
0.0
  0
LINE
  5
8C1
330
1B
100
AcDbEntity
  8
0
  6
Continuous
 62
     7
370
    25
100
AcDbLine
 10
-6.2886751346
 20
225.328956728
 30
0.0
 11
-6.2886751346
 21
225.468129829
 31
0.0
  0
LINE
  5
8C2
330
1B
100
AcDbEntity
  8
0
  6
Continuous
 62
     7
370
    25
100
AcDbLine
 10
-10.6886751346
 20
225.328956728
 30
0.0
 11
-10.6886751346
 21
225.468129829
 31
0.0
  0
LINE
  5
8C3
330
1B
100
AcDbEntity
  8
0
  6
Continuous
 62
     7
370
    25
100
AcDbLine
 10
0.8886751346
 20
225.328956728
 30
0.0
 11
0.8886751346
 21
225.4448425707
 31
0.0
  0
LINE
  5
8C4
330
1B
100
AcDbEntity
  8
0
  6
Continuous
 62
     7
370
    25
100
AcDbLine
 10
-12.3113248654
 20
225.328956728
 30
0.0
 11
-12.3113248654
 21
225.468129829
 31
0.0
  0
LINE
  5
8C5
330
1B
100
AcDbEntity
  8
0
  6
Continuous
 62
     7
370
    25
100
AcDbLine
 10
-8.4886751346
 20
225.328956728
 30
0.0
 11
-8.4886751346
 21
225.468129829
 31
0.0
  0
LINE
  5
8C6
330
1B
100
AcDbEntity
  8
0
  6
Continuous
 62
     7
370
    25
100
AcDbLine
 10
-7.9113248654
 20
225.328956728
 30
0.0
 11
-7.9113248654
 21
225.468129829
 31
0.0
  0
LINE
  5
8C7
330
1B
100
AcDbEntity
  8
0
  6
Continuous
 62
     7
370
    25
100
AcDbLine
 10
-3.5113248654
 20
225.328956728
 30
0.0
 11
-3.5113248654
 21
225.468129829
 31
0.0
  0
LINE
  5
8C8
330
1B
100
AcDbEntity
  8
0
  6
Continuous
 62
     7
370
    25
100
AcDbLine
 10
-12.8886751346
 20
225.328956728
 30
0.0
 11
-12.8886751346
 21
225.4448425707
 31
0.0
  0
LINE
  5
8C9
330
1B
100
AcDbEntity
  8
0
  6
Continuous
 62
     7
370
    25
100
AcDbLine
 10
-4.0886751346
 20
225.328956728
 30
0.0
 11
-4.0886751346
 21
225.468129829
 31
0.0
  0
LINE
  5
8CA
330
1B
100
AcDbEntity
  8
0
  6
Continuous
 62
     7
370
    25
100
AcDbLine
 10
-4.6113248654
 20
225.2454528674
 30
0.0
 11
-4.6113248654
 21
225.3846259684
 31
0.0
  0
LINE
  5
8CB
330
1B
100
AcDbEntity
  8
0
  6
Continuous
 62
     7
370
    25
100
AcDbLine
 10
-6.8113248654
 20
225.2454528674
 30
0.0
 11
-6.8113248654
 21
225.3846259684
 31
0.0
  0
LINE
  5
8CC
330
1B
100
AcDbEntity
  8
0
  6
Continuous
 62
     7
370
    25
100
AcDbLine
 10
-0.2113248654
 20
225.2454528674
 30
0.0
 11
-0.2113248654
 21
225.3846259684
 31
0.0
  0
LINE
  5
8CD
330
1B
100
AcDbEntity
  8
0
  6
Continuous
 62
     7
370
    25
100
AcDbLine
 10
-2.4113248654
 20
225.2454528674
 30
0.0
 11
-2.4113248654
 21
225.3846259684
 31
0.0
  0
LINE
  5
8CE
330
1B
100
AcDbEntity
  8
0
  6
Continuous
 62
     7
370
    25
100
AcDbLine
 10
-0.7886751346
 20
225.2454528674
 30
0.0
 11
-0.7886751346
 21
225.3846259684
 31
0.0
  0
LINE
  5
8CF
330
1B
100
AcDbEntity
  8
0
  6
Continuous
 62
     7
370
    25
100
AcDbLine
 10
-2.9886751346
 20
225.2454528674
 30
0.0
 11
-2.9886751346
 21
225.3846259684
 31
0.0
  0
LINE
  5
8D0
330
1B
100
AcDbEntity
  8
0
  6
Continuous
 62
     7
370
    25
100
AcDbLine
 10
-9.5886751346
 20
225.2454528674
 30
0.0
 11
-9.5886751346
 21
225.3846259684
 31
0.0
  0
LINE
  5
8D1
330
1B
100
AcDbEntity
  8
0
  6
Continuous
 62
     7
370
    25
100
AcDbLine
 10
-9.0113248654
 20
225.2454528674
 30
0.0
 11
-9.0113248654
 21
225.3846259684
 31
0.0
  0
LINE
  5
8D2
330
1B
100
AcDbEntity
  8
0
  6
Continuous
 62
     7
370
    25
100
AcDbLine
 10
-7.3886751346
 20
225.2454528674
 30
0.0
 11
-7.3886751346
 21
225.3846259684
 31
0.0
  0
LINE
  5
8D3
330
1B
100
AcDbEntity
  8
0
  6
Continuous
 62
     7
370
    25
100
AcDbLine
 10
-11.7886751346
 20
225.2454528674
 30
0.0
 11
-11.7886751346
 21
225.3846259684
 31
0.0
  0
LINE
  5
8D4
330
1B
100
AcDbEntity
  8
0
  6
Continuous
 62
     7
370
    25
100
AcDbLine
 10
-11.2113248654
 20
225.2454528674
 30
0.0
 11
-11.2113248654
 21
225.3846259684
 31
0.0
  0
LINE
  5
8D5
330
1B
100
AcDbEntity
  8
0
  6
Continuous
 62
     7
370
    25
100
AcDbLine
 10
-5.1886751346
 20
225.2454528674
 30
0.0
 11
-5.1886751346
 21
225.3846259684
 31
0.0
  0
LINE
  5
8D6
330
1B
100
AcDbEntity
  8
0
  6
Continuous
 62
     7
370
    25
100
AcDbLine
 10
-10.1113248654
 20
225.1549903518
 30
0.0
 11
-10.1113248654
 21
225.2941634528
 31
0.0
  0
LINE
  5
8D7
330
1B
100
AcDbEntity
  8
0
  6
Continuous
 62
     7
370
    25
100
AcDbLine
 10
-12.8886751346
 20
225.1549903518
 30
0.0
 11
-12.8886751346
 21
225.2941634528
 31
0.0
  0
LINE
  5
8D8
330
1B
100
AcDbEntity
  8
0
  6
Continuous
 62
     7
370
    25
100
AcDbLine
 10
0.8886751346
 20
225.1549903518
 30
0.0
 11
0.8886751346
 21
225.2941634528
 31
0.0
  0
LINE
  5
8D9
330
1B
100
AcDbEntity
  8
0
  6
Continuous
 62
     7
370
    25
100
AcDbLine
 10
-6.2886751346
 20
225.1549903518
 30
0.0
 11
-6.2886751346
 21
225.2941634528
 31
0.0
  0
LINE
  5
8DA
330
1B
100
AcDbEntity
  8
0
  6
Continuous
 62
     7
370
    25
100
AcDbLine
 10
-12.3113248654
 20
225.1549903518
 30
0.0
 11
-12.3113248654
 21
225.2941634528
 31
0.0
  0
LINE
  5
8DB
330
1B
100
AcDbEntity
  8
0
  6
Continuous
 62
     7
370
    25
100
AcDbLine
 10
-1.3113248654
 20
225.1549903518
 30
0.0
 11
-1.3113248654
 21
225.2941634528
 31
0.0
  0
LINE
  5
8DC
330
1B
100
AcDbEntity
  8
0
  6
Continuous
 62
     7
370
    25
100
AcDbLine
 10
-5.7113248654
 20
225.1549903518
 30
0.0
 11
-5.7113248654
 21
225.2941634528
 31
0.0
  0
LINE
  5
8DD
330
1B
100
AcDbEntity
  8
0
  6
Continuous
 62
     7
370
    25
100
AcDbLine
 10
-7.9113248654
 20
225.1549903518
 30
0.0
 11
-7.9113248654
 21
225.2941634528
 31
0.0
  0
LINE
  5
8DE
330
1B
100
AcDbEntity
  8
0
  6
Continuous
 62
     7
370
    25
100
AcDbLine
 10
-10.6886751346
 20
225.1549903518
 30
0.0
 11
-10.6886751346
 21
225.2941634528
 31
0.0
  0
LINE
  5
8DF
330
1B
100
AcDbEntity
  8
0
  6
Continuous
 62
     7
370
    25
100
AcDbLine
 10
0.3113248654
 20
225.1549903518
 30
0.0
 11
0.3113248654
 21
225.2941634528
 31
0.0
  0
LINE
  5
8E0
330
1B
100
AcDbEntity
  8
0
  6
Continuous
 62
     7
370
    25
100
AcDbLine
 10
-1.8886751346
 20
225.1549903518
 30
0.0
 11
-1.8886751346
 21
225.2941634528
 31
0.0
  0
LINE
  5
8E1
330
1B
100
AcDbEntity
  8
0
  6
Continuous
 62
     7
370
    25
100
AcDbLine
 10
-3.5113248654
 20
225.1549903518
 30
0.0
 11
-3.5113248654
 21
225.2941634528
 31
0.0
  0
LINE
  5
8E2
330
1B
100
AcDbEntity
  8
0
  6
Continuous
 62
     7
370
    25
100
AcDbLine
 10
-4.0886751346
 20
225.1549903518
 30
0.0
 11
-4.0886751346
 21
225.2941634528
 31
0.0
  0
LINE
  5
8E3
330
1B
100
AcDbEntity
  8
0
  6
Continuous
 62
     7
370
    25
100
AcDbLine
 10
-8.4886751346
 20
225.1549903518
 30
0.0
 11
-8.4886751346
 21
225.2941634528
 31
0.0
  0
LINE
  5
8E4
330
1B
100
AcDbEntity
  8
0
  6
Continuous
 62
     7
370
    25
100
AcDbLine
 10
-6.8113248654
 20
225.0637963579
 30
0.0
 11
-6.8113248654
 21
225.2029694589
 31
0.0
  0
LINE
  5
8E5
330
1B
100
AcDbEntity
  8
0
  6
Continuous
 62
     7
370
    25
100
AcDbLine
 10
-13.4113248654
 20
225.0637963579
 30
0.0
 11
-13.4113248654
 21
225.2029694589
 31
0.0
  0
LINE
  5
8E6
330
1B
100
AcDbEntity
  8
0
  6
Continuous
 62
     7
370
    25
100
AcDbLine
 10
-2.4113248654
 20
225.0637963579
 30
0.0
 11
-2.4113248654
 21
225.2029694589
 31
0.0
  0
LINE
  5
8E7
330
1B
100
AcDbEntity
  8
0
  6
Continuous
 62
     7
370
    25
100
AcDbLine
 10
-5.1886751346
 20
225.0637963579
 30
0.0
 11
-5.1886751346
 21
225.2029694589
 31
0.0
  0
LINE
  5
8E8
330
1B
100
AcDbEntity
  8
0
  6
Continuous
 62
     7
370
    25
100
AcDbLine
 10
-4.6113248654
 20
225.0637963579
 30
0.0
 11
-4.6113248654
 21
225.2029694589
 31
0.0
  0
LINE
  5
8E9
330
1B
100
AcDbEntity
  8
0
  6
Continuous
 62
     7
370
    25
100
AcDbLine
 10
-0.2113248654
 20
225.0637963579
 30
0.0
 11
-0.2113248654
 21
225.2029694589
 31
0.0
  0
LINE
  5
8EA
330
1B
100
AcDbEntity
  8
0
  6
Continuous
 62
     7
370
    25
100
AcDbLine
 10
-7.3886751346
 20
225.0637963579
 30
0.0
 11
-7.3886751346
 21
225.2029694589
 31
0.0
  0
LINE
  5
8EB
330
1B
100
AcDbEntity
  8
0
  6
Continuous
 62
     7
370
    25
100
AcDbLine
 10
-2.9886751346
 20
225.0637963579
 30
0.0
 11
-2.9886751346
 21
225.2029694589
 31
0.0
  0
LINE
  5
8EC
330
1B
100
AcDbEntity
  8
0
  6
Continuous
 62
     7
370
    25
100
AcDbLine
 10
-9.0113248654
 20
225.0637963579
 30
0.0
 11
-9.0113248654
 21
225.2029694589
 31
0.0
  0
LINE
  5
8ED
330
1B
100
AcDbEntity
  8
0
  6
Continuous
 62
     7
370
    25
100
AcDbLine
 10
-11.2113248654
 20
225.0637963579
 30
0.0
 11
-11.2113248654
 21
225.2029694589
 31
0.0
  0
LINE
  5
8EE
330
1B
100
AcDbEntity
  8
0
  6
Continuous
 62
     7
370
    25
100
AcDbLine
 10
-11.7886751346
 20
225.0637963579
 30
0.0
 11
-11.7886751346
 21
225.2029694589
 31
0.0
  0
LINE
  5
8EF
330
1B
100
AcDbEntity
  8
0
  6
Continuous
 62
     7
370
    25
100
AcDbLine
 10
-9.5886751346
 20
225.0637963579
 30
0.0
 11
-9.5886751346
 21
225.2029694589
 31
0.0
  0
LINE
  5
8F0
330
1B
100
AcDbEntity
  8
0
  6
Continuous
 62
     7
370
    25
100
AcDbLine
 10
-0.7886751346
 20
225.0637963579
 30
0.0
 11
-0.7886751346
 21
225.2029694589
 31
0.0
  0
LINE
  5
8F1
330
1B
100
AcDbEntity
  8
0
  6
Continuous
 62
     7
370
    25
100
AcDbLine
 10
1.4113248654
 20
225.0637963579
 30
0.0
 11
1.4113248654
 21
225.2029694589
 31
0.0
  0
LINE
  5
8F2
330
1B
100
AcDbEntity
  8
0
  6
Continuous
 62
     7
370
    25
100
AcDbLine
 10
-8.4886751346
 20
224.9802924973
 30
0.0
 11
-8.4886751346
 21
225.1194655983
 31
0.0
  0
LINE
  5
8F3
330
1B
100
AcDbEntity
  8
0
  6
Continuous
 62
     7
370
    25
100
AcDbLine
 10
0.3113248654
 20
224.9802924973
 30
0.0
 11
0.3113248654
 21
225.1194655983
 31
0.0
  0
LINE
  5
8F4
330
1B
100
AcDbEntity
  8
0
  6
Continuous
 62
     7
370
    25
100
AcDbLine
 10
-12.8886751346
 20
224.9802924973
 30
0.0
 11
-12.8886751346
 21
225.1194655983
 31
0.0
  0
LINE
  5
8F5
330
1B
100
AcDbEntity
  8
0
  6
Continuous
 62
     7
370
    25
100
AcDbLine
 10
-4.0886751346
 20
224.9802924973
 30
0.0
 11
-4.0886751346
 21
225.1194655983
 31
0.0
  0
LINE
  5
8F6
330
1B
100
AcDbEntity
  8
0
  6
Continuous
 62
     7
370
    25
100
AcDbLine
 10
-7.9113248654
 20
224.9802924973
 30
0.0
 11
-7.9113248654
 21
225.1194655983
 31
0.0
  0
LINE
  5
8F7
330
1B
100
AcDbEntity
  8
0
  6
Continuous
 62
     7
370
    25
100
AcDbLine
 10
-12.3113248654
 20
224.9802924973
 30
0.0
 11
-12.3113248654
 21
225.1194655983
 31
0.0
  0
LINE
  5
8F8
330
1B
100
AcDbEntity
  8
0
  6
Continuous
 62
     7
370
    25
100
AcDbLine
 10
-1.3113248654
 20
224.9802924973
 30
0.0
 11
-1.3113248654
 21
225.1194655983
 31
0.0
  0
LINE
  5
8F9
330
1B
100
AcDbEntity
  8
0
  6
Continuous
 62
     7
370
    25
100
AcDbLine
 10
-3.5113248654
 20
224.9802924973
 30
0.0
 11
-3.5113248654
 21
225.1194655983
 31
0.0
  0
LINE
  5
8FA
330
1B
100
AcDbEntity
  8
0
  6
Continuous
 62
     7
370
    25
100
AcDbLine
 10
-1.8886751346
 20
224.9802924973
 30
0.0
 11
-1.8886751346
 21
225.1194655983
 31
0.0
  0
LINE
  5
8FB
330
1B
100
AcDbEntity
  8
0
  6
Continuous
 62
     7
370
    25
100
AcDbLine
 10
0.8886751346
 20
224.9802924973
 30
0.0
 11
0.8886751346
 21
225.1194655983
 31
0.0
  0
LINE
  5
8FC
330
1B
100
AcDbEntity
  8
0
  6
Continuous
 62
     7
370
    25
100
AcDbLine
 10
-2.9886751346
 20
224.8898299817
 30
0.0
 11
-2.9886751346
 21
225.0290030827
 31
0.0
  0
LINE
  5
8FD
330
1B
100
AcDbEntity
  8
0
  6
Continuous
 62
     7
370
    25
100
AcDbLine
 10
-11.2113248654
 20
224.8898299817
 30
0.0
 11
-11.2113248654
 21
225.0290030827
 31
0.0
  0
LINE
  5
8FE
330
1B
100
AcDbEntity
  8
0
  6
Continuous
 62
     7
370
    25
100
AcDbLine
 10
-6.8113248654
 20
224.8898299817
 30
0.0
 11
-6.8113248654
 21
225.0290030827
 31
0.0
  0
LINE
  5
8FF
330
1B
100
AcDbEntity
  8
0
  6
Continuous
 62
     7
370
    25
100
AcDbLine
 10
1.4113248654
 20
224.8898299817
 30
0.0
 11
1.4113248654
 21
225.0290030827
 31
0.0
  0
LINE
  5
900
330
1B
100
AcDbEntity
  8
0
  6
Continuous
 62
     7
370
    25
100
AcDbLine
 10
-2.4113248654
 20
224.8898299817
 30
0.0
 11
-2.4113248654
 21
225.0290030827
 31
0.0
  0
LINE
  5
901
330
1B
100
AcDbEntity
  8
0
  6
Continuous
 62
     7
370
    25
100
AcDbLine
 10
-9.5886751346
 20
224.8898299817
 30
0.0
 11
-9.5886751346
 21
225.0290030827
 31
0.0
  0
LINE
  5
902
330
1B
100
AcDbEntity
  8
0
  6
Continuous
 62
     7
370
    25
100
AcDbLine
 10
-13.4113248654
 20
224.8898299817
 30
0.0
 11
-13.4113248654
 21
225.0290030827
 31
0.0
  0
LINE
  5
903
330
1B
100
AcDbEntity
  8
0
  6
Continuous
 62
     7
370
    25
100
AcDbLine
 10
-9.0113248654
 20
224.8898299817
 30
0.0
 11
-9.0113248654
 21
225.0290030827
 31
0.0
  0
LINE
  5
904
330
1B
100
AcDbEntity
  8
0
  6
Continuous
 62
     7
370
    25
100
AcDbLine
 10
-0.2113248654
 20
224.8898299817
 30
0.0
 11
-0.2113248654
 21
225.0290030827
 31
0.0
  0
LINE
  5
905
330
1B
100
AcDbEntity
  8
0
  6
Continuous
 62
     7
370
    25
100
AcDbLine
 10
1.9886751346
 20
224.8898299817
 30
0.0
 11
1.9886751346
 21
225.0290030827
 31
0.0
  0
LINE
  5
906
330
1B
100
AcDbEntity
  8
0
  6
Continuous
 62
     7
370
    25
100
AcDbLine
 10
-5.1886751346
 20
224.8898299817
 30
0.0
 11
-5.1886751346
 21
225.0290030827
 31
0.0
  0
LINE
  5
907
330
1B
100
AcDbEntity
  8
0
  6
Continuous
 62
     7
370
    25
100
AcDbLine
 10
-11.7886751346
 20
224.8898299817
 30
0.0
 11
-11.7886751346
 21
225.0290030827
 31
0.0
  0
LINE
  5
908
330
1B
100
AcDbEntity
  8
0
  6
Continuous
 62
     7
370
    25
100
AcDbLine
 10
-7.3886751346
 20
224.8898299817
 30
0.0
 11
-7.3886751346
 21
225.0290030827
 31
0.0
  0
LINE
  5
909
330
1B
100
AcDbEntity
  8
0
  6
Continuous
 62
     7
370
    25
100
AcDbLine
 10
-0.7886751346
 20
224.8898299817
 30
0.0
 11
-0.7886751346
 21
225.0290030827
 31
0.0
  0
LINE
  5
90A
330
1B
100
AcDbEntity
  8
0
  6
Continuous
 62
     7
370
    25
100
AcDbLine
 10
-13.9886751346
 20
224.8898299817
 30
0.0
 11
-13.9886751346
 21
225.0290030827
 31
0.0
  0
LINE
  5
90B
330
1B
100
AcDbEntity
  8
0
  6
Continuous
 62
     7
370
    25
100
AcDbLine
 10
-4.6113248654
 20
224.8898299817
 30
0.0
 11
-4.6113248654
 21
225.0290030827
 31
0.0
  0
LINE
  5
90C
330
1B
100
AcDbEntity
  8
0
  6
Continuous
 62
     7
370
    25
100
AcDbLine
 10
-7.9113248654
 20
224.7986359878
 30
0.0
 11
-7.9113248654
 21
224.9378090887
 31
0.0
  0
LINE
  5
90D
330
1B
100
AcDbEntity
  8
0
  6
Continuous
 62
     7
370
    25
100
AcDbLine
 10
-10.1113248654
 20
224.7986359878
 30
0.0
 11
-10.1113248654
 21
224.9378090887
 31
0.0
  0
LINE
  5
90E
330
1B
100
AcDbEntity
  8
0
  6
Continuous
 62
     7
370
    25
100
AcDbLine
 10
-8.4886751346
 20
224.7986359878
 30
0.0
 11
-8.4886751346
 21
224.9378090887
 31
0.0
  0
LINE
  5
90F
330
1B
100
AcDbEntity
  8
0
  6
Continuous
 62
     7
370
    25
100
AcDbLine
 10
0.3113248654
 20
224.7986359878
 30
0.0
 11
0.3113248654
 21
224.9378090887
 31
0.0
  0
LINE
  5
910
330
1B
100
AcDbEntity
  8
0
  6
Continuous
 62
     7
370
    25
100
AcDbLine
 10
-12.8886751346
 20
224.7986359878
 30
0.0
 11
-12.8886751346
 21
224.9378090887
 31
0.0
  0
LINE
  5
911
330
1B
100
AcDbEntity
  8
0
  6
Continuous
 62
     7
370
    25
100
AcDbLine
 10
-1.3113248654
 20
224.7986359878
 30
0.0
 11
-1.3113248654
 21
224.9378090887
 31
0.0
  0
LINE
  5
912
330
1B
100
AcDbEntity
  8
0
  6
Continuous
 62
     7
370
    25
100
AcDbLine
 10
0.8886751346
 20
224.7986359878
 30
0.0
 11
0.8886751346
 21
224.9378090887
 31
0.0
  0
LINE
  5
913
330
1B
100
AcDbEntity
  8
0
  6
Continuous
 62
     7
370
    25
100
AcDbLine
 10
-10.6886751346
 20
224.7986359878
 30
0.0
 11
-10.6886751346
 21
224.9378090887
 31
0.0
  0
LINE
  5
914
330
1B
100
AcDbEntity
  8
0
  6
Continuous
 62
     7
370
    25
100
AcDbLine
 10
-1.8886751346
 20
224.7986359878
 30
0.0
 11
-1.8886751346
 21
224.9378090887
 31
0.0
  0
LINE
  5
915
330
1B
100
AcDbEntity
  8
0
  6
Continuous
 62
     7
370
    25
100
AcDbLine
 10
-6.2886751346
 20
224.7986359878
 30
0.0
 11
-6.2886751346
 21
224.9378090887
 31
0.0
  0
LINE
  5
916
330
1B
100
AcDbEntity
  8
0
  6
Continuous
 62
     7
370
    25
100
AcDbLine
 10
-12.3113248654
 20
224.7986359878
 30
0.0
 11
-12.3113248654
 21
224.9378090887
 31
0.0
  0
LINE
  5
917
330
1B
100
AcDbEntity
  8
0
  6
Continuous
 62
     7
370
    25
100
AcDbLine
 10
-3.5113248654
 20
224.7986359878
 30
0.0
 11
-3.5113248654
 21
224.9378090887
 31
0.0
  0
LINE
  5
918
330
1B
100
AcDbEntity
  8
0
  6
Continuous
 62
     7
370
    25
100
AcDbLine
 10
-4.0886751346
 20
224.7986359878
 30
0.0
 11
-4.0886751346
 21
224.9378090887
 31
0.0
  0
LINE
  5
919
330
1B
100
AcDbEntity
  8
0
  6
Continuous
 62
     7
370
    25
100
AcDbLine
 10
-5.7113248654
 20
224.7986359878
 30
0.0
 11
-5.7113248654
 21
224.9378090887
 31
0.0
  0
LINE
  5
91A
330
1B
100
AcDbEntity
  8
0
  6
Continuous
 62
     7
370
    25
100
AcDbLine
 10
-11.2113248654
 20
224.7151321272
 30
0.0
 11
-11.2113248654
 21
224.8543052282
 31
0.0
  0
LINE
  5
91B
330
1B
100
AcDbEntity
  8
0
  6
Continuous
 62
     7
370
    25
100
AcDbLine
 10
1.4113248654
 20
224.7151321272
 30
0.0
 11
1.4113248654
 21
224.8543052282
 31
0.0
  0
LINE
  5
91C
330
1B
100
AcDbEntity
  8
0
  6
Continuous
 62
     7
370
    25
100
AcDbLine
 10
-9.0113248654
 20
224.7151321272
 30
0.0
 11
-9.0113248654
 21
224.8543052282
 31
0.0
  0
LINE
  5
91D
330
1B
100
AcDbEntity
  8
0
  6
Continuous
 62
     7
370
    25
100
AcDbLine
 10
-0.7886751346
 20
224.7151321272
 30
0.0
 11
-0.7886751346
 21
224.8543052282
 31
0.0
  0
LINE
  5
91E
330
1B
100
AcDbEntity
  8
0
  6
Continuous
 62
     7
370
    25
100
AcDbLine
 10
-0.2113248654
 20
224.7151321272
 30
0.0
 11
-0.2113248654
 21
224.8543052282
 31
0.0
  0
LINE
  5
91F
330
1B
100
AcDbEntity
  8
0
  6
Continuous
 62
     7
370
    25
100
AcDbLine
 10
-2.4113248654
 20
224.7151321272
 30
0.0
 11
-2.4113248654
 21
224.8543052282
 31
0.0
  0
LINE
  5
920
330
1B
100
AcDbEntity
  8
0
  6
Continuous
 62
     7
370
    25
100
AcDbLine
 10
-7.3886751346
 20
224.7151321272
 30
0.0
 11
-7.3886751346
 21
224.8543052282
 31
0.0
  0
LINE
  5
921
330
1B
100
AcDbEntity
  8
0
  6
Continuous
 62
     7
370
    25
100
AcDbLine
 10
-2.9886751346
 20
224.7151321272
 30
0.0
 11
-2.9886751346
 21
224.8543052282
 31
0.0
  0
LINE
  5
922
330
1B
100
AcDbEntity
  8
0
  6
Continuous
 62
     7
370
    25
100
AcDbLine
 10
-5.1886751346
 20
224.7151321272
 30
0.0
 11
-5.1886751346
 21
224.8543052282
 31
0.0
  0
LINE
  5
923
330
1B
100
AcDbEntity
  8
0
  6
Continuous
 62
     7
370
    25
100
AcDbLine
 10
-11.7886751346
 20
224.7151321272
 30
0.0
 11
-11.7886751346
 21
224.8543052282
 31
0.0
  0
LINE
  5
924
330
1B
100
AcDbEntity
  8
0
  6
Continuous
 62
     7
370
    25
100
AcDbLine
 10
-13.4113248654
 20
224.7151321272
 30
0.0
 11
-13.4113248654
 21
224.8543052282
 31
0.0
  0
LINE
  5
925
330
1B
100
AcDbEntity
  8
0
  6
Continuous
 62
     7
370
    25
100
AcDbLine
 10
-9.5886751346
 20
224.7151321272
 30
0.0
 11
-9.5886751346
 21
224.8543052282
 31
0.0
  0
LINE
  5
926
330
1B
100
AcDbEntity
  8
0
  6
Continuous
 62
     7
370
    25
100
AcDbLine
 10
-4.6113248654
 20
224.7151321272
 30
0.0
 11
-4.6113248654
 21
224.8543052282
 31
0.0
  0
LINE
  5
927
330
1B
100
AcDbEntity
  8
0
  6
Continuous
 62
     7
370
    25
100
AcDbLine
 10
-6.8113248654
 20
224.7151321272
 30
0.0
 11
-6.8113248654
 21
224.8543052282
 31
0.0
  0
LINE
  5
928
330
1B
100
AcDbEntity
  8
0
  6
Continuous
 62
     7
370
    25
100
AcDbLine
 10
-4.0886751346
 20
224.6246696116
 30
0.0
 11
-4.0886751346
 21
224.7638427125
 31
0.0
  0
LINE
  5
929
330
1B
100
AcDbEntity
  8
0
  6
Continuous
 62
     7
370
    25
100
AcDbLine
 10
-5.7113248654
 20
224.6246696116
 30
0.0
 11
-5.7113248654
 21
224.7638427125
 31
0.0
  0
LINE
  5
92A
330
1B
100
AcDbEntity
  8
0
  6
Continuous
 62
     7
370
    25
100
AcDbLine
 10
-12.8886751346
 20
224.6246696116
 30
0.0
 11
-12.8886751346
 21
224.7638427125
 31
0.0
  0
LINE
  5
92B
330
1B
100
AcDbEntity
  8
0
  6
Continuous
 62
     7
370
    25
100
AcDbLine
 10
-3.5113248654
 20
224.6246696116
 30
0.0
 11
-3.5113248654
 21
224.7638427125
 31
0.0
  0
LINE
  5
92C
330
1B
100
AcDbEntity
  8
0
  6
Continuous
 62
     7
370
    25
100
AcDbLine
 10
-10.6886751346
 20
224.6246696116
 30
0.0
 11
-10.6886751346
 21
224.7638427125
 31
0.0
  0
LINE
  5
92D
330
1B
100
AcDbEntity
  8
0
  6
Continuous
 62
     7
370
    25
100
AcDbLine
 10
-7.9113248654
 20
224.6246696116
 30
0.0
 11
-7.9113248654
 21
224.7638427125
 31
0.0
  0
LINE
  5
92E
330
1B
100
AcDbEntity
  8
0
  6
Continuous
 62
     7
370
    25
100
AcDbLine
 10
-6.2886751346
 20
224.6246696116
 30
0.0
 11
-6.2886751346
 21
224.7638427125
 31
0.0
  0
LINE
  5
92F
330
1B
100
AcDbEntity
  8
0
  6
Continuous
 62
     7
370
    25
100
AcDbLine
 10
-12.3113248654
 20
224.6246696116
 30
0.0
 11
-12.3113248654
 21
224.7638427125
 31
0.0
  0
LINE
  5
930
330
1B
100
AcDbEntity
  8
0
  6
Continuous
 62
     7
370
    25
100
AcDbLine
 10
0.8886751346
 20
224.6246696116
 30
0.0
 11
0.8886751346
 21
224.7638427125
 31
0.0
  0
LINE
  5
931
330
1B
100
AcDbEntity
  8
0
  6
Continuous
 62
     7
370
    25
100
AcDbLine
 10
-1.8886751346
 20
224.6246696116
 30
0.0
 11
-1.8886751346
 21
224.7638427125
 31
0.0
  0
LINE
  5
932
330
1B
100
AcDbEntity
  8
0
  6
Continuous
 62
     7
370
    25
100
AcDbLine
 10
-8.4886751346
 20
224.6246696116
 30
0.0
 11
-8.4886751346
 21
224.7638427125
 31
0.0
  0
LINE
  5
933
330
1B
100
AcDbEntity
  8
0
  6
Continuous
 62
     7
370
    25
100
AcDbLine
 10
-1.3113248654
 20
224.6246696116
 30
0.0
 11
-1.3113248654
 21
224.7638427125
 31
0.0
  0
LINE
  5
934
330
1B
100
AcDbEntity
  8
0
  6
Continuous
 62
     7
370
    25
100
AcDbLine
 10
0.3113248654
 20
224.6246696116
 30
0.0
 11
0.3113248654
 21
224.7638427125
 31
0.0
  0
LINE
  5
935
330
1B
100
AcDbEntity
  8
0
  6
Continuous
 62
     7
370
    25
100
AcDbLine
 10
-10.1113248654
 20
224.6246696116
 30
0.0
 11
-10.1113248654
 21
224.7638427125
 31
0.0
  0
LINE
  5
936
330
1B
100
AcDbEntity
  8
0
  6
Continuous
 62
     7
370
    25
100
AcDbLine
 10
-9.5886751346
 20
224.5334756177
 30
0.0
 11
-9.5886751346
 21
224.6726487186
 31
0.0
  0
LINE
  5
937
330
1B
100
AcDbEntity
  8
0
  6
Continuous
 62
     7
370
    25
100
AcDbLine
 10
-2.9886751346
 20
224.5334756177
 30
0.0
 11
-2.9886751346
 21
224.6726487186
 31
0.0
  0
LINE
  5
938
330
1B
100
AcDbEntity
  8
0
  6
Continuous
 62
     7
370
    25
100
AcDbLine
 10
-11.7886751346
 20
224.5334756177
 30
0.0
 11
-11.7886751346
 21
224.6726487186
 31
0.0
  0
LINE
  5
939
330
1B
100
AcDbEntity
  8
0
  6
Continuous
 62
     7
370
    25
100
AcDbLine
 10
-9.0113248654
 20
224.5334756177
 30
0.0
 11
-9.0113248654
 21
224.6726487186
 31
0.0
  0
LINE
  5
93A
330
1B
100
AcDbEntity
  8
0
  6
Continuous
 62
     7
370
    25
100
AcDbLine
 10
-6.8113248654
 20
224.5334756177
 30
0.0
 11
-6.8113248654
 21
224.6726487186
 31
0.0
  0
LINE
  5
93B
330
1B
100
AcDbEntity
  8
0
  6
Continuous
 62
     7
370
    25
100
AcDbLine
 10
-2.4113248654
 20
224.5334756177
 30
0.0
 11
-2.4113248654
 21
224.6726487186
 31
0.0
  0
LINE
  5
93C
330
1B
100
AcDbEntity
  8
0
  6
Continuous
 62
     7
370
    25
100
AcDbLine
 10
-4.6113248654
 20
224.5334756177
 30
0.0
 11
-4.6113248654
 21
224.6726487186
 31
0.0
  0
LINE
  5
93D
330
1B
100
AcDbEntity
  8
0
  6
Continuous
 62
     7
370
    25
100
AcDbLine
 10
-11.2113248654
 20
224.5334756177
 30
0.0
 11
-11.2113248654
 21
224.6726487186
 31
0.0
  0
LINE
  5
93E
330
1B
100
AcDbEntity
  8
0
  6
Continuous
 62
     7
370
    25
100
AcDbLine
 10
-0.7886751346
 20
224.5334756177
 30
0.0
 11
-0.7886751346
 21
224.6726487186
 31
0.0
  0
LINE
  5
93F
330
1B
100
AcDbEntity
  8
0
  6
Continuous
 62
     7
370
    25
100
AcDbLine
 10
-0.2113248654
 20
224.5334756177
 30
0.0
 11
-0.2113248654
 21
224.6726487186
 31
0.0
  0
LINE
  5
940
330
1B
100
AcDbEntity
  8
0
  6
Continuous
 62
     7
370
    25
100
AcDbLine
 10
-7.3886751346
 20
224.5334756177
 30
0.0
 11
-7.3886751346
 21
224.6726487186
 31
0.0
  0
LINE
  5
941
330
1B
100
AcDbEntity
  8
0
  6
Continuous
 62
     7
370
    25
100
AcDbLine
 10
-5.1886751346
 20
224.5334756177
 30
0.0
 11
-5.1886751346
 21
224.6726487186
 31
0.0
  0
LINE
  5
942
330
1B
100
AcDbEntity
  8
0
  6
Continuous
 62
     7
370
    25
100
AcDbLine
 10
-5.7113248654
 20
224.4499717571
 30
0.0
 11
-5.7113248654
 21
224.5891448581
 31
0.0
  0
LINE
  5
943
330
1B
100
AcDbEntity
  8
0
  6
Continuous
 62
     7
370
    25
100
AcDbLine
 10
-1.3113248654
 20
224.4499717571
 30
0.0
 11
-1.3113248654
 21
224.5891448581
 31
0.0
  0
LINE
  5
944
330
1B
100
AcDbEntity
  8
0
  6
Continuous
 62
     7
370
    25
100
AcDbLine
 10
-10.6886751346
 20
224.4499717571
 30
0.0
 11
-10.6886751346
 21
224.5891448581
 31
0.0
  0
LINE
  5
945
330
1B
100
AcDbEntity
  8
0
  6
Continuous
 62
     7
370
    25
100
AcDbLine
 10
-8.4886751346
 20
224.4499717571
 30
0.0
 11
-8.4886751346
 21
224.5891448581
 31
0.0
  0
LINE
  5
946
330
1B
100
AcDbEntity
  8
0
  6
Continuous
 62
     7
370
    25
100
AcDbLine
 10
-7.9113248654
 20
224.4499717571
 30
0.0
 11
-7.9113248654
 21
224.5891448581
 31
0.0
  0
LINE
  5
947
330
1B
100
AcDbEntity
  8
0
  6
Continuous
 62
     7
370
    25
100
AcDbLine
 10
-12.8886751346
 20
224.4568619111
 30
0.0
 11
-12.8886751346
 21
224.5891448581
 31
0.0
  0
LINE
  5
948
330
1B
100
AcDbEntity
  8
0
  6
Continuous
 62
     7
370
    25
100
AcDbLine
 10
-6.2886751346
 20
224.4499717571
 30
0.0
 11
-6.2886751346
 21
224.5891448581
 31
0.0
  0
LINE
  5
949
330
1B
100
AcDbEntity
  8
0
  6
Continuous
 62
     7
370
    25
100
AcDbLine
 10
0.8886751346
 20
224.4568619111
 30
0.0
 11
0.8886751346
 21
224.5891448581
 31
0.0
  0
LINE
  5
94A
330
1B
100
AcDbEntity
  8
0
  6
Continuous
 62
     7
370
    25
100
AcDbLine
 10
-10.1113248654
 20
224.4499717571
 30
0.0
 11
-10.1113248654
 21
224.5891448581
 31
0.0
  0
LINE
  5
94B
330
1B
100
AcDbEntity
  8
0
  6
Continuous
 62
     7
370
    25
100
AcDbLine
 10
-12.3113248654
 20
224.4499717571
 30
0.0
 11
-12.3113248654
 21
224.5891448581
 31
0.0
  0
LINE
  5
94C
330
1B
100
AcDbEntity
  8
0
  6
Continuous
 62
     7
370
    25
100
AcDbLine
 10
0.3113248654
 20
224.4499717571
 30
0.0
 11
0.3113248654
 21
224.5891448581
 31
0.0
  0
LINE
  5
94D
330
1B
100
AcDbEntity
  8
0
  6
Continuous
 62
     7
370
    25
100
AcDbLine
 10
-1.8886751346
 20
224.4499717571
 30
0.0
 11
-1.8886751346
 21
224.5891448581
 31
0.0
  0
LINE
  5
94E
330
1B
100
AcDbEntity
  8
0
  6
Continuous
 62
     7
370
    25
100
AcDbLine
 10
-0.2113248654
 20
224.3595092415
 30
0.0
 11
-0.2113248654
 21
224.4986823424
 31
0.0
  0
LINE
  5
94F
330
1B
100
AcDbEntity
  8
0
  6
Continuous
 62
     7
370
    25
100
AcDbLine
 10
-2.9886751346
 20
224.3595092415
 30
0.0
 11
-2.9886751346
 21
224.4986823424
 31
0.0
  0
LINE
  5
950
330
1B
100
AcDbEntity
  8
0
  6
Continuous
 62
     7
370
    25
100
AcDbLine
 10
-9.0113248654
 20
224.3595092415
 30
0.0
 11
-9.0113248654
 21
224.4986823424
 31
0.0
  0
LINE
  5
951
330
1B
100
AcDbEntity
  8
0
  6
Continuous
 62
     7
370
    25
100
AcDbLine
 10
-9.5886751346
 20
224.3595092415
 30
0.0
 11
-9.5886751346
 21
224.4986823424
 31
0.0
  0
LINE
  5
952
330
1B
100
AcDbEntity
  8
0
  6
Continuous
 62
     7
370
    25
100
AcDbLine
 10
-0.7886751346
 20
224.3595092415
 30
0.0
 11
-0.7886751346
 21
224.4986823424
 31
0.0
  0
LINE
  5
953
330
1B
100
AcDbEntity
  8
0
  6
Continuous
 62
     7
370
    25
100
AcDbLine
 10
-11.2113248654
 20
224.3595092415
 30
0.0
 11
-11.2113248654
 21
224.4986823424
 31
0.0
  0
LINE
  5
954
330
1B
100
AcDbEntity
  8
0
  6
Continuous
 62
     7
370
    25
100
AcDbLine
 10
-2.4113248654
 20
224.3595092415
 30
0.0
 11
-2.4113248654
 21
224.4986823424
 31
0.0
  0
LINE
  5
955
330
1B
100
AcDbEntity
  8
0
  6
Continuous
 62
     7
370
    25
100
AcDbLine
 10
-7.3886751346
 20
224.3595092415
 30
0.0
 11
-7.3886751346
 21
224.4986823424
 31
0.0
  0
LINE
  5
956
330
1B
100
AcDbEntity
  8
0
  6
Continuous
 62
     7
370
    25
100
AcDbLine
 10
-11.7886751346
 20
224.3595092415
 30
0.0
 11
-11.7886751346
 21
224.4986823424
 31
0.0
  0
LINE
  5
957
330
1B
100
AcDbEntity
  8
0
  6
Continuous
 62
     7
370
    25
100
AcDbLine
 10
-6.8113248654
 20
224.3595092415
 30
0.0
 11
-6.8113248654
 21
224.4986823424
 31
0.0
  0
LINE
  5
958
330
1B
100
AcDbEntity
  8
0
  6
Continuous
 62
     7
370
    25
100
AcDbLine
 10
-4.6113248654
 20
224.3595092415
 30
0.0
 11
-4.6113248654
 21
224.4986823424
 31
0.0
  0
LINE
  5
959
330
1B
100
AcDbEntity
  8
0
  6
Continuous
 62
     7
370
    25
100
AcDbLine
 10
-5.1886751346
 20
224.3595092415
 30
0.0
 11
-5.1886751346
 21
224.4986823424
 31
0.0
  0
LINE
  5
95A
330
1B
100
AcDbEntity
  8
0
  6
Continuous
 62
     7
370
    25
100
AcDbLine
 10
-6.2886751346
 20
224.2683152476
 30
0.0
 11
-6.2886751346
 21
224.4074883485
 31
0.0
  0
LINE
  5
95B
330
1B
100
AcDbEntity
  8
0
  6
Continuous
 62
     7
370
    25
100
AcDbLine
 10
-4.0886751346
 20
224.2683152476
 30
0.0
 11
-4.0886751346
 21
224.4074883485
 31
0.0
  0
LINE
  5
95C
330
1B
100
AcDbEntity
  8
0
  6
Continuous
 62
     7
370
    25
100
AcDbLine
 10
-1.8886751346
 20
224.2683152476
 30
0.0
 11
-1.8886751346
 21
224.4074883485
 31
0.0
  0
LINE
  5
95D
330
1B
100
AcDbEntity
  8
0
  6
Continuous
 62
     7
370
    25
100
AcDbLine
 10
-10.1113248654
 20
224.2683152476
 30
0.0
 11
-10.1113248654
 21
224.4074883485
 31
0.0
  0
LINE
  5
95E
330
1B
100
AcDbEntity
  8
0
  6
Continuous
 62
     7
370
    25
100
AcDbLine
 10
-3.5113248654
 20
224.2683152476
 30
0.0
 11
-3.5113248654
 21
224.4074883485
 31
0.0
  0
LINE
  5
95F
330
1B
100
AcDbEntity
  8
0
  6
Continuous
 62
     7
370
    25
100
AcDbLine
 10
-7.9113248654
 20
224.2683152476
 30
0.0
 11
-7.9113248654
 21
224.4074883485
 31
0.0
  0
LINE
  5
960
330
1B
100
AcDbEntity
  8
0
  6
Continuous
 62
     7
370
    25
100
AcDbLine
 10
-5.7113248654
 20
224.2683152476
 30
0.0
 11
-5.7113248654
 21
224.4074883485
 31
0.0
  0
LINE
  5
961
330
1B
100
AcDbEntity
  8
0
  6
Continuous
 62
     7
370
    25
100
AcDbLine
 10
-1.3113248654
 20
224.2683152476
 30
0.0
 11
-1.3113248654
 21
224.4074883485
 31
0.0
  0
LINE
  5
962
330
1B
100
AcDbEntity
  8
0
  6
Continuous
 62
     7
370
    25
100
AcDbLine
 10
-10.6886751346
 20
224.2683152476
 30
0.0
 11
-10.6886751346
 21
224.4074883485
 31
0.0
  0
LINE
  5
963
330
1B
100
AcDbEntity
  8
0
  6
Continuous
 62
     7
370
    25
100
AcDbLine
 10
-8.4886751346
 20
224.2683152476
 30
0.0
 11
-8.4886751346
 21
224.4074883485
 31
0.0
  0
LINE
  5
964
330
1B
100
AcDbEntity
  8
0
  6
Continuous
 62
     7
370
    25
100
AcDbLine
 10
-5.1886751346
 20
224.184811387
 30
0.0
 11
-5.1886751346
 21
224.323984488
 31
0.0
  0
LINE
  5
965
330
1B
100
AcDbEntity
  8
0
  6
Continuous
 62
     7
370
    25
100
AcDbLine
 10
-2.9886751346
 20
224.184811387
 30
0.0
 11
-2.9886751346
 21
224.323984488
 31
0.0
  0
LINE
  5
966
330
1B
100
AcDbEntity
  8
0
  6
Continuous
 62
     7
370
    25
100
AcDbLine
 10
-0.2113248654
 20
224.2613526998
 30
0.0
 11
-0.2113248654
 21
224.323984488
 31
0.0
  0
LINE
  5
967
330
1B
100
AcDbEntity
  8
0
  6
Continuous
 62
     7
370
    25
100
AcDbLine
 10
-9.5886751346
 20
224.184811387
 30
0.0
 11
-9.5886751346
 21
224.323984488
 31
0.0
  0
LINE
  5
968
330
1B
100
AcDbEntity
  8
0
  6
Continuous
 62
     7
370
    25
100
AcDbLine
 10
-0.7886751346
 20
224.1868701034
 30
0.0
 11
-0.7886751346
 21
224.323984488
 31
0.0
  0
LINE
  5
969
330
1B
100
AcDbEntity
  8
0
  6
Continuous
 62
     7
370
    25
100
AcDbLine
 10
-11.7886751346
 20
224.2613526998
 30
0.0
 11
-11.7886751346
 21
224.323984488
 31
0.0
  0
LINE
  5
96A
330
1B
100
AcDbEntity
  8
0
  6
Continuous
 62
     7
370
    25
100
AcDbLine
 10
-9.0113248654
 20
224.184811387
 30
0.0
 11
-9.0113248654
 21
224.323984488
 31
0.0
  0
LINE
  5
96B
330
1B
100
AcDbEntity
  8
0
  6
Continuous
 62
     7
370
    25
100
AcDbLine
 10
-6.8113248654
 20
224.184811387
 30
0.0
 11
-6.8113248654
 21
224.323984488
 31
0.0
  0
LINE
  5
96C
330
1B
100
AcDbEntity
  8
0
  6
Continuous
 62
     7
370
    25
100
AcDbLine
 10
-2.4113248654
 20
224.184811387
 30
0.0
 11
-2.4113248654
 21
224.323984488
 31
0.0
  0
LINE
  5
96D
330
1B
100
AcDbEntity
  8
0
  6
Continuous
 62
     7
370
    25
100
AcDbLine
 10
-11.2113248654
 20
224.1868701034
 30
0.0
 11
-11.2113248654
 21
224.323984488
 31
0.0
  0
LINE
  5
96E
330
1B
100
AcDbEntity
  8
0
  6
Continuous
 62
     7
370
    25
100
AcDbLine
 10
-4.6113248654
 20
224.184811387
 30
0.0
 11
-4.6113248654
 21
224.323984488
 31
0.0
  0
LINE
  5
96F
330
1B
100
AcDbEntity
  8
0
  6
Continuous
 62
     7
370
    25
100
AcDbLine
 10
-7.3886751346
 20
224.184811387
 30
0.0
 11
-7.3886751346
 21
224.323984488
 31
0.0
  0
LINE
  5
970
330
1B
100
AcDbEntity
  8
0
  6
Continuous
 62
     7
370
    25
100
AcDbLine
 10
-1.3113248654
 20
224.1306375502
 30
0.0
 11
-1.3113248654
 21
224.2335219723
 31
0.0
  0
LINE
  5
971
330
1B
100
AcDbEntity
  8
0
  6
Continuous
 62
     7
370
    25
100
AcDbLine
 10
-5.7113248654
 20
224.0943488714
 30
0.0
 11
-5.7113248654
 21
224.2335219723
 31
0.0
  0
LINE
  5
972
330
1B
100
AcDbEntity
  8
0
  6
Continuous
 62
     7
370
    25
100
AcDbLine
 10
-4.0886751346
 20
224.0943488714
 30
0.0
 11
-4.0886751346
 21
224.2335219723
 31
0.0
  0
LINE
  5
973
330
1B
100
AcDbEntity
  8
0
  6
Continuous
 62
     7
370
    25
100
AcDbLine
 10
-10.1113248654
 20
224.0943488714
 30
0.0
 11
-10.1113248654
 21
224.2335219723
 31
0.0
  0
LINE
  5
974
330
1B
100
AcDbEntity
  8
0
  6
Continuous
 62
     7
370
    25
100
AcDbLine
 10
-3.5113248654
 20
224.0943488714
 30
0.0
 11
-3.5113248654
 21
224.2335219723
 31
0.0
  0
LINE
  5
975
330
1B
100
AcDbEntity
  8
0
  6
Continuous
 62
     7
370
    25
100
AcDbLine
 10
-7.9113248654
 20
224.0943488714
 30
0.0
 11
-7.9113248654
 21
224.2335219723
 31
0.0
  0
LINE
  5
976
330
1B
100
AcDbEntity
  8
0
  6
Continuous
 62
     7
370
    25
100
AcDbLine
 10
-10.6886751346
 20
224.1306375502
 30
0.0
 11
-10.6886751346
 21
224.2335219723
 31
0.0
  0
LINE
  5
977
330
1B
100
AcDbEntity
  8
0
  6
Continuous
 62
     7
370
    25
100
AcDbLine
 10
-1.8886751346
 20
224.0943488714
 30
0.0
 11
-1.8886751346
 21
224.2335219723
 31
0.0
  0
LINE
  5
978
330
1B
100
AcDbEntity
  8
0
  6
Continuous
 62
     7
370
    25
100
AcDbLine
 10
-8.4886751346
 20
224.0943488714
 30
0.0
 11
-8.4886751346
 21
224.2335219723
 31
0.0
  0
LINE
  5
979
330
1B
100
AcDbEntity
  8
0
  6
Continuous
 62
     7
370
    25
100
AcDbLine
 10
-6.2886751346
 20
224.0943488714
 30
0.0
 11
-6.2886751346
 21
224.2335219723
 31
0.0
  0
LINE
  5
97A
330
1B
100
AcDbEntity
  8
0
  6
Continuous
 62
     7
370
    25
100
AcDbLine
 10
-2.9891537957
 20
224.003269827
 30
0.0
 11
-2.9889294508
 21
224.1424553151
 31
0.0
  0
LINE
  5
97B
330
1B
100
AcDbEntity
  8
0
  6
Continuous
 62
     7
370
    25
100
AcDbLine
 10
-9.0106654944
 20
224.0031533726
 30
0.0
 11
-9.0109742037
 21
224.1422434497
 31
0.0
  0
LINE
  5
97C
330
1B
100
AcDbEntity
  8
0
  6
Continuous
 62
     7
370
    25
100
AcDbLine
 10
-7.3886751346
 20
224.0031548775
 30
0.0
 11
-7.3886751346
 21
224.1423279784
 31
0.0
  0
LINE
  5
97D
330
1B
100
AcDbEntity
  8
0
  6
Continuous
 62
     7
370
    25
100
AcDbLine
 10
-4.6113248654
 20
224.0031548775
 30
0.0
 11
-4.6113248654
 21
224.1423279784
 31
0.0
  0
LINE
  5
97E
330
1B
100
AcDbEntity
  8
0
  6
Continuous
 62
     7
370
    25
100
AcDbLine
 10
-5.1886751346
 20
224.0031548775
 30
0.0
 11
-5.1886751346
 21
224.1423279784
 31
0.0
  0
LINE
  5
97F
330
1B
100
AcDbEntity
  8
0
  6
Continuous
 62
     7
370
    25
100
AcDbLine
 10
-2.4113248654
 20
224.0392541361
 30
0.0
 11
-2.4113248654
 21
224.1423279784
 31
0.0
  0
LINE
  5
980
330
1B
100
AcDbEntity
  8
0
  6
Continuous
 62
     7
370
    25
100
AcDbLine
 10
-9.5886751346
 20
224.0392541361
 30
0.0
 11
-9.5886751346
 21
224.1423279784
 31
0.0
  0
LINE
  5
981
330
1B
100
AcDbEntity
  8
0
  6
Continuous
 62
     7
370
    25
100
AcDbLine
 10
-6.8113248654
 20
224.0031548775
 30
0.0
 11
-6.8113248654
 21
224.1423279784
 31
0.0
  0
LINE
  5
982
330
1B
100
AcDbEntity
  8
0
  6
Continuous
 62
     7
370
    25
100
AcDbLine
 10
-8.4886751346
 20
223.9771036074
 30
0.0
 11
-8.4886751346
 21
224.0588241179
 31
0.0
  0
LINE
  5
983
330
1B
100
AcDbEntity
  8
0
  6
Continuous
 62
     7
370
    25
100
AcDbLine
 10
-3.5113248654
 20
223.9771036074
 30
0.0
 11
-3.5113248654
 21
224.0588241179
 31
0.0
  0
LINE
  5
984
330
1B
100
AcDbEntity
  8
0
  6
Continuous
 62
     7
370
    25
100
AcDbLine
 10
-4.0886751346
 20
223.9544104722
 30
0.0
 11
-4.0886751346
 21
224.0588241179
 31
0.0
  0
LINE
  5
985
330
1B
100
AcDbEntity
  8
0
  6
Continuous
 62
     7
370
    25
100
AcDbLine
 10
-6.2886751346
 20
223.9232930685
 30
0.0
 11
-6.2886751346
 21
224.0588241179
 31
0.0
  0
LINE
  5
986
330
1B
100
AcDbEntity
  8
0
  6
Continuous
 62
     7
370
    25
100
AcDbLine
 10
-5.7113248654
 20
223.9232930685
 30
0.0
 11
-5.7113248654
 21
224.0588241179
 31
0.0
  0
LINE
  5
987
330
1B
100
AcDbEntity
  8
0
  6
Continuous
 62
     7
370
    25
100
AcDbLine
 10
-7.9113248654
 20
223.9544104722
 30
0.0
 11
-7.9113248654
 21
224.0588241179
 31
0.0
  0
LINE
  5
988
330
1B
100
AcDbEntity
  8
0
  6
Continuous
 62
     7
370
    25
100
AcDbLine
 10
-25.7
 20
231.5
 30
0.0
 11
13.7
 21
231.5
 31
0.0
  0
LINE
  5
989
330
1B
100
AcDbEntity
  8
0
  6
Continuous
 62
     7
370
    25
100
AcDbLine
 10
-26.0
 20
231.8
 30
0.0
 11
14.0
 21
231.8
 31
0.0
  0
LINE
  5
98A
330
1B
100
AcDbEntity
  8
0
  6
Continuous
 62
     7
370
    25
100
AcDbLine
 10
13.7
 20
251.0
 30
0.0
 11
13.7
 21
6.0
 31
0.0
  0
LINE
  5
98B
330
1B
100
AcDbEntity
  8
0
  6
Continuous
 62
     7
370
    25
100
AcDbLine
 10
-26.0
 20
250.7
 30
0.0
 11
14.0
 21
250.7
 31
0.0
  0
LINE
  5
98C
330
1B
100
AcDbEntity
  8
0
  6
Continuous
 62
     7
370
    25
100
AcDbLine
 10
-25.7
 20
6.0
 30
0.0
 11
-25.7
 21
251.0
 31
0.0
  0
LINE
  5
98D
330
1B
100
AcDbEntity
  8
0
  6
Continuous
 62
     7
370
    25
100
AcDbLine
 10
-26.0
 20
6.0
 30
0.0
 11
-26.0
 21
250.7
 31
0.0
  0
LINE
  5
98E
330
1B
100
AcDbEntity
  8
0
  6
Continuous
 62
     7
370
    25
100
AcDbLine
 10
-25.7
 20
251.0
 30
0.0
 11
13.7
 21
251.0
 31
0.0
  0
LINE
  5
98F
330
1B
100
AcDbEntity
  8
0
  6
Continuous
 62
     7
370
    25
100
AcDbLine
 10
14.0
 20
250.7
 30
0.0
 11
14.0
 21
6.0
 31
0.0
  0
LINE
  5
990
330
1B
100
AcDbEntity
  8
0
  6
Continuous
 62
     7
370
    25
100
AcDbLine
 10
14.0
 20
226.5
 30
0.0
 11
4.95
 21
226.500000002
 31
0.0
  0
LINE
  5
991
330
1B
100
AcDbEntity
  8
0
  6
Continuous
 62
     7
370
    25
100
AcDbLine
 10
-16.95
 20
226.5000000029
 30
0.0
 11
-26.0
 21
226.5
 31
0.0
  0
LINE
  5
992
330
1B
100
AcDbEntity
  8
0
  6
Continuous
 62
     7
370
    25
100
AcDbLine
 10
-16.95
 20
228.7038729357
 30
0.0
 11
-16.95
 21
226.5252831845
 31
0.0
  0
LINE
  5
993
330
1B
100
AcDbEntity
  8
0
  6
Continuous
 62
     7
370
    25
100
AcDbLine
 10
4.95
 20
228.7038729357
 30
0.0
 11
4.95
 21
226.5252831845
 31
0.0
  0
LINE
  5
994
330
1B
100
AcDbEntity
  8
0
  6
Continuous
 62
     7
370
    25
100
AcDbLine
 10
4.95
 20
224.997625449
 30
0.0
 11
4.95
 21
224.7060254192
 31
0.0
  0
LINE
  5
995
330
1B
100
AcDbEntity
  8
0
  6
Continuous
 62
     7
370
    25
100
AcDbLine
 10
-16.95
 20
224.997625449
 30
0.0
 11
-16.95
 21
224.7060254192
 31
0.0
  0
LINE
  5
996
330
1B
100
AcDbEntity
  8
0
  6
Continuous
 62
     7
370
    25
100
AcDbLine
 10
-31.0
 20
5.7
 30
0.0
 11
19.0
 21
5.7
 31
0.0
  0
LINE
  5
997
330
1B
100
AcDbEntity
  8
0
  6
Continuous
 62
     7
370
    25
100
AcDbLine
 10
-30.7
 20
6.0
 30
0.0
 11
-30.7
 21
0.0
 31
0.0
  0
LINE
  5
998
330
1B
100
AcDbEntity
  8
0
  6
Continuous
 62
     7
370
    25
100
AcDbLine
 10
-30.7
 20
6.0
 30
0.0
 11
18.7
 21
6.0
 31
0.0
  0
LINE
  5
999
330
1B
100
AcDbEntity
  8
0
  6
Continuous
 62
     7
370
    25
100
AcDbLine
 10
18.7
 20
6.0
 30
0.0
 11
18.7
 21
0.0
 31
0.0
  0
LINE
  5
99A
330
1B
100
AcDbEntity
  8
0
  6
Continuous
 62
     7
370
    25
100
AcDbLine
 10
19.0
 20
5.7
 30
0.0
 11
19.0
 21
0.0
 31
0.0
  0
LINE
  5
99B
330
1B
100
AcDbEntity
  8
0
  6
Continuous
 62
     7
370
    25
100
AcDbLine
 10
-31.0
 20
5.7
 30
0.0
 11
-31.0
 21
0.0
 31
0.0
  0
LINE
  5
99C
330
1B
100
AcDbEntity
  8
0
  6
Continuous
 62
     7
370
    25
100
AcDbLine
 10
-31.0
 20
0.0
 30
0.0
 11
19.0
 21
0.0
 31
0.0
  0
LINE
  5
99D
330
1B
100
AcDbEntity
  8
0
  6
Continuous
 62
     7
370
    25
100
AcDbLine
 10
13.5
 20
283.65
 30
0.0
 11
-25.5
 21
283.65
 31
0.0
  0
LINE
  5
99E
330
1B
100
AcDbEntity
  8
0
  6
Continuous
 62
     7
370
    25
100
AcDbLine
 10
-25.5
 20
253.15
 30
0.0
 11
-25.5
 21
288.15
 31
0.0
  0
LINE
  5
99F
330
1B
100
AcDbEntity
  8
0
  6
Continuous
 62
     7
370
    25
100
AcDbLine
 10
14.0
 20
284.15
 30
0.0
 11
-26.0
 21
284.15
 31
0.0
  0
LINE
  5
9A0
330
1B
100
AcDbEntity
  8
0
  6
Continuous
 62
     7
370
    25
100
AcDbLine
 10
13.5
 20
288.15
 30
0.0
 11
13.5
 21
253.15
 31
0.0
  0
LINE
  5
9A1
330
1B
100
AcDbEntity
  8
0
  6
Continuous
 62
     7
370
    25
100
AcDbLine
 10
-26.0
 20
253.15
 30
0.0
 11
-26.0
 21
287.65
 31
0.0
  0
LINE
  5
9A2
330
1B
100
AcDbEntity
  8
0
  6
Continuous
 62
     7
370
    25
100
AcDbLine
 10
14.0
 20
287.65
 30
0.0
 11
-26.0
 21
287.65
 31
0.0
  0
LINE
  5
9A3
330
1B
100
AcDbEntity
  8
0
  6
Continuous
 62
     7
370
    25
100
AcDbLine
 10
14.0
 20
287.65
 30
0.0
 11
14.0
 21
253.15
 31
0.0
  0
LINE
  5
9A4
330
1B
100
AcDbEntity
  8
0
  6
Continuous
 62
     7
370
    25
100
AcDbLine
 10
13.5
 20
288.15
 30
0.0
 11
-25.5
 21
288.15
 31
0.0
  0
LINE
  5
9A5
330
1B
100
AcDbEntity
  8
0
  6
Continuous
 62
     7
370
    25
100
AcDbLine
 10
-26.0
 20
283.1500000001
 30
0.0
 11
14.0
 21
283.1499999998
 31
0.0
  0
LINE
  5
9A6
330
1B
100
AcDbEntity
  8
0
  6
Continuous
 62
     7
370
    25
100
AcDbLine
 10
-26.0
 20
253.15
 30
0.0
 11
14.0
 21
253.15
 31
0.0
  0
LINE
  5
9A7
330
1B
100
AcDbEntity
  8
0
  6
Continuous
 62
     7
370
    25
100
AcDbLine
 10
-6.0
 20
265.55
 30
0.0
 11
-6.0
 21
273.55
 31
0.0
  0
LINE
  5
9A8
330
1B
100
AcDbEntity
  8
0
  6
Continuous
 62
     8
370
    25
100
AcDbLine
 10
-6.0
 20
226.0974246876
 30
0.0
 11
-6.0
 21
226.2435564437
 31
0.0
  0
LINE
  5
9A9
330
1B
100
AcDbEntity
  8
0
  6
Continuous
 62
     8
370
    25
100
AcDbLine
 10
-6.0
 20
223.6966886961
 30
0.0
 11
-6.0
 21
223.6688540759
 31
0.0
  0
LINE
  5
9AA
330
1B
100
AcDbEntity
  8
0
  6
Continuous
 62
     8
370
    25
100
AcDbLine
 10
-5.9999999996
 20
226.0347967922
 30
0.0
 11
-6.0
 21
226.006962172
 31
0.0
  0
LINE
  5
9AB
330
1B
100
AcDbEntity
  8
0
  6
Continuous
 62
     8
370
    25
100
AcDbLine
 10
-6.0
 20
251.0
 30
0.0
 11
-6.0
 21
253.15
 31
0.0
  0
LINE
  5
9AC
330
1B
100
AcDbEntity
  8
0
  6
Continuous
 62
     8
370
    25
100
AcDbLine
 10
-5.9999999999
 20
227.5121707144
 30
0.0
 11
-5.9999999999
 21
231.5
 31
0.0
  0
LINE
  5
9AD
330
1B
100
AcDbEntity
  8
0
  6
Continuous
 62
     8
370
    25
100
AcDbLine
 10
-6.0
 20
223.6062261805
 30
0.0
 11
-6.0
 21
223.4600944245
 31
0.0
  0
ARC
  5
9AE
330
1B
100
AcDbEntity
  8
0
  6
Continuous
 62
     7
370
    25
100
AcDbCircle
 10
-7.4473753644
 20
251.2554594214
 30
0.0
 40
27.68709075109781
100
AcDbArc
 50
255.0155501614
 51
272.9965704298
  0
ARC
  5
9AF
330
1B
100
AcDbEntity
  8
0
  6
Continuous
 62
     7
370
    25
100
AcDbCircle
 10
-5.9845983048
 20
280.5547726757
 30
0.0
 40
56.63213686752094
100
AcDbArc
 50
270.2920930412
 51
271.7899285056
  0
ARC
  5
9B0
330
1B
100
AcDbEntity
  8
0
  6
Continuous
 62
     7
370
    25
100
AcDbCircle
 10
-5.8241953192
 20
275.3989135169
 30
0.0
 40
51.47378323339709
100
AcDbArc
 50
271.7907286889
 51
272.8906195136
  0
ARC
  5
9B1
330
1B
100
AcDbEntity
  8
0
  6
Continuous
 62
     7
370
    25
100
AcDbCircle
 10
-5.4090264277
 20
267.5951971759
 30
0.0
 40
43.65896250452184
100
AcDbArc
 50
273.1769956371
 51
274.2170008713
  0
ARC
  5
9B2
330
1B
100
AcDbEntity
  8
0
  6
Continuous
 62
     7
370
    25
100
AcDbCircle
 10
-5.0066734565
 20
262.0838609226
 30
0.0
 40
38.13296062049964
100
AcDbArc
 50
274.2230223507
 51
274.9713199673
  0
ARC
  5
9B3
330
1B
100
AcDbEntity
  8
0
  6
Continuous
 62
     7
370
    25
100
AcDbCircle
 10
-4.5187728509
 20
256.5457995463
 30
0.0
 40
32.57345286466921
100
AcDbArc
 50
274.9604969838
 51
276.1160625012
  0
ARC
  5
9B4
330
1B
100
AcDbEntity
  8
0
  6
Continuous
 62
     7
370
    25
100
AcDbCircle
 10
-3.3957699076
 20
246.6478227953
 30
0.0
 40
22.61175742576036
100
AcDbArc
 50
276.6061517968
 51
278.5099277838
  0
ARC
  5
9B5
330
1B
100
AcDbEntity
  8
0
  6
Continuous
 62
     7
370
    25
100
AcDbCircle
 10
-2.0378871331
 20
237.8013634421
 30
0.0
 40
13.66179681998015
100
AcDbArc
 50
278.3680622019
 51
282.236970214
  0
ARC
  5
9B6
330
1B
100
AcDbEntity
  8
0
  6
Continuous
 62
     7
370
    25
100
AcDbCircle
 10
-0.8434258705
 20
232.174857591
 30
0.0
 40
7.909996670357459
100
AcDbArc
 50
282.4198402717
 51
284.6858959502
  0
ARC
  5
9B7
330
1B
100
AcDbEntity
  8
0
  6
Continuous
 62
     7
370
    25
100
AcDbCircle
 10
0.2380092908
 20
228.2321740687
 30
0.0
 40
3.822238161173014
100
AcDbArc
 50
283.9879928173
 51
293.0516156443
  0
ARC
  5
9B8
330
1B
100
AcDbEntity
  8
0
  6
Continuous
 62
     7
370
    25
100
AcDbCircle
 10
1.2815677822
 20
225.7855734532
 30
0.0
 40
1.162378695751066
100
AcDbArc
 50
292.941129542
 51
306.7575898392
  0
ARC
  5
9B9
330
1B
100
AcDbEntity
  8
0
  6
Continuous
 62
     7
370
    25
100
AcDbCircle
 10
1.6626108389
 20
225.2561177081
 30
0.0
 40
0.5102953200977501
100
AcDbArc
 50
308.0557201779
 51
315.6070980792
  0
ARC
  5
9BA
330
1B
100
AcDbEntity
  8
0
  6
Continuous
 62
     7
370
    25
100
AcDbCircle
 10
1.7962167811
 20
225.1266861792
 30
0.0
 40
0.3242803891305715
100
AcDbArc
 50
315.4337965089
 51
327.164555751
  0
ARC
  5
9BB
330
1B
100
AcDbEntity
  8
0
  6
Continuous
 62
     7
370
    25
100
AcDbCircle
 10
-13.7962167811
 20
225.1266861792
 30
0.0
 40
0.324280389137174
100
AcDbArc
 50
212.8354442506
 51
224.566203491
  0
ARC
  5
9BC
330
1B
100
AcDbEntity
  8
0
  6
Continuous
 62
     7
370
    25
100
AcDbCircle
 10
-13.6626108388
 20
225.2561177083
 30
0.0
 40
0.5102953202676538
100
AcDbArc
 50
224.392901922
 51
231.9442798208
  0
ARC
  5
9BD
330
1B
100
AcDbEntity
  8
0
  6
Continuous
 62
     7
370
    25
100
AcDbCircle
 10
-13.2815677822
 20
225.7855734532
 30
0.0
 40
1.162378695751143
100
AcDbArc
 50
233.2424101609
 51
247.058870458
  0
ARC
  5
9BE
330
1B
100
AcDbEntity
  8
0
  6
Continuous
 62
     7
370
    25
100
AcDbCircle
 10
-12.2380092908
 20
228.2321740687
 30
0.0
 40
3.822238161185942
100
AcDbArc
 50
246.9483843557
 51
256.0120071827
  0
ARC
  5
9BF
330
1B
100
AcDbEntity
  8
0
  6
Continuous
 62
     7
370
    25
100
AcDbCircle
 10
-11.1565741295
 20
232.174857591
 30
0.0
 40
7.909996670358259
100
AcDbArc
 50
255.3141040498
 51
257.5801597283
  0
ARC
  5
9C0
330
1B
100
AcDbEntity
  8
0
  6
Continuous
 62
     7
370
    25
100
AcDbCircle
 10
-9.9621128669
 20
237.8013634416
 30
0.0
 40
13.6617968195579
100
AcDbArc
 50
257.763029786
 51
261.6319377981
  0
ARC
  5
9C1
330
1B
100
AcDbEntity
  8
0
  6
Continuous
 62
     7
370
    25
100
AcDbCircle
 10
-8.6042300924
 20
246.6478227953
 30
0.0
 40
22.61175742576013
100
AcDbArc
 50
261.4900722162
 51
263.3938482032
  0
ARC
  5
9C2
330
1B
100
AcDbEntity
  8
0
  6
Continuous
 62
     7
370
    25
100
AcDbCircle
 10
-7.4812271491
 20
256.5457995463
 30
0.0
 40
32.57345286467399
100
AcDbArc
 50
263.8839374988
 51
265.0395030162
  0
ARC
  5
9C3
330
1B
100
AcDbEntity
  8
0
  6
Continuous
 62
     7
370
    25
100
AcDbCircle
 10
-6.9933265435
 20
262.0838609226
 30
0.0
 40
38.13296062048279
100
AcDbArc
 50
265.0286800327
 51
265.7769776493
  0
ARC
  5
9C4
330
1B
100
AcDbEntity
  8
0
  6
Continuous
 62
     7
370
    25
100
AcDbCircle
 10
-6.5909735723
 20
267.5951971759
 30
0.0
 40
43.65896250452124
100
AcDbArc
 50
265.7829991287
 51
266.8230043629
  0
ARC
  5
9C5
330
1B
100
AcDbEntity
  8
0
  6
Continuous
 62
     7
370
    25
100
AcDbCircle
 10
-6.1758046808
 20
275.3989135169
 30
0.0
 40
51.47378323339641
100
AcDbArc
 50
267.1093804864
 51
268.2092713111
  0
ARC
  5
9C6
330
1B
100
AcDbEntity
  8
0
  6
Continuous
 62
     7
370
    25
100
AcDbCircle
 10
-6.0154016952
 20
280.5547726756
 30
0.0
 40
56.63213686741105
100
AcDbArc
 50
268.2100714944
 51
269.7079069588
  0
ARC
  5
9C7
330
1B
100
AcDbEntity
  8
0
  6
Continuous
 62
     7
370
    25
100
AcDbCircle
 10
-25.7
 20
250.7
 30
0.0
 40
0.3000000000000398
100
AcDbArc
 50
90.0
 51
180.0
  0
ARC
  5
9C8
330
1B
100
AcDbEntity
  8
0
  6
Continuous
 62
     7
370
    25
100
AcDbCircle
 10
-25.7
 20
231.8
 30
0.0
 40
0.3000000000000398
100
AcDbArc
 50
180.0
 51
270.0
  0
ARC
  5
9C9
330
1B
100
AcDbEntity
  8
0
  6
Continuous
 62
     7
370
    25
100
AcDbCircle
 10
13.7
 20
250.7
 30
0.0
 40
0.3000000000000682
100
AcDbArc
 50
0.0
 51
90.0
  0
ARC
  5
9CA
330
1B
100
AcDbEntity
  8
0
  6
Continuous
 62
     7
370
    25
100
AcDbCircle
 10
13.7
 20
231.8
 30
0.0
 40
0.3000000000000398
100
AcDbArc
 50
270.0
 51
360.0
  0
ARC
  5
9CB
330
1B
100
AcDbEntity
  8
0
  6
Continuous
 62
     7
370
    25
100
AcDbCircle
 10
-7.4119218556
 20
181.9368869903
 30
0.0
 40
45.5971491417444
100
AcDbArc
 50
88.2255448347
 51
102.0743879234
  0
ARC
  5
9CC
330
1B
100
AcDbEntity
  8
0
  6
Continuous
 62
     7
370
    25
100
AcDbCircle
 10
-4.5880781443
 20
181.936886991
 30
0.0
 40
45.59714914104011
100
AcDbArc
 50
77.9256120766
 51
91.7744551651
  0
ARC
  5
9CD
330
1B
100
AcDbEntity
  8
0
  6
Continuous
 62
     7
370
    25
100
AcDbCircle
 10
18.7
 20
5.7
 30
0.0
 40
0.300000000000006
100
AcDbArc
 50
0.0
 51
90.0
  0
ARC
  5
9CE
330
1B
100
AcDbEntity
  8
0
  6
Continuous
 62
     7
370
    25
100
AcDbCircle
 10
-30.7
 20
5.7
 30
0.0
 40
0.3000000000000114
100
AcDbArc
 50
90.0
 51
180.0
  0
ARC
  5
9CF
330
1B
100
AcDbEntity
  8
0
  6
Continuous
 62
     7
370
    25
100
AcDbCircle
 10
-25.5
 20
284.15
 30
0.0
 40
0.5000000000000568
100
AcDbArc
 50
180.0
 51
270.0
  0
ARC
  5
9D0
330
1B
100
AcDbEntity
  8
0
  6
Continuous
 62
     7
370
    25
100
AcDbCircle
 10
13.5
 20
284.15
 30
0.0
 40
0.4999999999998863
100
AcDbArc
 50
270.0
 51
0.0
  0
ARC
  5
9D1
330
1B
100
AcDbEntity
  8
0
  6
Continuous
 62
     7
370
    25
100
AcDbCircle
 10
13.5
 20
287.65
 30
0.0
 40
0.5000000000001332
100
AcDbArc
 50
0.0
 51
90.0
  0
ARC
  5
9D2
330
1B
100
AcDbEntity
  8
0
  6
Continuous
 62
     7
370
    25
100
AcDbCircle
 10
-25.5
 20
287.65
 30
0.0
 40
0.5000000000000036
100
AcDbArc
 50
90.0
 51
180.0
  0
ARC
  5
9D3
330
1B
100
AcDbEntity
  8
0
  6
Continuous
 62
     7
370
    25
100
AcDbCircle
 10
-6.0
 20
269.55
 30
0.0
 40
3.255512763042987
100
AcDbArc
 50
90.0
 51
270.0
  0
ARC
  5
9D4
330
1B
100
AcDbEntity
  8
0
  6
Continuous
 62
     7
370
    25
100
AcDbCircle
 10
-6.0
 20
269.55
 30
0.0
 40
3.914769239750967
100
AcDbArc
 50
90.0
 51
270.0
  0
ARC
  5
9D5
330
1B
100
AcDbEntity
  8
0
  6
Continuous
 62
     7
370
    25
100
AcDbCircle
 10
-6.0
 20
269.55
 30
0.0
 40
4.0
100
AcDbArc
 50
270.0
 51
90.0
  0
VIEWPORT
  5
A3E
330
1B
100
AcDbEntity
  8
0
100
AcDbViewport
 10
0.0
 20
0.0
 30
0.0
 40
205.6
 41
156.0
 68
     1
 69
     1
 12
64.75
 22
144.075
 13
0.0
 23
0.0
 14
10.0
 24
10.0
 15
10.0
 25
10.0
 16
0.0
 26
0.0
 36
1.0
 17
0.0
 27
0.0
 37
0.0
 42
50.0
 43
0.0
 44
0.0
 45
293.913
 50
0.0
 51
0.0
 72
   100
 90
   557152
  1

281
     0
 71
     1
 74
     0
110
0.0
120
0.0
130
0.0
111
1.0
121
0.0
131
0.0
112
0.0
122
1.0
132
0.0
 79
     0
146
0.0
  0
ENDBLK
  5
1D
330
1B
100
AcDbEntity
  8
0
100
AcDbBlockEnd
  0
ENDSEC
  0
SECTION
  2
ENTITIES
  0
LWPOLYLINE
  5
8C
330
1F
100
AcDbEntity
  8
0
  6
Continuous
 62
     7
370
    25
100
AcDbPolyline
 90
        3
 70
   128
 43
0.0
 10
16.85
 20
251.0
 10
16.8531700045
 20
252.2964203941
 10
16.8093083748
 20
253.15
  0
SPLINE
  5
97
330
1F
100
AcDbEntity
  8
0
  6
Continuous
 62
     7
370
    25
100
AcDbSpline
210
0.0
220
0.0
230
1.0
 70
     8
 71
     3
 72
    15
 73
    11
 74
     0
 42
0.000000001
 43
0.00000001
 40
0.0
 40
0.0
 40
0.0
 40
0.0
 40
0.1084774110152678
 40
0.2147307583158971
 40
0.3188312885301551
 40
0.42085475855287
 40
0.5208816446702902
 40
0.6837319250718035
 40
0.8432895442173794
 40
1.0
 40
1.0
 40
1.0
 40
1.0
 10
132.9340197265419
 20
225.1589038212279
 30
0.0
 10
133.0745594009384
 20
225.1242514566016
 30
0.0
 10
133.3527573278081
 20
225.055657189242
 30
0.0
 10
133.768900563293
 20
224.9669863563543
 30
0.0
 10
134.1786150770205
 20
224.8902104253899
 30
0.0
 10
134.5821289499578
 20
224.8262479920492
 30
0.0
 10
135.0650469748977
 20
224.7636445796992
 30
0.0
 10
135.6266975591005
 20
224.7139699261289
 30
0.0
 10
136.2659228830462
 20
224.6880731403169
 30
0.0
 10
136.6878530793915
 20
224.7000773483401
 30
0.0
 10
136.8969189909375
 20
224.7060254191691
 30
0.0
  0
SPLINE
  5
99
330
1F
100
AcDbEntity
  8
0
  6
Continuous
 62
     7
370
    25
100
AcDbSpline
210
0.0
220
0.0
230
1.0
 70
     8
 71
     3
 72
    16
 73
    12
 74
     0
 42
0.000000001
 43
0.00000001
 40
0.0
 40
0.0
 40
0.0
 40
0.0
 40
0.0780869957768681
 40
0.1568510155216603
 40
0.2363503102227592
 40
0.316641530566574
 40
0.3977796684878961
 40
0.4798180128220711
 40
0.6473153377624536
 40
0.8205926783568681
 40
1.0
 40
1.0
 40
1.0
 40
1.0
 10
138.9717610144626
 20
224.9976254490309
 30
0.0
 10
139.0729072700723
 20
225.0226640812066
 30
0.0
 10
139.2760767319114
 20
225.0729584336137
 30
0.0
 10
139.5794254515901
 20
225.1594053815912
 30
0.0
 10
139.8833015515763
 20
225.2542570655892
 30
0.0
 10
140.1875176510848
 20
225.3582985092685
 30
0.0
 10
140.4921189670633
 20
225.471329355885
 30
0.0
 10
140.9018171750735
 20
225.635240701096
 30
0.0
 10
141.4173957342286
 20
225.8647806999614
 30
0.0
 10
142.0388569936709
 20
226.1746139315703
 30
0.0
 10
142.4481239051361
 20
226.4070468017459
 30
0.0
 10
142.656314076938
 20
226.5252831844552
 30
0.0
  0
SPLINE
  5
AB
330
1F
100
AcDbEntity
  8
0
  6
Continuous
 62
     7
370
    25
100
AcDbSpline
210
0.0
220
0.0
230
1.0
 70
    24
 71
     3
 72
    14
 73
    10
 74
     0
 42
0.000000001
 43
0.00000001
 40
0.0
 40
0.0
 40
0.0
 40
0.0
 40
0.1031574769473593
 40
0.2026805360191447
 40
0.3009472860715022
 40
0.4004259756823479
 40
0.503497823679376
 40
0.7519514864306716
 40
1.0
 40
1.0
 40
1.0
 40
1.0
 10
-19.49999999999995
 20
260.1166790032092
 30
0.0
 10
-19.52651604025503
 20
260.123783954782
 30
0.0
 10
-19.57861391440863
 20
260.1377435380888
 30
0.0
 10
-19.6543689988805
 20
260.1580420517956
 30
0.0
 10
-19.7255959872706
 20
260.177127265814
 30
0.0
 10
-19.79227481172288
 20
260.1949938029783
 30
0.0
 10
-19.88156150382206
 20
260.2189181000211
 30
0.0
 10
-19.97991157071055
 20
260.2452709210194
 30
0.0
 10
-19.99330750062714
 20
260.2488603496224
 30
0.0
 10
-20.00000000000007
 20
260.2506535994248
 30
0.0
  0
LINE
  5
CE
330
1F
100
AcDbEntity
  8
0
  6
Continuous
 62
     7
370
    25
100
AcDbLine
 10
125.9119500768
 20
224.1720162913
 30
0.0
 11
127.0413912465
 21
223.3209213235
 31
0.0
  0
LINE
  5
CF
330
1F
100
AcDbEntity
  8
0
  6
Continuous
 62
     7
370
    25
100
AcDbLine
 10
148.8272887589
 20
226.3827295447
 30
0.0
 11
149.6783837266
 21
227.5121707144
 31
0.0
  0
LINE
  5
D0
330
1F
100
AcDbEntity
  8
0
  6
Continuous
 62
     7
370
    25
100
AcDbLine
 10
25.5
 20
231.8
 30
0.0
 11
25.5
 21
231.5
 31
0.0
  0
LINE
  5
D1
330
1F
100
AcDbEntity
  8
0
  6
Continuous
 62
     7
370
    25
100
AcDbLine
 10
20.2000000022
 20
226.5
 30
0.0
 11
20.5
 21
226.5000000032
 31
0.0
  0
LINE
  5
D2
330
1F
100
AcDbEntity
  8
0
  6
Continuous
 62
     7
370
    25
100
AcDbLine
 10
20.2
 20
6.0
 30
0.0
 11
20.2000000022
 21
226.5
 31
0.0
  0
LINE
  5
D3
330
1F
100
AcDbEntity
  8
0
  6
Continuous
 62
     7
370
    25
100
AcDbLine
 10
-20.2
 20
251.0
 30
0.0
 11
-20.2
 21
6.0
 31
0.0
  0
LINE
  5
D4
330
1F
100
AcDbEntity
  8
0
  6
Continuous
 62
     7
370
    25
100
AcDbLine
 10
154.5
 20
250.7
 30
0.0
 11
-20.5
 21
250.7
 31
0.0
  0
LINE
  5
D5
330
1F
100
AcDbEntity
  8
0
  6
Continuous
 62
     7
370
    25
100
AcDbLine
 10
154.2
 20
231.5
 30
0.0
 11
154.2
 21
251.0
 31
0.0
  0
LINE
  5
D6
330
1F
100
AcDbEntity
  8
0
  6
Continuous
 62
     7
370
    25
100
AcDbLine
 10
25.5
 20
231.8
 30
0.0
 11
154.5
 21
231.8
 31
0.0
  0
LINE
  5
D7
330
1F
100
AcDbEntity
  8
0
  6
Continuous
 62
     7
370
    25
100
AcDbLine
 10
20.5
 20
6.0
 30
0.0
 11
20.5
 21
226.5000000032
 31
0.0
  0
LINE
  5
D8
330
1F
100
AcDbEntity
  8
0
  6
Continuous
 62
     7
370
    25
100
AcDbLine
 10
154.5
 20
231.8
 30
0.0
 11
154.5
 21
250.7
 31
0.0
  0
LINE
  5
D9
330
1F
100
AcDbEntity
  8
0
  6
Continuous
 62
     7
370
    25
100
AcDbLine
 10
25.5
 20
231.5
 30
0.0
 11
154.2
 21
231.5
 31
0.0
  0
LINE
  5
DA
330
1F
100
AcDbEntity
  8
0
  6
Continuous
 62
     7
370
    25
100
AcDbLine
 10
-20.5
 20
250.7
 30
0.0
 11
-20.5
 21
6.0
 31
0.0
  0
LINE
  5
DB
330
1F
100
AcDbEntity
  8
0
  6
Continuous
 62
     7
370
    25
100
AcDbLine
 10
154.2
 20
251.0
 30
0.0
 11
-20.2
 21
251.0
 31
0.0
  0
LINE
  5
DC
330
1F
100
AcDbEntity
  8
0
  6
Continuous
 62
     7
370
    25
100
AcDbLine
 10
142.3501332548
 20
228.7038729357
 30
0.0
 11
142.6563140769
 21
226.5252831845
 31
0.0
  0
LINE
  5
DD
330
1F
100
AcDbEntity
  8
0
  6
Continuous
 62
     7
370
    25
100
AcDbLine
 10
132.6278389044
 20
227.3374935725
 30
0.0
 11
132.9340197265
 21
225.1589038212
 31
0.0
  0
LINE
  5
DE
330
1F
100
AcDbEntity
  8
0
  6
Continuous
 62
     7
370
    25
100
AcDbLine
 10
125.9119500768
 20
224.1720162913
 30
0.0
 11
132.9340197265
 21
225.1589038212
 31
0.0
  0
LINE
  5
DF
330
1F
100
AcDbEntity
  8
0
  6
Continuous
 62
     7
370
    25
100
AcDbLine
 10
125.9119500769
 20
224.1720162913
 30
0.0
 11
124.9377383701
 21
231.1038927725
 31
0.0
  0
LINE
  5
E0
330
1F
100
AcDbEntity
  8
0
  6
Continuous
 62
     7
370
    25
100
AcDbLine
 10
127.8095157695
 20
231.5074947653
 30
0.0
 11
124.9377383701
 21
231.1038927725
 31
0.0
  0
LINE
  5
E1
330
1F
100
AcDbEntity
  8
0
  6
Continuous
 62
     7
370
    25
100
AcDbLine
 10
149.6783837266
 20
227.5121707144
 30
0.0
 11
149.1179308702
 21
231.5
 31
0.0
  0
LINE
  5
E2
330
1F
100
AcDbEntity
  8
0
  6
Continuous
 62
     7
370
    25
100
AcDbLine
 10
142.6563140769
 20
226.5252831845
 30
0.0
 11
149.6783837266
 21
227.5121707144
 31
0.0
  0
LINE
  5
E3
330
1F
100
AcDbEntity
  8
0
  6
Continuous
 62
     7
370
    25
100
AcDbLine
 10
142.3501332548
 20
228.7038729357
 30
0.0
 11
132.6278389044
 21
227.3374935725
 31
0.0
  0
LINE
  5
E4
330
1F
100
AcDbEntity
  8
0
  6
Continuous
 62
     7
370
    25
100
AcDbLine
 10
125.8537363337
 20
231.2326278909
 30
0.0
 11
125.8161596343
 21
231.5
 31
0.0
  0
LINE
  5
E5
330
1F
100
AcDbEntity
  8
0
  6
Continuous
 62
     7
370
    25
100
AcDbLine
 10
148.8272887589
 20
226.3827295447
 30
0.0
 11
127.0413912465
 21
223.3209213235
 31
0.0
  0
LINE
  5
E6
330
1F
100
AcDbEntity
  8
0
  6
Continuous
 62
     7
370
    25
100
AcDbLine
 10
-25.0
 20
0.0
 30
0.0
 11
25.0
 21
0.0
 31
0.0
  0
LINE
  5
E7
330
1F
100
AcDbEntity
  8
0
  6
Continuous
 62
     7
370
    25
100
AcDbLine
 10
24.7
 20
6.0
 30
0.0
 11
24.7
 21
0.0
 31
0.0
  0
LINE
  5
E8
330
1F
100
AcDbEntity
  8
0
  6
Continuous
 62
     7
370
    25
100
AcDbLine
 10
-25.0
 20
5.7
 30
0.0
 11
25.0
 21
5.7
 31
0.0
  0
LINE
  5
E9
330
1F
100
AcDbEntity
  8
0
  6
Continuous
 62
     7
370
    25
100
AcDbLine
 10
25.0
 20
5.7
 30
0.0
 11
25.0
 21
0.0
 31
0.0
  0
LINE
  5
EA
330
1F
100
AcDbEntity
  8
0
  6
Continuous
 62
     7
370
    25
100
AcDbLine
 10
-24.7
 20
6.0
 30
0.0
 11
-24.7
 21
0.0
 31
0.0
  0
LINE
  5
EB
330
1F
100
AcDbEntity
  8
0
  6
Continuous
 62
     7
370
    25
100
AcDbLine
 10
-25.0
 20
5.7
 30
0.0
 11
-25.0
 21
0.0
 31
0.0
  0
LINE
  5
EC
330
1F
100
AcDbEntity
  8
0
  6
Continuous
 62
     7
370
    25
100
AcDbLine
 10
-24.7
 20
6.0
 30
0.0
 11
24.7
 21
6.0
 31
0.0
  0
LINE
  5
ED
330
1F
100
AcDbEntity
  8
0
  6
Continuous
 62
     7
370
    25
100
AcDbLine
 10
-20.0
 20
287.65
 30
0.0
 11
-20.0
 21
260.2506535994
 31
0.0
  0
LINE
  5
EE
330
1F
100
AcDbEntity
  8
0
  6
Continuous
 62
     7
370
    25
100
AcDbLine
 10
95.0
 20
287.65
 30
0.0
 11
-20.0
 21
287.65
 31
0.0
  0
LINE
  5
EF
330
1F
100
AcDbEntity
  8
0
  6
Continuous
 62
     7
370
    25
100
AcDbLine
 10
-19.5
 20
288.15
 30
0.0
 11
-19.5
 21
260.1166790032
 31
0.0
  0
LINE
  5
F0
330
1F
100
AcDbEntity
  8
0
  6
Continuous
 62
     7
370
    25
100
AcDbLine
 10
94.5
 20
283.65
 30
0.0
 11
94.5
 21
288.15
 31
0.0
  0
LINE
  5
F1
330
1F
100
AcDbEntity
  8
0
  6
Continuous
 62
     7
370
    25
100
AcDbLine
 10
20.4999999996
 20
284.15
 30
0.0
 11
95.0
 21
284.15
 31
0.0
  0
LINE
  5
F2
330
1F
100
AcDbEntity
  8
0
  6
Continuous
 62
     7
370
    25
100
AcDbLine
 10
19.5
 20
253.15
 30
0.0
 11
19.5
 21
283.1500000001
 31
0.0
  0
LINE
  5
F3
330
1F
100
AcDbEntity
  8
0
  6
Continuous
 62
     7
370
    25
100
AcDbLine
 10
20.0
 20
253.15
 30
0.0
 11
6.5
 21
253.15
 31
0.0
  0
LINE
  5
F4
330
1F
100
AcDbEntity
  8
0
  6
Continuous
 62
     7
370
    25
100
AcDbLine
 10
-19.5
 20
260.1166790032
 30
0.0
 11
6.5
 21
253.15
 31
0.0
  0
LINE
  5
F5
330
1F
100
AcDbEntity
  8
0
  6
Continuous
 62
     7
370
    25
100
AcDbLine
 10
94.5
 20
288.15
 30
0.0
 11
-19.5
 21
288.15
 31
0.0
  0
LINE
  5
F6
330
1F
100
AcDbEntity
  8
0
  6
Continuous
 62
     7
370
    25
100
AcDbLine
 10
19.5
 20
283.1500000001
 30
0.0
 11
20.0
 21
283.1500000001
 31
0.0
  0
LINE
  5
F7
330
1F
100
AcDbEntity
  8
0
  6
Continuous
 62
     7
370
    25
100
AcDbLine
 10
20.4999999999
 20
283.65
 30
0.0
 11
20.4999999996
 21
284.15
 31
0.0
  0
LINE
  5
F8
330
1F
100
AcDbEntity
  8
0
  6
Continuous
 62
     7
370
    25
100
AcDbLine
 10
95.0
 20
284.15
 30
0.0
 11
95.0
 21
287.65
 31
0.0
  0
LINE
  5
F9
330
1F
100
AcDbEntity
  8
0
  6
Continuous
 62
     7
370
    25
100
AcDbLine
 10
20.4999999999
 20
283.65
 30
0.0
 11
94.5
 21
283.65
 31
0.0
  0
LINE
  5
FA
330
1F
100
AcDbEntity
  8
0
  6
Continuous
 62
     7
370
    25
100
AcDbLine
 10
20.0
 20
253.15
 30
0.0
 11
20.0
 21
283.1500000001
 31
0.0
  0
LINE
  5
FB
330
1F
100
AcDbEntity
  8
0
  6
Continuous
 62
     7
370
    25
100
AcDbLine
 10
20.4833676611
 20
273.4647692398
 30
0.0
 11
20.4833676611
 21
265.6352307602
 31
0.0
  0
LINE
  5
FC
330
1F
100
AcDbEntity
  8
0
  6
Continuous
 62
     7
370
    25
100
AcDbLine
 10
20.0
 20
265.55
 30
0.0
 11
20.4833676611
 21
265.6352307602
 31
0.0
  0
LINE
  5
FD
330
1F
100
AcDbEntity
  8
0
  6
Continuous
 62
     7
370
    25
100
AcDbLine
 10
20.0
 20
273.55
 30
0.0
 11
20.4833676611
 21
273.4647692398
 31
0.0
  0
LINE
  5
FE
330
1F
100
AcDbEntity
  8
0
  6
Continuous
 62
     7
370
    25
100
AcDbLine
 10
21.2552438704
 20
272.805512763
 30
0.0
 11
21.2552438704
 21
266.294487237
 31
0.0
  0
ARC
  5
FF
330
1F
100
AcDbEntity
  8
0
  6
Continuous
 62
     7
370
    25
100
AcDbCircle
 10
25.5000000044
 20
226.4999999978
 30
0.0
 40
5.300000002167433
100
AcDbArc
 50
90.0000000471
 51
179.9999999766
  0
ARC
  5
100
330
1F
100
AcDbEntity
  8
0
  6
Continuous
 62
     7
370
    25
100
AcDbCircle
 10
25.5
 20
226.5
 30
0.0
 40
5.000000000000004
100
AcDbArc
 50
90.0
 51
179.9999999633
  0
ARC
  5
101
330
1F
100
AcDbEntity
  8
0
  6
Continuous
 62
     7
370
    25
100
AcDbCircle
 10
154.2
 20
231.8
 30
0.0
 40
0.3000000000000398
100
AcDbArc
 50
270.0
 51
360.0
  0
ARC
  5
102
330
1F
100
AcDbEntity
  8
0
  6
Continuous
 62
     7
370
    25
100
AcDbCircle
 10
154.2
 20
250.7
 30
0.0
 40
0.3000000000000114
100
AcDbArc
 50
0.0
 51
90.0
  0
ARC
  5
103
330
1F
100
AcDbEntity
  8
0
  6
Continuous
 62
     7
370
    25
100
AcDbCircle
 10
-20.2
 20
250.7
 30
0.0
 40
0.3000000000000398
100
AcDbArc
 50
90.0
 51
180.0
  0
ARC
  5
104
330
1F
100
AcDbEntity
  8
0
  6
Continuous
 62
     7
370
    25
100
AcDbCircle
 10
3.1378480052
 20
251.6970883185
 30
0.0
 40
20.00000000004207
100
AcDbArc
 50
158.4725223012
 51
181.9974154894
  0
ARC
  5
105
330
1F
100
AcDbEntity
  8
0
  6
Continuous
 62
     7
370
    25
100
AcDbCircle
 10
-24.7
 20
5.7
 30
0.0
 40
0.2999999999999874
100
AcDbArc
 50
90.0
 51
180.0
  0
ARC
  5
106
330
1F
100
AcDbEntity
  8
0
  6
Continuous
 62
     7
370
    25
100
AcDbCircle
 10
24.7
 20
5.7
 30
0.0
 40
0.2999999999999989
100
AcDbArc
 50
0.0
 51
90.0
  0
ARC
  5
107
330
1F
100
AcDbEntity
  8
0
  6
Continuous
 62
     7
370
    25
100
AcDbCircle
 10
20.5
 20
283.15
 30
0.0
 40
0.9999999999801048
100
AcDbArc
 50
90.0000000241
 51
179.9999999977
  0
ARC
  5
108
330
1F
100
AcDbEntity
  8
0
  6
Continuous
 62
     7
370
    25
100
AcDbCircle
 10
-19.5
 20
287.65
 30
0.0
 40
0.5
100
AcDbArc
 50
90.0
 51
180.0
  0
ARC
  5
109
330
1F
100
AcDbEntity
  8
0
  6
Continuous
 62
     7
370
    25
100
AcDbCircle
 10
94.5
 20
284.15
 30
0.0
 40
0.4999999999998863
100
AcDbArc
 50
270.0
 51
0.0
  0
ARC
  5
10A
330
1F
100
AcDbEntity
  8
0
  6
Continuous
 62
     7
370
    25
100
AcDbCircle
 10
94.5
 20
287.65
 30
0.0
 40
0.5000000000001705
100
AcDbArc
 50
0.0
 51
90.0
  0
ARC
  5
10B
330
1F
100
AcDbEntity
  8
0
  6
Continuous
 62
     7
370
    25
100
AcDbCircle
 10
20.5
 20
283.15
 30
0.0
 40
0.4999999999999574
100
AcDbArc
 50
90.0000000149
 51
179.999999992
  0
ARC
  5
10C
330
1F
100
AcDbEntity
  8
0
  6
Continuous
 62
     7
370
    25
100
AcDbCircle
 10
20.3097194834
 20
266.6200385133
 30
0.0
 40
0.999999999999307
100
AcDbArc
 50
280.0
 51
341.0010227657
  0
ARC
  5
10D
330
1F
100
AcDbEntity
  8
0
  6
Continuous
 62
     7
370
    25
100
AcDbCircle
 10
20.3097194834
 20
272.4799614867
 30
0.0
 40
0.9999999999992608
100
AcDbArc
 50
18.9989772343
 51
80.0
  0
ARC
  5
10E
330
1F
100
AcDbEntity
  8
0
  6
Continuous
 62
     7
370
    25
100
AcDbCircle
 10
11.8
 20
269.55
 30
0.0
 40
10.00000000000647
100
AcDbArc
 50
341.0010227657
 51
18.9989772343
  0
LINE
  5
A18
330
23
100
AcDbEntity
 67
     1
  8
0
  6
Continuous
 62
     7
370
    25
100
AcDbLine
 10
-20.2
 20
14.0
 30
0.0
 11
154.2
 21
14.0
 31
0.0
  0
LINE
  5
A19
330
23
100
AcDbEntity
 67
     1
  8
0
  6
Continuous
 62
     7
370
    25
100
AcDbLine
 10
154.2
 20
-26.0
 30
0.0
 11
154.2
 21
14.0
 31
0.0
  0
LINE
  5
A1A
330
23
100
AcDbEntity
 67
     1
  8
0
  6
Continuous
 62
     7
370
    25
100
AcDbLine
 10
-20.2
 20
-26.0
 30
0.0
 11
-20.2
 21
14.0
 31
0.0
  0
LINE
  5
A1B
330
23
100
AcDbEntity
 67
     1
  8
0
  6
Continuous
 62
     7
370
    25
100
AcDbLine
 10
154.5
 20
-25.7
 30
0.0
 11
94.9582575695
 21
-25.7
 31
0.0
  0
LINE
  5
A1C
330
23
100
AcDbEntity
 67
     1
  8
0
  6
Continuous
 62
     7
370
    25
100
AcDbLine
 10
94.9582575695
 20
13.7
 30
0.0
 11
154.5
 21
13.7
 31
0.0
  0
LINE
  5
A1D
330
23
100
AcDbEntity
 67
     1
  8
0
  6
Continuous
 62
     7
370
    25
100
AcDbLine
 10
-20.5
 20
13.7
 30
0.0
 11
-19.9582575695
 21
13.7
 31
0.0
  0
LINE
  5
A1E
330
23
100
AcDbEntity
 67
     1
  8
0
  6
Continuous
 62
     7
370
    25
100
AcDbLine
 10
-20.5
 20
-25.7
 30
0.0
 11
-20.5
 21
13.7
 31
0.0
  0
LINE
  5
A1F
330
23
100
AcDbEntity
 67
     1
  8
0
  6
Continuous
 62
     7
370
    25
100
AcDbLine
 10
-19.9582575695
 20
-25.7
 30
0.0
 11
-20.5
 21
-25.7
 31
0.0
  0
LINE
  5
A20
330
23
100
AcDbEntity
 67
     1
  8
0
  6
Continuous
 62
     7
370
    25
100
AcDbLine
 10
154.5
 20
-25.7
 30
0.0
 11
154.5
 21
13.7
 31
0.0
  0
LINE
  5
A21
330
23
100
AcDbEntity
 67
     1
  8
0
  6
Continuous
 62
     7
370
    25
100
AcDbLine
 10
154.2
 20
-26.0
 30
0.0
 11
-20.2
 21
-26.0
 31
0.0
  0
LINE
  5
A22
330
23
100
AcDbEntity
 67
     1
  8
0
  6
Continuous
 62
     7
370
    25
100
AcDbLine
 10
24.7
 20
19.0
 30
0.0
 11
-24.7
 21
19.0
 31
0.0
  0
LINE
  5
A23
330
23
100
AcDbEntity
 67
     1
  8
0
  6
Continuous
 62
     7
370
    25
100
AcDbLine
 10
24.7
 20
14.0
 30
0.0
 11
24.7
 21
19.0
 31
0.0
  0
LINE
  5
A24
330
23
100
AcDbEntity
 67
     1
  8
0
  6
Continuous
 62
     7
370
    25
100
AcDbLine
 10
25.0
 20
18.7
 30
0.0
 11
-25.0
 21
18.7
 31
0.0
  0
LINE
  5
A25
330
23
100
AcDbEntity
 67
     1
  8
0
  6
Continuous
 62
     7
370
    25
100
AcDbLine
 10
-25.0
 20
-30.7
 30
0.0
 11
25.0
 21
-30.7
 31
0.0
  0
LINE
  5
A26
330
23
100
AcDbEntity
 67
     1
  8
0
  6
Continuous
 62
     7
370
    25
100
AcDbLine
 10
-24.7
 20
19.0
 30
0.0
 11
-24.7
 21
-31.0
 31
0.0
  0
LINE
  5
A27
330
23
100
AcDbEntity
 67
     1
  8
0
  6
Continuous
 62
     7
370
    25
100
AcDbLine
 10
-25.0
 20
18.7
 30
0.0
 11
-25.0
 21
-30.7
 31
0.0
  0
LINE
  5
A28
330
23
100
AcDbEntity
 67
     1
  8
0
  6
Continuous
 62
     7
370
    25
100
AcDbLine
 10
25.0
 20
-30.7
 30
0.0
 11
25.0
 21
-26.0
 31
0.0
  0
LINE
  5
A29
330
23
100
AcDbEntity
 67
     1
  8
0
  6
Continuous
 62
     7
370
    25
100
AcDbLine
 10
25.0
 20
14.0
 30
0.0
 11
25.0
 21
18.7
 31
0.0
  0
LINE
  5
A2A
330
23
100
AcDbEntity
 67
     1
  8
0
  6
Continuous
 62
     7
370
    25
100
AcDbLine
 10
24.7
 20
-31.0
 30
0.0
 11
24.7
 21
-26.0
 31
0.0
  0
LINE
  5
A2B
330
23
100
AcDbEntity
 67
     1
  8
0
  6
Continuous
 62
     7
370
    25
100
AcDbLine
 10
-24.7
 20
-31.0
 30
0.0
 11
24.7
 21
-31.0
 31
0.0
  0
LINE
  5
A2C
330
23
100
AcDbEntity
 67
     1
  8
0
  6
Continuous
 62
     7
370
    25
100
AcDbLine
 10
-20.0
 20
13.5
 30
0.0
 11
95.0
 21
13.5
 31
0.0
  0
LINE
  5
A2D
330
23
100
AcDbEntity
 67
     1
  8
0
  6
Continuous
 62
     7
370
    25
100
AcDbLine
 10
94.5
 20
14.0
 30
0.0
 11
94.5
 21
-26.0
 31
0.0
  0
LINE
  5
A2E
330
23
100
AcDbEntity
 67
     1
  8
0
  6
Continuous
 62
     7
370
    25
100
AcDbLine
 10
95.0
 20
-25.5
 30
0.0
 11
-20.0
 21
-25.5
 31
0.0
  0
LINE
  5
A2F
330
23
100
AcDbEntity
 67
     1
  8
0
  6
Continuous
 62
     7
370
    25
100
AcDbLine
 10
-19.5
 20
14.0
 30
0.0
 11
-19.5
 21
-26.0
 31
0.0
  0
LINE
  5
A30
330
23
100
AcDbEntity
 67
     1
  8
0
  6
Continuous
 62
     7
370
    25
100
AcDbLine
 10
-20.0
 20
13.5
 30
0.0
 11
-20.0
 21
-25.5
 31
0.0
  0
LINE
  5
A31
330
23
100
AcDbEntity
 67
     1
  8
0
  6
Continuous
 62
     7
370
    25
100
AcDbLine
 10
95.0
 20
13.5
 30
0.0
 11
95.0
 21
-25.5
 31
0.0
  0
ARC
  5
A32
330
23
100
AcDbEntity
 67
     1
  8
0
  6
Continuous
 62
     7
370
    25
100
AcDbCircle
 10
154.2
 20
-25.7
 30
0.0
 40
0.3000000000000043
100
AcDbArc
 50
270.0
 51
0.0
  0
ARC
  5
A33
330
23
100
AcDbEntity
 67
     1
  8
0
  6
Continuous
 62
     7
370
    25
100
AcDbCircle
 10
154.2
 20
13.7
 30
0.0
 40
0.3000000000000025
100
AcDbArc
 50
0.0
 51
90.0
  0
ARC
  5
A34
330
23
100
AcDbEntity
 67
     1
  8
0
  6
Continuous
 62
     7
370
    25
100
AcDbCircle
 10
-20.2
 20
13.7
 30
0.0
 40
0.3000000000000043
100
AcDbArc
 50
90.0
 51
180.0
  0
ARC
  5
A35
330
23
100
AcDbEntity
 67
     1
  8
0
  6
Continuous
 62
     7
370
    25
100
AcDbCircle
 10
-20.2
 20
-25.7
 30
0.0
 40
0.3000000000000149
100
AcDbArc
 50
180.0
 51
270.0
  0
ARC
  5
A36
330
23
100
AcDbEntity
 67
     1
  8
0
  6
Continuous
 62
     7
370
    25
100
AcDbCircle
 10
24.7
 20
18.7
 30
0.0
 40
0.2999999999999972
100
AcDbArc
 50
0.0
 51
90.0
  0
ARC
  5
A37
330
23
100
AcDbEntity
 67
     1
  8
0
  6
Continuous
 62
     7
370
    25
100
AcDbCircle
 10
-24.7
 20
-30.7
 30
0.0
 40
0.2999999999999794
100
AcDbArc
 50
180.0
 51
270.0
  0
ARC
  5
A38
330
23
100
AcDbEntity
 67
     1
  8
0
  6
Continuous
 62
     7
370
    25
100
AcDbCircle
 10
-24.7
 20
18.7
 30
0.0
 40
0.2999999999999829
100
AcDbArc
 50
90.0
 51
180.0
  0
ARC
  5
A39
330
23
100
AcDbEntity
 67
     1
  8
0
  6
Continuous
 62
     7
370
    25
100
AcDbCircle
 10
24.7
 20
-30.7
 30
0.0
 40
0.2999999999999936
100
AcDbArc
 50
270.0
 51
0.0
  0
ARC
  5
A3A
330
23
100
AcDbEntity
 67
     1
  8
0
  6
Continuous
 62
     7
370
    25
100
AcDbCircle
 10
94.5
 20
13.5
 30
0.0
 40
0.5000000000000036
100
AcDbArc
 50
0.0
 51
90.0
  0
ARC
  5
A3B
330
23
100
AcDbEntity
 67
     1
  8
0
  6
Continuous
 62
     7
370
    25
100
AcDbCircle
 10
94.5
 20
-25.5
 30
0.0
 40
0.5000000000000071
100
AcDbArc
 50
270.0
 51
0.0
  0
ARC
  5
A3C
330
23
100
AcDbEntity
 67
     1
  8
0
  6
Continuous
 62
     7
370
    25
100
AcDbCircle
 10
-19.5
 20
-25.5
 30
0.0
 40
0.5000000000000142
100
AcDbArc
 50
180.0
 51
270.0
  0
ARC
  5
A3D
330
23
100
AcDbEntity
 67
     1
  8
0
  6
Continuous
 62
     7
370
    25
100
AcDbCircle
 10
-19.5
 20
13.5
 30
0.0
 40
0.5000000000000071
100
AcDbArc
 50
90.0
 51
180.0
  0
VIEWPORT
  5
A40
330
23
100
AcDbEntity
 67
     1
  8
0
100
AcDbViewport
 10
0.0
 20
0.0
 30
0.0
 40
205.6
 41
156.0
 68
     1
 69
     1
 12
64.75
 22
144.075
 13
0.0
 23
0.0
 14
10.0
 24
10.0
 15
10.0
 25
10.0
 16
0.0
 26
0.0
 36
1.0
 17
0.0
 27
0.0
 37
0.0
 42
50.0
 43
0.0
 44
0.0
 45
293.913
 50
0.0
 51
0.0
 72
   100
 90
   557152
  1

281
     0
 71
     1
 74
     0
110
0.0
120
0.0
130
0.0
111
1.0
121
0.0
131
0.0
112
0.0
122
1.0
132
0.0
 79
     0
146
0.0
  0
ENDSEC
  0
SECTION
  2
OBJECTS
  0
DICTIONARY
  5
C
330
0
100
AcDbDictionary
281
     1
  3
ACAD_GROUP
350
D
  3
ACAD_LAYOUT
350
1A
  3
ACAD_MLINESTYLE
350
17
  3
ACAD_PLOTSETTINGS
350
19
  3
ACAD_PLOTSTYLENAME
350
E
  3
ACAD_SCALELIST
350
47
  0
DICTIONARY
  5
D
102
{ACAD_REACTORS
330
C
102
}
330
C
100
AcDbDictionary
281
     1
  0
DICTIONARY
  5
1A
102
{ACAD_REACTORS
330
C
102
}
330
C
100
AcDbDictionary
281
     1
  3
_Right
350
1E
  3
_Top
350
26
  3
Model
350
22
  0
DICTIONARY
  5
17
102
{ACAD_REACTORS
330
C
102
}
330
C
100
AcDbDictionary
281
     1
  3
Standard
350
18
  0
DICTIONARY
  5
19
102
{ACAD_REACTORS
330
C
102
}
330
C
100
AcDbDictionary
281
     1
  0
ACDBDICTIONARYWDFLT
  5
E
102
{ACAD_REACTORS
330
C
102
}
330
C
100
AcDbDictionary
281
     1
  3
Normal
350
F
100
AcDbDictionaryWithDefault
340
F
  0
DICTIONARY
  5
47
102
{ACAD_REACTORS
330
C
102
}
330
C
100
AcDbDictionary
281
     1
  3
A0
350
48
  3
A1
350
49
  3
A2
350
4A
  3
A3
350
4B
  3
A4
350
4C
  3
A5
350
4D
  3
A6
350
4E
  3
A7
350
4F
  3
A8
350
50
  3
A9
350
51
  3
B0
350
52
  3
B1
350
53
  3
B2
350
54
  3
B3
350
55
  3
B4
350
56
  3
B5
350
57
  3
B6
350
58
  3
B7
350
59
  3
B8
350
5A
  3
B9
350
5B
  3
C0
350
5C
  3
C1
350
5D
  3
C2
350
5E
  3
C3
350
5F
  3
C4
350
60
  3
C5
350
61
  3
C6
350
62
  3
C7
350
63
  3
C8
350
64
  3
C9
350
65
  3
D0
350
66
  3
D1
350
67
  3
D2
350
68
  0
LAYOUT
  5
1E
102
{ACAD_REACTORS
330
1A
102
}
330
1A
100
AcDbPlotSettings
  1

  2
none_device
  4
ISO_A4_(210.00_x_297.00_MM)
  6

 40
7.5
 41
20.0
 42
7.5
 43
20.0
 44
210.0
 45
297.0
 46
0.0
 47
0.0
 48
0.0
 49
0.0
140
0.0
141
0.0
142
1.0
143
1.4776923077
 70
   688
 72
     1
 73
     1
 74
     1
  7

 75
     0
147
0.6767308693
148
31.0
149
0.0
100
AcDbLayout
  1
_Right
 70
     1
 71
     1
 10
-60.5538461538
 20
-11.0826923077
 11
378.3207692308
 21
299.2326923077
 12
0.0
 22
0.0
 32
0.0
 14
1.0000000000E+20
 24
1.0000000000E+20
 34
1.0000000000E+20
 15
-1.0000000000E+20
 25
-1.0000000000E+20
 35
-1.0000000000E+20
146
0.0
 13
0.0
 23
0.0
 33
0.0
 16
1.0
 26
0.0
 36
0.0
 17
0.0
 27
1.0
 37
0.0
 76
     0
330
1B
331
A3E
  0
LAYOUT
  5
26
102
{ACAD_REACTORS
330
1A
102
}
330
1A
100
AcDbPlotSettings
  1

  2
none_device
  4
ANSI_A_(11.00_x_8.50_Inches)
  6

 40
6.35
 41
19.05
 42
6.35000508
 43
19.05000254
 44
279.4
 45
215.9
 46
85.3203956901
 47
-17.97050127
 48
0.0
 49
0.0
140
0.0
141
0.0
142
0.0292035398
143
1.0
 70
  1696
 72
     0
 73
     0
 74
     1
  7

 75
     0
147
0.0242929027
148
635.0
149
0.0
100
AcDbLayout
  1
_Top
 70
     1
 71
     2
 10
0.0
 20
0.0
 11
0.0
 21
0.0
 12
0.0
 22
0.0
 32
0.0
 14
-25.0
 24
0.0
 34
0.0
 15
154.5
 25
288.15
 35
0.0
146
0.0
 13
0.0
 23
0.0
 33
0.0
 16
1.0
 26
0.0
 36
0.0
 17
0.0
 27
1.0
 37
0.0
 76
     0
330
23
331
A40
  0
LAYOUT
  5
22
102
{ACAD_REACTORS
330
1A
102
}
330
1A
100
AcDbPlotSettings
  1

  2
none_device
  4
Letter_(8.50_x_11.00_Inches)
  6

 40
6.35
 41
6.35
 42
6.35000508
 43
6.35000508
 44
215.9
 45
279.4
 46
0.0
 47
0.0
 48
0.0
 49
0.0
140
0.0
141
0.0
142
1.0
143
1.0
 70
  1712
 72
     1
 73
     0
 74
     0
  7

 75
     0
147
1.0
148
0.0
149
0.0
100
AcDbLayout
  1
Model
 70
     1
 71
     0
 10
0.0
 20
0.0
 11
420.0
 21
297.0
 12
0.0
 22
0.0
 32
0.0
 14
-25.0
 24
0.0
 34
0.0
 15
154.5
 25
288.15
 35
0.0
146
0.0
 13
0.0
 23
0.0
 33
0.0
 16
1.0
 26
0.0
 36
0.0
 17
0.0
 27
1.0
 37
0.0
 76
     0
330
1F
331
29
  0
MLINESTYLE
  5
18
102
{ACAD_REACTORS
330
17
102
}
330
17
100
AcDbMlineStyle
  2
Standard
 70
     0
  3

 62
   256
 51
90.0
 52
90.0
 71
     2
 49
0.5
 62
   256
  6
BYLAYER
 49
-0.5
 62
   256
  6
BYLAYER
  0
ACDBPLACEHOLDER
  5
F
102
{ACAD_REACTORS
330
E
102
}
330
E
  0
SCALE
  5
48
102
{ACAD_REACTORS
330
47
102
}
330
47
100
AcDbScale
 70
     0
300
1:1
140
1.0
141
1.0
290
     1
  0
SCALE
  5
49
102
{ACAD_REACTORS
330
47
102
}
330
47
100
AcDbScale
 70
     0
300
1:2
140
1.0
141
2.0
290
     0
  0
SCALE
  5
4A
102
{ACAD_REACTORS
330
47
102
}
330
47
100
AcDbScale
 70
     0
300
1:4
140
1.0
141
4.0
290
     0
  0
SCALE
  5
4B
102
{ACAD_REACTORS
330
47
102
}
330
47
100
AcDbScale
 70
     0
300
1:5
140
1.0
141
5.0
290
     0
  0
SCALE
  5
4C
102
{ACAD_REACTORS
330
47
102
}
330
47
100
AcDbScale
 70
     0
300
1:8
140
1.0
141
8.0
290
     0
  0
SCALE
  5
4D
102
{ACAD_REACTORS
330
47
102
}
330
47
100
AcDbScale
 70
     0
300
1:10
140
1.0
141
10.0
290
     0
  0
SCALE
  5
4E
102
{ACAD_REACTORS
330
47
102
}
330
47
100
AcDbScale
 70
     0
300
1:16
140
1.0
141
16.0
290
     0
  0
SCALE
  5
4F
102
{ACAD_REACTORS
330
47
102
}
330
47
100
AcDbScale
 70
     0
300
1:20
140
1.0
141
20.0
290
     0
  0
SCALE
  5
50
102
{ACAD_REACTORS
330
47
102
}
330
47
100
AcDbScale
 70
     0
300
1:30
140
1.0
141
30.0
290
     0
  0
SCALE
  5
51
102
{ACAD_REACTORS
330
47
102
}
330
47
100
AcDbScale
 70
     0
300
1:40
140
1.0
141
40.0
290
     0
  0
SCALE
  5
52
102
{ACAD_REACTORS
330
47
102
}
330
47
100
AcDbScale
 70
     0
300
1:50
140
1.0
141
50.0
290
     0
  0
SCALE
  5
53
102
{ACAD_REACTORS
330
47
102
}
330
47
100
AcDbScale
 70
     0
300
1:100
140
1.0
141
100.0
290
     0
  0
SCALE
  5
54
102
{ACAD_REACTORS
330
47
102
}
330
47
100
AcDbScale
 70
     0
300
2:1
140
2.0
141
1.0
290
     0
  0
SCALE
  5
55
102
{ACAD_REACTORS
330
47
102
}
330
47
100
AcDbScale
 70
     0
300
4:1
140
4.0
141
1.0
290
     0
  0
SCALE
  5
56
102
{ACAD_REACTORS
330
47
102
}
330
47
100
AcDbScale
 70
     0
300
8:1
140
8.0
141
1.0
290
     0
  0
SCALE
  5
57
102
{ACAD_REACTORS
330
47
102
}
330
47
100
AcDbScale
 70
     0
300
10:1
140
10.0
141
1.0
290
     0
  0
SCALE
  5
58
102
{ACAD_REACTORS
330
47
102
}
330
47
100
AcDbScale
 70
     0
300
100:1
140
100.0
141
1.0
290
     0
  0
SCALE
  5
59
102
{ACAD_REACTORS
330
47
102
}
330
47
100
AcDbScale
 70
     0
300
1/128" = 1'-0"
140
0.0078125
141
12.0
290
     0
  0
SCALE
  5
5A
102
{ACAD_REACTORS
330
47
102
}
330
47
100
AcDbScale
 70
     0
300
1/64" = 1'-0"
140
0.015625
141
12.0
290
     0
  0
SCALE
  5
5B
102
{ACAD_REACTORS
330
47
102
}
330
47
100
AcDbScale
 70
     0
300
1/32" = 1'-0"
140
0.03125
141
12.0
290
     0
  0
SCALE
  5
5C
102
{ACAD_REACTORS
330
47
102
}
330
47
100
AcDbScale
 70
     0
300
1/16" = 1'-0"
140
0.0625
141
12.0
290
     0
  0
SCALE
  5
5D
102
{ACAD_REACTORS
330
47
102
}
330
47
100
AcDbScale
 70
     0
300
3/32" = 1'-0"
140
0.09375
141
12.0
290
     0
  0
SCALE
  5
5E
102
{ACAD_REACTORS
330
47
102
}
330
47
100
AcDbScale
 70
     0
300
1/8" = 1'-0"
140
0.125
141
12.0
290
     0
  0
SCALE
  5
5F
102
{ACAD_REACTORS
330
47
102
}
330
47
100
AcDbScale
 70
     0
300
3/16" = 1'-0"
140
0.1875
141
12.0
290
     0
  0
SCALE
  5
60
102
{ACAD_REACTORS
330
47
102
}
330
47
100
AcDbScale
 70
     0
300
1/4" = 1'-0"
140
0.25
141
12.0
290
     0
  0
SCALE
  5
61
102
{ACAD_REACTORS
330
47
102
}
330
47
100
AcDbScale
 70
     0
300
3/8" = 1'-0"
140
0.375
141
12.0
290
     0
  0
SCALE
  5
62
102
{ACAD_REACTORS
330
47
102
}
330
47
100
AcDbScale
 70
     0
300
1/2" = 1'-0"
140
0.5
141
12.0
290
     0
  0
SCALE
  5
63
102
{ACAD_REACTORS
330
47
102
}
330
47
100
AcDbScale
 70
     0
300
3/4" = 1'-0"
140
0.75
141
12.0
290
     0
  0
SCALE
  5
64
102
{ACAD_REACTORS
330
47
102
}
330
47
100
AcDbScale
 70
     0
300
1" = 1'-0"
140
1.0
141
12.0
290
     0
  0
SCALE
  5
65
102
{ACAD_REACTORS
330
47
102
}
330
47
100
AcDbScale
 70
     0
300
1-1/2" = 1'-0"
140
1.5
141
12.0
290
     0
  0
SCALE
  5
66
102
{ACAD_REACTORS
330
47
102
}
330
47
100
AcDbScale
 70
     0
300
3" = 1'-0"
140
3.0
141
12.0
290
     0
  0
SCALE
  5
67
102
{ACAD_REACTORS
330
47
102
}
330
47
100
AcDbScale
 70
     0
300
6" = 1'-0"
140
6.0
141
12.0
290
     0
  0
SCALE
  5
68
102
{ACAD_REACTORS
330
47
102
}
330
47
100
AcDbScale
 70
     0
300
1'-0" = 1'-0"
140
12.0
141
12.0
290
     0
  0
ENDSEC
  0
EOF
