  0
SECTION
  2
HEADER
  9
$ACADVER
  1
AC1015
  9
$ACADMAINTVER
 70
     6
  9
$DWGCODEPAGE
  3
ANSI_1252
  9
$INSBASE
 10
0.0
 20
0.0
 30
0.0
  9
$EXTMIN
 10
-184.75
 20
-72.5
 30
0.0
  9
$EXTMAX
 10
184.75
 20
29.0
 30
0.0
  9
$LIMMIN
 10
0.0
 20
0.0
  9
$LIMMAX
 10
420.0
 20
297.0
  9
$ORTHOMODE
 70
     0
  9
$REGENMODE
 70
     1
  9
$FILLMODE
 70
     1
  9
$QTEXTMODE
 70
     0
  9
$MIRRTEXT
 70
     1
  9
$LTSCALE
 40
1.0
  9
$ATTMODE
 70
     1
  9
$TEXTSIZE
 40
3.5
  9
$TRACEWID
 40
1.0
  9
$TEXTSTYLE
  7
Standard
  9
$CLAYER
  8
0
  9
$CELTYPE
  6
ByLayer
  9
$CECOLOR
 62
   256
  9
$CELTSCALE
 40
1.0
  9
$DISPSILH
 70
     0
  9
$DIMSCALE
 40
1.0
  9
$DIMASZ
 40
3.302
  9
$DIMEXO
 40
1.0
  9
$DIMDLI
 40
3.75
  9
$DIMRND
 40
0.0
  9
$DIMDLE
 40
0.0
  9
$DIMEXE
 40
1.0
  9
$DIMTP
 40
0.0
  9
$DIMTM
 40
0.0
  9
$DIMTXT
 40
3.5
  9
$DIMCEN
 40
2.5
  9
$DIMTSZ
 40
0.0
  9
$DIMTOL
 70
     0
  9
$DIMLIM
 70
     0
  9
$DIMTIH
 70
     1
  9
$DIMTOH
 70
     1
  9
$DIMSE1
 70
     0
  9
$DIMSE2
 70
     0
  9
$DIMTAD
 70
     1
  9
$DIMZIN
 70
     1
  9
$DIMBLK
  1

  9
$DIMASO
 70
     1
  9
$DIMSHO
 70
     1
  9
$DIMPOST
  1

  9
$DIMAPOST
  1

  9
$DIMALT
 70
     0
  9
$DIMALTD
 70
     3
  9
$DIMALTF
 40
0.0393700787
  9
$DIMLFAC
 40
1.0
  9
$DIMTOFL
 70
     1
  9
$DIMTVP
 40
0.0
  9
$DIMTIX
 70
     0
  9
$DIMSOXD
 70
     0
  9
$DIMSAH
 70
     0
  9
$DIMBLK1
  1

  9
$DIMBLK2
  1

  9
$DIMSTYLE
  2
ISO-25
  9
$DIMCLRD
 70
     0
  9
$DIMCLRE
 70
     0
  9
$DIMCLRT
 70
     0
  9
$DIMTFAC
 40
1.0
  9
$DIMGAP
 40
1.524
  9
$DIMJUST
 70
     0
  9
$DIMSD1
 70
     0
  9
$DIMSD2
 70
     0
  9
$DIMTOLJ
 70
     0
  9
$DIMTZIN
 70
     1
  9
$DIMALTZ
 70
     0
  9
$DIMALTTZ
 70
     0
  9
$DIMUPT
 70
     0
  9
$DIMDEC
 70
     2
  9
$DIMTDEC
 70
     2
  9
$DIMALTU
 70
     2
  9
$DIMALTTD
 70
     3
  9
$DIMTXSTY
  7
Standard
  9
$DIMAUNIT
 70
     0
  9
$DIMADEC
 70
     2
  9
$DIMALTRND
 40
0.0
  9
$DIMAZIN
 70
     0
  9
$DIMDSEP
 70
    44
  9
$DIMATFIT
 70
     3
  9
$DIMFRAC
 70
     0
  9
$DIMLDRBLK
  1

  9
$DIMLUNIT
 70
     2
  9
$DIMLWD
 70
    -2
  9
$DIMLWE
 70
    -2
  9
$DIMTMOVE
 70
     0
  9
$LUNITS
 70
     2
  9
$LUPREC
 70
     2
  9
$SKETCHINC
 40
1.0
  9
$FILLETRAD
 40
10.0
  9
$AUNITS
 70
     0
  9
$AUPREC
 70
     2
  9
$MENU
  1
.
  9
$ELEVATION
 40
0.0
  9
$PELEVATION
 40
0.0
  9
$THICKNESS
 40
0.0
  9
$LIMCHECK
 70
     0
  9
$CHAMFERA
 40
0.0
  9
$CHAMFERB
 40
0.0
  9
$CHAMFERC
 40
0.0
  9
$CHAMFERD
 40
0.0
  9
$SKPOLY
 70
     0
  9
$TDCREATE
 40
2458654.395552616
  9
$TDUCREATE
 40
2458654.353885949
  9
$TDUPDATE
 40
2458654.395650417
  9
$TDUUPDATE
 40
2458654.35398375
  9
$TDINDWG
 40
0.0000000116
  9
$TDUSRTIMER
 40
0.0000000116
  9
$USRTIMER
 70
     1
  9
$ANGBASE
 50
0.0
  9
$ANGDIR
 70
     0
  9
$PDMODE
 70
     0
  9
$PDSIZE
 40
-1.0
  9
$PLINEWID
 40
0.0
  9
$SPLFRAME
 70
     0
  9
$SPLINETYPE
 70
     6
  9
$SPLINESEGS
 70
     8
  9
$HANDSEED
  5
42E
  9
$SURFTAB1
 70
     6
  9
$SURFTAB2
 70
     6
  9
$SURFTYPE
 70
     6
  9
$SURFU
 70
     6
  9
$SURFV
 70
     6
  9
$UCSBASE
  2

  9
$UCSNAME
  2

  9
$UCSORG
 10
0.0
 20
0.0
 30
0.0
  9
$UCSXDIR
 10
1.0
 20
0.0
 30
0.0
  9
$UCSYDIR
 10
0.0
 20
1.0
 30
0.0
  9
$UCSORTHOREF
  2

  9
$UCSORTHOVIEW
 70
     0
  9
$UCSORGTOP
 10
0.0
 20
0.0
 30
0.0
  9
$UCSORGBOTTOM
 10
0.0
 20
0.0
 30
0.0
  9
$UCSORGLEFT
 10
0.0
 20
0.0
 30
0.0
  9
$UCSORGRIGHT
 10
0.0
 20
0.0
 30
0.0
  9
$UCSORGFRONT
 10
0.0
 20
0.0
 30
0.0
  9
$UCSORGBACK
 10
0.0
 20
0.0
 30
0.0
  9
$PUCSBASE
  2

  9
$PUCSNAME
  2

  9
$PUCSORG
 10
0.0
 20
0.0
 30
0.0
  9
$PUCSXDIR
 10
1.0
 20
0.0
 30
0.0
  9
$PUCSYDIR
 10
0.0
 20
1.0
 30
0.0
  9
$PUCSORTHOREF
  2

  9
$PUCSORTHOVIEW
 70
     0
  9
$PUCSORGTOP
 10
0.0
 20
0.0
 30
0.0
  9
$PUCSORGBOTTOM
 10
0.0
 20
0.0
 30
0.0
  9
$PUCSORGLEFT
 10
0.0
 20
0.0
 30
0.0
  9
$PUCSORGRIGHT
 10
0.0
 20
0.0
 30
0.0
  9
$PUCSORGFRONT
 10
0.0
 20
0.0
 30
0.0
  9
$PUCSORGBACK
 10
0.0
 20
0.0
 30
0.0
  9
$USERI1
 70
     0
  9
$USERI2
 70
     0
  9
$USERI3
 70
     0
  9
$USERI4
 70
     0
  9
$USERI5
 70
     0
  9
$USERR1
 40
0.0
  9
$USERR2
 40
0.0
  9
$USERR3
 40
0.0
  9
$USERR4
 40
0.0
  9
$USERR5
 40
0.0
  9
$WORLDVIEW
 70
     1
  9
$SHADEDGE
 70
     3
  9
$SHADEDIF
 70
    70
  9
$TILEMODE
 70
     1
  9
$MAXACTVP
 70
    64
  9
$PINSBASE
 10
0.0
 20
0.0
 30
0.0
  9
$PLIMCHECK
 70
     0
  9
$PEXTMIN
 10
28.0
 20
-72.5
 30
0.0
  9
$PEXTMAX
 10
221.0
 20
29.0
 30
0.0
  9
$PLIMMIN
 10
12.9805447471
 20
-78.1322957198
  9
$PLIMMAX
 10
236.0194552529
 20
79.5719844358
  9
$UNITMODE
 70
     0
  9
$VISRETAIN
 70
     1
  9
$PLINEGEN
 70
     0
  9
$PSLTSCALE
 70
     1
  9
$TREEDEPTH
 70
  3020
  9
$CMLSTYLE
  2
Standard
  9
$CMLJUST
 70
     0
  9
$CMLSCALE
 40
20.0
  9
$PROXYGRAPHICS
 70
     1
  9
$MEASUREMENT
 70
     1
  9
$CELWEIGHT
370
    -1
  9
$ENDCAPS
280
     0
  9
$JOINSTYLE
280
     0
  9
$LWDISPLAY
290
     1
  9
$INSUNITS
 70
     4
  9
$HYPERLINKBASE
  1

  9
$STYLESHEET
  1

  9
$XEDIT
290
     1
  9
$CEPSNTYPE
380
     0
  9
$PSTYLEMODE
290
     1
  9
$FINGERPRINTGUID
  2
{93828ac8-313f-4f3c-aa43-b29dcff93295}
  9
$VERSIONGUID
  2
{FAEB1C32-E019-11D5-929B-00C0DF256EC4}
  9
$EXTNAMES
290
     1
  9
$PSVPSCALE
 40
0.0
  9
$OLESTARTUP
290
     0
  0
ENDSEC
  0
SECTION
  2
CLASSES
  0
CLASS
  1
ACDBDICTIONARYWDFLT
  2
AcDbDictionaryWithDefault
  3
ObjectDBX Classes
 90
        0
280
     0
281
     0
  0
CLASS
  1
VISUALSTYLE
  2
AcDbVisualStyle
  3
ObjectDBX Classes
 90
     4095
280
     0
281
     0
  0
CLASS
  1
MATERIAL
  2
AcDbMaterial
  3
ObjectDBX Classes
 90
     1153
280
     0
281
     0
  0
CLASS
  1
SCALE
  2
AcDbScale
  3
ObjectDBX Classes
 90
     1153
280
     0
281
     0
  0
CLASS
  1
TABLESTYLE
  2
AcDbTableStyle
  3
ObjectDBX Classes
 90
     4095
280
     0
281
     0
  0
CLASS
  1
MLEADERSTYLE
  2
AcDbMLeaderStyle
  3
ACDB_MLEADERSTYLE_CLASS
 90
     4095
280
     0
281
     0
  0
CLASS
  1
SUN
  2
AcDbSun
  3
SCENEOE
 90
     1153
280
     0
281
     0
  0
CLASS
  1
ACDBPLACEHOLDER
  2
AcDbPlaceHolder
  3
ObjectDBX Classes
 90
        0
280
     0
281
     0
  0
CLASS
  1
LAYOUT
  2
AcDbLayout
  3
ObjectDBX Classes
 90
        0
280
     0
281
     0
  0
ENDSEC
  0
SECTION
  2
TABLES
  0
TABLE
  2
VPORT
  5
8
330
0
100
AcDbSymbolTable
 70
     1
  0
VPORT
  5
29
330
8
100
AcDbSymbolTableRecord
100
AcDbViewportTableRecord
  2
*Active
 70
     0
 10
0.0
 20
0.0
 11
1.0
 21
1.0
 12
0.0
 22
-21.75
 13
0.0
 23
0.0
 14
10.0
 24
10.0
 15
10.0
 25
10.0
 16
0.0
 26
0.0
 36
1.0
 17
0.0
 27
0.0
 37
0.0
 40
103.53
 41
3.6403940887
 42
50.0
 43
0.0
 44
0.0
 50
0.0
 51
0.0
 71
     0
 72
   100
 73
     1
 74
     3
 75
     0
 76
     0
 77
     0
 78
     0
281
     0
 65
     1
110
0.0
120
0.0
130
0.0
111
1.0
121
0.0
131
0.0
112
0.0
122
1.0
132
0.0
 79
     0
146
0.0
  0
ENDTAB
  0
TABLE
  2
LTYPE
  5
5
330
0
100
AcDbSymbolTable
 70
     6
  0
LTYPE
  5
14
330
5
100
AcDbSymbolTableRecord
100
AcDbLinetypeTableRecord
  2
ByBlock
 70
     0
  3

 72
    65
 73
     0
 40
0.0
  0
LTYPE
  5
15
330
5
100
AcDbSymbolTableRecord
100
AcDbLinetypeTableRecord
  2
ByLayer
 70
     0
  3

 72
    65
 73
     0
 40
0.0
  0
LTYPE
  5
16
330
5
100
AcDbSymbolTableRecord
100
AcDbLinetypeTableRecord
  2
Continuous
 70
     0
  3
Solid line
 72
    65
 73
     0
 40
0.0
  0
LTYPE
  5
6E
330
5
100
AcDbSymbolTableRecord
100
AcDbLinetypeTableRecord
  2
HIDDEN
 70
     0
  3
Hidden __ __ __ __ __ __ __ __ __ __ __ __ __ __
 72
    65
 73
     2
 40
1.905
 49
1.27
 74
     0
 49
-0.635
 74
     0
  0
LTYPE
  5
6F
330
5
100
AcDbSymbolTableRecord
100
AcDbLinetypeTableRecord
  2
PHANTOM
 70
     0
  3
Phantom ______  __  __  ______  __  __  ______
 72
    65
 73
     6
 40
12.7
 49
6.35
 74
     0
 49
-1.27
 74
     0
 49
1.27
 74
     0
 49
-1.27
 74
     0
 49
1.27
 74
     0
 49
-1.27
 74
     0
  0
LTYPE
  5
70
330
5
100
AcDbSymbolTableRecord
100
AcDbLinetypeTableRecord
  2
CENTER
 70
     0
  3
Center ____ _ ____ _ ____ _ ____ _ ____ _ ____
 72
    65
 73
     4
 40
10.16
 49
6.35
 74
     0
 49
-1.27
 74
     0
 49
1.27
 74
     0
 49
-1.27
 74
     0
  0
LTYPE
  5
71
330
5
100
AcDbSymbolTableRecord
100
AcDbLinetypeTableRecord
  2
CENTERX2
 70
     0
  3
Center (2x) ________  __  ________  __  _____
 72
    65
 73
     4
 40
20.32
 49
12.7
 74
     0
 49
-2.54
 74
     0
 49
2.54
 74
     0
 49
-2.54
 74
     0
  0
LTYPE
  5
72
330
5
100
AcDbSymbolTableRecord
100
AcDbLinetypeTableRecord
  2
DOT2
 70
     0
  3
Dot (.5x) ........................................
 72
    65
 73
     2
 40
0.635
 49
0.0
 74
     0
 49
-0.635
 74
     0
  0
ENDTAB
  0
TABLE
  2
LAYER
  5
2
330
0
100
AcDbSymbolTable
 70
     1
  0
LAYER
  5
10
330
2
100
AcDbSymbolTableRecord
100
AcDbLayerTableRecord
  2
0
 70
     0
 62
     7
  6
Continuous
370
    -3
390
F
  0
ENDTAB
  0
TABLE
  2
STYLE
  5
3
330
0
100
AcDbSymbolTable
 70
     1
  0
STYLE
  5
11
330
3
100
AcDbSymbolTableRecord
100
AcDbTextStyleTableRecord
  2
Standard
 70
     0
 40
0.0
 41
1.0
 50
0.0
 71
     0
 42
3.5
  3
txt
  4

  0
ENDTAB
  0
TABLE
  2
VIEW
  5
6
330
0
100
AcDbSymbolTable
 70
     0
  0
ENDTAB
  0
TABLE
  2
UCS
  5
7
330
0
100
AcDbSymbolTable
 70
     0
  0
ENDTAB
  0
TABLE
  2
APPID
  5
9
330
0
100
AcDbSymbolTable
 70
     1
  0
APPID
  5
12
330
9
100
AcDbSymbolTableRecord
100
AcDbRegAppTableRecord
  2
ACAD
 70
     0
  0
ENDTAB
  0
TABLE
  2
DIMSTYLE
  5
A
330
0
100
AcDbSymbolTable
 70
     1
100
AcDbDimStyleTable
  0
DIMSTYLE
105
27
330
A
100
AcDbSymbolTableRecord
100
AcDbDimStyleTableRecord
  2
ISO-25
 70
     0
 41
2.5
 42
0.625
 43
3.75
 44
1.25
 73
     0
 74
     0
 77
     1
 78
     8
140
2.5
141
2.5
143
0.0393700787
147
0.625
171
     3
172
     1
178
     0
271
     2
272
     2
274
     3
278
    44
283
     0
284
     8
340
11
  0
ENDTAB
  0
TABLE
  2
BLOCK_RECORD
  5
1
330
0
100
AcDbSymbolTable
 70
     2
  0
BLOCK_RECORD
  5
1F
330
1
100
AcDbSymbolTableRecord
100
AcDbBlockTableRecord
  2
*Model_Space
340
22
  0
BLOCK_RECORD
  5
1B
330
1
100
AcDbSymbolTableRecord
100
AcDbBlockTableRecord
  2
*Paper_Space
340
1E
  0
BLOCK_RECORD
  5
23
330
1
100
AcDbSymbolTableRecord
100
AcDbBlockTableRecord
  2
*Paper_Space0
340
26
  0
BLOCK_RECORD
  5
2A7
330
1
100
AcDbSymbolTableRecord
100
AcDbBlockTableRecord
  2
*Paper_Space1
340
2A8
  0
ENDTAB
  0
ENDSEC
  0
SECTION
  2
BLOCKS
  0
BLOCK
  5
20
330
1F
100
AcDbEntity
  8
0
100
AcDbBlockBegin
  2
*Model_Space
 70
     0
 10
0.0
 20
0.0
 30
0.0
  3
*Model_Space
  1

  0
ENDBLK
  5
21
330
1F
100
AcDbEntity
  8
0
100
AcDbBlockEnd
  0
BLOCK
  5
1C
330
1B
100
AcDbEntity
 67
     1
  8
0
100
AcDbBlockBegin
  2
*Paper_Space
 70
     0
 10
0.0
 20
0.0
 30
0.0
  3
*Paper_Space
  1

  0
ENDBLK
  5
1D
330
1B
100
AcDbEntity
 67
     1
  8
0
100
AcDbBlockEnd
  0
BLOCK
  5
24
330
23
100
AcDbEntity
  8
0
100
AcDbBlockBegin
  2
*Paper_Space0
 70
     0
 10
0.0
 20
0.0
 30
0.0
  3
*Paper_Space0
  1

  0
SPLINE
  5
1C2
330
23
100
AcDbEntity
  8
0
  6
Continuous
 62
     7
370
    25
100
AcDbSpline
210
0.0
220
0.0
230
1.0
 70
     8
 71
     3
 72
     9
 73
     5
 74
     0
 42
0.000000001
 43
0.00000001
 40
0.0
 40
0.0
 40
0.0
 40
0.0
 40
0.5002778392598968
 40
1.0
 40
1.0
 40
1.0
 40
1.0
 10
-93.246320133851
 20
-100.7988208433435
 30
0.0
 10
-93.19846000326712
 20
-100.8812476088487
 30
0.0
 10
-93.10279290225243
 20
-101.046009585168
 30
0.0
 10
-93.00723707422206
 20
-101.2108368253118
 30
0.0
 10
-92.95948570936743
 20
-101.2932046499053
 30
0.0
  0
SPLINE
  5
1C5
330
23
100
AcDbEntity
  8
0
  6
Continuous
 62
     7
370
    25
100
AcDbSpline
210
0.0
220
0.0
230
1.0
 70
     8
 71
     3
 72
     9
 73
     5
 74
     0
 42
0.000000001
 43
0.00000001
 40
0.0
 40
0.0
 40
0.0
 40
0.0
 40
0.499722160740091
 40
1.0
 40
1.0
 40
1.0
 40
1.0
 10
92.95948570936744
 20
-101.2932046499054
 30
0.0
 10
93.00723707422209
 20
-101.2108368253119
 30
0.0
 10
93.10279290225242
 20
-101.046009585168
 30
0.0
 10
93.19846000326712
 20
-100.8812476088487
 30
0.0
 10
93.246320133851
 20
-100.7988208433435
 30
0.0
  0
LWPOLYLINE
  5
1CE
330
23
100
AcDbEntity
  8
0
  6
Continuous
 62
     7
370
    25
100
AcDbPolyline
 90
        3
 70
   128
 43
0.0
 10
-127.5198039027
 20
-30.0
 10
-127.0740251485
 20
-29.7141807012
 10
-126.5
 20
-29.6
  0
LWPOLYLINE
  5
1CF
330
23
100
AcDbEntity
  8
0
  6
Continuous
 62
     7
370
    25
100
AcDbPolyline
 90
        3
 70
   128
 43
0.0
 10
-72.4801960973
 20
-30.0
 10
-72.9259748515
 20
-29.7141807012
 10
-73.5
 20
-29.6
  0
LWPOLYLINE
  5
1D0
330
23
100
AcDbEntity
  8
0
  6
Continuous
 62
     7
370
    25
100
AcDbPolyline
 90
        3
 70
   128
 43
0.0
 10
127.5198039027
 20
-30.0
 10
127.0740251485
 20
-29.7141807012
 10
126.5
 20
-29.6
  0
LWPOLYLINE
  5
1D1
330
23
100
AcDbEntity
  8
0
  6
Continuous
 62
     7
370
    25
100
AcDbPolyline
 90
        3
 70
   128
 43
0.0
 10
72.4801960973
 20
-30.0
 10
72.9259748515
 20
-29.7141807012
 10
73.5
 20
-29.6
  0
SPLINE
  5
1D2
330
23
100
AcDbEntity
  8
0
  6
Continuous
 62
     7
370
    25
100
AcDbSpline
210
0.0
220
0.0
230
1.0
 70
     8
 71
     3
 72
    28
 73
    24
 74
     0
 42
0.000000001
 43
0.00000001
 40
0.0
 40
0.0
 40
0.0
 40
0.0
 40
0.0265775584816643
 40
0.0503645359614981
 40
0.0713609088810594
 40
0.0895666624715193
 40
0.1049817942504828
 40
0.1532949677135553
 40
0.1967488047780802
 40
0.2783045693224211
 40
0.3511816176278523
 40
0.4301218884336783
 40
0.5023348024472692
 40
0.5756402829485203
 40
0.6432919107864069
 40
0.7427346490545939
 40
0.8326840575155885
 40
0.8617118457510158
 40
0.8901570068826803
 40
0.9181105375715904
 40
0.9456683050517996
 40
0.9729303519944293
 40
1.0
 40
1.0
 40
1.0
 40
1.0
 10
-100.0000879586535
 20
-118.2999077694004
 30
0.0
 10
-100.0903369809816
 20
-118.2212866080864
 30
0.0
 10
-100.2613590909948
 20
-118.0722993220998
 30
0.0
 10
-100.5035297183705
 20
-117.8612776128108
 30
0.0
 10
-100.7171565056803
 20
-117.6752261710866
 30
0.0
 10
-100.9022406870556
 20
-117.5141235349625
 30
0.0
 10
-101.1795539867431
 20
-117.2727064039082
 30
0.0
 10
-101.5413072171271
 20
-116.9574964436336
 30
0.0
 10
-102.1231834470574
 20
-116.4508557301456
 30
0.0
 10
-102.7808807752576
 20
-115.8776368502799
 30
0.0
 10
-103.5422527465642
 20
-115.2149413358123
 30
0.0
 10
-104.2539028693776
 20
-114.594779460324
 30
0.0
 10
-104.9410625657564
 20
-113.9965356667762
 30
0.0
 10
-105.5616385145877
 20
-113.4557973720367
 30
0.0
 10
-106.214956345921
 20
-112.887128026747
 30
0.0
 10
-106.8359600794675
 20
-112.345610083941
 30
0.0
 10
-107.2529111136882
 20
-111.9830809112274
 30
0.0
 10
-107.4664758824633
 20
-111.7968292532642
 30
0.0
 10
-107.5698483036302
 20
-111.706669607211
 30
0.0
 10
-107.6503824606674
 20
-111.6364881021079
 30
0.0
 10
-107.7075044753169
 20
-111.5868041176902
 30
0.0
 10
-107.7433312058263
 20
-111.5557490073339
 30
0.0
 10
-107.7477823226945
 20
-111.5519118063568
 30
0.0
 10
-107.75
 20
-111.55
 30
0.0
  0
SPLINE
  5
1D4
330
23
100
AcDbEntity
  8
0
  6
Continuous
 62
     7
370
    25
100
AcDbSpline
210
0.0
220
0.0
230
1.0
 70
     8
 71
     3
 72
    18
 73
    14
 74
     0
 42
0.000000001
 43
0.00000001
 40
0.0
 40
0.0
 40
0.0
 40
0.0
 40
0.2499999999999989
 40
0.2499999999999989
 40
0.4999999999999978
 40
0.4999999999999978
 40
0.6249999999999983
 40
0.6249999999999983
 40
0.7499999999999989
 40
0.7499999999999989
 40
0.8749999999999994
 40
0.8749999999999994
 40
1.0
 40
1.0
 40
1.0
 40
1.0
 10
-100.0000879586445
 20
-118.2999077694103
 30
0.0
 10
-100.747754300679
 20
-117.441476043245
 30
0.0
 10
-101.4947861821269
 20
-116.5837726801925
 30
0.0
 10
-102.9491713654111
 20
-114.9139226606089
 30
0.0
 10
-103.6576099054523
 20
-114.1005299877283
 30
0.0
 10
-104.6353454672823
 20
-112.9779441885756
 30
0.0
 10
-104.946720672762
 20
-112.6204391298107
 30
0.0
 10
-105.5217757955955
 20
-111.960190251547
 30
0.0
 10
-105.7855897672935
 20
-111.6572925171716
 30
0.0
 10
-106.236305522316
 20
-111.1398036610538
 30
0.0
 10
-106.4228476469929
 20
-110.9256254811399
 30
0.0
 10
-106.6803354012987
 20
-110.6299911254233
 30
0.0
 10
-106.7499976914942
 20
-110.5500084170201
 30
0.0
 10
-106.750000000017
 20
-110.5500057663863
 30
0.0
  0
SPLINE
  5
1D5
330
23
100
AcDbEntity
  8
0
  6
Continuous
 62
     7
370
    25
100
AcDbSpline
210
0.0
220
0.0
230
1.0
 70
     8
 71
     3
 72
    26
 73
    22
 74
     0
 42
0.000000001
 43
0.00000001
 40
0.0
 40
0.0
 40
0.0
 40
0.0
 40
0.0191686687386311
 40
0.0387340768932265
 40
0.0586893435888243
 40
0.0790241497830795
 40
0.0997281571717723
 40
0.12080374956082
 40
0.1422527952717658
 40
0.1640707247425924
 40
0.18625087958958
 40
0.2820641866993681
 40
0.4039349923528858
 40
0.5322101737865145
 40
0.6771826743448669
 40
0.741030123941291
 40
0.8008412052460072
 40
0.8566090634994117
 40
0.9083425671585749
 40
0.9561201591701521
 40
1.0
 40
1.0
 40
1.0
 40
1.0
 10
-93.25000000000006
 20
-124.0500000000001
 30
0.0
 10
-93.25080572855438
 20
-124.049330894951
 30
0.0
 10
-93.25243386205725
 20
-124.0479788361943
 30
0.0
 10
-93.26566792841274
 20
-124.0369097775573
 30
0.0
 10
-93.28724487193399
 20
-124.0187294866869
 30
0.0
 10
-93.3183662013876
 20
-123.9923538989534
 30
0.0
 10
-93.3592666785666
 20
-123.9575000471854
 30
0.0
 10
-93.41020877353871
 20
-123.9139739048883
 30
0.0
 10
-93.47134748642598
 20
-123.8617001626462
 30
0.0
 10
-93.54286398593828
 20
-123.8005900717631
 30
0.0
 10
-93.71524421913361
 20
-123.6536311804454
 30
0.0
 10
-94.098101237619
 20
-123.328739262829
 30
0.0
 10
-94.83165716309497
 20
-122.7024943987544
 30
0.0
 10
-95.83429470370369
 20
-121.847821346893
 30
0.0
 10
-96.79216514705229
 20
-121.0326456409802
 30
0.0
 10
-97.58985144755081
 20
-120.3531843974331
 30
0.0
 10
-98.13391849307695
 20
-119.8899397362858
 30
0.0
 10
-98.64823447030876
 20
-119.4518949937542
 30
0.0
 10
-99.12982028358208
 20
-119.0416690521804
 30
0.0
 10
-99.5767180839865
 20
-118.660747063362
 30
0.0
 10
-99.86302305975293
 20
-118.4167285549729
 30
0.0
 10
-100.0000879586484
 20
-118.2999077694052
 30
0.0
  0
SPLINE
  5
1D7
330
23
100
AcDbEntity
  8
0
  6
Continuous
 62
     7
370
    25
100
AcDbSpline
210
0.0
220
0.0
230
1.0
 70
     8
 71
     3
 72
    28
 73
    24
 74
     0
 42
0.000000001
 43
0.00000001
 40
0.0
 40
0.0
 40
0.0
 40
0.0
 40
0.0182197198936764
 40
0.0364900537124165
 40
0.0548256834913377
 40
0.0732411350910869
 40
0.0917507464468609
 40
0.110368637953188
 40
0.1291086852427692
 40
0.1479844945594395
 40
0.1670093808657073
 40
0.1861963487666414
 40
0.2904818260192058
 40
0.4038194026242748
 40
0.4663812396851153
 40
0.532957627033284
 40
0.6022774946570731
 40
0.6772983480997364
 40
0.7511824572543914
 40
0.8348561329336762
 40
0.8778497975242913
 40
0.9328981735466494
 40
0.9999999999999999
 40
0.9999999999999999
 40
0.9999999999999999
 40
0.9999999999999999
 10
-94.25000000000001
 20
-125.05
 30
0.0
 10
-94.25061974061919
 20
-125.0492817715062
 30
0.0
 10
-94.2518609434814
 20
-125.0478433192977
 30
0.0
 10
-94.26185086263077
 20
-125.0361973006065
 30
0.0
 10
-94.27778598851205
 20
-125.0175688552156
 30
0.0
 10
-94.30025419358113
 20
-124.9912514594182
 30
0.0
 10
-94.32909679480933
 20
-124.9574150156046
 30
0.0
 10
-94.36435610839779
 20
-124.9160044366555
 30
0.0
 10
-94.40602091057163
 20
-124.8670359225683
 30
0.0
 10
-94.45409163525231
 20
-124.8105202776083
 30
0.0
 10
-94.50857603618235
 20
-124.7464718568356
 30
0.0
 10
-94.65921780098188
 20
-124.5694548677995
 30
0.0
 10
-94.98728637927171
 20
-124.1852453324874
 30
0.0
 10
-95.49626224249725
 20
-123.5867951326174
 30
0.0
 10
-95.99772006492194
 20
-122.9984743667359
 30
0.0
 10
-96.43814038020098
 20
-122.4812814557972
 30
0.0
 10
-96.93337916527605
 20
-121.9001466044197
 30
0.0
 10
-97.46870737330332
 20
-121.2712778061792
 30
0.0
 10
-98.0590528898967
 20
-120.5790725133309
 30
0.0
 10
-98.58016670586298
 20
-119.9664356496943
 30
0.0
 10
-99.05885143158291
 20
-119.4054730642856
 30
0.0
 10
-99.49646545349216
 20
-118.8916681338933
 30
0.0
 10
-99.82152189449785
 20
-118.5097242850007
 30
0.0
 10
-100.0000879586535
 20
-118.2999077694004
 30
0.0
  0
SPLINE
  5
1DA
330
23
100
AcDbEntity
  8
0
  6
Continuous
 62
     7
370
    25
100
AcDbSpline
210
0.0
220
0.0
230
1.0
 70
     8
 71
     3
 72
    16
 73
    12
 74
     0
 42
0.000000001
 43
0.00000001
 40
0.0
 40
0.0
 40
0.0
 40
0.0
 40
0.0378788144949343
 40
0.1322372489412631
 40
0.3197239824834524
 40
0.5075494903989147
 40
0.602341445742767
 40
0.6965001538051157
 40
0.7906842420083787
 40
0.8856772555712512
 40
0.9999999999999999
 40
0.9999999999999999
 40
0.9999999999999999
 40
0.9999999999999999
 10
-93.25749403115775
 20
-100.8758869641563
 30
0.0
 10
-93.2587861222458
 20
-100.8717902527052
 30
0.0
 10
-93.26329689094706
 20
-100.8574883834621
 30
0.0
 10
-93.30947093207914
 20
-100.704058717618
 30
0.0
 10
-93.41500812463953
 20
-100.3226315731759
 30
0.0
 10
-93.52607290615983
 20
-99.73561210371487
 30
0.0
 10
-93.57677117979854
 20
-99.20474649236778
 30
0.0
 10
-93.58952185215676
 20
-98.78664832994812
 30
0.0
 10
-93.5748660377112
 20
-98.37175394990594
 30
0.0
 10
-93.53383347622446
 20
-97.93635396167784
 30
0.0
 10
-93.48547294806882
 20
-97.69547670135881
 30
0.0
 10
-93.45905970353418
 20
-97.56391589707741
 30
0.0
  0
SPLINE
  5
1DC
330
23
100
AcDbEntity
  8
0
  6
Continuous
 62
     7
370
    25
100
AcDbSpline
210
0.0
220
0.0
230
1.0
 70
     8
 71
     3
 72
    27
 73
    23
 74
     0
 42
0.000000001
 43
0.00000001
 40
0.0
 40
0.0
 40
0.0
 40
0.0
 40
0.0276013671711551
 40
0.0540633510367469
 40
0.0793860241747181
 40
0.1035694708506506
 40
0.1266137892646048
 40
0.148519094381633
 40
0.1692855215377298
 40
0.1889132310907554
 40
0.2074024145017414
 40
0.2247533024085121
 40
0.3479196685233233
 40
0.4533447449100452
 40
0.607732700918639
 40
0.7412943360188448
 40
0.8119994049512776
 40
0.8796454647585785
 40
0.9115097608380403
 40
0.9421331973179219
 40
0.9715988597578402
 40
0.9999999999999999
 40
0.9999999999999999
 40
0.9999999999999999
 40
0.9999999999999999
 10
-100.0000879586532
 20
-118.2999077694
 30
0.0
 10
-99.91519372842431
 20
-118.2211231739129
 30
0.0
 10
-99.74890969831104
 20
-118.0668062078113
 30
0.0
 10
-99.50461363484364
 20
-117.8407148851784
 30
0.0
 10
-99.2710820675241
 20
-117.6247587298185
 30
0.0
 10
-99.04847111658137
 20
-117.418969633089
 30
0.0
 10
-98.83690808932667
 20
-117.223339317277
 30
0.0
 10
-98.63645285425918
 20
-117.0378699266171
 30
0.0
 10
-98.4471168209466
 20
-116.8625595412444
 30
0.0
 10
-98.26886747182512
 20
-116.6974120230565
 30
0.0
 10
-98.10163493315983
 20
-116.542413128077
 30
0.0
 10
-97.62414335982663
 20
-116.1000803482204
 30
0.0
 10
-96.89694450261969
 20
-115.4273002718217
 30
0.0
 10
-95.8237358583831
 20
-114.4317467849296
 30
0.0
 10
-94.81441335954318
 20
-113.501264084769
 30
0.0
 10
-94.06502673880497
 20
-112.8038159860946
 30
0.0
 10
-93.63732986758194
 20
-112.409896651633
 30
0.0
 10
-93.4418937461574
 20
-112.2288992104514
 30
0.0
 10
-93.33819565212221
 20
-112.1311712102935
 30
0.0
 10
-93.28648588169432
 20
-112.0812865934203
 30
0.0
 10
-93.25556086320431
 20
-112.0516319217627
 30
0.0
 10
-93.25183074790449
 20
-112.0505372614355
 30
0.0
 10
-93.25
 20
-112.05
 30
0.0
  0
SPLINE
  5
1E0
330
23
100
AcDbEntity
  8
0
  6
Continuous
 62
     7
370
    25
100
AcDbSpline
210
0.0
220
0.0
230
1.0
 70
     8
 71
     3
 72
    18
 73
    14
 74
     0
 42
0.000000001
 43
0.00000001
 40
0.0
 40
0.0
 40
0.0
 40
0.0
 40
0.1249999999999996
 40
0.1249999999999996
 40
0.2499999999999993
 40
0.2499999999999993
 40
0.3749999999999988
 40
0.3749999999999988
 40
0.4999999999999983
 40
0.4999999999999983
 40
0.7499999999999991
 40
0.7499999999999991
 40
1.0
 40
1.0
 40
1.0
 40
1.0
 10
106.75
 20
-110.5500000000003
 30
0.0
 10
106.7499853411945
 20
-110.5500173511258
 30
0.0
 10
106.6801832390343
 20
-110.6301610283081
 30
0.0
 10
106.4223639567402
 20
-110.9261769120342
 30
0.0
 10
106.2355453676998
 20
-111.1406729587365
 30
0.0
 10
105.7845179842546
 20
-111.6585206019094
 30
0.0
 10
105.5206719531777
 20
-111.9614556906934
 30
0.0
 10
104.9456159305364
 20
-112.6217068098133
 30
0.0
 10
104.6342907813969
 20
-112.9791550575238
 30
0.0
 10
103.656774834313
 20
-114.1014908295219
 30
0.0
 10
102.9485211743899
 20
-114.9146728344948
 30
0.0
 10
101.494473939357
 20
-116.5841381313717
 30
0.0
 10
100.7476556369339
 20
-117.441597962249
 30
0.0
 10
100.0001277934974
 20
-118.2998722534014
 30
0.0
  0
SPLINE
  5
1E2
330
23
100
AcDbEntity
  8
0
  6
Continuous
 62
     7
370
    25
100
AcDbSpline
210
0.0
220
0.0
230
1.0
 70
     8
 71
     3
 72
    26
 73
    22
 74
     0
 42
0.000000001
 43
0.00000001
 40
0.0
 40
0.0
 40
0.0
 40
0.0
 40
0.0162012651631833
 40
0.0324423283834607
 40
0.0487454975224997
 40
0.0651328268119333
 40
0.0816260328773717
 40
0.0982464173255563
 40
0.1150147970894178
 40
0.1319514434048801
 40
0.1949471391069473
 40
0.2617659354505792
 40
0.3641286167203832
 40
0.4797069165186001
 40
0.5819520948895384
 40
0.6986290811740077
 40
0.7620965524062239
 40
0.8330043019888883
 40
0.8761471943772733
 40
0.931812699118859
 40
1.0
 40
1.0
 40
1.0
 40
1.0
 10
107.75
 20
-111.55
 30
0.0
 10
107.7492108467804
 20
-111.5506834708048
 30
0.0
 10
107.7476306018032
 20
-111.5520520913455
 30
0.0
 10
107.7349003151442
 20
-111.5631240412336
 30
0.0
 10
107.7145908206789
 20
-111.5808108883812
 30
0.0
 10
107.685953912274
 20
-111.6057664381007
 30
0.0
 10
107.649192313743
 20
-111.6378114133369
 30
0.0
 10
107.6042517619425
 20
-111.6769796055966
 30
0.0
 10
107.5511498580506
 20
-111.723244058784
 30
0.0
 10
107.4345798560169
 20
-111.8246725047798
 30
0.0
 10
107.2076663589423
 20
-112.0221935325099
 30
0.0
 10
106.7454588025863
 20
-112.4251408939375
 30
0.0
 10
106.0481770582848
 20
-113.0311894919651
 30
0.0
 10
105.1449408251394
 20
-113.8194135010677
 30
0.0
 10
104.1203944768421
 20
-114.7103364817134
 30
0.0
 10
103.2114257958036
 20
-115.5032041791949
 30
0.0
 10
102.3829722827093
 20
-116.224233603534
 30
0.0
 10
101.78953911378
 20
-116.7416580917331
 30
0.0
 10
101.217314492616
 20
-117.2391352052246
 30
0.0
 10
100.6520267668859
 20
-117.731520387456
 30
0.0
 10
100.2315962729311
 20
-118.098068680204
 30
0.0
 10
100.0001277934989
 20
-118.2998722534004
 30
0.0
  0
SPLINE
  5
1E3
330
23
100
AcDbEntity
  8
0
  6
Continuous
 62
     7
370
    25
100
AcDbSpline
210
0.0
220
0.0
230
1.0
 70
     8
 71
     3
 72
    26
 73
    22
 74
     0
 42
0.000000001
 43
0.00000001
 40
0.0
 40
0.0
 40
0.0
 40
0.0
 40
0.0272582068625476
 40
0.0527776389268557
 40
0.076558304865347
 40
0.0986002217428847
 40
0.1189034174129707
 40
0.1374679340359109
 40
0.1542938334143902
 40
0.1693812054026692
 40
0.2528266310033587
 40
0.3267986928220669
 40
0.4706306426211916
 40
0.5961193470018543
 40
0.7082491342919405
 40
0.8114278767575662
 40
0.8501223097044495
 40
0.8882129281167669
 40
0.92581141598932
 40
0.9630338874211112
 40
1.0
 40
1.0
 40
1.0
 40
1.0
 10
100.0001277934989
 20
-118.2998722534004
 30
0.0
 10
99.92759794315933
 20
-118.3850400750528
 30
0.0
 10
99.78716485187265
 20
-118.5499429449305
 30
0.0
 10
99.58374986274653
 20
-118.7890647352072
 30
0.0
 10
99.39443720816163
 20
-119.011537496052
 30
0.0
 10
99.2192444066081
 20
-119.2172750592817
 30
0.0
 10
99.05816530009528
 20
-119.4062584807459
 30
0.0
 10
98.91120526178833
 20
-119.5785442392224
 30
0.0
 10
98.77834692875562
 20
-119.734230589903
 30
0.0
 10
98.47580380778884
 20
-120.089134442805
 30
0.0
 10
98.02801952620881
 20
-120.6154445849728
 30
0.0
 10
97.26495850779604
 20
-121.5101683188608
 30
0.0
 10
96.43763069299735
 20
-122.4840136500097
 30
0.0
 10
95.61264295048196
 20
-123.4497137891393
 30
0.0
 10
94.99361801139396
 20
-124.1778380016595
 30
0.0
 10
94.63964157422654
 20
-124.5921098347969
 30
0.0
 10
94.45636753459226
 20
-124.8075905037835
 30
0.0
 10
94.36410780214398
 20
-124.9161205182527
 30
0.0
 10
94.2986867415041
 20
-124.9930119896063
 30
0.0
 10
94.25764700268962
 20
-125.0410978606696
 30
0.0
 10
94.25254312207213
 20
-125.0470394639652
 30
0.0
 10
94.25000000000001
 20
-125.05
 30
0.0
  0
SPLINE
  5
1E5
330
23
100
AcDbEntity
  8
0
  6
Continuous
 62
     7
370
    25
100
AcDbSpline
210
0.0
220
0.0
230
1.0
 70
     8
 71
     3
 72
    27
 73
    23
 74
     0
 42
0.000000001
 43
0.00000001
 40
0.0
 40
0.0
 40
0.0
 40
0.0
 40
0.0262023052492444
 40
0.0538152119704025
 40
0.0828476258182054
 40
0.1133130370550473
 40
0.1452300730856135
 40
0.1786126538066872
 40
0.2134589591043111
 40
0.2497663302296185
 40
0.2875341290592491
 40
0.3267630142575695
 40
0.4697831947704778
 40
0.5960248548428068
 40
0.6881765296624668
 40
0.7532844857978096
 40
0.8114766651383055
 40
0.8603007133853057
 40
0.9054995594754912
 40
0.9374865856201337
 40
0.9689994704240089
 40
1.0
 40
1.0
 40
1.0
 40
1.0
 10
100.0001277934926
 20
-118.2998722534063
 30
0.0
 10
99.91826375541115
 20
-118.3696349057487
 30
0.0
 10
99.75012852760572
 20
-118.5129158838041
 30
0.0
 10
99.49151906174373
 20
-118.7333588410464
 30
0.0
 10
99.22004270673935
 20
-118.9647253426182
 30
0.0
 10
98.93591537774891
 20
-119.2068105540638
 30
0.0
 10
98.63944359279786
 20
-119.4593584063597
 30
0.0
 10
98.33110002223195
 20
-119.7219916244736
 30
0.0
 10
98.0115393307459
 20
-119.9941300798031
 30
0.0
 10
97.68164958927035
 20
-120.2750356633119
 30
0.0
 10
97.34244966400266
 20
-120.5638650952547
 30
0.0
 10
96.69363195642619
 20
-121.1165508851659
 30
0.0
 10
95.81851663385592
 20
-121.8612169964541
 30
0.0
 10
94.90234202677338
 20
-122.6426234325077
 30
0.0
 10
94.28750576993586
 20
-123.1660912076721
 30
0.0
 10
93.89580498737106
 20
-123.500074286078
 30
0.0
 10
93.63898050063698
 20
-123.7189489168951
 30
0.0
 10
93.46126295614205
 20
-123.8702065299499
 30
0.0
 10
93.35335059238749
 20
-123.9618779787386
 30
0.0
 10
93.29055294100064
 20
-124.0155021115666
 30
0.0
 10
93.25635158030273
 20
-124.0446020196456
 30
0.0
 10
93.25210559350526
 20
-124.0482105315791
 30
0.0
 10
93.25000000000024
 20
-124.05
 30
0.0
  0
SPLINE
  5
1E6
330
23
100
AcDbEntity
  8
0
  6
Continuous
 62
     7
370
    25
100
AcDbSpline
210
0.0
220
0.0
230
1.0
 70
     8
 71
     3
 72
    10
 73
     6
 74
     0
 42
0.000000001
 43
0.00000001
 40
0.0
 40
0.0
 40
0.0
 40
0.0
 40
0.2916898516787725
 40
0.6468001597581479
 40
1.0
 40
1.0
 40
1.0
 40
1.0
 10
93.34623903642917
 20
-100.5532210748867
 30
0.0
 10
93.3290386294173
 20
-100.6212560562482
 30
0.0
 10
93.29089802925876
 20
-100.7721184759057
 30
0.0
 10
93.25797557647196
 20
-100.873349520497
 30
0.0
 10
93.25265374077125
 20
-100.8911324950267
 30
0.0
 10
93.25
 20
-100.9
 30
0.0
  0
SPLINE
  5
20D
330
23
100
AcDbEntity
  8
0
  6
Continuous
 62
     7
370
    25
100
AcDbSpline
210
0.0
220
0.0
230
1.0
 70
     8
 71
     3
 72
    12
 73
     8
 74
     0
 42
0.000000001
 43
0.00000001
 40
0.0
 40
0.0
 40
0.0
 40
0.0
 40
0.2235051149929809
 40
0.4496355729884198
 40
0.6783914649094849
 40
0.9097728785842718
 40
1.0
 40
1.0
 40
1.0
 40
1.0
 10
-93.27500000000627
 20
-98.8
 30
0.0
 10
-93.28022096963682
 20
-98.61154336686774
 30
0.0
 10
-93.29072423562
 20
-98.23241644521069
 30
0.0
 10
-93.30633965014547
 20
-97.68452690424148
 30
0.0
 10
-93.32195799605158
 20
-97.1999096884925
 30
0.0
 10
-93.33437091690075
 20
-96.86068192934873
 30
0.0
 10
-93.34151916322983
 20
-96.73520304208637
 30
0.0
 10
-93.34352460033448
 20
-96.69999999999999
 30
0.0
  0
SPLINE
  5
20E
330
23
100
AcDbEntity
  8
0
  6
Continuous
 62
     7
370
    25
100
AcDbSpline
210
0.0
220
0.0
230
1.0
 70
     8
 71
     3
 72
    13
 73
     9
 74
     0
 42
0.000000001
 43
0.00000001
 40
0.0
 40
0.0
 40
0.0
 40
0.0
 40
0.0260684623366207
 40
0.2149025345452103
 40
0.4067125698239469
 40
0.6014987262917172
 40
0.7992611549288234
 40
1.0
 40
1.0
 40
1.0
 40
1.0
 10
-93.17494614695153
 20
-100.8984971627355
 30
0.0
 10
-93.17585697180789
 20
-100.9038480954898
 30
0.0
 10
-93.1833656068638
 20
-100.9479599804265
 30
0.0
 10
-93.19727361162391
 20
-100.8392270848059
 30
0.0
 10
-93.21676174267277
 20
-100.5623662006725
 30
0.0
 10
-93.23621337581798
 20
-100.0899261210986
 30
0.0
 10
-93.25569339344057
 20
-99.48693988617653
 30
0.0
 10
-93.26853249927869
 20
-99.03011730200117
 30
0.0
 10
-93.27500000000636
 20
-98.8
 30
0.0
  0
SPLINE
  5
20F
330
23
100
AcDbEntity
  8
0
  6
Continuous
 62
     7
370
    25
100
AcDbSpline
210
0.0
220
0.0
230
1.0
 70
     8
 71
     3
 72
     9
 73
     5
 74
     0
 42
0.000000001
 43
0.00000001
 40
0.0
 40
0.0
 40
0.0
 40
0.0
 40
0.7409023551191835
 40
1.0
 40
1.0
 40
1.0
 40
1.0
 10
-93.25291165618293
 20
-100.7831884939046
 30
0.0
 10
-93.24399770344834
 20
-100.8038252019885
 30
0.0
 10
-93.23196649221926
 20
-100.8316786808462
 30
0.0
 10
-93.21993639742374
 20
-100.8000974657078
 30
0.0
 10
-93.21681942819454
 20
-100.7919148472429
 30
0.0
  0
SPLINE
  5
22E
330
23
100
AcDbEntity
  8
0
  6
Continuous
 62
     7
370
    25
100
AcDbSpline
210
0.0
220
0.0
230
1.0
 70
     8
 71
     3
 72
    12
 73
     8
 74
     0
 42
0.000000001
 43
0.00000001
 40
0.0
 40
0.0
 40
0.0
 40
0.0
 40
0.1755322921404091
 40
0.3816492191053072
 40
0.5877661460702028
 40
0.7938830730351023
 40
1.0
 40
1.0
 40
1.0
 40
1.0
 10
93.53645167533494
 20
-100.365500044703
 30
0.0
 10
93.52846778355564
 20
-100.2399727105058
 30
0.0
 10
93.51110889177662
 20
-99.96704623932185
 30
0.0
 10
93.48437499999773
 20
-99.47081378533575
 30
0.0
 10
93.4562499999985
 20
-98.92456833816901
 30
0.0
 10
93.42812499999926
 20
-98.36692797809887
 30
0.0
 10
93.40937499999977
 20
-98.01783693889872
 30
0.0
 10
93.4
 20
-97.84329141929861
 30
0.0
  0
SPLINE
  5
22F
330
23
100
AcDbEntity
  8
0
  6
Continuous
 62
     7
370
    25
100
AcDbSpline
210
0.0
220
0.0
230
1.0
 70
     8
 71
     3
 72
    10
 73
     6
 74
     0
 42
0.000000001
 43
0.00000001
 40
0.0
 40
0.0
 40
0.0
 40
0.0
 40
0.3442675234598694
 40
0.6942288028630292
 40
1.0
 40
1.0
 40
1.0
 40
1.0
 10
93.11928203231524
 20
-100.0904945053809
 30
0.0
 10
93.1257910935427
 20
-100.2444865723269
 30
0.0
 10
93.13891686776121
 20
-100.55501754316
 30
0.0
 10
93.15745812625457
 20
-100.8377843511743
 30
0.0
 10
93.16938471939753
 20
-100.8791896659668
 30
0.0
 10
93.17494614695151
 20
-100.8984971627355
 30
0.0
  0
SPLINE
  5
230
330
23
100
AcDbEntity
  8
0
  6
Continuous
 62
     7
370
    25
100
AcDbSpline
210
0.0
220
0.0
230
1.0
 70
     8
 71
     3
 72
     9
 73
     5
 74
     0
 42
0.000000001
 43
0.00000001
 40
0.0
 40
0.0
 40
0.0
 40
0.0
 40
0.7863818161997661
 40
1.0
 40
1.0
 40
1.0
 40
1.0
 10
93.181655889356
 20
-100.8940290037076
 30
0.0
 10
93.18684908687922
 20
-100.8891440426169
 30
0.0
 10
93.19345300041876
 20
-100.8829320969818
 30
0.0
 10
93.19990415470728
 20
-100.7806989583443
 30
0.0
 10
93.20128223856982
 20
-100.7588601009443
 30
0.0
  0
SPLINE
  5
231
330
23
100
AcDbEntity
  8
0
  6
Continuous
 62
     7
370
    25
100
AcDbSpline
210
0.0
220
0.0
230
1.0
 70
     8
 71
     3
 72
    11
 73
     7
 74
     0
 42
0.000000001
 43
0.00000001
 40
0.0
 40
0.0
 40
0.0
 40
0.0
 40
0.1781649128994059
 40
0.4521103655818324
 40
0.7260819674920539
 40
1.0
 40
1.0
 40
1.0
 40
1.0
 10
93.21681942819454
 20
-100.7919148472429
 30
0.0
 10
93.21102281783307
 20
-100.7824125287409
 30
0.0
 10
93.19631336922723
 20
-100.7582994942388
 30
0.0
 10
93.17268576785474
 20
-100.619001528701
 30
0.0
 10
93.14595005046186
 20
-100.3993953034378
 30
0.0
 10
93.12811972198502
 20
-100.1934383169538
 30
0.0
 10
93.11920542941854
 20
-100.0904698923387
 30
0.0
  0
SPLINE
  5
232
330
23
100
AcDbEntity
  8
0
  6
Continuous
 62
     7
370
    25
100
AcDbSpline
210
0.0
220
0.0
230
1.0
 70
     8
 71
     3
 72
    14
 73
    10
 74
     0
 42
0.000000001
 43
0.00000001
 40
0.0
 40
0.0
 40
0.0
 40
0.0
 40
0.1603829629149412
 40
0.3207659258298809
 40
0.4811488887448234
 40
0.6415318516597635
 40
0.8019148145747071
 40
0.9622977774896491
 40
1.0
 40
1.0
 40
1.0
 40
1.0
 10
93.4
 20
-96.49030116863074
 30
0.0
 10
93.41145833333358
 20
-96.59268684218588
 30
0.0
 10
93.43437500000078
 20
-96.79745818929621
 30
0.0
 10
93.46875000000155
 20
-97.29466965896195
 30
0.0
 10
93.50312500000238
 20
-97.88837360646605
 30
0.0
 10
93.53750000000308
 20
-98.55341036606688
 30
0.0
 10
93.57187500000387
 20
-99.22772782325738
 30
0.0
 10
93.59748524848982
 20
-99.72866715055062
 30
0.0
 10
93.61163716364211
 20
-99.9578584121435
 30
0.0
 10
93.61433074546083
 20
-100.0014811592129
 30
0.0
  0
SPLINE
  5
235
330
23
100
AcDbEntity
  8
0
  6
Continuous
 62
     7
370
    25
100
AcDbSpline
210
0.0
220
0.0
230
1.0
 70
     8
 71
     3
 72
    18
 73
    14
 74
     0
 42
0.000000001
 43
0.00000001
 40
0.0
 40
0.0
 40
0.0
 40
0.0
 40
0.0074650690972709
 40
0.0206449852129985
 40
0.0409138717482376
 40
0.0685858128517684
 40
0.1037603056991442
 40
0.1464725855808
 40
0.19673397593717
 40
0.3330111076727953
 40
0.5122626987366782
 40
0.7345305217060638
 40
1.0
 40
1.0
 40
1.0
 40
1.0
 10
93.11938137887998
 20
-98.02937494886417
 30
0.0
 10
93.1184863781884
 20
-98.03078903038816
 30
0.0
 10
93.1160112134173
 20
-98.03469973660833
 30
0.0
 10
93.11412802392991
 20
-98.04597230225228
 30
0.0
 10
93.11178630556473
 20
-98.0612893354879
 30
0.0
 10
93.10973540372599
 20
-98.08262196809115
 30
0.0
 10
93.10767497088246
 20
-98.1093224047613
 30
0.0
 10
93.10576292727794
 20
-98.1417531060131
 30
0.0
 10
93.10302678535682
 20
-98.19971399070155
 30
0.0
 10
93.10027347636623
 20
-98.2925024528681
 30
0.0
 10
93.09787418235081
 20
-98.4302837816455
 30
0.0
 10
93.09629351830576
 20
-98.60314044862952
 30
0.0
 10
93.09627185774234
 20
-98.73061686818514
 30
0.0
 10
93.09626006816126
 20
-98.8000007322172
 30
0.0
  0
SPLINE
  5
237
330
23
100
AcDbEntity
  8
0
  6
Continuous
 62
     7
370
    25
100
AcDbSpline
210
0.0
220
0.0
230
1.0
 70
     8
 71
     3
 72
     8
 73
     4
 74
     0
 42
0.000000001
 43
0.00000001
 40
0.0
 40
0.0
 40
0.0
 40
0.0
 40
1.0
 40
1.0
 40
1.0
 40
1.0
 10
93.09626006816126
 20
-98.8000007322172
 30
0.0
 10
93.09910936218421
 20
-99.25771269114698
 30
0.0
 10
93.10308724563565
 20
-99.71716650256072
 30
0.0
 10
93.11927107370299
 20
-100.0904909879462
 30
0.0
  0
SPLINE
  5
240
330
23
100
AcDbEntity
  8
0
  6
Continuous
 62
     8
370
    25
100
AcDbSpline
210
0.0
220
0.0
230
1.0
 70
     8
 71
     3
 72
    10
 73
     6
 74
     0
 42
0.000000001
 43
0.00000001
 40
0.0
 40
0.0
 40
0.0
 40
0.0
 40
0.3556294503916645
 40
0.7394522044242057
 40
1.0
 40
1.0
 40
1.0
 40
1.0
 10
-93.57976746343718
 20
-98.63606449338242
 30
0.0
 10
-93.57083623720035
 20
-98.77718081802345
 30
0.0
 10
-93.552265742204
 20
-99.0706007730388
 30
0.0
 10
-93.52716738732968
 20
-99.46370526286861
 30
0.0
 10
-93.51098547361465
 20
-99.68748584615224
 30
0.0
 10
-93.50444240309533
 20
-99.7779703316748
 30
0.0
  0
SPLINE
  5
241
330
23
100
AcDbEntity
  8
0
  6
Continuous
 62
     8
370
    25
100
AcDbSpline
210
0.0
220
0.0
230
1.0
 70
     8
 71
     3
 72
    17
 73
    13
 74
     0
 42
0.000000001
 43
0.00000001
 40
0.0
 40
0.0
 40
0.0
 40
0.0
 40
0.0183364247879144
 40
0.1273998318993045
 40
0.2364833613588535
 40
0.3455491907080187
 40
0.4546303625913845
 40
0.5636991314165855
 40
0.6727775313405215
 40
0.7818495015645592
 40
0.890924759205306
 40
1.0
 40
1.0
 40
1.0
 40
1.0
 10
-93.49807786694056
 20
-97.78600812127198
 30
0.0
 10
-93.49657956508567
 20
-97.8053820170656
 30
0.0
 10
-93.48616949842025
 20
-97.9399901042959
 30
0.0
 10
-93.46683732931378
 20
-98.23370666470892
 30
0.0
 10
-93.44010403488312
 20
-98.64872615989049
 30
0.0
 10
-93.41335600017798
 20
-99.0747780595204
 30
0.0
 10
-93.3866204175144
 20
-99.48744337356233
 30
0.0
 10
-93.35987468173911
 20
-99.87045805424454
 30
0.0
 10
-93.3331367106282
 20
-100.2062211114411
 30
0.0
 10
-93.3063934515848
 20
-100.4792807767342
 30
0.0
 10
-93.27965301060914
 20
-100.6839303279023
 30
0.0
 10
-93.26182544053279
 20
-100.7501024402738
 30
0.0
 10
-93.25291165618295
 20
-100.7831884939046
 30
0.0
  0
SPLINE
  5
242
330
23
100
AcDbEntity
  8
0
  6
Continuous
 62
     8
370
    25
100
AcDbSpline
210
0.0
220
0.0
230
1.0
 70
     8
 71
     3
 72
    16
 73
    12
 74
     0
 42
0.000000001
 43
0.00000001
 40
0.0
 40
0.0
 40
0.0
 40
0.0
 40
0.0224051056605153
 40
0.1446031074312618
 40
0.2668061487221395
 40
0.3890092134764039
 40
0.5112070614112727
 40
0.6334151546633634
 40
0.7556102170411912
 40
0.877821426819534
 40
1.0
 40
1.0
 40
1.0
 40
1.0
 10
93.35593164817438
 20
-100.7947569807463
 30
0.0
 10
93.35416513802534
 20
-100.7942310727876
 30
0.0
 10
93.34276403772576
 20
-100.7908368497832
 30
0.0
 10
93.32172473111605
 20
-100.6851459700393
 30
0.0
 10
93.29281940277943
 20
-100.4760924276029
 30
0.0
 10
93.26391406842536
 20
-100.173082029565
 30
0.0
 10
93.23500478013253
 20
-99.80107477039229
 30
0.0
 10
93.20610295926268
 20
-99.37758367571061
 30
0.0
 10
93.17719083551663
 20
-98.92493634411815
 30
0.0
 10
93.14829270564269
 20
-98.46316610967622
 30
0.0
 10
93.12901762978233
 20
-98.17395912859128
 30
0.0
 10
93.11938137887995
 20
-98.02937494886417
 30
0.0
  0
LINE
  5
247
330
23
100
AcDbEntity
  8
0
  6
Continuous
 62
     7
370
    25
100
AcDbLine
 10
-73.5
 20
-29.6
 30
0.0
 11
-126.5
 21
-29.6
 31
0.0
  0
LINE
  5
248
330
23
100
AcDbEntity
  8
0
  6
Continuous
 62
     7
370
    25
100
AcDbLine
 10
126.5
 20
-29.6
 30
0.0
 11
73.5
 21
-29.6
 31
0.0
  0
LINE
  5
249
330
23
100
AcDbEntity
  8
0
  6
Continuous
 62
     7
370
    25
100
AcDbLine
 10
-93.25
 20
-124.0548453507
 30
0.0
 11
-93.25
 21
-112.0513670157
 31
0.0
  0
LINE
  5
24A
330
23
100
AcDbEntity
  8
0
  6
Continuous
 62
     7
370
    25
100
AcDbLine
 10
93.25
 20
-112.0513670157
 30
0.0
 11
93.25
 21
-124.0548453507
 31
0.0
  0
LINE
  5
24B
330
23
100
AcDbEntity
  8
0
  6
Continuous
 62
     7
370
    25
100
AcDbLine
 10
27.5
 20
-38.7
 30
0.0
 11
27.5
 21
-30.0
 31
0.0
  0
LINE
  5
24C
330
23
100
AcDbEntity
  8
0
  6
Continuous
 62
     7
370
    25
100
AcDbLine
 10
-27.5
 20
-30.0
 30
0.0
 11
-27.5
 21
-38.7
 31
0.0
  0
LINE
  5
24D
330
23
100
AcDbEntity
  8
0
  6
Continuous
 62
     7
370
    25
100
AcDbLine
 10
-92.9
 20
-97.1660254038
 30
0.0
 11
-93.25
 21
-96.5598076211
 31
0.0
  0
LINE
  5
24E
330
23
100
AcDbEntity
  8
0
  6
Continuous
 62
     7
370
    25
100
AcDbLine
 10
-93.1698807084
 20
-100.9014216951
 30
0.0
 11
-92.9
 21
-100.4339745962
 31
0.0
  0
LINE
  5
24F
330
23
100
AcDbEntity
  8
0
  6
Continuous
 62
     7
370
    25
100
AcDbLine
 10
93.25
 20
-96.5598076211
 30
0.0
 11
92.9
 21
-97.1660254038
 31
0.0
  0
LINE
  5
250
330
23
100
AcDbEntity
  8
0
  6
Continuous
 62
     7
370
    25
100
AcDbLine
 10
92.9
 20
-100.4339745962
 30
0.0
 11
93.1698807084
 21
-100.9014216951
 31
0.0
  0
LINE
  5
251
330
23
100
AcDbEntity
  8
0
  6
Continuous
 62
     7
370
    25
100
AcDbLine
 10
-13.0
 20
-28.0
 30
0.0
 11
-13.0
 21
-30.0
 31
0.0
  0
LINE
  5
252
330
23
100
AcDbEntity
  8
0
  6
Continuous
 62
     7
370
    25
100
AcDbLine
 10
-13.0
 20
-39.0
 30
0.0
 11
-13.0
 21
-208.0
 31
0.0
  0
LINE
  5
253
330
23
100
AcDbEntity
  8
0
  6
Continuous
 62
     7
370
    25
100
AcDbLine
 10
13.0
 20
-208.0
 30
0.0
 11
13.0
 21
-39.0
 31
0.0
  0
LINE
  5
254
330
23
100
AcDbEntity
  8
0
  6
Continuous
 62
     7
370
    25
100
AcDbLine
 10
13.0
 20
-30.0
 30
0.0
 11
13.0
 21
-28.0
 31
0.0
  0
LINE
  5
255
330
23
100
AcDbEntity
  8
0
  6
Continuous
 62
     7
370
    25
100
AcDbLine
 10
-94.25
 20
-125.05
 30
0.0
 11
-114.75
 21
-125.05
 31
0.0
  0
LINE
  5
256
330
23
100
AcDbEntity
  8
0
  6
Continuous
 62
     7
370
    25
100
AcDbLine
 10
-107.75
 20
-111.55
 30
0.0
 11
-114.75
 21
-111.55
 31
0.0
  0
LINE
  5
257
330
23
100
AcDbEntity
  8
0
  6
Continuous
 62
     7
370
    25
100
AcDbLine
 10
-93.25
 20
-112.05
 30
0.0
 11
-93.25
 21
-101.0401923789
 31
0.0
  0
LINE
  5
258
330
23
100
AcDbEntity
  8
0
  6
Continuous
 62
     7
370
    25
100
AcDbLine
 10
-106.75
 20
-110.55
 30
0.0
 11
-106.75
 21
-93.3
 31
0.0
  0
LINE
  5
259
330
23
100
AcDbEntity
  8
0
  6
Continuous
 62
     7
370
    25
100
AcDbLine
 10
-93.25
 20
-93.3
 30
0.0
 11
-106.75
 21
-93.3
 31
0.0
  0
LINE
  5
25A
330
23
100
AcDbEntity
  8
0
  6
Continuous
 62
     7
370
    25
100
AcDbLine
 10
-93.25
 20
-96.5598076211
 30
0.0
 11
-93.25
 21
-93.3
 31
0.0
  0
LINE
  5
25B
330
23
100
AcDbEntity
  8
0
  6
Continuous
 62
     7
370
    25
100
AcDbLine
 10
93.25
 20
-96.5598076211
 30
0.0
 11
93.25
 21
-93.3
 31
0.0
  0
LINE
  5
25C
330
23
100
AcDbEntity
  8
0
  6
Continuous
 62
     7
370
    25
100
AcDbLine
 10
106.75
 20
-93.3
 30
0.0
 11
93.25
 21
-93.3
 31
0.0
  0
LINE
  5
25D
330
23
100
AcDbEntity
  8
0
  6
Continuous
 62
     7
370
    25
100
AcDbLine
 10
106.75
 20
-110.55
 30
0.0
 11
106.75
 21
-93.3
 31
0.0
  0
LINE
  5
25E
330
23
100
AcDbEntity
  8
0
  6
Continuous
 62
     7
370
    25
100
AcDbLine
 10
93.25
 20
-112.05
 30
0.0
 11
93.25
 21
-100.9
 31
0.0
  0
LINE
  5
25F
330
23
100
AcDbEntity
  8
0
  6
Continuous
 62
     7
370
    25
100
AcDbLine
 10
107.75
 20
-111.55
 30
0.0
 11
114.75
 21
-111.55
 31
0.0
  0
LINE
  5
260
330
23
100
AcDbEntity
  8
0
  6
Continuous
 62
     7
370
    25
100
AcDbLine
 10
94.25
 20
-125.05
 30
0.0
 11
114.75
 21
-125.05
 31
0.0
  0
LINE
  5
261
330
23
100
AcDbEntity
  8
0
  6
Continuous
 62
     7
370
    25
100
AcDbLine
 10
93.25
 20
-100.9
 30
0.0
 11
93.2574940312
 21
-100.8758869642
 31
0.0
  0
LINE
  5
262
330
23
100
AcDbEntity
  8
0
  6
Continuous
 62
     7
370
    25
100
AcDbLine
 10
-27.2000000482
 20
-39.0
 30
0.0
 11
27.2000000482
 21
-39.0
 31
0.0
  0
LINE
  5
263
330
23
100
AcDbEntity
  8
0
  6
Continuous
 62
     7
370
    25
100
AcDbLine
 10
-27.5
 20
-30.0
 30
0.0
 11
27.5
 21
-30.0
 31
0.0
  0
LINE
  5
264
330
23
100
AcDbEntity
  8
0
  6
Continuous
 62
     7
370
    25
100
AcDbLine
 10
-84.0
 20
-92.5
 30
0.0
 11
-116.0
 21
-92.5
 31
0.0
  0
LINE
  5
265
330
23
100
AcDbEntity
  8
0
  6
Continuous
 62
     7
370
    25
100
AcDbLine
 10
-116.0
 20
-43.5
 30
0.0
 11
-116.0
 21
-92.5
 31
0.0
  0
LINE
  5
266
330
23
100
AcDbEntity
  8
0
  6
Continuous
 62
     7
370
    25
100
AcDbLine
 10
-84.0
 20
-43.5
 30
0.0
 11
-84.0
 21
-92.5
 31
0.0
  0
LINE
  5
267
330
23
100
AcDbEntity
  8
0
  6
Continuous
 62
     7
370
    25
100
AcDbLine
 10
-84.5
 20
-93.0
 30
0.0
 11
-115.5
 21
-93.0
 31
0.0
  0
LINE
  5
268
330
23
100
AcDbEntity
  8
0
  6
Continuous
 62
     7
370
    25
100
AcDbLine
 10
-129.0
 20
-43.0
 30
0.0
 11
-71.0
 21
-43.0
 31
0.0
  0
LINE
  5
269
330
23
100
AcDbEntity
  8
0
  6
Continuous
 62
     7
370
    25
100
AcDbLine
 10
-128.5000000483
 20
-43.5
 30
0.0
 11
-71.4999999517
 21
-43.5
 31
0.0
  0
LINE
  5
26A
330
23
100
AcDbEntity
  8
0
  6
Continuous
 62
     7
370
    25
100
AcDbLine
 10
-129.0
 20
-43.0
 30
0.0
 11
-129.0
 21
-30.0
 31
0.0
  0
LINE
  5
26B
330
23
100
AcDbEntity
  8
0
  6
Continuous
 62
     7
370
    25
100
AcDbLine
 10
-71.0
 20
-43.0
 30
0.0
 11
-71.0
 21
-30.0
 31
0.0
  0
LINE
  5
26C
330
23
100
AcDbEntity
  8
0
  6
Continuous
 62
     7
370
    25
100
AcDbLine
 10
-71.0
 20
-30.0
 30
0.0
 11
-129.0
 21
-30.0
 31
0.0
  0
LINE
  5
26D
330
23
100
AcDbEntity
  8
0
  6
Continuous
 62
     7
370
    25
100
AcDbLine
 10
-106.5
 20
-93.3
 30
0.0
 11
-106.5
 21
-93.0
 31
0.0
  0
LINE
  5
26E
330
23
100
AcDbEntity
  8
0
  6
Continuous
 62
     7
370
    25
100
AcDbLine
 10
-93.5
 20
-93.3
 30
0.0
 11
-93.5
 21
-93.0
 31
0.0
  0
LINE
  5
26F
330
23
100
AcDbEntity
  8
0
  6
Continuous
 62
     7
370
    25
100
AcDbLine
 10
-184.75
 20
-127.0999996833
 30
0.0
 11
-184.75
 21
-109.5000003167
 31
0.0
  0
LINE
  5
270
330
23
100
AcDbEntity
  8
0
  6
Continuous
 62
     7
370
    25
100
AcDbLine
 10
-184.55
 20
-127.3
 30
0.0
 11
-184.55
 21
-109.3
 31
0.0
  0
LINE
  5
271
330
23
100
AcDbEntity
  8
0
  6
Continuous
 62
     7
370
    25
100
AcDbLine
 10
-115.35
 20
-127.3
 30
0.0
 11
-115.35
 21
-109.3
 31
0.0
  0
LINE
  5
272
330
23
100
AcDbEntity
  8
0
  6
Continuous
 62
     7
370
    25
100
AcDbLine
 10
-115.35
 20
-127.3
 30
0.0
 11
-184.55
 21
-127.3
 31
0.0
  0
LINE
  5
273
330
23
100
AcDbEntity
  8
0
  6
Continuous
 62
     7
370
    25
100
AcDbLine
 10
-115.35
 20
-109.3
 30
0.0
 11
-184.55
 21
-109.3
 31
0.0
  0
LINE
  5
274
330
23
100
AcDbEntity
  8
0
  6
Continuous
 62
     7
370
    25
100
AcDbLine
 10
-114.75
 20
-126.7
 30
0.0
 11
-114.75
 21
-109.9
 31
0.0
  0
LINE
  5
275
330
23
100
AcDbEntity
  8
0
  6
Continuous
 62
     7
370
    25
100
AcDbLine
 10
-92.9
 20
-97.1660254038
 30
0.0
 11
-92.9
 21
-100.4339745962
 31
0.0
  0
LINE
  5
276
330
23
100
AcDbEntity
  8
0
  6
Continuous
 62
     7
370
    25
100
AcDbLine
 10
-92.9
 20
-98.8
 30
0.0
 11
-93.5845850046
 21
-98.8
 31
0.0
  0
LINE
  5
277
330
23
100
AcDbEntity
  8
0
  6
Continuous
 62
     7
370
    25
100
AcDbLine
 10
116.0
 20
-92.5
 30
0.0
 11
84.0
 21
-92.5
 31
0.0
  0
LINE
  5
278
330
23
100
AcDbEntity
  8
0
  6
Continuous
 62
     7
370
    25
100
AcDbLine
 10
84.0
 20
-43.5
 30
0.0
 11
84.0
 21
-92.5
 31
0.0
  0
LINE
  5
279
330
23
100
AcDbEntity
  8
0
  6
Continuous
 62
     7
370
    25
100
AcDbLine
 10
116.0
 20
-43.5
 30
0.0
 11
116.0
 21
-92.5
 31
0.0
  0
LINE
  5
27A
330
23
100
AcDbEntity
  8
0
  6
Continuous
 62
     7
370
    25
100
AcDbLine
 10
115.5
 20
-93.0
 30
0.0
 11
84.5
 21
-93.0
 31
0.0
  0
LINE
  5
27B
330
23
100
AcDbEntity
  8
0
  6
Continuous
 62
     7
370
    25
100
AcDbLine
 10
71.0
 20
-43.0
 30
0.0
 11
129.0
 21
-43.0
 31
0.0
  0
LINE
  5
27C
330
23
100
AcDbEntity
  8
0
  6
Continuous
 62
     7
370
    25
100
AcDbLine
 10
71.4999999517
 20
-43.5
 30
0.0
 11
128.5000000483
 21
-43.5
 31
0.0
  0
LINE
  5
27D
330
23
100
AcDbEntity
  8
0
  6
Continuous
 62
     7
370
    25
100
AcDbLine
 10
71.0
 20
-43.0
 30
0.0
 11
71.0
 21
-30.0
 31
0.0
  0
LINE
  5
27E
330
23
100
AcDbEntity
  8
0
  6
Continuous
 62
     7
370
    25
100
AcDbLine
 10
129.0
 20
-43.0
 30
0.0
 11
129.0
 21
-30.0
 31
0.0
  0
LINE
  5
27F
330
23
100
AcDbEntity
  8
0
  6
Continuous
 62
     7
370
    25
100
AcDbLine
 10
71.0
 20
-30.0
 30
0.0
 11
129.0
 21
-30.0
 31
0.0
  0
LINE
  5
280
330
23
100
AcDbEntity
  8
0
  6
Continuous
 62
     7
370
    25
100
AcDbLine
 10
93.5
 20
-93.3
 30
0.0
 11
93.5
 21
-93.0
 31
0.0
  0
LINE
  5
281
330
23
100
AcDbEntity
  8
0
  6
Continuous
 62
     7
370
    25
100
AcDbLine
 10
106.5
 20
-93.3
 30
0.0
 11
106.5
 21
-93.0
 31
0.0
  0
LINE
  5
282
330
23
100
AcDbEntity
  8
0
  6
Continuous
 62
     7
370
    25
100
AcDbLine
 10
115.35
 20
-109.3
 30
0.0
 11
115.35
 21
-127.3
 31
0.0
  0
LINE
  5
283
330
23
100
AcDbEntity
  8
0
  6
Continuous
 62
     7
370
    25
100
AcDbLine
 10
114.75
 20
-109.9
 30
0.0
 11
114.75
 21
-126.7
 31
0.0
  0
LINE
  5
284
330
23
100
AcDbEntity
  8
0
  6
Continuous
 62
     7
370
    25
100
AcDbLine
 10
115.35
 20
-109.3
 30
0.0
 11
184.55
 21
-109.3
 31
0.0
  0
LINE
  5
285
330
23
100
AcDbEntity
  8
0
  6
Continuous
 62
     7
370
    25
100
AcDbLine
 10
184.55
 20
-109.3
 30
0.0
 11
184.55
 21
-127.3
 31
0.0
  0
LINE
  5
286
330
23
100
AcDbEntity
  8
0
  6
Continuous
 62
     7
370
    25
100
AcDbLine
 10
115.35
 20
-127.3
 30
0.0
 11
184.55
 21
-127.3
 31
0.0
  0
LINE
  5
287
330
23
100
AcDbEntity
  8
0
  6
Continuous
 62
     7
370
    25
100
AcDbLine
 10
184.75
 20
-109.5000003167
 30
0.0
 11
184.75
 21
-127.0999996833
 31
0.0
  0
LINE
  5
288
330
23
100
AcDbEntity
  8
0
  6
Continuous
 62
     7
370
    25
100
AcDbLine
 10
93.4
 20
-97.8432914193
 30
0.0
 11
93.1192820323
 21
-98.0293589092
 31
0.0
  0
LINE
  5
289
330
23
100
AcDbEntity
  8
0
  6
Continuous
 62
     7
370
    25
100
AcDbLine
 10
93.4
 20
-96.7390536154
 30
0.0
 11
93.4
 21
-97.8432914193
 31
0.0
  0
LINE
  5
28A
330
23
100
AcDbEntity
  8
0
  6
Continuous
 62
     7
370
    25
100
AcDbLine
 10
92.9
 20
-100.4339745962
 30
0.0
 11
92.9
 21
-97.1660254038
 31
0.0
  0
LINE
  5
28B
330
23
100
AcDbEntity
  8
0
  6
Continuous
 62
     7
370
    25
100
AcDbLine
 10
92.9
 20
-98.8
 30
0.0
 11
93.096272449
 21
-98.8
 31
0.0
  0
LINE
  5
28C
330
23
100
AcDbEntity
  8
0
  6
Continuous
 62
     7
370
    25
100
AcDbLine
 10
13.0
 20
-28.0
 30
0.0
 11
-13.0
 21
-28.0
 31
0.0
  0
LINE
  5
28D
330
23
100
AcDbEntity
  8
0
  6
Continuous
 62
     7
370
    25
100
AcDbLine
 10
0.0
 20
-28.0
 30
0.0
 11
0.0
 21
-221.0
 31
0.0
  0
LINE
  5
28E
330
23
100
AcDbEntity
  8
0
  6
Continuous
 62
     8
370
    25
100
AcDbLine
 10
-27.5
 20
-38.7
 30
0.0
 11
27.5
 21
-38.7
 31
0.0
  0
LINE
  5
28F
330
23
100
AcDbEntity
  8
0
  6
Continuous
 62
     8
370
    25
100
AcDbLine
 10
13.0
 20
-168.0
 30
0.0
 11
-13.0
 21
-168.0
 31
0.0
  0
ARC
  5
290
330
23
100
AcDbEntity
  8
0
  6
Continuous
 62
     7
370
    25
100
AcDbCircle
 10
-27.2
 20
-38.7
 30
0.0
 40
0.2999999999999868
100
AcDbArc
 50
180.0
 51
269.9999907849
  0
ARC
  5
291
330
23
100
AcDbEntity
  8
0
  6
Continuous
 62
     7
370
    25
100
AcDbCircle
 10
27.2
 20
-38.7
 30
0.0
 40
0.300000000000001
100
AcDbArc
 50
270.0000092151
 51
0.0
  0
ARC
  5
292
330
23
100
AcDbEntity
  8
0
  6
Continuous
 62
     7
370
    25
100
AcDbCircle
 10
-107.75
 20
-110.55
 30
0.0
 40
1.000000000000483
100
AcDbArc
 50
269.9999999998
 51
360.0
  0
ARC
  5
293
330
23
100
AcDbEntity
  8
0
  6
Continuous
 62
     7
370
    25
100
AcDbCircle
 10
-94.25
 20
-124.05
 30
0.0
 40
1.000000000002046
100
AcDbArc
 50
269.9999999998
 51
359.9999999999
  0
ARC
  5
294
330
23
100
AcDbEntity
  8
0
  6
Continuous
 62
     7
370
    25
100
AcDbCircle
 10
107.75
 20
-110.55
 30
0.0
 40
1.000000000000483
100
AcDbArc
 50
180.0
 51
270.0000000002
  0
ARC
  5
295
330
23
100
AcDbEntity
  8
0
  6
Continuous
 62
     7
370
    25
100
AcDbCircle
 10
94.25
 20
-124.05
 30
0.0
 40
1.000000000002046
100
AcDbArc
 50
180.0000000001
 51
270.0000000002
  0
ARC
  5
296
330
23
100
AcDbEntity
  8
0
  6
Continuous
 62
     7
370
    25
100
AcDbCircle
 10
-115.5
 20
-92.5
 30
0.0
 40
0.5
100
AcDbArc
 50
180.0
 51
270.0
  0
ARC
  5
297
330
23
100
AcDbEntity
  8
0
  6
Continuous
 62
     7
370
    25
100
AcDbCircle
 10
-84.5
 20
-92.5
 30
0.0
 40
0.5000000000000426
100
AcDbArc
 50
270.0
 51
360.0
  0
ARC
  5
298
330
23
100
AcDbEntity
  8
0
  6
Continuous
 62
     7
370
    25
100
AcDbCircle
 10
-71.5
 20
-43.0
 30
0.0
 40
0.5000000000000094
100
AcDbArc
 50
270.0000055336
 51
0.0
  0
ARC
  5
299
330
23
100
AcDbEntity
  8
0
  6
Continuous
 62
     7
370
    25
100
AcDbCircle
 10
-128.5
 20
-43.0
 30
0.0
 40
0.5000000000000094
100
AcDbArc
 50
180.0
 51
269.9999944664
  0
ARC
  5
29A
330
23
100
AcDbEntity
  8
0
  6
Continuous
 62
     7
370
    25
100
AcDbCircle
 10
-184.55
 20
-109.5
 30
0.0
 40
0.199999999999747
100
AcDbArc
 50
89.9999999998
 51
180.0000907331
  0
ARC
  5
29B
330
23
100
AcDbEntity
  8
0
  6
Continuous
 62
     7
370
    25
100
AcDbCircle
 10
-184.55
 20
-127.1
 30
0.0
 40
0.1999999999997897
100
AcDbArc
 50
179.9999092669
 51
270.0000000002
  0
ARC
  5
29C
330
23
100
AcDbEntity
  8
0
  6
Continuous
 62
     7
370
    25
100
AcDbCircle
 10
-115.35
 20
-109.9
 30
0.0
 40
0.6000000000000227
100
AcDbArc
 50
0.0
 51
90.0
  0
ARC
  5
29D
330
23
100
AcDbEntity
  8
0
  6
Continuous
 62
     7
370
    25
100
AcDbCircle
 10
-115.35
 20
-126.7
 30
0.0
 40
0.5999999999999943
100
AcDbArc
 50
270.0
 51
0.0
  0
ARC
  5
29E
330
23
100
AcDbEntity
  8
0
  6
Continuous
 62
     7
370
    25
100
AcDbCircle
 10
84.5
 20
-92.5
 30
0.0
 40
0.5000000000000426
100
AcDbArc
 50
180.0
 51
270.0
  0
ARC
  5
29F
330
23
100
AcDbEntity
  8
0
  6
Continuous
 62
     7
370
    25
100
AcDbCircle
 10
115.5
 20
-92.5
 30
0.0
 40
0.5
100
AcDbArc
 50
270.0
 51
0.0
  0
ARC
  5
2A0
330
23
100
AcDbEntity
  8
0
  6
Continuous
 62
     7
370
    25
100
AcDbCircle
 10
128.5
 20
-43.0
 30
0.0
 40
0.5000000000000094
100
AcDbArc
 50
270.0000055336
 51
0.0
  0
ARC
  5
2A1
330
23
100
AcDbEntity
  8
0
  6
Continuous
 62
     7
370
    25
100
AcDbCircle
 10
71.5
 20
-43.0
 30
0.0
 40
0.5000000000000094
100
AcDbArc
 50
180.0
 51
269.9999944664
  0
ARC
  5
2A2
330
23
100
AcDbEntity
  8
0
  6
Continuous
 62
     7
370
    25
100
AcDbCircle
 10
115.35
 20
-126.7
 30
0.0
 40
0.5999999999999943
100
AcDbArc
 50
180.0
 51
270.0
  0
ARC
  5
2A3
330
23
100
AcDbEntity
  8
0
  6
Continuous
 62
     7
370
    25
100
AcDbCircle
 10
115.35
 20
-109.9
 30
0.0
 40
0.6000000000000227
100
AcDbArc
 50
90.0
 51
180.0
  0
ARC
  5
2A4
330
23
100
AcDbEntity
  8
0
  6
Continuous
 62
     7
370
    25
100
AcDbCircle
 10
184.55
 20
-127.1
 30
0.0
 40
0.1999999999997897
100
AcDbArc
 50
269.9999999998
 51
0.0000907331
  0
ARC
  5
2A5
330
23
100
AcDbEntity
  8
0
  6
Continuous
 62
     7
370
    25
100
AcDbCircle
 10
184.55
 20
-109.5
 30
0.0
 40
0.199999999999747
100
AcDbArc
 50
359.9999092669
 51
90.0000000002
  0
ARC
  5
2A6
330
23
100
AcDbEntity
  8
0
  6
Continuous
 62
     7
370
    25
100
AcDbCircle
 10
0.0
 20
-208.0
 30
0.0
 40
13.00000000000004
100
AcDbArc
 50
180.0
 51
0.0
  0
VIEWPORT
  5
42A
330
23
100
AcDbEntity
  8
0
100
AcDbViewport
 10
0.0
 20
0.0
 30
0.0
 40
205.6
 41
156.0
 68
     1
 69
     1
 12
0.0
 22
-21.75
 13
0.0
 23
0.0
 14
10.0
 24
10.0
 15
10.0
 25
10.0
 16
0.0
 26
0.0
 36
1.0
 17
0.0
 27
0.0
 37
0.0
 42
50.0
 43
0.0
 44
0.0
 45
285.9671206226
 50
0.0
 51
0.0
 72
   100
 90
   557152
  1

281
     0
 71
     1
 74
     0
110
0.0
120
0.0
130
0.0
111
1.0
121
0.0
131
0.0
112
0.0
122
1.0
132
0.0
 79
     0
146
0.0
  0
ENDBLK
  5
25
330
23
100
AcDbEntity
  8
0
100
AcDbBlockEnd
  0
BLOCK
  5
2A9
330
2A7
100
AcDbEntity
  8
0
100
AcDbBlockBegin
  2
*Paper_Space1
 70
     0
 10
0.0
 20
0.0
 30
0.0
  3
*Paper_Space1
  1

  0
SPLINE
  5
2AD
330
2A7
100
AcDbEntity
  8
0
  6
Continuous
 62
     7
370
    25
100
AcDbSpline
210
0.0
220
0.0
230
1.0
 70
     8
 71
     3
 72
    12
 73
     8
 74
     0
 42
0.000000001
 43
0.00000001
 40
0.0
 40
0.0
 40
0.0
 40
0.0
 40
0.3558252567380608
 40
0.5476308635392179
 40
0.7435857710019987
 40
0.9395389457835507
 40
1.0
 40
1.0
 40
1.0
 40
1.0
 10
-154.8683035476375
 20
-14.97149774854851
 30
0.0
 10
-154.751581739405
 20
-15.02417161076698
 30
0.0
 10
-154.5719416957999
 20
-15.10523902266765
 30
0.0
 10
-154.3038273871993
 20
-15.11481926731759
 30
0.0
 10
-154.0990910086648
 20
-15.08023280988599
 30
0.0
 10
-153.9441591503891
 20
-15.02748757222985
 30
0.0
 10
-153.8686935014173
 20
-14.97608400727453
 30
0.0
 10
-153.8508991196008
 20
-14.96396333152331
 30
0.0
  0
SPLINE
  5
2B0
330
2A7
100
AcDbEntity
  8
0
  6
Continuous
 62
     7
370
    25
100
AcDbSpline
210
0.0
220
0.0
230
1.0
 70
     8
 71
     3
 72
    12
 73
     8
 74
     0
 42
0.000000001
 43
0.00000001
 40
0.0
 40
0.0
 40
0.0
 40
0.0
 40
0.3653094213617044
 40
0.5621378858429676
 40
0.763203716628953
 40
0.9642757811444401
 40
1.0
 40
1.0
 40
1.0
 40
1.0
 10
-153.8552430293191
 20
0.6160992746848115
 30
0.0
 10
-153.9722427069509
 20
0.5634251580777794
 30
0.0
 10
-154.1522817302618
 20
0.4823702637426208
 30
0.0
 10
-154.421109131282
 20
0.4729522789396201
 30
0.0
 10
-154.6258601033516
 20
0.5084571345274347
 30
0.0
 10
-154.7730138221872
 20
0.5571208343181228
 30
0.0
 10
-154.8412180712529
 20
0.6030531170465175
 30
0.0
 10
-154.8515076901853
 20
0.6099826807093034
 30
0.0
  0
SPLINE
  5
2B4
330
2A7
100
AcDbEntity
  8
0
  6
Continuous
 62
     7
370
    25
100
AcDbSpline
210
0.0
220
0.0
230
1.0
 70
     8
 71
     3
 72
    12
 73
     8
 74
     0
 42
0.000000001
 43
0.00000001
 40
0.0
 40
0.0
 40
0.0
 40
0.0
 40
0.1563689543509467
 40
0.349781311828136
 40
0.5439628678130801
 40
0.7608754219374274
 40
0.9999999999999999
 40
0.9999999999999999
 40
0.9999999999999999
 40
0.9999999999999999
 10
-18.72821347797309
 20
-84.70362250310933
 30
0.0
 10
-19.01783193680967
 20
-84.85036303185461
 30
0.0
 10
-19.66567872252234
 20
-85.17860654320847
 30
0.0
 10
-20.53076060098974
 20
-85.8612919198046
 30
0.0
 10
-21.33361729925719
 20
-86.7501046905148
 30
0.0
 10
-21.95611646923866
 20
-87.8715108360301
 30
0.0
 10
-22.03154051464742
 20
-88.73146281662211
 30
0.0
 10
-22.07108936223284
 20
-89.18238148091382
 30
0.0
  0
SPLINE
  5
2B5
330
2A7
100
AcDbEntity
  8
0
  6
Continuous
 62
     7
370
    25
100
AcDbSpline
210
0.0
220
0.0
230
1.0
 70
     8
 71
     3
 72
    11
 73
     7
 74
     0
 42
0.000000001
 43
0.00000001
 40
0.0
 40
0.0
 40
0.0
 40
0.0
 40
0.2230911678317576
 40
0.4654695582462211
 40
0.7245092204666403
 40
1.0
 40
1.0
 40
1.0
 40
1.0
 10
-22.07108960064503
 20
-89.03952484992944
 30
0.0
 10
-22.04098156665918
 20
-89.43725077071089
 30
0.0
 10
-21.9781625253889
 20
-90.26708778509608
 30
0.0
 10
-21.37221980239137
 20
-91.4359965682222
 30
0.0
 10
-20.42273044181932
 20
-92.50985918099313
 30
0.0
 10
-19.56392647216564
 20
-93.05515380807412
 30
0.0
 10
-19.12130888374543
 20
-93.33619232366738
 30
0.0
  0
SPLINE
  5
2B9
330
2A7
100
AcDbEntity
  8
0
  6
Continuous
 62
     7
370
    25
100
AcDbSpline
210
0.0
220
0.0
230
1.0
 70
     8
 71
     3
 72
    14
 73
    10
 74
     0
 42
0.000000001
 43
0.00000001
 40
0.0
 40
0.0
 40
0.0
 40
0.0
 40
0.0725627048801602
 40
0.2494239346883065
 40
0.4263533305114626
 40
0.6034291990444242
 40
0.7807393947838244
 40
0.9490537629262279
 40
1.0
 40
1.0
 40
1.0
 40
1.0
 10
-147.5740129198218
 20
-151.273599162827
 30
0.0
 10
-147.3230129603707
 20
-151.2839239221437
 30
0.0
 10
-146.4602364473357
 20
-151.3194138077225
 30
0.0
 10
-144.9825782748348
 20
-151.2170690000034
 30
0.0
 10
-143.1889311646818
 20
-150.9714384821496
 30
0.0
 10
-141.4729243404756
 20
-150.5674850773573
 30
0.0
 10
-139.9003779117142
 20
-150.0326082683993
 30
0.0
 10
-138.8101766208068
 20
-149.5333981417433
 30
0.0
 10
-138.2589074015076
 20
-149.2233561298618
 30
0.0
 10
-138.1308173950506
 20
-149.1513164042367
 30
0.0
  0
SPLINE
  5
2BA
330
2A7
100
AcDbEntity
  8
0
  6
Continuous
 62
     7
370
    25
100
AcDbSpline
210
0.0
220
0.0
230
1.0
 70
     8
 71
     3
 72
    15
 73
    11
 74
     0
 42
0.000000001
 43
0.00000001
 40
0.0
 40
0.0
 40
0.0
 40
0.0
 40
0.0323308302329488
 40
0.1785451984658306
 40
0.3255363535017963
 40
0.4727107354209251
 40
0.6197755860155817
 40
0.7666877250473724
 40
0.9134758286209873
 40
1.0
 40
1.0
 40
1.0
 40
1.0
 10
-157.9663128766901
 20
-147.6903541740121
 30
0.0
 10
-157.9008286648615
 20
-147.7616684737427
 30
0.0
 10
-157.5391957741166
 20
-148.1554976982663
 30
0.0
 10
-156.6626444126689
 20
-148.7831238944707
 30
0.0
 10
-155.3520481181138
 20
-149.5506878571339
 30
0.0
 10
-153.8502572324605
 20
-150.1886719048681
 30
0.0
 10
-152.2144708779418
 20
-150.69594130693
 30
0.0
 10
-150.4722185532997
 20
-151.0515382148629
 30
0.0
 10
-148.910744530633
 20
-151.2509786510415
 30
0.0
 10
-147.9356339805487
 20
-151.2674797194025
 30
0.0
 10
-147.5740129198218
 20
-151.273599162827
 30
0.0
  0
SPLINE
  5
2BB
330
2A7
100
AcDbEntity
  8
0
  6
Continuous
 62
     7
370
    25
100
AcDbSpline
210
0.0
220
0.0
230
1.0
 70
     8
 71
     3
 72
    10
 73
     6
 74
     0
 42
0.000000001
 43
0.00000001
 40
0.0
 40
0.0
 40
0.0
 40
0.0
 40
0.3071761615432021
 40
0.8907716120825979
 40
1.0
 40
1.0
 40
1.0
 40
1.0
 10
-138.1308173950506
 20
-149.1513164042368
 30
0.0
 10
-137.9047122997582
 20
-149.0131382651725
 30
0.0
 10
-137.2490364191107
 20
-148.6124393207282
 30
0.0
 10
-136.5726297658541
 20
-148.1203472277921
 30
0.0
 10
-136.2225900475603
 20
-147.731820890171
 30
0.0
 10
-136.1674039064173
 20
-147.6705670718608
 30
0.0
  0
SPLINE
  5
2BD
330
2A7
100
AcDbEntity
  8
0
  6
Continuous
 62
     7
370
    25
100
AcDbSpline
210
0.0
220
0.0
230
1.0
 70
     8
 71
     3
 72
    13
 73
     9
 74
     0
 42
0.000000001
 43
0.00000001
 40
0.0
 40
0.0
 40
0.0
 40
0.0
 40
0.150106438555933
 40
0.3414625511746869
 40
0.5330682389380876
 40
0.7258252185998094
 40
0.9210897677880211
 40
1.0
 40
1.0
 40
1.0
 40
1.0
 10
-18.03417091981005
 20
-21.97986493505202
 30
0.0
 10
-18.05984714891873
 20
-22.35446750678764
 30
0.0
 10
-18.11825550754971
 20
-23.20661449696341
 30
0.0
 10
-18.41834960825263
 20
-24.36381681229362
 30
0.0
 10
-18.88338138987482
 20
-25.45474400970624
 30
0.0
 10
-19.51496236132812
 20
-26.33676741142185
 30
0.0
 10
-20.10798882287372
 20
-26.92012993131542
 30
0.0
 10
-20.53441706498142
 20
-27.12833049857101
 30
0.0
 10
-20.6571473592653
 20
-27.18825269500681
 30
0.0
  0
SPLINE
  5
2C0
330
2A7
100
AcDbEntity
  8
0
  6
Continuous
 62
     7
370
    25
100
AcDbSpline
210
0.0
220
0.0
230
1.0
 70
     8
 71
     3
 72
    13
 73
     9
 74
     0
 42
0.000000001
 43
0.00000001
 40
0.0
 40
0.0
 40
0.0
 40
0.0
 40
0.1122638621242986
 40
0.3001731116647215
 40
0.4858155889412844
 40
0.6685409520875986
 40
0.8494426780700066
 40
1.0
 40
1.0
 40
1.0
 40
1.0
 10
-33.79007479209896
 20
-4.243459610167435
 30
0.0
 10
-33.6111808203745
 20
-4.139493556604229
 30
0.0
 10
-33.13285093634524
 20
-3.861507273083959
 30
0.0
 10
-32.21512293577941
 20
-3.667479136956864
 30
0.0
 10
-31.06986508866681
 20
-3.644662167416643
 30
0.0
 10
-29.84151582665508
 20
-3.875054098853747
 30
0.0
 10
-28.63406204823563
 20
-4.297257722740574
 30
0.0
 10
-27.83606278352571
 20
-4.726480341417039
 30
0.0
 10
-27.47359075884115
 20
-4.921444420348392
 30
0.0
  0
SPLINE
  5
2C1
330
2A7
100
AcDbEntity
  8
0
  6
Continuous
 62
     7
370
    25
100
AcDbSpline
210
0.0
220
0.0
230
1.0
 70
     8
 71
     3
 72
    10
 73
     6
 74
     0
 42
0.000000001
 43
0.00000001
 40
0.0
 40
0.0
 40
0.0
 40
0.0
 40
0.0552757035532659
 40
0.5729903714469583
 40
1.0
 40
1.0
 40
1.0
 40
1.0
 10
-147.2149471542149
 20
12.432123063046
 30
0.0
 10
-147.230878679919
 20
12.38287530890272
 30
0.0
 10
-147.3960255752834
 20
11.87237092586413
 30
0.0
 10
-147.5291901035052
 20
10.85486866055468
 30
0.0
 10
-147.5629508396637
 20
9.845101770645279
 30
0.0
 10
-147.5782104868019
 20
9.388693285961313
 30
0.0
  0
SPLINE
  5
2C3
330
2A7
100
AcDbEntity
  8
0
  6
Continuous
 62
     7
370
    25
100
AcDbSpline
210
0.0
220
0.0
230
1.0
 70
     8
 71
     3
 72
    13
 73
     9
 74
     0
 42
0.000000001
 43
0.00000001
 40
0.0
 40
0.0
 40
0.0
 40
0.0
 40
0.0240110591753028
 40
0.2449756068922386
 40
0.4662077507275109
 40
0.6877380260586835
 40
0.9095260135440193
 40
1.0
 40
1.0
 40
1.0
 40
1.0
 10
-140.162434540852
 20
-7.067257486569618
 30
0.0
 10
-140.1137589530395
 20
-7.11916530014596
 30
0.0
 10
-139.6171406415293
 20
-7.648760768653854
 30
0.0
 10
-138.6069621564141
 20
-8.499605642875995
 30
0.0
 10
-137.1538944158094
 20
-9.585573322953755
 30
0.0
 10
-135.6745248106169
 20
-10.4314814535227
 30
0.0
 10
-134.4839551605312
 20
-10.97849689691783
 30
0.0
 10
-133.8055888222346
 20
-11.15090406096035
 30
0.0
 10
-133.6090406926991
 20
-11.20085687214521
 30
0.0
  0
SPLINE
  5
2C4
330
2A7
100
AcDbEntity
  8
0
  6
Continuous
 62
     7
370
    25
100
AcDbSpline
210
0.0
220
0.0
230
1.0
 70
     8
 71
     3
 72
    11
 73
     7
 74
     0
 42
0.000000001
 43
0.00000001
 40
0.0
 40
0.0
 40
0.0
 40
0.0
 40
0.1997639221123816
 40
0.5785949380299944
 40
0.9572966791619802
 40
1.0
 40
1.0
 40
1.0
 40
1.0
 10
-147.5782104868019
 20
9.388693285961313
 30
0.0
 10
-147.5732052202065
 20
9.086876309919404
 30
0.0
 10
-147.5587079982609
 20
8.21269556345247
 30
0.0
 10
-147.3742915165229
 20
6.694541786241487
 30
0.0
 10
-147.1439572775461
 20
5.392802633332083
 30
0.0
 10
-146.9330208070108
 20
4.695229943727522
 30
0.0
 10
-146.9116454401948
 20
4.624541019791096
 30
0.0
  0
SPLINE
  5
2C6
330
2A7
100
AcDbEntity
  8
0
  6
Continuous
 62
     7
370
    25
100
AcDbSpline
210
0.0
220
0.0
230
1.0
 70
     8
 71
     3
 72
    11
 73
     7
 74
     0
 42
0.000000001
 43
0.00000001
 40
0.0
 40
0.0
 40
0.0
 40
0.0
 40
0.1085822498058017
 40
0.4944882400072851
 40
0.880942506227092
 40
1.0
 40
1.0
 40
1.0
 40
1.0
 10
-121.116817088271
 20
40.37071413142038
 30
0.0
 10
-121.1680128757932
 20
40.19348387952562
 30
0.0
 10
-121.4011606961125
 20
39.38636968275551
 30
0.0
 10
-121.6280810044249
 20
37.79525266033748
 30
0.0
 10
-121.7596140292172
 20
36.12271108030451
 30
0.0
 10
-121.7670594397667
 20
35.13424829262396
 30
0.0
 10
-121.7688129734928
 20
34.90144678036889
 30
0.0
  0
SPLINE
  5
2C8
330
2A7
100
AcDbEntity
  8
0
  6
Continuous
 62
     7
370
    25
100
AcDbSpline
210
0.0
220
0.0
230
1.0
 70
     8
 71
     3
 72
    27
 73
    23
 74
     0
 42
0.000000001
 43
0.00000001
 40
0.0
 40
0.0
 40
0.0
 40
0.0
 40
0.0162755564959173
 40
0.0726545227213947
 40
0.1285795674232417
 40
0.1833916515254817
 40
0.237314279546853
 40
0.2907660286310614
 40
0.3440453323447835
 40
0.3972979153091304
 40
0.4505883908413179
 40
0.5039478630813988
 40
0.5573764451515187
 40
0.6108599753038433
 40
0.6643782690786829
 40
0.7179087996836643
 40
0.7714242563403019
 40
0.8248968447283144
 40
0.8783029145414812
 40
0.9316205991768469
 40
0.9848338732101005
 40
1.0
 40
1.0
 40
1.0
 40
1.0
 10
-108.9750639393532
 20
37.46338545698731
 30
0.0
 10
-108.8837792151676
 20
37.5237127062511
 30
0.0
 10
-108.4762817468552
 20
37.79301517240362
 30
0.0
 10
-107.6239794488981
 20
38.04252093611167
 30
0.0
 10
-106.4250431101857
 20
38.19658968249434
 30
0.0
 10
-105.1229495191065
 20
38.09473542885502
 30
0.0
 10
-103.7568063642096
 20
37.76208120998179
 30
0.0
 10
-102.3446198209606
 20
37.19986857402758
 30
0.0
 10
-100.9078235081524
 20
36.4173388396247
 30
0.0
 10
-99.46856289849808
 20
35.42469123900922
 30
0.0
 10
-98.05052233954405
 20
34.23633368051335
 30
0.0
 10
-96.67750686242438
 20
32.87024171726657
 30
0.0
 10
-95.3727956289418
 20
31.34783272980096
 30
0.0
 10
-94.15860742296232
 20
29.69362091847187
 30
0.0
 10
-93.05554265800863
 20
27.93468315210659
 30
0.0
 10
-92.0821933772662
 20
26.10017105058338
 30
0.0
 10
-91.25470975356065
 20
24.22074280421839
 30
0.0
 10
-90.5866788311176
 20
22.32816786647448
 30
0.0
 10
-90.08794498930905
 20
20.45405656269944
 30
0.0
 10
-89.76759897105008
 20
18.63179990697654
 30
0.0
 10
-89.65631297244563
 20
17.3013870262642
 30
0.0
 10
-89.64948210099092
 20
16.58835854339744
 30
0.0
 10
-89.64796705608967
 20
16.43021325043217
 30
0.0
  0
SPLINE
  5
2C9
330
2A7
100
AcDbEntity
  8
0
  6
Continuous
 62
     7
370
    25
100
AcDbSpline
210
0.0
220
0.0
230
1.0
 70
     8
 71
     3
 72
    13
 73
     9
 74
     0
 42
0.000000001
 43
0.00000001
 40
0.0
 40
0.0
 40
0.0
 40
0.0
 40
0.0512172429504478
 40
0.2675079581622006
 40
0.4839114449147673
 40
0.7004145934873466
 40
0.9169701054906018
 40
1.0
 40
1.0
 40
1.0
 40
1.0
 10
-105.3603826061671
 20
2.342848785528873
 30
0.0
 10
-105.2092828189827
 20
2.214777625842504
 30
0.0
 10
-104.4200877506823
 20
1.545861213057276
 30
0.0
 10
-102.9542927310813
 20
0.5261403900508055
 30
0.0
 10
-100.982073047132
 20
-0.6962748876038899
 30
0.0
 10
-99.00756304328792
 20
-1.668940765995455
 30
0.0
 10
-97.4445963748482
 20
-2.308954866625898
 30
0.0
 10
-96.55945251662855
 20
-2.536278051738603
 30
0.0
 10
-96.3141354899111
 20
-2.599280520046932
 30
0.0
  0
SPLINE
  5
2CA
330
2A7
100
AcDbEntity
  8
0
  6
Continuous
 62
     7
370
    25
100
AcDbSpline
210
0.0
220
0.0
230
1.0
 70
     8
 71
     3
 72
    10
 73
     6
 74
     0
 42
0.000000001
 43
0.00000001
 40
0.0
 40
0.0
 40
0.0
 40
0.0
 40
0.2582985970596754
 40
0.7486414328961604
 40
1.0
 40
1.0
 40
1.0
 40
1.0
 10
-121.7688129734928
 20
34.90144678036889
 30
0.0
 10
-121.7628542386687
 20
34.49843923583681
 30
0.0
 10
-121.7455837005096
 20
33.33037967592858
 30
0.0
 10
-121.6283578953516
 20
31.71776137590889
 30
0.0
 10
-121.4230839369102
 20
30.47932433701683
 30
0.0
 10
-121.3535177100526
 20
30.05962476747285
 30
0.0
  0
SPLINE
  5
2CC
330
2A7
100
AcDbEntity
  8
0
  6
Continuous
 62
     7
370
    25
100
AcDbSpline
210
0.0
220
0.0
230
1.0
 70
     8
 71
     3
 72
    14
 73
    10
 74
     0
 42
0.000000001
 43
0.00000001
 40
0.0
 40
0.0
 40
0.0
 40
0.0
 40
0.0832434212710559
 40
0.2420297207767907
 40
0.4007808380130777
 40
0.5598529218291588
 40
0.7200753405747813
 40
0.8826812954707737
 40
1.0
 40
1.0
 40
1.0
 40
1.0
 10
-89.64796705608967
 20
16.43021325043216
 30
0.0
 10
-89.65288911550059
 20
16.14526260457821
 30
0.0
 10
-89.6671999721026
 20
15.31677040425607
 30
0.0
 10
-89.82562770154922
 20
14.04144231208919
 30
0.0
 10
-90.17516927867665
 20
12.67753110302868
 30
0.0
 10
-90.68579556808507
 20
11.48988782251845
 30
0.0
 10
-91.34957983724786
 20
10.49949394767981
 30
0.0
 10
-92.06068338696075
 20
9.759687330845368
 30
0.0
 10
-92.60505911158798
 20
9.447598373989285
 30
0.0
 10
-92.83321141128734
 20
9.316799350454112
 30
0.0
  0
SPLINE
  5
2CD
330
2A7
100
AcDbEntity
  8
0
  6
Continuous
 62
     7
370
    25
100
AcDbSpline
210
0.0
220
0.0
230
1.0
 70
     8
 71
     3
 72
    13
 73
     9
 74
     0
 42
0.000000001
 43
0.00000001
 40
0.0
 40
0.0
 40
0.0
 40
0.0
 40
0.011830389979877
 40
0.233275613205681
 40
0.4545481933354789
 40
0.6725088398633072
 40
0.8845842377352655
 40
1.0
 40
1.0
 40
1.0
 40
1.0
 10
-158.7007628840648
 20
2.828938195358177
 30
0.0
 10
-158.7016441393991
 20
2.851700147091518
 30
0.0
 10
-158.7190210288219
 20
3.300527975876849
 30
0.0
 10
-158.8840813276198
 20
4.103013747805473
 30
0.0
 10
-159.2830173758677
 20
5.148705542411563
 30
0.0
 10
-159.8927236968583
 20
5.983920685078359
 30
0.0
 10
-160.5365305682594
 20
6.542286865429848
 30
0.0
 10
-161.010355884678
 20
6.71604656650096
 30
0.0
 10
-161.1773433235206
 20
6.777283664753164
 30
0.0
  0
SPLINE
  5
2CF
330
2A7
100
AcDbEntity
  8
0
  6
Continuous
 62
     7
370
    25
100
AcDbSpline
210
0.0
220
0.0
230
1.0
 70
     8
 71
     3
 72
    12
 73
     8
 74
     0
 42
0.000000001
 43
0.00000001
 40
0.0
 40
0.0
 40
0.0
 40
0.0
 40
0.1176671594361875
 40
0.3820287345110591
 40
0.6503427326346453
 40
0.9252015239262945
 40
1.0
 40
1.0
 40
1.0
 40
1.0
 10
-169.2536555249525
 20
-9.185687594630037
 30
0.0
 10
-169.1256767231338
 20
-9.244428874163782
 30
0.0
 10
-168.710169287267
 20
-9.435143571377251
 30
0.0
 10
-167.8961221063678
 20
-9.50625473634073
 30
0.0
 10
-166.8561057258772
 20
-9.388910104268836
 30
0.0
 10
-166.0324414735815
 20
-9.158700642727162
 30
0.0
 10
-165.5677162351194
 20
-8.906277570364864
 30
0.0
 10
-165.4683024866454
 20
-8.852279375844818
 30
0.0
  0
SPLINE
  5
2D1
330
2A7
100
AcDbEntity
  8
0
  6
Continuous
 62
     7
370
    25
100
AcDbSpline
210
0.0
220
0.0
230
1.0
 70
     8
 71
     3
 72
    10
 73
     6
 74
     0
 42
0.000000001
 43
0.00000001
 40
0.0
 40
0.0
 40
0.0
 40
0.0
 40
0.0552757035534071
 40
0.5729903714470376
 40
1.0
 40
1.0
 40
1.0
 40
1.0
 10
-5.793590916905512
 20
-69.20868811922479
 30
0.0
 10
-5.809522442609641
 20
-69.2579358733682
 30
0.0
 10
-5.974669337974039
 20
-69.76844025640692
 30
0.0
 10
-6.107833866196025
 20
-70.78594252171646
 30
0.0
 10
-6.141594602354389
 20
-71.79570941162581
 30
0.0
 10
-6.156854249492596
 20
-72.25211789630974
 30
0.0
  0
SPLINE
  5
2D3
330
2A7
100
AcDbEntity
  8
0
  6
Continuous
 62
     7
370
    25
100
AcDbSpline
210
0.0
220
0.0
230
1.0
 70
     8
 71
     3
 72
    11
 73
     7
 74
     0
 42
0.000000001
 43
0.00000001
 40
0.0
 40
0.0
 40
0.0
 40
0.0
 40
0.1997639221123821
 40
0.578594938029996
 40
0.9572966791619834
 40
1.0
 40
1.0
 40
1.0
 40
1.0
 10
-6.156854249492596
 20
-72.25211789630976
 30
0.0
 10
-6.151848982897196
 20
-72.55393487235165
 30
0.0
 10
-6.137351760951606
 20
-73.42811561881857
 30
0.0
 10
-5.952935279213659
 20
-74.94626939602959
 30
0.0
 10
-5.722601040236864
 20
-76.24800854893901
 30
0.0
 10
-5.51166456970148
 20
-76.94558123854353
 30
0.0
 10
-5.490289202885523
 20
-77.01627016247994
 30
0.0
  0
SPLINE
  5
2D5
330
2A7
100
AcDbEntity
  8
0
  6
Continuous
 62
     7
370
    25
100
AcDbSpline
210
0.0
220
0.0
230
1.0
 70
     8
 71
     3
 72
    11
 73
     7
 74
     0
 42
0.000000001
 43
0.00000001
 40
0.0
 40
0.0
 40
0.0
 40
0.0
 40
0.1085822498059631
 40
0.4944882400074294
 40
0.8809425062272026
 40
1.0
 40
1.0
 40
1.0
 40
1.0
 10
20.3045391490382
 20
-41.27009705085083
 30
0.0
 10
20.25334336151601
 20
-41.44732730274588
 30
0.0
 10
20.02019554119659
 20
-42.25444149951618
 30
0.0
 10
19.79327523288436
 20
-43.84555852193446
 30
0.0
 10
19.66174220809195
 20
-45.51810010196701
 30
0.0
 10
19.65429679754263
 20
-46.5065628896473
 30
0.0
 10
19.65254326381646
 20
-46.73936440190215
 30
0.0
  0
SPLINE
  5
2D7
330
2A7
100
AcDbEntity
  8
0
  6
Continuous
 62
     7
370
    25
100
AcDbSpline
210
0.0
220
0.0
230
1.0
 70
     8
 71
     3
 72
    27
 73
    23
 74
     0
 42
0.000000001
 43
0.00000001
 40
0.0
 40
0.0
 40
0.0
 40
0.0
 40
0.0162755564959173
 40
0.0726545227213947
 40
0.1285795674232417
 40
0.1833916515254817
 40
0.237314279546853
 40
0.2907660286310614
 40
0.3440453323447835
 40
0.3972979153091304
 40
0.4505883908413179
 40
0.5039478630813988
 40
0.5573764451515187
 40
0.6108599753038433
 40
0.6643782690786829
 40
0.7179087996836643
 40
0.7714242563403019
 40
0.8248968447283144
 40
0.8783029145414812
 40
0.9316205991768469
 40
0.9848338732101005
 40
1.0
 40
1.0
 40
1.0
 40
1.0
 10
32.44629229795608
 20
-44.17742572528373
 30
0.0
 10
32.5375770221417
 20
-44.11709847601993
 30
0.0
 10
32.94507449045404
 20
-43.84779600986738
 30
0.0
 10
33.79737678841124
 20
-43.59829024615938
 30
0.0
 10
34.99631312712359
 20
-43.4442214997767
 30
0.0
 10
36.29840671820276
 20
-43.54607575341601
 30
0.0
 10
37.66454987309968
 20
-43.87872997228926
 30
0.0
 10
39.07673641634872
 20
-44.4409426082435
 30
0.0
 10
40.51353272915685
 20
-45.22347234264632
 30
0.0
 10
41.95279333881123
 20
-46.21611994326182
 30
0.0
 10
43.37083389776524
 20
-47.40447750175768
 30
0.0
 10
44.74384937488489
 20
-48.77056946500445
 30
0.0
 10
46.04856060836742
 20
-50.29297845247005
 30
0.0
 10
47.26274881434701
 20
-51.9471902637992
 30
0.0
 10
48.36581357930063
 20
-53.70612803016444
 30
0.0
 10
49.33916286004304
 20
-55.54064013168765
 30
0.0
 10
50.16664648374868
 20
-57.42006837805266
 30
0.0
 10
50.83467740619167
 20
-59.31264331579656
 30
0.0
 10
51.33341124800021
 20
-61.18675461957159
 30
0.0
 10
51.65375726625925
 20
-63.00901127529451
 30
0.0
 10
51.76504326486366
 20
-64.33942415600686
 30
0.0
 10
51.77187413631838
 20
-65.05245263887362
 30
0.0
 10
51.77338918121964
 20
-65.21059793183888
 30
0.0
  0
SPLINE
  5
2D8
330
2A7
100
AcDbEntity
  8
0
  6
Continuous
 62
     7
370
    25
100
AcDbSpline
210
0.0
220
0.0
230
1.0
 70
     8
 71
     3
 72
    13
 73
     9
 74
     0
 42
0.000000001
 43
0.00000001
 40
0.0
 40
0.0
 40
0.0
 40
0.0
 40
0.051217242950387
 40
0.2675079581620727
 40
0.4839114449145946
 40
0.7004145934871167
 40
0.9169701054903191
 40
1.0
 40
1.0
 40
1.0
 40
1.0
 10
36.06097363114215
 20
-79.2979623967422
 30
0.0
 10
36.2120734183264
 20
-79.42603355642844
 30
0.0
 10
37.00126848662659
 20
-80.09494996921349
 30
0.0
 10
38.46706350622749
 20
-81.11467079221993
 30
0.0
 10
40.43928319017663
 20
-82.3370860698746
 30
0.0
 10
42.41379319402082
 20
-83.30975194826622
 30
0.0
 10
43.9767598624614
 20
-83.94976604889706
 30
0.0
 10
44.86190372068192
 20
-84.17708923400998
 30
0.0
 10
45.1072207474003
 20
-84.24009170231854
 30
0.0
  0
SPLINE
  5
2D9
330
2A7
100
AcDbEntity
  8
0
  6
Continuous
 62
     7
370
    25
100
AcDbSpline
210
0.0
220
0.0
230
1.0
 70
     8
 71
     3
 72
    10
 73
     6
 74
     0
 42
0.000000001
 43
0.00000001
 40
0.0
 40
0.0
 40
0.0
 40
0.0
 40
0.2582985970596755
 40
0.7486414328959762
 40
1.0
 40
1.0
 40
1.0
 40
1.0
 10
19.65254326381646
 20
-46.73936440190217
 30
0.0
 10
19.65850199864054
 20
-47.1423719464342
 30
0.0
 10
19.67577253679958
 20
-48.31043150634213
 30
0.0
 10
19.79299834195771
 20
-49.92304980636188
 30
0.0
 10
19.99827230039907
 20
-51.1614868452539
 30
0.0
 10
20.06783852725674
 20
-51.58118641479818
 30
0.0
  0
SPLINE
  5
2DB
330
2A7
100
AcDbEntity
  8
0
  6
Continuous
 62
     7
370
    25
100
AcDbSpline
210
0.0
220
0.0
230
1.0
 70
     8
 71
     3
 72
    14
 73
    10
 74
     0
 42
0.000000001
 43
0.00000001
 40
0.0
 40
0.0
 40
0.0
 40
0.0
 40
0.0832434212710559
 40
0.2420297207767907
 40
0.4007808380130777
 40
0.5598529218291588
 40
0.7200753405747813
 40
0.8826812954707737
 40
1.0
 40
1.0
 40
1.0
 40
1.0
 10
51.77338918121964
 20
-65.21059793183889
 30
0.0
 10
51.76846712180873
 20
-65.49554857769284
 30
0.0
 10
51.75415626520672
 20
-66.32404077801499
 30
0.0
 10
51.59572853575996
 20
-67.5993688701818
 30
0.0
 10
51.24618695863268
 20
-68.96328007924241
 30
0.0
 10
50.73556066922421
 20
-70.1509233597526
 30
0.0
 10
50.07177640006142
 20
-71.14131723459121
 30
0.0
 10
49.36067285034855
 20
-71.88112385142567
 30
0.0
 10
48.81629712572132
 20
-72.19321280828176
 30
0.0
 10
48.58814482602193
 20
-72.32401183181693
 30
0.0
  0
SPLINE
  5
2DF
330
2A7
100
AcDbEntity
  8
0
  6
Continuous
 62
     7
370
    25
100
AcDbSpline
210
0.0
220
0.0
230
1.0
 70
     8
 71
     3
 72
    22
 73
    18
 74
     0
 42
0.000000001
 43
0.00000001
 40
0.0
 40
0.0
 40
0.0
 40
0.0
 40
0.006260487911678
 40
0.0758689773999797
 40
0.1451564504321572
 40
0.2154798281918579
 40
0.2875185542581529
 40
0.3608211203686142
 40
0.434623298606779
 40
0.5083868358269295
 40
0.5820154316939795
 40
0.6555421621003241
 40
0.7290408823120827
 40
0.8025902895328638
 40
0.8762615090742305
 40
0.9501477184824029
 40
1.0
 40
1.0
 40
1.0
 40
1.0
 10
2.509280283974111
 20
-87.65282348184164
 30
0.0
 10
2.487118877879988
 20
-87.63468228858157
 30
0.0
 10
2.218551436838884
 20
-87.41483460244675
 30
0.0
 10
1.568929711449049
 20
-87.20785486257508
 30
0.0
 10
0.6015078800549467
 20
-87.06486665265426
 30
0.0
 10
-0.4475549579945892
 20
-87.18545659164259
 30
0.0
 10
-1.540335352072389
 20
-87.53713596381726
 30
0.0
 10
-2.656444833397511
 20
-88.12354367637933
 30
0.0
 10
-3.759249038713206
 20
-88.92622558795705
 30
0.0
 10
-4.813637995958145
 20
-89.91926360419635
 30
0.0
 10
-5.787897636560402
 20
-91.07045029051774
 30
0.0
 10
-6.654832223183319
 20
-92.34544410339979
 30
0.0
 10
-7.389913685680968
 20
-93.70727128526887
 30
0.0
 10
-7.973128511558597
 20
-95.11783435765834
 30
0.0
 10
-8.38313465465175
 20
-96.53571684875759
 30
0.0
 10
-8.594808544401895
 20
-97.776725957891
 30
0.0
 10
-8.616801394785433
 20
-98.51026175777737
 30
0.0
 10
-8.625661966467622
 20
-98.80579173333774
 30
0.0
  0
SPLINE
  5
2E0
330
2A7
100
AcDbEntity
  8
0
  6
Continuous
 62
     7
370
    25
100
AcDbSpline
210
0.0
220
0.0
230
1.0
 70
     8
 71
     3
 72
    12
 73
     8
 74
     0
 42
0.000000001
 43
0.00000001
 40
0.0
 40
0.0
 40
0.0
 40
0.0
 40
0.1232216975938653
 40
0.3571275891028004
 40
0.5908511229309689
 40
0.8210763614674561
 40
1.0
 40
1.0
 40
1.0
 40
1.0
 10
-8.625661966467607
 20
-98.80579173333774
 30
0.0
 10
-8.620074692115065
 20
-99.03191035903062
 30
0.0
 10
-8.60388136043612
 20
-99.68725922389606
 30
0.0
 10
-8.424005159595238
 20
-100.6889673478854
 30
0.0
 10
-8.012988664308427
 20
-101.7222796356126
 30
0.0
 10
-7.462243952193984
 20
-102.5326737329836
 30
0.0
 10
-6.978954986712971
 20
-102.8798672676112
 30
0.0
 10
-6.767609373874106
 20
-103.0316974056665
 30
0.0
  0
SPLINE
  5
2E1
330
2A7
100
AcDbEntity
  8
0
  6
Continuous
 62
     7
370
    25
100
AcDbSpline
210
0.0
220
0.0
230
1.0
 70
     8
 71
     3
 72
    27
 73
    23
 74
     0
 42
0.000000001
 43
0.00000001
 40
0.0
 40
0.0
 40
0.0
 40
0.0
 40
0.0267068396877862
 40
0.0774370730906081
 40
0.1286252421273932
 40
0.1803728426378804
 40
0.2326525368209991
 40
0.2854093116363721
 40
0.3385713946527853
 40
0.3920575232674889
 40
0.4457814790347061
 40
0.4996547588544782
 40
0.5535880286608392
 40
0.6074771332246535
 40
0.6612180186887588
 40
0.7147228553134422
 40
0.7679061988222441
 40
0.8206872424906307
 40
0.8729937546194478
 40
0.9247684404253148
 40
0.9759786828377254
 40
1.0
 40
1.0
 40
1.0
 40
1.0
 10
-134.0782104868022
 20
-117.5680761049916
 30
0.0
 10
-134.0747955741612
 20
-117.2579134856213
 30
0.0
 10
-134.0648939593365
 20
-116.3585901022884
 30
0.0
 10
-133.9500179181273
 20
-114.7402056962039
 30
0.0
 10
-133.6793508984926
 20
-112.6837010244901
 30
0.0
 10
-133.2578484515585
 20
-110.4976452527015
 30
0.0
 10
-132.6826697376351
 20
-108.2096111918413
 30
0.0
 10
-131.9519511915902
 20
-105.8457308233488
 30
0.0
 10
-131.0679406824255
 20
-103.4341052013115
 30
0.0
 10
-130.0358445680324
 20
-101.0028948333562
 30
0.0
 10
-128.8638625917283
 20
-98.58024932237586
 30
0.0
 10
-127.5629069824156
 20
-96.19381441794198
 30
0.0
 10
-126.1465575151579
 20
-93.87062195158109
 30
0.0
 10
-124.630941595897
 20
-91.63671884780992
 30
0.0
 10
-123.0344558319568
 20
-89.51655447388954
 30
0.0
 10
-121.3774369794529
 20
-87.53245588286629
 30
0.0
 10
-119.6819061930557
 20
-85.70418884663438
 30
0.0
 10
-117.9717328155301
 20
-84.0491293951768
 30
0.0
 10
-116.2717144161328
 20
-82.58033597673656
 30
0.0
 10
-114.6098900472818
 20
-81.31127787517289
 30
0.0
 10
-113.2853145473047
 20
-80.42219211002963
 30
0.0
 10
-112.5342736421519
 20
-79.97856578359146
 30
0.0
 10
-112.2944674772058
 20
-79.83691660405631
 30
0.0
  0
SPLINE
  5
2E2
330
2A7
100
AcDbEntity
  8
0
  6
Continuous
 62
     7
370
    25
100
AcDbSpline
210
0.0
220
0.0
230
1.0
 70
     8
 71
     3
 72
    28
 73
    24
 74
     0
 42
0.000000001
 43
0.00000001
 40
0.0
 40
0.0
 40
0.0
 40
0.0
 40
0.0279621207739143
 40
0.0782631696805406
 40
0.1285102021152025
 40
0.1786898922482316
 40
0.2287392595569265
 40
0.2786344034165164
 40
0.3283784722273092
 40
0.3779921476091708
 40
0.42750689383077
 40
0.4769605699572663
 40
0.5263947422599267
 40
0.5758525916142152
 40
0.6253645742099622
 40
0.6749758455247905
 40
0.7247309909906574
 40
0.7746724181497784
 40
0.8248376188792814
 40
0.8752545672690584
 40
0.9259343731082138
 40
0.9768603883743177
 40
1.0
 40
1.0
 40
1.0
 40
1.0
 10
-125.2934110014746
 20
-57.31964618215858
 30
0.0
 10
-125.832081128231
 20
-57.63861385677851
 30
0.0
 10
-127.3397647504082
 20
-58.53137236544918
 30
0.0
 10
-129.7677097655754
 20
-60.17158933092615
 30
0.0
 10
-132.5494288587238
 20
-62.29043806365372
 30
0.0
 10
-135.2489595050684
 20
-64.60387984098293
 30
0.0
 10
-137.8569083800735
 20
-67.0932828947456
 30
0.0
 10
-140.3626234701786
 20
-69.74433650888919
 30
0.0
 10
-142.756958807554
 20
-72.5419980630609
 30
0.0
 10
-145.0313902492591
 20
-75.47210010117033
 30
0.0
 10
-147.1778113080651
 20
-78.52073776933297
 30
0.0
 10
-149.1883203180124
 20
-81.67426964725803
 30
0.0
 10
-151.0551233931744
 20
-84.91919732724186
 30
0.0
 10
-152.7703233815674
 20
-88.24182990488595
 30
0.0
 10
-154.326117837626
 20
-91.62857358273254
 30
0.0
 10
-155.7147806655271
 20
-95.06598180581946
 30
0.0
 10
-156.9286624940653
 20
-98.54108896930671
 30
0.0
 10
-157.9600423127594
 20
-102.0410813502264
 30
0.0
 10
-158.800610673876
 20
-105.553047945346
 30
0.0
 10
-159.4428716939932
 20
-109.0641957899406
 30
0.0
 10
-159.8743715365687
 20
-112.5596372221075
 30
0.0
 10
-160.0580233369908
 20
-115.3929960589974
 30
0.0
 10
-160.0734049556025
 20
-117.0503004348045
 30
0.0
 10
-160.0782104868022
 20
-117.5680761049916
 30
0.0
  0
SPLINE
  5
2E8
330
2A7
100
AcDbEntity
  8
0
  6
Continuous
 62
     7
370
    25
100
AcDbSpline
210
0.0
220
0.0
230
1.0
 70
     8
 71
     3
 72
    26
 73
    22
 74
     0
 42
0.000000001
 43
0.00000001
 40
0.0
 40
0.0
 40
0.0
 40
0.0
 40
0.0191686687386311
 40
0.0387340768932265
 40
0.0586893435888243
 40
0.0790241497830795
 40
0.0997281571717723
 40
0.12080374956082
 40
0.1422527952717658
 40
0.1640707247425924
 40
0.18625087958958
 40
0.2820641866993681
 40
0.4039349923528858
 40
0.5322101737865145
 40
0.6771826743448669
 40
0.741030123941291
 40
0.8008412052460072
 40
0.8566090634994117
 40
0.9083425671585749
 40
0.9561201591701521
 40
1.0
 40
1.0
 40
1.0
 40
1.0
 10
-153.654303551837
 20
-12.57268492190772
 30
0.0
 10
-153.654400159244
 20
-12.50784286522809
 30
0.0
 10
-153.6545953735691
 20
-12.37681669728757
 30
0.0
 10
-153.6561262652081
 20
-12.1706251595045
 30
0.0
 10
-153.6585280613309
 20
-11.95508860925229
 30
0.0
 10
-153.661883807483
 20
-11.72987101543158
 30
0.0
 10
-153.6661594173144
 20
-11.49539598970532
 30
0.0
 10
-153.6714032877398
 20
-11.25205169679011
 30
0.0
 10
-153.677671768598
 20
-11.00030574814642
 30
0.0
 10
-153.6850302107075
 20
-10.74064303480652
 30
0.0
 10
-153.7030058139361
 20
-10.17971784563267
 30
0.0
 10
-153.7439933298327
 20
-9.192858722059057
 30
0.0
 10
-153.8198737090459
 20
-7.774761372799185
 30
0.0
 10
-153.924500402414
 20
-6.231690969341924
 30
0.0
 10
-154.0254008188944
 20
-5.020633940876901
 30
0.0
 10
-154.108998558371
 20
-4.136104480156486
 30
0.0
 10
-154.1661486144369
 20
-3.57770966222859
 30
0.0
 10
-154.2200805217029
 20
-3.086746610780899
 30
0.0
 10
-154.2705395708862
 20
-2.65826377774836
 30
0.0
 10
-154.317191514653
 20
-2.284707968915472
 30
0.0
 10
-154.3470925624879
 20
-2.064048223713061
 30
0.0
 10
-154.3614073123011
 20
-1.958410151634518
 30
0.0
  0
SPLINE
  5
2EA
330
2A7
100
AcDbEntity
  8
0
  6
Continuous
 62
     7
370
    25
100
AcDbSpline
210
0.0
220
0.0
230
1.0
 70
     8
 71
     3
 72
    28
 73
    24
 74
     0
 42
0.000000001
 43
0.00000001
 40
0.0
 40
0.0
 40
0.0
 40
0.0
 40
0.0182197198936764
 40
0.0364900537124165
 40
0.0548256834913377
 40
0.0732411350910869
 40
0.0917507464468609
 40
0.110368637953188
 40
0.1291086852427692
 40
0.1479844945594395
 40
0.1670093808657073
 40
0.1861963487666414
 40
0.2904818260192058
 40
0.4038194026242748
 40
0.4663812396851153
 40
0.532957627033284
 40
0.6022774946570731
 40
0.6772983480997364
 40
0.7511824572543914
 40
0.8348561329336762
 40
0.8778497975242913
 40
0.9328981735466494
 40
0.9999999999999999
 40
0.9999999999999999
 40
0.9999999999999999
 40
0.9999999999999999
 10
-155.0685171142099
 20
-12.57268492201734
 30
0.0
 10
-155.0684474727659
 20
-12.51106298225785
 30
0.0
 10
-155.0683079964156
 20
-12.38764791853515
 30
0.0
 10
-155.0671369571992
 20
-12.19538331863069
 30
0.0
 10
-155.0652324927101
 20
-11.99789144144513
 30
0.0
 10
-155.062510703844
 20
-11.79485160164381
 30
0.0
 10
-155.0589795238877
 20
-11.5866072059085
 30
0.0
 10
-155.0546299224383
 20
-11.37332942492249
 30
0.0
 10
-155.0494654182166
 20
-11.15524082135864
 30
0.0
 10
-155.0434939578204
 20
-10.93256080540676
 30
0.0
 10
-155.0367311745343
 20
-10.70549716183216
 30
0.0
 10
-155.0180810746213
 20
-10.13335919950145
 30
0.0
 10
-154.9783834232085
 20
-9.156630154955089
 30
0.0
 10
-154.9151155130251
 20
-8.010127353270564
 30
0.0
 10
-154.853694136673
 20
-7.051671272985366
 30
0.0
 10
-154.7994077136727
 20
-6.291633504645226
 30
0.0
 10
-154.738670022713
 20
-5.516864046830106
 30
0.0
 10
-154.6725268370571
 20
-4.755460625084557
 30
0.0
 10
-154.6005010985371
 20
-3.992520391901802
 30
0.0
 10
-154.5357845308945
 20
-3.381021403972936
 30
0.0
 10
-154.4776052983671
 20
-2.864269220342344
 30
0.0
 10
-154.4237301903139
 20
-2.418348045622326
 30
0.0
 10
-154.3835047184329
 20
-2.121487279732381
 30
0.0
 10
-154.3614073123013
 20
-1.95841018947937
 30
0.0
  0
SPLINE
  5
2EB
330
2A7
100
AcDbEntity
  8
0
  6
Continuous
 62
     7
370
    25
100
AcDbSpline
210
0.0
220
0.0
230
1.0
 70
     8
 71
     3
 72
     9
 73
     5
 74
     0
 42
0.000000001
 43
0.00000001
 40
0.0
 40
0.0
 40
0.0
 40
0.0
 40
0.5466643541667255
 40
0.9999999999999999
 40
0.9999999999999999
 40
0.9999999999999999
 40
0.9999999999999999
 10
-134.3149330863847
 20
-1.408303992894031
 30
0.0
 10
-134.3207193205259
 20
-1.522894427484434
 30
0.0
 10
-134.3313039399495
 20
-1.732511962845892
 30
0.0
 10
-134.4082989744444
 20
-1.950375034355828
 30
0.0
 10
-134.4432035681332
 20
-2.049140130581995
 30
0.0
  0
SPLINE
  5
2ED
330
2A7
100
AcDbEntity
  8
0
  6
Continuous
 62
     7
370
    25
100
AcDbSpline
210
0.0
220
0.0
230
1.0
 70
     8
 71
     3
 72
    10
 73
     6
 74
     0
 42
0.000000001
 43
0.00000001
 40
0.0
 40
0.0
 40
0.0
 40
0.0
 40
0.3136256210778114
 40
0.6577384616668323
 40
1.0
 40
1.0
 40
1.0
 40
1.0
 10
-137.0968879958848
 20
-3.841671589920534
 30
0.0
 10
-137.1369674243998
 20
-3.799003596914749
 30
0.0
 10
-137.2210223608728
 20
-3.709519899806085
 30
0.0
 10
-137.2717592907186
 20
-3.444503040527485
 30
0.0
 10
-137.2804486208281
 20
-3.22981534538852
 30
0.0
 10
-137.2847815673682
 20
-3.122761027721715
 30
0.0
  0
SPLINE
  5
2EF
330
2A7
100
AcDbEntity
  8
0
  6
Continuous
 62
     7
370
    25
100
AcDbSpline
210
0.0
220
0.0
230
1.0
 70
     8
 71
     3
 72
    27
 73
    23
 74
     0
 42
0.000000001
 43
0.00000001
 40
0.0
 40
0.0
 40
0.0
 40
0.0
 40
0.0276013671711551
 40
0.0540633510367469
 40
0.0793860241747181
 40
0.1035694708506506
 40
0.1266137892646048
 40
0.148519094381633
 40
0.1692855215377298
 40
0.1889132310907554
 40
0.2074024145017414
 40
0.2247533024085121
 40
0.3479196685233233
 40
0.4533447449100452
 40
0.607732700918639
 40
0.7412943360188448
 40
0.8119994049512776
 40
0.8796454647585785
 40
0.9115097608380403
 40
0.9421331973179219
 40
0.9715988597578402
 40
0.9999999999999999
 40
0.9999999999999999
 40
0.9999999999999999
 40
0.9999999999999999
 10
-154.3614073123008
 20
-1.958410189432797
 30
0.0
 10
-154.2456689047004
 20
-1.961655265195622
 30
0.0
 10
-154.0189697662217
 20
-1.96801146012679
 30
0.0
 10
-153.6863556557255
 20
-1.987007187242609
 30
0.0
 10
-153.3685198389588
 20
-2.011537172616595
 30
0.0
 10
-153.0655952601892
 20
-2.041325231504604
 30
0.0
 10
-152.7776660860526
 20
-2.075307526348547
 30
0.0
 10
-152.5047761661739
 20
-2.112695264104569
 30
0.0
 10
-152.2469322107862
 20
-2.152706595924952
 30
0.0
 10
-152.0041139572735
 20
-2.194633674224816
 30
0.0
 10
-151.7762619254319
 20
-2.237815907769058
 30
0.0
 10
-151.1258478877908
 20
-2.371777064407943
 30
0.0
 10
-150.1359132903199
 20
-2.641284593805193
 30
0.0
 10
-148.6730775587369
 20
-3.221472341199585
 30
0.0
 10
-147.3014281483427
 20
-4.022569110273142
 30
0.0
 10
-146.2783615069899
 20
-4.962137942668781
 30
0.0
 10
-145.6973911164175
 20
-5.781233032779179
 30
0.0
 10
-145.4312123916325
 20
-6.330991510837138
 30
0.0
 10
-145.2887826345207
 20
-6.764248543278825
 30
0.0
 10
-145.2169445543296
 20
-7.074775343318421
 30
0.0
 10
-145.1741082446241
 20
-7.376941937447118
 30
0.0
 10
-145.1706966130604
 20
-7.576360989361826
 30
0.0
 10
-145.1690221775982
 20
-7.674236251133324
 30
0.0
  0
LWPOLYLINE
  5
2F1
330
2A7
100
AcDbEntity
  8
0
  6
Continuous
 62
     7
370
    25
100
AcDbPolyline
 90
       13
 70
   128
 43
0.0
 10
-169.5642061285
 20
-4.2045017759
 10
-169.4599052655
 20
-2.9983535988
 10
-169.1515611247
 20
-1.7244966716
 10
-168.6526498245
 20
-0.4386046547
 10
-167.984976183
 20
0.8031228004
 10
-167.177720742
 20
1.9464162455
 10
-166.266164438
 20
2.9413082707
 10
-165.2901466556
 20
3.7443173207
 10
-164.2923240554
 20
4.3203480467
 10
-163.316306273
 20
4.6442251418
 10
-162.404749969
 20
4.7017936229
 10
-161.597494528
 20
4.490537471
 10
-161.4165096329
 20
4.3967054226
  0
SPLINE
  5
2F2
330
2A7
100
AcDbEntity
  8
0
  6
Continuous
 62
     7
370
    25
100
AcDbSpline
210
0.0
220
0.0
230
1.0
 70
     8
 71
     3
 72
    16
 73
    12
 74
     0
 42
0.000000001
 43
0.00000001
 40
0.0
 40
0.0
 40
0.0
 40
0.0
 40
0.092016447403576
 40
0.1845477646329012
 40
0.3684040835669555
 40
0.5525926169891626
 40
0.6455490605988659
 40
0.7378845188622855
 40
0.8302448658161974
 40
0.9233984744377501
 40
1.0
 40
1.0
 40
1.0
 40
1.0
 10
-137.2847815673682
 20
-3.122761027721715
 30
0.0
 10
-137.2810365213162
 20
-3.005675231223082
 30
0.0
 10
-137.273525474141
 20
-2.770848495092793
 30
0.0
 10
-137.1905077255977
 20
-2.249474754247665
 30
0.0
 10
-136.992429704064
 20
-1.571993116848219
 30
0.0
 10
-136.6567312996771
 20
-0.9710720429496195
 30
0.0
 10
-136.3171243351534
 20
-0.6029577514782974
 30
0.0
 10
-136.0304078610255
 20
-0.3948271474358278
 30
0.0
 10
-135.727098707335
 20
-0.2711201437816252
 30
0.0
 10
-135.4288634772464
 20
-0.2103783464583731
 30
0.0
 10
-135.2590403584823
 20
-0.2712892988605553
 30
0.0
 10
-135.1824081550699
 20
-0.2987751943528683
 30
0.0
  0
LWPOLYLINE
  5
2F3
330
2A7
100
AcDbEntity
  8
0
  6
Continuous
 62
     7
370
    25
100
AcDbPolyline
 90
       13
 70
   128
 43
0.0
 10
-131.9107700304
 20
-0.0204102028
 10
-132.0150708934
 20
1.1857379743
 10
-132.3234150342
 20
2.4595949015
 10
-132.8223263343
 20
3.7454869184
 10
-133.4899999759
 20
4.9872143735
 10
-134.2972554169
 20
6.1305078186
 10
-135.2088117208
 20
7.1253998438
 10
-136.1848295032
 20
7.9284088938
 10
-137.1826521035
 20
8.5044396198
 10
-138.1586698859
 20
8.8283167149
 10
-139.0702261899
 20
8.885885196
 10
-139.8774816308
 20
8.6746290441
 10
-140.058466526
 20
8.5807969957
  0
SPLINE
  5
2F6
330
2A7
100
AcDbEntity
  8
0
  6
Continuous
 62
     7
370
    25
100
AcDbSpline
210
0.0
220
0.0
230
1.0
 70
     8
 71
     3
 72
    26
 73
    22
 74
     0
 42
0.000000001
 43
0.00000001
 40
0.0
 40
0.0
 40
0.0
 40
0.0
 40
0.0272582068625476
 40
0.0527776389268557
 40
0.076558304865347
 40
0.0986002217428847
 40
0.1189034174129707
 40
0.1374679340359109
 40
0.1542938334143902
 40
0.1693812054026692
 40
0.2528266310033587
 40
0.3267986928220669
 40
0.4706306426211916
 40
0.5961193470018543
 40
0.7082491342919405
 40
0.8114278767575662
 40
0.8501223097044495
 40
0.8882129281167669
 40
0.92581141598932
 40
0.9630338874211112
 40
1.0
 40
1.0
 40
1.0
 40
1.0
 10
-12.93987340157761
 20
-83.5992949453514
 30
0.0
 10
-13.05138249482042
 20
-83.60520825720191
 30
0.0
 10
-13.26728762349992
 20
-83.61665767642756
 30
0.0
 10
-13.58020838114009
 20
-83.64250036916765
 30
0.0
 10
-13.87138464078416
 20
-83.67230292558563
 30
0.0
 10
-14.1407430848822
 20
-83.70534761415246
 30
0.0
 10
-14.38827467225408
 20
-83.74025187756423
 30
0.0
 10
-14.61401554002492
 20
-83.77595414408972
 30
0.0
 10
-14.81804744255392
 20
-83.81145426021621
 30
0.0
 10
-15.28293265604717
 20
-83.89929637292396
 30
0.0
 10
-15.97172142859524
 20
-84.06160577623949
 30
0.0
 10
-17.14395226869475
 20
-84.42970113927909
 30
0.0
 10
-18.41757401428544
 20
-84.99051342969527
 30
0.0
 10
-19.68378155838514
 20
-85.80765105001342
 30
0.0
 10
-20.63635985875703
 20
-86.69556055042877
 30
0.0
 10
-21.17959342032441
 20
-87.45384018934035
 30
0.0
 10
-21.46155557882029
 20
-88.02465614397512
 30
0.0
 10
-21.60353537045837
 20
-88.39707882192646
 30
0.0
 10
-21.7041655268788
 20
-88.7714026803995
 30
0.0
 10
-21.76718685000072
 20
-89.14604534978646
 30
0.0
 10
-21.77499718657723
 20
-89.39506825731402
 30
0.0
 10
-21.77888886054592
 20
-89.51914946141224
 30
0.0
  0
LWPOLYLINE
  5
2F8
330
2A7
100
AcDbEntity
  8
0
  6
Continuous
 62
     7
370
    25
100
AcDbPolyline
 90
       13
 70
   128
 43
0.0
 10
9.510586207
 20
-81.6612213851
 10
9.4062853439
 20
-80.4550732079
 10
9.0979412031
 20
-79.1812162807
 10
8.599029903
 20
-77.8953242638
 10
7.9313562614
 20
-76.6535968087
 10
7.1241008205
 20
-75.5103033637
 10
6.2125445165
 20
-74.5154113384
 10
5.2365267341
 20
-73.7124022884
 10
4.2387041338
 20
-73.1363715625
 10
3.2626863514
 20
-72.8124944674
 10
2.3511300474
 20
-72.7549259863
 10
1.5438746065
 20
-72.9661821382
 10
1.3628897113
 20
-73.0600141866
  0
LWPOLYLINE
  5
2FA
330
2A7
100
AcDbEntity
  8
0
  6
Continuous
 62
     7
370
    25
100
AcDbPolyline
 90
        3
 70
   128
 43
0.0
 10
-22.071768441
 20
-89.1139602802
 10
-22.0717820794
 20
-89.11094528
 10
-22.071655021
 20
-89.1017430075
  0
LWPOLYLINE
  5
2FE
330
2A7
100
AcDbEntity
  8
0
  6
Continuous
 62
     7
370
    25
100
AcDbPolyline
 90
       31
 70
   128
 43
0.0
 10
-27.3650324319
 20
6.6573753631
 10
-25.3324308388
 20
5.3609692997
 10
-23.3220988541
 20
3.8327466523
 10
-21.3560620957
 20
2.0894509479
 10
-19.4558608738
 20
0.1501820991
 10
-17.6423141906
 20
-1.9638128588
 10
-15.935291643
 20
-4.2293725546
 10
-14.3534957274
 20
-6.6216750422
 10
-12.9142569307
 20
-9.1145097549
 10
-11.6333438544
 20
-11.6805646741
 10
-10.5247904503
 20
-14.2917255649
 10
-9.6007422613
 20
-16.9193840022
 10
-8.8713233529
 20
-19.5347508104
 10
-8.3445253912
 20
-22.1091714834
 10
-8.026120085
 20
-24.6144401296
 10
-7.9195959493
 20
-27.0231085013
 10
-8.026120085
 20
-29.308786724
 10
-8.3445253912
 20
-31.4464324286
 10
-8.8713233529
 20
-33.4126251215
 10
-9.6007422613
 20
-35.1858227841
 10
-10.5247904503
 20
-36.7465978917
 10
-11.6333438544
 20
-38.0778502657
 10
-12.9142569307
 20
-39.1649944265
 10
-14.3534957274
 20
-39.9961193951
 10
-15.935291643
 20
-40.5621191925
 10
-17.6423141906
 20
-40.8567926063
 10
-19.4558608738
 20
-40.8769111332
 10
-21.3560620957
 20
-40.6222543502
 10
-23.3220988541
 20
-40.0956123303
 10
-25.3324308388
 20
-39.3027550738
 10
-27.3650324319
 20
-38.2523692906
  0
LWPOLYLINE
  5
300
330
2A7
100
AcDbEntity
  8
0
  6
Continuous
 62
     7
370
    25
100
AcDbPolyline
 90
       22
 70
   128
 43
0.0
 10
-27.5771644663
 20
6.2899519421
 10
-25.5667367052
 20
5.0076884881
 10
-23.5783356113
 20
3.4961373578
 10
-21.6337465232
 20
1.7718594217
 10
-19.7542747659
 20
-0.1462537704
 10
-17.9605122251
 20
-2.2371869688
 10
-16.2721117387
 20
-4.4780314719
 10
-14.7075717757
 20
-6.8442361184
 10
-13.2840337634
 20
-9.309876275
 10
-12.017094282
 20
-11.8479378722
 10
-10.9206341858
 20
-14.4306133761
 10
-10.0066665209
 20
-17.0296064533
 10
-9.2852049084
 20
-19.6164419918
 10
-8.7641538326
 20
-22.1627780802
 10
-8.4492220383
 20
-24.6407165273
 10
-8.3438599839
 20
-27.023108521
 10
-8.4492220383
 20
-29.2838520762
 10
-8.7641538326
 20
-31.3981780132
 10
-9.2852049084
 20
-33.3429213347
 10
-10.0066665209
 20
-35.0967750259
 10
-10.9206341858
 20
-36.6405234988
 10
-11.9525751859
 20
-37.8913326247
  0
LWPOLYLINE
  5
304
330
2A7
100
AcDbEntity
  8
0
  6
Continuous
 62
     7
370
    25
100
AcDbPolyline
 90
       24
 70
   128
 43
0.0
 10
-7.4643208619
 20
-36.0624653928
 10
-6.7624279344
 20
-35.6136191401
 10
-5.4815148581
 20
-34.5264749793
 10
-4.372961454
 20
-33.1952226053
 10
-3.448913265
 20
-31.6344474977
 10
-2.7194943566
 20
-29.8612498351
 10
-2.1926963949
 20
-27.8950571422
 10
-1.8742910886
 20
-25.7574114375
 10
-1.767766953
 20
-23.4717332149
 10
-1.8742910886
 20
-21.0630648431
 10
-2.1926963949
 20
-18.557796197
 10
-2.7194943566
 20
-15.983375524
 10
-3.448913265
 20
-13.3680087158
 10
-4.372961454
 20
-10.7403502785
 10
-5.4815148581
 20
-8.1291893876
 10
-6.7624279344
 20
-5.5631344685
 10
-8.2016667311
 20
-3.0702997558
 10
-9.7834626467
 20
-0.6779972681
 10
-11.4904851943
 20
1.5875624277
 10
-13.3040318775
 20
3.7015573855
 10
-15.2042330994
 20
5.6408262343
 10
-17.1702698578
 20
7.3841219387
 10
-19.1806018425
 20
8.9123445862
 10
-21.2132034356
 20
10.2087506495
  0
LWPOLYLINE
  5
307
330
2A7
100
AcDbEntity
  8
0
  6
Continuous
 62
     7
370
    25
100
AcDbPolyline
 90
        9
 70
   128
 43
0.0
 10
-46.0237360876
 20
-11.5582369133
 10
-46.3901750999
 20
-9.6771382809
 10
-46.7051068943
 20
-7.1991998338
 10
-46.8104689487
 20
-4.8168078401
 10
-46.7051068943
 20
-2.5560642849
 10
-46.3901750999
 20
-0.4417383479
 10
-45.8691240241
 20
1.5030049736
 10
-45.1476624116
 20
3.2568586648
 10
-44.4070068082
 20
4.5465664763
  0
LWPOLYLINE
  5
309
330
2A7
100
AcDbEntity
  8
0
  6
Continuous
 62
     7
370
    25
100
AcDbPolyline
 90
       17
 70
   128
 43
0.0
 10
-46.8101781643
 20
-4.694846719
 10
-46.8104689145
 20
-4.5718854262
 10
-46.7039447789
 20
-2.2862072036
 10
-46.3855394726
 20
-0.148561499
 10
-45.8587415109
 20
1.8176311939
 10
-45.1293226025
 20
3.5908288566
 10
-44.2052744136
 20
5.1516039642
 10
-43.0967210094
 20
6.4828563382
 10
-41.8158079331
 20
7.570000499
 10
-40.3765691365
 20
8.4011254676
 10
-38.7947732208
 20
8.9671252649
 10
-37.0877506732
 20
9.2617986788
 10
-35.27420399
 20
9.2819172056
 10
-33.3740027681
 20
9.0272604226
 10
-31.4079660097
 20
8.5006184028
 10
-29.397634025
 20
7.7077611463
 10
-27.3650324319
 20
6.6573753631
  0
LWPOLYLINE
  5
30A
330
2A7
100
AcDbEntity
  8
0
  6
Continuous
 62
     7
370
    25
100
AcDbPolyline
 90
        9
 70
   128
 43
0.0
 10
-34.9620860093
 20
11.5702220381
 10
-34.2247401401
 20
11.952500754
 10
-32.6429442245
 20
12.5185005514
 10
-30.9359216769
 20
12.8131739652
 10
-29.1223749937
 20
12.8332924921
 10
-27.2221737718
 20
12.5786357091
 10
-25.2561370134
 20
12.0519936892
 10
-23.2458050287
 20
11.2591364327
 10
-21.2132034356
 20
10.2087506495
  0
LWPOLYLINE
  5
30C
330
2A7
100
AcDbEntity
  8
0
  6
Continuous
 62
     7
370
    25
100
AcDbPolyline
 90
        3
 70
   128
 43
0.0
 10
-33.9433955962
 20
-4.5844047898
 10
-33.4880589486
 20
-4.1292156904
 10
-33.0813023713
 20
-3.8138283186
  0
LWPOLYLINE
  5
311
330
2A7
100
AcDbEntity
  8
0
  6
Continuous
 62
     7
370
    25
100
AcDbPolyline
 90
        3
 70
   128
 43
0.0
 10
-132.0794239675
 20
-1.3752594653
 10
-131.9561819659
 20
-0.9393901445
 10
-131.8400593522
 20
0.1836918252
  0
LWPOLYLINE
  5
313
330
2A7
100
AcDbEntity
  8
0
  6
Continuous
 62
     7
370
    25
100
AcDbPolyline
 90
       13
 70
   128
 43
0.0
 10
-120.9925289307
 20
40.5657044934
 10
-120.6819415232
 20
41.6514771205
 10
-119.9605074161
 20
43.4843999116
 10
-119.0457059298
 20
45.1098712978
 10
-117.9469241655
 20
46.5112117432
 10
-116.6754371109
 20
47.6740415986
 10
-115.2442919439
 20
48.5864286559
 10
-113.6681741505
 20
49.2390105894
 10
-111.9632568321
 20
49.6250910254
 10
-110.1470347476
 20
49.7407082561
 10
-108.2381447931
 20
49.5846758922
 10
-106.2561747628
 20
49.158595037
 10
-106.1479341759
 20
49.1281087124
  0
LWPOLYLINE
  5
315
330
2A7
100
AcDbEntity
  8
0
  6
Continuous
 62
     7
370
    25
100
AcDbPolyline
 90
       16
 70
   128
 43
0.0
 10
-102.9221540349
 20
47.1128448537
 10
-101.4698231003
 20
46.3349423372
 10
-99.3633087184
 20
44.9913942329
 10
-97.2798737489
 20
43.4075998501
 10
-95.2423447413
 20
41.6009115716
 10
-93.2730452898
 20
39.5911238522
 10
-91.3935514513
 20
37.4002563467
 10
-89.6244553535
 20
35.0523126579
 10
-87.9851395836
 20
32.5730173484
 10
-86.4935648282
 20
29.9895340962
 10
-85.1660730923
 20
27.3301680846
 10
-84.0172086534
 20
24.6240558841
 10
-83.0595587105
 20
21.9008462262
 10
-82.3036154768
 20
19.1903751659
 10
-81.7576612247
 20
16.5223391912
 10
-81.5232265962
 20
14.8670744365
  0
LWPOLYLINE
  5
316
330
2A7
100
AcDbEntity
  8
0
  6
Continuous
 62
     7
370
    25
100
AcDbPolyline
 90
       25
 70
   128
 43
0.0
 10
-71.4177848998
 20
16.7363662924
 10
-71.5229950503
 20
19.1927366688
 10
-71.837545903
 20
21.7453744152
 10
-72.3582097407
 20
24.3680860141
 10
-73.0796438478
 20
27.0339588953
 10
-73.9944453341
 20
29.7156375957
 10
-75.0932270984
 20
32.3856044627
 10
-76.364714153
 20
35.0164620233
 10
-77.79585932
 20
37.5812141189
 10
-79.3719771134
 20
40.0535429223
 10
-81.0768944318
 20
42.4080789943
 10
-82.8931165164
 20
44.6206616087
 10
-84.8020064708
 20
46.6685866737
 10
-86.7839765011
 20
48.5308397069
 10
-88.8186889126
 20
50.1883114721
 10
-90.8852648026
 20
51.6239940662
 10
-92.9624983059
 20
52.8231554428
 10
-95.0290741959
 20
53.7734905835
 10
-97.0637866074
 20
54.4652477639
 10
-99.0457566377
 20
54.8913286191
 10
-100.9546465921
 20
55.0473609829
 10
-102.7708686767
 20
54.9317437522
 10
-104.4757859951
 20
54.5456633163
 10
-106.0519037885
 20
53.8930813828
 10
-106.4227031775
 20
53.6897009228
  0
LWPOLYLINE
  5
318
330
2A7
100
AcDbEntity
  8
0
  6
Continuous
 62
     7
370
    25
100
AcDbPolyline
 90
        3
 70
   128
 43
0.0
 10
-108.3213705968
 20
37.8715904733
 10
-109.110329995
 20
37.3176067692
 10
-109.6162232098
 20
36.8354206556
  0
LWPOLYLINE
  5
319
330
2A7
100
AcDbEntity
  8
0
  6
Continuous
 62
     7
370
    25
100
AcDbPolyline
 90
       13
 70
   128
 43
0.0
 10
-81.2400104887
 20
5.9695578804
 10
-81.5505978962
 20
4.8837852534
 10
-82.2720320033
 20
3.0508624623
 10
-83.1868334896
 20
1.4253910761
 10
-84.2856152539
 20
0.0240506307
 10
-85.5571023084
 20
-1.1387792247
 10
-86.9882474754
 20
-2.051166282
 10
-88.5643652688
 20
-2.7037482155
 10
-90.2692825872
 20
-3.0898286515
 10
-92.0855046718
 20
-3.2054458822
 10
-93.9943946263
 20
-3.0494135183
 10
-95.9763646565
 20
-2.6233326631
 10
-96.0846052434
 20
-2.5928463385
  0
LWPOLYLINE
  5
31A
330
2A7
100
AcDbEntity
  8
0
  6
Continuous
 62
     7
370
    25
100
AcDbPolyline
 90
        9
 70
   128
 43
0.0
 10
-71.4177848998
 20
16.7363662924
 10
-71.5229950503
 20
14.40146897
 10
-71.837545903
 20
12.2120039078
 10
-72.3582097407
 20
10.1904379802
 10
-73.0796438478
 20
8.3575151892
 10
-73.9944453341
 20
6.7320438029
 10
-75.0932270984
 20
5.3307033575
 10
-76.364714153
 20
4.1678735022
 10
-77.425059931
 20
3.4588669048
  0
LWPOLYLINE
  5
31B
330
2A7
100
AcDbEntity
  8
0
  6
Continuous
 62
     7
370
    25
100
AcDbPolyline
 90
        3
 70
   128
 43
0.0
 10
-92.3840184056
 20
9.5585500257
 10
-93.570694191
 20
9.1327932343
 10
-93.6175234876
 20
9.1218570594
  0
LWPOLYLINE
  5
31F
330
2A7
100
AcDbEntity
  8
0
  6
Continuous
 62
     7
370
    25
100
AcDbPolyline
 90
       14
 70
   128
 43
0.0
 10
-220.511249713
 20
23.3696822009
 10
-220.4028911829
 20
24.782587073
 10
-220.0815056125
 20
26.2724852601
 10
-219.5580374017
 20
27.7886400663
 10
-218.8503126329
 20
29.2794206583
 10
-217.982432024
 20
30.6940602909
 10
-216.9839502084
 20
31.984385108
 10
-215.8888692867
 20
33.1064546457
 10
-214.7344809263
 20
34.0220581716
 10
-213.5600964384
 20
34.7000159058
 10
-212.405708078
 20
35.1172408107
 10
-211.3106271563
 20
35.2595247927
 10
-210.3121453407
 20
35.1220225413
 10
-209.6476543855
 20
34.8379584656
  0
SPLINE
  5
323
330
2A7
100
AcDbEntity
  8
0
  6
Continuous
 62
     7
370
    25
100
AcDbSpline
210
0.0
220
0.0
230
1.0
 70
     8
 71
     3
 72
    19
 73
    15
 74
     0
 42
0.000000001
 43
0.00000001
 40
0.0
 40
0.0
 40
0.0
 40
0.0
 40
0.0305915866037081
 40
0.1255118136841677
 40
0.2204603071112513
 40
0.3153826646307269
 40
0.4103290224829661
 40
0.5052542768014049
 40
0.600197832074267
 40
0.6951266029997384
 40
0.7900668699425474
 40
0.8849994571183347
 40
0.9799359593719239
 40
1.0
 40
1.0
 40
1.0
 40
1.0
 10
-135.7999641029237
 20
-0.3758323755063964
 30
0.0
 10
-135.831524725652
 20
-0.3872262500400764
 30
0.0
 10
-135.9610123214068
 20
-0.4339732813771202
 30
0.0
 10
-136.1993275523184
 20
-0.607529890213579
 30
0.0
 10
-136.4938736880528
 20
-0.8869937704794051
 30
0.0
 10
-136.7639909333722
 20
-1.2374179813089
 30
0.0
 10
-136.992847627678
 20
-1.634151254742144
 30
0.0
 10
-137.1689722247594
 20
-2.058942789048779
 30
0.0
 10
-137.2809320469009
 20
-2.490452660036877
 30
0.0
 10
-137.3232065309186
 20
-2.906848095941855
 30
0.0
 10
-137.2922740868661
 20
-3.289047631301834
 30
0.0
 10
-137.184651920937
 20
-3.610080872858357
 30
0.0
 10
-137.0672894802959
 20
-3.814159096151876
 30
0.0
 10
-136.9719000853235
 20
-3.880684436101206
 30
0.0
 10
-136.9552575839209
 20
-3.892291051949187
 30
0.0
  0
SPLINE
  5
325
330
2A7
100
AcDbEntity
  8
0
  6
Continuous
 62
     7
370
    25
100
AcDbSpline
210
0.0
220
0.0
230
1.0
 70
     8
 71
     3
 72
     9
 73
     5
 74
     0
 42
0.000000001
 43
0.00000001
 40
0.0
 40
0.0
 40
0.0
 40
0.0
 40
0.3150066714828805
 40
1.0
 40
1.0
 40
1.0
 40
1.0
 10
-135.6505471518176
 20
-3.882299416605922
 30
0.0
 10
-135.5977478591098
 20
-3.854503592135558
 30
0.0
 10
-135.4301346067957
 20
-3.766264748369122
 30
0.0
 10
-135.2713489383038
 20
-3.622132054389438
 30
0.0
 10
-135.1625818147228
 20
-3.523402120592156
 30
0.0
  0
SPLINE
  5
327
330
2A7
100
AcDbEntity
  8
0
  6
Continuous
 62
     7
370
    25
100
AcDbSpline
210
0.0
220
0.0
230
1.0
 70
     8
 71
     3
 72
    13
 73
     9
 74
     0
 42
0.000000001
 43
0.00000001
 40
0.0
 40
0.0
 40
0.0
 40
0.0
 40
0.0623822130777067
 40
0.2499057704621682
 40
0.4374293278466266
 40
0.6249528852310826
 40
0.8124764426155422
 40
1.0
 40
1.0
 40
1.0
 40
1.0
 10
-137.2548644916341
 20
-4.296634651590803
 30
0.0
 10
-137.2239682660422
 20
-4.318782954001843
 30
0.0
 10
-137.1001966862927
 20
-4.407509985400349
 30
0.0
 10
-136.8229240218933
 20
-4.453766865227305
 30
0.0
 10
-136.4415386529157
 20
-4.429191037728611
 30
0.0
 10
-136.0333502310887
 20
-4.28616290135983
 30
0.0
 10
-135.6196903053581
 20
-4.048003045816567
 30
0.0
 10
-135.3595155811335
 20
-3.81582297389127
 30
0.0
 10
-135.2294282190212
 20
-3.699732937928635
 30
0.0
  0
LWPOLYLINE
  5
328
330
2A7
100
AcDbEntity
  8
0
  6
Continuous
 62
     7
370
    25
100
AcDbPolyline
 90
        9
 70
   128
 43
0.0
 10
-135.5523699535
 20
-1.0741969865
 10
-135.9945202931
 20
-1.4310054007
 10
-136.3693572516
 20
-1.9366138808
 10
-136.6198152999
 20
-2.5140481191
 10
-136.7077644707
 20
-3.0753989873
 10
-136.6198152999
 20
-3.5352059043
 10
-136.3693572516
 20
-3.8234674352
 10
-135.9945202931
 20
-3.896298375
 10
-135.5523699535
 20
-3.7426108733
  0
SPLINE
  5
32A
330
2A7
100
AcDbEntity
  8
0
  6
Continuous
 62
     7
370
    25
100
AcDbSpline
210
0.0
220
0.0
230
1.0
 70
     8
 71
     3
 72
     8
 73
     4
 74
     0
 42
0.000000001
 43
0.00000001
 40
0.0
 40
0.0
 40
0.0
 40
0.0
 40
1.0
 40
1.0
 40
1.0
 40
1.0
 10
-135.6911472962899
 20
-3.939862053109255
 30
0.0
 10
-136.0168132814045
 20
-4.126442863497781
 30
0.0
 10
-136.3445089754605
 20
-4.191817722968421
 30
0.0
 10
-136.6199329452315
 20
-4.10800225773647
 30
0.0
  0
SPLINE
  5
32C
330
2A7
100
AcDbEntity
  8
0
  6
Continuous
 62
     7
370
    25
100
AcDbSpline
210
0.0
220
0.0
230
1.0
 70
     8
 71
     3
 72
    16
 73
    12
 74
     0
 42
0.000000001
 43
0.00000001
 40
0.0
 40
0.0
 40
0.0
 40
0.0
 40
0.2499999999999984
 40
0.2499999999999984
 40
0.4999999999999969
 40
0.4999999999999969
 40
0.6249999999999961
 40
0.6249999999999961
 40
0.7499999999999953
 40
0.7499999999999953
 40
1.0
 40
1.0
 40
1.0
 40
1.0
 10
-136.6198716108657
 20
-4.107994502033377
 30
0.0
 10
-136.8621406936804
 20
-4.036639605921557
 30
0.0
 10
-137.0530643820725
 20
-3.847200770834919
 30
0.0
 10
-137.2584177575003
 20
-3.28535452106217
 30
0.0
 10
-137.2722615088644
 20
-2.913885733930643
 30
0.0
 10
-137.1499623981453
 20
-2.313690748357203
 30
0.0
 10
-137.0861981400554
 20
-2.106951710351732
 30
0.0
 10
-136.9166251460747
 20
-1.699079916688495
 30
0.0
 10
-136.8111071210644
 20
-1.497883682676199
 30
0.0
 10
-136.4464705271149
 20
-0.9310384562291052
 30
0.0
 10
-136.137441575933
 20
-0.6041731488939245
 30
0.0
 10
-135.8175028238944
 20
-0.3907986005585173
 30
0.0
  0
SPLINE
  5
32E
330
2A7
100
AcDbEntity
  8
0
  6
Continuous
 62
     7
370
    25
100
AcDbSpline
210
0.0
220
0.0
230
1.0
 70
     8
 71
     3
 72
    18
 73
    14
 74
     0
 42
0.000000001
 43
0.00000001
 40
0.0
 40
0.0
 40
0.0
 40
0.0
 40
0.0074650690972709
 40
0.0206449852129985
 40
0.0409138717482376
 40
0.0685858128517684
 40
0.1037603056991442
 40
0.1464725855808
 40
0.19673397593717
 40
0.3330111076727953
 40
0.5122626987366782
 40
0.7345305217060638
 40
1.0
 40
1.0
 40
1.0
 40
1.0
 10
-135.1625818147229
 20
-3.523402120592142
 30
0.0
 10
-135.1629488602995
 20
-3.523444947066023
 30
0.0
 10
-135.1639639413928
 20
-3.523563385610704
 30
0.0
 10
-135.1706032329442
 20
-3.5298233342866
 30
0.0
 10
-135.1797781660771
 20
-3.538487439771365
 30
0.0
 10
-135.1934124086537
 20
-3.551757582138992
 30
0.0
 10
-135.210835522448
 20
-3.568642335583433
 30
0.0
 10
-135.2324154722231
 20
-3.589373645607352
 30
0.0
 10
-135.2714652623231
 20
-3.626248184875974
 30
0.0
 10
-135.335129729679
 20
-3.683924945999575
 30
0.0
 10
-135.4308592845101
 20
-3.763729737696203
 30
0.0
 10
-135.5519697076427
 20
-3.854727259478649
 30
0.0
 10
-135.6420938320206
 20
-3.909856097423281
 30
0.0
 10
-135.6911472962899
 20
-3.939862053109255
 30
0.0
  0
SPLINE
  5
32F
330
2A7
100
AcDbEntity
  8
0
  6
Continuous
 62
     7
370
    25
100
AcDbSpline
210
0.0
220
0.0
230
1.0
 70
     8
 71
     3
 72
    20
 73
    16
 74
     0
 42
0.000000001
 43
0.00000001
 40
0.0
 40
0.0
 40
0.0
 40
0.0
 40
0.0136490320427531
 40
0.0958394903960103
 40
0.1780415106649085
 40
0.2602341841655141
 40
0.3424341155251964
 40
0.4246292015544496
 40
0.5068267649341959
 40
0.5890243156189964
 40
0.6712192726943847
 40
0.7534193150433867
 40
0.8356130038058062
 40
0.9178145382961608
 40
1.0
 40
1.0
 40
1.0
 40
1.0
 10
-135.7829862463867
 20
-0.4673966199860019
 30
0.0
 10
-135.7981732199843
 20
-0.4737240253742669
 30
0.0
 10
-135.904811683847
 20
-0.5181532058496363
 30
0.0
 10
-136.1100816571411
 20
-0.6739372317033088
 30
0.0
 10
-136.3824333097276
 20
-0.930951264031199
 30
0.0
 10
-136.6345623156846
 20
-1.25065223518428
 30
0.0
 10
-136.8527826150083
 20
-1.611568465153354
 30
0.0
 10
-137.0279195012597
 20
-1.999925921040535
 30
0.0
 10
-137.150154068695
 20
-2.398926958833217
 30
0.0
 10
-137.2147303895564
 20
-2.791679956464677
 30
0.0
 10
-137.216375232629
 20
-3.160856302004869
 30
0.0
 10
-137.1560083575181
 20
-3.491980761728381
 30
0.0
 10
-137.0329668246366
 20
-3.767998520335505
 30
0.0
 10
-136.8568385899346
 20
-3.985666438770602
 30
0.0
 10
-136.6988554550037
 20
-4.067221138924243
 30
0.0
 10
-136.6198716108657
 20
-4.107994502033363
 30
0.0
  0
LWPOLYLINE
  5
336
330
2A7
100
AcDbEntity
  8
0
  6
Continuous
 62
     7
370
    25
100
AcDbPolyline
 90
        9
 70
   128
 43
0.0
 10
-135.5523699535
 20
-3.7426108733
 10
-135.1102196139
 20
-3.3858024591
 10
-134.7353826554
 20
-2.8801939789
 10
-134.484924607
 20
-2.3027597406
 10
-134.3969754362
 20
-1.7414088724
 10
-134.484924607
 20
-1.2816019554
 10
-134.7353826554
 20
-0.9933404246
 10
-135.1102196139
 20
-0.9205094848
 10
-135.5523699535
 20
-1.0741969865
  0
SPLINE
  5
337
330
2A7
100
AcDbEntity
  8
0
  6
Continuous
 62
     7
370
    25
100
AcDbSpline
210
0.0
220
0.0
230
1.0
 70
     8
 71
     3
 72
    14
 73
    10
 74
     0
 42
0.000000001
 43
0.00000001
 40
0.0
 40
0.0
 40
0.0
 40
0.0
 40
0.25
 40
0.25
 40
0.5
 40
0.5
 40
0.75
 40
0.75
 40
1.0
 40
1.0
 40
1.0
 40
1.0
 10
-135.8175028238944
 20
-0.3907986005585173
 30
0.0
 10
-135.5606807296652
 20
-0.219515575152554
 30
0.0
 10
-135.2975614766756
 20
-0.1204874482090834
 30
0.0
 10
-134.8233162535173
 20
-0.098477116164869
 30
0.0
 10
-134.6125395475493
 20
-0.1747096896670547
 30
0.0
 10
-134.2985985712107
 20
-0.4916018182383464
 30
0.0
 10
-134.1958542033236
 20
-0.731637609176522
 30
0.0
 10
-134.1295346143475
 20
-1.32392503096268
 30
0.0
 10
-134.1665947234446
 20
-1.675635130886588
 30
0.0
 10
-134.2726962121543
 20
-2.042701559608701
 30
0.0
  0
LWPOLYLINE
  5
33D
330
2A7
100
AcDbEntity
  8
0
  6
Continuous
 62
     7
370
    25
100
AcDbPolyline
 90
        3
 70
   128
 43
0.0
 10
9.5812968851
 20
-81.4571193571
 10
9.4651742714
 20
-82.5802013268
 10
9.3419322701
 20
-83.0160706467
  0
LWPOLYLINE
  5
33E
330
2A7
100
AcDbEntity
  8
0
  6
Continuous
 62
     7
370
    25
100
AcDbPolyline
 90
       10
 70
   128
 43
0.0
 10
9.5812968851
 20
-81.4571193571
 10
9.4651742714
 20
-80.1999650714
 10
9.122629303
 20
-78.8717774351
 10
8.5708386149
 20
-77.5391573222
 10
7.8374712965
 20
-76.2689278697
 10
6.9593014472
 20
-75.1247836864
 10
5.9803641702
 20
-74.1640969392
 10
4.9497474683
 20
-73.435040473
 10
3.9191307664
 20
-72.9741722234
 10
3.4807801963
 20
-72.8631573752
  0
LWPOLYLINE
  5
340
330
2A7
100
AcDbEntity
  8
0
  6
Continuous
 62
     7
370
    25
100
AcDbPolyline
 90
       13
 70
   128
 43
0.0
 10
20.4288273066
 20
-41.0751066888
 10
20.7394147141
 20
-39.9893340617
 10
21.4608488212
 20
-38.1564112707
 10
22.3756503075
 20
-36.5309398845
 10
23.4744320718
 20
-35.129599439
 10
24.7459191264
 20
-33.9667695837
 10
26.1770642934
 20
-33.0543825264
 10
27.7531820868
 20
-32.4018005928
 10
29.4580994052
 20
-32.0157201569
 10
31.2743214898
 20
-31.9001029262
 10
33.1832114442
 20
-32.0561352901
 10
35.1651814745
 20
-32.4822161452
 10
35.2734220614
 20
-32.5127024699
  0
LWPOLYLINE
  5
342
330
2A7
100
AcDbEntity
  8
0
  6
Continuous
 62
     7
370
    25
100
AcDbPolyline
 90
       16
 70
   128
 43
0.0
 10
38.4992022024
 20
-34.5279663285
 10
39.951533137
 20
-35.3058688451
 10
42.0580475189
 20
-36.6494169494
 10
44.1414824884
 20
-38.2332113322
 10
46.179011496
 20
-40.0398996107
 10
48.1483109475
 20
-42.0496873301
 10
50.027804786
 20
-44.2405548356
 10
51.7969008838
 20
-46.5884985243
 10
53.4362166537
 20
-49.0677938339
 10
54.9277914091
 20
-51.651277086
 10
56.255283145
 20
-54.3106430976
 10
57.4041475839
 20
-57.0167552982
 10
58.3617975268
 20
-59.739964956
 10
59.1177407605
 20
-62.4504360164
 10
59.6636950126
 20
-65.1184719911
 10
59.8981296411
 20
-66.7737367458
  0
LWPOLYLINE
  5
343
330
2A7
100
AcDbEntity
  8
0
  6
Continuous
 62
     7
370
    25
100
AcDbPolyline
 90
       25
 70
   128
 43
0.0
 10
34.9986530598
 20
-27.9511102594
 10
35.3694524488
 20
-27.7477297995
 10
36.9455702422
 20
-27.095147866
 10
38.6504875606
 20
-26.70906743
 10
40.4667096452
 20
-26.5934501994
 10
42.3755995996
 20
-26.7494825632
 10
44.3575696299
 20
-27.1755634184
 10
46.3922820414
 20
-27.8673205987
 10
48.4588579314
 20
-28.8176557395
 10
50.5360914347
 20
-30.0168171161
 10
52.6026673247
 20
-31.4524997101
 10
54.6373797362
 20
-33.1099714754
 10
56.6193497665
 20
-34.9722245085
 10
58.5282397209
 20
-37.0201495736
 10
60.3444618055
 20
-39.2327321879
 10
62.0493791239
 20
-41.58726826
 10
63.6254969173
 20
-44.0595970633
 10
65.0566420843
 20
-46.6243491589
 10
66.3281291389
 20
-49.2552067196
 10
67.4269109032
 20
-51.9251735866
 10
68.3417123895
 20
-54.6068522869
 10
69.0631464966
 20
-57.2727251682
 10
69.5838103343
 20
-59.895436767
 10
69.898361187
 20
-62.4480745135
 10
70.0035713375
 20
-64.9044448899
  0
LWPOLYLINE
  5
345
330
2A7
100
AcDbEntity
  8
0
  6
Continuous
 62
     7
370
    25
100
AcDbPolyline
 90
        3
 70
   128
 43
0.0
 10
31.8051330275
 20
-44.8053905267
 10
32.3110262423
 20
-44.3232044131
 10
33.0999856405
 20
-43.769220709
  0
LWPOLYLINE
  5
346
330
2A7
100
AcDbEntity
  8
0
  6
Continuous
 62
     7
370
    25
100
AcDbPolyline
 90
       13
 70
   128
 43
0.0
 10
60.1813457486
 20
-75.6712533018
 10
59.8707583411
 20
-76.7570259289
 10
59.149324234
 20
-78.5899487199
 10
58.2345227478
 20
-80.2154201062
 10
57.1357409834
 20
-81.6167605516
 10
55.8642539289
 20
-82.7795904069
 10
54.4331087619
 20
-83.6919774643
 10
52.8569909685
 20
-84.3445593978
 10
51.1520736501
 20
-84.7306398338
 10
49.3358515655
 20
-84.8462570644
 10
47.4269616111
 20
-84.6902247006
 10
45.4449915808
 20
-84.2641438454
 10
45.3367509939
 20
-84.2336575207
  0
LWPOLYLINE
  5
347
330
2A7
100
AcDbEntity
  8
0
  6
Continuous
 62
     7
370
    25
100
AcDbPolyline
 90
        9
 70
   128
 43
0.0
 10
63.9962963063
 20
-78.1819442775
 10
65.0566420843
 20
-77.4729376801
 10
66.3281291389
 20
-76.3101078248
 10
67.4269109032
 20
-74.9087673793
 10
68.3417123895
 20
-73.2832959931
 10
69.0631464966
 20
-71.4503732021
 10
69.5838103343
 20
-69.4288072745
 10
69.898361187
 20
-67.2393422123
 10
70.0035713375
 20
-64.9044448899
  0
LWPOLYLINE
  5
349
330
2A7
100
AcDbEntity
  8
0
  6
Continuous
 62
     7
370
    25
100
AcDbPolyline
 90
       16
 70
   128
 43
0.0
 10
52.5343359615
 20
-117.2480754112
 10
52.2777552784
 20
-116.8693836158
 10
51.5857577515
 20
-116.210694872
 10
50.7371634089
 20
-115.8072578985
 10
49.7608701133
 20
-115.6728112576
 10
48.6901243617
 20
-115.8119333682
 10
47.5613891166
 20
-116.2198865939
 10
46.4131021031
 20
-116.8827785768
 10
45.284366858
 20
-117.7780353255
 10
44.2136211064
 20
-118.8751699451
 10
43.2373278107
 20
-120.136820832
 10
42.3887334682
 20
-121.5200239785
 10
41.6967359413
 20
-122.9776760604
 10
41.1849003759
 20
-124.4601384843
 10
40.8706567183
 20
-125.9169277704
 10
40.7647061594
 20
-127.2984347067
  0
LWPOLYLINE
  5
34C
330
2A7
100
AcDbEntity
  8
0
  6
Continuous
 62
     7
370
    25
100
AcDbPolyline
 90
       14
 70
   128
 43
0.0
 10
51.3454585505
 20
-115.8301585713
 10
50.6809675953
 20
-115.5460944956
 10
49.6824857796
 20
-115.4085922442
 10
48.587404858
 20
-115.5508762261
 10
47.4330164976
 20
-115.9681011311
 10
46.2586320096
 20
-116.6460588652
 10
45.1042436493
 20
-117.5616623911
 10
44.0091627276
 20
-118.6837319288
 10
43.010680912
 20
-119.974056746
 10
42.1428003031
 20
-121.3886963786
 10
41.4350755342
 20
-122.8794769705
 10
40.9116073235
 20
-124.3956317768
 10
40.590221753
 20
-125.8855299639
 10
40.4818632229
 20
-127.298434836
  0
LWPOLYLINE
  5
34F
330
2A7
100
AcDbEntity
  8
0
  6
Continuous
 62
     7
370
    25
100
AcDbPolyline
 90
       15
 70
   128
 43
0.0
 10
42.2897176727
 20
-131.1304639437
 10
42.3887334682
 20
-131.2017834158
 10
43.2373278107
 20
-131.6052203893
 10
44.2136211064
 20
-131.7396670303
 10
45.284366858
 20
-131.6005449196
 10
46.4131021031
 20
-131.1925916939
 10
47.5613891166
 20
-130.529699711
 10
48.6901243617
 20
-129.6344429624
 10
49.7608701133
 20
-128.5373083428
 10
50.7371634089
 20
-127.2756574558
 10
51.5857577515
 20
-125.8924543093
 10
52.2777552784
 20
-124.4348022274
 10
52.7895908438
 20
-122.9523398036
 10
53.1038345014
 20
-121.4955505175
 10
53.2097850603
 20
-120.1140435812
  0
LWPOLYLINE
  5
352
330
2A7
100
AcDbEntity
  8
0
  6
Continuous
 62
     7
370
    25
100
AcDbPolyline
 90
       22
 70
   128
 43
0.0
 10
-118.7939392393
 20
-57.9632508386
 10
-121.5945735038
 20
-59.7010329127
 10
-124.3795454855
 20
-61.6711172588
 10
-127.1332804912
 20
-63.8624863662
 10
-129.840378518
 20
-66.2628852098
 10
-132.4857003754
 20
-68.8588897857
 10
-135.0544523507
 20
-71.6359821832
 10
-137.5322689408
 20
-74.5786317752
 10
-139.9052931902
 20
-77.6703820715
 10
-142.1602541848
 20
-80.8939427503
 10
-144.2845412679
 20
-84.2312863526
 10
-146.2662745646
 20
-87.6637490994
 10
-148.0943714182
 20
-91.1721352666
 10
-149.7586083698
 20
-94.7368245355
 10
-151.2496783312
 20
-98.337881718
 10
-152.5592426343
 20
-101.9551682413
 10
-153.6799776644
 20
-105.5684547721
 10
-154.6056158164
 20
-109.1575343464
 10
-155.3309805465
 20
-112.7023353752
 10
-155.8520153209
 20
-116.1830338934
 10
-156.1658063016
 20
-119.5801644229
 10
-156.2705986422
 20
-122.8747288318
  0
LWPOLYLINE
  5
353
330
2A7
100
AcDbEntity
  8
0
  6
Continuous
 62
     7
370
    25
100
AcDbPolyline
 90
       16
 70
   128
 43
0.0
 10
-134.0782104868
 20
-125.7334842238
 10
-134.2382620591
 20
-126.9074842512
 10
-134.714475775
 20
-128.0525765017
 10
-135.4951256724
 20
-129.1405650036
 10
-136.5609895599
 20
-130.1446598693
 10
-137.8858223314
 20
-131.0401369507
 10
-139.437002207
 20
-131.8049466302
 10
-141.1763339902
 20
-132.4202567553
 10
-143.0609895599
 20
-132.8709163485
 10
-145.0445624413
 20
-133.145828675
 10
-147.0782104868
 20
-133.238224481
 10
-149.1118585323
 20
-133.145828675
 10
-151.0954314137
 20
-132.8709163485
 10
-152.9800869834
 20
-132.4202567553
 10
-154.7194187666
 20
-131.8049466302
 10
-156.2705986422
 20
-131.0401369507
  0
SPLINE
  5
357
330
2A7
100
AcDbEntity
  8
0
  6
Continuous
 62
     8
370
    25
100
AcDbSpline
210
0.0
220
0.0
230
1.0
 70
     8
 71
     3
 72
    12
 73
     8
 74
     0
 42
0.000000001
 43
0.00000001
 40
0.0
 40
0.0
 40
0.0
 40
0.0
 40
0.1180898009198272
 40
0.3631294747359654
 40
0.5885985956270617
 40
0.7972625189965538
 40
1.0
 40
1.0
 40
1.0
 40
1.0
 10
-153.8634770968595
 20
-14.94017549412013
 30
0.0
 10
-153.8490979137902
 20
-14.94086400741645
 30
0.0
 10
-153.8048815195341
 20
-14.94298120525823
 30
0.0
 10
-153.7455239913298
 20
-14.67626030857717
 30
0.0
 10
-153.6931899834549
 20
-14.17070871534155
 30
0.0
 10
-153.6601184847545
 20
-13.4723827601723
 30
0.0
 10
-153.6562231581018
 20
-12.86969017235495
 30
0.0
 10
-153.6543035518368
 20
-12.57268492206957
 30
0.0
  0
SPLINE
  5
359
330
2A7
100
AcDbEntity
  8
0
  6
Continuous
 62
     8
370
    25
100
AcDbSpline
210
0.0
220
0.0
230
1.0
 70
     8
 71
     3
 72
    14
 73
    10
 74
     0
 42
0.000000001
 43
0.00000001
 40
0.0
 40
0.0
 40
0.0
 40
0.0
 40
0.1859346013569075
 40
0.3484839372748741
 40
0.4929761041399209
 40
0.6220922087244756
 40
0.8058683972863043
 40
0.9775124205592661
 40
1.0
 40
1.0
 40
1.0
 40
1.0
 10
-154.3614073123014
 20
-1.958410189479426
 30
0.0
 10
-154.3939351574442
 20
-1.696120388458261
 30
0.0
 10
-154.4548997733022
 20
-1.204529356451017
 30
0.0
 10
-154.540556493348
 20
-0.6271020709514574
 30
0.0
 10
-154.6149200365
 20
-0.1910321761874195
 30
0.0
 10
-154.6921512858445
 20
0.1872490920022257
 30
0.0
 10
-154.7703600329727
 20
0.463476481481373
 30
0.0
 10
-154.8301443004012
 20
0.614829913581999
 30
0.0
 10
-154.8574731536746
 20
0.603571508189113
 30
0.0
 10
-154.8606388399947
 20
0.6022673707786613
 30
0.0
  0
SPLINE
  5
35A
330
2A7
100
AcDbEntity
  8
0
  6
Continuous
 62
     8
370
    25
100
AcDbSpline
210
0.0
220
0.0
230
1.0
 70
     8
 71
     3
 72
    12
 73
     8
 74
     0
 42
0.000000001
 43
0.00000001
 40
0.0
 40
0.0
 40
0.0
 40
0.0
 40
0.1189652214792115
 40
0.3637566278582504
 40
0.5890069390109789
 40
0.7974615116820646
 40
1.0
 40
1.0
 40
1.0
 40
1.0
 10
-154.8589873308963
 20
-14.94030490026363
 30
0.0
 10
-154.8734889608223
 20
-14.94103169698013
 30
0.0
 10
-154.9178301887439
 20
-14.94325400295697
 30
0.0
 10
-154.9772975807766
 20
-14.6763194697187
 30
0.0
 10
-155.0296292473585
 20
-14.1707030621655
 30
0.0
 10
-155.0626995207799
 20
-13.47239069092915
 30
0.0
 10
-155.066596615451
 20
-12.86969498869145
 30
0.0
 10
-155.0685171142099
 20
-12.57268492201734
 30
0.0
  0
SPLINE
  5
35B
330
2A7
100
AcDbEntity
  8
0
  6
Continuous
 62
     8
370
    25
100
AcDbSpline
210
0.0
220
0.0
230
1.0
 70
     8
 71
     3
 72
    13
 73
     9
 74
     0
 42
0.000000001
 43
0.00000001
 40
0.0
 40
0.0
 40
0.0
 40
0.0
 40
0.1863573043129113
 40
0.3493104281906754
 40
0.4941606914604708
 40
0.6235876545420777
 40
0.8917860389486264
 40
1.0
 40
1.0
 40
1.0
 40
1.0
 10
-154.3614073123008
 20
-1.958410189432797
 30
0.0
 10
-154.3288847077348
 20
-1.696089487296965
 30
0.0
 10
-154.2679239368721
 20
-1.204392329924031
 30
0.0
 10
-154.1823010495858
 20
-0.62782256623925
 30
0.0
 10
-154.1078208297038
 20
-0.1890042776357959
 30
0.0
 10
-154.0169510188632
 20
0.2465963538286764
 30
0.0
 10
-153.9334960191063
 20
0.5705763596961788
 30
0.0
 10
-153.8799009644282
 20
0.5656953915190444
 30
0.0
 10
-153.8644930395037
 20
0.5642921726645295
 30
0.0
  0
SPLINE
  5
35C
330
2A7
100
AcDbEntity
  8
0
  6
Continuous
 62
     8
370
    25
100
AcDbSpline
210
0.0
220
0.0
230
1.0
 70
     8
 71
     3
 72
    13
 73
     9
 74
     0
 42
0.000000001
 43
0.00000001
 40
0.0
 40
0.0
 40
0.0
 40
0.0
 40
0.0059091104322721
 40
0.2012885809466242
 40
0.4242456745199428
 40
0.5890895334513401
 40
0.7634155540163275
 40
1.0
 40
1.0
 40
1.0
 40
1.0
 10
-6.167835490749784
 20
-85.24437280345839
 30
0.0
 10
-6.179486123254391
 20
-85.23771791070541
 30
0.0
 10
-6.576354537012871
 20
-85.01102491961117
 30
0.0
 10
-7.495038155918746
 20
-84.64167634218458
 30
0.0
 10
-8.78728363664069
 20
-84.21489908802552
 30
0.0
 10
-10.07700746312755
 20
-83.9204000256652
 30
0.0
 10
-11.41671647512472
 20
-83.69708307080528
 30
0.0
 10
-12.38333584334154
 20
-83.63502518668074
 30
0.0
 10
-12.93987340157768
 20
-83.59929494535143
 30
0.0
  0
SPLINE
  5
35E
330
2A7
100
AcDbEntity
  8
0
  6
Continuous
 62
     8
370
    25
100
AcDbSpline
210
0.0
220
0.0
230
1.0
 70
     8
 71
     3
 72
    12
 73
     8
 74
     0
 42
0.000000001
 43
0.00000001
 40
0.0
 40
0.0
 40
0.0
 40
0.0
 40
0.2001749811089648
 40
0.4062515783413452
 40
0.6342065559379353
 40
0.881948287735255
 40
1.0
 40
1.0
 40
1.0
 40
1.0
 10
-21.77888886054592
 20
-89.51914946141224
 30
0.0
 10
-21.75458540871141
 20
-89.82551772557431
 30
0.0
 10
-21.70526198371483
 20
-90.44728669080676
 30
0.0
 10
-21.30681811301629
 20
-91.35794581241815
 30
0.0
 10
-20.64184708368033
 20
-92.22299894810301
 30
0.0
 10
-19.90401110091723
 20
-92.88611328385743
 30
0.0
 10
-19.34102408348157
 20
-93.181134408864
 30
0.0
 10
-19.15933252375032
 20
-93.27634592652967
 30
0.0
  0
SPLINE
  5
360
330
2A7
100
AcDbEntity
  8
0
  6
Continuous
 62
     8
370
    25
100
AcDbSpline
210
0.0
220
0.0
230
1.0
 70
     8
 71
     3
 72
    17
 73
    13
 74
     0
 42
0.000000001
 43
0.00000001
 40
0.0
 40
0.0
 40
0.0
 40
0.0
 40
0.0244644828702267
 40
0.1054218281926039
 40
0.1864713756304048
 40
0.2744166020878669
 40
0.3696837296456995
 40
0.4935718666339906
 40
0.6349409259350329
 40
0.7394686863990507
 40
0.8500010707914336
 40
1.0
 40
1.0
 40
1.0
 40
1.0
 10
-3.292145000665103
 20
-86.88654726092626
 30
0.0
 10
-3.331706979790516
 20
-86.82124996481753
 30
0.0
 10
-3.502186617085276
 20
-86.53987224805441
 30
0.0
 10
-3.928444799896916
 20
-86.10462761315112
 30
0.0
 10
-4.562513433078452
 20
-85.57689406233075
 30
0.0
 10
-5.324329168598721
 20
-85.09870054944659
 30
0.0
 10
-6.283036725674901
 20
-84.63075513911237
 30
0.0
 10
-7.488471259025367
 20
-84.19985657081905
 30
0.0
 10
-8.788736938274255
 20
-83.88587430467861
 30
0.0
 10
-10.07680397609299
 20
-83.6919871249993
 30
0.0
 10
-11.41693157464147
 20
-83.57654272715892
 30
0.0
 10
-12.38342318313815
 20
-83.59098177372601
 30
0.0
 10
-12.93987340157761
 20
-83.59929494535177
 30
0.0
  0
SPLINE
  5
361
330
2A7
100
AcDbEntity
  8
0
  6
Continuous
 62
     8
370
    25
100
AcDbSpline
210
0.0
220
0.0
230
1.0
 70
     8
 71
     3
 72
    12
 73
     8
 74
     0
 42
0.000000001
 43
0.00000001
 40
0.0
 40
0.0
 40
0.0
 40
0.0
 40
0.2513080954413924
 40
0.4535462350532951
 40
0.6556905978574545
 40
0.9444093867539194
 40
1.0
 40
1.0
 40
1.0
 40
1.0
 10
-12.93987340157761
 20
-83.59929494535177
 30
0.0
 10
-13.45224888113715
 20
-83.59152715830545
 30
0.0
 10
-14.3769543478659
 20
-83.57750830800387
 30
0.0
 10
-15.69455044854914
 20
-83.72610974173494
 30
0.0
 10
-17.03799871310674
 20
-84.0152142565771
 30
0.0
 10
-18.07992442859537
 20
-84.32731126482085
 30
0.0
 10
-18.63861712388257
 20
-84.6502807856876
 30
0.0
 10
-18.72882107809891
 20
-84.70242595980443
 30
0.0
  0
LWPOLYLINE
  5
363
330
2A7
100
AcDbEntity
  8
0
  6
Continuous
 62
     8
370
    25
100
AcDbPolyline
 90
       13
 70
   128
 43
0.0
 10
-158.0657428428
 20
-147.4879313076
 10
-157.4336280148
 20
-148.0406934901
 10
-156.129177286
 20
-148.922394001
 10
-154.6018617161
 20
-149.6754373778
 10
-152.8892888835
 20
-150.2812811932
 10
-151.0336280148
 20
-150.7250075619
 10
-149.0805716393
 20
-150.995690468
 10
-147.0782104868
 20
-151.0866648
 10
-145.0758493343
 20
-150.995690468
 10
-143.1227929588
 20
-150.7250075619
 10
-141.2671320901
 20
-150.2812811932
 10
-139.5545592575
 20
-149.6754373778
 10
-138.0272436876
 20
-148.922394001
  0
LWPOLYLINE
  5
365
330
2A7
100
AcDbEntity
  8
0
  6
Continuous
 62
     8
370
    25
100
AcDbPolyline
 90
        3
 70
   128
 43
0.0
 10
-138.0272436876
 20
-148.922394001
 10
-136.7227929588
 20
-148.0406934901
 10
-136.0730053003
 20
-147.4708067244
  0
LWPOLYLINE
  5
369
330
2A7
100
AcDbEntity
  8
0
  6
Continuous
 62
     8
370
    25
100
AcDbPolyline
 90
        9
 70
   128
 43
0.0
 10
-17.8729986238
 20
-22.2153112628
 10
-17.8816329171
 20
-22.3560967612
 10
-18.0982150705
 20
-23.8903787712
 10
-18.52654129
 20
-25.2466147559
 10
-19.1570434755
 20
-26.3945086445
 10
-19.97563725
 20
-27.3084183845
 10
-20.9640365815
 20
-27.9679287423
 10
-22.100162262
 20
-28.3583073465
 10
-23.3174338008
 20
-28.4715684049
  0
LWPOLYLINE
  5
36A
330
2A7
100
AcDbEntity
  8
0
  6
Continuous
 62
     8
370
    25
100
AcDbPolyline
 90
        9
 70
   128
 43
0.0
 10
-36.3163773251
 20
-5.954297983
 10
-35.9972854571
 20
-5.4454077166
 10
-35.1786916825
 20
-4.5314979766
 10
-34.190292351
 20
-3.8719876188
 10
-33.0541666705
 20
-3.4816090146
 10
-31.7956938112
 20
-3.369082577
 10
-30.4429859772
 20
-3.5369219608
 10
-29.0262604264
 20
-3.9813779113
 10
-27.5771644663
 20
-4.6925220171
  0
LWPOLYLINE
  5
36E
330
2A7
100
AcDbEntity
  8
0
  6
Continuous
 62
     8
370
    25
100
AcDbPolyline
 90
        3
 70
   128
 43
0.0
 10
-35.0040557679
 20
-5.1967108737
 10
-34.5487191204
 20
-4.7415217743
 10
-33.8035201418
 20
-4.2153326876
  0
LWPOLYLINE
  5
370
330
2A7
100
AcDbEntity
  8
0
  6
Continuous
 62
     8
370
    25
100
AcDbPolyline
 90
       13
 70
   128
 43
0.0
 10
-136.3830214481
 20
15.4622571791
 10
-136.471608769
 20
15.5138109756
 10
-138.0314014707
 20
16.28543641
 10
-139.5594412911
 20
16.7837063243
 10
-141.0246217459
 20
16.9984773799
 10
-142.3971159862
 20
16.9253774576
 10
-143.6489839874
 20
16.5658946609
 10
-144.754741327
 20
15.9273470229
 10
-145.6918779743
 20
15.0227335321
 10
-146.4413165296
 20
13.8704695105
 10
-146.9878005852
 20
12.4940117306
 10
-147.3202053016
 20
10.9213809036
 10
-147.4317638774
 20
9.184591258
  0
LWPOLYLINE
  5
372
330
2A7
100
AcDbEntity
  8
0
  6
Continuous
 62
     8
370
    25
100
AcDbPolyline
 90
       15
 70
   128
 43
0.0
 10
-124.8043468794
 20
-3.4697344752
 10
-124.9097233709
 20
-1.6299319023
 10
-125.2238898807
 20
0.2972637371
 10
-125.7409940812
 20
2.2759524346
 10
-126.4514032995
 20
4.2692749636
 10
-127.341883956
 20
6.2400994969
 10
-128.395848081
 20
8.1517133024
 10
-129.5936623169
 20
9.9685066317
 10
-130.9130136509
 20
11.6566360627
 10
-132.3293250641
 20
13.1846549381
 10
-133.8162133544
 20
14.5240991575
 10
-135.3459806063
 20
15.6500174092
 10
-136.8901301505
 20
16.5414359667
 10
-138.4198974025
 20
17.1817493887
 10
-138.8526806678
 20
17.3174660813
  0
LWPOLYLINE
  5
375
330
2A7
100
AcDbEntity
  8
0
  6
Continuous
 62
     8
370
    25
100
AcDbPolyline
 90
       15
 70
   128
 43
0.0
 10
-140.0739730951
 20
-7.016189781
 10
-139.5594412911
 20
-7.5037139976
 10
-138.0314014707
 20
-8.769681307
 10
-136.471608769
 20
-9.7989541928
 10
-134.9118160673
 20
-10.5705796272
 10
-133.3837762469
 20
-11.0688495415
 10
-131.9185957921
 20
-11.2836205972
 10
-130.5461015518
 20
-11.2105206749
 10
-129.2942335506
 20
-10.8510378781
 10
-128.188476211
 20
-10.2124902401
 10
-127.2513395637
 20
-9.3078767493
 10
-126.5019010084
 20
-8.1556127277
 10
-125.9554169528
 20
-6.7791549479
 10
-125.6230122364
 20
-5.2065241209
 10
-125.5114536606
 20
-3.4697344752
  0
LWPOLYLINE
  5
376
330
2A7
100
AcDbEntity
  8
0
  6
Continuous
 62
     8
370
    25
100
AcDbPolyline
 90
        3
 70
   128
 43
0.0
 10
-125.1549237249
 20
-6.4944424443
 10
-124.9097233709
 20
-5.1878719408
 10
-124.8043468794
 20
-3.4697344752
  0
LWPOLYLINE
  5
377
330
2A7
100
AcDbEntity
  8
0
  6
Continuous
 62
     8
370
    25
100
AcDbPolyline
 90
       19
 70
   128
 43
0.0
 10
-106.1479341759
 20
49.1281087124
 10
-104.2214623513
 20
48.4668378567
 10
-102.1548864613
 20
47.5165027159
 10
-100.077652958
 20
46.3173413393
 10
-98.011077068
 20
44.8816587453
 10
-95.9763646565
 20
43.2241869801
 10
-93.9943946263
 20
41.3619339469
 10
-92.0855046718
 20
39.3140088819
 10
-90.2692825872
 20
37.1014262675
 10
-88.5643652688
 20
34.7468901955
 10
-86.9882474754
 20
32.2745613921
 10
-85.5571023084
 20
29.7098092965
 10
-84.2856152539
 20
27.0789517358
 10
-83.1868334896
 20
24.4089848688
 10
-82.2720320033
 20
21.7273061685
 10
-81.5505978962
 20
19.0614332873
 10
-81.0299340585
 20
16.4387216884
 10
-80.7153832057
 20
13.886083942
 10
-80.6101730553
 20
11.4297135655
  0
LWPOLYLINE
  5
378
330
2A7
100
AcDbEntity
  8
0
  6
Continuous
 62
     8
370
    25
100
AcDbPolyline
 90
       16
 70
   128
 43
0.0
 10
-121.6223663982
 20
34.6973447722
 10
-121.5119686575
 20
37.0661385706
 10
-121.1819849759
 20
39.28151685
 10
-120.6360307237
 20
41.3192074625
 10
-119.8800874901
 20
43.1568850432
 10
-118.9224375472
 20
44.774415612
 10
-117.7735731082
 20
46.1540771656
 10
-116.4460813724
 20
47.2807538432
 10
-114.9545066169
 20
48.1421015394
 10
-113.315190847
 20
48.7286831486
 10
-111.5460947493
 20
49.0340719598
 10
-109.6666009107
 20
49.0549220695
 10
-107.6973014592
 20
48.7910050394
 10
-105.6597724516
 20
48.2452123997
 10
-103.5763374821
 20
47.4235239688
 10
-102.9221540349
 20
47.1128448537
  0
LWPOLYLINE
  5
379
330
2A7
100
AcDbEntity
  8
0
  6
Continuous
 62
     8
370
    25
100
AcDbPolyline
 90
        3
 70
   128
 43
0.0
 10
-81.5232265962
 20
14.8670744365
 10
-81.4276775431
 20
13.9259698626
 10
-81.3172798023
 20
11.4297135458
  0
LWPOLYLINE
  5
37B
330
2A7
100
AcDbEntity
  8
0
  6
Continuous
 62
     8
370
    25
100
AcDbPolyline
 90
       21
 70
   128
 43
0.0
 10
-112.4148537032
 20
35.2198056611
 10
-111.7708492219
 20
36.2438435428
 10
-110.8219307723
 20
37.2484055146
 10
-109.6988002516
 20
37.9887300787
 10
-108.4223794564
 20
38.4510263893
 10
-107.0164456911
 20
38.6266827407
 10
-105.5071888415
 20
38.5124269876
 10
-103.9227235071
 20
38.1103874983
 10
-102.2925652793
 20
37.4280535079
 10
-100.6470809213
 20
36.4781356076
 10
-99.0169226934
 20
35.2783289706
 10
-97.432457359
 20
33.8509837243
 10
-95.9232005094
 20
32.2226886102
 10
-94.5172667441
 20
30.4237756853
 10
-93.2408459489
 20
28.4877552937
 10
-92.1177154283
 20
26.4506918323
 10
-91.1687969787
 20
24.350531939
 10
-90.4117671554
 20
22.2263976191
 10
-89.8607279918
 20
20.1178574758
 10
-89.5259443048
 20
18.0641896225
 10
-89.413652481
 20
16.1036500057
  0
LWPOLYLINE
  5
37C
330
2A7
100
AcDbEntity
  8
0
  6
Continuous
 62
     8
370
    25
100
AcDbPolyline
 90
       10
 70
   128
 43
0.0
 10
-89.413652481
 20
16.1036500057
 10
-89.5259443048
 20
14.2727597689
 10
-89.8607279918
 20
12.6056249331
 10
-90.4117671554
 20
11.1333010659
 10
-91.1687969787
 20
9.8832147752
 10
-92.1177154283
 20
8.8786528034
 10
-93.2408459489
 20
8.1383282393
 10
-94.5172667441
 20
7.6760319287
 10
-95.9232005094
 20
7.5003755772
 10
-96.4161539811
 20
7.5062420649
  0
LWPOLYLINE
  5
37D
330
2A7
100
AcDbEntity
  8
0
  6
Continuous
 62
     8
370
    25
100
AcDbPolyline
 90
       18
 70
   128
 43
0.0
 10
-81.3172798023
 20
11.4297135458
 10
-81.4276775431
 20
9.0609197474
 10
-81.7576612247
 20
6.845541468
 10
-82.3036154768
 20
4.8078508555
 10
-83.0595587105
 20
2.9701732748
 10
-84.0172086534
 20
1.3526427059
 10
-85.1660730923
 20
-0.0270188476
 10
-86.4935648282
 20
-1.1536955252
 10
-87.9851395836
 20
-2.0150432214
 10
-89.6244553535
 20
-2.6016248306
 10
-91.3935514513
 20
-2.9070136419
 10
-93.2730452898
 20
-2.9278637515
 10
-95.2423447413
 20
-2.6639467214
 10
-97.2798737489
 20
-2.1181540817
 10
-99.3633087184
 20
-1.2964656509
 10
-101.4698231003
 20
-0.2078840192
 10
-103.5763374821
 20
1.1356640851
 10
-105.263907949
 20
2.3985424196
  0
LWPOLYLINE
  5
37E
330
2A7
100
AcDbEntity
  8
0
  6
Continuous
 62
     8
370
    25
100
AcDbPolyline
 90
        3
 70
   128
 43
0.0
 10
-121.2626076712
 20
30.1121060158
 10
-121.5119686575
 20
32.2010884554
 10
-121.6223663982
 20
34.6973447722
  0
LWPOLYLINE
  5
380
330
2A7
100
AcDbEntity
  8
0
  6
Continuous
 62
     8
370
    25
100
AcDbPolyline
 90
        3
 70
   128
 43
0.0
 10
-110.323329991
 20
36.4272165997
 10
-109.8174367762
 20
36.9094027133
 10
-108.984686654
 20
37.4883952449
  0
LWPOLYLINE
  5
384
330
2A7
100
AcDbEntity
  8
0
  6
Continuous
 62
     8
370
    25
100
AcDbPolyline
 90
       14
 70
   128
 43
0.0
 10
-171.5794604549
 20
-4.8780384681
 10
-171.4711019248
 20
-3.4651335961
 10
-171.1497163544
 20
-1.975235409
 10
-170.6262481436
 20
-0.4590806027
 10
-169.9185233748
 20
1.0316999892
 10
-169.0506427659
 20
2.4463396218
 10
-168.0521609503
 20
3.736664439
 10
-166.9570800286
 20
4.8587339767
 10
-165.8026916682
 20
5.7743375026
 10
-164.6283071802
 20
6.4522952368
 10
-163.4739188199
 20
6.8695201417
 10
-162.3788378982
 20
7.0118041236
 10
-161.3803560826
 20
6.8743018722
 10
-161.1114482874
 20
6.7815784285
  0
LWPOLYLINE
  5
385
330
2A7
100
AcDbEntity
  8
0
  6
Continuous
 62
     8
370
    25
100
AcDbPolyline
 90
       17
 70
   128
 43
0.0
 10
-170.7309323175
 20
-4.8780384681
 10
-170.6168027059
 20
-3.4740394824
 10
-170.278799808
 20
-1.9922241455
 10
-169.7299128857
 20
-0.4895377899
 10
-168.9912353555
 20
0.9762721904
 10
-168.0911541808
 20
2.3488755401
 10
-167.0642589761
 20
3.575523882
 10
-165.9500127485
 20
4.6090778083
 10
-164.7912353555
 20
5.4098184214
 10
-163.6324579625
 20
5.9469737084
 10
-162.5182117349
 20
6.1999010929
 10
-161.4913165303
 20
6.1588807174
 10
-160.5912353555
 20
5.825488972
 10
-159.8525578254
 20
5.2125379143
 10
-159.303670903
 20
4.3435829099
 10
-158.9656680052
 20
3.2520174122
 10
-158.9164314943
 20
2.9534410339
  0
LWPOLYLINE
  5
386
330
2A7
100
AcDbEntity
  8
0
  6
Continuous
 62
     8
370
    25
100
AcDbPolyline
 90
        9
 70
   128
 43
0.0
 10
-165.6658829396
 20
-8.7382186082
 10
-165.9500127485
 20
-8.8452225053
 10
-167.0642589761
 20
-9.0981498899
 10
-168.0911541808
 20
-9.0571295144
 10
-168.9912353555
 20
-8.7237377689
 10
-169.7299128857
 20
-8.1107867113
 10
-170.278799808
 20
-7.2418317069
 10
-170.6168027059
 20
-6.1502662092
 10
-170.7309323175
 20
-4.8780384681
  0
LWPOLYLINE
  5
389
330
2A7
100
AcDbEntity
  8
0
  6
Continuous
 62
     8
370
    25
100
AcDbPolyline
 90
       13
 70
   128
 43
0.0
 10
5.0383347892
 20
-66.1785540032
 10
4.9497474683
 20
-66.1270002067
 10
3.3899547666
 20
-65.3553747723
 10
1.8619149462
 20
-64.857104858
 10
0.3967344915
 20
-64.6423338023
 10
-0.9757597489
 20
-64.7154337247
 10
-2.2276277501
 20
-65.0749165214
 10
-3.3333850897
 20
-65.7134641594
 10
-4.270521737
 20
-66.6180776502
 10
-5.0199602923
 20
-67.7703416718
 10
-5.5664443479
 20
-69.1467994516
 10
-5.8988490643
 20
-70.7194302786
 10
-6.0104076401
 20
-72.4562199243
  0
LWPOLYLINE
  5
38B
330
2A7
100
AcDbEntity
  8
0
  6
Continuous
 62
     8
370
    25
100
AcDbPolyline
 90
       15
 70
   128
 43
0.0
 10
16.6170093579
 20
-85.1105456575
 10
16.5116328664
 20
-83.2707430846
 10
16.1974663566
 20
-81.3435474451
 10
15.6803621561
 20
-79.3648587476
 10
14.9699529378
 20
-77.3715362186
 10
14.0794722813
 20
-75.4007116853
 10
13.0255081563
 20
-73.4890978799
 10
11.8276939204
 20
-71.6723045506
 10
10.5083425864
 20
-69.9841751196
 10
9.0920311733
 20
-68.4561562441
 10
7.6051428829
 20
-67.1167120248
 10
6.075375631
 20
-65.9907937731
 10
4.5312260868
 20
-65.0993752156
 10
3.0014588349
 20
-64.4590617935
 10
2.5686755695
 20
-64.323345101
  0
LWPOLYLINE
  5
38E
330
2A7
100
AcDbEntity
  8
0
  6
Continuous
 62
     8
370
    25
100
AcDbPolyline
 90
        8
 70
   128
 43
0.0
 10
11.3634135898
 20
-92.7490153115
 10
12.1271226867
 20
-92.4918490604
 10
13.2328800263
 20
-91.8533014224
 10
14.1700166736
 20
-90.9486879316
 10
14.9194552289
 20
-89.79642391
 10
15.4659392845
 20
-88.4199661302
 10
15.7983440009
 20
-86.8473353031
 10
15.9099025767
 20
-85.1105456575
  0
LWPOLYLINE
  5
38F
330
2A7
100
AcDbEntity
  8
0
  6
Continuous
 62
     8
370
    25
100
AcDbPolyline
 90
        3
 70
   128
 43
0.0
 10
16.2664325124
 20
-88.1352536265
 10
16.5116328664
 20
-86.8286831231
 10
16.6170093579
 20
-85.1105456575
  0
LWPOLYLINE
  5
390
330
2A7
100
AcDbEntity
  8
0
  6
Continuous
 62
     8
370
    25
100
AcDbPolyline
 90
       19
 70
   128
 43
0.0
 10
35.2734220614
 20
-32.5127024699
 10
37.199893886
 20
-33.1739733256
 10
39.266469776
 20
-34.1243084664
 10
41.3437032793
 20
-35.323469843
 10
43.4102791693
 20
-36.759152437
 10
45.4449915808
 20
-38.4166242022
 10
47.4269616111
 20
-40.2788772354
 10
49.3358515655
 20
-42.3268023004
 10
51.1520736501
 20
-44.5393849148
 10
52.8569909685
 20
-46.8939209868
 10
54.4331087619
 20
-49.3662497902
 10
55.8642539289
 20
-51.9310018858
 10
57.1357409834
 20
-54.5618594464
 10
58.2345227478
 20
-57.2318263135
 10
59.149324234
 20
-59.9135050138
 10
59.8707583411
 20
-62.579377895
 10
60.3914221788
 20
-65.2020894939
 10
60.7059730316
 20
-67.7547272403
 10
60.811183182
 20
-70.2110976168
  0
LWPOLYLINE
  5
391
330
2A7
100
AcDbEntity
  8
0
  6
Continuous
 62
     8
370
    25
100
AcDbPolyline
 90
       16
 70
   128
 43
0.0
 10
19.7989898391
 20
-46.9434664101
 10
19.9093875799
 20
-44.5746726117
 10
20.2393712615
 20
-42.3592943323
 10
20.7853255136
 20
-40.3216037198
 10
21.5412687472
 20
-38.4839261391
 10
22.4989186901
 20
-36.8663955702
 10
23.6477831291
 20
-35.4867340167
 10
24.9752748649
 20
-34.360057339
 10
26.4668496204
 20
-33.4987096429
 10
28.1061653903
 20
-32.9121280337
 10
29.8752614881
 20
-32.6067392224
 10
31.7547553266
 20
-32.5858891128
 10
33.7240547781
 20
-32.8498061429
 10
35.7615837857
 20
-33.3955987826
 10
37.8450187552
 20
-34.2172872134
 10
38.4992022024
 20
-34.5279663285
  0
LWPOLYLINE
  5
392
330
2A7
100
AcDbEntity
  8
0
  6
Continuous
 62
     8
370
    25
100
AcDbPolyline
 90
        3
 70
   128
 43
0.0
 10
59.8981296411
 20
-66.7737367458
 10
59.9936786942
 20
-67.7148413197
 10
60.104076435
 20
-70.2110976365
  0
LWPOLYLINE
  5
394
330
2A7
100
AcDbEntity
  8
0
  6
Continuous
 62
     8
370
    25
100
AcDbPolyline
 90
       10
 70
   128
 43
0.0
 10
52.0077037563
 20
-65.5371611766
 10
51.8954119325
 20
-67.3680514133
 10
51.5606282455
 20
-69.0351862492
 10
51.0095890819
 20
-70.5075101164
 10
50.2525592586
 20
-71.757596407
 10
49.303640809
 20
-72.7621583789
 10
48.1805102884
 20
-73.502482943
 10
46.9040894932
 20
-73.9647792536
 10
45.4981557279
 20
-74.140435605
 10
45.0052022563
 20
-74.1345691174
  0
LWPOLYLINE
  5
395
330
2A7
100
AcDbEntity
  8
0
  6
Continuous
 62
     8
370
    25
100
AcDbPolyline
 90
       21
 70
   128
 43
0.0
 10
29.0065025341
 20
-46.4210055212
 10
29.6505070154
 20
-45.3969676395
 10
30.599425465
 20
-44.3924056677
 10
31.7225559857
 20
-43.6520811035
 10
32.9989767809
 20
-43.189784793
 10
34.4049105462
 20
-43.0141284415
 10
35.9141673958
 20
-43.1283841947
 10
37.4986327302
 20
-43.530423684
 10
39.128790958
 20
-44.2127576744
 10
40.774275316
 20
-45.1626755747
 10
42.4044335439
 20
-46.3624822117
 10
43.9888988783
 20
-47.7898274579
 10
45.4981557279
 20
-49.4181225721
 10
46.9040894932
 20
-51.217035497
 10
48.1805102884
 20
-53.1530558885
 10
49.303640809
 20
-55.19011935
 10
50.2525592586
 20
-57.2902792432
 10
51.0095890819
 20
-59.4144135632
 10
51.5606282455
 20
-61.5229537065
 10
51.8954119325
 20
-63.5766215598
 10
52.0077037563
 20
-65.5371611766
  0
LWPOLYLINE
  5
396
330
2A7
100
AcDbEntity
  8
0
  6
Continuous
 62
     8
370
    25
100
AcDbPolyline
 90
       18
 70
   128
 43
0.0
 10
60.104076435
 20
-70.2110976365
 10
59.9936786942
 20
-72.5798914349
 10
59.6636950126
 20
-74.7952697143
 10
59.1177407605
 20
-76.8329603268
 10
58.3617975268
 20
-78.6706379075
 10
57.4041475839
 20
-80.2881684763
 10
56.255283145
 20
-81.6678300299
 10
54.9277914091
 20
-82.7945067075
 10
53.4362166537
 20
-83.6558544037
 10
51.7969008838
 20
-84.2424360129
 10
50.027804786
 20
-84.5478248241
 10
48.1483109475
 20
-84.5686749338
 10
46.179011496
 20
-84.3047579037
 10
44.1414824884
 20
-83.758965264
 10
42.0580475189
 20
-82.9372768331
 10
39.951533137
 20
-81.8486952015
 10
37.8450187552
 20
-80.5051470972
 10
36.1574482883
 20
-79.2422687626
  0
LWPOLYLINE
  5
397
330
2A7
100
AcDbEntity
  8
0
  6
Continuous
 62
     8
370
    25
100
AcDbPolyline
 90
        3
 70
   128
 43
0.0
 10
20.1587485661
 20
-51.5287051665
 10
19.9093875799
 20
-49.4397227269
 10
19.7989898391
 20
-46.9434664101
  0
LWPOLYLINE
  5
399
330
2A7
100
AcDbEntity
  8
0
  6
Continuous
 62
     8
370
    25
100
AcDbPolyline
 90
        3
 70
   128
 43
0.0
 10
31.0980262463
 20
-45.2135945826
 10
31.6039194611
 20
-44.731408469
 10
32.4366695833
 20
-44.1524159373
  0
LWPOLYLINE
  5
39E
330
2A7
100
AcDbEntity
  8
0
  6
Continuous
 62
     8
370
    25
100
AcDbPolyline
 90
       14
 70
   128
 43
0.0
 10
2.4136692924
 20
-87.5824379023
 10
1.7491783372
 20
-87.2983738265
 10
0.7506965215
 20
-87.1608715751
 10
-0.3443844001
 20
-87.3031555571
 10
-1.4987727605
 20
-87.720380462
 10
-2.6731572485
 20
-88.3983381962
 10
-3.8275456089
 20
-89.3139417221
 10
-4.9226265305
 20
-90.4360112598
 10
-5.9211083462
 20
-91.726336077
 10
-6.788988955
 20
-93.1409757095
 10
-7.4967137239
 20
-94.6317563015
 10
-8.0201819346
 20
-96.1479111077
 10
-8.3415675051
 20
-97.6378092948
 10
-8.4499260352
 20
-99.0507141669
  0
LWPOLYLINE
  5
3A2
330
2A7
100
AcDbEntity
  8
0
  6
Continuous
 62
     8
370
    25
100
AcDbPolyline
 90
       16
 70
   128
 43
0.0
 10
-112.2815118353
 20
-79.8294075996
 10
-111.3571410027
 20
-79.110812045
 10
-110.60346142
 20
-78.1256666205
 10
-110.0514585838
 20
-76.9054328858
 10
-109.714724636
 20
-75.4801570452
 10
-109.6015510839
 20
-73.88493412
 10
-109.714724636
 20
-72.1590437928
 10
-110.0514585838
 20
-70.3449832115
 10
-110.60346142
 20
-68.4874205681
 10
-111.3571410027
 20
-66.6320952198
 10
-112.2939392393
 20
-64.8246914341
 10
-113.3907890482
 20
-63.1097134906
 10
-114.6206823469
 20
-61.529389838
 10
-115.9533350804
 20
-60.1226332894
 10
-117.3559329158
 20
-58.9240828598
 10
-118.7939392393
 20
-57.9632508386
  0
LWPOLYLINE
  5
3A3
330
2A7
100
AcDbEntity
  8
0
  6
Continuous
 62
     8
370
    25
100
AcDbPolyline
 90
       16
 70
   128
 43
0.0
 10
-134.0782356868
 20
-117.5828528666
 10
-134.2382620591
 20
-118.7420761324
 10
-134.714475775
 20
-119.8871683828
 10
-135.4951256724
 20
-120.9751568847
 10
-136.5609895599
 20
-121.9792517504
 10
-137.8858223314
 20
-122.8747288318
 10
-139.437002207
 20
-123.6395385114
 10
-141.1763339902
 20
-124.2548486364
 10
-143.0609895599
 20
-124.7055082296
 10
-145.0445624413
 20
-124.9804205561
 10
-147.0782104868
 20
-125.0728163621
 10
-149.1118585323
 20
-124.9804205561
 10
-151.0954314137
 20
-124.7055082296
 10
-152.9800869834
 20
-124.2548486364
 10
-154.7194187666
 20
-123.6395385114
 10
-156.2705986422
 20
-122.8747288318
  0
LINE
  5
3A7
330
2A7
100
AcDbEntity
  8
0
  6
Continuous
 62
     7
370
    25
100
AcDbLine
 10
-153.8478762267
 20
-14.9676948063
 30
0.0
 11
-133.3090150807
 21
-3.1108626465
 31
0.0
  0
LINE
  5
3A8
330
2A7
100
AcDbEntity
  8
0
  6
Continuous
 62
     7
370
    25
100
AcDbLine
 10
-154.8561662997
 20
0.6094998293
 30
0.0
 11
-161.4165096329
 21
4.3967054226
 31
0.0
  0
LINE
  5
3A9
330
2A7
100
AcDbEntity
  8
0
  6
Continuous
 62
     7
370
    25
100
AcDbLine
 10
-140.058466526
 20
8.5807969957
 30
0.0
 11
-153.884905095
 21
0.5989639079
 31
0.0
  0
LINE
  5
3AA
330
2A7
100
AcDbEntity
  8
0
  6
Continuous
 62
     7
370
    25
100
AcDbLine
 10
-168.1659610782
 20
-7.2949542196
 30
0.0
 11
-154.8749450069
 21
-14.9676944786
 31
0.0
  0
LINE
  5
3AB
330
2A7
100
AcDbEntity
  8
0
  6
Continuous
 62
     7
370
    25
100
AcDbLine
 10
-1.8331619421
 20
-87.7288002528
 30
0.0
 11
-5.6978775633
 21
-85.4977474139
 31
0.0
  0
LINE
  5
3AC
330
2A7
100
AcDbEntity
  8
0
  6
Continuous
 62
     7
370
    25
100
AcDbLine
 10
-19.1756469871
 20
-93.3052317641
 30
0.0
 11
-8.6007015447
 21
-99.410017824
 31
0.0
  0
LINE
  5
3AD
330
2A7
100
AcDbEntity
  8
0
  6
Continuous
 62
     7
370
    25
100
AcDbLine
 10
1.3628897113
 20
-73.0600141866
 30
0.0
 11
-19.1759714347
 21
-84.9168463464
 31
0.0
  0
LINE
  5
3AE
330
2A7
100
AcDbEntity
  8
0
  6
Continuous
 62
     7
370
    25
100
AcDbLine
 10
2.8112259693
 20
-87.8119424867
 30
0.0
 11
8.1123411566
 21
-84.7516738287
 31
0.0
  0
LINE
  5
3AF
330
2A7
100
AcDbEntity
  8
0
  6
Continuous
 62
     7
370
    25
100
AcDbLine
 10
-159.8782104868
 20
-127.0448298263
 30
0.0
 11
-159.8782104868
 21
-143.6973820853
 31
0.0
  0
LINE
  5
3B0
330
2A7
100
AcDbEntity
  8
0
  6
Continuous
 62
     7
370
    25
100
AcDbLine
 10
-134.2782104868
 20
-143.6973820853
 30
0.0
 11
-134.2782104868
 21
-127.0448298263
 31
0.0
  0
LINE
  5
3B1
330
2A7
100
AcDbEntity
  8
0
  6
Continuous
 62
     7
370
    25
100
AcDbLine
 10
-13.6161498582
 20
-39.6138406792
 30
0.0
 11
-7.4643208619
 21
-36.0624653928
 31
0.0
  0
LINE
  5
3B2
330
2A7
100
AcDbEntity
  8
0
  6
Continuous
 62
     7
370
    25
100
AcDbLine
 10
-27.4735907588
 20
-4.9214444203
 30
0.0
 11
-26.9505257549
 21
-5.24540544
 31
0.0
  0
LINE
  5
3B3
330
2A7
100
AcDbEntity
  8
0
  6
Continuous
 62
     7
370
    25
100
AcDbLine
 10
-34.9620860093
 20
11.5702220381
 30
0.0
 11
-41.1139150057
 21
8.0188467517
 31
0.0
  0
LINE
  5
3B4
330
2A7
100
AcDbEntity
  8
0
  6
Continuous
 62
     7
370
    25
100
AcDbLine
 10
-107.5656859514
 20
38.019170618
 30
0.0
 11
-144.1174052395
 21
16.9183122174
 31
0.0
  0
LINE
  5
3B5
330
2A7
100
AcDbEntity
  8
0
  6
Continuous
 62
     7
370
    25
100
AcDbLine
 10
-128.1187055173
 20
-10.7952513788
 30
0.0
 11
-91.6324221832
 21
10.2678316497
 31
0.0
  0
LINE
  5
3B6
330
2A7
100
AcDbEntity
  8
0
  6
Continuous
 62
     7
370
    25
100
AcDbLine
 10
-106.4227031775
 20
53.6897009228
 30
0.0
 11
-115.6150913329
 21
48.383048196
 31
0.0
  0
LINE
  5
3B7
330
2A7
100
AcDbEntity
  8
0
  6
Continuous
 62
     7
370
    25
100
AcDbLine
 10
-86.6174480865
 20
-1.8477858221
 30
0.0
 11
-77.425059931
 21
3.4588669048
 31
0.0
  0
LINE
  5
3B8
330
2A7
100
AcDbEntity
  8
0
  6
Continuous
 62
     7
370
    25
100
AcDbLine
 10
-160.7158651274
 20
6.5902377965
 30
0.0
 11
-209.6476543855
 21
34.8379584656
 31
0.0
  0
LINE
  5
3B9
330
2A7
100
AcDbEntity
  8
0
  6
Continuous
 62
     7
370
    25
100
AcDbLine
 10
-218.6469229792
 20
19.2490789427
 30
0.0
 11
-169.7151337211
 21
-8.9986417264
 31
0.0
  0
LINE
  5
3BA
330
2A7
100
AcDbEntity
  8
0
  6
Continuous
 62
     7
370
    25
100
AcDbLine
 10
33.8556702859
 20
-43.6216405642
 30
0.0
 11
-2.6960490022
 21
-64.7224989648
 31
0.0
  0
LINE
  5
3BB
330
2A7
100
AcDbEntity
  8
0
  6
Continuous
 62
     7
370
    25
100
AcDbLine
 10
13.30265072
 20
-92.436062561
 30
0.0
 11
49.7889340541
 21
-71.3729795326
 31
0.0
  0
LINE
  5
3BC
330
2A7
100
AcDbEntity
  8
0
  6
Continuous
 62
     7
370
    25
100
AcDbLine
 10
34.9986530598
 20
-27.9511102594
 30
0.0
 11
25.8062649044
 21
-33.2577629863
 31
0.0
  0
LINE
  5
3BD
330
2A7
100
AcDbEntity
  8
0
  6
Continuous
 62
     7
370
    25
100
AcDbLine
 10
54.8039081509
 20
-83.4885970044
 30
0.0
 11
63.9962963063
 21
-78.1819442775
 31
0.0
  0
LINE
  5
3BE
330
2A7
100
AcDbEntity
  8
0
  6
Continuous
 62
     7
370
    25
100
AcDbLine
 10
51.3454585505
 20
-115.8301585713
 30
0.0
 11
2.4136692924
 21
-87.5824379023
 31
0.0
  0
LINE
  5
3BF
330
2A7
100
AcDbEntity
  8
0
  6
Continuous
 62
     7
370
    25
100
AcDbLine
 10
40.8388550891
 20
-127.6736937729
 30
0.0
 11
40.8232845792
 21
-127.2167940248
 31
0.0
  0
LINE
  5
3C0
330
2A7
100
AcDbEntity
  8
0
  6
Continuous
 62
     7
370
    25
100
AcDbLine
 10
-6.5855993014
 20
-103.1713174251
 30
0.0
 11
42.3461899567
 21
-131.4190380942
 31
0.0
  0
LINE
  5
3C1
330
2A7
100
AcDbEntity
  8
0
  6
Continuous
 62
     7
370
    25
100
AcDbLine
 10
-134.0782104868
 20
-125.7334842238
 30
0.0
 11
-134.0782104868
 21
-117.568076105
 31
0.0
  0
LINE
  5
3C2
330
2A7
100
AcDbEntity
  8
0
  6
Continuous
 62
     7
370
    25
100
AcDbLine
 10
-112.2944674772
 20
-79.8369166041
 30
0.0
 11
-19.5038271434
 21
-26.2700201428
 31
0.0
  0
LINE
  5
3C3
330
2A7
100
AcDbEntity
  8
0
  6
Continuous
 62
     7
370
    25
100
AcDbLine
 10
-160.0782104868
 20
-117.568076105
 30
0.0
 11
-160.0782104868
 21
-125.7334842238
 31
0.0
  0
LINE
  5
3C4
330
2A7
100
AcDbEntity
  8
0
  6
Continuous
 62
     7
370
    25
100
AcDbLine
 10
-32.5691209742
 20
-3.7910529376
 30
0.0
 11
-125.2934110015
 21
-57.3196461822
 31
0.0
  0
LINE
  5
3C5
330
2A7
100
AcDbEntity
  8
0
  6
Continuous
 62
     7
370
    25
100
AcDbLine
 10
-6.0104076401
 20
-85.1514655882
 30
0.0
 11
-6.0104076401
 21
-85.3340103484
 31
0.0
  0
LINE
  5
3C6
330
2A7
100
AcDbEntity
  8
0
  6
Continuous
 62
     7
370
    25
100
AcDbLine
 10
-136.5730302547
 20
-4.0621942462
 30
0.0
 11
-136.7043113606
 21
-4.0467709289
 31
0.0
  0
LINE
  5
3C7
330
2A7
100
AcDbEntity
  8
0
  6
Continuous
 62
     7
370
    25
100
AcDbLine
 10
-155.0685171142
 20
-12.572684922
 30
0.0
 11
-169.5642061285
 21
-4.2045017759
 31
0.0
  0
LINE
  5
3C8
330
2A7
100
AcDbEntity
  8
0
  6
Continuous
 62
     7
370
    25
100
AcDbLine
 10
-136.0904408323
 20
-0.4493443213
 30
0.0
 11
-136.088447731
 21
-0.452796474
 31
0.0
  0
LINE
  5
3C9
330
2A7
100
AcDbEntity
  8
0
  6
Continuous
 62
     7
370
    25
100
AcDbLine
 10
-5.7040072629
 20
-85.5084710774
 30
0.0
 11
-6.1678354907
 21
-85.2443728035
 31
0.0
  0
LINE
  5
3CA
330
2A7
100
AcDbEntity
  8
0
  6
Continuous
 62
     7
370
    25
100
AcDbLine
 10
-18.7288210781
 20
-84.7024259598
 30
0.0
 11
-19.1603705645
 21
-84.9443656585
 31
0.0
  0
LINE
  5
3CB
330
2A7
100
AcDbEntity
  8
0
  6
Continuous
 62
     7
370
    25
100
AcDbLine
 10
-27.3650324319
 20
6.6573753631
 30
0.0
 11
-21.2132034356
 21
10.2087506495
 31
0.0
  0
LINE
  5
3CC
330
2A7
100
AcDbEntity
  8
0
  6
Continuous
 62
     7
370
    25
100
AcDbLine
 10
-80.6101730553
 20
11.4297135655
 30
0.0
 11
-71.4177848998
 21
16.7363662924
 31
0.0
  0
LINE
  5
3CD
330
2A7
100
AcDbEntity
  8
0
  6
Continuous
 62
     7
370
    25
100
AcDbLine
 10
-161.1114482874
 20
6.7815784285
 30
0.0
 11
-160.7158651274
 21
6.5902377965
 31
0.0
  0
LINE
  5
3CE
330
2A7
100
AcDbEntity
  8
0
  6
Continuous
 62
     7
370
    25
100
AcDbLine
 10
-171.5794604549
 20
-4.8780384681
 30
0.0
 11
-220.511249713
 21
23.3696822009
 31
0.0
  0
LINE
  5
3CF
330
2A7
100
AcDbEntity
  8
0
  6
Continuous
 62
     7
370
    25
100
AcDbLine
 10
-169.319550561
 20
-9.1899823584
 30
0.0
 11
-169.7151337211
 21
-8.9986417264
 31
0.0
  0
LINE
  5
3D0
330
2A7
100
AcDbEntity
  8
0
  6
Continuous
 62
     7
370
    25
100
AcDbLine
 10
-136.8476161142
 20
-3.9718401002
 30
0.0
 11
-136.7724768707
 21
-4.0273693987
 31
0.0
  0
LINE
  5
3D1
330
2A7
100
AcDbEntity
  8
0
  6
Continuous
 62
     7
370
    25
100
AcDbLine
 10
-135.229428219
 20
-3.6997329379
 30
0.0
 11
-135.1625002243
 21
-3.5234810859
 31
0.0
  0
LINE
  5
3D2
330
2A7
100
AcDbEntity
  8
0
  6
Continuous
 62
     7
370
    25
100
AcDbLine
 10
-135.5523699535
 20
-3.7426108733
 30
0.0
 11
-135.6911555331
 21
-3.9400778594
 31
0.0
  0
LINE
  5
3D3
330
2A7
100
AcDbEntity
  8
0
  6
Continuous
 62
     7
370
    25
100
AcDbLine
 10
-135.5523699535
 20
-1.0741969865
 30
0.0
 11
-135.8175349964
 21
-0.3907616508
 31
0.0
  0
LINE
  5
3D4
330
2A7
100
AcDbEntity
  8
0
  6
Continuous
 62
     7
370
    25
100
AcDbLine
 10
-135.5523699535
 20
-1.229828786
 30
0.0
 11
-136.4362534299
 21
-2.3293714278
 31
0.0
  0
LINE
  5
3D5
330
2A7
100
AcDbEntity
  8
0
  6
Continuous
 62
     7
370
    25
100
AcDbLine
 10
-136.4362534299
 20
-2.3293714278
 30
0.0
 11
-136.4362534299
 21
-3.5079465717
 31
0.0
  0
LINE
  5
3D6
330
2A7
100
AcDbEntity
  8
0
  6
Continuous
 62
     7
370
    25
100
AcDbLine
 10
-136.4362534299
 20
-3.5079465717
 30
0.0
 11
-135.5523699535
 21
-3.5869790737
 31
0.0
  0
LINE
  5
3D7
330
2A7
100
AcDbEntity
  8
0
  6
Continuous
 62
     7
370
    25
100
AcDbLine
 10
-135.5523699535
 20
-3.5869790737
 30
0.0
 11
-134.668486477
 21
-2.4874364319
 31
0.0
  0
LINE
  5
3D8
330
2A7
100
AcDbEntity
  8
0
  6
Continuous
 62
     7
370
    25
100
AcDbLine
 10
-134.668486477
 20
-2.4874364319
 30
0.0
 11
-134.668486477
 21
-1.3088612881
 31
0.0
  0
LINE
  5
3D9
330
2A7
100
AcDbEntity
  8
0
  6
Continuous
 62
     7
370
    25
100
AcDbLine
 10
-134.668486477
 20
-1.3088612881
 30
0.0
 11
-135.5523699535
 21
-1.229828786
 31
0.0
  0
LINE
  5
3DA
330
2A7
100
AcDbEntity
  8
0
  6
Continuous
 62
     7
370
    25
100
AcDbLine
 10
-135.5523699535
 20
-3.5869790737
 30
0.0
 11
-136.4362534299
 21
-3.0767240039
 31
0.0
  0
LINE
  5
3DB
330
2A7
100
AcDbEntity
  8
0
  6
Continuous
 62
     7
370
    25
100
AcDbLine
 10
-134.668486477
 20
-2.4874364319
 30
0.0
 11
-135.9627150473
 21
-1.7402941817
 31
0.0
  0
LINE
  5
3DC
330
2A7
100
AcDbEntity
  8
0
  6
Continuous
 62
     7
370
    25
100
AcDbLine
 10
60.811183182
 20
-70.2110976168
 30
0.0
 11
70.0035713375
 21
-64.9044448899
 31
0.0
  0
LINE
  5
3DD
330
2A7
100
AcDbEntity
  8
0
  6
Continuous
 62
     7
370
    25
100
AcDbLine
 10
53.2097852843
 20
-119.9507618296
 30
0.0
 11
53.1938986629
 21
-119.4409940966
 31
0.0
  0
LINE
  5
3DE
330
2A7
100
AcDbEntity
  8
0
  6
Continuous
 62
     7
370
    25
100
AcDbLine
 10
-8.4499260352
 20
-99.0507141669
 30
0.0
 11
40.4818632229
 21
-127.298434836
 31
0.0
  0
LINE
  5
3DF
330
2A7
100
AcDbEntity
  8
0
  6
Continuous
 62
     7
370
    25
100
AcDbLine
 10
-6.7561050423
 20
-103.0651283597
 30
0.0
 11
-6.5855993014
 21
-103.1713174251
 31
0.0
  0
LINE
  5
3E0
330
2A7
100
AcDbEntity
  8
0
  6
Continuous
 62
     7
370
    25
100
AcDbLine
 10
-156.2705986422
 20
-122.8747288318
 30
0.0
 11
-156.2705986422
 21
-131.0401369507
 31
0.0
  0
LINE
  5
3E1
330
2A7
100
AcDbEntity
  8
0
  6
Continuous
 62
     8
370
    25
100
AcDbLine
 10
-134.2158021046
 20
-1.3510768952
 30
0.0
 11
-131.9107700304
 21
-0.0204102028
 31
0.0
  0
LINE
  5
3E2
330
2A7
100
AcDbEntity
  8
0
  6
Continuous
 62
     8
370
    25
100
AcDbLine
 10
-145.1690221776
 20
-7.6742362511
 30
0.0
 11
-137.3839125491
 21
-3.1799881254
 31
0.0
  0
LINE
  5
3E3
330
2A7
100
AcDbEntity
  8
0
  6
Continuous
 62
     8
370
    25
100
AcDbLine
 10
-21.7788888605
 20
-89.5191494614
 30
0.0
 11
-8.4649567943
 21
-97.2051188428
 31
0.0
  0
LINE
  5
3E4
330
2A7
100
AcDbEntity
  8
0
  6
Continuous
 62
     8
370
    25
100
AcDbLine
 10
-0.0462625662
 20
-87.1782727482
 30
0.0
 11
9.510586207
 21
-81.6612213851
 31
0.0
  0
LINE
  5
3E5
330
2A7
100
AcDbEntity
  8
0
  6
Continuous
 62
     8
370
    25
100
AcDbLine
 10
-138.0272436876
 20
-148.922394001
 30
0.0
 11
-138.0272436876
 21
-131.1205406379
 31
0.0
  0
LINE
  5
3E6
330
2A7
100
AcDbEntity
  8
0
  6
Continuous
 62
     8
370
    25
100
AcDbLine
 10
-27.5771644663
 20
-4.6925220171
 30
0.0
 11
-27.0134309663
 21
-5.0368465429
 31
0.0
  0
LINE
  5
3E7
330
2A7
100
AcDbEntity
  8
0
  6
Continuous
 62
     8
370
    25
100
AcDbLine
 10
-125.5114536606
 20
-3.4697344752
 30
0.0
 11
-125.5324078283
 21
-2.6753911297
 31
0.0
  0
LINE
  5
3E8
330
2A7
100
AcDbEntity
  8
0
  6
Continuous
 62
     8
370
    25
100
AcDbLine
 10
-89.6539638924
 20
16.8221496983
 30
0.0
 11
-124.8043468794
 21
-3.4697344752
 31
0.0
  0
LINE
  5
3E9
330
2A7
100
AcDbEntity
  8
0
  6
Continuous
 62
     8
370
    25
100
AcDbLine
 10
-131.913927782
 20
0.181868894
 30
0.0
 11
-131.8401932346
 21
0.2244349421
 31
0.0
  0
LINE
  5
3EA
330
2A7
100
AcDbEntity
  8
0
  6
Continuous
 62
     8
370
    25
100
AcDbLine
 10
15.9099025767
 20
-85.1105456575
 30
0.0
 11
15.888948409
 21
-84.3162023119
 31
0.0
  0
LINE
  5
3EB
330
2A7
100
AcDbEntity
  8
0
  6
Continuous
 62
     8
370
    25
100
AcDbLine
 10
51.7673923449
 20
-64.818661484
 30
0.0
 11
16.6170093579
 21
-85.1105456575
 31
0.0
  0
LINE
  5
3EC
330
2A7
100
AcDbEntity
  8
0
  6
Continuous
 62
     8
370
    25
100
AcDbLine
 10
9.5074284554
 20
-81.4589422883
 30
0.0
 11
9.5811630027
 21
-81.4163762402
 31
0.0
  0
LINE
  5
3ED
330
2A7
100
AcDbEntity
  8
0
  6
Continuous
 62
     8
370
    25
100
AcDbLine
 10
-27.2030903334
 20
-5.0889792257
 30
0.0
 11
-118.7939392393
 21
-57.9632508386
 31
0.0
  0
ARC
  5
3EE
330
2A7
100
AcDbEntity
  8
0
  6
Continuous
 62
     7
370
    25
100
AcDbCircle
 10
-154.361410333
 20
-11.2079740198
 30
0.0
 40
1.537021850625762
100
AcDbArc
 50
242.60967113
 51
297.3903288699
  0
ARC
  5
3EF
330
2A7
100
AcDbEntity
  8
0
  6
Continuous
 62
     7
370
    25
100
AcDbCircle
 10
-135.2510301114
 20
-0.3706795107
 30
0.0
 40
3.358574995021625
100
AcDbArc
 50
305.3258580115
 51
5.9863223819
  0
ARC
  5
3F0
330
2A7
100
AcDbEntity
  8
0
  6
Continuous
 62
     7
370
    25
100
AcDbCircle
 10
-166.2239460475
 20
-4.5547710838
 30
0.0
 40
3.358574995021494
100
AcDbArc
 50
174.0136776181
 51
234.6741419885
  0
ARC
  5
3F1
330
2A7
100
AcDbEntity
  8
0
  6
Continuous
 62
     7
370
    25
100
AcDbCircle
 10
6.1703261259
 20
-82.0114906929
 30
0.0
 40
3.358574995021581
100
AcDbArc
 50
305.3258580115
 51
5.9863223819
  0
ARC
  5
3F2
330
2A7
100
AcDbEntity
  8
0
  6
Continuous
 62
     7
370
    25
100
AcDbCircle
 10
-154.4477988286
 20
-143.4294013309
 30
0.0
 40
5.437019814387342
100
AcDbArc
 50
182.8251487504
 51
228.2848482718
  0
ARC
  5
3F3
330
2A7
100
AcDbEntity
  8
0
  6
Continuous
 62
     7
370
    25
100
AcDbCircle
 10
-139.701382338
 20
-143.4314513082
 30
0.0
 40
5.429688030244462
100
AcDbArc
 50
311.9319721789
 51
357.1926915108
  0
ARC
  5
3F4
330
2A7
100
AcDbEntity
  8
0
  6
Continuous
 62
     7
370
    25
100
AcDbCircle
 10
-27.4478421565
 20
-38.1508464304
 30
0.0
 40
0.131012753693948
100
AcDbArc
 50
170.7859767517
 51
309.2032874536
  0
ARC
  5
3F5
330
2A7
100
AcDbEntity
  8
0
  6
Continuous
 62
     7
370
    25
100
AcDbCircle
 10
-18.2788635423
 20
-23.1226993754
 30
0.0
 40
17.65427764879649
100
AcDbArc
 50
238.2180336656
 51
266.5598640102
  0
ARC
  5
3F6
330
2A7
100
AcDbEntity
  8
0
  6
Continuous
 62
     7
370
    25
100
AcDbCircle
 10
-27.1165996269
 20
6.2689936397
 30
0.0
 40
0.4610414533241209
100
AcDbArc
 50
122.6054787794
 51
177.3945157543
  0
ARC
  5
3F7
330
2A7
100
AcDbEntity
  8
0
  6
Continuous
 62
     7
370
    25
100
AcDbCircle
 10
-38.7642483899
 20
-22.3102835605
 30
0.0
 40
20.89146563852334
100
AcDbArc
 50
0.2604666742
 51
55.7732300281
  0
ARC
  5
3F8
330
2A7
100
AcDbEntity
  8
0
  6
Continuous
 62
     7
370
    25
100
AcDbCircle
 10
-11.69367472
 20
-11.1010484086
 30
0.0
 40
31.35031660793674
100
AcDbArc
 50
227.124187796
 51
239.5593696581
  0
ARC
  5
3F9
330
2A7
100
AcDbEntity
  8
0
  6
Continuous
 62
     7
370
    25
100
AcDbCircle
 10
-36.1818190745
 20
-6.8579951562
 30
0.0
 40
15.71332535867802
100
AcDbArc
 50
56.7973177308
 51
97.5203228302
  0
ARC
  5
3FA
330
2A7
100
AcDbEntity
  8
0
  6
Continuous
 62
     7
370
    25
100
AcDbCircle
 10
-21.8193956289
 20
-22.5981246818
 30
0.0
 40
4.587754745423142
100
AcDbArc
 50
280.9943853544
 51
299.8131217369
  0
ARC
  5
3FB
330
2A7
100
AcDbEntity
  8
0
  6
Continuous
 62
     7
370
    25
100
AcDbCircle
 10
-149.3678048695
 20
-4.6201654531
 30
0.0
 40
23.91460430950084
100
AcDbArc
 50
4.6645364345
 51
57.1143194374
  0
ARC
  5
3FC
330
2A7
100
AcDbEntity
  8
0
  6
Continuous
 62
     7
370
    25
100
AcDbCircle
 10
-140.9632171625
 20
11.4594578698
 30
0.0
 40
6.226606178439646
100
AcDbArc
 50
70.1868075949
 51
169.2815276063
  0
ARC
  5
3FD
330
2A7
100
AcDbEntity
  8
0
  6
Continuous
 62
     7
370
    25
100
AcDbCircle
 10
-125.15790027
 20
-2.7873789328
 30
0.0
 40
0.7685109539559122
100
AcDbArc
 50
242.6096722366
 51
297.3903277634
  0
ARC
  5
3FE
330
2A7
100
AcDbEntity
  8
0
  6
Continuous
 62
     7
370
    25
100
AcDbCircle
 10
-141.0422019708
 20
0.1136913527
 30
0.0
 40
9.202408860645122
100
AcDbArc
 50
0.4358391785
 51
70.3030583099
  0
ARC
  5
3FF
330
2A7
100
AcDbEntity
  8
0
  6
Continuous
 62
     7
370
    25
100
AcDbCircle
 10
-131.2728935943
 20
-5.3363970311
 30
0.0
 40
6.226606178439624
100
AcDbArc
 50
250.1868075948
 51
349.2815276063
  0
ARC
  5
400
330
2A7
100
AcDbEntity
  8
0
  6
Continuous
 62
     7
370
    25
100
AcDbCircle
 10
-80.9637264478
 20
12.1120691198
 30
0.0
 40
0.7685109653503878
100
AcDbArc
 50
242.6096757076
 51
297.3903274869
  0
ARC
  5
401
330
2A7
100
AcDbEntity
  8
0
  6
Continuous
 62
     7
370
    25
100
AcDbCircle
 10
-171.1551963862
 20
-4.0592118172
 30
0.0
 40
0.9222131447301228
100
AcDbArc
 50
242.6096722361
 51
297.3903277639
  0
ARC
  5
402
330
2A7
100
AcDbEntity
  8
0
  6
Continuous
 62
     7
370
    25
100
AcDbCircle
 10
-216.0547940795
 20
22.9039122165
 30
0.0
 40
4.480729682966468
100
AcDbArc
 50
174.033349043
 51
234.6544705636
  0
ARC
  5
403
330
2A7
100
AcDbEntity
  8
0
  6
Continuous
 62
     7
370
    25
100
AcDbCircle
 10
-207.123660339
 20
22.9846045878
 30
0.0
 40
13.39881491938608
100
AcDbArc
 50
121.9772079783
 51
177.654460132
  0
ARC
  5
404
330
2A7
100
AcDbEntity
  8
0
  6
Continuous
 62
     7
370
    25
100
AcDbCircle
 10
-138.2993574287
 20
-0.8217786231
 30
0.0
 40
4.207978896140886
100
AcDbArc
 50
316.8486465076
 51
336.22066719
  0
ARC
  5
405
330
2A7
100
AcDbEntity
  8
0
  6
Continuous
 62
     7
370
    25
100
AcDbCircle
 10
-7.9464486322
 20
-86.2609766354
 30
0.0
 40
23.91460430950096
100
AcDbArc
 50
4.6645364345
 51
57.1143194374
  0
ARC
  5
406
330
2A7
100
AcDbEntity
  8
0
  6
Continuous
 62
     7
370
    25
100
AcDbCircle
 10
0.4581390748
 20
-70.1813533125
 30
0.0
 40
6.226606178439614
100
AcDbArc
 50
70.1868075948
 51
169.2815276063
  0
ARC
  5
407
330
2A7
100
AcDbEntity
  8
0
  6
Continuous
 62
     7
370
    25
100
AcDbCircle
 10
16.2634559673
 20
-84.428190115
 30
0.0
 40
0.7685109539557501
100
AcDbArc
 50
242.6096722366
 51
297.3903277634
  0
ARC
  5
408
330
2A7
100
AcDbEntity
  8
0
  6
Continuous
 62
     7
370
    25
100
AcDbCircle
 10
10.0257635443
 20
-86.9226369677
 30
0.0
 40
6.357388483554374
100
AcDbArc
 50
286.4900111916
 51
349.0039501742
  0
ARC
  5
409
330
2A7
100
AcDbEntity
  8
0
  6
Continuous
 62
     7
370
    25
100
AcDbCircle
 10
60.4576297895
 20
-69.5287420625
 30
0.0
 40
0.7685109653503772
100
AcDbArc
 50
242.6096757076
 51
297.3903274869
  0
ARC
  5
40A
330
2A7
100
AcDbEntity
  8
0
  6
Continuous
 62
     7
370
    25
100
AcDbCircle
 10
46.5659136738
 20
-67.0683230939
 30
0.0
 40
5.589438455884872
100
AcDbArc
 50
282.7956626328
 51
299.85844312
  0
ARC
  5
40B
330
2A7
100
AcDbEntity
  8
0
  6
Continuous
 62
     7
370
    25
100
AcDbCircle
 10
40.6232845664
 20
-127.0254926953
 30
0.0
 40
0.3074043079284531
100
AcDbArc
 50
242.609667807
 51
297.390384572
  0
ARC
  5
40C
330
2A7
100
AcDbEntity
  8
0
  6
Continuous
 62
     7
370
    25
100
AcDbCircle
 10
53.1787998349
 20
-120.0324026629
 30
0.0
 40
0.0873230997053235
100
AcDbArc
 50
290.7832855032
 51
69.2165573258
  0
ARC
  5
40D
330
2A7
100
AcDbEntity
  8
0
  6
Continuous
 62
     7
370
    25
100
AcDbCircle
 10
44.8128134376
 20
-127.8209885224
 30
0.0
 40
4.362360842143239
100
AcDbArc
 50
173.1201958033
 51
235.5676238033
  0
ARC
  5
40E
330
2A7
100
AcDbEntity
  8
0
  6
Continuous
 62
     7
370
    25
100
AcDbCircle
 10
-153.6275200781
 20
-125.1243451279
 30
0.0
 40
6.479387099679349
100
AcDbArc
 50
185.3944478058
 51
245.9256931518
  0
ARC
  5
40F
330
2A7
100
AcDbEntity
  8
0
  6
Continuous
 62
     8
370
    25
100
AcDbCircle
 10
-21.5705278938
 20
-89.0600970089
 30
0.0
 40
0.5041263116343859
100
AcDbArc
 50
186.1334633986
 51
245.5870008561
  0
ARC
  5
410
330
2A7
100
AcDbEntity
  8
0
  6
Continuous
 62
     8
370
    25
100
AcDbCircle
 10
-138.2650675941
 20
-148.9526804844
 30
0.0
 40
0.2397446174445267
100
AcDbArc
 50
304.0401265023
 51
7.2574586684
  0
ARC
  5
411
330
2A7
100
AcDbEntity
  8
0
  6
Continuous
 62
     8
370
    25
100
AcDbCircle
 10
-18.8112583512
 20
-31.1250814732
 30
0.0
 40
9.634505145964548
100
AcDbArc
 50
266.8646308139
 51
315.388690537
  0
ARC
  5
412
330
2A7
100
AcDbEntity
  8
0
  6
Continuous
 62
     8
370
    25
100
AcDbCircle
 10
-36.4259971679
 20
-0.60400714
 30
0.0
 40
9.49868009020622
100
AcDbArc
 50
100.9994748428
 51
147.1636771331
  0
ARC
  5
413
330
2A7
100
AcDbEntity
  8
0
  6
Continuous
 62
     8
370
    25
100
AcDbCircle
 10
-22.881214335
 20
-23.2058434012
 30
0.0
 40
4.592478867572808
100
AcDbArc
 50
280.9976590733
 51
299.1575201479
  0
ARC
  5
414
330
2A7
100
AcDbEntity
  8
0
  6
Continuous
 62
     8
370
    25
100
AcDbCircle
 10
-27.3395416736
 20
-4.7228561114
 30
0.0
 40
0.2395511403812783
100
AcDbArc
 50
172.7251683053
 51
236.1331743861
  0
ARC
  5
415
330
2A7
100
AcDbEntity
  8
0
  6
Continuous
 62
     8
370
    25
100
AcDbCircle
 10
-147.3391224121
 20
9.4056485418
 30
0.0
 40
0.2396847175044805
100
AcDbArc
 50
184.0435978123
 51
247.2622452698
  0
ARC
  5
416
330
2A7
100
AcDbEntity
  8
0
  6
Continuous
 62
     8
370
    25
100
AcDbCircle
 10
-128.8160993589
 20
9.400490247
 30
0.0
 40
18.61691644283917
100
AcDbArc
 50
180.6644697684
 51
194.7026406737
  0
ARC
  5
417
330
2A7
100
AcDbEntity
  8
0
  6
Continuous
 62
     8
370
    25
100
AcDbCircle
 10
-121.5185700926
 20
34.9264169415
 30
0.0
 40
0.2514910173465605
100
AcDbArc
 50
185.710692206
 51
245.6239507775
  0
ARC
  5
418
330
2A7
100
AcDbEntity
  8
0
  6
Continuous
 62
     8
370
    25
100
AcDbCircle
 10
-89.247520668
 20
16.4702337647
 30
0.0
 40
0.4024716532107629
100
AcDbArc
 50
185.7505860996
 51
245.6204780441
  0
ARC
  5
419
330
2A7
100
AcDbEntity
  8
0
  6
Continuous
 62
     8
370
    25
100
AcDbCircle
 10
-102.7041371847
 20
11.2118824164
 30
0.0
 40
22.09503793527378
100
AcDbArc
 50
346.2749713786
 51
0.5648783098
  0
ARC
  5
41A
330
2A7
100
AcDbEntity
  8
0
  6
Continuous
 62
     8
370
    25
100
AcDbCircle
 10
-95.5636768787
 20
14.1683232943
 30
0.0
 40
5.59362713117548
100
AcDbArc
 50
282.7977618301
 51
299.33130965
  0
ARC
  5
41B
330
2A7
100
AcDbEntity
  8
0
  6
Continuous
 62
     8
370
    25
100
AcDbCircle
 10
-167.1230048214
 20
-5.3438084526
 30
0.0
 40
4.480729682966516
100
AcDbArc
 50
174.033349043
 51
234.6544705636
  0
ARC
  5
41C
330
2A7
100
AcDbEntity
  8
0
  6
Continuous
 62
     8
370
    25
100
AcDbCircle
 10
-5.9177661748
 20
-72.2351626405
 30
0.0
 40
0.2396847174593907
100
AcDbArc
 50
184.0435978057
 51
247.2622452765
  0
ARC
  5
41D
330
2A7
100
AcDbEntity
  8
0
  6
Continuous
 62
     8
370
    25
100
AcDbCircle
 10
12.6052568784
 20
-72.2403209353
 30
0.0
 40
18.61691644283847
100
AcDbArc
 50
180.6644697684
 51
194.7026406737
  0
ARC
  5
41E
330
2A7
100
AcDbEntity
  8
0
  6
Continuous
 62
     8
370
    25
100
AcDbCircle
 10
19.9027861447
 20
-46.7143942408
 30
0.0
 40
0.2514910173465888
100
AcDbArc
 50
185.710692206
 51
245.6239507775
  0
ARC
  5
41F
330
2A7
100
AcDbEntity
  8
0
  6
Continuous
 62
     8
370
    25
100
AcDbCircle
 10
52.1738355693
 20
-65.1705774176
 30
0.0
 40
0.4024716532107829
100
AcDbArc
 50
185.7505860996
 51
245.6204780441
  0
ARC
  5
420
330
2A7
100
AcDbEntity
  8
0
  6
Continuous
 62
     8
370
    25
100
AcDbCircle
 10
38.7172190526
 20
-70.4289287659
 30
0.0
 40
22.09503793527243
100
AcDbArc
 50
346.2749713786
 51
0.5648783098
  0
ARC
  5
421
330
2A7
100
AcDbEntity
  8
0
  6
Continuous
 62
     8
370
    25
100
AcDbCircle
 10
45.8576793586
 20
-67.472487888
 30
0.0
 40
5.593627131172199
100
AcDbArc
 50
282.7977618301
 51
299.33130965
  0
ARC
  5
422
330
2A7
100
AcDbEntity
  8
0
  6
Continuous
 62
     8
370
    25
100
AcDbCircle
 10
47.6978912217
 20
-119.900503599
 30
0.0
 40
5.516028735607733
100
AcDbArc
 50
357.7813752601
 51
28.7414738015
  0
ARC
  5
423
330
2A7
100
AcDbEntity
  8
0
  6
Continuous
 62
     8
370
    25
100
AcDbCircle
 10
45.3709684143
 20
-127.6847707784
 30
0.0
 40
4.622435237183845
100
AcDbArc
 50
175.2057136009
 51
228.1958835747
  0
ARC
  5
424
330
2A7
100
AcDbEntity
  8
0
  6
Continuous
 62
     8
370
    25
100
AcDbCircle
 10
-4.0450398209
 20
-99.5566875406
 30
0.0
 40
4.433850653281661
100
AcDbArc
 50
173.4473591354
 51
232.3057869798
  0
ARC
  5
425
330
2A7
100
AcDbEntity
  8
0
  6
Continuous
 62
     8
370
    25
100
AcDbCircle
 10
-8.3387574093
 20
-98.7854466272
 30
0.0
 40
0.2876201157852564
100
AcDbArc
 50
184.0424468389
 51
247.2623608683
  0
ARC
  5
426
330
2A7
100
AcDbEntity
  8
0
  6
Continuous
 62
     8
370
    25
100
AcDbCircle
 10
-122.5835384999
 20
-63.0942581753
 30
0.0
 40
6.378738029191013
100
AcDbArc
 50
53.5516008273
 51
115.1498033416
  0
ARC
  5
427
330
2A7
100
AcDbEntity
  8
0
  6
Continuous
 62
     8
370
    25
100
AcDbCircle
 10
-153.722879094
 20
-117.0274735013
 30
0.0
 40
6.378187030542756
100
AcDbArc
 50
184.851955872
 51
246.4566632745
  0
VIEWPORT
  5
42C
330
2A7
100
AcDbEntity
  8
0
100
AcDbViewport
 10
0.0
 20
0.0
 30
0.0
 40
205.6
 41
156.0
 68
     1
 69
     1
 12
0.0
 22
-21.75
 13
0.0
 23
0.0
 14
10.0
 24
10.0
 15
10.0
 25
10.0
 16
0.0
 26
0.0
 36
1.0
 17
0.0
 27
0.0
 37
0.0
 42
50.0
 43
0.0
 44
0.0
 45
285.9671206226
 50
0.0
 51
0.0
 72
   100
 90
   557152
  1

281
     0
 71
     1
 74
     0
110
0.0
120
0.0
130
0.0
111
1.0
121
0.0
131
0.0
112
0.0
122
1.0
132
0.0
 79
     0
146
0.0
  0
ENDBLK
  5
2AA
330
2A7
100
AcDbEntity
  8
0
100
AcDbBlockEnd
  0
ENDSEC
  0
SECTION
  2
ENTITIES
  0
SPLINE
  5
7D
330
1F
100
AcDbEntity
  8
0
  6
Continuous
 62
     7
370
    25
100
AcDbSpline
210
0.0
220
0.0
230
1.0
 70
     8
 71
     3
 72
     9
 73
     5
 74
     0
 42
0.000000001
 43
0.00000001
 40
0.0
 40
0.0
 40
0.0
 40
0.0
 40
0.500066900983364
 40
1.0
 40
1.0
 40
1.0
 40
1.0
 10
-93.44365938167032
 20
-2.497750631263313
 30
0.0
 10
-93.39604039553792
 20
-2.41558727506486
 30
0.0
 10
-93.30081516459634
 20
-2.251282546963718
 30
0.0
 10
-93.20555170201126
 20
-2.087038899942162
 30
0.0
 10
-93.15792634393806
 20
-2.004928064492883
 30
0.0
  0
SPLINE
  5
7F
330
1F
100
AcDbEntity
  8
0
  6
Continuous
 62
     7
370
    25
100
AcDbSpline
210
0.0
220
0.0
230
1.0
 70
     8
 71
     3
 72
     9
 73
     5
 74
     0
 42
0.000000001
 43
0.00000001
 40
0.0
 40
0.0
 40
0.0
 40
0.0
 40
0.0923608670338916
 40
1.0
 40
1.0
 40
1.0
 40
1.0
 10
-93.28835622528949
 20
2.270813758513162
 30
0.0
 10
-93.29321743427302
 20
2.262429920618501
 30
0.0
 10
-93.34585021198151
 20
2.171657300526233
 30
0.0
 10
-93.39854683322228
 20
2.080922837061294
 30
0.0
 10
-93.4463763488355
 20
1.998568687311835
 30
0.0
  0
SPLINE
  5
87
330
1F
100
AcDbEntity
  8
0
  6
Continuous
 62
     7
370
    25
100
AcDbSpline
210
0.0
220
0.0
230
1.0
 70
     8
 71
     3
 72
     9
 73
     5
 74
     0
 42
0.000000001
 43
0.00000001
 40
0.0
 40
0.0
 40
0.0
 40
0.0
 40
0.500066900983364
 40
1.0
 40
1.0
 40
1.0
 40
1.0
 10
93.44365938167032
 20
2.497750631263313
 30
0.0
 10
93.39604039553792
 20
2.41558727506486
 30
0.0
 10
93.30081516459634
 20
2.251282546963718
 30
0.0
 10
93.20555170201126
 20
2.087038899942162
 30
0.0
 10
93.15792634393806
 20
2.004928064492883
 30
0.0
  0
SPLINE
  5
89
330
1F
100
AcDbEntity
  8
0
  6
Continuous
 62
     7
370
    25
100
AcDbSpline
210
0.0
220
0.0
230
1.0
 70
     8
 71
     3
 72
     9
 73
     5
 74
     0
 42
0.000000001
 43
0.00000001
 40
0.0
 40
0.0
 40
0.0
 40
0.0
 40
0.0923608670338916
 40
1.0
 40
1.0
 40
1.0
 40
1.0
 10
93.28835622528949
 20
-2.270813758513162
 30
0.0
 10
93.29321743427302
 20
-2.262429920618501
 30
0.0
 10
93.34585021198151
 20
-2.171657300526233
 30
0.0
 10
93.39854683322228
 20
-2.080922837061294
 30
0.0
 10
93.4463763488355
 20
-1.998568687311835
 30
0.0
  0
SPLINE
  5
8F
330
1F
100
AcDbEntity
  8
0
  6
Continuous
 62
     7
370
    25
100
AcDbSpline
210
0.0
220
0.0
230
1.0
 70
     8
 71
     3
 72
    26
 73
    22
 74
     0
 42
0.000000001
 43
0.00000001
 40
0.0
 40
0.0
 40
0.0
 40
0.0
 40
0.0191686687386311
 40
0.0387340768932265
 40
0.0586893435888243
 40
0.0790241497830795
 40
0.0997281571717723
 40
0.12080374956082
 40
0.1422527952717658
 40
0.1640707247425924
 40
0.18625087958958
 40
0.2820641866993681
 40
0.4039349923528858
 40
0.5322101737865145
 40
0.6771826743448669
 40
0.741030123941291
 40
0.8008412052460072
 40
0.8566090634994117
 40
0.9083425671585749
 40
0.9561201591701521
 40
1.0
 40
1.0
 40
1.0
 40
1.0
 10
-93.25000000000006
 20
0.0000000001982581
 30
0.0
 10
-93.25080572855438
 20
0.0786733778002369
 30
0.0
 10
-93.25243386205725
 20
0.2376484583880428
 30
0.0
 10
-93.26566792841274
 20
0.4780172197932711
 30
0.0
 10
-93.28724487193399
 20
0.7221048183805658
 30
0.0
 10
-93.3183662013876
 20
0.969180183243986
 30
0.0
 10
-93.3592666785666
 20
1.218465703862564
 30
0.0
 10
-93.41020877353871
 20
1.469257792054927
 30
0.0
 10
-93.47134748642598
 20
1.720868638051137
 30
0.0
 10
-93.54286398593828
 20
1.972569469445157
 30
0.0
 10
-93.71524421913361
 20
2.499878891177691
 30
0.0
 10
-94.098101237619
 20
3.354647112349653
 30
0.0
 10
-94.83165716309497
 20
4.411570586561272
 30
0.0
 10
-95.83429470370369
 20
5.372831401818194
 30
0.0
 10
-96.79216514705229
 20
5.969607940021042
 30
0.0
 10
-97.58985144755081
 20
6.314418435667015
 30
0.0
 10
-98.13391849307695
 20
6.49469857788898
 30
0.0
 10
-98.64823447030876
 20
6.619867511838028
 30
0.0
 10
-99.12982028358208
 20
6.698787826238086
 30
0.0
 10
-99.5767180839865
 20
6.742430976451414
 30
0.0
 10
-99.86302305975293
 20
6.747549579176761
 30
0.0
 10
-100.0000879586484
 20
6.750000045722643
 30
0.0
  0
SPLINE
  5
91
330
1F
100
AcDbEntity
  8
0
  6
Continuous
 62
     7
370
    25
100
AcDbSpline
210
0.0
220
0.0
230
1.0
 70
     8
 71
     3
 72
    28
 73
    24
 74
     0
 42
0.000000001
 43
0.00000001
 40
0.0
 40
0.0
 40
0.0
 40
0.0
 40
0.0182197198936764
 40
0.0364900537124165
 40
0.0548256834913377
 40
0.0732411350910869
 40
0.0917507464468609
 40
0.110368637953188
 40
0.1291086852427692
 40
0.1479844945594395
 40
0.1670093808657073
 40
0.1861963487666414
 40
0.2904818260192058
 40
0.4038194026242748
 40
0.4663812396851153
 40
0.532957627033284
 40
0.6022774946570731
 40
0.6772983480997364
 40
0.7511824572543914
 40
0.8348561329336762
 40
0.8778497975242913
 40
0.9328981735466494
 40
0.9999999999999999
 40
0.9999999999999999
 40
0.9999999999999999
 40
0.9999999999999999
 10
-94.25000000000001
 20
0.0000000000639419
 30
0.0
 10
-94.25061974061919
 20
0.0747981907383809
 30
0.0
 10
-94.2518609434814
 20
0.224602359585626
 30
0.0
 10
-94.26185086263077
 20
0.4492484760495984
 30
0.0
 10
-94.27778598851205
 20
0.6738335605133914
 30
0.0
 10
-94.30025419358113
 20
0.8981032565187272
 30
0.0
 10
-94.32909679480933
 20
1.121801267285321
 30
0.0
 10
-94.36435610839779
 20
1.344669270007211
 30
0.0
 10
-94.40602091057163
 20
1.566448406615458
 30
0.0
 10
-94.45409163525231
 20
1.786875154490806
 30
0.0
 10
-94.50857603618235
 20
2.005698344215153
 30
0.0
 10
-94.65921780098188
 20
2.542580669848978
 30
0.0
 10
-94.98728637927171
 20
3.382678580023165
 30
0.0
 10
-95.49626224249725
 20
4.233152899246941
 30
0.0
 10
-95.99772006492194
 20
4.862152739814809
 30
0.0
 10
-96.43814038020098
 20
5.314225875695442
 30
0.0
 10
-96.93337916527605
 20
5.724970040417009
 30
0.0
 10
-97.46870737330332
 20
6.075440559148753
 30
0.0
 10
-98.0590528898967
 20
6.368625893392331
 30
0.0
 10
-98.58016670586298
 20
6.550732360035821
 30
0.0
 10
-99.05885143158291
 20
6.663848487443166
 30
0.0
 10
-99.49646545349216
 20
6.734326409283547
 30
0.0
 10
-99.82152189449785
 20
6.744442719335293
 30
0.0
 10
-100.0000879586535
 20
6.749999999369889
 30
0.0
  0
SPLINE
  5
92
330
1F
100
AcDbEntity
  8
0
  6
Continuous
 62
     7
370
    25
100
AcDbSpline
210
0.0
220
0.0
230
1.0
 70
     8
 71
     3
 72
    26
 73
    22
 74
     0
 42
0.000000001
 43
0.00000001
 40
0.0
 40
0.0
 40
0.0
 40
0.0
 40
0.0272582068625476
 40
0.0527776389268557
 40
0.076558304865347
 40
0.0986002217428847
 40
0.1189034174129707
 40
0.1374679340359109
 40
0.1542938334143902
 40
0.1693812054026692
 40
0.2528266310033587
 40
0.3267986928220669
 40
0.4706306426211916
 40
0.5961193470018543
 40
0.7082491342919405
 40
0.8114278767575662
 40
0.8501223097044495
 40
0.8882129281167669
 40
0.92581141598932
 40
0.9630338874211112
 40
1.0
 40
1.0
 40
1.0
 40
1.0
 10
-100.0001277934989
 20
-6.749999998791171
 30
0.0
 10
-99.92759794315933
 20
-6.749076051462206
 30
0.0
 10
-99.78716485187265
 20
-6.747287094515718
 30
0.0
 10
-99.58374986274653
 20
-6.733488602728412
 30
0.0
 10
-99.39443720816163
 20
-6.713567410411443
 30
0.0
 10
-99.2192444066081
 20
-6.68836818868938
 30
0.0
 10
-99.05816530009528
 20
-6.659571576776189
 30
0.0
 10
-98.91120526178833
 20
-6.628508579722988
 30
0.0
 10
-98.77834692875562
 20
-6.596444503619162
 30
0.0
 10
-98.47580380778884
 20
-6.515042265551259
 30
0.0
 10
-98.02801952620881
 20
-6.35552197381117
 30
0.0
 10
-97.26495850779604
 20
-5.97054414539823
 30
0.0
 10
-96.43763069299735
 20
-5.356976227313497
 30
0.0
 10
-95.61264295048196
 20
-4.426590093215967
 30
0.0
 10
-94.99361801139396
 20
-3.393727164349488
 30
0.0
 10
-94.63964157422654
 20
-2.49522117047335
 30
0.0
 10
-94.45636753459226
 20
-1.812255824726522
 30
0.0
 10
-94.36410780214398
 20
-1.364291586423688
 30
0.0
 10
-94.2986867415041
 20
-0.911599467528796
 30
0.0
 10
-94.25764700268962
 20
-0.456305128026073
 30
0.0
 10
-94.25254312207213
 20
-0.1517509133282559
 30
0.0
 10
-94.25000000000001
 20
0.0000000000639419
 30
0.0
  0
SPLINE
  5
93
330
1F
100
AcDbEntity
  8
0
  6
Continuous
 62
     7
370
    25
100
AcDbSpline
210
0.0
220
0.0
230
1.0
 70
     8
 71
     3
 72
    27
 73
    23
 74
     0
 42
0.000000001
 43
0.00000001
 40
0.0
 40
0.0
 40
0.0
 40
0.0
 40
0.0262023052492444
 40
0.0538152119704025
 40
0.0828476258182054
 40
0.1133130370550473
 40
0.1452300730856135
 40
0.1786126538066872
 40
0.2134589591043111
 40
0.2497663302296185
 40
0.2875341290592491
 40
0.3267630142575695
 40
0.4697831947704778
 40
0.5960248548428068
 40
0.6881765296624668
 40
0.7532844857978096
 40
0.8114766651383055
 40
0.8603007133853057
 40
0.9054995594754912
 40
0.9374865856201337
 40
0.9689994704240089
 40
1.0
 40
1.0
 40
1.0
 40
1.0
 10
-100.0001277934926
 20
-6.750000051730917
 30
0.0
 10
-99.91826375541115
 20
-6.749118986201034
 30
0.0
 10
-99.75012852760572
 20
-6.747309422966064
 30
0.0
 10
-99.49151906174373
 20
-6.732422312600014
 30
0.0
 10
-99.22004270673935
 20
-6.706770379665985
 30
0.0
 10
-98.93591537774891
 20
-6.667759278798054
 30
0.0
 10
-98.63944359279786
 20
-6.613859202014232
 30
0.0
 10
-98.33110002223195
 20
-6.543111926155275
 30
0.0
 10
-98.0115393307459
 20
-6.453456590148943
 30
0.0
 10
-97.68164958927035
 20
-6.342709103331144
 30
0.0
 10
-97.34244966400266
 20
-6.208584843102232
 30
0.0
 10
-96.69363195642619
 20
-5.909609309546666
 30
0.0
 10
-95.81851663385592
 20
-5.358904921359816
 30
0.0
 10
-94.90234202677338
 20
-4.477448074585985
 30
0.0
 10
-94.28750576993586
 20
-3.632522156447434
 30
0.0
 10
-93.89580498737106
 20
-2.91067693666152
 30
0.0
 10
-93.63898050063698
 20
-2.287929968090404
 30
0.0
 10
-93.46126295614205
 20
-1.707106873708945
 30
0.0
 10
-93.35335059238749
 20
-1.208568770887774
 30
0.0
 10
-93.29055294100064
 20
-0.7697870776365474
 30
0.0
 10
-93.25635158030273
 20
-0.3839340694462776
 30
0.0
 10
-93.25210559350526
 20
-0.127276841925577
 30
0.0
 10
-93.25000000000024
 20
0.0000000001982442
 30
0.0
  0
SPLINE
  5
95
330
1F
100
AcDbEntity
  8
0
  6
Continuous
 62
     7
370
    25
100
AcDbSpline
210
0.0
220
0.0
230
1.0
 70
     8
 71
     3
 72
    26
 73
    22
 74
     0
 42
0.000000001
 43
0.00000001
 40
0.0
 40
0.0
 40
0.0
 40
0.0
 40
0.0191686687386311
 40
0.0387340768932265
 40
0.0586893435888243
 40
0.0790241497830795
 40
0.0997281571717723
 40
0.12080374956082
 40
0.1422527952717658
 40
0.1640707247425924
 40
0.18625087958958
 40
0.2820641866993681
 40
0.4039349923528858
 40
0.5322101737865145
 40
0.6771826743448669
 40
0.741030123941291
 40
0.8008412052460072
 40
0.8566090634994117
 40
0.9083425671585749
 40
0.9561201591701521
 40
1.0
 40
1.0
 40
1.0
 40
1.0
 10
93.25000000000006
 20
-0.0000000001982581
 30
0.0
 10
93.25080572855438
 20
-0.0786733778002369
 30
0.0
 10
93.25243386205725
 20
-0.2376484583880428
 30
0.0
 10
93.26566792841274
 20
-0.4780172197932711
 30
0.0
 10
93.28724487193399
 20
-0.7221048183805658
 30
0.0
 10
93.3183662013876
 20
-0.969180183243986
 30
0.0
 10
93.3592666785666
 20
-1.218465703862564
 30
0.0
 10
93.41020877353871
 20
-1.469257792054927
 30
0.0
 10
93.47134748642598
 20
-1.720868638051137
 30
0.0
 10
93.54286398593828
 20
-1.972569469445157
 30
0.0
 10
93.71524421913361
 20
-2.499878891177691
 30
0.0
 10
94.098101237619
 20
-3.354647112349653
 30
0.0
 10
94.83165716309497
 20
-4.411570586561272
 30
0.0
 10
95.83429470370369
 20
-5.372831401818194
 30
0.0
 10
96.79216514705229
 20
-5.969607940021042
 30
0.0
 10
97.58985144755081
 20
-6.314418435667013
 30
0.0
 10
98.13391849307695
 20
-6.49469857788898
 30
0.0
 10
98.64823447030876
 20
-6.619867511838028
 30
0.0
 10
99.12982028358208
 20
-6.698787826238086
 30
0.0
 10
99.5767180839865
 20
-6.742430976451414
 30
0.0
 10
99.86302305975293
 20
-6.747549579176761
 30
0.0
 10
100.0000879586484
 20
-6.750000045722642
 30
0.0
  0
SPLINE
  5
97
330
1F
100
AcDbEntity
  8
0
  6
Continuous
 62
     7
370
    25
100
AcDbSpline
210
0.0
220
0.0
230
1.0
 70
     8
 71
     3
 72
    28
 73
    24
 74
     0
 42
0.000000001
 43
0.00000001
 40
0.0
 40
0.0
 40
0.0
 40
0.0
 40
0.0182197198936764
 40
0.0364900537124165
 40
0.0548256834913377
 40
0.0732411350910869
 40
0.0917507464468609
 40
0.110368637953188
 40
0.1291086852427692
 40
0.1479844945594395
 40
0.1670093808657073
 40
0.1861963487666414
 40
0.2904818260192058
 40
0.4038194026242748
 40
0.4663812396851153
 40
0.532957627033284
 40
0.6022774946570731
 40
0.6772983480997364
 40
0.7511824572543914
 40
0.8348561329336762
 40
0.8778497975242913
 40
0.9328981735466494
 40
0.9999999999999999
 40
0.9999999999999999
 40
0.9999999999999999
 40
0.9999999999999999
 10
94.25000000000001
 20
-0.0000000000639419
 30
0.0
 10
94.25061974061919
 20
-0.0747981907383809
 30
0.0
 10
94.2518609434814
 20
-0.224602359585626
 30
0.0
 10
94.26185086263077
 20
-0.4492484760495984
 30
0.0
 10
94.27778598851205
 20
-0.6738335605133914
 30
0.0
 10
94.30025419358113
 20
-0.8981032565187272
 30
0.0
 10
94.32909679480933
 20
-1.121801267285321
 30
0.0
 10
94.36435610839779
 20
-1.344669270007211
 30
0.0
 10
94.40602091057163
 20
-1.566448406615458
 30
0.0
 10
94.45409163525231
 20
-1.786875154490806
 30
0.0
 10
94.50857603618235
 20
-2.005698344215153
 30
0.0
 10
94.65921780098188
 20
-2.542580669848978
 30
0.0
 10
94.98728637927171
 20
-3.382678580023165
 30
0.0
 10
95.49626224249725
 20
-4.233152899246941
 30
0.0
 10
95.99772006492194
 20
-4.862152739814809
 30
0.0
 10
96.43814038020098
 20
-5.314225875695442
 30
0.0
 10
96.93337916527605
 20
-5.724970040417009
 30
0.0
 10
97.46870737330332
 20
-6.075440559148753
 30
0.0
 10
98.0590528898967
 20
-6.368625893392333
 30
0.0
 10
98.58016670586298
 20
-6.550732360035821
 30
0.0
 10
99.05885143158291
 20
-6.663848487443166
 30
0.0
 10
99.49646545349216
 20
-6.734326409283547
 30
0.0
 10
99.82152189449785
 20
-6.744442719335291
 30
0.0
 10
100.0000879586535
 20
-6.749999999369889
 30
0.0
  0
SPLINE
  5
98
330
1F
100
AcDbEntity
  8
0
  6
Continuous
 62
     7
370
    25
100
AcDbSpline
210
0.0
220
0.0
230
1.0
 70
     8
 71
     3
 72
    26
 73
    22
 74
     0
 42
0.000000001
 43
0.00000001
 40
0.0
 40
0.0
 40
0.0
 40
0.0
 40
0.0272582068625476
 40
0.0527776389268557
 40
0.076558304865347
 40
0.0986002217428847
 40
0.1189034174129707
 40
0.1374679340359109
 40
0.1542938334143902
 40
0.1693812054026692
 40
0.2528266310033587
 40
0.3267986928220669
 40
0.4706306426211916
 40
0.5961193470018543
 40
0.7082491342919405
 40
0.8114278767575662
 40
0.8501223097044495
 40
0.8882129281167669
 40
0.92581141598932
 40
0.9630338874211112
 40
1.0
 40
1.0
 40
1.0
 40
1.0
 10
100.0001277934989
 20
6.749999998791171
 30
0.0
 10
99.92759794315933
 20
6.749076051462206
 30
0.0
 10
99.78716485187265
 20
6.747287094515716
 30
0.0
 10
99.58374986274653
 20
6.733488602728412
 30
0.0
 10
99.39443720816163
 20
6.713567410411441
 30
0.0
 10
99.2192444066081
 20
6.68836818868938
 30
0.0
 10
99.05816530009528
 20
6.659571576776189
 30
0.0
 10
98.91120526178833
 20
6.628508579722987
 30
0.0
 10
98.77834692875562
 20
6.596444503619163
 30
0.0
 10
98.47580380778884
 20
6.515042265551257
 30
0.0
 10
98.02801952620881
 20
6.35552197381117
 30
0.0
 10
97.26495850779604
 20
5.97054414539823
 30
0.0
 10
96.43763069299735
 20
5.356976227313497
 30
0.0
 10
95.61264295048196
 20
4.426590093215967
 30
0.0
 10
94.99361801139396
 20
3.393727164349488
 30
0.0
 10
94.63964157422654
 20
2.49522117047335
 30
0.0
 10
94.45636753459226
 20
1.812255824726522
 30
0.0
 10
94.36410780214398
 20
1.364291586423688
 30
0.0
 10
94.2986867415041
 20
0.911599467528796
 30
0.0
 10
94.25764700268962
 20
0.456305128026073
 30
0.0
 10
94.25254312207213
 20
0.1517509133282559
 30
0.0
 10
94.25000000000001
 20
-0.0000000000639419
 30
0.0
  0
SPLINE
  5
99
330
1F
100
AcDbEntity
  8
0
  6
Continuous
 62
     7
370
    25
100
AcDbSpline
210
0.0
220
0.0
230
1.0
 70
     8
 71
     3
 72
    27
 73
    23
 74
     0
 42
0.000000001
 43
0.00000001
 40
0.0
 40
0.0
 40
0.0
 40
0.0
 40
0.0262023052492444
 40
0.0538152119704025
 40
0.0828476258182054
 40
0.1133130370550473
 40
0.1452300730856135
 40
0.1786126538066872
 40
0.2134589591043111
 40
0.2497663302296185
 40
0.2875341290592491
 40
0.3267630142575695
 40
0.4697831947704778
 40
0.5960248548428068
 40
0.6881765296624668
 40
0.7532844857978096
 40
0.8114766651383055
 40
0.8603007133853057
 40
0.9054995594754912
 40
0.9374865856201337
 40
0.9689994704240089
 40
1.0
 40
1.0
 40
1.0
 40
1.0
 10
100.0001277934926
 20
6.750000051730917
 30
0.0
 10
99.91826375541115
 20
6.749118986201032
 30
0.0
 10
99.75012852760572
 20
6.747309422966062
 30
0.0
 10
99.49151906174373
 20
6.732422312600014
 30
0.0
 10
99.22004270673935
 20
6.706770379665984
 30
0.0
 10
98.93591537774891
 20
6.667759278798053
 30
0.0
 10
98.63944359279786
 20
6.613859202014232
 30
0.0
 10
98.33110002223195
 20
6.543111926155275
 30
0.0
 10
98.0115393307459
 20
6.453456590148943
 30
0.0
 10
97.68164958927035
 20
6.342709103331144
 30
0.0
 10
97.34244966400266
 20
6.208584843102233
 30
0.0
 10
96.69363195642619
 20
5.909609309546666
 30
0.0
 10
95.81851663385592
 20
5.358904921359816
 30
0.0
 10
94.90234202677338
 20
4.477448074585985
 30
0.0
 10
94.28750576993586
 20
3.632522156447434
 30
0.0
 10
93.89580498737106
 20
2.91067693666152
 30
0.0
 10
93.63898050063698
 20
2.287929968090404
 30
0.0
 10
93.46126295614205
 20
1.707106873708945
 30
0.0
 10
93.35335059238749
 20
1.208568770887774
 30
0.0
 10
93.29055294100064
 20
0.7697870776365474
 30
0.0
 10
93.25635158030273
 20
0.3839340694462776
 30
0.0
 10
93.25210559350526
 20
0.127276841925577
 30
0.0
 10
93.25000000000024
 20
-0.0000000001982442
 30
0.0
  0
SPLINE
  5
B7
330
1F
100
AcDbEntity
  8
0
  6
Continuous
 62
     7
370
    25
100
AcDbSpline
210
0.0
220
0.0
230
1.0
 70
     8
 71
     3
 72
     9
 73
     5
 74
     0
 42
0.000000001
 43
0.00000001
 40
0.0
 40
0.0
 40
0.0
 40
0.0
 40
0.258260108745307
 40
0.9999999999999999
 40
0.9999999999999999
 40
0.9999999999999999
 40
0.9999999999999999
 10
-93.18322731060356
 20
-1.993395539130839
 30
0.0
 10
-93.18121619046406
 20
-1.999821394331497
 30
0.0
 10
-93.17342900200019
 20
-2.024702725141263
 30
0.0
 10
-93.1656433568567
 20
-2.008096553690355
 30
0.0
 10
-93.15986843327464
 20
-1.995779093884205
 30
0.0
  0
SPLINE
  5
B8
330
1F
100
AcDbEntity
  8
0
  6
Continuous
 62
     7
370
    25
100
AcDbSpline
210
0.0
220
0.0
230
1.0
 70
     8
 71
     3
 72
    22
 73
    18
 74
     0
 42
0.000000001
 43
0.00000001
 40
0.0
 40
0.0
 40
0.0
 40
0.0
 40
0.125
 40
0.125
 40
0.25
 40
0.25
 40
0.375
 40
0.375
 40
0.5
 40
0.5
 40
0.625
 40
0.625
 40
0.75
 40
0.75
 40
0.875
 40
0.875
 40
1.0
 40
1.0
 40
1.0
 40
1.0
 10
-93.85002004567336
 20
2.499988426415495
 30
0.0
 10
-93.8324459909121
 20
2.50022398470277
 30
0.0
 10
-93.81487193615085
 20
2.427115284818759
 30
0.0
 10
-93.7797238266284
 20
2.149903310071081
 30
0.0
 10
-93.76214977186724
 20
1.944244930014084
 30
0.0
 10
-93.72700166234503
 20
1.435892192808399
 30
0.0
 10
-93.7094276075838
 20
1.132674596484192
 30
0.0
 10
-93.67427949806124
 20
0.47917489654066
 30
0.0
 10
-93.65670544330005
 20
0.1294396623849302
 30
0.0
 10
-93.62155733377782
 20
-0.5583843430405182
 30
0.0
 10
-93.60398327901675
 20
-0.8959173082768273
 30
0.0
 10
-93.56883516949426
 20
-1.501447527333732
 30
0.0
 10
-93.55126111473298
 20
-1.769893628152882
 30
0.0
 10
-93.51611300521068
 20
-2.190748247570037
 30
0.0
 10
-93.49853895044963
 20
-2.344407141396873
 30
0.0
 10
-93.46339084092729
 20
-2.509824478124534
 30
0.0
 10
-93.44581678616592
 20
-2.522142997180929
 30
0.0
 10
-93.42824273140485
 20
-2.463349471549661
 30
0.0
  0
SPLINE
  5
B9
330
1F
100
AcDbEntity
  8
0
  6
Continuous
 62
     7
370
    25
100
AcDbSpline
210
0.0
220
0.0
230
1.0
 70
     8
 71
     3
 72
    12
 73
     8
 74
     0
 42
0.000000001
 43
0.00000001
 40
0.0
 40
0.0
 40
0.0
 40
0.0
 40
0.0051993324716368
 40
0.2882450509559385
 40
0.5712907694402355
 40
0.8543364879245289
 40
1.0
 40
1.0
 40
1.0
 40
1.0
 10
-93.54114163464645
 20
-1.885605100541466
 30
0.0
 10
-93.5409694230964
 20
-1.888081819917113
 30
0.0
 10
-93.53142221154687
 20
-2.025388311958514
 30
0.0
 10
-93.51249999999689
 20
-2.217467074453812
 30
0.0
 10
-93.4843749999978
 20
-2.426979565332596
 30
0.0
 10
-93.46080035388458
 20
-2.514384785393137
 30
0.0
 10
-93.44660070777122
 20
-2.488419335744126
 30
0.0
 10
-93.44177606165756
 20
-2.479596995754955
 30
0.0
  0
SPLINE
  5
BB
330
1F
100
AcDbEntity
  8
0
  6
Continuous
 62
     7
370
    25
100
AcDbSpline
210
0.0
220
0.0
230
1.0
 70
     8
 71
     3
 72
    16
 73
    12
 74
     0
 42
0.000000001
 43
0.00000001
 40
0.0
 40
0.0
 40
0.0
 40
0.0
 40
0.2499999999999984
 40
0.2499999999999984
 40
0.4999999999999969
 40
0.4999999999999969
 40
0.6249999999999961
 40
0.6249999999999961
 40
0.7499999999999953
 40
0.7499999999999953
 40
1.0
 40
1.0
 40
1.0
 40
1.0
 10
-93.11920542941853
 20
-1.545906897811516
 30
0.0
 10
-93.1321847176084
 20
-1.300214996617054
 30
0.0
 10
-93.14516400579828
 20
-0.9462090069960807
 30
0.0
 10
-93.17112258217826
 20
-0.1388991602388374
 30
0.0
 10
-93.18410187036825
 20
0.3128409281314276
 30
0.0
 10
-93.20357080265298
 20
0.9419565951416208
 30
0.0
 10
-93.21006044674799
 20
1.143576054771184
 30
0.0
 10
-93.22303973493793
 20
1.510223976607817
 30
0.0
 10
-93.22952937903294
 20
1.675535709620354
 30
0.0
 10
-93.24899831131785
 20
2.09247801327711
 30
0.0
 10
-93.26197759950772
 20
2.261324803257979
 30
0.0
 10
-93.27495688769751
 20
2.283468757040236
 30
0.0
  0
SPLINE
  5
BC
330
1F
100
AcDbEntity
  8
0
  6
Continuous
 62
     7
370
    25
100
AcDbSpline
210
0.0
220
0.0
230
1.0
 70
     8
 71
     3
 72
     9
 73
     5
 74
     0
 42
0.000000001
 43
0.00000001
 40
0.0
 40
0.0
 40
0.0
 40
0.0
 40
0.1238493517191329
 40
1.0
 40
1.0
 40
1.0
 40
1.0
 10
-93.44387980189876
 20
1.997558716114702
 30
0.0
 10
-93.44262000514404
 20
2.001356228042941
 30
0.0
 10
-93.43244799586641
 20
2.032018576093454
 30
0.0
 10
-93.42227351036644
 20
2.012480439735294
 30
0.0
 10
-93.41335912829972
 20
1.995362088898889
 30
0.0
  0
SPLINE
  5
BD
330
1F
100
AcDbEntity
  8
0
  6
Continuous
 62
     7
370
    25
100
AcDbSpline
210
0.0
220
0.0
230
1.0
 70
     8
 71
     3
 72
    10
 73
     6
 74
     0
 42
0.000000001
 43
0.00000001
 40
0.0
 40
0.0
 40
0.0
 40
0.0
 40
0.33784186493339
 40
0.8684159512204234
 40
1.0
 40
1.0
 40
1.0
 40
1.0
 10
-93.54998679549578
 20
-2.478964890470715
 30
0.0
 10
-93.55728286366516
 20
-2.479017118920884
 30
0.0
 10
-93.57603726516811
 20
-2.479151371137495
 30
0.0
 10
-93.59763336951951
 20
-2.358121304775494
 30
0.0
 10
-93.61193340570149
 20
-2.200325396404579
 30
0.0
 10
-93.61477510854992
 20
-2.16896819726331
 30
0.0
  0
SPLINE
  5
C0
330
1F
100
AcDbEntity
  8
0
  6
Continuous
 62
     7
370
    25
100
AcDbSpline
210
0.0
220
0.0
230
1.0
 70
     8
 71
     3
 72
     8
 73
     4
 74
     0
 42
0.000000001
 43
0.00000001
 40
0.0
 40
0.0
 40
0.0
 40
0.0
 40
1.0
 40
1.0
 40
1.0
 40
1.0
 10
-93.09626006816126
 20
-1.973657601330916
 30
0.0
 10
-93.09910936218421
 20
-1.974764742183836
 30
0.0
 10
-93.10308724563565
 20
-1.827126975719785
 30
0.0
 10
-93.11927107370299
 20
-1.54593866677313
 30
0.0
  0
SPLINE
  5
D2
330
1F
100
AcDbEntity
  8
0
  6
Continuous
 62
     7
370
    25
100
AcDbSpline
210
0.0
220
0.0
230
1.0
 70
     8
 71
     3
 72
     9
 73
     5
 74
     0
 42
0.000000001
 43
0.00000001
 40
0.0
 40
0.0
 40
0.0
 40
0.0
 40
0.258260108745307
 40
0.9999999999999999
 40
0.9999999999999999
 40
0.9999999999999999
 40
0.9999999999999999
 10
93.18322731060356
 20
1.993395539130839
 30
0.0
 10
93.18121619046406
 20
1.999821394331497
 30
0.0
 10
93.17342900200019
 20
2.024702725141263
 30
0.0
 10
93.1656433568567
 20
2.008096553690355
 30
0.0
 10
93.15986843327464
 20
1.995779093884205
 30
0.0
  0
SPLINE
  5
D3
330
1F
100
AcDbEntity
  8
0
  6
Continuous
 62
     7
370
    25
100
AcDbSpline
210
0.0
220
0.0
230
1.0
 70
     8
 71
     3
 72
    22
 73
    18
 74
     0
 42
0.000000001
 43
0.00000001
 40
0.0
 40
0.0
 40
0.0
 40
0.0
 40
0.125
 40
0.125
 40
0.25
 40
0.25
 40
0.375
 40
0.375
 40
0.5
 40
0.5
 40
0.625
 40
0.625
 40
0.75
 40
0.75
 40
0.875
 40
0.875
 40
1.0
 40
1.0
 40
1.0
 40
1.0
 10
93.85002004567336
 20
-2.499988426415495
 30
0.0
 10
93.8324459909121
 20
-2.50022398470277
 30
0.0
 10
93.81487193615085
 20
-2.427115284818759
 30
0.0
 10
93.7797238266284
 20
-2.149903310071081
 30
0.0
 10
93.76214977186724
 20
-1.944244930014084
 30
0.0
 10
93.72700166234503
 20
-1.435892192808399
 30
0.0
 10
93.7094276075838
 20
-1.132674596484192
 30
0.0
 10
93.67427949806124
 20
-0.47917489654066
 30
0.0
 10
93.65670544330005
 20
-0.1294396623849302
 30
0.0
 10
93.62155733377782
 20
0.5583843430405182
 30
0.0
 10
93.60398327901675
 20
0.8959173082768273
 30
0.0
 10
93.56883516949426
 20
1.501447527333732
 30
0.0
 10
93.55126111473298
 20
1.769893628152882
 30
0.0
 10
93.51611300521068
 20
2.190748247570037
 30
0.0
 10
93.49853895044963
 20
2.344407141396873
 30
0.0
 10
93.46339084092729
 20
2.509824478124534
 30
0.0
 10
93.44581678616592
 20
2.522142997180929
 30
0.0
 10
93.42824273140485
 20
2.463349471549661
 30
0.0
  0
SPLINE
  5
D4
330
1F
100
AcDbEntity
  8
0
  6
Continuous
 62
     7
370
    25
100
AcDbSpline
210
0.0
220
0.0
230
1.0
 70
     8
 71
     3
 72
    12
 73
     8
 74
     0
 42
0.000000001
 43
0.00000001
 40
0.0
 40
0.0
 40
0.0
 40
0.0
 40
0.0051993324716368
 40
0.2882450509559385
 40
0.5712907694402355
 40
0.8543364879245289
 40
1.0
 40
1.0
 40
1.0
 40
1.0
 10
93.54114163464645
 20
1.885605100541466
 30
0.0
 10
93.5409694230964
 20
1.888081819917113
 30
0.0
 10
93.53142221154687
 20
2.025388311958514
 30
0.0
 10
93.51249999999689
 20
2.217467074453812
 30
0.0
 10
93.4843749999978
 20
2.426979565332596
 30
0.0
 10
93.46080035388458
 20
2.514384785393137
 30
0.0
 10
93.44660070777122
 20
2.488419335744126
 30
0.0
 10
93.44177606165756
 20
2.479596995754955
 30
0.0
  0
SPLINE
  5
D6
330
1F
100
AcDbEntity
  8
0
  6
Continuous
 62
     7
370
    25
100
AcDbSpline
210
0.0
220
0.0
230
1.0
 70
     8
 71
     3
 72
    16
 73
    12
 74
     0
 42
0.000000001
 43
0.00000001
 40
0.0
 40
0.0
 40
0.0
 40
0.0
 40
0.2499999999999984
 40
0.2499999999999984
 40
0.4999999999999969
 40
0.4999999999999969
 40
0.6249999999999961
 40
0.6249999999999961
 40
0.7499999999999953
 40
0.7499999999999953
 40
1.0
 40
1.0
 40
1.0
 40
1.0
 10
93.11920542941853
 20
1.545906897811516
 30
0.0
 10
93.1321847176084
 20
1.300214996617054
 30
0.0
 10
93.14516400579828
 20
0.9462090069960807
 30
0.0
 10
93.17112258217826
 20
0.1388991602388374
 30
0.0
 10
93.18410187036825
 20
-0.3128409281314276
 30
0.0
 10
93.20357080265298
 20
-0.9419565951416208
 30
0.0
 10
93.21006044674799
 20
-1.143576054771184
 30
0.0
 10
93.22303973493793
 20
-1.510223976607817
 30
0.0
 10
93.22952937903294
 20
-1.675535709620354
 30
0.0
 10
93.24899831131785
 20
-2.09247801327711
 30
0.0
 10
93.26197759950772
 20
-2.261324803257979
 30
0.0
 10
93.27495688769751
 20
-2.283468757040236
 30
0.0
  0
SPLINE
  5
D7
330
1F
100
AcDbEntity
  8
0
  6
Continuous
 62
     7
370
    25
100
AcDbSpline
210
0.0
220
0.0
230
1.0
 70
     8
 71
     3
 72
     9
 73
     5
 74
     0
 42
0.000000001
 43
0.00000001
 40
0.0
 40
0.0
 40
0.0
 40
0.0
 40
0.1238493517191329
 40
1.0
 40
1.0
 40
1.0
 40
1.0
 10
93.44387980189876
 20
-1.997558716114702
 30
0.0
 10
93.44262000514404
 20
-2.001356228042941
 30
0.0
 10
93.43244799586641
 20
-2.032018576093454
 30
0.0
 10
93.42227351036644
 20
-2.012480439735294
 30
0.0
 10
93.41335912829972
 20
-1.995362088898889
 30
0.0
  0
SPLINE
  5
D8
330
1F
100
AcDbEntity
  8
0
  6
Continuous
 62
     7
370
    25
100
AcDbSpline
210
0.0
220
0.0
230
1.0
 70
     8
 71
     3
 72
    10
 73
     6
 74
     0
 42
0.000000001
 43
0.00000001
 40
0.0
 40
0.0
 40
0.0
 40
0.0
 40
0.33784186493339
 40
0.8684159512204234
 40
1.0
 40
1.0
 40
1.0
 40
1.0
 10
93.54998679549578
 20
2.478964890470715
 30
0.0
 10
93.55728286366516
 20
2.479017118920884
 30
0.0
 10
93.57603726516811
 20
2.479151371137495
 30
0.0
 10
93.59763336951951
 20
2.358121304775494
 30
0.0
 10
93.61193340570149
 20
2.200325396404579
 30
0.0
 10
93.61477510854992
 20
2.16896819726331
 30
0.0
  0
SPLINE
  5
DB
330
1F
100
AcDbEntity
  8
0
  6
Continuous
 62
     7
370
    25
100
AcDbSpline
210
0.0
220
0.0
230
1.0
 70
     8
 71
     3
 72
     8
 73
     4
 74
     0
 42
0.000000001
 43
0.00000001
 40
0.0
 40
0.0
 40
0.0
 40
0.0
 40
1.0
 40
1.0
 40
1.0
 40
1.0
 10
93.09626006816126
 20
1.973657601330916
 30
0.0
 10
93.09910936218421
 20
1.974764742183836
 30
0.0
 10
93.10308724563565
 20
1.827126975719785
 30
0.0
 10
93.11927107370299
 20
1.54593866677313
 30
0.0
  0
SPLINE
  5
F5
330
1F
100
AcDbEntity
  8
0
  6
Continuous
 62
     8
370
    25
100
AcDbSpline
210
0.0
220
0.0
230
1.0
 70
     8
 71
     3
 72
    21
 73
    17
 74
     0
 42
0.000000001
 43
0.00000001
 40
0.0
 40
0.0
 40
0.0
 40
0.0
 40
0.0056726671040623
 40
0.0834178498343338
 40
0.1611416321101117
 40
0.2388850662011945
 40
0.3166112204173435
 40
0.3943523597163983
 40
0.4720813933806193
 40
0.5498198401480537
 40
0.6275519986125475
 40
0.7052873627986712
 40
0.7830227419102411
 40
0.8607548025172033
 40
0.9384933803389337
 40
1.0
 40
1.0
 40
1.0
 40
1.0
 10
-93.55508621088654
 20
1.997679200546873
 30
0.0
 10
-93.55438294169043
 20
1.997588863034944
 30
0.0
 10
-93.54404120946514
 20
1.996260429536882
 30
0.0
 10
-93.52407719813866
 20
1.896654655419081
 30
0.0
 10
-93.49515757829275
 20
1.69783464322509
 30
0.0
 10
-93.46626280039011
 20
1.399858867575564
 30
0.0
 10
-93.43734646601192
 20
1.03378338055533
 30
0.0
 10
-93.40844849901147
 20
0.613255994405655
 30
0.0
 10
-93.37953551793353
 20
0.161831979287437
 30
0.0
 10
-93.35063401951052
 20
-0.2980193869455312
 30
0.0
 10
-93.32172475112338
 20
-0.7428652130292667
 30
0.0
 10
-93.29281940442647
 20
-1.148791632018548
 30
0.0
 10
-93.26391404182992
 20
-1.497471406844902
 30
0.0
 10
-93.23500488486582
 20
-1.765062580454054
 30
0.0
 10
-93.20811328635614
 20
-1.941765422934959
 30
0.0
 10
-93.19085191030726
 20
-1.977577032653059
 30
0.0
 10
-93.18322731060357
 20
-1.993395539130839
 30
0.0
  0
SPLINE
  5
F6
330
1F
100
AcDbEntity
  8
0
  6
Continuous
 62
     8
370
    25
100
AcDbSpline
210
0.0
220
0.0
230
1.0
 70
     8
 71
     3
 72
    14
 73
    10
 74
     0
 42
0.000000001
 43
0.00000001
 40
0.0
 40
0.0
 40
0.0
 40
0.0
 40
0.25
 40
0.25
 40
0.5
 40
0.5
 40
0.75
 40
0.75
 40
1.0
 40
1.0
 40
1.0
 40
1.0
 10
-93.41335809051714
 20
1.995363885627537
 30
0.0
 10
-93.38884526432955
 20
1.942708780234115
 30
0.0
 10
-93.3643324381419
 20
1.776581100737522
 30
0.0
 10
-93.31530678576665
 20
1.268965598233321
 30
0.0
 10
-93.29079395957935
 20
0.9288679953569807
 30
0.0
 10
-93.2417683072046
 20
0.183766278830249
 30
0.0
 10
-93.21725548101692
 20
-0.2200760550878887
 30
0.0
 10
-93.16822982864159
 20
-0.9612066376307078
 30
0.0
 10
-93.14371700245408
 20
-1.29756094184566
 30
0.0
 10
-93.11920417626652
 20
-1.545908520327113
 30
0.0
  0
SPLINE
  5
101
330
1F
100
AcDbEntity
  8
0
  6
Continuous
 62
     8
370
    25
100
AcDbSpline
210
0.0
220
0.0
230
1.0
 70
     8
 71
     3
 72
    21
 73
    17
 74
     0
 42
0.000000001
 43
0.00000001
 40
0.0
 40
0.0
 40
0.0
 40
0.0
 40
0.0056726671040623
 40
0.0834178498343338
 40
0.1611416321101117
 40
0.2388850662011945
 40
0.3166112204173435
 40
0.3943523597163983
 40
0.4720813933806193
 40
0.5498198401480537
 40
0.6275519986125475
 40
0.7052873627986712
 40
0.7830227419102411
 40
0.8607548025172033
 40
0.9384933803389337
 40
1.0
 40
1.0
 40
1.0
 40
1.0
 10
93.55508621088654
 20
-1.997679200546873
 30
0.0
 10
93.55438294169043
 20
-1.997588863034944
 30
0.0
 10
93.54404120946514
 20
-1.996260429536882
 30
0.0
 10
93.52407719813866
 20
-1.896654655419081
 30
0.0
 10
93.49515757829275
 20
-1.69783464322509
 30
0.0
 10
93.46626280039011
 20
-1.399858867575564
 30
0.0
 10
93.43734646601192
 20
-1.03378338055533
 30
0.0
 10
93.40844849901147
 20
-0.613255994405655
 30
0.0
 10
93.37953551793353
 20
-0.161831979287437
 30
0.0
 10
93.35063401951052
 20
0.2980193869455312
 30
0.0
 10
93.32172475112338
 20
0.7428652130292667
 30
0.0
 10
93.29281940442647
 20
1.148791632018548
 30
0.0
 10
93.26391404182992
 20
1.497471406844902
 30
0.0
 10
93.23500488486582
 20
1.765062580454054
 30
0.0
 10
93.20811328635614
 20
1.941765422934959
 30
0.0
 10
93.19085191030726
 20
1.977577032653059
 30
0.0
 10
93.18322731060357
 20
1.993395539130839
 30
0.0
  0
SPLINE
  5
102
330
1F
100
AcDbEntity
  8
0
  6
Continuous
 62
     8
370
    25
100
AcDbSpline
210
0.0
220
0.0
230
1.0
 70
     8
 71
     3
 72
    14
 73
    10
 74
     0
 42
0.000000001
 43
0.00000001
 40
0.0
 40
0.0
 40
0.0
 40
0.0
 40
0.25
 40
0.25
 40
0.5
 40
0.5
 40
0.75
 40
0.75
 40
1.0
 40
1.0
 40
1.0
 40
1.0
 10
93.41335809051714
 20
-1.995363885627537
 30
0.0
 10
93.38884526432955
 20
-1.942708780234115
 30
0.0
 10
93.3643324381419
 20
-1.776581100737522
 30
0.0
 10
93.31530678576665
 20
-1.268965598233321
 30
0.0
 10
93.29079395957935
 20
-0.9288679953569807
 30
0.0
 10
93.2417683072046
 20
-0.183766278830249
 30
0.0
 10
93.21725548101692
 20
0.2200760550878887
 30
0.0
 10
93.16822982864159
 20
0.9612066376307078
 30
0.0
 10
93.14371700245408
 20
1.29756094184566
 30
0.0
 10
93.11920417626652
 20
1.545908520327113
 30
0.0
  0
LINE
  5
105
330
1F
100
AcDbEntity
  8
0
  6
Continuous
 62
     7
370
    25
100
AcDbLine
 10
-100.0142573995
 20
6.75
 30
0.0
 11
-114.75
 21
6.75
 31
0.0
  0
LINE
  5
106
330
1F
100
AcDbEntity
  8
0
  6
Continuous
 62
     7
370
    25
100
AcDbLine
 10
-114.75
 20
-6.75
 30
0.0
 11
-100.000019844
 21
-6.75
 31
0.0
  0
LINE
  5
107
330
1F
100
AcDbEntity
  8
0
  6
Continuous
 62
     7
370
    25
100
AcDbLine
 10
100.0142573995
 20
-6.75
 30
0.0
 11
114.75
 21
-6.75
 31
0.0
  0
LINE
  5
108
330
1F
100
AcDbEntity
  8
0
  6
Continuous
 62
     7
370
    25
100
AcDbLine
 10
114.75
 20
6.75
 30
0.0
 11
100.000019844
 21
6.75
 31
0.0
  0
LINE
  5
109
330
1F
100
AcDbEntity
  8
0
  6
Continuous
 62
     7
370
    25
100
AcDbLine
 10
-184.55
 20
-9.0
 30
0.0
 11
-115.35
 21
-9.0
 31
0.0
  0
LINE
  5
10A
330
1F
100
AcDbEntity
  8
0
  6
Continuous
 62
     7
370
    25
100
AcDbLine
 10
-115.35
 20
9.0
 30
0.0
 11
-184.55
 21
9.0
 31
0.0
  0
LINE
  5
10B
330
1F
100
AcDbEntity
  8
0
  6
Continuous
 62
     7
370
    25
100
AcDbLine
 10
-93.6645351889
 20
-2.3119134507
 30
0.0
 11
-93.5592685553
 21
-2.4934367995
 31
0.0
  0
LINE
  5
10C
330
1F
100
AcDbEntity
  8
0
  6
Continuous
 62
     7
370
    25
100
AcDbLine
 10
-93.5499867955
 20
-2.5
 30
0.0
 11
-93.3974321553
 21
-2.5
 31
0.0
  0
LINE
  5
10D
330
1F
100
AcDbEntity
  8
0
  6
Continuous
 62
     7
370
    25
100
AcDbLine
 10
115.35
 20
-9.0
 30
0.0
 11
184.55
 21
-9.0
 31
0.0
  0
LINE
  5
10E
330
1F
100
AcDbEntity
  8
0
  6
Continuous
 62
     7
370
    25
100
AcDbLine
 10
184.55
 20
9.0
 30
0.0
 11
115.35
 21
9.0
 31
0.0
  0
LINE
  5
10F
330
1F
100
AcDbEntity
  8
0
  6
Continuous
 62
     7
370
    25
100
AcDbLine
 10
93.6645351889
 20
2.3119134507
 30
0.0
 11
93.5592685553
 21
2.4934367995
 31
0.0
  0
LINE
  5
110
330
1F
100
AcDbEntity
  8
0
  6
Continuous
 62
     7
370
    25
100
AcDbLine
 10
93.5499867955
 20
2.5
 30
0.0
 11
93.3974321553
 21
2.5
 31
0.0
  0
LINE
  5
111
330
1F
100
AcDbEntity
  8
0
  6
Continuous
 62
     7
370
    25
100
AcDbLine
 10
13.0
 20
-50.0
 30
0.0
 11
13.0
 21
0.0
 31
0.0
  0
LINE
  5
112
330
1F
100
AcDbEntity
  8
0
  6
Continuous
 62
     7
370
    25
100
AcDbLine
 10
-13.0
 20
0.0
 30
0.0
 11
-13.0
 21
-50.0
 31
0.0
  0
LINE
  5
113
330
1F
100
AcDbEntity
  8
0
  6
Continuous
 62
     7
370
    25
100
AcDbLine
 10
-12.8
 20
-72.0
 30
0.0
 11
12.8
 21
-72.0
 31
0.0
  0
LINE
  5
114
330
1F
100
AcDbEntity
  8
0
  6
Continuous
 62
     7
370
    25
100
AcDbLine
 10
-12.3
 20
-72.5
 30
0.0
 11
12.3
 21
-72.5
 31
0.0
  0
LINE
  5
115
330
1F
100
AcDbEntity
  8
0
  6
Continuous
 62
     7
370
    25
100
AcDbLine
 10
-12.8
 20
-72.0
 30
0.0
 11
-12.8
 21
-50.0
 31
0.0
  0
LINE
  5
116
330
1F
100
AcDbEntity
  8
0
  6
Continuous
 62
     7
370
    25
100
AcDbLine
 10
12.8
 20
-72.0
 30
0.0
 11
12.8
 21
-50.0
 31
0.0
  0
LINE
  5
117
330
1F
100
AcDbEntity
  8
0
  6
Continuous
 62
     7
370
    25
100
AcDbLine
 10
0.0
 20
27.5
 30
0.0
 11
0.0
 21
27.2000000483
 31
0.0
  0
LINE
  5
118
330
1F
100
AcDbEntity
  8
0
  6
Continuous
 62
     7
370
    25
100
AcDbLine
 10
0.0
 20
13.75
 30
0.0
 11
0.0
 21
13.25
 31
0.0
  0
LINE
  5
119
330
1F
100
AcDbEntity
  8
0
  6
Continuous
 62
     7
370
    25
100
AcDbLine
 10
-82.95
 20
0.0
 30
0.0
 11
-84.5
 21
0.0
 31
0.0
  0
LINE
  5
11A
330
1F
100
AcDbEntity
  8
0
  6
Continuous
 62
     7
370
    25
100
AcDbLine
 10
-71.0
 20
0.0
 30
0.0
 11
-71.4999999517
 21
0.0
 31
0.0
  0
LINE
  5
11B
330
1F
100
AcDbEntity
  8
0
  6
Continuous
 62
     7
370
    25
100
AcDbLine
 10
-184.75
 20
-8.7999996833
 30
0.0
 11
-184.75
 21
8.7999996833
 31
0.0
  0
LINE
  5
11C
330
1F
100
AcDbEntity
  8
0
  6
Continuous
 62
     7
370
    25
100
AcDbLine
 10
-93.25
 20
-0.0000001447
 30
0.0
 11
-184.75
 21
0.0
 31
0.0
  0
LINE
  5
11D
330
1F
100
AcDbEntity
  8
0
  6
Continuous
 62
     7
370
    25
100
AcDbLine
 10
-114.75
 20
-8.4
 30
0.0
 11
-114.75
 21
8.4
 31
0.0
  0
LINE
  5
11E
330
1F
100
AcDbEntity
  8
0
  6
Continuous
 62
     7
370
    25
100
AcDbLine
 10
-93.275
 20
2.2834936491
 30
0.0
 11
-93.2812284094
 21
2.2666794542
 31
0.0
  0
LINE
  5
11F
330
1F
100
AcDbEntity
  8
0
  6
Continuous
 62
     7
370
    25
100
AcDbLine
 10
-92.9
 20
1.6339745962
 30
0.0
 11
-92.9
 21
-1.6339745962
 31
0.0
  0
LINE
  5
120
330
1F
100
AcDbEntity
  8
0
  6
Continuous
 62
     7
370
    25
100
AcDbLine
 10
-92.9
 20
-1.6339745962
 30
0.0
 11
-93.096272449
 21
-1.9739284501
 31
0.0
  0
LINE
  5
121
330
1F
100
AcDbEntity
  8
0
  6
Continuous
 62
     7
370
    25
100
AcDbLine
 10
-92.9
 20
1.6339745962
 30
0.0
 11
-93.275
 21
2.2834936491
 31
0.0
  0
LINE
  5
122
330
1F
100
AcDbEntity
  8
0
  6
Continuous
 62
     7
370
    25
100
AcDbLine
 10
82.95
 20
0.0
 30
0.0
 11
84.5
 21
0.0
 31
0.0
  0
LINE
  5
123
330
1F
100
AcDbEntity
  8
0
  6
Continuous
 62
     7
370
    25
100
AcDbLine
 10
71.0
 20
0.0
 30
0.0
 11
71.4999999517
 21
0.0
 31
0.0
  0
LINE
  5
124
330
1F
100
AcDbEntity
  8
0
  6
Continuous
 62
     7
370
    25
100
AcDbLine
 10
184.75
 20
8.7999996833
 30
0.0
 11
184.75
 21
-8.7999996833
 31
0.0
  0
LINE
  5
125
330
1F
100
AcDbEntity
  8
0
  6
Continuous
 62
     7
370
    25
100
AcDbLine
 10
93.25
 20
0.0000001447
 30
0.0
 11
184.75
 21
0.0
 31
0.0
  0
LINE
  5
126
330
1F
100
AcDbEntity
  8
0
  6
Continuous
 62
     7
370
    25
100
AcDbLine
 10
114.75
 20
8.4
 30
0.0
 11
114.75
 21
-8.4
 31
0.0
  0
LINE
  5
127
330
1F
100
AcDbEntity
  8
0
  6
Continuous
 62
     7
370
    25
100
AcDbLine
 10
93.275
 20
-2.2834936491
 30
0.0
 11
93.2812284094
 21
-2.2666794542
 31
0.0
  0
LINE
  5
128
330
1F
100
AcDbEntity
  8
0
  6
Continuous
 62
     7
370
    25
100
AcDbLine
 10
92.9
 20
-1.6339745962
 30
0.0
 11
92.9
 21
1.6339745962
 31
0.0
  0
LINE
  5
129
330
1F
100
AcDbEntity
  8
0
  6
Continuous
 62
     7
370
    25
100
AcDbLine
 10
92.9
 20
1.6339745962
 30
0.0
 11
93.096272449
 21
1.9739284501
 31
0.0
  0
LINE
  5
12A
330
1F
100
AcDbEntity
  8
0
  6
Continuous
 62
     7
370
    25
100
AcDbLine
 10
92.9
 20
-1.6339745962
 30
0.0
 11
93.275
 21
-2.2834936491
 31
0.0
  0
LINE
  5
12B
330
1F
100
AcDbEntity
  8
0
  6
Continuous
 62
     7
370
    25
100
AcDbLine
 10
0.0
 20
13.0
 30
0.0
 11
0.0
 21
-50.0
 31
0.0
  0
LINE
  5
12C
330
1F
100
AcDbEntity
  8
0
  6
Continuous
 62
     7
370
    25
100
AcDbLine
 10
13.0
 20
-50.0
 30
0.0
 11
-13.0
 21
-50.0
 31
0.0
  0
LINE
  5
12D
330
1F
100
AcDbEntity
  8
0
  6
Continuous
 62
     8
370
    25
100
AcDbLine
 10
13.0
 20
0.0
 30
0.0
 11
13.25
 21
0.0
 31
0.0
  0
LINE
  5
12E
330
1F
100
AcDbEntity
  8
0
  6
Continuous
 62
     8
370
    25
100
AcDbLine
 10
-13.0
 20
0.0
 30
0.0
 11
-13.25
 21
0.0
 31
0.0
  0
LINE
  5
12F
330
1F
100
AcDbEntity
  8
0
  6
Continuous
 62
     8
370
    25
100
AcDbLine
 10
-184.55
 20
-9.0
 30
0.0
 11
-184.55
 21
9.0
 31
0.0
  0
LINE
  5
130
330
1F
100
AcDbEntity
  8
0
  6
Continuous
 62
     8
370
    25
100
AcDbLine
 10
-115.35
 20
-9.0
 30
0.0
 11
-115.35
 21
9.0
 31
0.0
  0
LINE
  5
131
330
1F
100
AcDbEntity
  8
0
  6
Continuous
 62
     8
370
    25
100
AcDbLine
 10
184.55
 20
9.0
 30
0.0
 11
184.55
 21
-9.0
 31
0.0
  0
LINE
  5
132
330
1F
100
AcDbEntity
  8
0
  6
Continuous
 62
     8
370
    25
100
AcDbLine
 10
115.35
 20
9.0
 30
0.0
 11
115.35
 21
-9.0
 31
0.0
  0
LINE
  5
133
330
1F
100
AcDbEntity
  8
0
  6
Continuous
 62
     8
370
    25
100
AcDbLine
 10
13.0
 20
-40.0
 30
0.0
 11
-13.0
 21
-40.0
 31
0.0
  0
ARC
  5
134
330
1F
100
AcDbEntity
  8
0
  6
Continuous
 62
     7
370
    25
100
AcDbCircle
 10
-184.55
 20
-8.8
 30
0.0
 40
0.200000000000012
100
AcDbArc
 50
179.999909267
 51
270.0
  0
ARC
  5
135
330
1F
100
AcDbEntity
  8
0
  6
Continuous
 62
     7
370
    25
100
AcDbCircle
 10
-115.35
 20
8.4
 30
0.0
 40
0.5999999999999854
100
AcDbArc
 50
0.0
 51
90.0
  0
ARC
  5
136
330
1F
100
AcDbEntity
  8
0
  6
Continuous
 62
     7
370
    25
100
AcDbCircle
 10
-184.55
 20
8.8
 30
0.0
 40
0.2000000000000135
100
AcDbArc
 50
90.0
 51
180.000090733
  0
ARC
  5
137
330
1F
100
AcDbEntity
  8
0
  6
Continuous
 62
     7
370
    25
100
AcDbCircle
 10
-115.35
 20
-8.4
 30
0.0
 40
0.6000000000000121
100
AcDbArc
 50
270.0
 51
0.0
  0
ARC
  5
138
330
1F
100
AcDbEntity
  8
0
  6
Continuous
 62
     7
370
    25
100
AcDbCircle
 10
184.55
 20
-8.8
 30
0.0
 40
0.200000000000012
100
AcDbArc
 50
270.0
 51
0.000090733
  0
ARC
  5
139
330
1F
100
AcDbEntity
  8
0
  6
Continuous
 62
     7
370
    25
100
AcDbCircle
 10
184.55
 20
8.8
 30
0.0
 40
0.200000000000012
100
AcDbArc
 50
359.999909267
 51
90.0
  0
ARC
  5
13A
330
1F
100
AcDbEntity
  8
0
  6
Continuous
 62
     7
370
    25
100
AcDbCircle
 10
115.35
 20
-8.4
 30
0.0
 40
0.5999999999999943
100
AcDbArc
 50
180.0
 51
270.0
  0
ARC
  5
13B
330
1F
100
AcDbEntity
  8
0
  6
Continuous
 62
     7
370
    25
100
AcDbCircle
 10
115.35
 20
8.4
 30
0.0
 40
0.6000000000000103
100
AcDbArc
 50
90.0
 51
180.0
  0
ARC
  5
13C
330
1F
100
AcDbEntity
  8
0
  6
Continuous
 62
     7
370
    25
100
AcDbCircle
 10
12.3
 20
-72.0
 30
0.0
 40
0.500000000000032
100
AcDbArc
 50
270.0
 51
360.0
  0
ARC
  5
13D
330
1F
100
AcDbEntity
  8
0
  6
Continuous
 62
     7
370
    25
100
AcDbCircle
 10
-12.3
 20
-72.0
 30
0.0
 40
0.500000000000032
100
AcDbArc
 50
180.0
 51
270.0
  0
ARC
  5
13E
330
1F
100
AcDbEntity
  8
0
  6
Continuous
 62
     7
370
    25
100
AcDbCircle
 10
0.0
 20
0.0
 30
0.0
 40
27.50000000000001
100
AcDbArc
 50
298.2114758412
 51
241.7885241588
  0
ARC
  5
13F
330
1F
100
AcDbEntity
  8
0
  6
Continuous
 62
     7
370
    25
100
AcDbCircle
 10
0.0
 20
0.0
 30
0.0
 40
13.25
100
AcDbArc
 50
348.8523089815
 51
191.1476910185
  0
ARC
  5
140
330
1F
100
AcDbEntity
  8
0
  6
Continuous
 62
     7
370
    25
100
AcDbCircle
 10
-100.0
 20
0.0
 30
0.0
 40
16.00000000000001
100
AcDbArc
 50
204.9530207877
 51
155.0469792123
  0
ARC
  5
141
330
1F
100
AcDbEntity
  8
0
  6
Continuous
 62
     7
370
    25
100
AcDbCircle
 10
-100.0
 20
0.0
 30
0.0
 40
16.25000000000001
100
AcDbArc
 50
204.8116315026
 51
155.1883684974
  0
ARC
  5
142
330
1F
100
AcDbEntity
  8
0
  6
Continuous
 62
     7
370
    25
100
AcDbCircle
 10
-100.0
 20
0.0
 30
0.0
 40
29.00000000000004
100
AcDbArc
 50
198.0800126244
 51
161.9199873756
  0
ARC
  5
143
330
1F
100
AcDbEntity
  8
0
  6
Continuous
 62
     7
370
    25
100
AcDbCircle
 10
100.0
 20
0.0
 30
0.0
 40
16.00000000000001
100
AcDbArc
 50
24.9530207877
 51
335.0469792123
  0
ARC
  5
144
330
1F
100
AcDbEntity
  8
0
  6
Continuous
 62
     7
370
    25
100
AcDbCircle
 10
100.0
 20
0.0
 30
0.0
 40
16.25
100
AcDbArc
 50
24.8116315026
 51
335.1883684974
  0
ARC
  5
145
330
1F
100
AcDbEntity
  8
0
  6
Continuous
 62
     7
370
    25
100
AcDbCircle
 10
100.0
 20
0.0
 30
0.0
 40
29.00000000000001
100
AcDbArc
 50
18.0800126244
 51
341.9199873756
  0
ARC
  5
146
330
1F
100
AcDbEntity
  8
0
  6
Continuous
 62
     7
370
    25
100
AcDbCircle
 10
0.0
 20
0.0
 30
0.0
 40
13.00000000000002
100
AcDbArc
 50
0.0
 51
180.0
  0
ARC
  5
147
330
1F
100
AcDbEntity
  8
0
  6
Continuous
 62
     8
370
    25
100
AcDbCircle
 10
0.0
 20
0.0
 30
0.0
 40
27.20000004825
100
AcDbArc
 50
298.551023067
 51
241.448976933
  0
ARC
  5
148
330
1F
100
AcDbEntity
  8
0
  6
Continuous
 62
     8
370
    25
100
AcDbCircle
 10
0.0
 20
0.0
 30
0.0
 40
13.75
100
AcDbArc
 50
340.9887347399
 51
199.0112652601
  0
ARC
  5
149
330
1F
100
AcDbEntity
  8
0
  6
Continuous
 62
     8
370
    25
100
AcDbCircle
 10
-100.0
 20
0.0
 30
0.0
 40
15.50000000000001
100
AcDbArc
 50
205.816087334
 51
154.183912666
  0
ARC
  5
14A
330
1F
100
AcDbEntity
  8
0
  6
Continuous
 62
     8
370
    25
100
AcDbCircle
 10
-100.0
 20
0.0
 30
0.0
 40
17.05000000000001
100
AcDbArc
 50
210.0125597377
 51
149.9874402623
  0
ARC
  5
14B
330
1F
100
AcDbEntity
  8
0
  6
Continuous
 62
     8
370
    25
100
AcDbCircle
 10
-100.0
 20
0.0
 30
0.0
 40
28.50000004829003
100
AcDbArc
 50
198.4084801383
 51
161.5915198617
  0
ARC
  5
14C
330
1F
100
AcDbEntity
  8
0
  6
Continuous
 62
     8
370
    25
100
AcDbCircle
 10
100.0
 20
0.0
 30
0.0
 40
15.50000000000002
100
AcDbArc
 50
25.816087334
 51
334.183912666
  0
ARC
  5
14D
330
1F
100
AcDbEntity
  8
0
  6
Continuous
 62
     8
370
    25
100
AcDbCircle
 10
100.0
 20
0.0
 30
0.0
 40
17.05
100
AcDbArc
 50
30.0125597377
 51
329.9874402623
  0
ARC
  5
14E
330
1F
100
AcDbEntity
  8
0
  6
Continuous
 62
     8
370
    25
100
AcDbCircle
 10
100.0
 20
0.0
 30
0.0
 40
28.50000004829003
100
AcDbArc
 50
18.4084801383
 51
341.5915198617
  0
LINE
  5
18E
330
1B
100
AcDbEntity
 67
     1
  8
0
  6
Continuous
 62
     7
370
    25
100
AcDbLine
 10
29.6
 20
26.5
 30
0.0
 11
29.6
 21
-26.5
 31
0.0
  0
LINE
  5
18F
330
1B
100
AcDbEntity
 67
     1
  8
0
  6
Continuous
 62
     7
370
    25
100
AcDbLine
 10
93.3
 20
-6.75
 30
0.0
 11
112.3470595501
 21
-6.75
 31
0.0
  0
LINE
  5
190
330
1B
100
AcDbEntity
 67
     1
  8
0
  6
Continuous
 62
     7
370
    25
100
AcDbLine
 10
112.3470595501
 20
6.75
 30
0.0
 11
93.3
 21
6.75
 31
0.0
  0
LINE
  5
191
330
1B
100
AcDbEntity
 67
     1
  8
0
  6
Continuous
 62
     7
370
    25
100
AcDbLine
 10
195.2
 20
-50.0
 30
0.0
 11
195.2
 21
-72.0
 31
0.0
  0
LINE
  5
192
330
1B
100
AcDbEntity
 67
     1
  8
0
  6
Continuous
 62
     7
370
    25
100
AcDbLine
 10
220.8
 20
-72.0
 30
0.0
 11
220.8
 21
-50.0
 31
0.0
  0
LINE
  5
193
330
1B
100
AcDbEntity
 67
     1
  8
0
  6
Continuous
 62
     7
370
    25
100
AcDbLine
 10
92.5
 20
16.0
 30
0.0
 11
43.5
 21
16.0
 31
0.0
  0
LINE
  5
194
330
1B
100
AcDbEntity
 67
     1
  8
0
  6
Continuous
 62
     7
370
    25
100
AcDbLine
 10
43.5
 20
-16.0
 30
0.0
 11
92.5
 21
-16.0
 31
0.0
  0
LINE
  5
195
330
1B
100
AcDbEntity
 67
     1
  8
0
  6
Continuous
 62
     7
370
    25
100
AcDbLine
 10
30.0
 20
-29.0
 30
0.0
 11
43.0
 21
-29.0
 31
0.0
  0
LINE
  5
196
330
1B
100
AcDbEntity
 67
     1
  8
0
  6
Continuous
 62
     7
370
    25
100
AcDbLine
 10
43.0
 20
29.0
 30
0.0
 11
30.0
 21
29.0
 31
0.0
  0
LINE
  5
197
330
1B
100
AcDbEntity
 67
     1
  8
0
  6
Continuous
 62
     7
370
    25
100
AcDbLine
 10
93.0
 20
-6.5
 30
0.0
 11
93.3
 21
-6.5
 31
0.0
  0
LINE
  5
198
330
1B
100
AcDbEntity
 67
     1
  8
0
  6
Continuous
 62
     7
370
    25
100
AcDbLine
 10
93.3
 20
6.5
 30
0.0
 11
93.0
 21
6.5
 31
0.0
  0
LINE
  5
199
330
1B
100
AcDbEntity
 67
     1
  8
0
  6
Continuous
 62
     7
370
    25
100
AcDbLine
 10
93.3
 20
6.75
 30
0.0
 11
93.3
 21
-6.75
 31
0.0
  0
LINE
  5
19A
330
1B
100
AcDbEntity
 67
     1
  8
0
  6
Continuous
 62
     7
370
    25
100
AcDbLine
 10
208.0
 20
-72.5
 30
0.0
 11
208.0
 21
-50.0
 31
0.0
  0
LINE
  5
19B
330
1B
100
AcDbEntity
 67
     1
  8
0
  6
Continuous
 62
     7
370
    25
100
AcDbLine
 10
195.7
 20
-72.5
 30
0.0
 11
220.3
 21
-72.5
 31
0.0
  0
LINE
  5
19C
330
1B
100
AcDbEntity
 67
     1
  8
0
  6
Continuous
 62
     7
370
    25
100
AcDbLine
 10
93.0
 20
15.5
 30
0.0
 11
93.0
 21
-15.5
 31
0.0
  0
LINE
  5
19D
330
1B
100
AcDbEntity
 67
     1
  8
0
  6
Continuous
 62
     7
370
    25
100
AcDbLine
 10
30.0
 20
29.0
 30
0.0
 11
30.0
 21
-29.0
 31
0.0
  0
LINE
  5
19E
330
1B
100
AcDbEntity
 67
     1
  8
0
  6
Continuous
 62
     7
370
    25
100
AcDbLine
 10
43.5
 20
-28.5000000483
 30
0.0
 11
43.5
 21
28.5000000483
 31
0.0
  0
LINE
  5
19F
330
1B
100
AcDbEntity
 67
     1
  8
0
  6
Continuous
 62
     7
370
    25
100
AcDbLine
 10
29.6
 20
0.0
 30
0.0
 11
109.5000003167
 21
0.0
 31
0.0
  0
LINE
  5
1A0
330
1B
100
AcDbEntity
 67
     1
  8
0
  6
Continuous
 62
     7
370
    25
100
AcDbLine
 10
127.0999996833
 20
0.0
 30
0.0
 11
127.3
 21
0.0
 31
0.0
  0
LINE
  5
1A1
330
1B
100
AcDbEntity
 67
     1
  8
0
  6
Continuous
 62
     7
370
    25
100
AcDbLine
 10
168.0
 20
13.0
 30
0.0
 11
168.0
 21
-13.0
 31
0.0
  0
LINE
  5
1A2
330
1B
100
AcDbEntity
 67
     1
  8
0
  6
Continuous
 62
     7
370
    25
100
AcDbLine
 10
221.0
 20
-40.0
 30
0.0
 11
195.0
 21
-40.0
 31
0.0
  0
LINE
  5
1A3
330
1B
100
AcDbEntity
 67
     1
  8
0
  6
Continuous
 62
     7
370
    25
100
AcDbLine
 10
28.0
 20
13.0
 30
0.0
 11
28.0
 21
-13.0
 31
0.0
  0
LINE
  5
1A4
330
1B
100
AcDbEntity
 67
     1
  8
0
  6
Continuous
 62
     7
370
    25
100
AcDbLine
 10
28.0
 20
13.0
 30
0.0
 11
29.6
 21
13.0
 31
0.0
  0
LINE
  5
1A5
330
1B
100
AcDbEntity
 67
     1
  8
0
  6
Continuous
 62
     7
370
    25
100
AcDbLine
 10
93.0
 20
13.0
 30
0.0
 11
168.0
 21
13.0
 31
0.0
  0
LINE
  5
1A6
330
1B
100
AcDbEntity
 67
     1
  8
0
  6
Continuous
 62
     7
370
    25
100
AcDbLine
 10
28.0
 20
-13.0
 30
0.0
 11
29.6
 21
-13.0
 31
0.0
  0
LINE
  5
1A7
330
1B
100
AcDbEntity
 67
     1
  8
0
  6
Continuous
 62
     7
370
    25
100
AcDbLine
 10
93.0
 20
-13.0
 30
0.0
 11
168.0
 21
-13.0
 31
0.0
  0
LINE
  5
1A8
330
1B
100
AcDbEntity
 67
     1
  8
0
  6
Continuous
 62
     7
370
    25
100
AcDbLine
 10
221.0
 20
-40.0
 30
0.0
 11
221.0
 21
-50.0
 31
0.0
  0
LINE
  5
1A9
330
1B
100
AcDbEntity
 67
     1
  8
0
  6
Continuous
 62
     7
370
    25
100
AcDbLine
 10
195.0
 20
-40.0
 30
0.0
 11
195.0
 21
-50.0
 31
0.0
  0
LINE
  5
1AA
330
1B
100
AcDbEntity
 67
     1
  8
0
  6
Continuous
 62
     7
370
    25
100
AcDbLine
 10
221.0
 20
-50.0
 30
0.0
 11
195.0
 21
-50.0
 31
0.0
  0
LINE
  5
1AB
330
1B
100
AcDbEntity
 67
     1
  8
0
  6
Continuous
 62
     8
370
    25
100
AcDbLine
 10
195.2
 20
-72.0
 30
0.0
 11
220.8
 21
-72.0
 31
0.0
  0
LINE
  5
1AC
330
1B
100
AcDbEntity
 67
     1
  8
0
  6
Continuous
 62
     8
370
    25
100
AcDbLine
 10
92.5
 20
16.0
 30
0.0
 11
92.5
 21
-16.0
 31
0.0
  0
LINE
  5
1AD
330
1B
100
AcDbEntity
 67
     1
  8
0
  6
Continuous
 62
     8
370
    25
100
AcDbLine
 10
43.0
 20
-29.0
 30
0.0
 11
43.0
 21
29.0
 31
0.0
  0
ARC
  5
1AE
330
1B
100
AcDbEntity
 67
     1
  8
0
  6
Continuous
 62
     7
370
    25
100
AcDbCircle
 10
31.1
 20
26.5
 30
0.0
 40
1.499999999999994
100
AcDbArc
 50
137.1665719339
 51
180.0
  0
ARC
  5
1AF
330
1B
100
AcDbEntity
 67
     1
  8
0
  6
Continuous
 62
     7
370
    25
100
AcDbCircle
 10
31.1
 20
-26.5
 30
0.0
 40
1.500000000000011
100
AcDbArc
 50
180.0
 51
222.8334280661
  0
ARC
  5
1B0
330
1B
100
AcDbEntity
 67
     1
  8
0
  6
Continuous
 62
     7
370
    25
100
AcDbCircle
 10
195.7
 20
-72.0
 30
0.0
 40
0.5000000000000284
100
AcDbArc
 50
180.0
 51
270.0
  0
ARC
  5
1B1
330
1B
100
AcDbEntity
 67
     1
  8
0
  6
Continuous
 62
     7
370
    25
100
AcDbCircle
 10
220.3
 20
-72.0
 30
0.0
 40
0.5
100
AcDbArc
 50
270.0
 51
0.0
  0
ARC
  5
1B2
330
1B
100
AcDbEntity
 67
     1
  8
0
  6
Continuous
 62
     7
370
    25
100
AcDbCircle
 10
92.5
 20
15.5
 30
0.0
 40
0.5
100
AcDbArc
 50
0.0
 51
90.0
  0
ARC
  5
1B3
330
1B
100
AcDbEntity
 67
     1
  8
0
  6
Continuous
 62
     7
370
    25
100
AcDbCircle
 10
92.5
 20
-15.5
 30
0.0
 40
0.5000000000000053
100
AcDbArc
 50
270.0
 51
0.0
  0
ARC
  5
1B4
330
1B
100
AcDbEntity
 67
     1
  8
0
  6
Continuous
 62
     7
370
    25
100
AcDbCircle
 10
43.0
 20
-28.5
 30
0.0
 40
0.5000000000000107
100
AcDbArc
 50
270.0
 51
359.9999944664
  0
ARC
  5
1B5
330
1B
100
AcDbEntity
 67
     1
  8
0
  6
Continuous
 62
     7
370
    25
100
AcDbCircle
 10
43.0
 20
28.5
 30
0.0
 40
0.5000000000000094
100
AcDbArc
 50
0.0000055336
 51
90.0
  0
ARC
  5
1B6
330
1B
100
AcDbEntity
 67
     1
  8
0
  6
Continuous
 62
     7
370
    25
100
AcDbCircle
 10
118.3
 20
0.0
 30
0.0
 40
8.79999968328201
100
AcDbArc
 50
0.0
 51
180.0
  0
ARC
  5
1B7
330
1B
100
AcDbEntity
 67
     1
  8
0
  6
Continuous
 62
     7
370
    25
100
AcDbCircle
 10
118.3
 20
0.0
 30
0.0
 40
9.0
100
AcDbArc
 50
0.0
 51
180.0
  0
ARC
  5
1B8
330
1B
100
AcDbEntity
 67
     1
  8
0
  6
Continuous
 62
     7
370
    25
100
AcDbCircle
 10
168.0
 20
-40.0
 30
0.0
 40
53.00000000000001
100
AcDbArc
 50
0.0
 51
90.0
  0
ARC
  5
1B9
330
1B
100
AcDbEntity
 67
     1
  8
0
  6
Continuous
 62
     7
370
    25
100
AcDbCircle
 10
168.0
 20
-40.0
 30
0.0
 40
26.99999999999997
100
AcDbArc
 50
0.0
 51
90.0
  0
VIEWPORT
  5
428
330
1B
100
AcDbEntity
 67
     1
  8
0
100
AcDbViewport
 10
0.0
 20
0.0
 30
0.0
 40
205.6
 41
156.0
 68
     1
 69
     1
 12
0.0
 22
-21.75
 13
0.0
 23
0.0
 14
10.0
 24
10.0
 15
10.0
 25
10.0
 16
0.0
 26
0.0
 36
1.0
 17
0.0
 27
0.0
 37
0.0
 42
50.0
 43
0.0
 44
0.0
 45
285.9671206226
 50
0.0
 51
0.0
 72
   100
 90
   557152
  1

281
     0
 71
     1
 74
     0
110
0.0
120
0.0
130
0.0
111
1.0
121
0.0
131
0.0
112
0.0
122
1.0
132
0.0
 79
     0
146
0.0
  0
ENDSEC
  0
SECTION
  2
OBJECTS
  0
DICTIONARY
  5
C
330
0
100
AcDbDictionary
281
     1
  3
ACAD_GROUP
350
D
  3
ACAD_LAYOUT
350
1A
  3
ACAD_MLINESTYLE
350
17
  3
ACAD_PLOTSETTINGS
350
19
  3
ACAD_PLOTSTYLENAME
350
E
  3
ACAD_SCALELIST
350
47
  0
DICTIONARY
  5
D
102
{ACAD_REACTORS
330
C
102
}
330
C
100
AcDbDictionary
281
     1
  0
DICTIONARY
  5
1A
102
{ACAD_REACTORS
330
C
102
}
330
C
100
AcDbDictionary
281
     1
  3
_Isometric
350
2A8
  3
_Left
350
1E
  3
_Top
350
26
  3
Model
350
22
  0
DICTIONARY
  5
17
102
{ACAD_REACTORS
330
C
102
}
330
C
100
AcDbDictionary
281
     1
  3
Standard
350
18
  0
DICTIONARY
  5
19
102
{ACAD_REACTORS
330
C
102
}
330
C
100
AcDbDictionary
281
     1
  0
ACDBDICTIONARYWDFLT
  5
E
102
{ACAD_REACTORS
330
C
102
}
330
C
100
AcDbDictionary
281
     1
  3
Normal
350
F
100
AcDbDictionaryWithDefault
340
F
  0
DICTIONARY
  5
47
102
{ACAD_REACTORS
330
C
102
}
330
C
100
AcDbDictionary
281
     1
  3
A0
350
48
  3
A1
350
49
  3
A2
350
4A
  3
A3
350
4B
  3
A4
350
4C
  3
A5
350
4D
  3
A6
350
4E
  3
A7
350
4F
  3
A8
350
50
  3
A9
350
51
  3
B0
350
52
  3
B1
350
53
  3
B2
350
54
  3
B3
350
55
  3
B4
350
56
  3
B5
350
57
  3
B6
350
58
  3
B7
350
59
  3
B8
350
5A
  3
B9
350
5B
  3
C0
350
5C
  3
C1
350
5D
  3
C2
350
5E
  3
C3
350
5F
  3
C4
350
60
  3
C5
350
61
  3
C6
350
62
  3
C7
350
63
  3
C8
350
64
  3
C9
350
65
  3
D0
350
66
  3
D1
350
67
  3
D2
350
68
  0
LAYOUT
  5
2A8
102
{ACAD_REACTORS
330
1A
102
}
330
1A
100
AcDbPlotSettings
  1

  2
none_device
  4
ISO_A4_(210.00_x_297.00_MM)
  6

 40
7.5
 41
20.0
 42
7.5
 43
20.0
 44
210.0
 45
297.0
 46
0.0
 47
0.0
 48
0.0
 49
0.0
140
0.0
141
0.0
142
1.0
143
0.7509727626
 70
   688
 72
     1
 73
     1
 74
     1
  7

 75
     0
147
1.3316062176
148
-28.0
149
72.5
100
AcDbLayout
  1
_Isometric
 70
     1
 71
     3
 10
0.0
 20
0.0
 11
0.0
 21
0.0
 12
0.0
 22
0.0
 32
0.0
 14
0.0
 24
0.0
 34
0.0
 15
0.0
 25
0.0
 35
0.0
146
0.0
 13
0.0
 23
0.0
 33
0.0
 16
1.0
 26
0.0
 36
0.0
 17
0.0
 27
1.0
 37
0.0
 76
     0
330
2A7
331
42C
  0
LAYOUT
  5
1E
102
{ACAD_REACTORS
330
1A
102
}
330
1A
100
AcDbPlotSettings
  1

  2
none_device
  4
ISO_A4_(210.00_x_297.00_MM)
  6

 40
7.5
 41
20.0
 42
7.5
 43
20.0
 44
210.0
 45
297.0
 46
0.0
 47
0.0
 48
0.0
 49
0.0
140
0.0
141
0.0
142
1.0
143
0.7509727626
 70
   688
 72
     1
 73
     1
 74
     1
  7

 75
     0
147
1.3316062176
148
-28.0
149
72.5
100
AcDbLayout
  1
_Left
 70
     1
 71
     1
 10
12.9805447471
 20
-78.1322957198
 11
236.0194552529
 21
79.5719844358
 12
0.0
 22
0.0
 32
0.0
 14
28.0
 24
-72.5
 34
0.0
 15
221.0
 25
29.0
 35
0.0
146
0.0
 13
0.0
 23
0.0
 33
0.0
 16
1.0
 26
0.0
 36
0.0
 17
0.0
 27
1.0
 37
0.0
 76
     0
330
1B
331
428
  0
LAYOUT
  5
26
102
{ACAD_REACTORS
330
1A
102
}
330
1A
100
AcDbPlotSettings
  1

  2
none_device
  4
ISO_A4_(210.00_x_297.00_MM)
  6

 40
7.5
 41
20.0
 42
7.5
 43
20.0
 44
210.0
 45
297.0
 46
0.0
 47
0.0
 48
0.0
 49
0.0
140
0.0
141
0.0
142
1.0
143
0.7509727626
 70
   688
 72
     1
 73
     1
 74
     1
  7

 75
     0
147
1.3316062176
148
-28.0
149
72.5
100
AcDbLayout
  1
_Top
 70
     1
 71
     2
 10
0.0
 20
0.0
 11
0.0
 21
0.0
 12
0.0
 22
0.0
 32
0.0
 14
0.0
 24
0.0
 34
0.0
 15
0.0
 25
0.0
 35
0.0
146
0.0
 13
0.0
 23
0.0
 33
0.0
 16
1.0
 26
0.0
 36
0.0
 17
0.0
 27
1.0
 37
0.0
 76
     0
330
23
331
42A
  0
LAYOUT
  5
22
102
{ACAD_REACTORS
330
1A
102
}
330
1A
100
AcDbPlotSettings
  1

  2
none_device
  4
ANSI_A_(11.00_x_8.50_Inches)
  6

 40
6.35
 41
19.05
 42
6.35000508
 43
19.05000254
 44
279.4
 45
215.9
 46
133.34999746
 47
105.1819486623
 48
0.0
 49
0.0
140
0.0
141
0.0
142
0.0294722598
143
1.0
 70
  1696
 72
     0
 73
     0
 74
     0
  7

 75
     0
147
0.0179189148
148
-1300.4909072572
149
0.0
100
AcDbLayout
  1
Model
 70
     1
 71
     0
 10
0.0
 20
0.0
 11
420.0
 21
297.0
 12
0.0
 22
0.0
 32
0.0
 14
-184.75
 24
-72.5
 34
0.0
 15
184.75
 25
29.0
 35
0.0
146
0.0
 13
0.0
 23
0.0
 33
0.0
 16
1.0
 26
0.0
 36
0.0
 17
0.0
 27
1.0
 37
0.0
 76
     0
330
1F
331
29
  0
MLINESTYLE
  5
18
102
{ACAD_REACTORS
330
17
102
}
330
17
100
AcDbMlineStyle
  2
Standard
 70
     0
  3

 62
   256
 51
90.0
 52
90.0
 71
     2
 49
0.5
 62
   256
  6
BYLAYER
 49
-0.5
 62
   256
  6
BYLAYER
  0
ACDBPLACEHOLDER
  5
F
102
{ACAD_REACTORS
330
E
102
}
330
E
  0
SCALE
  5
48
102
{ACAD_REACTORS
330
47
102
}
330
47
100
AcDbScale
 70
     0
300
1:1
140
1.0
141
1.0
290
     1
  0
SCALE
  5
49
102
{ACAD_REACTORS
330
47
102
}
330
47
100
AcDbScale
 70
     0
300
1:2
140
1.0
141
2.0
290
     0
  0
SCALE
  5
4A
102
{ACAD_REACTORS
330
47
102
}
330
47
100
AcDbScale
 70
     0
300
1:4
140
1.0
141
4.0
290
     0
  0
SCALE
  5
4B
102
{ACAD_REACTORS
330
47
102
}
330
47
100
AcDbScale
 70
     0
300
1:5
140
1.0
141
5.0
290
     0
  0
SCALE
  5
4C
102
{ACAD_REACTORS
330
47
102
}
330
47
100
AcDbScale
 70
     0
300
1:8
140
1.0
141
8.0
290
     0
  0
SCALE
  5
4D
102
{ACAD_REACTORS
330
47
102
}
330
47
100
AcDbScale
 70
     0
300
1:10
140
1.0
141
10.0
290
     0
  0
SCALE
  5
4E
102
{ACAD_REACTORS
330
47
102
}
330
47
100
AcDbScale
 70
     0
300
1:16
140
1.0
141
16.0
290
     0
  0
SCALE
  5
4F
102
{ACAD_REACTORS
330
47
102
}
330
47
100
AcDbScale
 70
     0
300
1:20
140
1.0
141
20.0
290
     0
  0
SCALE
  5
50
102
{ACAD_REACTORS
330
47
102
}
330
47
100
AcDbScale
 70
     0
300
1:30
140
1.0
141
30.0
290
     0
  0
SCALE
  5
51
102
{ACAD_REACTORS
330
47
102
}
330
47
100
AcDbScale
 70
     0
300
1:40
140
1.0
141
40.0
290
     0
  0
SCALE
  5
52
102
{ACAD_REACTORS
330
47
102
}
330
47
100
AcDbScale
 70
     0
300
1:50
140
1.0
141
50.0
290
     0
  0
SCALE
  5
53
102
{ACAD_REACTORS
330
47
102
}
330
47
100
AcDbScale
 70
     0
300
1:100
140
1.0
141
100.0
290
     0
  0
SCALE
  5
54
102
{ACAD_REACTORS
330
47
102
}
330
47
100
AcDbScale
 70
     0
300
2:1
140
2.0
141
1.0
290
     0
  0
SCALE
  5
55
102
{ACAD_REACTORS
330
47
102
}
330
47
100
AcDbScale
 70
     0
300
4:1
140
4.0
141
1.0
290
     0
  0
SCALE
  5
56
102
{ACAD_REACTORS
330
47
102
}
330
47
100
AcDbScale
 70
     0
300
8:1
140
8.0
141
1.0
290
     0
  0
SCALE
  5
57
102
{ACAD_REACTORS
330
47
102
}
330
47
100
AcDbScale
 70
     0
300
10:1
140
10.0
141
1.0
290
     0
  0
SCALE
  5
58
102
{ACAD_REACTORS
330
47
102
}
330
47
100
AcDbScale
 70
     0
300
100:1
140
100.0
141
1.0
290
     0
  0
SCALE
  5
59
102
{ACAD_REACTORS
330
47
102
}
330
47
100
AcDbScale
 70
     0
300
1/128" = 1'-0"
140
0.0078125
141
12.0
290
     0
  0
SCALE
  5
5A
102
{ACAD_REACTORS
330
47
102
}
330
47
100
AcDbScale
 70
     0
300
1/64" = 1'-0"
140
0.015625
141
12.0
290
     0
  0
SCALE
  5
5B
102
{ACAD_REACTORS
330
47
102
}
330
47
100
AcDbScale
 70
     0
300
1/32" = 1'-0"
140
0.03125
141
12.0
290
     0
  0
SCALE
  5
5C
102
{ACAD_REACTORS
330
47
102
}
330
47
100
AcDbScale
 70
     0
300
1/16" = 1'-0"
140
0.0625
141
12.0
290
     0
  0
SCALE
  5
5D
102
{ACAD_REACTORS
330
47
102
}
330
47
100
AcDbScale
 70
     0
300
3/32" = 1'-0"
140
0.09375
141
12.0
290
     0
  0
SCALE
  5
5E
102
{ACAD_REACTORS
330
47
102
}
330
47
100
AcDbScale
 70
     0
300
1/8" = 1'-0"
140
0.125
141
12.0
290
     0
  0
SCALE
  5
5F
102
{ACAD_REACTORS
330
47
102
}
330
47
100
AcDbScale
 70
     0
300
3/16" = 1'-0"
140
0.1875
141
12.0
290
     0
  0
SCALE
  5
60
102
{ACAD_REACTORS
330
47
102
}
330
47
100
AcDbScale
 70
     0
300
1/4" = 1'-0"
140
0.25
141
12.0
290
     0
  0
SCALE
  5
61
102
{ACAD_REACTORS
330
47
102
}
330
47
100
AcDbScale
 70
     0
300
3/8" = 1'-0"
140
0.375
141
12.0
290
     0
  0
SCALE
  5
62
102
{ACAD_REACTORS
330
47
102
}
330
47
100
AcDbScale
 70
     0
300
1/2" = 1'-0"
140
0.5
141
12.0
290
     0
  0
SCALE
  5
63
102
{ACAD_REACTORS
330
47
102
}
330
47
100
AcDbScale
 70
     0
300
3/4" = 1'-0"
140
0.75
141
12.0
290
     0
  0
SCALE
  5
64
102
{ACAD_REACTORS
330
47
102
}
330
47
100
AcDbScale
 70
     0
300
1" = 1'-0"
140
1.0
141
12.0
290
     0
  0
SCALE
  5
65
102
{ACAD_REACTORS
330
47
102
}
330
47
100
AcDbScale
 70
     0
300
1-1/2" = 1'-0"
140
1.5
141
12.0
290
     0
  0
SCALE
  5
66
102
{ACAD_REACTORS
330
47
102
}
330
47
100
AcDbScale
 70
     0
300
3" = 1'-0"
140
3.0
141
12.0
290
     0
  0
SCALE
  5
67
102
{ACAD_REACTORS
330
47
102
}
330
47
100
AcDbScale
 70
     0
300
6" = 1'-0"
140
6.0
141
12.0
290
     0
  0
SCALE
  5
68
102
{ACAD_REACTORS
330
47
102
}
330
47
100
AcDbScale
 70
     0
300
1'-0" = 1'-0"
140
12.0
141
12.0
290
     0
  0
ENDSEC
  0
EOF
