  0
SECTION
  2
HEADER
  9
$ACADVER
  1
AC1015
  9
$ACADMAINTVER
 70
     6
  9
$DWGCODEPAGE
  3
ANSI_1252
  9
$INSBASE
 10
0.0
 20
0.0
 30
0.0
  9
$EXTMIN
 10
-200.0
 20
-103.0
 30
0.0
  9
$EXTMAX
 10
34.0
 20
0.0
 30
0.0
  9
$LIMMIN
 10
0.0
 20
0.0
  9
$LIMMAX
 10
420.0
 20
297.0
  9
$ORTHOMODE
 70
     0
  9
$REGENMODE
 70
     1
  9
$FILLMODE
 70
     1
  9
$QTEXTMODE
 70
     0
  9
$MIRRTEXT
 70
     1
  9
$LTSCALE
 40
1.0
  9
$ATTMODE
 70
     1
  9
$TEXTSIZE
 40
3.5
  9
$TRACEWID
 40
1.0
  9
$TEXTSTYLE
  7
Standard
  9
$CLAYER
  8
0
  9
$CELTYPE
  6
ByLayer
  9
$CECOLOR
 62
   256
  9
$CELTSCALE
 40
1.0
  9
$DISPSILH
 70
     0
  9
$DIMSCALE
 40
1.0
  9
$DIMASZ
 40
3.302
  9
$DIMEXO
 40
1.0
  9
$DIMDLI
 40
3.75
  9
$DIMRND
 40
0.0
  9
$DIMDLE
 40
0.0
  9
$DIMEXE
 40
1.0
  9
$DIMTP
 40
0.0
  9
$DIMTM
 40
0.0
  9
$DIMTXT
 40
3.5
  9
$DIMCEN
 40
2.5
  9
$DIMTSZ
 40
0.0
  9
$DIMTOL
 70
     0
  9
$DIMLIM
 70
     0
  9
$DIMTIH
 70
     1
  9
$DIMTOH
 70
     1
  9
$DIMSE1
 70
     0
  9
$DIMSE2
 70
     0
  9
$DIMTAD
 70
     1
  9
$DIMZIN
 70
     1
  9
$DIMBLK
  1

  9
$DIMASO
 70
     1
  9
$DIMSHO
 70
     1
  9
$DIMPOST
  1

  9
$DIMAPOST
  1

  9
$DIMALT
 70
     0
  9
$DIMALTD
 70
     3
  9
$DIMALTF
 40
0.0393700787
  9
$DIMLFAC
 40
1.0
  9
$DIMTOFL
 70
     1
  9
$DIMTVP
 40
0.0
  9
$DIMTIX
 70
     0
  9
$DIMSOXD
 70
     0
  9
$DIMSAH
 70
     0
  9
$DIMBLK1
  1

  9
$DIMBLK2
  1

  9
$DIMSTYLE
  2
ISO-25
  9
$DIMCLRD
 70
     0
  9
$DIMCLRE
 70
     0
  9
$DIMCLRT
 70
     0
  9
$DIMTFAC
 40
1.0
  9
$DIMGAP
 40
1.524
  9
$DIMJUST
 70
     0
  9
$DIMSD1
 70
     0
  9
$DIMSD2
 70
     0
  9
$DIMTOLJ
 70
     0
  9
$DIMTZIN
 70
     1
  9
$DIMALTZ
 70
     0
  9
$DIMALTTZ
 70
     0
  9
$DIMUPT
 70
     0
  9
$DIMDEC
 70
     2
  9
$DIMTDEC
 70
     2
  9
$DIMALTU
 70
     2
  9
$DIMALTTD
 70
     3
  9
$DIMTXSTY
  7
Standard
  9
$DIMAUNIT
 70
     0
  9
$DIMADEC
 70
     2
  9
$DIMALTRND
 40
0.0
  9
$DIMAZIN
 70
     0
  9
$DIMDSEP
 70
    44
  9
$DIMATFIT
 70
     3
  9
$DIMFRAC
 70
     0
  9
$DIMLDRBLK
  1

  9
$DIMLUNIT
 70
     2
  9
$DIMLWD
 70
    -2
  9
$DIMLWE
 70
    -2
  9
$DIMTMOVE
 70
     0
  9
$LUNITS
 70
     2
  9
$LUPREC
 70
     2
  9
$SKETCHINC
 40
1.0
  9
$FILLETRAD
 40
10.0
  9
$AUNITS
 70
     0
  9
$AUPREC
 70
     2
  9
$MENU
  1
.
  9
$ELEVATION
 40
0.0
  9
$PELEVATION
 40
0.0
  9
$THICKNESS
 40
0.0
  9
$LIMCHECK
 70
     0
  9
$CHAMFERA
 40
0.0
  9
$CHAMFERB
 40
0.0
  9
$CHAMFERC
 40
0.0
  9
$CHAMFERD
 40
0.0
  9
$SKPOLY
 70
     0
  9
$TDCREATE
 40
2459089.538828773
  9
$TDUCREATE
 40
2459089.497162106
  9
$TDUPDATE
 40
2459089.539090914
  9
$TDUUPDATE
 40
2459089.497424248
  9
$TDINDWG
 40
0.0000000116
  9
$TDUSRTIMER
 40
0.0000000116
  9
$USRTIMER
 70
     1
  9
$ANGBASE
 50
0.0
  9
$ANGDIR
 70
     0
  9
$PDMODE
 70
     0
  9
$PDSIZE
 40
-1.0
  9
$PLINEWID
 40
0.0
  9
$SPLFRAME
 70
     0
  9
$SPLINETYPE
 70
     6
  9
$SPLINESEGS
 70
     8
  9
$HANDSEED
  5
274
  9
$SURFTAB1
 70
     6
  9
$SURFTAB2
 70
     6
  9
$SURFTYPE
 70
     6
  9
$SURFU
 70
     6
  9
$SURFV
 70
     6
  9
$UCSBASE
  2

  9
$UCSNAME
  2

  9
$UCSORG
 10
0.0
 20
0.0
 30
0.0
  9
$UCSXDIR
 10
1.0
 20
0.0
 30
0.0
  9
$UCSYDIR
 10
0.0
 20
1.0
 30
0.0
  9
$UCSORTHOREF
  2

  9
$UCSORTHOVIEW
 70
     0
  9
$UCSORGTOP
 10
0.0
 20
0.0
 30
0.0
  9
$UCSORGBOTTOM
 10
0.0
 20
0.0
 30
0.0
  9
$UCSORGLEFT
 10
0.0
 20
0.0
 30
0.0
  9
$UCSORGRIGHT
 10
0.0
 20
0.0
 30
0.0
  9
$UCSORGFRONT
 10
0.0
 20
0.0
 30
0.0
  9
$UCSORGBACK
 10
0.0
 20
0.0
 30
0.0
  9
$PUCSBASE
  2

  9
$PUCSNAME
  2

  9
$PUCSORG
 10
0.0
 20
0.0
 30
0.0
  9
$PUCSXDIR
 10
1.0
 20
0.0
 30
0.0
  9
$PUCSYDIR
 10
0.0
 20
1.0
 30
0.0
  9
$PUCSORTHOREF
  2

  9
$PUCSORTHOVIEW
 70
     0
  9
$PUCSORGTOP
 10
0.0
 20
0.0
 30
0.0
  9
$PUCSORGBOTTOM
 10
0.0
 20
0.0
 30
0.0
  9
$PUCSORGLEFT
 10
0.0
 20
0.0
 30
0.0
  9
$PUCSORGRIGHT
 10
0.0
 20
0.0
 30
0.0
  9
$PUCSORGFRONT
 10
0.0
 20
0.0
 30
0.0
  9
$PUCSORGBACK
 10
0.0
 20
0.0
 30
0.0
  9
$USERI1
 70
     0
  9
$USERI2
 70
     0
  9
$USERI3
 70
     0
  9
$USERI4
 70
     0
  9
$USERI5
 70
     0
  9
$USERR1
 40
0.0
  9
$USERR2
 40
0.0
  9
$USERR3
 40
0.0
  9
$USERR4
 40
0.0
  9
$USERR5
 40
0.0
  9
$WORLDVIEW
 70
     1
  9
$SHADEDGE
 70
     3
  9
$SHADEDIF
 70
    70
  9
$TILEMODE
 70
     0
  9
$MAXACTVP
 70
    64
  9
$PINSBASE
 10
0.0
 20
0.0
 30
0.0
  9
$PLIMCHECK
 70
     0
  9
$PEXTMIN
 10
-200.0
 20
-103.0
 30
0.0
  9
$PEXTMAX
 10
34.0
 20
0.0
 30
0.0
  9
$PLIMMIN
 10
0.0
 20
0.0
  9
$PLIMMAX
 10
0.0
 20
0.0
  9
$UNITMODE
 70
     0
  9
$VISRETAIN
 70
     1
  9
$PLINEGEN
 70
     0
  9
$PSLTSCALE
 70
     1
  9
$TREEDEPTH
 70
  3020
  9
$CMLSTYLE
  2
Standard
  9
$CMLJUST
 70
     0
  9
$CMLSCALE
 40
20.0
  9
$PROXYGRAPHICS
 70
     1
  9
$MEASUREMENT
 70
     1
  9
$CELWEIGHT
370
    -1
  9
$ENDCAPS
280
     0
  9
$JOINSTYLE
280
     0
  9
$LWDISPLAY
290
     1
  9
$INSUNITS
 70
     4
  9
$HYPERLINKBASE
  1

  9
$STYLESHEET
  1

  9
$XEDIT
290
     1
  9
$CEPSNTYPE
380
     0
  9
$PSTYLEMODE
290
     1
  9
$FINGERPRINTGUID
  2
{b5d63eb8-8cbf-4c48-bacb-f671f105c8fa}
  9
$VERSIONGUID
  2
{FAEB1C32-E019-11D5-929B-00C0DF256EC4}
  9
$EXTNAMES
290
     1
  9
$PSVPSCALE
 40
0.0
  9
$OLESTARTUP
290
     0
  0
ENDSEC
  0
SECTION
  2
CLASSES
  0
CLASS
  1
ACDBDICTIONARYWDFLT
  2
AcDbDictionaryWithDefault
  3
ObjectDBX Classes
 90
        0
280
     0
281
     0
  0
CLASS
  1
VISUALSTYLE
  2
AcDbVisualStyle
  3
ObjectDBX Classes
 90
     4095
280
     0
281
     0
  0
CLASS
  1
MATERIAL
  2
AcDbMaterial
  3
ObjectDBX Classes
 90
     1153
280
     0
281
     0
  0
CLASS
  1
SCALE
  2
AcDbScale
  3
ObjectDBX Classes
 90
     1153
280
     0
281
     0
  0
CLASS
  1
TABLESTYLE
  2
AcDbTableStyle
  3
ObjectDBX Classes
 90
     4095
280
     0
281
     0
  0
CLASS
  1
MLEADERSTYLE
  2
AcDbMLeaderStyle
  3
ACDB_MLEADERSTYLE_CLASS
 90
     4095
280
     0
281
     0
  0
CLASS
  1
SUN
  2
AcDbSun
  3
SCENEOE
 90
     1153
280
     0
281
     0
  0
CLASS
  1
ACDBPLACEHOLDER
  2
AcDbPlaceHolder
  3
ObjectDBX Classes
 90
        0
280
     0
281
     0
  0
CLASS
  1
LAYOUT
  2
AcDbLayout
  3
ObjectDBX Classes
 90
        0
280
     0
281
     0
  0
ENDSEC
  0
SECTION
  2
TABLES
  0
TABLE
  2
VPORT
  5
8
330
0
100
AcDbSymbolTable
 70
     1
  0
VPORT
  5
29
330
8
100
AcDbSymbolTableRecord
100
AcDbViewportTableRecord
  2
*Active
 70
     0
 10
0.0
 20
0.0
 11
1.0
 21
1.0
 12
-83.0
 22
-51.5
 13
0.0
 23
0.0
 14
10.0
 24
10.0
 15
10.0
 25
10.0
 16
0.0
 26
0.0
 36
1.0
 17
0.0
 27
0.0
 37
0.0
 40
105.06
 41
2.2718446602
 42
50.0
 43
0.0
 44
0.0
 50
0.0
 51
0.0
 71
     0
 72
   100
 73
     1
 74
     3
 75
     0
 76
     0
 77
     0
 78
     0
281
     0
 65
     1
110
0.0
120
0.0
130
0.0
111
1.0
121
0.0
131
0.0
112
0.0
122
1.0
132
0.0
 79
     0
146
0.0
  0
ENDTAB
  0
TABLE
  2
LTYPE
  5
5
330
0
100
AcDbSymbolTable
 70
     6
  0
LTYPE
  5
14
330
5
100
AcDbSymbolTableRecord
100
AcDbLinetypeTableRecord
  2
ByBlock
 70
     0
  3

 72
    65
 73
     0
 40
0.0
  0
LTYPE
  5
15
330
5
100
AcDbSymbolTableRecord
100
AcDbLinetypeTableRecord
  2
ByLayer
 70
     0
  3

 72
    65
 73
     0
 40
0.0
  0
LTYPE
  5
16
330
5
100
AcDbSymbolTableRecord
100
AcDbLinetypeTableRecord
  2
Continuous
 70
     0
  3
Solid line
 72
    65
 73
     0
 40
0.0
  0
LTYPE
  5
6E
330
5
100
AcDbSymbolTableRecord
100
AcDbLinetypeTableRecord
  2
HIDDEN
 70
     0
  3
Hidden __ __ __ __ __ __ __ __ __ __ __ __ __ __
 72
    65
 73
     2
 40
1.905
 49
1.27
 74
     0
 49
-0.635
 74
     0
  0
LTYPE
  5
6F
330
5
100
AcDbSymbolTableRecord
100
AcDbLinetypeTableRecord
  2
PHANTOM
 70
     0
  3
Phantom ______  __  __  ______  __  __  ______
 72
    65
 73
     6
 40
12.7
 49
6.35
 74
     0
 49
-1.27
 74
     0
 49
1.27
 74
     0
 49
-1.27
 74
     0
 49
1.27
 74
     0
 49
-1.27
 74
     0
  0
LTYPE
  5
70
330
5
100
AcDbSymbolTableRecord
100
AcDbLinetypeTableRecord
  2
CENTER
 70
     0
  3
Center ____ _ ____ _ ____ _ ____ _ ____ _ ____
 72
    65
 73
     4
 40
10.16
 49
6.35
 74
     0
 49
-1.27
 74
     0
 49
1.27
 74
     0
 49
-1.27
 74
     0
  0
LTYPE
  5
71
330
5
100
AcDbSymbolTableRecord
100
AcDbLinetypeTableRecord
  2
CENTERX2
 70
     0
  3
Center (2x) ________  __  ________  __  _____
 72
    65
 73
     4
 40
20.32
 49
12.7
 74
     0
 49
-2.54
 74
     0
 49
2.54
 74
     0
 49
-2.54
 74
     0
  0
LTYPE
  5
72
330
5
100
AcDbSymbolTableRecord
100
AcDbLinetypeTableRecord
  2
DOT2
 70
     0
  3
Dot (.5x) ........................................
 72
    65
 73
     2
 40
0.635
 49
0.0
 74
     0
 49
-0.635
 74
     0
  0
ENDTAB
  0
TABLE
  2
LAYER
  5
2
330
0
100
AcDbSymbolTable
 70
     1
  0
LAYER
  5
10
330
2
100
AcDbSymbolTableRecord
100
AcDbLayerTableRecord
  2
0
 70
     0
 62
     7
  6
Continuous
370
    -3
390
F
  0
ENDTAB
  0
TABLE
  2
STYLE
  5
3
330
0
100
AcDbSymbolTable
 70
     1
  0
STYLE
  5
11
330
3
100
AcDbSymbolTableRecord
100
AcDbTextStyleTableRecord
  2
Standard
 70
     0
 40
0.0
 41
1.0
 50
0.0
 71
     0
 42
3.5
  3
txt
  4

  0
ENDTAB
  0
TABLE
  2
VIEW
  5
6
330
0
100
AcDbSymbolTable
 70
     0
  0
ENDTAB
  0
TABLE
  2
UCS
  5
7
330
0
100
AcDbSymbolTable
 70
     0
  0
ENDTAB
  0
TABLE
  2
APPID
  5
9
330
0
100
AcDbSymbolTable
 70
     1
  0
APPID
  5
12
330
9
100
AcDbSymbolTableRecord
100
AcDbRegAppTableRecord
  2
ACAD
 70
     0
  0
ENDTAB
  0
TABLE
  2
DIMSTYLE
  5
A
330
0
100
AcDbSymbolTable
 70
     1
100
AcDbDimStyleTable
  0
DIMSTYLE
105
27
330
A
100
AcDbSymbolTableRecord
100
AcDbDimStyleTableRecord
  2
ISO-25
 70
     0
 41
2.5
 42
0.625
 43
3.75
 44
1.25
 73
     0
 74
     0
 77
     1
 78
     8
140
2.5
141
2.5
143
0.0393700787
147
0.625
171
     3
172
     1
178
     0
271
     2
272
     2
274
     3
278
    44
283
     0
284
     8
340
11
  0
ENDTAB
  0
TABLE
  2
BLOCK_RECORD
  5
1
330
0
100
AcDbSymbolTable
 70
     1
  0
BLOCK_RECORD
  5
1F
330
1
100
AcDbSymbolTableRecord
100
AcDbBlockTableRecord
  2
*Model_Space
340
22
  0
BLOCK_RECORD
  5
23
330
1
100
AcDbSymbolTableRecord
100
AcDbBlockTableRecord
  2
*Paper_Space
340
26
  0
BLOCK_RECORD
  5
1B
330
1
100
AcDbSymbolTableRecord
100
AcDbBlockTableRecord
  2
*Paper_Space0
340
1E
  0
ENDTAB
  0
ENDSEC
  0
SECTION
  2
BLOCKS
  0
BLOCK
  5
20
330
1F
100
AcDbEntity
  8
0
100
AcDbBlockBegin
  2
*Model_Space
 70
     0
 10
0.0
 20
0.0
 30
0.0
  3
*Model_Space
  1

  0
ENDBLK
  5
21
330
1F
100
AcDbEntity
  8
0
100
AcDbBlockEnd
  0
BLOCK
  5
24
330
23
100
AcDbEntity
 67
     1
  8
0
100
AcDbBlockBegin
  2
*Paper_Space
 70
     0
 10
0.0
 20
0.0
 30
0.0
  3
*Paper_Space
  1

  0
ENDBLK
  5
25
330
23
100
AcDbEntity
 67
     1
  8
0
100
AcDbBlockEnd
  0
BLOCK
  5
1C
330
1B
100
AcDbEntity
  8
0
100
AcDbBlockBegin
  2
*Paper_Space0
 70
     0
 10
0.0
 20
0.0
 30
0.0
  3
*Paper_Space0
  1

  0
SPLINE
  5
103
330
1B
100
AcDbEntity
  8
0
  6
Continuous
 62
     7
370
    25
100
AcDbSpline
210
0.0
220
0.0
230
1.0
 70
     8
 71
     3
 72
    11
 73
     7
 74
     0
 42
0.000000001
 43
0.00000001
 40
0.0
 40
0.0
 40
0.0
 40
0.0
 40
0.2617098714008154
 40
0.5225493495799177
 40
0.7833888277590199
 40
1.0
 40
1.0
 40
1.0
 40
1.0
 10
64.24999999999997
 20
23.5
 30
0.0
 10
64.12766671007918
 20
24.38464998011659
 30
0.0
 10
63.88340698560678
 20
26.15100777641017
 30
0.0
 10
63.12398846068857
 20
28.7181382408209
 30
0.0
 10
62.17986301817997
 20
31.05899220385446
 30
0.0
 10
61.35133202043065
 20
32.46150271905859
 30
0.0
 10
60.97544171532253
 20
33.09779768799699
 30
0.0
  0
SPLINE
  5
104
330
1B
100
AcDbEntity
  8
0
  6
Continuous
 62
     7
370
    25
100
AcDbSpline
210
0.0
220
0.0
230
1.0
 70
     8
 71
     3
 72
     9
 73
     5
 74
     0
 42
0.000000001
 43
0.00000001
 40
0.0
 40
0.0
 40
0.0
 40
0.0
 40
0.4784237913886761
 40
1.0
 40
1.0
 40
1.0
 40
1.0
 10
27.35791689206886
 20
28.49999999999997
 30
0.0
 10
27.11069794446323
 20
27.7184420996099
 30
0.0
 10
26.59396162813572
 20
26.08483207758003
 30
0.0
 10
26.3679054988475
 20
24.38604626392755
 30
0.0
 10
26.24999999999999
 20
23.5
 30
0.0
  0
SPLINE
  5
110
330
1B
100
AcDbEntity
  8
0
  6
Continuous
 62
     7
370
    25
100
AcDbSpline
210
0.0
220
0.0
230
1.0
 70
     8
 71
     3
 72
     9
 73
     5
 74
     0
 42
0.000000001
 43
0.00000001
 40
0.0
 40
0.0
 40
0.0
 40
0.0
 40
0.5089542494934816
 40
1.0
 40
1.0
 40
1.0
 40
1.0
 10
166.1293243892165
 20
-9.974073270577922
 30
0.0
 10
165.9847768796486
 20
-9.892728320240574
 30
0.0
 10
165.7007680326614
 20
-9.732900692475788
 30
0.0
 10
165.4167810627751
 20
-9.57303371359447
 30
0.0
 10
165.2773304680131
 20
-9.494531712968463
 30
0.0
  0
SPLINE
  5
111
330
1B
100
AcDbEntity
  8
0
  6
Continuous
 62
     7
370
    25
100
AcDbSpline
210
0.0
220
0.0
230
1.0
 70
     8
 71
     3
 72
     9
 73
     5
 74
     0
 42
0.000000001
 43
0.00000001
 40
0.0
 40
0.0
 40
0.0
 40
0.0
 40
0.5089542494934807
 40
1.0
 40
1.0
 40
1.0
 40
1.0
 10
166.1293243892165
 20
-7.97407327057792
 30
0.0
 10
165.9847768796486
 20
-7.892728320240572
 30
0.0
 10
165.7007680326614
 20
-7.7329006924758
 30
0.0
 10
165.416781062775
 20
-7.573033713594468
 30
0.0
 10
165.2773304680131
 20
-7.494531712968461
 30
0.0
  0
SPLINE
  5
112
330
1B
100
AcDbEntity
  8
0
  6
Continuous
 62
     7
370
    25
100
AcDbSpline
210
0.0
220
0.0
230
1.0
 70
     8
 71
     3
 72
     9
 73
     5
 74
     0
 42
0.000000001
 43
0.00000001
 40
0.0
 40
0.0
 40
0.0
 40
0.0
 40
0.4999929449574571
 40
1.0
 40
1.0
 40
1.0
 40
1.0
 10
145.5120847841788
 20
-10.43443288454134
 30
0.0
 10
145.3708384614106
 20
-10.51560513406304
 30
0.0
 10
145.0883418298227
 20
-10.67795192383346
 30
0.0
 10
144.8056219622924
 20
-10.84029176913538
 30
0.0
 10
144.6642600339266
 20
-10.92146283710087
 30
0.0
  0
SPLINE
  5
113
330
1B
100
AcDbEntity
  8
0
  6
Continuous
 62
     7
370
    25
100
AcDbSpline
210
0.0
220
0.0
230
1.0
 70
     8
 71
     3
 72
     9
 73
     5
 74
     0
 42
0.000000001
 43
0.00000001
 40
0.0
 40
0.0
 40
0.0
 40
0.0
 40
0.4999929449574571
 40
1.0
 40
1.0
 40
1.0
 40
1.0
 10
145.5120847841788
 20
-8.434432884541335
 30
0.0
 10
145.3708384614106
 20
-8.515605134063033
 30
0.0
 10
145.0883418298227
 20
-8.677951923833458
 30
0.0
 10
144.8056219622924
 20
-8.84029176913538
 30
0.0
 10
144.6642600339266
 20
-8.921462837100865
 30
0.0
  0
SPLINE
  5
114
330
1B
100
AcDbEntity
  8
0
  6
Continuous
 62
     7
370
    25
100
AcDbSpline
210
0.0
220
0.0
230
1.0
 70
     8
 71
     3
 72
     9
 73
     5
 74
     0
 42
0.000000001
 43
0.00000001
 40
0.0
 40
0.0
 40
0.0
 40
0.0
 40
0.4999929449574784
 40
1.0
 40
1.0
 40
1.0
 40
1.0
 10
145.5120847841788
 20
-6.434432884541333
 30
0.0
 10
145.3708384614106
 20
-6.515605134063033
 30
0.0
 10
145.0883418298227
 20
-6.677951923833442
 30
0.0
 10
144.8056219622924
 20
-6.840291769135379
 30
0.0
 10
144.6642600339266
 20
-6.921462837100864
 30
0.0
  0
SPLINE
  5
115
330
1B
100
AcDbEntity
  8
0
  6
Continuous
 62
     7
370
    25
100
AcDbSpline
210
0.0
220
0.0
230
1.0
 70
     8
 71
     3
 72
     9
 73
     5
 74
     0
 42
0.000000001
 43
0.00000001
 40
0.0
 40
0.0
 40
0.0
 40
0.0
 40
0.4999929449574592
 40
1.0
 40
1.0
 40
1.0
 40
1.0
 10
145.5120847841788
 20
-12.43443288454134
 30
0.0
 10
145.3708384614106
 20
-12.51560513406304
 30
0.0
 10
145.0883418298227
 20
-12.67795192383345
 30
0.0
 10
144.8056219622925
 20
-12.84029176913538
 30
0.0
 10
144.6642600339266
 20
-12.92146283710087
 30
0.0
  0
SPLINE
  5
116
330
1B
100
AcDbEntity
  8
0
  6
Continuous
 62
     7
370
    25
100
AcDbSpline
210
0.0
220
0.0
230
1.0
 70
     8
 71
     3
 72
     9
 73
     5
 74
     0
 42
0.000000001
 43
0.00000001
 40
0.0
 40
0.0
 40
0.0
 40
0.0
 40
0.5089542494934559
 40
1.0
 40
1.0
 40
1.0
 40
1.0
 10
166.1293243892165
 20
-11.97407327057792
 30
0.0
 10
165.9847768796486
 20
-11.89272832024058
 30
0.0
 10
165.7007680326615
 20
-11.73290069247578
 30
0.0
 10
165.4167810627751
 20
-11.57303371359446
 30
0.0
 10
165.2773304680131
 20
-11.49453171296846
 30
0.0
  0
SPLINE
  5
117
330
1B
100
AcDbEntity
  8
0
  6
Continuous
 62
     7
370
    25
100
AcDbSpline
210
0.0
220
0.0
230
1.0
 70
     8
 71
     3
 72
     9
 73
     5
 74
     0
 42
0.000000001
 43
0.00000001
 40
0.0
 40
0.0
 40
0.0
 40
0.0
 40
0.4999631332169763
 40
1.0
 40
1.0
 40
1.0
 40
1.0
 10
165.2637194019623
 20
-10.51989750814078
 30
0.0
 10
165.4082124112322
 20
-10.43402606983332
 30
0.0
 10
165.6972197393129
 20
-10.26227052906988
 30
0.0
 10
165.9862499766435
 20
-10.09055403366509
 30
0.0
 10
166.1307757509238
 20
-10.00468945532791
 30
0.0
  0
SPLINE
  5
118
330
1B
100
AcDbEntity
  8
0
  6
Continuous
 62
     7
370
    25
100
AcDbSpline
210
0.0
220
0.0
230
1.0
 70
     8
 71
     3
 72
     9
 73
     5
 74
     0
 42
0.000000001
 43
0.00000001
 40
0.0
 40
0.0
 40
0.0
 40
0.0
 40
0.4999631332169515
 40
1.0
 40
1.0
 40
1.0
 40
1.0
 10
165.2637194019623
 20
-8.519897508140778
 30
0.0
 10
165.4082124112322
 20
-8.434026069833317
 30
0.0
 10
165.6972197393129
 20
-8.262270529069859
 30
0.0
 10
165.9862499766435
 20
-8.090554033665084
 30
0.0
 10
166.1307757509238
 20
-8.00468945532791
 30
0.0
  0
SPLINE
  5
119
330
1B
100
AcDbEntity
  8
0
  6
Continuous
 62
     7
370
    25
100
AcDbSpline
210
0.0
220
0.0
230
1.0
 70
     8
 71
     3
 72
     9
 73
     5
 74
     0
 42
0.000000001
 43
0.00000001
 40
0.0
 40
0.0
 40
0.0
 40
0.0
 40
0.4999631332169515
 40
1.0
 40
1.0
 40
1.0
 40
1.0
 10
165.2637194019623
 20
-6.51989750814079
 30
0.0
 10
165.4082124112322
 20
-6.434026069833315
 30
0.0
 10
165.6972197393129
 20
-6.262270529069857
 30
0.0
 10
165.9862499766435
 20
-6.090554033665082
 30
0.0
 10
166.1307757509238
 20
-6.004689455327908
 30
0.0
  0
SPLINE
  5
11A
330
1B
100
AcDbEntity
  8
0
  6
Continuous
 62
     7
370
    25
100
AcDbSpline
210
0.0
220
0.0
230
1.0
 70
     8
 71
     3
 72
     9
 73
     5
 74
     0
 42
0.000000001
 43
0.00000001
 40
0.0
 40
0.0
 40
0.0
 40
0.0
 40
0.5000064877590361
 40
1.0
 40
1.0
 40
1.0
 40
1.0
 10
144.6617456168601
 20
-9.05779648209938
 30
0.0
 10
144.8030839724935
 20
-9.143491507122569
 30
0.0
 10
145.0857570159309
 20
-9.314879333323118
 30
0.0
 10
145.3682121724409
 20
-9.486273900468746
 30
0.0
 10
145.5094379181948
 20
-9.571970072074901
 30
0.0
  0
SPLINE
  5
11B
330
1B
100
AcDbEntity
  8
0
  6
Continuous
 62
     7
370
    25
100
AcDbSpline
210
0.0
220
0.0
230
1.0
 70
     8
 71
     3
 72
     9
 73
     5
 74
     0
 42
0.000000001
 43
0.00000001
 40
0.0
 40
0.0
 40
0.0
 40
0.0
 40
0.5000064877590352
 40
1.0
 40
1.0
 40
1.0
 40
1.0
 10
144.6617456168601
 20
-7.05779648209938
 30
0.0
 10
144.8030839724935
 20
-7.143491507122568
 30
0.0
 10
145.0857570159309
 20
-7.314879333323115
 30
0.0
 10
145.3682121724409
 20
-7.486273900468743
 30
0.0
 10
145.5094379181948
 20
-7.571970072074899
 30
0.0
  0
SPLINE
  5
11C
330
1B
100
AcDbEntity
  8
0
  6
Continuous
 62
     7
370
    25
100
AcDbSpline
210
0.0
220
0.0
230
1.0
 70
     8
 71
     3
 72
     9
 73
     5
 74
     0
 42
0.000000001
 43
0.00000001
 40
0.0
 40
0.0
 40
0.0
 40
0.0
 40
0.5000064877590352
 40
1.0
 40
1.0
 40
1.0
 40
1.0
 10
144.6617456168601
 20
-11.05779648209937
 30
0.0
 10
144.8030839724935
 20
-11.14349150712257
 30
0.0
 10
145.0857570159309
 20
-11.31487933332312
 30
0.0
 10
145.3682121724409
 20
-11.48627390046875
 30
0.0
 10
145.5094379181948
 20
-11.5719700720749
 30
0.0
  0
SPLINE
  5
11D
330
1B
100
AcDbEntity
  8
0
  6
Continuous
 62
     7
370
    25
100
AcDbSpline
210
0.0
220
0.0
230
1.0
 70
     8
 71
     3
 72
     9
 73
     5
 74
     0
 42
0.000000001
 43
0.00000001
 40
0.0
 40
0.0
 40
0.0
 40
0.0
 40
0.4999631332169754
 40
1.0
 40
1.0
 40
1.0
 40
1.0
 10
165.2637194019623
 20
-12.51989750814078
 30
0.0
 10
165.4082124112322
 20
-12.43402606983332
 30
0.0
 10
165.697219739313
 20
-12.26227052906988
 30
0.0
 10
165.9862499766435
 20
-12.09055403366509
 30
0.0
 10
166.1307757509238
 20
-12.00468945532791
 30
0.0
  0
SPLINE
  5
130
330
1B
100
AcDbEntity
  8
0
  6
Continuous
 62
     7
370
    25
100
AcDbSpline
210
0.0
220
0.0
230
1.0
 70
    11
 71
     3
 72
    32
 73
    28
 74
     0
 42
0.000000001
 43
0.00000001
 40
0.0
 40
0.0
 40
0.0
 40
0.0
 40
0.062500000000001
 40
0.062500000000001
 40
0.125000000000002
 40
0.125000000000002
 40
0.1875000000000029
 40
0.1875000000000029
 40
0.2500000000000039
 40
0.2500000000000039
 40
0.3125000000000049
 40
0.3125000000000049
 40
0.3750000000000059
 40
0.3750000000000059
 40
0.4375000000000069
 40
0.4375000000000069
 40
0.5000000000000079
 40
0.5000000000000079
 40
0.6250000000000063
 40
0.6250000000000063
 40
0.7500000000000047
 40
0.7500000000000047
 40
0.8125000000000024
 40
0.8125000000000024
 40
0.8750000000000002
 40
0.8750000000000002
 40
1.0
 40
1.0
 40
1.0
 40
1.0
 10
21.64034509259127
 20
39.31581075078697
 30
0.0
 10
21.61337366666763
 20
39.38391461194627
 30
0.0
 10
21.5824846283093
 20
39.43567933064262
 30
0.0
 10
21.51562709622339
 20
39.50594681316349
 30
0.0
 10
21.48039795610079
 20
39.52334852373534
 30
0.0
 10
21.41028114627941
 20
39.5219707791689
 30
0.0
 10
21.37542794260268
 20
39.50299639111972
 30
0.0
 10
21.31087974782682
 20
39.43033613220305
 30
0.0
 10
21.28085775018508
 20
39.37607388548437
 30
0.0
 10
21.2305281715543
 20
39.23906594490873
 30
0.0
 10
21.20979102677833
 20
39.15484836936302
 30
0.0
 10
21.18177787588435
 20
38.97067869841938
 30
0.0
 10
21.17421677635725
 20
38.86866830519292
 30
0.0
 10
21.1739876203625
 20
38.66638490343843
 30
0.0
 10
21.18119178848497
 20
38.56528289026654
 30
0.0
 10
21.20921084274693
 20
38.37980143680749
 30
0.0
 10
21.22969124276349
 20
38.29717784330435
 30
0.0
 10
21.30538731986084
 20
38.09372390218491
 30
0.0
 10
21.37473908459166
 20
38.02080158779704
 30
0.0
 10
21.5143910945528
 20
38.02463379897186
 30
0.0
 10
21.58625767316735
 20
38.10162831632205
 30
0.0
 10
21.66626538934725
 20
38.30642661170742
 30
0.0
 10
21.6885932344784
 20
38.39006592078923
 30
0.0
 10
21.71913925020016
 20
38.57465580883781
 30
0.0
 10
21.7274357249188
 20
38.675548489459
 30
0.0
 10
21.72780945304916
 20
38.982533864862
 30
0.0
 10
21.69428794443856
 20
39.1796030284684
 30
0.0
 10
21.64034509259128
 20
39.31581075078698
 30
0.0
  0
SPLINE
  5
166
330
1B
100
AcDbEntity
  8
0
  6
Continuous
 62
     7
370
    25
100
AcDbSpline
210
0.0
220
0.0
230
1.0
 70
     8
 71
     3
 72
    21
 73
    17
 74
     0
 42
0.000000001
 43
0.00000001
 40
0.0
 40
0.0
 40
0.0
 40
0.0
 40
0.0738445042612579
 40
0.1484145438185373
 40
0.2219362347451772
 40
0.2961521078645523
 40
0.3705919500032867
 40
0.4440139894428391
 40
0.5184746969769952
 40
0.5926554968432899
 40
0.666202076742424
 40
0.7407785575455066
 40
0.814576257119486
 40
0.8884681659446142
 40
0.9630301555014702
 40
0.9999999999999999
 40
0.9999999999999999
 40
0.9999999999999999
 40
0.9999999999999999
 10
144.4113650366577
 20
-12.98981341274358
 30
0.0
 10
144.4661613322885
 20
-12.96590179212456
 30
0.0
 10
144.5762923068321
 20
-12.91784361499094
 30
0.0
 10
145.4524081308032
 20
-12.84263561077634
 30
0.0
 10
146.8023414014092
 20
-12.77201597630985
 30
0.0
 10
148.6043488602765
 20
-12.69845194298257
 30
0.0
 10
150.752575619177
 20
-12.6238912210553
 30
0.0
 10
153.13938929633
 20
-12.55367380945555
 30
0.0
 10
155.635510340718
 20
-12.47901626772252
 30
0.0
 10
158.1139328922786
 20
-12.40560457801951
 30
0.0
 10
160.4458243153138
 20
-12.33488337438247
 30
0.0
 10
162.5025400061461
 20
-12.25963863046776
 30
0.0
 10
164.1914877268302
 20
-12.18785932708979
 30
0.0
 10
165.3865617560465
 20
-12.11571843108974
 30
0.0
 10
166.0334620568605
 20
-12.05283180320159
 30
0.0
 10
166.0538137838223
 20
-12.01700515605994
 30
0.0
 10
166.0605598414607
 20
-12.00512957286928
 30
0.0
  0
SPLINE
  5
167
330
1B
100
AcDbEntity
  8
0
  6
Continuous
 62
     7
370
    25
100
AcDbSpline
210
0.0
220
0.0
230
1.0
 70
     8
 71
     3
 72
    21
 73
    17
 74
     0
 42
0.000000001
 43
0.00000001
 40
0.0
 40
0.0
 40
0.0
 40
0.0
 40
0.0042573649756235
 40
0.0844302603741551
 40
0.1634760389627125
 40
0.243268157457432
 40
0.3233010729916624
 40
0.4022397127306496
 40
0.4822950613918371
 40
0.5620494713877118
 40
0.6411220089937004
 40
0.7213018296041414
 40
0.8006443548827047
 40
0.880088167869881
 40
0.9602524084273298
 40
1.0
 40
1.0
 40
1.0
 40
1.0
 10
144.6784006163847
 20
-10.92140154572149
 30
0.0
 10
144.683216148429
 20
-10.92011048813012
 30
0.0
 10
144.7787157418795
 20
-10.89450678038562
 30
0.0
 10
145.4847272844345
 20
-10.84248375505943
 30
0.0
 10
146.7936434152554
 20
-10.77205684492101
 30
0.0
 10
148.6066975867635
 20
-10.69844090718786
 30
0.0
 10
150.7519553486885
 20
-10.62389413547629
 30
0.0
 10
153.139557158613
 20
-10.55367302073293
 30
0.0
 10
155.6354652730941
 20
-10.47901647947858
 30
0.0
 10
158.1139448289065
 20
-10.4056045219337
 30
0.0
 10
160.4458210776586
 20
-10.33488338959503
 30
0.0
 10
162.5025408686585
 20
-10.25963862641514
 30
0.0
 10
164.1914874961898
 20
-10.18785932817348
 30
0.0
 10
165.3865618196272
 20
-10.11571843079101
 30
0.0
 10
166.0334620498366
 20
-10.0528318032346
 30
0.0
 10
166.0538137820737
 20
-10.01700515606815
 30
0.0
 10
166.0605598414607
 20
-10.00512957286928
 30
0.0
  0
SPLINE
  5
168
330
1B
100
AcDbEntity
  8
0
  6
Continuous
 62
     7
370
    25
100
AcDbSpline
210
0.0
220
0.0
230
1.0
 70
     8
 71
     3
 72
    21
 73
    17
 74
     0
 42
0.000000001
 43
0.00000001
 40
0.0
 40
0.0
 40
0.0
 40
0.0
 40
0.0042573649756241
 40
0.0844302603741557
 40
0.163476038962713
 40
0.2432681574574325
 40
0.3233010729916629
 40
0.40223971273065
 40
0.4822950613918375
 40
0.5620494713877121
 40
0.6411220089937006
 40
0.7213018296041415
 40
0.8006443548827048
 40
0.880088167869881
 40
0.9602524084273298
 40
1.0
 40
1.0
 40
1.0
 40
1.0
 10
144.6784006163847
 20
-8.92140154572149
 30
0.0
 10
144.683216148429
 20
-8.920110488130115
 30
0.0
 10
144.7787157418793
 20
-8.8945067803856
 30
0.0
 10
145.4847272844344
 20
-8.84248375505943
 30
0.0
 10
146.7936434152554
 20
-8.772056844921023
 30
0.0
 10
148.6066975867636
 20
-8.698440907187855
 30
0.0
 10
150.7519553486884
 20
-8.62389413547629
 30
0.0
 10
153.1395571586131
 20
-8.553673020732926
 30
0.0
 10
155.635465273094
 20
-8.479016479478574
 30
0.0
 10
158.1139448289065
 20
-8.405604521933702
 30
0.0
 10
160.4458210776586
 20
-8.334883389595024
 30
0.0
 10
162.5025408686585
 20
-8.259638626415141
 30
0.0
 10
164.1914874961898
 20
-8.187859328173493
 30
0.0
 10
165.3865618196272
 20
-8.115718430791008
 30
0.0
 10
166.0334620498367
 20
-8.0528318032346
 30
0.0
 10
166.0538137820737
 20
-8.017005156068151
 30
0.0
 10
166.0605598414607
 20
-8.00512957286928
 30
0.0
  0
SPLINE
  5
169
330
1B
100
AcDbEntity
  8
0
  6
Continuous
 62
     7
370
    25
100
AcDbSpline
210
0.0
220
0.0
230
1.0
 70
     8
 71
     3
 72
    21
 73
    17
 74
     0
 42
0.000000001
 43
0.00000001
 40
0.0
 40
0.0
 40
0.0
 40
0.0
 40
0.00425696119046
 40
0.0844222526776954
 40
0.1634605342551277
 40
0.2432450849529235
 40
0.323270409852096
 40
0.4022015627414261
 40
0.4822493186399103
 40
0.5619961644152828
 40
0.6410612024722163
 40
0.7212334185145468
 40
0.8005684186373672
 40
0.8800046968622777
 40
0.9601613343292893
 40
1.0
 40
1.0
 40
1.0
 40
1.0
 10
144.6784006163847
 20
-6.92140154572149
 30
0.0
 10
144.6832161484218
 20
-6.920110488130127
 30
0.0
 10
144.7787157417286
 20
-6.894506780385917
 30
0.0
 10
145.4847273005036
 20
-6.842483755025497
 30
0.0
 10
146.7936433592396
 20
-6.772056845039288
 30
0.0
 10
148.6066977974884
 20
-6.698440906742959
 30
0.0
 10
150.75195456463
 20
-6.623894137131672
 30
0.0
 10
153.1395600570537
 20
-6.553673014613445
 30
0.0
 10
155.6354542979786
 20
-6.479016502650384
 30
0.0
 10
158.1139854522161
 20
-6.405604436165557
 30
0.0
 10
160.4456700095266
 20
-6.33488370854575
 30
0.0
 10
162.5031110970863
 20
-6.259637422489694
 30
0.0
 10
164.1893838893693
 20
-6.187863769526569
 30
0.0
 10
165.3944563928031
 20
-6.115701762948608
 30
0.0
 10
166.0103421377516
 20
-6.052851344940283
 30
0.0
 10
166.0782650864349
 20
-6.016896921337847
 30
0.0
 10
166.1008156327747
 20
-6.004959985275963
 30
0.0
  0
SPLINE
  5
16A
330
1B
100
AcDbEntity
  8
0
  6
Continuous
 62
     7
370
    25
100
AcDbSpline
210
0.0
220
0.0
230
1.0
 70
     8
 71
     3
 72
    14
 73
    10
 74
     0
 42
0.000000001
 43
0.00000001
 40
0.0
 40
0.0
 40
0.0
 40
0.0
 40
0.0324916373152591
 40
0.2007471710281996
 40
0.3675637316057801
 40
0.5367170275094829
 40
0.7041033490390789
 40
0.8717034204389618
 40
1.0
 40
1.0
 40
1.0
 40
1.0
 10
155.372364199627
 20
-6.000000000000005
 30
0.0
 10
155.2254981225554
 20
-6.00475345194347
 30
0.0
 10
154.3180969594168
 20
-6.034122302180603
 30
0.0
 10
152.6492790052184
 20
-6.087846006654893
 30
0.0
 10
150.5079057100715
 20
-6.158497122296339
 30
0.0
 10
148.6115911705233
 20
-6.233776798882914
 30
0.0
 10
147.0790467196717
 20
-6.305486467985538
 30
0.0
 10
146.0062413103709
 20
-6.372010181362908
 30
0.0
 10
145.6938441349828
 20
-6.415569861710421
 30
0.0
 10
145.5583931627034
 20
-6.434456719595458
 30
0.0
  0
SPLINE
  5
16B
330
1B
100
AcDbEntity
  8
0
  6
Continuous
 62
     7
370
    25
100
AcDbSpline
210
0.0
220
0.0
230
1.0
 70
     8
 71
     3
 72
    21
 73
    17
 74
     0
 42
0.000000001
 43
0.00000001
 40
0.0
 40
0.0
 40
0.0
 40
0.0
 40
0.000540802067615
 40
0.0786381796771367
 40
0.1575031211262335
 40
0.23525898791301
 40
0.3137492457154024
 40
0.3924764470181951
 40
0.4701268905518831
 40
0.5488761660244997
 40
0.6273293188691424
 40
0.7051115161925222
 40
0.783983272056131
 40
0.8620311340032353
 40
0.9401786619219368
 40
1.0
 40
1.0
 40
1.0
 40
1.0
 10
165.2765758489145
 20
-7.503091713067233
 30
0.0
 10
165.2768256256061
 20
-7.503255993738938
 30
0.0
 10
165.3131457240785
 20
-7.527144092087489
 30
0.0
 10
165.0811797638479
 20
-7.575641598000435
 30
0.0
 10
164.3228302056027
 20
-7.650739090522343
 30
0.0
 10
163.0636912924712
 20
-7.721388357227299
 30
0.0
 10
161.4063929657394
 20
-7.794944420460678
 30
0.0
 10
159.4264914515265
 20
-7.86950696712152
 30
0.0
 10
157.2289851413657
 20
-7.939724347854337
 30
0.0
 10
154.9315272559249
 20
-8.014381417580346
 30
0.0
 10
152.6508284988847
 20
-8.087794250685107
 30
0.0
 10
150.5074854217743
 20
-8.158511160706997
 30
0.0
 10
148.6117031604392
 20
-8.233773058211478
 30
0.0
 10
147.0790166802765
 20
-8.305487471357203
 30
0.0
 10
146.0062468075701
 20
-8.372009997746233
 30
0.0
 10
145.6938457976021
 20
-8.415569806175846
 30
0.0
 10
145.5583931627035
 20
-8.43445671959546
 30
0.0
  0
SPLINE
  5
16C
330
1B
100
AcDbEntity
  8
0
  6
Continuous
 62
     7
370
    25
100
AcDbSpline
210
0.0
220
0.0
230
1.0
 70
     8
 71
     3
 72
    21
 73
    17
 74
     0
 42
0.000000001
 43
0.00000001
 40
0.0
 40
0.0
 40
0.0
 40
0.0
 40
0.000540802067615
 40
0.0786381796771366
 40
0.1575031211262333
 40
0.2352589879130096
 40
0.3137492457154018
 40
0.3924764470181944
 40
0.4701268905518823
 40
0.5488761660244988
 40
0.6273293188691413
 40
0.705111516192521
 40
0.7839832720561298
 40
0.8620311340032338
 40
0.9401786619219352
 40
1.0
 40
1.0
 40
1.0
 40
1.0
 10
165.2765758489145
 20
-9.503091713067235
 30
0.0
 10
165.2768256256061
 20
-9.503255993738941
 30
0.0
 10
165.3131457240802
 20
-9.527144092087575
 30
0.0
 10
165.0811797638471
 20
-9.575641598000395
 30
0.0
 10
164.322830205603
 20
-9.65073909052236
 30
0.0
 10
163.0636912924711
 20
-9.721388357227287
 30
0.0
 10
161.4063929657395
 20
-9.79494442046068
 30
0.0
 10
159.4264914515265
 20
-9.869506967121536
 30
0.0
 10
157.2289851413657
 20
-9.93972434785434
 30
0.0
 10
154.9315272559249
 20
-10.01438141758035
 30
0.0
 10
152.6508284988847
 20
-10.08779425068511
 30
0.0
 10
150.5074854217743
 20
-10.15851116070701
 30
0.0
 10
148.6117031604391
 20
-10.23377305821148
 30
0.0
 10
147.0790166802765
 20
-10.30548747135721
 30
0.0
 10
146.0062468075702
 20
-10.37200999774623
 30
0.0
 10
145.693845797602
 20
-10.41556980617585
 30
0.0
 10
145.5583931627034
 20
-10.43445671959546
 30
0.0
  0
SPLINE
  5
16D
330
1B
100
AcDbEntity
  8
0
  6
Continuous
 62
     7
370
    25
100
AcDbSpline
210
0.0
220
0.0
230
1.0
 70
     8
 71
     3
 72
    21
 73
    17
 74
     0
 42
0.000000001
 43
0.00000001
 40
0.0
 40
0.0
 40
0.0
 40
0.0
 40
0.000540802067615
 40
0.0786381796771366
 40
0.1575031211262332
 40
0.2352589879130096
 40
0.3137492457154017
 40
0.3924764470181943
 40
0.4701268905518822
 40
0.5488761660244987
 40
0.6273293188691412
 40
0.7051115161925209
 40
0.7839832720561296
 40
0.8620311340032336
 40
0.940178661921935
 40
1.0
 40
1.0
 40
1.0
 40
1.0
 10
165.2765758489145
 20
-11.50309171306724
 30
0.0
 10
165.2768256256061
 20
-11.50325599373894
 30
0.0
 10
165.3131457240802
 20
-11.5271440920876
 30
0.0
 10
165.0811797638471
 20
-11.57564159800038
 30
0.0
 10
164.3228302056029
 20
-11.65073909052236
 30
0.0
 10
163.063691292471
 20
-11.72138835722729
 30
0.0
 10
161.4063929657394
 20
-11.79494442046068
 30
0.0
 10
159.4264914515266
 20
-11.86950696712152
 30
0.0
 10
157.2289851413657
 20
-11.93972434785434
 30
0.0
 10
154.9315272559249
 20
-12.01438141758034
 30
0.0
 10
152.6508284988847
 20
-12.08779425068511
 30
0.0
 10
150.5074854217743
 20
-12.158511160707
 30
0.0
 10
148.6117031604392
 20
-12.23377305821148
 30
0.0
 10
147.0790166802765
 20
-12.30548747135721
 30
0.0
 10
146.0062468075701
 20
-12.37200999774622
 30
0.0
 10
145.693845797602
 20
-12.41556980617585
 30
0.0
 10
145.5583931627034
 20
-12.43445671959546
 30
0.0
  0
SPLINE
  5
16E
330
1B
100
AcDbEntity
  8
0
  6
Continuous
 62
     7
370
    25
100
AcDbSpline
210
0.0
220
0.0
230
1.0
 70
     8
 71
     3
 72
    14
 73
    10
 74
     0
 42
0.000000001
 43
0.00000001
 40
0.0
 40
0.0
 40
0.0
 40
0.0
 40
0.1599971018312671
 40
0.3184445261725162
 40
0.4715091225359174
 40
0.6229748069897917
 40
0.774633910894604
 40
0.9276687551582102
 40
1.0
 40
1.0
 40
1.0
 40
1.0
 10
155.3924902545366
 20
-13.0
 30
0.0
 10
156.1957099658381
 20
-12.97406871785649
 30
0.0
 10
157.7943696756095
 20
-12.92245731514528
 30
0.0
 10
160.0173875200195
 20
-12.84952291290666
 30
0.0
 10
161.9390230064247
 20
-12.77303235910242
 30
0.0
 10
163.4908394459177
 20
-12.70125358463634
 30
0.0
 10
164.586492163355
 20
-12.62911718454132
 30
0.0
 10
165.1760394228944
 20
-12.56680101820559
 30
0.0
 10
165.1937477053244
 20
-12.53152281047146
 30
0.0
 10
165.1994311784559
 20
-12.52020026992719
 30
0.0
  0
SPLINE
  5
16F
330
1B
100
AcDbEntity
  8
0
  6
Continuous
 62
     7
370
    25
100
AcDbSpline
210
0.0
220
0.0
230
1.0
 70
     8
 71
     3
 72
    22
 73
    18
 74
     0
 42
0.000000001
 43
0.00000001
 40
0.0
 40
0.0
 40
0.0
 40
0.0
 40
0.0425725476621937
 40
0.1171532816432562
 40
0.1913417842351249
 40
0.2650282085448758
 40
0.3396959494104204
 40
0.4134901724636195
 40
0.4625927560702915
 40
0.5122341942012751
 40
0.5902753095014638
 40
0.6675605451120057
 40
0.7422202212964567
 40
0.8161000029249561
 40
0.8900741279477994
 40
0.9647192920753197
 40
1.0
 40
1.0
 40
1.0
 40
1.0
 10
145.3401312748266
 20
-11.50365184097488
 30
0.0
 10
145.3323442959115
 20
-11.49001847557332
 30
0.0
 10
145.3109156949915
 20
-11.45250149375428
 30
0.0
 10
145.8559818451911
 20
-11.38809915888128
 30
0.0
 10
146.8951251792709
 20
-11.3150093911954
 30
0.0
 10
148.3951910764994
 20
-11.24403843417279
 30
0.0
 10
150.2457376744269
 20
-11.16878901673253
 30
0.0
 10
152.1276406147454
 20
-11.10523747257881
 30
0.0
 10
153.8652889408802
 20
-11.04951114118188
 30
0.0
 10
155.6847779052491
 20
-10.99047177156334
 30
0.0
 10
157.7943725946915
 20
-10.92248606810857
 30
0.0
 10
160.0173867702178
 20
-10.84951552735756
 30
0.0
 10
161.9390232020945
 20
-10.77303428645032
 30
0.0
 10
163.4908393935891
 20
-10.70125306919972
 30
0.0
 10
164.5864921778012
 20
-10.62911732683521
 30
0.0
 10
165.1760394213852
 20
-10.56680100333926
 30
0.0
 10
165.1937477049577
 20
-10.5315228068594
 30
0.0
 10
165.1994311784559
 20
-10.5202002699272
 30
0.0
  0
SPLINE
  5
170
330
1B
100
AcDbEntity
  8
0
  6
Continuous
 62
     7
370
    25
100
AcDbSpline
210
0.0
220
0.0
230
1.0
 70
     8
 71
     3
 72
    22
 73
    18
 74
     0
 42
0.000000001
 43
0.00000001
 40
0.0
 40
0.0
 40
0.0
 40
0.0
 40
0.0425725476621937
 40
0.1171532816432562
 40
0.1913417842351249
 40
0.2650282085448757
 40
0.3396959494104203
 40
0.4134901724636195
 40
0.4625927560702914
 40
0.512234194201275
 40
0.5902753095014637
 40
0.6675605451120056
 40
0.7422202212964566
 40
0.816100002924956
 40
0.8900741279477992
 40
0.9647192920753195
 40
1.0
 40
1.0
 40
1.0
 40
1.0
 10
145.3401312748266
 20
-9.503651840974875
 30
0.0
 10
145.3323442959115
 20
-9.490018475573333
 30
0.0
 10
145.3109156949916
 20
-9.452501493754289
 30
0.0
 10
145.855981845191
 20
-9.388099158881266
 30
0.0
 10
146.895125179271
 20
-9.315009391195408
 30
0.0
 10
148.3951910764994
 20
-9.244038434172792
 30
0.0
 10
150.2457376744269
 20
-9.168789016732543
 30
0.0
 10
152.1276406147454
 20
-9.105237472578812
 30
0.0
 10
153.8652889408802
 20
-9.049511141181881
 30
0.0
 10
155.684777905249
 20
-8.99047177156334
 30
0.0
 10
157.7943725946915
 20
-8.922486068108581
 30
0.0
 10
160.0173867702178
 20
-8.849515527357562
 30
0.0
 10
161.9390232020945
 20
-8.77303428645032
 30
0.0
 10
163.4908393935891
 20
-8.701253069199721
 30
0.0
 10
164.5864921778011
 20
-8.629117326835203
 30
0.0
 10
165.1760394213852
 20
-8.566801003339258
 30
0.0
 10
165.1937477049577
 20
-8.531522806859398
 30
0.0
 10
165.1994311784559
 20
-8.520200269927198
 30
0.0
  0
SPLINE
  5
171
330
1B
100
AcDbEntity
  8
0
  6
Continuous
 62
     7
370
    25
100
AcDbSpline
210
0.0
220
0.0
230
1.0
 70
     8
 71
     3
 72
    22
 73
    18
 74
     0
 42
0.000000001
 43
0.00000001
 40
0.0
 40
0.0
 40
0.0
 40
0.0
 40
0.0425675410369861
 40
0.1171395041597545
 40
0.1913192820206028
 40
0.2649970406448433
 40
0.3396560004198927
 40
0.4134415451102122
 40
0.462538354145092
 40
0.5121739543338065
 40
0.5902058918272497
 40
0.6674820385241595
 40
0.7421329345665398
 40
0.8160040277702829
 40
0.8899694532733793
 40
0.9646058389654785
 40
1.0
 40
1.0
 40
1.0
 40
1.0
 10
145.3401312748266
 20
-7.503651840974873
 30
0.0
 10
145.3323442960393
 20
-7.490018475573041
 30
0.0
 10
145.3109156954712
 20
-7.452501493753178
 30
0.0
 10
145.8559818415012
 20
-7.388099158889758
 30
0.0
 10
146.8951251927382
 20
-7.315009391164431
 30
0.0
 10
148.3951910263773
 20
-7.244038434288058
 30
0.0
 10
150.2457378633528
 20
-7.168789016298069
 30
0.0
 10
152.127640017404
 20
-7.105237473952503
 30
0.0
 10
153.8652903654814
 20
-7.049511137905765
 30
0.0
 10
155.6847711329472
 20
-6.990471787137423
 30
0.0
 10
157.7944142567894
 20
-6.922485972299372
 30
0.0
 10
160.0172373649207
 20
-6.849515870940917
 30
0.0
 10
161.9395570001474
 20
-6.77303305888928
 30
0.0
 10
163.4888671724497
 20
-6.70125760466371
 30
0.0
 10
164.5938945093507
 20
-6.629100303892146
 30
0.0
 10
165.15471828719
 20
-6.566811046730376
 30
0.0
 10
165.2153307931326
 20
-6.531397768976877
 30
0.0
 10
165.2348283677594
 20
-6.520006175525269
 30
0.0
  0
SPLINE
  5
172
330
1B
100
AcDbEntity
  8
0
  6
Continuous
 62
     7
370
    25
100
AcDbSpline
210
0.0
220
0.0
230
1.0
 70
    24
 71
     3
 72
    24
 73
    20
 74
     0
 42
0.000000001
 43
0.00000001
 40
0.0
 40
0.0
 40
0.0
 40
0.0
 40
0.1249999999999986
 40
0.1249999999999986
 40
0.2499999999999972
 40
0.2499999999999972
 40
0.3749999999999958
 40
0.3749999999999958
 40
0.4999999999999944
 40
0.4999999999999944
 40
0.5624999999999933
 40
0.5624999999999933
 40
0.6249999999999922
 40
0.6249999999999922
 40
0.7499999999999948
 40
0.7499999999999948
 40
0.8749999999999973
 40
0.8749999999999973
 40
1.0
 40
1.0
 40
1.0
 40
1.0
 10
144.4285474486321
 20
-13.0
 30
0.0
 10
144.4617093089817
 20
-13.00000000000001
 30
0.0
 10
144.5614569849678
 20
-13.00000000000001
 30
0.0
 10
144.8902478224189
 20
-13.0
 30
0.0
 10
145.1224586774165
 20
-13.0
 30
0.0
 10
145.7030697876884
 20
-13.0
 30
0.0
 10
146.0515685988328
 20
-13.0
 30
0.0
 10
146.8676968072186
 20
-13.0
 30
0.0
 10
147.3259502919213
 20
-13.0
 30
0.0
 10
148.0813468875888
 20
-13.0
 30
0.0
 10
148.3447866263623
 20
-13.00000000000001
 30
0.0
 10
148.8953984790593
 20
-13.00000000000001
 30
0.0
 10
149.1843030780024
 20
-13.0
 30
0.0
 10
150.07077708094
 20
-13.0
 30
0.0
 10
150.6895391746103
 20
-13.00000000000002
 30
0.0
 10
151.9816173465554
 20
-13.00000000000002
 30
0.0
 10
152.6613637093451
 20
-13.00000000000001
 30
0.0
 10
154.0196009785448
 20
-13.00000000000001
 30
0.0
 10
154.7035703550425
 20
-13.0
 30
0.0
 10
155.3924902545367
 20
-13.0
 30
0.0
  0
LINE
  5
187
330
1B
100
AcDbEntity
  8
0
  6
Continuous
 62
     7
370
    25
100
AcDbLine
 10
23.0
 20
43.25
 30
0.0
 11
22.6792635663
 21
43.1288666996
 31
0.0
  0
LINE
  5
188
330
1B
100
AcDbEntity
  8
0
  6
Continuous
 62
     7
370
    25
100
AcDbLine
 10
22.6792635663
 20
34.3711333004
 30
0.0
 11
23.0
 21
34.25
 31
0.0
  0
LINE
  5
189
330
1B
100
AcDbEntity
  8
0
  6
Continuous
 62
     7
370
    25
100
AcDbLine
 10
167.277330468
 20
-5.1
 30
0.0
 11
167.277330468
 21
-4.9
 31
0.0
  0
LINE
  5
18A
330
1B
100
AcDbEntity
  8
0
  6
Continuous
 62
     7
370
    25
100
AcDbLine
 10
143.277330468
 20
-4.9
 30
0.0
 11
143.277330468
 21
-5.1
 31
0.0
  0
LINE
  5
18B
330
1B
100
AcDbEntity
  8
0
  6
Continuous
 62
     7
370
    25
100
AcDbLine
 10
141.777330468
 20
0.0
 30
0.0
 11
141.777330468
 21
-3.0
 31
0.0
  0
LINE
  5
18C
330
1B
100
AcDbEntity
  8
0
  6
Continuous
 62
     7
370
    25
100
AcDbLine
 10
168.777330468
 20
-3.0
 30
0.0
 11
168.777330468
 21
0.0
 31
0.0
  0
LINE
  5
18D
330
1B
100
AcDbEntity
  8
0
  6
Continuous
 62
     7
370
    25
100
AcDbLine
 10
165.277330468
 20
-7.5030917131
 30
0.0
 11
165.277330468
 21
-6.5118089362
 31
0.0
  0
LINE
  5
18E
330
1B
100
AcDbEntity
  8
0
  6
Continuous
 62
     7
370
    25
100
AcDbLine
 10
165.277330468
 20
-9.5030917131
 30
0.0
 11
165.277330468
 21
-8.5118089362
 31
0.0
  0
LINE
  5
18F
330
1B
100
AcDbEntity
  8
0
  6
Continuous
 62
     7
370
    25
100
AcDbLine
 10
165.277330468
 20
-11.5030917131
 30
0.0
 11
165.277330468
 21
-10.5118089362
 31
0.0
  0
LINE
  5
190
330
1B
100
AcDbEntity
  8
0
  6
Continuous
 62
     7
370
    25
100
AcDbLine
 10
165.277330468
 20
-13.0
 30
0.0
 11
165.277330468
 21
-12.5118089362
 31
0.0
  0
LINE
  5
191
330
1B
100
AcDbEntity
  8
0
  6
Continuous
 62
     7
370
    25
100
AcDbLine
 10
145.277330468
 20
-11.503651841
 30
0.0
 11
145.277330468
 21
-12.5030886365
 31
0.0
  0
LINE
  5
192
330
1B
100
AcDbEntity
  8
0
  6
Continuous
 62
     7
370
    25
100
AcDbLine
 10
145.277330468
 20
-9.503651841
 30
0.0
 11
145.277330468
 21
-10.502942578
 31
0.0
  0
LINE
  5
193
330
1B
100
AcDbEntity
  8
0
  6
Continuous
 62
     7
370
    25
100
AcDbLine
 10
145.277330468
 20
-7.503651841
 30
0.0
 11
145.277330468
 21
-8.502942578
 31
0.0
  0
LINE
  5
194
330
1B
100
AcDbEntity
  8
0
  6
Continuous
 62
     7
370
    25
100
AcDbLine
 10
145.277330468
 20
-6.0
 30
0.0
 11
145.277330468
 21
-6.502942578
 31
0.0
  0
LINE
  5
195
330
1B
100
AcDbEntity
  8
0
  6
Continuous
 62
     7
370
    25
100
AcDbLine
 10
144.777330468
 20
-3.0
 30
0.0
 11
144.777330468
 21
-4.0
 31
0.0
  0
LINE
  5
196
330
1B
100
AcDbEntity
  8
0
  6
Continuous
 62
     7
370
    25
100
AcDbLine
 10
165.777330468
 20
-4.0
 30
0.0
 11
165.777330468
 21
-3.0
 31
0.0
  0
LINE
  5
197
330
1B
100
AcDbEntity
  8
0
  6
Continuous
 62
     7
370
    25
100
AcDbLine
 10
24.5
 20
23.5
 30
0.0
 11
24.5
 21
2.5
 31
0.0
  0
LINE
  5
198
330
1B
100
AcDbEntity
  8
0
  6
Continuous
 62
     7
370
    25
100
AcDbLine
 10
24.5
 20
-5.5
 30
0.0
 11
24.5
 21
-14.5
 31
0.0
  0
LINE
  5
199
330
1B
100
AcDbEntity
  8
0
  6
Continuous
 62
     7
370
    25
100
AcDbLine
 10
24.5
 20
23.5
 30
0.0
 11
66.0
 21
23.5
 31
0.0
  0
LINE
  5
19A
330
1B
100
AcDbEntity
  8
0
  6
Continuous
 62
     7
370
    25
100
AcDbLine
 10
66.0
 20
23.5
 30
0.0
 11
66.0
 21
2.5
 31
0.0
  0
LINE
  5
19B
330
1B
100
AcDbEntity
  8
0
  6
Continuous
 62
     7
370
    25
100
AcDbLine
 10
66.0
 20
-5.5
 30
0.0
 11
66.0
 21
-14.5
 31
0.0
  0
LINE
  5
19C
330
1B
100
AcDbEntity
  8
0
  6
Continuous
 62
     7
370
    25
100
AcDbLine
 10
24.5
 20
-14.5
 30
0.0
 11
66.0
 21
-14.5
 31
0.0
  0
LINE
  5
19D
330
1B
100
AcDbEntity
  8
0
  6
Continuous
 62
     7
370
    25
100
AcDbLine
 10
22.6792635663
 20
43.1288666996
 30
0.0
 11
22.6792635663
 21
34.3711333004
 31
0.0
  0
LINE
  5
19E
330
1B
100
AcDbEntity
  8
0
  6
Continuous
 62
     7
370
    25
100
AcDbLine
 10
144.177330468
 20
-4.0
 30
0.0
 11
166.377330468
 21
-4.0
 31
0.0
  0
LINE
  5
19F
330
1B
100
AcDbEntity
  8
0
  6
Continuous
 62
     7
370
    25
100
AcDbLine
 10
166.377330468
 20
-6.0
 30
0.0
 11
144.177330468
 21
-6.0
 31
0.0
  0
LINE
  5
1A0
330
1B
100
AcDbEntity
  8
0
  6
Continuous
 62
     7
370
    25
100
AcDbLine
 10
-34.0
 20
52.0
 30
0.0
 11
21.0
 21
52.0
 31
0.0
  0
LINE
  5
1A1
330
1B
100
AcDbEntity
  8
0
  6
Continuous
 62
     7
370
    25
100
AcDbLine
 10
21.0
 20
52.0
 30
0.0
 11
21.0
 21
51.0
 31
0.0
  0
LINE
  5
1A2
330
1B
100
AcDbEntity
  8
0
  6
Continuous
 62
     7
370
    25
100
AcDbLine
 10
21.0
 20
51.0
 30
0.0
 11
-33.0
 21
51.0
 31
0.0
  0
LINE
  5
1A3
330
1B
100
AcDbEntity
  8
0
  6
Continuous
 62
     7
370
    25
100
AcDbLine
 10
66.0
 20
54.5
 30
0.0
 11
-34.0
 21
54.5
 31
0.0
  0
LINE
  5
1A4
330
1B
100
AcDbEntity
  8
0
  6
Continuous
 62
     7
370
    25
100
AcDbLine
 10
-33.0
 20
55.5
 30
0.0
 11
-33.0
 21
51.0
 31
0.0
  0
LINE
  5
1A5
330
1B
100
AcDbEntity
  8
0
  6
Continuous
 62
     7
370
    25
100
AcDbLine
 10
-34.0
 20
52.0
 30
0.0
 11
-34.0
 21
54.5
 31
0.0
  0
LINE
  5
1A6
330
1B
100
AcDbEntity
  8
0
  6
Continuous
 62
     7
370
    25
100
AcDbLine
 10
24.0
 20
49.0
 30
0.0
 11
24.0
 21
28.5
 31
0.0
  0
LINE
  5
1A7
330
1B
100
AcDbEntity
  8
0
  6
Continuous
 62
     7
370
    25
100
AcDbLine
 10
65.0
 20
34.2209302326
 30
0.0
 11
65.0
 21
55.5
 31
0.0
  0
LINE
  5
1A8
330
1B
100
AcDbEntity
  8
0
  6
Continuous
 62
     7
370
    25
100
AcDbLine
 10
45.1593996011
 20
28.6840184933
 30
0.0
 11
66.0
 21
34.5
 31
0.0
  0
LINE
  5
1A9
330
1B
100
AcDbEntity
  8
0
  6
Continuous
 62
     7
370
    25
100
AcDbLine
 10
23.0
 20
28.5
 30
0.0
 11
43.815404762
 21
28.5
 31
0.0
  0
LINE
  5
1AA
330
1B
100
AcDbEntity
  8
0
  6
Continuous
 62
     7
370
    25
100
AcDbLine
 10
-33.0
 20
55.5
 30
0.0
 11
65.0
 21
55.5
 31
0.0
  0
LINE
  5
1AB
330
1B
100
AcDbEntity
  8
0
  6
Continuous
 62
     7
370
    25
100
AcDbLine
 10
24.0
 20
49.0
 30
0.0
 11
23.0
 21
49.0
 31
0.0
  0
LINE
  5
1AC
330
1B
100
AcDbEntity
  8
0
  6
Continuous
 62
     7
370
    25
100
AcDbLine
 10
23.0
 20
28.5
 30
0.0
 11
23.0
 21
49.0
 31
0.0
  0
LINE
  5
1AD
330
1B
100
AcDbEntity
  8
0
  6
Continuous
 62
     7
370
    25
100
AcDbLine
 10
66.0
 20
54.5
 30
0.0
 11
66.0
 21
34.5
 31
0.0
  0
LINE
  5
1AE
330
1B
100
AcDbEntity
  8
0
  6
Continuous
 62
     7
370
    25
100
AcDbLine
 10
9.5
 20
0.0
 30
0.0
 11
9.5
 21
-0.5
 31
0.0
  0
LINE
  5
1AF
330
1B
100
AcDbEntity
  8
0
  6
Continuous
 62
     7
370
    25
100
AcDbLine
 10
79.5
 20
0.0
 30
0.0
 11
79.5
 21
-0.5
 31
0.0
  0
LINE
  5
1B0
330
1B
100
AcDbEntity
  8
0
  6
Continuous
 62
     7
370
    25
100
AcDbLine
 10
9.5
 20
-0.5
 30
0.0
 11
79.5
 21
-0.5
 31
0.0
  0
LINE
  5
1B1
330
1B
100
AcDbEntity
  8
0
  6
Continuous
 62
     7
370
    25
100
AcDbLine
 10
69.5
 20
-2.5
 30
0.0
 11
19.5
 21
-2.5
 31
0.0
  0
LINE
  5
1B2
330
1B
100
AcDbEntity
  8
0
  6
Continuous
 62
     7
370
    25
100
AcDbLine
 10
19.5
 20
-3.5
 30
0.0
 11
69.5
 21
-3.5
 31
0.0
  0
LINE
  5
1B3
330
1B
100
AcDbEntity
  8
0
  6
Continuous
 62
     7
370
    25
100
AcDbLine
 10
69.5
 20
-3.5
 30
0.0
 11
69.5
 21
-2.5
 31
0.0
  0
LINE
  5
1B4
330
1B
100
AcDbEntity
  8
0
  6
Continuous
 62
     7
370
    25
100
AcDbLine
 10
19.5
 20
-3.5
 30
0.0
 11
19.5
 21
-2.5
 31
0.0
  0
LINE
  5
1B5
330
1B
100
AcDbEntity
  8
0
  6
Continuous
 62
     7
370
    25
100
AcDbLine
 10
67.5
 20
-5.5
 30
0.0
 11
21.5
 21
-5.5
 31
0.0
  0
LINE
  5
1B6
330
1B
100
AcDbEntity
  8
0
  6
Continuous
 62
     7
370
    25
100
AcDbLine
 10
0.0
 20
2.5
 30
0.0
 11
0.0
 21
0.0
 31
0.0
  0
LINE
  5
1B7
330
1B
100
AcDbEntity
  8
0
  6
Continuous
 62
     7
370
    25
100
AcDbLine
 10
0.0
 20
0.0
 30
0.0
 11
200.0
 21
0.0
 31
0.0
  0
LINE
  5
1B8
330
1B
100
AcDbEntity
  8
0
  6
Continuous
 62
     7
370
    25
100
AcDbLine
 10
0.0
 20
2.5
 30
0.0
 11
200.0
 21
2.5
 31
0.0
  0
LINE
  5
1B9
330
1B
100
AcDbEntity
  8
0
  6
Continuous
 62
     7
370
    25
100
AcDbLine
 10
200.0
 20
2.5
 30
0.0
 11
200.0
 21
0.0
 31
0.0
  0
LINE
  5
1BA
330
1B
100
AcDbEntity
  8
0
  6
Continuous
 62
     7
370
    25
100
AcDbLine
 10
150.1783109544
 20
0.0
 30
0.0
 11
150.1783109544
 21
-3.0
 31
0.0
  0
LINE
  5
1BB
330
1B
100
AcDbEntity
  8
0
  6
Continuous
 62
     7
370
    25
100
AcDbLine
 10
160.3763499816
 20
-3.0
 30
0.0
 11
160.3763499816
 21
0.0
 31
0.0
  0
LINE
  5
1BC
330
1B
100
AcDbEntity
  8
0
  6
Continuous
 62
     7
370
    25
100
AcDbLine
 10
141.777330468
 20
-3.0
 30
0.0
 11
168.777330468
 21
-3.0
 31
0.0
  0
LINE
  5
1BD
330
1B
100
AcDbEntity
  8
0
  6
Continuous
 62
     7
370
    25
100
AcDbLine
 10
144.4113650367
 20
-12.9898134127
 30
0.0
 11
144.4285474486
 21
-13.0
 31
0.0
  0
LINE
  5
1BE
330
1B
100
AcDbEntity
  8
0
  6
Continuous
 62
     7
370
    25
100
AcDbLine
 10
155.3924902545
 20
-13.0
 30
0.0
 11
165.277330468
 21
-13.0
 31
0.0
  0
LINE
  5
1BF
330
1B
100
AcDbEntity
  8
0
  6
Continuous
 62
     7
370
    25
100
AcDbLine
 10
174.527330468
 20
2.5
 30
0.0
 11
174.527330468
 21
177.5
 31
0.0
  0
LINE
  5
1C0
330
1B
100
AcDbEntity
  8
0
  6
Continuous
 62
     7
370
    25
100
AcDbLine
 10
174.527330468
 20
177.5
 30
0.0
 11
175.527330468
 21
177.5
 31
0.0
  0
LINE
  5
1C1
330
1B
100
AcDbEntity
  8
0
  6
Continuous
 62
     7
370
    25
100
AcDbLine
 10
175.527330468
 20
177.5
 30
0.0
 11
175.527330468
 21
2.5
 31
0.0
  0
LINE
  5
1C2
330
1B
100
AcDbEntity
  8
0
  6
Continuous
 62
     7
370
    25
100
AcDbLine
 10
136.027330468
 20
177.5
 30
0.0
 11
135.027330468
 21
177.5
 31
0.0
  0
LINE
  5
1C3
330
1B
100
AcDbEntity
  8
0
  6
Continuous
 62
     7
370
    25
100
AcDbLine
 10
140.027330468
 20
181.5
 30
0.0
 11
140.027330468
 21
182.5
 31
0.0
  0
LINE
  5
1C4
330
1B
100
AcDbEntity
  8
0
  6
Continuous
 62
     7
370
    25
100
AcDbLine
 10
170.527330468
 20
181.5
 30
0.0
 11
140.027330468
 21
181.5
 31
0.0
  0
LINE
  5
1C5
330
1B
100
AcDbEntity
  8
0
  6
Continuous
 62
     7
370
    25
100
AcDbLine
 10
140.027330468
 20
182.5
 30
0.0
 11
170.527330468
 21
182.5
 31
0.0
  0
LINE
  5
1C6
330
1B
100
AcDbEntity
  8
0
  6
Continuous
 62
     7
370
    25
100
AcDbLine
 10
170.527330468
 20
181.5
 30
0.0
 11
170.527330468
 21
182.5
 31
0.0
  0
LINE
  5
1C7
330
1B
100
AcDbEntity
  8
0
  6
Continuous
 62
     7
370
    25
100
AcDbLine
 10
136.027330468
 20
177.5
 30
0.0
 11
136.027330468
 21
2.5
 31
0.0
  0
LINE
  5
1C8
330
1B
100
AcDbEntity
  8
0
  6
Continuous
 62
     7
370
    25
100
AcDbLine
 10
135.027330468
 20
2.5
 30
0.0
 11
135.027330468
 21
177.5
 31
0.0
  0
LINE
  5
1C9
330
1B
100
AcDbEntity
  8
0
  6
Continuous
 62
     8
370
    25
100
AcDbLine
 10
167.277330468
 20
-4.9
 30
0.0
 11
143.277330468
 21
-4.9
 31
0.0
  0
LINE
  5
1CA
330
1B
100
AcDbEntity
  8
0
  6
Continuous
 62
     8
370
    25
100
AcDbLine
 10
143.277330468
 20
-5.1
 30
0.0
 11
167.277330468
 21
-5.1
 31
0.0
  0
ARC
  5
1CB
330
1B
100
AcDbEntity
  8
0
  6
Continuous
 62
     7
370
    25
100
AcDbCircle
 10
27.5488229899
 20
38.75
 30
0.0
 40
6.5488229899218
100
AcDbArc
 50
138.0370881504
 51
221.9629118496
  0
ARC
  5
1CC
330
1B
100
AcDbEntity
  8
0
  6
Continuous
 62
     7
370
    25
100
AcDbCircle
 10
144.177330468
 20
-4.9
 30
0.0
 40
0.9000000000000341
100
AcDbArc
 50
90.0
 51
180.0
  0
ARC
  5
1CD
330
1B
100
AcDbEntity
  8
0
  6
Continuous
 62
     7
370
    25
100
AcDbCircle
 10
166.377330468
 20
-4.9
 30
0.0
 40
0.8999999999999853
100
AcDbArc
 50
0.0
 51
90.0
  0
ARC
  5
1CE
330
1B
100
AcDbEntity
  8
0
  6
Continuous
 62
     7
370
    25
100
AcDbCircle
 10
144.177330468
 20
-5.1
 30
0.0
 40
0.900000000000035
100
AcDbArc
 50
180.0
 51
270.0
  0
ARC
  5
1CF
330
1B
100
AcDbEntity
  8
0
  6
Continuous
 62
     7
370
    25
100
AcDbCircle
 10
166.377330468
 20
-5.1
 30
0.0
 40
0.9000000000000625
100
AcDbArc
 50
270.0
 51
0.0
  0
ARC
  5
1D0
330
1B
100
AcDbEntity
  8
0
  6
Continuous
 62
     7
370
    25
100
AcDbCircle
 10
-33.0
 20
54.5
 30
0.0
 40
0.9999999999999858
100
AcDbArc
 50
90.0
 51
180.0
  0
ARC
  5
1D1
330
1B
100
AcDbEntity
  8
0
  6
Continuous
 62
     7
370
    25
100
AcDbCircle
 10
-33.0
 20
52.0
 30
0.0
 40
0.9999999999999787
100
AcDbArc
 50
180.0
 51
270.0
  0
ARC
  5
1D2
330
1B
100
AcDbEntity
  8
0
  6
Continuous
 62
     7
370
    25
100
AcDbCircle
 10
21.0
 20
49.0
 30
0.0
 40
3.0
100
AcDbArc
 50
0.0
 51
90.0
  0
ARC
  5
1D3
330
1B
100
AcDbEntity
  8
0
  6
Continuous
 62
     7
370
    25
100
AcDbCircle
 10
43.815404762
 20
33.5
 30
0.0
 40
5.00000000000021
100
AcDbArc
 50
270.0
 51
285.5928109393
  0
ARC
  5
1D4
330
1B
100
AcDbEntity
  8
0
  6
Continuous
 62
     7
370
    25
100
AcDbCircle
 10
21.0
 20
49.0
 30
0.0
 40
2.000000000000014
100
AcDbArc
 50
0.0
 51
90.0
  0
ARC
  5
1D5
330
1B
100
AcDbEntity
  8
0
  6
Continuous
 62
     7
370
    25
100
AcDbCircle
 10
65.0
 20
54.5
 30
0.0
 40
0.9999999999999858
100
AcDbArc
 50
0.0
 51
90.0
  0
ARC
  5
1D6
330
1B
100
AcDbEntity
  8
0
  6
Continuous
 62
     7
370
    25
100
AcDbCircle
 10
17.5
 20
-2.5
 30
0.0
 40
2.000000000000014
100
AcDbArc
 50
0.0
 51
90.0
  0
ARC
  5
1D7
330
1B
100
AcDbEntity
  8
0
  6
Continuous
 62
     7
370
    25
100
AcDbCircle
 10
71.5
 20
-2.5
 30
0.0
 40
2.000000000000028
100
AcDbArc
 50
90.0
 51
180.0
  0
ARC
  5
1D8
330
1B
100
AcDbEntity
  8
0
  6
Continuous
 62
     7
370
    25
100
AcDbCircle
 10
21.5
 20
-3.5
 30
0.0
 40
2.000000000000011
100
AcDbArc
 50
180.0
 51
270.0
  0
ARC
  5
1D9
330
1B
100
AcDbEntity
  8
0
  6
Continuous
 62
     7
370
    25
100
AcDbCircle
 10
67.5
 20
-3.5
 30
0.0
 40
1.999999999999986
100
AcDbArc
 50
270.0
 51
0.0
  0
ARC
  5
1DA
330
1B
100
AcDbEntity
  8
0
  6
Continuous
 62
     7
370
    25
100
AcDbCircle
 10
140.027330468
 20
177.5
 30
0.0
 40
4.000000000000028
100
AcDbArc
 50
90.0
 51
180.0
  0
ARC
  5
1DB
330
1B
100
AcDbEntity
  8
0
  6
Continuous
 62
     7
370
    25
100
AcDbCircle
 10
140.027330468
 20
177.5
 30
0.0
 40
5.000000000000028
100
AcDbArc
 50
90.0
 51
180.0
  0
ARC
  5
1DC
330
1B
100
AcDbEntity
  8
0
  6
Continuous
 62
     7
370
    25
100
AcDbCircle
 10
170.527330468
 20
177.5
 30
0.0
 40
4.000000000000028
100
AcDbArc
 50
0.0
 51
90.0
  0
ARC
  5
1DD
330
1B
100
AcDbEntity
  8
0
  6
Continuous
 62
     7
370
    25
100
AcDbCircle
 10
170.527330468
 20
177.5
 30
0.0
 40
5.0
100
AcDbArc
 50
0.0
 51
90.0
  0
VIEWPORT
  5
270
330
1B
100
AcDbEntity
  8
0
100
AcDbViewport
 10
0.0
 20
0.0
 30
0.0
 40
205.6
 41
156.0
 68
     1
 69
     1
 12
-83.0
 22
-51.5
 13
0.0
 23
0.0
 14
10.0
 24
10.0
 15
10.0
 25
10.0
 16
0.0
 26
0.0
 36
1.0
 17
0.0
 27
0.0
 37
0.0
 42
50.0
 43
0.0
 44
0.0
 45
181.0996108949
 50
0.0
 51
0.0
 72
   100
 90
   557152
  1

281
     0
 71
     1
 74
     0
110
0.0
120
0.0
130
0.0
111
1.0
121
0.0
131
0.0
112
0.0
122
1.0
132
0.0
 79
     0
146
0.0
  0
ENDBLK
  5
1D
330
1B
100
AcDbEntity
  8
0
100
AcDbBlockEnd
  0
ENDSEC
  0
SECTION
  2
ENTITIES
  0
SPLINE
  5
C4
330
1F
100
AcDbEntity
  8
0
  6
Continuous
 62
     7
370
    25
100
AcDbSpline
210
0.0
220
0.0
230
1.0
 70
     8
 71
     3
 72
    28
 73
    24
 74
     0
 42
0.000000001
 43
0.00000001
 40
0.0
 40
0.0
 40
0.0
 40
0.0
 40
0.125
 40
0.125
 40
0.25
 40
0.25
 40
0.375
 40
0.375
 40
0.5
 40
0.5
 40
0.625
 40
0.625
 40
0.6875
 40
0.6875
 40
0.75
 40
0.75
 40
0.8125
 40
0.8125
 40
0.875
 40
0.875
 40
0.9375
 40
0.9375
 40
1.0
 40
1.0
 40
1.0
 40
1.0
 10
-147.4167968623271
 20
-69.075
 30
0.0
 10
-147.4971066160688
 20
-69.07499999999999
 30
0.0
 10
-147.626968235852
 20
-69.06994971546308
 30
0.0
 10
-147.9854190821127
 20
-69.05362921203307
 30
0.0
 10
-148.204966255848
 20
-69.04281252494502
 30
0.0
 10
-148.7219225357575
 20
-69.02121190445452
 30
0.0
 10
-149.007657716519
 20
-69.01097441569188
 30
0.0
 10
-149.6270431576429
 20
-68.99624243080741
 30
0.0
 10
-149.9483820679771
 20
-68.992092173324
 30
0.0
 10
-150.6029510451168
 20
-68.99206466566665
 30
0.0
 10
-150.924981026494
 20
-68.99620235363925
 30
0.0
 10
-151.388873064814
 20
-69.00720216375205
 30
0.0
 10
-151.5392154131252
 20
-69.01163176785457
 30
0.0
 10
-151.8241197139715
 20
-69.02128078021131
 30
0.0
 10
-151.9598668407296
 20
-69.02652922607122
 30
0.0
 10
-152.2176378251075
 20
-69.0372893747361
 30
0.0
 10
-152.3385264024012
 20
-69.04275610919454
 30
0.0
 10
-152.5579064474999
 20
-69.0529099672142
 30
0.0
 10
-152.6574983987563
 20
-69.05764505242156
 30
0.0
 10
-152.8360483299683
 20
-69.06577957732807
 30
0.0
 10
-152.9143923954002
 20
-69.06914258614698
 30
0.0
 10
-153.0448279596653
 20
-69.07373327570475
 30
0.0
 10
-153.0977095170556
 20
-69.07500000000003
 30
0.0
 10
-153.137864073699
 20
-69.075
 30
0.0
  0
SPLINE
  5
C6
330
1F
100
AcDbEntity
  8
0
  6
Continuous
 62
     7
370
    25
100
AcDbSpline
210
0.0
220
0.0
230
1.0
 70
     8
 71
     3
 72
    28
 73
    24
 74
     0
 42
0.000000001
 43
0.00000001
 40
0.0
 40
0.0
 40
0.0
 40
0.0
 40
0.1249999999999998
 40
0.1249999999999998
 40
0.2499999999999997
 40
0.2499999999999997
 40
0.3749999999999995
 40
0.3749999999999995
 40
0.4999999999999993
 40
0.4999999999999993
 40
0.6249999999999991
 40
0.6249999999999991
 40
0.6874999999999993
 40
0.6874999999999993
 40
0.7499999999999994
 40
0.7499999999999994
 40
0.8124999999999996
 40
0.8124999999999996
 40
0.8749999999999997
 40
0.8749999999999997
 40
0.9374999999999999
 40
0.9374999999999999
 40
1.0
 40
1.0
 40
1.0
 40
1.0
 10
-157.4167968623271
 20
-69.075
 30
0.0
 10
-157.4971066160688
 20
-69.07500000000002
 30
0.0
 10
-157.626968235852
 20
-69.06994971546307
 30
0.0
 10
-157.9854190821127
 20
-69.05362921203307
 30
0.0
 10
-158.204966255848
 20
-69.04281252494502
 30
0.0
 10
-158.7219225357575
 20
-69.02121190445452
 30
0.0
 10
-159.0076577165191
 20
-69.01097441569188
 30
0.0
 10
-159.627043157643
 20
-68.99624243080741
 30
0.0
 10
-159.9483820679772
 20
-68.992092173324
 30
0.0
 10
-160.6029510451168
 20
-68.99206466566666
 30
0.0
 10
-160.924981026494
 20
-68.99620235363926
 30
0.0
 10
-161.3888730648139
 20
-69.00720216375208
 30
0.0
 10
-161.5392154131252
 20
-69.01163176785454
 30
0.0
 10
-161.8241197139715
 20
-69.02128078021131
 30
0.0
 10
-161.9598668407296
 20
-69.02652922607123
 30
0.0
 10
-162.2176378251076
 20
-69.03728937473613
 30
0.0
 10
-162.3385264024012
 20
-69.04275610919454
 30
0.0
 10
-162.5579064475
 20
-69.05290996721422
 30
0.0
 10
-162.6574983987563
 20
-69.05764505242156
 30
0.0
 10
-162.8360483299684
 20
-69.06577957732807
 30
0.0
 10
-162.9143923954003
 20
-69.069142586147
 30
0.0
 10
-163.0448279596653
 20
-69.07373327570477
 30
0.0
 10
-163.0977095170556
 20
-69.07500000000002
 30
0.0
 10
-163.137864073699
 20
-69.075
 30
0.0
  0
LINE
  5
CD
330
1F
100
AcDbEntity
  8
0
  6
Continuous
 62
     7
370
    25
100
AcDbLine
 10
-143.427330468
 20
-62.575
 30
0.0
 11
-143.427330468
 21
-55.075
 31
0.0
  0
LINE
  5
CE
330
1F
100
AcDbEntity
  8
0
  6
Continuous
 62
     7
370
    25
100
AcDbLine
 10
-167.127330468
 20
-55.075
 30
0.0
 11
-167.127330468
 21
-62.575
 31
0.0
  0
LINE
  5
CF
330
1F
100
AcDbEntity
  8
0
  6
Continuous
 62
     7
370
    25
100
AcDbLine
 10
-150.8702339181
 20
-59.275
 30
0.0
 11
-150.8702339181
 21
-62.575
 31
0.0
  0
LINE
  5
D0
330
1F
100
AcDbEntity
  8
0
  6
Continuous
 62
     7
370
    25
100
AcDbLine
 10
-159.6844270179
 20
-59.275
 30
0.0
 11
-150.8702339181
 21
-59.275
 31
0.0
  0
LINE
  5
D1
330
1F
100
AcDbEntity
  8
0
  6
Continuous
 62
     7
370
    25
100
AcDbLine
 10
-159.6844270179
 20
-62.575
 30
0.0
 11
-159.6844270179
 21
-59.275
 31
0.0
  0
LINE
  5
D2
330
1F
100
AcDbEntity
  8
0
  6
Continuous
 62
     7
370
    25
100
AcDbLine
 10
-143.427330468
 20
-62.575
 30
0.0
 11
-167.127330468
 21
-62.575
 31
0.0
  0
LINE
  5
D3
330
1F
100
AcDbEntity
  8
0
  6
Continuous
 62
     7
370
    25
100
AcDbLine
 10
33.0
 20
-72.25
 30
0.0
 11
-66.0
 21
-72.25
 31
0.0
  0
LINE
  5
D4
330
1F
100
AcDbEntity
  8
0
  6
Continuous
 62
     7
370
    25
100
AcDbLine
 10
-66.0
 20
-72.25
 30
0.0
 11
-66.0
 21
-30.25
 31
0.0
  0
LINE
  5
D5
330
1F
100
AcDbEntity
  8
0
  6
Continuous
 62
     7
370
    25
100
AcDbLine
 10
-65.0
 20
-29.25
 30
0.0
 11
-65.0
 21
-72.25
 31
0.0
  0
LINE
  5
D6
330
1F
100
AcDbEntity
  8
0
  6
Continuous
 62
     7
370
    25
100
AcDbLine
 10
34.0
 20
-30.25
 30
0.0
 11
-66.0
 21
-30.25
 31
0.0
  0
LINE
  5
D7
330
1F
100
AcDbEntity
  8
0
  6
Continuous
 62
     7
370
    25
100
AcDbLine
 10
-66.0
 20
-71.25
 30
0.0
 11
34.0
 21
-71.25
 31
0.0
  0
LINE
  5
D8
330
1F
100
AcDbEntity
  8
0
  6
Continuous
 62
     7
370
    25
100
AcDbLine
 10
33.0
 20
-72.25
 30
0.0
 11
33.0
 21
-29.25
 31
0.0
  0
LINE
  5
D9
330
1F
100
AcDbEntity
  8
0
  6
Continuous
 62
     7
370
    25
100
AcDbLine
 10
-65.0
 20
-29.25
 30
0.0
 11
33.0
 21
-29.25
 31
0.0
  0
LINE
  5
DA
330
1F
100
AcDbEntity
  8
0
  6
Continuous
 62
     7
370
    25
100
AcDbLine
 10
34.0
 20
-30.25
 30
0.0
 11
34.0
 21
-71.25
 31
0.0
  0
LINE
  5
DB
330
1F
100
AcDbEntity
  8
0
  6
Continuous
 62
     7
370
    25
100
AcDbLine
 10
-200.0
 20
-103.0
 30
0.0
 11
0.0
 21
-103.0
 31
0.0
  0
LINE
  5
DC
330
1F
100
AcDbEntity
  8
0
  6
Continuous
 62
     7
370
    25
100
AcDbLine
 10
-200.0
 20
0.0
 30
0.0
 11
-200.0
 21
-103.0
 31
0.0
  0
LINE
  5
DD
330
1F
100
AcDbEntity
  8
0
  6
Continuous
 62
     7
370
    25
100
AcDbLine
 10
0.0
 20
0.0
 30
0.0
 11
-200.0
 21
0.0
 31
0.0
  0
LINE
  5
DE
330
1F
100
AcDbEntity
  8
0
  6
Continuous
 62
     7
370
    25
100
AcDbLine
 10
0.0
 20
-103.0
 30
0.0
 11
0.0
 21
-72.25
 31
0.0
  0
LINE
  5
DF
330
1F
100
AcDbEntity
  8
0
  6
Continuous
 62
     7
370
    25
100
AcDbLine
 10
0.0
 20
-29.25
 30
0.0
 11
0.0
 21
0.0
 31
0.0
  0
LINE
  5
E0
330
1F
100
AcDbEntity
  8
0
  6
Continuous
 62
     7
370
    25
100
AcDbLine
 10
-24.5
 20
-72.75
 30
0.0
 11
-66.0
 21
-72.75
 31
0.0
  0
LINE
  5
E1
330
1F
100
AcDbEntity
  8
0
  6
Continuous
 62
     7
370
    25
100
AcDbLine
 10
-66.5
 20
-72.25
 30
0.0
 11
-66.5
 21
-30.75
 31
0.0
  0
LINE
  5
E2
330
1F
100
AcDbEntity
  8
0
  6
Continuous
 62
     7
370
    25
100
AcDbLine
 10
-135.027330468
 20
-39.575
 30
0.0
 11
-175.527330468
 21
-39.575
 31
0.0
  0
LINE
  5
E3
330
1F
100
AcDbEntity
  8
0
  6
Continuous
 62
     7
370
    25
100
AcDbLine
 10
-175.527330468
 20
-54.075
 30
0.0
 11
-135.027330468
 21
-54.075
 31
0.0
  0
LINE
  5
E4
330
1F
100
AcDbEntity
  8
0
  6
Continuous
 62
     7
370
    25
100
AcDbLine
 10
-170.527330468
 20
-38.575
 30
0.0
 11
-170.527330468
 21
-55.075
 31
0.0
  0
LINE
  5
E5
330
1F
100
AcDbEntity
  8
0
  6
Continuous
 62
     7
370
    25
100
AcDbLine
 10
-136.027330468
 20
-55.075
 30
0.0
 11
-174.527330468
 21
-55.075
 31
0.0
  0
LINE
  5
E6
330
1F
100
AcDbEntity
  8
0
  6
Continuous
 62
     7
370
    25
100
AcDbLine
 10
-140.027330468
 20
-55.075
 30
0.0
 11
-140.027330468
 21
-38.575
 31
0.0
  0
LINE
  5
E7
330
1F
100
AcDbEntity
  8
0
  6
Continuous
 62
     7
370
    25
100
AcDbLine
 10
-174.527330468
 20
-38.575
 30
0.0
 11
-136.027330468
 21
-38.575
 31
0.0
  0
LINE
  5
E8
330
1F
100
AcDbEntity
  8
0
  6
Continuous
 62
     7
370
    25
100
AcDbLine
 10
-135.027330468
 20
-39.575
 30
0.0
 11
-135.027330468
 21
-68.075
 31
0.0
  0
LINE
  5
E9
330
1F
100
AcDbEntity
  8
0
  6
Continuous
 62
     7
370
    25
100
AcDbLine
 10
-175.527330468
 20
-68.075
 30
0.0
 11
-175.527330468
 21
-39.575
 31
0.0
  0
LINE
  5
EA
330
1F
100
AcDbEntity
  8
0
  6
Continuous
 62
     7
370
    25
100
AcDbLine
 10
-174.527330468
 20
-55.075
 30
0.0
 11
-174.527330468
 21
-69.075
 31
0.0
  0
LINE
  5
EB
330
1F
100
AcDbEntity
  8
0
  6
Continuous
 62
     7
370
    25
100
AcDbLine
 10
-136.027330468
 20
-69.075
 30
0.0
 11
-136.027330468
 21
-55.075
 31
0.0
  0
LINE
  5
EC
330
1F
100
AcDbEntity
  8
0
  6
Continuous
 62
     7
370
    25
100
AcDbLine
 10
-174.527330468
 20
-67.8511370198
 30
0.0
 11
-136.027330468
 21
-67.8511370198
 31
0.0
  0
LINE
  5
ED
330
1F
100
AcDbEntity
  8
0
  6
Continuous
 62
     7
370
    25
100
AcDbLine
 10
-163.1378640737
 20
-69.075
 30
0.0
 11
-174.527330468
 21
-69.075
 31
0.0
  0
LINE
  5
EE
330
1F
100
AcDbEntity
  8
0
  6
Continuous
 62
     7
370
    25
100
AcDbLine
 10
-136.027330468
 20
-69.075
 30
0.0
 11
-147.4167968623
 21
-69.075
 31
0.0
  0
LINE
  5
EF
330
1F
100
AcDbEntity
  8
0
  6
Continuous
 62
     7
370
    25
100
AcDbLine
 10
-153.1378640737
 20
-69.075
 30
0.0
 11
-157.4167968623
 21
-69.075
 31
0.0
  0
LINE
  5
F0
330
1F
100
AcDbEntity
  8
0
  6
Continuous
 62
     8
370
    25
100
AcDbLine
 10
-136.027330468
 20
-56.2988629802
 30
0.0
 11
-143.427330468
 21
-56.2988629802
 31
0.0
  0
LINE
  5
F1
330
1F
100
AcDbEntity
  8
0
  6
Continuous
 62
     8
370
    25
100
AcDbLine
 10
-167.127330468
 20
-56.2988629802
 30
0.0
 11
-174.527330468
 21
-56.2988629802
 31
0.0
  0
ARC
  5
F2
330
1F
100
AcDbEntity
  8
0
  6
Continuous
 62
     7
370
    25
100
AcDbCircle
 10
-65.0
 20
-30.25
 30
0.0
 40
0.9999999999999858
100
AcDbArc
 50
90.0
 51
180.0
  0
ARC
  5
F3
330
1F
100
AcDbEntity
  8
0
  6
Continuous
 62
     7
370
    25
100
AcDbCircle
 10
-65.0
 20
-71.25
 30
0.0
 40
1.0
100
AcDbArc
 50
180.0
 51
270.0
  0
ARC
  5
F4
330
1F
100
AcDbEntity
  8
0
  6
Continuous
 62
     7
370
    25
100
AcDbCircle
 10
33.0
 20
-30.25
 30
0.0
 40
0.9999999999999716
100
AcDbArc
 50
0.0
 51
90.0
  0
ARC
  5
F5
330
1F
100
AcDbEntity
  8
0
  6
Continuous
 62
     7
370
    25
100
AcDbCircle
 10
33.0
 20
-71.25
 30
0.0
 40
1.0
100
AcDbArc
 50
270.0
 51
0.0
  0
ARC
  5
F6
330
1F
100
AcDbEntity
  8
0
  6
Continuous
 62
     7
370
    25
100
AcDbCircle
 10
-66.0
 20
-72.25
 30
0.0
 40
0.5000000000000284
100
AcDbArc
 50
180.0
 51
270.0
  0
ARC
  5
F7
330
1F
100
AcDbEntity
  8
0
  6
Continuous
 62
     7
370
    25
100
AcDbCircle
 10
-24.5
 20
-72.25
 30
0.0
 40
0.5000000000000284
100
AcDbArc
 50
270.0
 51
360.0
  0
ARC
  5
F8
330
1F
100
AcDbEntity
  8
0
  6
Continuous
 62
     7
370
    25
100
AcDbCircle
 10
-66.0
 20
-30.75
 30
0.0
 40
0.5
100
AcDbArc
 50
90.0
 51
180.0
  0
ARC
  5
F9
330
1F
100
AcDbEntity
  8
0
  6
Continuous
 62
     7
370
    25
100
AcDbCircle
 10
-136.027330468
 20
-39.575
 30
0.0
 40
1.000000000000028
100
AcDbArc
 50
0.0
 51
90.0
  0
ARC
  5
FA
330
1F
100
AcDbEntity
  8
0
  6
Continuous
 62
     7
370
    25
100
AcDbCircle
 10
-174.527330468
 20
-54.075
 30
0.0
 40
0.9999999999999716
100
AcDbArc
 50
180.0
 51
270.0
  0
ARC
  5
FB
330
1F
100
AcDbEntity
  8
0
  6
Continuous
 62
     7
370
    25
100
AcDbCircle
 10
-136.027330468
 20
-54.075
 30
0.0
 40
1.0
100
AcDbArc
 50
270.0
 51
0.0
  0
ARC
  5
FC
330
1F
100
AcDbEntity
  8
0
  6
Continuous
 62
     7
370
    25
100
AcDbCircle
 10
-174.527330468
 20
-39.575
 30
0.0
 40
1.000000000000028
100
AcDbArc
 50
90.0
 51
180.0
  0
ARC
  5
FD
330
1F
100
AcDbEntity
  8
0
  6
Continuous
 62
     7
370
    25
100
AcDbCircle
 10
-174.5473121175
 20
-55.3188269342
 30
0.0
 40
0.9802397246644812
100
AcDbArc
 50
181.2177079114
 51
271.1680239611
  0
ARC
  5
FE
330
1F
100
AcDbEntity
  8
0
  6
Continuous
 62
     7
370
    25
100
AcDbCircle
 10
-136.0073488185
 20
-55.3188269342
 30
0.0
 40
0.9802397246645665
100
AcDbArc
 50
268.8319760389
 51
358.7822920886
  0
ARC
  5
FF
330
1F
100
AcDbEntity
  8
0
  6
Continuous
 62
     7
370
    25
100
AcDbCircle
 10
-174.5473121175
 20
-66.8711009737
 30
0.0
 40
0.9802397246644576
100
AcDbArc
 50
181.2177079114
 51
271.1680239611
  0
ARC
  5
100
330
1F
100
AcDbEntity
  8
0
  6
Continuous
 62
     7
370
    25
100
AcDbCircle
 10
-136.0073488185
 20
-66.8711009737
 30
0.0
 40
0.9802397246644854
100
AcDbArc
 50
268.8319760389
 51
358.7822920886
  0
ARC
  5
101
330
1F
100
AcDbEntity
  8
0
  6
Continuous
 62
     7
370
    25
100
AcDbCircle
 10
-174.527330468
 20
-68.075
 30
0.0
 40
1.0
100
AcDbArc
 50
180.0
 51
270.0
  0
ARC
  5
102
330
1F
100
AcDbEntity
  8
0
  6
Continuous
 62
     7
370
    25
100
AcDbCircle
 10
-136.027330468
 20
-68.075
 30
0.0
 40
1.000000000000028
100
AcDbArc
 50
270.0
 51
0.0
  0
SPLINE
  5
1DE
330
23
100
AcDbEntity
 67
     1
  8
0
  6
Continuous
 62
     7
370
    25
100
AcDbSpline
210
0.0
220
0.0
230
1.0
 70
     8
 71
     3
 72
     9
 73
     5
 74
     0
 42
0.000000001
 43
0.00000001
 40
0.0
 40
0.0
 40
0.0
 40
0.0
 40
0.5215762086113243
 40
1.0
 40
1.0
 40
1.0
 40
1.0
 10
-32.49999999999999
 20
23.5
 30
0.0
 10
-32.61790549884749
 20
24.38604626392755
 30
0.0
 10
-32.84396162813572
 20
26.08483207758001
 30
0.0
 10
-33.36069794446324
 20
27.7184420996099
 30
0.0
 10
-33.60791689206887
 20
28.49999999999997
 30
0.0
  0
SPLINE
  5
1DF
330
23
100
AcDbEntity
 67
     1
  8
0
  6
Continuous
 62
     7
370
    25
100
AcDbSpline
210
0.0
220
0.0
230
1.0
 70
     8
 71
     3
 72
     9
 73
     5
 74
     0
 42
0.000000001
 43
0.00000001
 40
0.0
 40
0.0
 40
0.0
 40
0.0
 40
0.4784237913886754
 40
1.0
 40
1.0
 40
1.0
 40
1.0
 10
-69.39208310793113
 20
28.49999999999997
 30
0.0
 10
-69.63930205553676
 20
27.7184420996099
 30
0.0
 10
-70.15603837186426
 20
26.08483207758001
 30
0.0
 10
-70.38209450115248
 20
24.38604626392755
 30
0.0
 10
-70.49999999999999
 20
23.5
 30
0.0
  0
CIRCLE
  5
1ED
330
23
100
AcDbEntity
 67
     1
  8
0
  6
Continuous
 62
     7
370
    25
100
AcDbCircle
 10
-50.75
 20
38.75
 30
0.0
 40
4.378866699644141
  0
SPLINE
  5
1EE
330
23
100
AcDbEntity
 67
     1
  8
0
  6
Continuous
 62
     7
370
    25
100
AcDbSpline
210
0.0
220
0.0
230
1.0
 70
    11
 71
     3
 72
    32
 73
    28
 74
     0
 42
0.000000001
 43
0.00000001
 40
0.0
 40
0.0
 40
0.0
 40
0.0
 40
0.062500000000001
 40
0.062500000000001
 40
0.1250000000000021
 40
0.1250000000000021
 40
0.1875000000000031
 40
0.1875000000000031
 40
0.2500000000000042
 40
0.2500000000000042
 40
0.3125000000000052
 40
0.3125000000000052
 40
0.3750000000000062
 40
0.3750000000000062
 40
0.500000000000006
 40
0.500000000000006
 40
0.6250000000000059
 40
0.6250000000000059
 40
0.6875000000000058
 40
0.6875000000000058
 40
0.7500000000000057
 40
0.7500000000000057
 40
0.8125000000000057
 40
0.8125000000000057
 40
0.8750000000000056
 40
0.8750000000000056
 40
1.0
 40
1.0
 40
1.0
 40
1.0
 10
-52.84528859404251
 20
39.46121421789898
 30
0.0
 10
-52.93956649589708
 20
39.48107416974365
 30
0.0
 10
-53.03479482072933
 20
39.48259678537006
 30
0.0
 10
-53.22335618085146
 20
39.44962365346521
 30
0.0
 10
-53.3134092062209
 20
39.41547535012751
 30
0.0
 10
-53.47772974912466
 20
39.31342553760573
 30
0.0
 10
-53.55032664476166
 20
39.24623969965209
 30
0.0
 10
-53.66593754461189
 20
39.08598085973119
 30
0.0
 10
-53.70847709772848
 20
38.99286927372984
 30
0.0
 10
-53.75340664849526
 20
38.79677575437102
 30
0.0
 10
-53.75583442462348
 20
38.69248009258089
 30
0.0
 10
-53.71977458631842
 20
38.49401329621026
 30
0.0
 10
-53.68136750838696
 20
38.39863672241871
 30
0.0
 10
-53.51696127227722
 20
38.14858477057852
 30
0.0
 10
-53.34379339232176
 20
38.03417058719049
 30
0.0
 10
-52.97163680690239
 20
37.95406033852302
 30
0.0
 10
-52.77037256499592
 20
37.98775999611738
 30
0.0
 10
-52.52433446589782
 20
38.13941541248344
 30
0.0
 10
-52.45028849634557
 20
38.20754592487251
 30
0.0
 10
-52.33461510264966
 20
38.36726802685993
 30
0.0
 10
-52.291582040694
 20
38.46095627937036
 30
0.0
 10
-52.24640341221652
 20
38.65725994139567
 30
0.0
 10
-52.24375608360117
 20
38.76097435894126
 30
0.0
 10
-52.28008779655472
 20
38.9613197011174
 30
0.0
 10
-52.31865792812182
 20
39.05656003656971
 30
0.0
 10
-52.4834564953243
 20
39.30669982804356
 30
0.0
 10
-52.65673279033339
 20
39.42149431420968
 30
0.0
 10
-52.84528859404251
 20
39.461214217899
 30
0.0
  0
SPLINE
  5
1EF
330
23
100
AcDbEntity
 67
     1
  8
0
  6
Continuous
 62
     7
370
    25
100
AcDbSpline
210
0.0
220
0.0
230
1.0
 70
    11
 71
     3
 72
    32
 73
    28
 74
     0
 42
0.000000001
 43
0.00000001
 40
0.0
 40
0.0
 40
0.0
 40
0.0
 40
0.062500000000001
 40
0.062500000000001
 40
0.125000000000002
 40
0.125000000000002
 40
0.1875000000000029
 40
0.1875000000000029
 40
0.2500000000000039
 40
0.2500000000000039
 40
0.3125000000000049
 40
0.3125000000000049
 40
0.3750000000000059
 40
0.3750000000000059
 40
0.4375000000000069
 40
0.4375000000000069
 40
0.5000000000000079
 40
0.5000000000000079
 40
0.6250000000000063
 40
0.6250000000000063
 40
0.7500000000000047
 40
0.7500000000000047
 40
0.8125000000000024
 40
0.8125000000000024
 40
0.8750000000000002
 40
0.8750000000000002
 40
1.0
 40
1.0
 40
1.0
 40
1.0
 10
-47.98290229945169
 20
39.31581075078697
 30
0.0
 10
-48.05441909869743
 20
39.38391461194627
 30
0.0
 10
-48.13655498904549
 20
39.43567933064262
 30
0.0
 10
-48.31555219014019
 20
39.50594681316349
 30
0.0
 10
-48.41044754611908
 20
39.52334852373534
 30
0.0
 10
-48.6006463379215
 20
39.5219707791689
 30
0.0
 10
-48.69585945617477
 20
39.50299639111972
 30
0.0
 10
-48.87316484349031
 20
39.43033613220305
 30
0.0
 10
-48.95614671312989
 20
39.37607388548437
 30
0.0
 10
-49.09554194336359
 20
39.23906594490873
 30
0.0
 10
-49.15312129169513
 20
39.15484836936302
 30
0.0
 10
-49.23036600826274
 20
38.97067869841938
 30
0.0
 10
-49.25079149271623
 20
38.86866830519292
 30
0.0
 10
-49.24940171277324
 20
38.66638490343843
 30
0.0
 10
-49.22793818316902
 20
38.56528289026654
 30
0.0
 10
-49.14694337292853
 20
38.37980143680749
 30
0.0
 10
-49.08839723825553
 20
38.29717784330435
 30
0.0
 10
-48.87459183569027
 20
38.09372390218491
 30
0.0
 10
-48.68195680405529
 20
38.02080158779704
 30
0.0
 10
-48.30309979172247
 20
38.02463379897186
 30
0.0
 10
-48.11272120959764
 20
38.10162831632205
 30
0.0
 10
-47.90464883645554
 20
38.30642661170742
 30
0.0
 10
-47.84733050517369
 20
38.39006592078923
 30
0.0
 10
-47.76983600558497
 20
38.57465580883781
 30
0.0
 10
-47.7494231440236
 20
38.675548489459
 30
0.0
 10
-47.75155065309092
 20
38.982533864862
 30
0.0
 10
-47.83986870096026
 20
39.1796030284684
 30
0.0
 10
-47.9829022994517
 20
39.31581075078698
 30
0.0
  0
CIRCLE
  5
1F0
330
23
100
AcDbEntity
 67
     1
  8
0
  6
Continuous
 62
     7
370
    25
100
AcDbCircle
 10
-50.75
 20
38.75
 30
0.0
 40
4.499999999999999
  0
LINE
  5
237
330
23
100
AcDbEntity
 67
     1
  8
0
  6
Continuous
 62
     7
370
    25
100
AcDbLine
 10
-59.275
 20
153.7735172521
 30
0.0
 11
-55.075
 21
153.7735172521
 31
0.0
  0
LINE
  5
238
330
23
100
AcDbEntity
 67
     1
  8
0
  6
Continuous
 62
     7
370
    25
100
AcDbLine
 10
-55.075
 20
177.4735172521
 30
0.0
 11
-59.275
 21
177.4735172521
 31
0.0
  0
LINE
  5
239
330
23
100
AcDbEntity
 67
     1
  8
0
  6
Continuous
 62
     7
370
    25
100
AcDbLine
 10
-59.275
 20
176.6235172521
 30
0.0
 11
-62.575
 21
176.6235172521
 31
0.0
  0
LINE
  5
23A
330
23
100
AcDbEntity
 67
     1
  8
0
  6
Continuous
 62
     7
370
    25
100
AcDbLine
 10
-59.275
 20
177.4735172521
 30
0.0
 11
-59.275
 21
176.6235172521
 31
0.0
  0
LINE
  5
23B
330
23
100
AcDbEntity
 67
     1
  8
0
  6
Continuous
 62
     7
370
    25
100
AcDbLine
 10
-59.275
 20
154.6235172521
 30
0.0
 11
-59.275
 21
153.7735172521
 31
0.0
  0
LINE
  5
23C
330
23
100
AcDbEntity
 67
     1
  8
0
  6
Continuous
 62
     7
370
    25
100
AcDbLine
 10
-62.575
 20
154.6235172521
 30
0.0
 11
-59.275
 21
154.6235172521
 31
0.0
  0
LINE
  5
23D
330
23
100
AcDbEntity
 67
     1
  8
0
  6
Continuous
 62
     7
370
    25
100
AcDbLine
 10
-62.575
 20
154.6235172521
 30
0.0
 11
-62.575
 21
176.6235172521
 31
0.0
  0
LINE
  5
23E
330
23
100
AcDbEntity
 67
     1
  8
0
  6
Continuous
 62
     7
370
    25
100
AcDbLine
 10
-72.25
 20
23.5
 30
0.0
 11
-72.25
 21
2.5
 31
0.0
  0
LINE
  5
23F
330
23
100
AcDbEntity
 67
     1
  8
0
  6
Continuous
 62
     7
370
    25
100
AcDbLine
 10
-72.25
 20
-5.5
 30
0.0
 11
-72.25
 21
-14.5
 31
0.0
  0
LINE
  5
240
330
23
100
AcDbEntity
 67
     1
  8
0
  6
Continuous
 62
     7
370
    25
100
AcDbLine
 10
-72.25
 20
23.5
 30
0.0
 11
-30.75
 21
23.5
 31
0.0
  0
LINE
  5
241
330
23
100
AcDbEntity
 67
     1
  8
0
  6
Continuous
 62
     7
370
    25
100
AcDbLine
 10
-72.25
 20
-14.5
 30
0.0
 11
-30.75
 21
-14.5
 31
0.0
  0
LINE
  5
242
330
23
100
AcDbEntity
 67
     1
  8
0
  6
Continuous
 62
     7
370
    25
100
AcDbLine
 10
-30.75
 20
23.5
 30
0.0
 11
-30.75
 21
2.5
 31
0.0
  0
LINE
  5
243
330
23
100
AcDbEntity
 67
     1
  8
0
  6
Continuous
 62
     7
370
    25
100
AcDbLine
 10
-30.75
 20
-5.5
 30
0.0
 11
-30.75
 21
-14.5
 31
0.0
  0
LINE
  5
244
330
23
100
AcDbEntity
 67
     1
  8
0
  6
Continuous
 62
     7
370
    25
100
AcDbLine
 10
-71.25
 20
55.5
 30
0.0
 11
-30.25
 21
55.5
 31
0.0
  0
LINE
  5
245
330
23
100
AcDbEntity
 67
     1
  8
0
  6
Continuous
 62
     7
370
    25
100
AcDbLine
 10
-29.25
 20
54.5
 30
0.0
 11
-72.25
 21
54.5
 31
0.0
  0
LINE
  5
246
330
23
100
AcDbEntity
 67
     1
  8
0
  6
Continuous
 62
     7
370
    25
100
AcDbLine
 10
-71.25
 20
55.5
 30
0.0
 11
-71.25
 21
28.5
 31
0.0
  0
LINE
  5
247
330
23
100
AcDbEntity
 67
     1
  8
0
  6
Continuous
 62
     7
370
    25
100
AcDbLine
 10
-72.25
 20
52.0
 30
0.0
 11
-29.25
 21
52.0
 31
0.0
  0
LINE
  5
248
330
23
100
AcDbEntity
 67
     1
  8
0
  6
Continuous
 62
     7
370
    25
100
AcDbLine
 10
-30.25
 20
28.5
 30
0.0
 11
-30.25
 21
55.5
 31
0.0
  0
LINE
  5
249
330
23
100
AcDbEntity
 67
     1
  8
0
  6
Continuous
 62
     7
370
    25
100
AcDbLine
 10
-30.25
 20
51.0
 30
0.0
 11
-71.25
 21
51.0
 31
0.0
  0
LINE
  5
24A
330
23
100
AcDbEntity
 67
     1
  8
0
  6
Continuous
 62
     7
370
    25
100
AcDbLine
 10
-72.25
 20
28.5
 30
0.0
 11
-72.25
 21
54.5
 31
0.0
  0
LINE
  5
24B
330
23
100
AcDbEntity
 67
     1
  8
0
  6
Continuous
 62
     7
370
    25
100
AcDbLine
 10
-29.25
 20
54.5
 30
0.0
 11
-29.25
 21
28.5
 31
0.0
  0
LINE
  5
24C
330
23
100
AcDbEntity
 67
     1
  8
0
  6
Continuous
 62
     7
370
    25
100
AcDbLine
 10
-29.25
 20
49.0
 30
0.0
 11
-72.25
 21
49.0
 31
0.0
  0
LINE
  5
24D
330
23
100
AcDbEntity
 67
     1
  8
0
  6
Continuous
 62
     7
370
    25
100
AcDbLine
 10
-72.25
 20
28.5
 30
0.0
 11
-29.25
 21
28.5
 31
0.0
  0
LINE
  5
24E
330
23
100
AcDbEntity
 67
     1
  8
0
  6
Continuous
 62
     7
370
    25
100
AcDbLine
 10
-87.25
 20
0.0
 30
0.0
 11
-87.25
 21
-0.5
 31
0.0
  0
LINE
  5
24F
330
23
100
AcDbEntity
 67
     1
  8
0
  6
Continuous
 62
     7
370
    25
100
AcDbLine
 10
-17.25
 20
0.0
 30
0.0
 11
-17.25
 21
-0.5
 31
0.0
  0
LINE
  5
250
330
23
100
AcDbEntity
 67
     1
  8
0
  6
Continuous
 62
     7
370
    25
100
AcDbLine
 10
-87.25
 20
-0.5
 30
0.0
 11
-17.25
 21
-0.5
 31
0.0
  0
LINE
  5
251
330
23
100
AcDbEntity
 67
     1
  8
0
  6
Continuous
 62
     7
370
    25
100
AcDbLine
 10
-27.25
 20
-2.5
 30
0.0
 11
-77.25
 21
-2.5
 31
0.0
  0
LINE
  5
252
330
23
100
AcDbEntity
 67
     1
  8
0
  6
Continuous
 62
     7
370
    25
100
AcDbLine
 10
-77.25
 20
-3.5
 30
0.0
 11
-27.25
 21
-3.5
 31
0.0
  0
LINE
  5
253
330
23
100
AcDbEntity
 67
     1
  8
0
  6
Continuous
 62
     7
370
    25
100
AcDbLine
 10
-27.25
 20
-3.5
 30
0.0
 11
-27.25
 21
-2.5
 31
0.0
  0
LINE
  5
254
330
23
100
AcDbEntity
 67
     1
  8
0
  6
Continuous
 62
     7
370
    25
100
AcDbLine
 10
-77.25
 20
-3.5
 30
0.0
 11
-77.25
 21
-2.5
 31
0.0
  0
LINE
  5
255
330
23
100
AcDbEntity
 67
     1
  8
0
  6
Continuous
 62
     7
370
    25
100
AcDbLine
 10
-29.25
 20
-5.5
 30
0.0
 11
-75.25
 21
-5.5
 31
0.0
  0
LINE
  5
256
330
23
100
AcDbEntity
 67
     1
  8
0
  6
Continuous
 62
     7
370
    25
100
AcDbLine
 10
-103.0
 20
2.5
 30
0.0
 11
0.0
 21
2.5
 31
0.0
  0
LINE
  5
257
330
23
100
AcDbEntity
 67
     1
  8
0
  6
Continuous
 62
     7
370
    25
100
AcDbLine
 10
0.0
 20
2.5
 30
0.0
 11
0.0
 21
0.0
 31
0.0
  0
LINE
  5
258
330
23
100
AcDbEntity
 67
     1
  8
0
  6
Continuous
 62
     7
370
    25
100
AcDbLine
 10
-103.0
 20
2.5
 30
0.0
 11
-103.0
 21
0.0
 31
0.0
  0
LINE
  5
259
330
23
100
AcDbEntity
 67
     1
  8
0
  6
Continuous
 62
     7
370
    25
100
AcDbLine
 10
-103.0
 20
0.0
 30
0.0
 11
0.0
 21
0.0
 31
0.0
  0
LINE
  5
25A
330
23
100
AcDbEntity
 67
     1
  8
0
  6
Continuous
 62
     7
370
    25
100
AcDbLine
 10
-38.575
 20
181.5
 30
0.0
 11
-38.575
 21
55.5
 31
0.0
  0
LINE
  5
25B
330
23
100
AcDbEntity
 67
     1
  8
0
  6
Continuous
 62
     7
370
    25
100
AcDbLine
 10
-54.075
 20
182.5
 30
0.0
 11
-54.075
 21
64.8289954988
 31
0.0
  0
LINE
  5
25C
330
23
100
AcDbEntity
 67
     1
  8
0
  6
Continuous
 62
     7
370
    25
100
AcDbLine
 10
-54.075
 20
64.8289954988
 30
0.0
 11
-55.075
 21
64.8289954988
 31
0.0
  0
LINE
  5
25D
330
23
100
AcDbEntity
 67
     1
  8
0
  6
Continuous
 62
     7
370
    25
100
AcDbLine
 10
-55.075
 20
64.8289954988
 30
0.0
 11
-55.075
 21
181.5
 31
0.0
  0
LINE
  5
25E
330
23
100
AcDbEntity
 67
     1
  8
0
  6
Continuous
 62
     7
370
    25
100
AcDbLine
 10
-38.575
 20
177.5
 30
0.0
 11
-55.075
 21
177.5
 31
0.0
  0
LINE
  5
25F
330
23
100
AcDbEntity
 67
     1
  8
0
  6
Continuous
 62
     7
370
    25
100
AcDbLine
 10
-54.075
 20
182.5
 30
0.0
 11
-39.575
 21
182.5
 31
0.0
  0
LINE
  5
260
330
23
100
AcDbEntity
 67
     1
  8
0
  6
Continuous
 62
     7
370
    25
100
AcDbLine
 10
-39.575
 20
55.5
 30
0.0
 11
-39.575
 21
182.5
 31
0.0
  0
LINE
  5
261
330
23
100
AcDbEntity
 67
     1
  8
0
  6
Continuous
 62
     7
370
    25
100
AcDbLine
 10
-56.5486842105
 20
55.5
 30
0.0
 11
-56.2988629802
 21
56.3476077456
 31
0.0
  0
LINE
  5
262
330
23
100
AcDbEntity
 67
     1
  8
0
  6
Continuous
 62
     7
370
    25
100
AcDbLine
 10
-55.3396584129
 20
56.0648948205
 30
0.0
 11
-56.2988629802
 21
56.3476077456
 31
0.0
  0
LINE
  5
263
330
23
100
AcDbEntity
 67
     1
  8
0
  6
Continuous
 62
     8
370
    25
100
AcDbLine
 10
-55.3396584129
 20
56.0648948205
 30
0.0
 11
-55.5061537284
 21
55.5
 31
0.0
  0
ARC
  5
264
330
23
100
AcDbEntity
 67
     1
  8
0
  6
Continuous
 62
     7
370
    25
100
AcDbCircle
 10
-30.25
 20
52.0
 30
0.0
 40
1.0
100
AcDbArc
 50
270.0
 51
0.0
  0
ARC
  5
265
330
23
100
AcDbEntity
 67
     1
  8
0
  6
Continuous
 62
     7
370
    25
100
AcDbCircle
 10
-71.25
 20
52.0
 30
0.0
 40
1.000000000000028
100
AcDbArc
 50
180.0
 51
270.0
  0
ARC
  5
266
330
23
100
AcDbEntity
 67
     1
  8
0
  6
Continuous
 62
     7
370
    25
100
AcDbCircle
 10
-30.25
 20
54.5
 30
0.0
 40
0.9999999999999929
100
AcDbArc
 50
0.0
 51
90.0
  0
ARC
  5
267
330
23
100
AcDbEntity
 67
     1
  8
0
  6
Continuous
 62
     7
370
    25
100
AcDbCircle
 10
-71.25
 20
54.5
 30
0.0
 40
1.000000000000028
100
AcDbArc
 50
90.0
 51
180.0
  0
ARC
  5
268
330
23
100
AcDbEntity
 67
     1
  8
0
  6
Continuous
 62
     7
370
    25
100
AcDbCircle
 10
-79.25
 20
-2.5
 30
0.0
 40
2.000000000000014
100
AcDbArc
 50
0.0
 51
90.0
  0
ARC
  5
269
330
23
100
AcDbEntity
 67
     1
  8
0
  6
Continuous
 62
     7
370
    25
100
AcDbCircle
 10
-25.25
 20
-2.5
 30
0.0
 40
2.000000000000007
100
AcDbArc
 50
90.0
 51
180.0
  0
ARC
  5
26A
330
23
100
AcDbEntity
 67
     1
  8
0
  6
Continuous
 62
     7
370
    25
100
AcDbCircle
 10
-29.25
 20
-3.5
 30
0.0
 40
2.000000000000011
100
AcDbArc
 50
270.0
 51
0.0
  0
ARC
  5
26B
330
23
100
AcDbEntity
 67
     1
  8
0
  6
Continuous
 62
     7
370
    25
100
AcDbCircle
 10
-75.25
 20
-3.5
 30
0.0
 40
2.000000000000014
100
AcDbArc
 50
180.0
 51
270.0
  0
ARC
  5
26C
330
23
100
AcDbEntity
 67
     1
  8
0
  6
Continuous
 62
     7
370
    25
100
AcDbCircle
 10
-39.575
 20
181.5
 30
0.0
 40
1.000000000000028
100
AcDbArc
 50
0.0
 51
90.0
  0
ARC
  5
26D
330
23
100
AcDbEntity
 67
     1
  8
0
  6
Continuous
 62
     7
370
    25
100
AcDbCircle
 10
-54.075
 20
181.5
 30
0.0
 40
1.000000000000007
100
AcDbArc
 50
90.0
 51
180.0
  0
ARC
  5
26E
330
23
100
AcDbEntity
 67
     1
  8
0
  6
Continuous
 62
     7
370
    25
100
AcDbCircle
 10
-85.075
 20
64.8289954988
 30
0.0
 40
30.9999999999997
100
AcDbArc
 50
343.5778125017
 51
0.0
  0
ARC
  5
26F
330
23
100
AcDbEntity
 67
     1
  8
0
  6
Continuous
 62
     7
370
    25
100
AcDbCircle
 10
-85.075
 20
64.8289954988
 30
0.0
 40
29.99999999999954
100
AcDbArc
 50
343.5778125017
 51
0.0
  0
VIEWPORT
  5
272
330
23
100
AcDbEntity
 67
     1
  8
0
100
AcDbViewport
 10
0.0
 20
0.0
 30
0.0
 40
205.6
 41
156.0
 68
     1
 69
     1
 12
-83.0
 22
-51.5
 13
0.0
 23
0.0
 14
10.0
 24
10.0
 15
10.0
 25
10.0
 16
0.0
 26
0.0
 36
1.0
 17
0.0
 27
0.0
 37
0.0
 42
50.0
 43
0.0
 44
0.0
 45
181.0996108949
 50
0.0
 51
0.0
 72
   100
 90
   557152
  1

281
     0
 71
     1
 74
     0
110
0.0
120
0.0
130
0.0
111
1.0
121
0.0
131
0.0
112
0.0
122
1.0
132
0.0
 79
     0
146
0.0
  0
ENDSEC
  0
SECTION
  2
OBJECTS
  0
DICTIONARY
  5
C
330
0
100
AcDbDictionary
281
     1
  3
ACAD_GROUP
350
D
  3
ACAD_LAYOUT
350
1A
  3
ACAD_MLINESTYLE
350
17
  3
ACAD_PLOTSETTINGS
350
19
  3
ACAD_PLOTSTYLENAME
350
E
  3
ACAD_SCALELIST
350
47
  0
DICTIONARY
  5
D
102
{ACAD_REACTORS
330
C
102
}
330
C
100
AcDbDictionary
281
     1
  0
DICTIONARY
  5
1A
102
{ACAD_REACTORS
330
C
102
}
330
C
100
AcDbDictionary
281
     1
  3
_Front
350
1E
  3
_Left
350
26
  3
Model
350
22
  0
DICTIONARY
  5
17
102
{ACAD_REACTORS
330
C
102
}
330
C
100
AcDbDictionary
281
     1
  3
Standard
350
18
  0
DICTIONARY
  5
19
102
{ACAD_REACTORS
330
C
102
}
330
C
100
AcDbDictionary
281
     1
  0
ACDBDICTIONARYWDFLT
  5
E
102
{ACAD_REACTORS
330
C
102
}
330
C
100
AcDbDictionary
281
     1
  3
Normal
350
F
100
AcDbDictionaryWithDefault
340
F
  0
DICTIONARY
  5
47
102
{ACAD_REACTORS
330
C
102
}
330
C
100
AcDbDictionary
281
     1
  3
A0
350
48
  3
A1
350
49
  3
A2
350
4A
  3
A3
350
4B
  3
A4
350
4C
  3
A5
350
4D
  3
A6
350
4E
  3
A7
350
4F
  3
A8
350
50
  3
A9
350
51
  3
B0
350
52
  3
B1
350
53
  3
B2
350
54
  3
B3
350
55
  3
B4
350
56
  3
B5
350
57
  3
B6
350
58
  3
B7
350
59
  3
B8
350
5A
  3
B9
350
5B
  3
C0
350
5C
  3
C1
350
5D
  3
C2
350
5E
  3
C3
350
5F
  3
C4
350
60
  3
C5
350
61
  3
C6
350
62
  3
C7
350
63
  3
C8
350
64
  3
C9
350
65
  3
D0
350
66
  3
D1
350
67
  3
D2
350
68
  0
LAYOUT
  5
1E
102
{ACAD_REACTORS
330
1A
102
}
330
1A
100
AcDbPlotSettings
  1

  2
none_device
  4
ISO_A4_(210.00_x_297.00_MM)
  6

 40
7.5
 41
20.0
 42
7.5
 43
20.0
 44
210.0
 45
297.0
 46
0.0
 47
0.0
 48
0.0
 49
0.0
140
0.0
141
0.0
142
1.0
143
1.0102564103
 70
   688
 72
     1
 73
     1
 74
     1
  7

 75
     0
147
0.9898477157
148
34.0
149
14.5
100
AcDbLayout
  1
_Front
 70
     1
 71
     1
 10
-54.2051282051
 20
-22.0769230769
 11
245.841025641
 21
190.0769230769
 12
0.0
 22
0.0
 32
0.0
 14
1.0000000000E+20
 24
1.0000000000E+20
 34
1.0000000000E+20
 15
-1.0000000000E+20
 25
-1.0000000000E+20
 35
-1.0000000000E+20
146
0.0
 13
0.0
 23
0.0
 33
0.0
 16
1.0
 26
0.0
 36
0.0
 17
0.0
 27
1.0
 37
0.0
 76
     0
330
1B
331
270
  0
LAYOUT
  5
26
102
{ACAD_REACTORS
330
1A
102
}
330
1A
100
AcDbPlotSettings
  1

  2
none_device
  4
ANSI_A_(11.00_x_8.50_Inches)
  6

 40
6.35
 41
19.05
 42
6.35000508
 43
19.05000254
 44
279.4
 45
215.9
 46
231.4623820754
 47
149.7769602685
 48
0.0
 49
0.0
140
0.0
141
0.0
142
0.0465384615
143
1.0
 70
  1696
 72
     0
 73
     0
 74
     1
  7

 75
     0
147
0.044871794
148
5080.0
149
2616.2
100
AcDbLayout
  1
_Left
 70
     1
 71
     2
 10
0.0
 20
0.0
 11
0.0
 21
0.0
 12
0.0
 22
0.0
 32
0.0
 14
-200.0
 24
-103.0
 34
0.0
 15
34.0
 25
0.0
 35
0.0
146
0.0
 13
0.0
 23
0.0
 33
0.0
 16
1.0
 26
0.0
 36
0.0
 17
0.0
 27
1.0
 37
0.0
 76
     0
330
23
331
272
  0
LAYOUT
  5
22
102
{ACAD_REACTORS
330
1A
102
}
330
1A
100
AcDbPlotSettings
  1

  2
none_device
  4
Letter_(8.50_x_11.00_Inches)
  6

 40
6.35
 41
6.35
 42
6.35000508
 43
6.35000508
 44
215.9
 45
279.4
 46
0.0
 47
0.0
 48
0.0
 49
0.0
140
0.0
141
0.0
142
1.0
143
1.0
 70
  1712
 72
     1
 73
     0
 74
     0
  7

 75
     0
147
1.0
148
0.0
149
0.0
100
AcDbLayout
  1
Model
 70
     1
 71
     0
 10
0.0
 20
0.0
 11
420.0
 21
297.0
 12
0.0
 22
0.0
 32
0.0
 14
-200.0
 24
-103.0
 34
0.0
 15
34.0
 25
0.0
 35
0.0
146
0.0
 13
0.0
 23
0.0
 33
0.0
 16
1.0
 26
0.0
 36
0.0
 17
0.0
 27
1.0
 37
0.0
 76
     0
330
1F
331
29
  0
MLINESTYLE
  5
18
102
{ACAD_REACTORS
330
17
102
}
330
17
100
AcDbMlineStyle
  2
Standard
 70
     0
  3

 62
   256
 51
90.0
 52
90.0
 71
     2
 49
0.5
 62
   256
  6
BYLAYER
 49
-0.5
 62
   256
  6
BYLAYER
  0
ACDBPLACEHOLDER
  5
F
102
{ACAD_REACTORS
330
E
102
}
330
E
  0
SCALE
  5
48
102
{ACAD_REACTORS
330
47
102
}
330
47
100
AcDbScale
 70
     0
300
1:1
140
1.0
141
1.0
290
     1
  0
SCALE
  5
49
102
{ACAD_REACTORS
330
47
102
}
330
47
100
AcDbScale
 70
     0
300
1:2
140
1.0
141
2.0
290
     0
  0
SCALE
  5
4A
102
{ACAD_REACTORS
330
47
102
}
330
47
100
AcDbScale
 70
     0
300
1:4
140
1.0
141
4.0
290
     0
  0
SCALE
  5
4B
102
{ACAD_REACTORS
330
47
102
}
330
47
100
AcDbScale
 70
     0
300
1:5
140
1.0
141
5.0
290
     0
  0
SCALE
  5
4C
102
{ACAD_REACTORS
330
47
102
}
330
47
100
AcDbScale
 70
     0
300
1:8
140
1.0
141
8.0
290
     0
  0
SCALE
  5
4D
102
{ACAD_REACTORS
330
47
102
}
330
47
100
AcDbScale
 70
     0
300
1:10
140
1.0
141
10.0
290
     0
  0
SCALE
  5
4E
102
{ACAD_REACTORS
330
47
102
}
330
47
100
AcDbScale
 70
     0
300
1:16
140
1.0
141
16.0
290
     0
  0
SCALE
  5
4F
102
{ACAD_REACTORS
330
47
102
}
330
47
100
AcDbScale
 70
     0
300
1:20
140
1.0
141
20.0
290
     0
  0
SCALE
  5
50
102
{ACAD_REACTORS
330
47
102
}
330
47
100
AcDbScale
 70
     0
300
1:30
140
1.0
141
30.0
290
     0
  0
SCALE
  5
51
102
{ACAD_REACTORS
330
47
102
}
330
47
100
AcDbScale
 70
     0
300
1:40
140
1.0
141
40.0
290
     0
  0
SCALE
  5
52
102
{ACAD_REACTORS
330
47
102
}
330
47
100
AcDbScale
 70
     0
300
1:50
140
1.0
141
50.0
290
     0
  0
SCALE
  5
53
102
{ACAD_REACTORS
330
47
102
}
330
47
100
AcDbScale
 70
     0
300
1:100
140
1.0
141
100.0
290
     0
  0
SCALE
  5
54
102
{ACAD_REACTORS
330
47
102
}
330
47
100
AcDbScale
 70
     0
300
2:1
140
2.0
141
1.0
290
     0
  0
SCALE
  5
55
102
{ACAD_REACTORS
330
47
102
}
330
47
100
AcDbScale
 70
     0
300
4:1
140
4.0
141
1.0
290
     0
  0
SCALE
  5
56
102
{ACAD_REACTORS
330
47
102
}
330
47
100
AcDbScale
 70
     0
300
8:1
140
8.0
141
1.0
290
     0
  0
SCALE
  5
57
102
{ACAD_REACTORS
330
47
102
}
330
47
100
AcDbScale
 70
     0
300
10:1
140
10.0
141
1.0
290
     0
  0
SCALE
  5
58
102
{ACAD_REACTORS
330
47
102
}
330
47
100
AcDbScale
 70
     0
300
100:1
140
100.0
141
1.0
290
     0
  0
SCALE
  5
59
102
{ACAD_REACTORS
330
47
102
}
330
47
100
AcDbScale
 70
     0
300
1/128" = 1'-0"
140
0.0078125
141
12.0
290
     0
  0
SCALE
  5
5A
102
{ACAD_REACTORS
330
47
102
}
330
47
100
AcDbScale
 70
     0
300
1/64" = 1'-0"
140
0.015625
141
12.0
290
     0
  0
SCALE
  5
5B
102
{ACAD_REACTORS
330
47
102
}
330
47
100
AcDbScale
 70
     0
300
1/32" = 1'-0"
140
0.03125
141
12.0
290
     0
  0
SCALE
  5
5C
102
{ACAD_REACTORS
330
47
102
}
330
47
100
AcDbScale
 70
     0
300
1/16" = 1'-0"
140
0.0625
141
12.0
290
     0
  0
SCALE
  5
5D
102
{ACAD_REACTORS
330
47
102
}
330
47
100
AcDbScale
 70
     0
300
3/32" = 1'-0"
140
0.09375
141
12.0
290
     0
  0
SCALE
  5
5E
102
{ACAD_REACTORS
330
47
102
}
330
47
100
AcDbScale
 70
     0
300
1/8" = 1'-0"
140
0.125
141
12.0
290
     0
  0
SCALE
  5
5F
102
{ACAD_REACTORS
330
47
102
}
330
47
100
AcDbScale
 70
     0
300
3/16" = 1'-0"
140
0.1875
141
12.0
290
     0
  0
SCALE
  5
60
102
{ACAD_REACTORS
330
47
102
}
330
47
100
AcDbScale
 70
     0
300
1/4" = 1'-0"
140
0.25
141
12.0
290
     0
  0
SCALE
  5
61
102
{ACAD_REACTORS
330
47
102
}
330
47
100
AcDbScale
 70
     0
300
3/8" = 1'-0"
140
0.375
141
12.0
290
     0
  0
SCALE
  5
62
102
{ACAD_REACTORS
330
47
102
}
330
47
100
AcDbScale
 70
     0
300
1/2" = 1'-0"
140
0.5
141
12.0
290
     0
  0
SCALE
  5
63
102
{ACAD_REACTORS
330
47
102
}
330
47
100
AcDbScale
 70
     0
300
3/4" = 1'-0"
140
0.75
141
12.0
290
     0
  0
SCALE
  5
64
102
{ACAD_REACTORS
330
47
102
}
330
47
100
AcDbScale
 70
     0
300
1" = 1'-0"
140
1.0
141
12.0
290
     0
  0
SCALE
  5
65
102
{ACAD_REACTORS
330
47
102
}
330
47
100
AcDbScale
 70
     0
300
1-1/2" = 1'-0"
140
1.5
141
12.0
290
     0
  0
SCALE
  5
66
102
{ACAD_REACTORS
330
47
102
}
330
47
100
AcDbScale
 70
     0
300
3" = 1'-0"
140
3.0
141
12.0
290
     0
  0
SCALE
  5
67
102
{ACAD_REACTORS
330
47
102
}
330
47
100
AcDbScale
 70
     0
300
6" = 1'-0"
140
6.0
141
12.0
290
     0
  0
SCALE
  5
68
102
{ACAD_REACTORS
330
47
102
}
330
47
100
AcDbScale
 70
     0
300
1'-0" = 1'-0"
140
12.0
141
12.0
290
     0
  0
ENDSEC
  0
EOF
