  0
SECTION
  2
HEADER
  9
$ACADVER
  1
AC1015
  9
$ACADMAINTVER
 70
     6
  9
$DWGCODEPAGE
  3
ANSI_1252
  9
$INSBASE
 10
0.0
 20
0.0
 30
0.0
  9
$EXTMIN
 10
-850.0
 20
-350.0
 30
0.0
  9
$EXTMAX
 10
850.0
 20
350.0
 30
0.0
  9
$LIMMIN
 10
0.0
 20
0.0
  9
$LIMMAX
 10
420.0
 20
297.0
  9
$ORTHOMODE
 70
     0
  9
$REGENMODE
 70
     1
  9
$FILLMODE
 70
     1
  9
$QTEXTMODE
 70
     0
  9
$MIRRTEXT
 70
     1
  9
$LTSCALE
 40
1.0
  9
$ATTMODE
 70
     1
  9
$TEXTSIZE
 40
3.5
  9
$TRACEWID
 40
1.0
  9
$TEXTSTYLE
  7
Standard
  9
$CLAYER
  8
0
  9
$CELTYPE
  6
ByLayer
  9
$CECOLOR
 62
   256
  9
$CELTSCALE
 40
1.0
  9
$DISPSILH
 70
     0
  9
$DIMSCALE
 40
1.0
  9
$DIMASZ
 40
3.302
  9
$DIMEXO
 40
1.0
  9
$DIMDLI
 40
3.75
  9
$DIMRND
 40
0.0
  9
$DIMDLE
 40
0.0
  9
$DIMEXE
 40
1.0
  9
$DIMTP
 40
0.0
  9
$DIMTM
 40
0.0
  9
$DIMTXT
 40
3.5
  9
$DIMCEN
 40
2.5
  9
$DIMTSZ
 40
0.0
  9
$DIMTOL
 70
     0
  9
$DIMLIM
 70
     0
  9
$DIMTIH
 70
     1
  9
$DIMTOH
 70
     1
  9
$DIMSE1
 70
     0
  9
$DIMSE2
 70
     0
  9
$DIMTAD
 70
     1
  9
$DIMZIN
 70
     1
  9
$DIMBLK
  1

  9
$DIMASO
 70
     1
  9
$DIMSHO
 70
     1
  9
$DIMPOST
  1

  9
$DIMAPOST
  1

  9
$DIMALT
 70
     0
  9
$DIMALTD
 70
     3
  9
$DIMALTF
 40
0.0393700787
  9
$DIMLFAC
 40
1.0
  9
$DIMTOFL
 70
     1
  9
$DIMTVP
 40
0.0
  9
$DIMTIX
 70
     0
  9
$DIMSOXD
 70
     0
  9
$DIMSAH
 70
     0
  9
$DIMBLK1
  1

  9
$DIMBLK2
  1

  9
$DIMSTYLE
  2
ISO-25
  9
$DIMCLRD
 70
     0
  9
$DIMCLRE
 70
     0
  9
$DIMCLRT
 70
     0
  9
$DIMTFAC
 40
1.0
  9
$DIMGAP
 40
1.524
  9
$DIMJUST
 70
     0
  9
$DIMSD1
 70
     0
  9
$DIMSD2
 70
     0
  9
$DIMTOLJ
 70
     0
  9
$DIMTZIN
 70
     1
  9
$DIMALTZ
 70
     0
  9
$DIMALTTZ
 70
     0
  9
$DIMUPT
 70
     0
  9
$DIMDEC
 70
     2
  9
$DIMTDEC
 70
     2
  9
$DIMALTU
 70
     2
  9
$DIMALTTD
 70
     3
  9
$DIMTXSTY
  7
Standard
  9
$DIMAUNIT
 70
     0
  9
$DIMADEC
 70
     2
  9
$DIMALTRND
 40
0.0
  9
$DIMAZIN
 70
     0
  9
$DIMDSEP
 70
    44
  9
$DIMATFIT
 70
     3
  9
$DIMFRAC
 70
     0
  9
$DIMLDRBLK
  1

  9
$DIMLUNIT
 70
     2
  9
$DIMLWD
 70
    -2
  9
$DIMLWE
 70
    -2
  9
$DIMTMOVE
 70
     0
  9
$LUNITS
 70
     2
  9
$LUPREC
 70
     2
  9
$SKETCHINC
 40
1.0
  9
$FILLETRAD
 40
10.0
  9
$AUNITS
 70
     0
  9
$AUPREC
 70
     2
  9
$MENU
  1
.
  9
$ELEVATION
 40
0.0
  9
$PELEVATION
 40
0.0
  9
$THICKNESS
 40
0.0
  9
$LIMCHECK
 70
     0
  9
$CHAMFERA
 40
0.0
  9
$CHAMFERB
 40
0.0
  9
$CHAMFERC
 40
0.0
  9
$CHAMFERD
 40
0.0
  9
$SKPOLY
 70
     0
  9
$TDCREATE
 40
2458719.522666783
  9
$TDUCREATE
 40
2458719.481000116
  9
$TDUPDATE
 40
2458719.522780463
  9
$TDUUPDATE
 40
2458719.481113796
  9
$TDINDWG
 40
0.0000000116
  9
$TDUSRTIMER
 40
0.0000000116
  9
$USRTIMER
 70
     1
  9
$ANGBASE
 50
0.0
  9
$ANGDIR
 70
     0
  9
$PDMODE
 70
     0
  9
$PDSIZE
 40
-1.0
  9
$PLINEWID
 40
0.0
  9
$SPLFRAME
 70
     0
  9
$SPLINETYPE
 70
     6
  9
$SPLINESEGS
 70
     8
  9
$HANDSEED
  5
170
  9
$SURFTAB1
 70
     6
  9
$SURFTAB2
 70
     6
  9
$SURFTYPE
 70
     6
  9
$SURFU
 70
     6
  9
$SURFV
 70
     6
  9
$UCSBASE
  2

  9
$UCSNAME
  2

  9
$UCSORG
 10
0.0
 20
0.0
 30
0.0
  9
$UCSXDIR
 10
1.0
 20
0.0
 30
0.0
  9
$UCSYDIR
 10
0.0
 20
1.0
 30
0.0
  9
$UCSORTHOREF
  2

  9
$UCSORTHOVIEW
 70
     0
  9
$UCSORGTOP
 10
0.0
 20
0.0
 30
0.0
  9
$UCSORGBOTTOM
 10
0.0
 20
0.0
 30
0.0
  9
$UCSORGLEFT
 10
0.0
 20
0.0
 30
0.0
  9
$UCSORGRIGHT
 10
0.0
 20
0.0
 30
0.0
  9
$UCSORGFRONT
 10
0.0
 20
0.0
 30
0.0
  9
$UCSORGBACK
 10
0.0
 20
0.0
 30
0.0
  9
$PUCSBASE
  2

  9
$PUCSNAME
  2

  9
$PUCSORG
 10
0.0
 20
0.0
 30
0.0
  9
$PUCSXDIR
 10
1.0
 20
0.0
 30
0.0
  9
$PUCSYDIR
 10
0.0
 20
1.0
 30
0.0
  9
$PUCSORTHOREF
  2

  9
$PUCSORTHOVIEW
 70
     0
  9
$PUCSORGTOP
 10
0.0
 20
0.0
 30
0.0
  9
$PUCSORGBOTTOM
 10
0.0
 20
0.0
 30
0.0
  9
$PUCSORGLEFT
 10
0.0
 20
0.0
 30
0.0
  9
$PUCSORGRIGHT
 10
0.0
 20
0.0
 30
0.0
  9
$PUCSORGFRONT
 10
0.0
 20
0.0
 30
0.0
  9
$PUCSORGBACK
 10
0.0
 20
0.0
 30
0.0
  9
$USERI1
 70
     0
  9
$USERI2
 70
     0
  9
$USERI3
 70
     0
  9
$USERI4
 70
     0
  9
$USERI5
 70
     0
  9
$USERR1
 40
0.0
  9
$USERR2
 40
0.0
  9
$USERR3
 40
0.0
  9
$USERR4
 40
0.0
  9
$USERR5
 40
0.0
  9
$WORLDVIEW
 70
     1
  9
$SHADEDGE
 70
     3
  9
$SHADEDIF
 70
    70
  9
$TILEMODE
 70
     0
  9
$MAXACTVP
 70
    64
  9
$PINSBASE
 10
0.0
 20
0.0
 30
0.0
  9
$PLIMCHECK
 70
     0
  9
$PEXTMIN
 10
-850.0
 20
-350.0
 30
0.0
  9
$PEXTMAX
 10
850.0
 20
350.0
 30
0.0
  9
$PLIMMIN
 10
0.0
 20
0.0
  9
$PLIMMAX
 10
0.0
 20
0.0
  9
$UNITMODE
 70
     0
  9
$VISRETAIN
 70
     1
  9
$PLINEGEN
 70
     0
  9
$PSLTSCALE
 70
     1
  9
$TREEDEPTH
 70
  3020
  9
$CMLSTYLE
  2
Standard
  9
$CMLJUST
 70
     0
  9
$CMLSCALE
 40
20.0
  9
$PROXYGRAPHICS
 70
     1
  9
$MEASUREMENT
 70
     1
  9
$CELWEIGHT
370
    -1
  9
$ENDCAPS
280
     0
  9
$JOINSTYLE
280
     0
  9
$LWDISPLAY
290
     1
  9
$INSUNITS
 70
     4
  9
$HYPERLINKBASE
  1

  9
$STYLESHEET
  1

  9
$XEDIT
290
     1
  9
$CEPSNTYPE
380
     0
  9
$PSTYLEMODE
290
     1
  9
$FINGERPRINTGUID
  2
{88e7190d-23cc-4bfa-88cf-9940e1eee230}
  9
$VERSIONGUID
  2
{FAEB1C32-E019-11D5-929B-00C0DF256EC4}
  9
$EXTNAMES
290
     1
  9
$PSVPSCALE
 40
0.0
  9
$OLESTARTUP
290
     0
  0
ENDSEC
  0
SECTION
  2
CLASSES
  0
CLASS
  1
ACDBDICTIONARYWDFLT
  2
AcDbDictionaryWithDefault
  3
ObjectDBX Classes
 90
        0
280
     0
281
     0
  0
CLASS
  1
VISUALSTYLE
  2
AcDbVisualStyle
  3
ObjectDBX Classes
 90
     4095
280
     0
281
     0
  0
CLASS
  1
MATERIAL
  2
AcDbMaterial
  3
ObjectDBX Classes
 90
     1153
280
     0
281
     0
  0
CLASS
  1
SCALE
  2
AcDbScale
  3
ObjectDBX Classes
 90
     1153
280
     0
281
     0
  0
CLASS
  1
TABLESTYLE
  2
AcDbTableStyle
  3
ObjectDBX Classes
 90
     4095
280
     0
281
     0
  0
CLASS
  1
MLEADERSTYLE
  2
AcDbMLeaderStyle
  3
ACDB_MLEADERSTYLE_CLASS
 90
     4095
280
     0
281
     0
  0
CLASS
  1
SUN
  2
AcDbSun
  3
SCENEOE
 90
     1153
280
     0
281
     0
  0
CLASS
  1
ACDBPLACEHOLDER
  2
AcDbPlaceHolder
  3
ObjectDBX Classes
 90
        0
280
     0
281
     0
  0
CLASS
  1
LAYOUT
  2
AcDbLayout
  3
ObjectDBX Classes
 90
        0
280
     0
281
     0
  0
ENDSEC
  0
SECTION
  2
TABLES
  0
TABLE
  2
VPORT
  5
8
330
0
100
AcDbSymbolTable
 70
     1
  0
VPORT
  5
29
330
8
100
AcDbSymbolTableRecord
100
AcDbViewportTableRecord
  2
*Active
 70
     0
 10
0.0
 20
0.0
 11
1.0
 21
1.0
 12
0.0
 22
0.0
 13
0.0
 23
0.0
 14
10.0
 24
10.0
 15
10.0
 25
10.0
 16
0.0
 26
0.0
 36
1.0
 17
0.0
 27
0.0
 37
0.0
 40
714.0
 41
2.4285714286
 42
50.0
 43
0.0
 44
0.0
 50
0.0
 51
0.0
 71
     0
 72
   100
 73
     1
 74
     3
 75
     0
 76
     0
 77
     0
 78
     0
281
     0
 65
     1
110
0.0
120
0.0
130
0.0
111
1.0
121
0.0
131
0.0
112
0.0
122
1.0
132
0.0
 79
     0
146
0.0
  0
ENDTAB
  0
TABLE
  2
LTYPE
  5
5
330
0
100
AcDbSymbolTable
 70
     6
  0
LTYPE
  5
14
330
5
100
AcDbSymbolTableRecord
100
AcDbLinetypeTableRecord
  2
ByBlock
 70
     0
  3

 72
    65
 73
     0
 40
0.0
  0
LTYPE
  5
15
330
5
100
AcDbSymbolTableRecord
100
AcDbLinetypeTableRecord
  2
ByLayer
 70
     0
  3

 72
    65
 73
     0
 40
0.0
  0
LTYPE
  5
16
330
5
100
AcDbSymbolTableRecord
100
AcDbLinetypeTableRecord
  2
Continuous
 70
     0
  3
Solid line
 72
    65
 73
     0
 40
0.0
  0
LTYPE
  5
6E
330
5
100
AcDbSymbolTableRecord
100
AcDbLinetypeTableRecord
  2
HIDDEN
 70
     0
  3
Hidden __ __ __ __ __ __ __ __ __ __ __ __ __ __
 72
    65
 73
     2
 40
1.905
 49
1.27
 74
     0
 49
-0.635
 74
     0
  0
LTYPE
  5
6F
330
5
100
AcDbSymbolTableRecord
100
AcDbLinetypeTableRecord
  2
PHANTOM
 70
     0
  3
Phantom ______  __  __  ______  __  __  ______
 72
    65
 73
     6
 40
12.7
 49
6.35
 74
     0
 49
-1.27
 74
     0
 49
1.27
 74
     0
 49
-1.27
 74
     0
 49
1.27
 74
     0
 49
-1.27
 74
     0
  0
LTYPE
  5
70
330
5
100
AcDbSymbolTableRecord
100
AcDbLinetypeTableRecord
  2
CENTER
 70
     0
  3
Center ____ _ ____ _ ____ _ ____ _ ____ _ ____
 72
    65
 73
     4
 40
10.16
 49
6.35
 74
     0
 49
-1.27
 74
     0
 49
1.27
 74
     0
 49
-1.27
 74
     0
  0
LTYPE
  5
71
330
5
100
AcDbSymbolTableRecord
100
AcDbLinetypeTableRecord
  2
CENTERX2
 70
     0
  3
Center (2x) ________  __  ________  __  _____
 72
    65
 73
     4
 40
20.32
 49
12.7
 74
     0
 49
-2.54
 74
     0
 49
2.54
 74
     0
 49
-2.54
 74
     0
  0
LTYPE
  5
72
330
5
100
AcDbSymbolTableRecord
100
AcDbLinetypeTableRecord
  2
DOT2
 70
     0
  3
Dot (.5x) ........................................
 72
    65
 73
     2
 40
0.635
 49
0.0
 74
     0
 49
-0.635
 74
     0
  0
ENDTAB
  0
TABLE
  2
LAYER
  5
2
330
0
100
AcDbSymbolTable
 70
     1
  0
LAYER
  5
10
330
2
100
AcDbSymbolTableRecord
100
AcDbLayerTableRecord
  2
0
 70
     0
 62
     7
  6
Continuous
370
    -3
390
F
  0
ENDTAB
  0
TABLE
  2
STYLE
  5
3
330
0
100
AcDbSymbolTable
 70
     1
  0
STYLE
  5
11
330
3
100
AcDbSymbolTableRecord
100
AcDbTextStyleTableRecord
  2
Standard
 70
     0
 40
0.0
 41
1.0
 50
0.0
 71
     0
 42
3.5
  3
txt
  4

  0
ENDTAB
  0
TABLE
  2
VIEW
  5
6
330
0
100
AcDbSymbolTable
 70
     0
  0
ENDTAB
  0
TABLE
  2
UCS
  5
7
330
0
100
AcDbSymbolTable
 70
     0
  0
ENDTAB
  0
TABLE
  2
APPID
  5
9
330
0
100
AcDbSymbolTable
 70
     1
  0
APPID
  5
12
330
9
100
AcDbSymbolTableRecord
100
AcDbRegAppTableRecord
  2
ACAD
 70
     0
  0
ENDTAB
  0
TABLE
  2
DIMSTYLE
  5
A
330
0
100
AcDbSymbolTable
 70
     1
100
AcDbDimStyleTable
  0
DIMSTYLE
105
27
330
A
100
AcDbSymbolTableRecord
100
AcDbDimStyleTableRecord
  2
ISO-25
 70
     0
 41
2.5
 42
0.625
 43
3.75
 44
1.25
 73
     0
 74
     0
 77
     1
 78
     8
140
2.5
141
2.5
143
0.0393700787
147
0.625
171
     3
172
     1
178
     0
271
     2
272
     2
274
     3
278
    44
283
     0
284
     8
340
11
  0
ENDTAB
  0
TABLE
  2
BLOCK_RECORD
  5
1
330
0
100
AcDbSymbolTable
 70
     1
  0
BLOCK_RECORD
  5
1F
330
1
100
AcDbSymbolTableRecord
100
AcDbBlockTableRecord
  2
*Model_Space
340
22
  0
BLOCK_RECORD
  5
23
330
1
100
AcDbSymbolTableRecord
100
AcDbBlockTableRecord
  2
*Paper_Space
340
26
  0
BLOCK_RECORD
  5
1B
330
1
100
AcDbSymbolTableRecord
100
AcDbBlockTableRecord
  2
*Paper_Space0
340
1E
  0
ENDTAB
  0
ENDSEC
  0
SECTION
  2
BLOCKS
  0
BLOCK
  5
20
330
1F
100
AcDbEntity
  8
0
100
AcDbBlockBegin
  2
*Model_Space
 70
     0
 10
0.0
 20
0.0
 30
0.0
  3
*Model_Space
  1

  0
ENDBLK
  5
21
330
1F
100
AcDbEntity
  8
0
100
AcDbBlockEnd
  0
BLOCK
  5
24
330
23
100
AcDbEntity
 67
     1
  8
0
100
AcDbBlockBegin
  2
*Paper_Space
 70
     0
 10
0.0
 20
0.0
 30
0.0
  3
*Paper_Space
  1

  0
ENDBLK
  5
25
330
23
100
AcDbEntity
 67
     1
  8
0
100
AcDbBlockEnd
  0
BLOCK
  5
1C
330
1B
100
AcDbEntity
  8
0
100
AcDbBlockBegin
  2
*Paper_Space0
 70
     0
 10
0.0
 20
0.0
 30
0.0
  3
*Paper_Space0
  1

  0
SPLINE
  5
E9
330
1B
100
AcDbEntity
  8
0
  6
Continuous
 62
     7
370
    25
100
AcDbSpline
210
0.0
220
0.0
230
1.0
 70
     8
 71
     3
 72
     9
 73
     5
 74
     0
 42
0.000000001
 43
0.00000001
 40
0.0
 40
0.0
 40
0.0
 40
0.0
 40
0.0074436850932953
 40
0.9999999999999999
 40
0.9999999999999999
 40
0.9999999999999999
 40
0.9999999999999999
 10
-778.3434706391417
 20
333.1550555957682
 30
0.0
 10
-778.3607707561465
 20
333.1591289282282
 30
0.0
 10
-780.6849041373711
 20
333.7063488077478
 30
0.0
 10
-773.5797446505447
 20
332.6053877803564
 30
0.0
 10
-766.5274737334759
 20
331.5126219601527
 30
0.0
  0
SPLINE
  5
101
330
1B
100
AcDbEntity
  8
0
  6
Continuous
 62
     7
370
    25
100
AcDbSpline
210
0.0
220
0.0
230
1.0
 70
     8
 71
     3
 72
    56
 73
    52
 74
     0
 42
0.000000001
 43
0.00000001
 40
0.0
 40
0.0
 40
0.0
 40
0.0
 40
0.0130112822848697
 40
0.0235690298180076
 40
0.0316731841426597
 40
0.0397393068126375
 40
0.0502598684851751
 40
0.0632354186755658
 40
0.0818489903098371
 40
0.0949344058712157
 40
0.1079589502633474
 40
0.12647110088909
 40
0.1377486031548245
 40
0.1442853785589709
 40
0.152676345918416
 40
0.1641436931875495
 40
0.1919436173854338
 40
0.2196034030111106
 40
0.2381446377264889
 40
0.2438756404698771
 40
0.2529295698057852
 40
0.2639505316252904
 40
0.280511532088961
 40
0.3127532131473719
 40
0.3442638705796377
 40
0.364818655717656
 40
0.3703430004296738
 40
0.3793051648434638
 40
0.3969919646083558
 40
0.4167935571506131
 40
0.4446765175546888
 40
0.4724159243383202
 40
0.4909847462951161
 40
0.4966714395917207
 40
0.5056708854646651
 40
0.5423849700083375
 40
0.5925578464976635
 40
0.6292688027256194
 40
0.6551146163746496
 40
0.6910432639194253
 40
0.7269927672232052
 40
0.7528640626957542
 40
0.7659945190092459
 40
0.7920205765221101
 40
0.8327568302755199
 40
0.867758616481046
 40
0.9019180369156721
 40
0.9464058512827873
 40
0.9837044782863138
 40
0.9917327992015152
 40
1.0
 40
1.0
 40
1.0
 40
1.0
 10
-655.431743001665
 20
30.31027719577176
 30
0.0
 10
-655.2580368912692
 20
30.50623896787067
 30
0.0
 10
-654.943380395018
 20
30.86121004210207
 30
0.0
 10
-654.5171382314821
 20
31.34320048118935
 30
0.0
 10
-654.1535699320157
 20
31.75125784864599
 30
0.0
 10
-653.7842738458985
 20
32.15889987054388
 30
0.0
 10
-653.3452922200316
 20
32.64360397861687
 30
0.0
 10
-652.7569057426026
 20
33.29526119579337
 30
0.0
 10
-652.1302310929168
 20
33.9942002115417
 30
0.0
 10
-651.4975924391467
 20
34.70010533115914
 30
0.0
 10
-650.8525732382371
 20
35.40482021025651
 30
0.0
 10
-650.2289101601624
 20
36.08650449663295
 30
0.0
 10
-649.6982109222824
 20
36.67031350515268
 30
0.0
 10
-649.3156391115912
 20
37.09425548842396
 30
0.0
 10
-648.9230969900625
 20
37.51984501091635
 30
0.0
 10
-648.2107918597521
 20
38.29164190603942
 30
0.0
 10
-647.2027955039082
 20
39.38584832324673
 30
0.0
 10
-646.0760144634537
 20
40.61078392815798
 30
0.0
 10
-645.279304273002
 20
41.47954119123862
 30
0.0
 10
-644.7562335409369
 20
42.03429152841071
 30
0.0
 10
-644.3522749634478
 20
42.4663612902382
 30
0.0
 10
-643.7775529110711
 20
43.08266159593746
 30
0.0
 10
-642.8296804927899
 20
44.09142801052835
 30
0.0
 10
-641.5520638282433
 20
45.46128671453389
 30
0.0
 10
-640.1920571920895
 20
46.91211681657195
 30
0.0
 10
-639.2579203541985
 20
47.91316628544124
 30
0.0
 10
-638.6798189689918
 20
48.5197735260951
 30
0.0
 10
-638.1496058095464
 20
49.07907487025228
 30
0.0
 10
-637.3852075981678
 20
49.89255156508848
 30
0.0
 10
-636.2947648895288
 20
51.03749543937028
 30
0.0
 10
-635.0316280272558
 20
52.36940980636556
 30
0.0
 10
-633.7792865347434
 20
53.68855969551714
 30
0.0
 10
-632.8979277522475
 20
54.61942252573501
 30
0.0
 10
-632.3274323956097
 20
55.21270465335654
 30
0.0
 10
-631.4474488543034
 20
56.13375222189412
 30
0.0
 10
-629.7876123748682
 20
57.85394739132152
 30
0.0
 10
-627.633381551554
 20
60.09614663726143
 30
0.0
 10
-625.6565727432942
 20
62.1627590931362
 30
0.0
 10
-623.9072493441545
 20
63.96857934362652
 30
0.0
 10
-622.1665084620209
 20
65.77369010276826
 30
0.0
 10
-620.41895230451
 20
67.59318311476872
 30
0.0
 10
-619.0680684560666
 20
68.99100186417648
 30
0.0
 10
-617.8851511710943
 20
70.20046424286782
 30
0.0
 10
-616.4408511892959
 20
71.70182770884057
 30
0.0
 10
-614.5963574094906
 20
73.62586169579458
 30
0.0
 10
-612.5900244463265
 20
75.70876078319246
 30
0.0
 10
-610.5088418724733
 20
77.87284793243876
 30
0.0
 10
-608.3725261505833
 20
80.08595306679015
 30
0.0
 10
-606.7027168809659
 20
81.79885560458375
 30
0.0
 10
-605.7142726938317
 20
82.83205390130814
 30
0.0
 10
-605.4133735001046
 20
83.1463811866458
 30
0.0
 10
-605.2607184272354
 20
83.30584872809594
 30
0.0
  0
SPLINE
  5
102
330
1B
100
AcDbEntity
  8
0
  6
Continuous
 62
     7
370
    25
100
AcDbSpline
210
0.0
220
0.0
230
1.0
 70
     8
 71
     3
 72
    46
 73
    42
 74
     0
 42
0.000000001
 43
0.00000001
 40
0.0
 40
0.0
 40
0.0
 40
0.0
 40
0.0067113107571123
 40
0.0301350236595343
 40
0.0951046465789337
 40
0.1512509214441487
 40
0.1994014327616598
 40
0.2396909369283413
 40
0.2481690010845773
 40
0.256913006012449
 40
0.3211626889541467
 40
0.3854022666482195
 40
0.4122707559070164
 40
0.4496283941082684
 40
0.4870065124313198
 40
0.5139000834541975
 40
0.549994647973428
 40
0.5992492476274551
 40
0.635379927558736
 40
0.644044175379774
 40
0.6495226687319534
 40
0.6673497443615246
 40
0.6939667504588591
 40
0.7207150454830255
 40
0.7397870052362142
 40
0.7568728077333665
 40
0.76556150278221
 40
0.7710591384834097
 40
0.7888853847153214
 40
0.8154871703801215
 40
0.8422234638497338
 40
0.8613138811708126
 40
0.8784316683006123
 40
0.8962172662861948
 40
0.9087413270972233
 40
0.9213269890280292
 40
0.9392161689122943
 40
0.9570326338257098
 40
0.9695528449213278
 40
0.9821291167308888
 40
1.0
 40
1.0
 40
1.0
 40
1.0
 10
-685.7390619998839
 20
83.29682400222647
 30
0.0
 10
-685.7150376658714
 20
83.16738592626311
 30
0.0
 10
-685.607163973225
 20
82.58618508148518
 30
0.0
 10
-685.2492925183844
 20
80.76714132574902
 30
0.0
 10
-684.6270978823653
 20
78.00722836051094
 30
0.0
 10
-683.7690238775812
 20
74.78995261257505
 30
0.0
 10
-682.941819251979
 20
72.05787619363602
 30
0.0
 10
-682.3315557526603
 20
70.23211770390981
 30
0.0
 10
-681.9550736855941
 20
69.16195212378557
 30
0.0
 10
-681.4135437199246
 20
67.64923549238591
 30
0.0
 10
-680.4283101814003
 20
65.08801847991133
 30
0.0
 10
-679.1926328860391
 20
62.23768026267057
 30
0.0
 10
-678.089853602571
 20
59.88838275145456
 30
0.0
 10
-677.1741859294204
 20
58.04051702438376
 30
0.0
 10
-676.2110658538222
 20
56.21188625688273
 30
0.0
 10
-675.2176633232262
 20
54.41927501849739
 30
0.0
 10
-674.0491385071765
 20
52.41147481322494
 30
0.0
 10
-672.7173066278269
 20
50.26778044789423
 30
0.0
 10
-671.6344799241004
 20
48.63218646052006
 30
0.0
 10
-671.0379358028869
 20
47.76044381524652
 30
0.0
 10
-670.6566002011753
 20
47.20892355258729
 30
0.0
 10
-670.048708515079
 20
46.34452600238423
 30
0.0
 10
-669.1607816640766
 20
45.12218805214452
 30
0.0
 10
-668.2297591260302
 20
43.88908166701053
 30
0.0
 10
-667.4024544167477
 20
42.82886234834088
 30
0.0
 10
-666.7978516516407
 20
42.07390972098182
 30
0.0
 10
-666.3720839458177
 20
41.5520341923315
 30
0.0
 10
-665.9340581569654
 20
41.02052735061229
 30
0.0
 10
-665.2366547773343
 20
40.18824632320405
 30
0.0
 10
-664.2210159275014
 20
39.0142509809214
 30
0.0
 10
-663.1594622828184
 20
37.83324719861264
 30
0.0
 10
-662.2179539169327
 20
36.81962852829393
 30
0.0
 10
-661.3894040314
 20
35.95062043339145
 30
0.0
 10
-660.6532589971338
 20
35.19782812669184
 30
0.0
 10
-659.9776307322461
 20
34.5218716361986
 30
0.0
 10
-659.2885772064494
 20
33.844973131089
 30
0.0
 10
-658.5039505233403
 20
33.09123745650267
 30
0.0
 10
-657.7093848767023
 20
32.34762443566175
 30
0.0
 10
-656.9937234684875
 20
31.69292744734528
 30
0.0
 10
-656.2653803316633
 20
31.03789329232387
 30
0.0
 10
-655.7400716491561
 20
30.57939288777531
 30
0.0
 10
-655.4317430016656
 20
30.31027719577206
 30
0.0
  0
LWPOLYLINE
  5
103
330
1B
100
AcDbEntity
  8
0
  6
Continuous
 62
     7
370
    25
100
AcDbPolyline
 90
        2
 70
   128
 43
0.0
 10
-685.7390619999
 20
83.2968240022
 10
-685.7390619999
 20
83.2968240022
  0
LWPOLYLINE
  5
104
330
1B
100
AcDbEntity
  8
0
  6
Continuous
 62
     7
370
    25
100
AcDbPolyline
 90
        2
 70
   128
 43
0.0
 10
616.8431280227
 20
58.7669064949
 10
616.8431280227
 20
58.7669064949
  0
SPLINE
  5
105
330
1B
100
AcDbEntity
  8
0
  6
Continuous
 62
     7
370
    25
100
AcDbSpline
210
0.0
220
0.0
230
1.0
 70
     8
 71
     3
 72
    44
 73
    40
 74
     0
 42
0.000000001
 43
0.00000001
 40
0.0
 40
0.0
 40
0.0
 40
0.0
 40
0.0140665342386293
 40
0.0313913694385463
 40
0.051974889617836
 40
0.0750353119378576
 40
0.0956294121273452
 40
0.1128900930768862
 40
0.1268176307524206
 40
0.153627374594991
 40
0.1905326084535248
 40
0.2271612807879067
 40
0.25363125419487
 40
0.2803284614024182
 40
0.3170898980519361
 40
0.3538810099532005
 40
0.3804116653066292
 40
0.4071348580661839
 40
0.4440653606739424
 40
0.4807570163480823
 40
0.5071871590610377
 40
0.5204702920521803
 40
0.5465585544860115
 40
0.6049479104364166
 40
0.6559920899809673
 40
0.6844339964373538
 40
0.7167909990375697
 40
0.7371806873748588
 40
0.7452801996499859
 40
0.7536098702411834
 40
0.7669039122194332
 40
0.776280344888549
 40
0.7930027692179703
 40
0.8514350595453496
 40
0.9025150487600335
 40
0.9467347244792255
 40
0.9837990334834266
 40
0.9917812000282652
 40
1.0
 40
1.0
 40
1.0
 40
1.0
 10
585.1838689180814
 20
23.0617385379798
 30
0.0
 10
585.3857339258096
 20
23.19571526247646
 30
0.0
 10
585.8362229323277
 20
23.49470240340926
 30
0.0
 10
586.5721958497245
 20
23.9948015503475
 30
0.0
 10
587.4276465216358
 20
24.5885565531197
 30
0.0
 10
588.3192422007172
 20
25.22379215443837
 30
0.0
 10
589.1560337123001
 20
25.83530133414164
 30
0.0
 10
589.860122578351
 20
26.36124145492652
 30
0.0
 10
590.6405929229744
 20
26.95475917002888
 30
0.0
 10
591.6678014497562
 20
27.75419735594548
 30
0.0
 10
592.9725173556145
 20
28.80640574256532
 30
0.0
 10
594.2486670754096
 20
29.87832695620729
 30
0.0
 10
595.3716478092031
 20
30.8547785480752
 30
0.0
 10
596.471023170112
 20
31.8385621632252
 30
0.0
 10
597.675529940505
 20
32.95363537620247
 30
0.0
 10
598.8536860541816
 20
34.08796468662059
 30
0.0
 10
599.8917762400619
 20
35.12161937660244
 30
0.0
 10
600.9080956329412
 20
36.16239273396615
 30
0.0
 10
602.0172918882491
 20
37.33680632278016
 30
0.0
 10
603.0988853338281
 20
38.52716224248262
 30
0.0
 10
603.9062850983208
 20
39.44570388138028
 30
0.0
 10
604.59096318977
 20
40.24101300286706
 30
0.0
 10
605.5927179049713
 20
41.42893718425114
 30
0.0
 10
606.9407255018248
 20
43.10026357532157
 30
0.0
 10
608.2556579796719
 20
44.82776669986333
 30
0.0
 10
609.2896593367906
 20
46.24495864450762
 30
0.0
 10
610.0211188708874
 20
47.28077572362033
 30
0.0
 10
610.5588404121278
 20
48.06432630216592
 30
0.0
 10
610.878538327407
 20
48.53744775362728
 30
0.0
 10
611.1353537630637
 20
48.92092320208089
 30
0.0
 10
611.4007171319423
 20
49.32188170804933
 30
0.0
 10
611.7359295214848
 20
49.83472894072993
 30
0.0
 10
612.4525235291972
 20
50.947083399834
 30
0.0
 10
613.486827685993
 20
52.62234123957629
 30
0.0
 10
614.6830451068388
 20
54.68548183040109
 30
0.0
 10
615.6663270706964
 20
56.47926227550112
 30
0.0
 10
616.2992378680946
 20
57.69189488953283
 30
0.0
 10
616.6734842815389
 20
58.42863329717424
 30
0.0
 10
616.7860321460587
 20
58.65305611270333
 30
0.0
 10
616.843128022702
 20
58.76690649490368
 30
0.0
  0
SPLINE
  5
106
330
1B
100
AcDbEntity
  8
0
  6
Continuous
 62
     7
370
    25
100
AcDbSpline
210
0.0
220
0.0
230
1.0
 70
     8
 71
     3
 72
    58
 73
    54
 74
     0
 42
0.000000001
 43
0.00000001
 40
0.0
 40
0.0
 40
0.0
 40
0.0
 40
0.0033083120094466
 40
0.0245070031189372
 40
0.0703568343425807
 40
0.1090615866746779
 40
0.1467596219698306
 40
0.1953377773081639
 40
0.2359488500134569
 40
0.2443495795501106
 40
0.2530247706596513
 40
0.2706382047537737
 40
0.2904502145929599
 40
0.3323772430188594
 40
0.3647666650354516
 40
0.3795748276597933
 40
0.3971876897633586
 40
0.4169891307694069
 40
0.4449299039191436
 40
0.4726649839787164
 40
0.4912652433838581
 40
0.4970306823657791
 40
0.5061322537511193
 40
0.5194143844148642
 40
0.5284211679525215
 40
0.5426218010466859
 40
0.5698242392494915
 40
0.5968200330005369
 40
0.6149472851600025
 40
0.620618116603732
 40
0.6295550173417301
 40
0.6471820945658696
 40
0.6678374461432127
 40
0.6902024992513767
 40
0.7128640756850232
 40
0.734667488181888
 40
0.7463860038025009
 40
0.7529888535991032
 40
0.7659948872386467
 40
0.7728884002236426
 40
0.7825415260192149
 40
0.8082921155802081
 40
0.8312832396540161
 40
0.8511570916035711
 40
0.8679585207997472
 40
0.8721896969790113
 40
0.8764925535820727
 40
0.9098745174510536
 40
0.9382462729936257
 40
0.9581917681806515
 40
0.9766536169974852
 40
0.988862722531679
 40
1.0
 40
1.0
 40
1.0
 40
1.0
 10
547.9839566587859
 20
81.52625595933833
 30
0.0
 10
548.0328462653003
 20
81.45134951344542
 30
0.0
 10
548.3950061026768
 20
80.89646457578414
 30
0.0
 10
549.4398423830885
 20
79.31061024455018
 30
0.0
 10
551.0004216686493
 20
76.93609147931832
 30
0.0
 10
552.7831561917235
 20
74.20419829009094
 30
0.0
 10
554.5984020806941
 20
71.43343029604569
 30
0.0
 10
556.4251934479574
 20
68.64352685012176
 30
0.0
 10
557.8160879900853
 20
66.51847829140287
 30
0.0
 10
558.6397367984646
 20
65.2733808317418
 30
0.0
 10
559.1343144421692
 20
64.52638827374271
 30
0.0
 10
559.7931622489714
 20
63.53900997748963
 30
0.0
 10
560.9071998834563
 20
61.83921820327026
 30
0.0
 10
562.2177494477112
 20
59.83958128747255
 30
0.0
 10
563.4441948018309
 20
57.96627655253692
 30
0.0
 10
564.3270841764266
 20
56.61284296443511
 30
0.0
 10
565.0408061955296
 20
55.53113726003228
 30
0.0
 10
565.9183220411094
 20
54.18055588569351
 30
0.0
 10
566.925735341874
 20
52.63496304604337
 30
0.0
 10
567.9050085709733
 20
51.12847485777947
 30
0.0
 10
568.5871648524427
 20
50.08186443422022
 30
0.0
 10
569.0172891765176
 20
49.41005905546817
 30
0.0
 10
569.3794426156305
 20
48.84743077079137
 30
0.0
 10
569.7839846066765
 20
48.22412475862989
 30
0.0
 10
570.2491092739308
 20
47.50164721655722
 30
0.0
 10
570.8829145622641
 20
46.50608588822514
 30
0.0
 10
571.7370751565714
 20
45.16870649988261
 30
0.0
 10
572.6269771703203
 20
43.77178098963638
 30
0.0
 10
573.2467979718243
 20
42.8023994350574
 30
0.0
 10
573.6375969709613
 20
42.17894213334536
 30
0.0
 10
574.0228512208337
 20
41.56814282152396
 30
0.0
 10
574.5894870466127
 20
40.68218188422401
 30
0.0
 10
575.2916875341588
 20
39.54913007868161
 30
0.0
 10
576.0463577651407
 20
38.33858323072667
 30
0.0
 10
576.8013701473177
 20
37.12247376089425
 30
0.0
 10
577.4262380191764
 20
36.11395676331367
 30
0.0
 10
577.8707764367459
 20
35.4026288702394
 30
0.0
 10
578.2093607226792
 20
34.84850561317501
 30
0.0
 10
578.4969143180147
 20
34.38388173566695
 30
0.0
 10
578.8170049440994
 20
33.8698871612586
 30
0.0
 10
579.260617174431
 20
33.13470113755945
 30
0.0
 10
579.8683112705406
 20
32.13373453201368
 30
0.0
 10
580.5649912218997
 20
30.97796988726859
 30
0.0
 10
581.1541873937713
 20
29.98832426149414
 30
0.0
 10
581.5546764927778
 20
29.32089562882215
 30
0.0
 10
581.7955915271323
 20
28.90995850589789
 30
0.0
 10
582.1955567827862
 20
28.23340288701229
 30
0.0
 10
582.8142402682787
 20
27.18450623051416
 30
0.0
 10
583.5465943736112
 20
25.92210965525021
 30
0.0
 10
584.1285809375095
 20
24.91450169790563
 30
0.0
 10
584.557677670395
 20
24.1656153460163
 30
0.0
 10
584.9043550365469
 20
23.55635000793796
 30
0.0
 10
585.093593593119
 20
23.22148449025746
 30
0.0
 10
585.1838689180813
 20
23.06173853797958
 30
0.0
  0
SPLINE
  5
107
330
1B
100
AcDbEntity
  8
0
  6
Continuous
 62
     7
370
    25
100
AcDbSpline
210
0.0
220
0.0
230
1.0
 70
     8
 71
     3
 72
    28
 73
    24
 74
     0
 42
0.000000001
 43
0.00000001
 40
0.0
 40
0.0
 40
0.0
 40
0.0
 40
0.0625
 40
0.0625
 40
0.125
 40
0.125
 40
0.1874999999999999
 40
0.1874999999999999
 40
0.2499999999999999
 40
0.2499999999999999
 40
0.4999999999999999
 40
0.4999999999999999
 40
0.5624999999999999
 40
0.5624999999999999
 40
0.6249999999999999
 40
0.6249999999999999
 40
0.7499999999999998
 40
0.7499999999999998
 40
0.8749999999999998
 40
0.8749999999999998
 40
0.9374999999999999
 40
0.9374999999999999
 40
1.0
 40
1.0
 40
1.0
 40
1.0
 10
547.9839566587859
 20
81.52625595933836
 30
0.0
 10
523.9927376205701
 20
81.78569820308566
 30
0.0
 10
499.9932261349511
 20
82.02995201353839
 30
0.0
 10
451.9849618766502
 20
82.48929272258968
 30
0.0
 10
427.9749914545334
 20
82.70440176700808
 30
0.0
 10
379.9433644556428
 20
83.10604037246763
 30
0.0
 10
355.9213575743486
 20
83.29242609108684
 30
0.0
 10
307.8748841282143
 20
83.63739596030996
 30
0.0
 10
283.8492898831782
 20
83.79600310821633
 30
0.0
 10
163.7095169912123
 20
84.52056905597428
 30
0.0
 10
67.5599857465047
 20
84.8818274079537
 30
0.0
 10
-52.67394278058056
 20
85.07074225507613
 30
0.0
 10
-76.72091733508996
 20
85.09509080288777
 30
0.0
 10
-124.8074646333635
 20
85.11725276269436
 30
0.0
 10
-148.8482159227398
 20
85.11506834419578
 30
0.0
 10
-220.9628949926474
 20
85.06817317687212
 30
0.0
 10
-269.0292556203223
 20
84.98282669895727
 30
0.0
 10
-365.1418626471706
 20
84.70139968434111
 30
0.0
 10
-413.1889806187282
 20
84.5048514087026
 30
0.0
 10
-485.2418929240072
 20
84.1224361367734
 30
0.0
 10
-509.2537397495444
 20
83.98023958346337
 30
0.0
 10
-557.2658886264262
 20
83.66584293788353
 30
0.0
 10
-581.2673574074036
 20
83.49363743646539
 30
0.0
 10
-605.2607184272355
 20
83.30584872809597
 30
0.0
  0
SPLINE
  5
108
330
1B
100
AcDbEntity
  8
0
  6
Continuous
 62
     7
370
    25
100
AcDbSpline
210
0.0
220
0.0
230
1.0
 70
     8
 71
     3
 72
    26
 73
    22
 74
     0
 42
0.000000001
 43
0.00000001
 40
0.0
 40
0.0
 40
0.0
 40
0.0
 40
0.2499999999999974
 40
0.2499999999999974
 40
0.4999999999999948
 40
0.4999999999999948
 40
0.6249999999999954
 40
0.6249999999999954
 40
0.687499999999997
 40
0.687499999999997
 40
0.7499999999999986
 40
0.7499999999999986
 40
0.8749999999999984
 40
0.8749999999999984
 40
0.9375
 40
0.9375
 40
0.9687500000000004
 40
0.9843749999999989
 40
0.9921874999999996
 40
0.9921874999999996
 40
1.0
 40
1.0
 40
1.0
 40
1.0
 10
585.1838689180807
 20
23.06173853797969
 30
0.0
 10
581.2198270938151
 20
20.44404503473432
 30
0.0
 10
577.1721237026471
 20
18.207470065737
 30
0.0
 10
568.9307471489074
 20
14.39929850744345
 30
0.0
 10
564.7368918485254
 20
12.8285315427811
 30
0.0
 10
558.3431145085084
 20
10.94158989798885
 30
0.0
 10
556.1946107904216
 20
10.39117008953727
 30
0.0
 10
552.9461828600125
 20
9.682495963827531
 30
0.0
 10
551.8584829294168
 20
9.465709961242574
 30
0.0
 10
549.6828472261784
 20
9.07260470247262
 30
0.0
 10
548.5939660950978
 20
8.896055359873644
 30
0.0
 10
545.3241698203282
 20
8.425722464276003
 30
0.0
 10
543.1399941645842
 20
8.191172271849013
 30
0.0
 10
539.8579481460868
 20
7.956523598124987
 30
0.0
 10
538.7629817081971
 20
7.897854470310661
 30
0.0
 10
537.1191070653024
 20
7.839156002248049
 30
0.0
 10
536.2968134045725
 20
7.81713481942134
 30
0.0
 10
535.3368465885584
 20
7.804282628083136
 30
0.0
 10
534.9252983499779
 20
7.801528603806757
 30
0.0
 10
534.6509030884384
 20
7.800304944402509
 30
0.0
 10
534.5127035282999
 20
7.799999999999974
 30
0.0
 10
534.3769410125087
 20
7.799999999999974
 30
0.0
  0
SPLINE
  5
109
330
1B
100
AcDbEntity
  8
0
  6
Continuous
 62
     7
370
    25
100
AcDbSpline
210
0.0
220
0.0
230
1.0
 70
    24
 71
     3
 72
    22
 73
    18
 74
     0
 42
0.000000001
 43
0.00000001
 40
0.0
 40
0.0
 40
0.0
 40
0.0
 40
0.1250000000000001
 40
0.1250000000000001
 40
0.2500000000000001
 40
0.2500000000000001
 40
0.375
 40
0.375
 40
0.4999999999999999
 40
0.4999999999999999
 40
0.7499999999999998
 40
0.7499999999999998
 40
0.8124999999999998
 40
0.8124999999999998
 40
0.8749999999999999
 40
0.8749999999999999
 40
1.0
 40
1.0
 40
1.0
 40
1.0
 10
-595.0646780119713
 20
7.800000000000002
 30
0.0
 10
-548.0623930911555
 20
7.800000000000002
 30
0.0
 10
-501.039420105447
 20
7.799999999999974
 30
0.0
 10
-406.9516494665024
 20
7.799999999999946
 30
0.0
 10
-359.8978033890769
 20
7.799999999999974
 30
0.0
 10
-265.7722275972096
 20
7.800000000000002
 30
0.0
 10
-218.7001431238382
 20
7.799999999999918
 30
0.0
 10
-124.5372756171208
 20
7.799999999999918
 30
0.0
 10
-77.44433583042203
 20
7.800000000000084
 30
0.0
 10
63.8489294652887
 20
7.800000000000113
 30
0.0
 10
158.0109133767819
 20
7.800000000000002
 30
0.0
 10
275.6716623941897
 20
7.800000000000002
 30
0.0
 10
299.2017234870193
 20
7.800000000000002
 30
0.0
 10
346.2576862094134
 20
7.800000000000002
 30
0.0
 10
369.7845989361413
 20
7.800000000000002
 30
0.0
 10
440.350501661124
 20
7.800000000000002
 30
0.0
 10
487.3739023711626
 20
7.800000000000002
 30
0.0
 10
534.3769410125095
 20
7.800000000000002
 30
0.0
  0
SPLINE
  5
10A
330
1B
100
AcDbEntity
  8
0
  6
Continuous
 62
     7
370
    25
100
AcDbSpline
210
0.0
220
0.0
230
1.0
 70
     8
 71
     3
 72
    28
 73
    24
 74
     0
 42
0.000000001
 43
0.00000001
 40
0.0
 40
0.0
 40
0.0
 40
0.0
 40
0.1250000000000023
 40
0.1250000000000023
 40
0.2500000000000047
 40
0.2500000000000047
 40
0.5000000000000087
 40
0.5000000000000087
 40
0.5625000000000079
 40
0.5625000000000079
 40
0.6250000000000071
 40
0.6250000000000071
 40
0.7500000000000033
 40
0.7500000000000033
 40
0.8749999999999997
 40
0.8749999999999997
 40
0.9374999999999978
 40
0.9374999999999978
 40
0.9687499999999987
 40
0.9843749999999993
 40
0.9921874999999998
 40
0.9921874999999998
 40
1.0
 40
1.0
 40
1.0
 40
1.0
 10
-655.4317430016655
 20
30.31027719577192
 30
0.0
 10
-653.179499614464
 20
28.35932492538123
 30
0.0
 10
-650.8817066604212
 20
26.55927127016638
 30
0.0
 10
-646.2046638741843
 20
23.22902130672341
 30
0.0
 10
-643.8253704202567
 20
21.69896950003367
 30
0.0
 10
-636.5745139292745
 20
17.4830955010635
 30
0.0
 10
-631.5908523786316
 20
15.16864746542379
 30
0.0
 10
-625.1881513813796
 20
12.84914608087945
 30
0.0
 10
-623.8968548833994
 20
12.41356391516249
 30
0.0
 10
-621.3090191381342
 20
11.60366089004461
 30
0.0
 10
-620.0124947492611
 20
11.22921174025221
 30
0.0
 10
-616.115304165984
 20
10.19500697967049
 30
0.0
 10
-613.5070355060247
 20
9.624219147524732
 30
0.0
 10
-608.2708991616513
 20
8.712004964623931
 30
0.0
 10
-605.6430297592065
 20
8.37059871088483
 30
0.0
 10
-601.6866910494142
 20
8.028585310954266
 30
0.0
 10
-600.3654535089431
 20
7.942969046506515
 30
0.0
 10
-598.3800614728583
 20
7.857246488301051
 30
0.0
 10
-597.3865007202804
 20
7.825064642557999
 30
0.0
 10
-596.2258286879035
 20
7.806267090287477
 30
0.0
 10
-595.7280718654753
 20
7.802237280261553
 30
0.0
 10
-595.3961614658987
 20
7.800446526841393
 30
0.0
 10
-595.2287203526919
 20
7.800000000000002
 30
0.0
 10
-595.0646780119715
 20
7.800000000000002
 30
0.0
  0
LWPOLYLINE
  5
10B
330
1B
100
AcDbEntity
  8
0
  6
Continuous
 62
     7
370
    25
100
AcDbPolyline
 90
        2
 70
   128
 43
0.0
 10
-595.064678012
 20
7.8
 10
-595.064678012
 20
7.8
  0
LWPOLYLINE
  5
10C
330
1B
100
AcDbEntity
  8
0
  6
Continuous
 62
     7
370
    25
100
AcDbPolyline
 90
        2
 70
   128
 43
0.0
 10
534.3769410125
 20
7.8
 10
534.3769410125
 20
7.8
  0
LINE
  5
113
330
1B
100
AcDbEntity
  8
0
  6
Continuous
 62
     7
370
    25
100
AcDbLine
 10
-736.3054365258
 20
357.8
 30
0.0
 11
-685.7390619999
 21
83.2968240022
 31
0.0
  0
LINE
  5
114
330
1B
100
AcDbEntity
  8
0
  6
Continuous
 62
     7
370
    25
100
AcDbLine
 10
616.8431280227
 20
58.7669064949
 30
0.0
 11
766.3596747752
 21
357.8
 31
0.0
  0
LINE
  5
115
330
1B
100
AcDbEntity
  8
0
  6
Continuous
 62
     7
370
    25
100
AcDbLine
 10
-562.2
 20
5.0
 30
0.0
 11
-562.2
 21
4.2
 31
0.0
  0
LINE
  5
116
330
1B
100
AcDbEntity
  8
0
  6
Continuous
 62
     7
370
    25
100
AcDbLine
 10
-477.8
 20
4.2
 30
0.0
 11
-477.8
 21
5.0
 31
0.0
  0
LINE
  5
117
330
1B
100
AcDbEntity
  8
0
  6
Continuous
 62
     7
370
    25
100
AcDbLine
 10
-850.0
 20
357.8
 30
0.0
 11
-850.0
 21
383.0
 31
0.0
  0
LINE
  5
118
330
1B
100
AcDbEntity
  8
0
  6
Continuous
 62
     7
370
    25
100
AcDbLine
 10
-820.0
 20
357.8
 30
0.0
 11
-820.0
 21
390.0
 31
0.0
  0
LINE
  5
119
330
1B
100
AcDbEntity
  8
0
  6
Continuous
 62
     7
370
    25
100
AcDbLine
 10
850.0
 20
357.8
 30
0.0
 11
-850.0
 21
357.8
 31
0.0
  0
LINE
  5
11A
330
1B
100
AcDbEntity
  8
0
  6
Continuous
 62
     7
370
    25
100
AcDbLine
 10
820.0
 20
357.8
 30
0.0
 11
820.0
 21
390.0
 31
0.0
  0
LINE
  5
11B
330
1B
100
AcDbEntity
  8
0
  6
Continuous
 62
     7
370
    25
100
AcDbLine
 10
850.0
 20
383.0
 30
0.0
 11
-850.0
 21
383.0
 31
0.0
  0
LINE
  5
11C
330
1B
100
AcDbEntity
  8
0
  6
Continuous
 62
     7
370
    25
100
AcDbLine
 10
850.0
 20
357.8
 30
0.0
 11
850.0
 21
383.0
 31
0.0
  0
LINE
  5
11D
330
1B
100
AcDbEntity
  8
0
  6
Continuous
 62
     7
370
    25
100
AcDbLine
 10
-843.0
 20
390.0
 30
0.0
 11
843.0
 21
390.0
 31
0.0
  0
LINE
  5
11E
330
1B
100
AcDbEntity
  8
0
  6
Continuous
 62
     7
370
    25
100
AcDbLine
 10
-558.0
 20
0.0
 30
0.0
 11
-482.0
 21
0.0
 31
0.0
  0
LINE
  5
11F
330
1B
100
AcDbEntity
  8
0
  6
Continuous
 62
     8
370
    25
100
AcDbLine
 10
-562.2
 20
5.0
 30
0.0
 11
-477.8
 21
5.0
 31
0.0
  0
LINE
  5
120
330
1B
100
AcDbEntity
  8
0
  6
Continuous
 62
     8
370
    25
100
AcDbLine
 10
-477.8
 20
4.2
 30
0.0
 11
-562.2
 21
4.2
 31
0.0
  0
ARC
  5
121
330
1B
100
AcDbEntity
  8
0
  6
Continuous
 62
     7
370
    25
100
AcDbCircle
 10
-565.0
 20
5.0
 30
0.0
 40
2.800000000000068
100
AcDbArc
 50
0.0
 51
90.0
  0
ARC
  5
122
330
1B
100
AcDbEntity
  8
0
  6
Continuous
 62
     7
370
    25
100
AcDbCircle
 10
-475.0
 20
5.0
 30
0.0
 40
2.800000000000011
100
AcDbArc
 50
90.0
 51
180.0
  0
ARC
  5
123
330
1B
100
AcDbEntity
  8
0
  6
Continuous
 62
     7
370
    25
100
AcDbCircle
 10
-558.0
 20
4.2
 30
0.0
 40
4.200000000000045
100
AcDbArc
 50
180.0
 51
270.0
  0
ARC
  5
124
330
1B
100
AcDbEntity
  8
0
  6
Continuous
 62
     7
370
    25
100
AcDbCircle
 10
-482.0
 20
4.2
 30
0.0
 40
4.199999999999989
100
AcDbArc
 50
270.0
 51
0.0
  0
ARC
  5
125
330
1B
100
AcDbEntity
  8
0
  6
Continuous
 62
     7
370
    25
100
AcDbCircle
 10
843.0
 20
383.0
 30
0.0
 40
7.000000000000114
100
AcDbArc
 50
0.0
 51
90.0
  0
ARC
  5
126
330
1B
100
AcDbEntity
  8
0
  6
Continuous
 62
     7
370
    25
100
AcDbCircle
 10
-843.0
 20
383.0
 30
0.0
 40
7.0
100
AcDbArc
 50
90.0
 51
180.0
  0
VIEWPORT
  5
16C
330
1B
100
AcDbEntity
  8
0
100
AcDbViewport
 10
0.0
 20
0.0
 30
0.0
 40
205.6
 41
156.0
 68
     1
 69
     1
 12
0.0
 22
0.0
 13
0.0
 23
0.0
 14
10.0
 24
10.0
 15
10.0
 25
10.0
 16
0.0
 26
0.0
 36
1.0
 17
0.0
 27
0.0
 37
0.0
 42
50.0
 43
0.0
 44
0.0
 45
1315.6809338521
 50
0.0
 51
0.0
 72
   100
 90
   557152
  1

281
     0
 71
     1
 74
     0
110
0.0
120
0.0
130
0.0
111
1.0
121
0.0
131
0.0
112
0.0
122
1.0
132
0.0
 79
     0
146
0.0
  0
ENDBLK
  5
1D
330
1B
100
AcDbEntity
  8
0
100
AcDbBlockEnd
  0
ENDSEC
  0
SECTION
  2
ENTITIES
  0
SPLINE
  5
73
330
1F
100
AcDbEntity
  8
0
  6
Continuous
 62
     7
370
    25
100
AcDbSpline
210
0.0
220
0.0
230
1.0
 70
     8
 71
     3
 72
    40
 73
    36
 74
     0
 42
0.000000001
 43
0.00000001
 40
0.0
 40
0.0
 40
0.0
 40
0.0
 40
0.0077971149337402
 40
0.0155957640473372
 40
0.0233972839152376
 40
0.0312032602005971
 40
0.039015529297324
 40
0.0468361794072775
 40
0.0546675510958768
 40
0.0625122373853712
 40
0.0937767237812893
 40
0.1250202889618307
 40
0.1562870925185843
 40
0.1875284092848398
 40
0.2188379926548997
 40
0.250038126009125
 40
0.3127481360432574
 40
0.3750219600973714
 40
0.4374984011766084
 40
0.5000077480190774
 40
0.5621957208724208
 40
0.6249858826591528
 40
0.6874783353023286
 40
0.7499775246524722
 40
0.7812504032521017
 40
0.81247489186309
 40
0.8438139104518126
 40
0.8749815005625952
 40
0.9063684535399303
 40
0.93748862947459
 40
0.950146725314798
 40
0.9627193845824845
 40
0.9752151622806214
 40
0.9876405498239801
 40
1.0
 40
1.0
 40
1.0
 40
1.0
 10
614.8753882025021
 20
-134.9999999747061
 30
0.0
 10
614.8541607467873
 20
-135.3056475233226
 30
0.0
 10
614.8117016585908
 20
-135.9170027605324
 30
0.0
 10
614.73729042576
 20
-136.834145223517
 30
0.0
 10
614.6549096614496
 20
-137.7514767130968
 30
0.0
 10
614.5637254761865
 20
-138.6690829613853
 30
0.0
 10
614.4638897156569
 20
-139.5870738385586
 30
0.0
 10
614.355311871154
 20
-140.5055910316505
 30
0.0
 10
614.237997227384
 20
-141.4248132541261
 30
0.0
 10
613.9865705908488
 20
-143.2598450187682
 30
0.0
 10
613.5474053984237
 20
-146.0048644786575
 30
0.0
 10
612.8287349160053
 20
-149.6452955338171
 30
0.0
 10
611.9776027091807
 20
-153.2601788444482
 30
0.0
 10
610.9944431684818
 20
-156.8465413210641
 30
0.0
 10
609.8817197497166
 20
-160.3929845042442
 30
0.0
 10
608.2237202659504
 20
-165.0709405424802
 30
0.0
 10
605.8337763763247
 20
-170.7810603065386
 30
0.0
 10
602.4656361647154
 20
-177.3762883662593
 30
0.0
 10
598.6165269065987
 20
-183.6513402940258
 30
0.0
 10
594.3063544415583
 20
-189.553077878608
 30
0.0
 10
589.5565342300749
 20
-195.0407247379489
 30
0.0
 10
584.411172419153
 20
-200.0547754580819
 30
0.0
 10
578.904219514954
 20
-204.5593232539398
 30
0.0
 10
574.067227857422
 20
-207.8492131136049
 30
0.0
 10
570.0721615974147
 20
-210.1884451485413
 30
0.0
 10
567.0155871567835
 20
-211.7961529929181
 30
0.0
 10
563.9112197542169
 20
-213.249733680386
 30
0.0
 10
560.7567544235989
 20
-214.5501131691046
 30
0.0
 10
557.571186440519
 20
-215.6884368742711
 30
0.0
 10
554.9895436206123
 20
-216.4721820385637
 30
0.0
 10
553.0439297765776
 20
-216.9908071414697
 30
0.0
 10
551.7376585252091
 20
-217.3106110589085
 30
0.0
 10
550.4361298058142
 20
-217.600420741226
 30
0.0
 10
549.1393390100623
 20
-217.8631777722988
 30
0.0
 10
548.2754596765558
 20
-218.0151339773646
 30
0.0
 10
547.8446691383463
 20
-218.0909099484124
 30
0.0
  0
SPLINE
  5
75
330
1F
100
AcDbEntity
  8
0
  6
Continuous
 62
     7
370
    25
100
AcDbSpline
210
0.0
220
0.0
230
1.0
 70
     8
 71
     3
 72
    39
 73
    35
 74
     0
 42
0.000000001
 43
0.00000001
 40
0.0
 40
0.0
 40
0.0
 40
0.0
 40
0.0076309397911489
 40
0.0153110934442784
 40
0.0230407400558432
 40
0.0308205637692716
 40
0.0386516623193281
 40
0.0465355540719094
 40
0.0544741835959118
 40
0.0624699258550897
 40
0.0931815870225521
 40
0.1244863331649871
 40
0.1552437787743278
 40
0.1863671243737612
 40
0.2173071400741699
 40
0.2483365039511228
 40
0.3111999772466311
 40
0.3729990388287854
 40
0.4365772869649944
 40
0.498750064124023
 40
0.5620465618607919
 40
0.6249416708687533
 40
0.687449236740222
 40
0.7506957651027902
 40
0.7818223499113501
 40
0.8132574556812943
 40
0.8443258345241467
 40
0.8756029397750194
 40
0.9065787102266358
 40
0.9378033667175564
 40
0.9533326176744708
 40
0.9688605420591195
 40
0.9844099127329917
 40
1.0
 40
1.0
 40
1.0
 40
1.0
 10
547.8446691383473
 20
218.0909099484121
 30
0.0
 10
548.129394248089
 20
218.0518160440889
 30
0.0
 10
548.7006807318647
 20
217.9733761089595
 30
0.0
 10
549.5585879773822
 20
217.8414599437531
 30
0.0
 10
550.4205152968949
 20
217.6983138293729
 30
0.0
 10
551.2862415751963
 20
217.542695011911
 30
0.0
 10
552.1557454200744
 20
217.3746487083567
 30
0.0
 10
553.0290158121692
 20
217.1939003265803
 30
0.0
 10
553.9061163746906
 20
217.000307354798
 30
0.0
 10
555.6191662052873
 20
216.5985497930566
 30
0.0
 10
558.1733300626687
 20
215.9155707774224
 30
0.0
 10
561.512970231615
 20
214.8425450600682
 30
0.0
 10
564.8155307561377
 20
213.5998841405879
 30
0.0
 10
568.0471155317073
 20
212.2023196854975
 30
0.0
 10
571.2232721799783
 20
210.6441237461331
 30
0.0
 10
575.386938239209
 20
208.350928419492
 30
0.0
 10
580.3857742425663
 20
205.112679184876
 30
0.0
 10
586.0644353369729
 20
200.6295011358291
 30
0.0
 10
591.3106489448354
 20
195.6300368009195
 30
0.0
 10
596.1375607004135
 20
190.0979114056508
 30
0.0
 10
600.452412311449
 20
184.1450559639171
 30
0.0
 10
604.2452580795781
 20
177.7931090476964
 30
0.0
 10
607.4891709115005
 20
171.1146884783907
 30
0.0
 10
609.7170194513964
 20
165.3337202423525
 30
0.0
 10
611.2132707200999
 20
160.5916508357975
 30
0.0
 10
612.1831702105551
 20
157.0157002075989
 30
0.0
 10
613.0091306961018
 20
153.3941721527009
 30
0.0
 10
613.6849274873008
 20
149.7571027627408
 30
0.0
 10
614.2141867168116
 20
146.0872763403019
 30
0.0
 10
614.5304939867567
 20
143.0188179946493
 30
0.0
 10
614.7097422610323
 20
140.5536756067012
 30
0.0
 10
614.8049305301906
 20
138.7063247647686
 30
0.0
 10
614.8644424878324
 20
136.8548284896151
 30
0.0
 10
614.8717364518562
 20
135.6188148654592
 30
0.0
 10
614.8753882025022
 20
134.999999974706
 30
0.0
  0
SPLINE
  5
76
330
1F
100
AcDbEntity
  8
0
  6
Continuous
 62
     7
370
    25
100
AcDbSpline
210
0.0
220
0.0
230
1.0
 70
     8
 71
     3
 72
    28
 73
    24
 74
     0
 42
0.000000001
 43
0.00000001
 40
0.0
 40
0.0
 40
0.0
 40
0.0
 40
0.0625
 40
0.0625
 40
0.1250000000000001
 40
0.1250000000000001
 40
0.1875000000000001
 40
0.1875000000000001
 40
0.2500000000000002
 40
0.2500000000000002
 40
0.5000000000000002
 40
0.5000000000000002
 40
0.6250000000000002
 40
0.6250000000000002
 40
0.6875000000000002
 40
0.6875000000000002
 40
0.7500000000000002
 40
0.7500000000000002
 40
0.8750000000000002
 40
0.8750000000000002
 40
0.9375000000000002
 40
0.9375000000000002
 40
1.0
 40
1.0
 40
1.0
 40
1.0
 10
-605.1212363135835
 20
218.4112011116067
 30
0.0
 10
-581.1290940936636
 20
219.9949398955153
 30
0.0
 10
-557.1290060649873
 20
221.480222080384
 30
0.0
 10
-509.119845193568
 20
224.2533562880078
 30
0.0
 10
-485.1096216628508
 20
225.5412811866176
 30
0.0
 10
-437.0778521562831
 20
227.9191429720838
 30
0.0
 10
-413.0560917631574
 20
229.0091067717222
 30
0.0
 10
-365.0143755345567
 20
230.990567012346
 30
0.0
 10
-340.9927849885772
 20
231.8821461514116
 30
0.0
 10
-220.8811571314219
 20
235.8426043505262
 30
0.0
 10
-124.7801108136366
 20
237.4216128170665
 30
0.0
 10
19.38916790365895
 20
237.3945372473602
 30
0.0
 10
67.44854540274903
 20
236.986303255581
 30
0.0
 10
139.5420480476122
 20
235.7737512806068
 30
0.0
 10
163.5739560600569
 20
235.2693965207384
 30
0.0
 10
211.6392507835152
 20
234.0606349835975
 30
0.0
 10
235.6742863325382
 20
233.3561718012904
 30
0.0
 10
307.7695145509994
 20
230.9420207320213
 30
0.0
 10
355.8128268570288
 20
228.9322776775169
 30
0.0
 10
427.8475055278663
 20
225.3173187102734
 30
0.0
 10
451.8540114788716
 20
224.0121594316554
 30
0.0
 10
499.8569235047662
 20
221.2017311556361
 30
0.0
 10
523.8546078247701
 20
219.6963783456686
 30
0.0
 10
547.844669138347
 20
218.0909099484121
 30
0.0
  0
SPLINE
  5
77
330
1F
100
AcDbEntity
  8
0
  6
Continuous
 62
     7
370
    25
100
AcDbSpline
210
0.0
220
0.0
230
1.0
 70
     8
 71
     3
 72
    51
 73
    47
 74
     0
 42
0.000000001
 43
0.00000001
 40
0.0
 40
0.0
 40
0.0
 40
0.0
 40
0.0070359648701186
 40
0.0140989226087575
 40
0.0211898634185154
 40
0.0283099913960137
 40
0.0354607264016509
 40
0.0426437054127374
 40
0.0498607833702955
 40
0.0571140335404542
 40
0.0644057474228608
 40
0.0717384064531496
 40
0.0791138400921175
 40
0.0865330362081357
 40
0.0939970637429122
 40
0.1015071296738126
 40
0.1090645797050285
 40
0.1166708986344844
 40
0.1243277103928951
 40
0.1524034098585355
 40
0.182434356270969
 40
0.2144482635121247
 40
0.2484919587160636
 40
0.2770091533747488
 40
0.3109413685800608
 40
0.3423278381751635
 40
0.3736958471004155
 40
0.4399535845255973
 40
0.4998343445910746
 40
0.5633461322881756
 40
0.6260307324786868
 40
0.6871702579757114
 40
0.7513599882046381
 40
0.7814190074768661
 40
0.8120748783581669
 40
0.8434478145295451
 40
0.8756968518056057
 40
0.8904551551388887
 40
0.9049591580383157
 40
0.9192163851897052
 40
0.9332315260608629
 40
0.9470113819643888
 40
0.9605698990538225
 40
0.97391767787983
 40
0.9870605895915913
 40
1.0
 40
1.0
 40
1.0
 40
1.0
 10
-683.5754649849881
 20
134.9999999747353
 30
0.0
 10
-683.5750821907363
 20
135.29563480482
 30
0.0
 10
-683.5743151336758
 20
135.8880386423548
 30
0.0
 10
-683.5607941580611
 20
136.778310200446
 30
0.0
 10
-683.5380300398913
 20
137.6719222326284
 30
0.0
 10
-683.5049921071021
 20
138.568914523341
 30
0.0
 10
-683.4617878360323
 20
139.469348542336
 30
0.0
 10
-683.4082357132819
 20
140.3733118706029
 30
0.0
 10
-683.3442501980737
 20
141.2809181483448
 30
0.0
 10
-683.2697408257427
 20
142.1923085282655
 30
0.0
 10
-683.1846323460335
 20
143.1076505220534
 30
0.0
 10
-683.0888940325782
 20
144.0271060810706
 30
0.0
 10
-682.982408823333
 20
144.9507740062214
 30
0.0
 10
-682.8649240229481
 20
145.8786741956105
 30
0.0
 10
-682.7362243362343
 20
146.8107985532191
 30
0.0
 10
-682.5960914991869
 20
147.7471491722655
 30
0.0
 10
-682.4443131691695
 20
148.6877400611711
 30
0.0
 10
-682.280684391032
 20
149.6326050922836
 30
0.0
 10
-681.9492306547178
 20
151.4232768828227
 30
0.0
 10
-681.3733845951964
 20
154.1268878891539
 30
0.0
 10
-680.4232340849952
 20
157.7938333004135
 30
0.0
 10
-679.2300903788982
 20
161.6526597996169
 30
0.0
 10
-677.8695996697077
 20
165.388357253352
 30
0.0
 10
-676.3042967392171
 20
169.1297732957404
 30
0.0
 10
-674.6126732171955
 20
172.6932576491132
 30
0.0
 10
-672.6908284578549
 20
176.2743511171446
 30
0.0
 10
-669.9022767296058
 20
180.9248734450679
 30
0.0
 10
-666.0793639935297
 20
186.3427295850955
 30
0.0
 10
-660.8717130910366
 20
192.3884985370196
 30
0.0
 10
-655.2245258967224
 20
197.8142326515056
 30
0.0
 10
-649.0429428728908
 20
202.7069474777798
 30
0.0
 10
-642.4110574444531
 20
207.0195193832649
 30
0.0
 10
-636.6209028994199
 20
210.060446805228
 30
0.0
 10
-631.8152750005852
 20
212.1735690512089
 30
0.0
 10
-628.2060521023025
 20
213.5723950480352
 30
0.0
 10
-624.4499355648005
 20
214.8354232463675
 30
0.0
 10
-621.2811505692858
 20
215.7379742771071
 30
0.0
 10
-618.7722200437566
 20
216.3595594394476
 30
0.0
 10
-616.987928885924
 20
216.760489462206
 30
0.0
 10
-615.2260776327861
 20
217.116862342986
 30
0.0
 10
-613.4871041706205
 20
217.4308752232135
 30
0.0
 10
-611.7710411093723
 20
217.7044243266307
 30
0.0
 10
-610.07743444201
 20
217.9384510765221
 30
0.0
 10
-608.4058751131116
 20
218.1334365560212
 30
0.0
 10
-606.7567085867549
 20
218.2938943623215
 30
0.0
 10
-605.6635507005384
 20
218.3723027830519
 30
0.0
 10
-605.121236313584
 20
218.4112011116067
 30
0.0
  0
SPLINE
  5
79
330
1F
100
AcDbEntity
  8
0
  6
Continuous
 62
     7
370
    25
100
AcDbSpline
210
0.0
220
0.0
230
1.0
 70
     8
 71
     3
 72
    51
 73
    47
 74
     0
 42
0.000000001
 43
0.00000001
 40
0.0
 40
0.0
 40
0.0
 40
0.0
 40
0.0070763251980023
 40
0.0141732701762714
 40
0.0212919051750604
 40
0.0284335750908677
 40
0.0355999029376742
 40
0.042792792656152
 40
0.0500144312886037
 40
0.0572672905544536
 40
0.064554127879944
 40
0.0718779729288543
 40
0.0792411848499925
 40
0.086644800728347
 40
0.0940898808293001
 40
0.1015776468846787
 40
0.1091094831101386
 40
0.1166869368373895
 40
0.1243117187597243
 40
0.1528906773116284
 40
0.1830912686710027
 40
0.214959312529333
 40
0.2485580224427795
 40
0.2779669841843054
 40
0.3110460068101229
 40
0.3370733702208009
 40
0.3738267835302582
 40
0.4461827758726456
 40
0.4999838345645004
 40
0.5632339194408822
 40
0.6261648216830682
 40
0.6840063229635017
 40
0.7514291837665209
 40
0.7757132204085009
 40
0.8136477622789868
 40
0.8483019620636055
 40
0.8756809628698928
 40
0.8894326113776556
 40
0.9031653769512987
 40
0.9168919628022343
 40
0.9306244377939993
 40
0.9443759220875563
 40
0.9581672098709552
 40
0.972020798874853
 40
0.9859582303410709
 40
1.0
 40
1.0
 40
1.0
 40
1.0
 10
-605.121236313582
 20
-218.4112011116069
 30
0.0
 10
-605.4179866671881
 20
-218.3917572866436
 30
0.0
 10
-606.012352078454
 20
-218.3528129791458
 30
0.0
 10
-606.9043676335519
 20
-218.2818929893276
 30
0.0
 10
-607.7983316482212
 20
-218.2015350370672
 30
0.0
 10
-608.6942354324477
 20
-218.110714762747
 30
0.0
 10
-609.5921734015637
 20
-218.0095491484254
 30
0.0
 10
-610.492256170988
 20
-217.8978671259758
 30
0.0
 10
-611.3946356097387
 20
-217.7755948125166
 30
0.0
 10
-612.2995001588466
 20
-217.6426544786774
 30
0.0
 10
-613.2070761591166
 20
-217.4989858780183
 30
0.0
 10
-614.117593790635
 20
-217.3445740712407
 30
0.0
 10
-615.0312037829003
 20
-217.1793534906897
 30
0.0
 10
-615.947937311185
 20
-217.0030740076974
 30
0.0
 10
-616.8677798625721
 20
-216.8155343493974
 30
0.0
 10
-617.790727064944
 20
-216.6165305270259
 30
0.0
 10
-618.7167905564969
 20
-216.405865121974
 30
0.0
 10
-619.6460065866232
 20
-216.1833496011202
 30
0.0
 10
-621.4304584179666
 20
-215.7344351417624
 30
0.0
 10
-624.11858889433
 20
-214.9807471064841
 30
0.0
 10
-627.7396251255836
 20
-213.7925820569388
 30
0.0
 10
-631.4998796357697
 20
-212.3648077709259
 30
0.0
 10
-635.1565122477693
 20
-210.7703507654793
 30
0.0
 10
-638.7799740489885
 20
-208.9847688092926
 30
0.0
 10
-642.0385053660341
 20
-207.1867061354109
 30
0.0
 10
-645.4775902545389
 20
-205.0863287870479
 30
0.0
 10
-650.1823153223995
 20
-201.9005579609537
 30
0.0
 10
-655.5293385457073
 20
-197.5990444828121
 30
0.0
 10
-661.2295525344829
 20
-192.0312320199725
 30
0.0
 10
-666.1545654068306
 20
-186.2736993877187
 30
0.0
 10
-670.5984440739812
 20
-179.9289252357355
 30
0.0
 10
-674.5275223494436
 20
-173.0536177230853
 30
0.0
 10
-677.1223631355775
 20
-167.3154043762525
 30
0.0
 10
-679.0223891286805
 20
-162.2081295781431
 30
0.0
 10
-680.2642367218774
 20
-158.3282120612152
 30
0.0
 10
-681.3280650179956
 20
-154.2618051393855
 30
0.0
 10
-681.9907568652669
 20
-151.1454527398838
 30
0.0
 10
-682.4009847303275
 20
-148.876292358356
 30
0.0
 10
-682.6737807081362
 20
-147.1657579350504
 30
0.0
 10
-682.9110437226516
 20
-145.45075512764
 30
0.0
 10
-683.1130257355179
 20
-143.7304469366793
 30
0.0
 10
-683.2800306125131
 20
-142.0036628844846
 30
0.0
 10
-683.4113603599449
 20
-140.2686718468915
 30
0.0
 10
-683.5052708142304
 20
-138.5234650162412
 30
0.0
 10
-683.564487632409
 20
-136.7660989862632
 30
0.0
 10
-683.5717967818623
 20
-135.590161388239
 30
0.0
 10
-683.575464984988
 20
-134.9999999747351
 30
0.0
  0
SPLINE
  5
7A
330
1F
100
AcDbEntity
  8
0
  6
Continuous
 62
     7
370
    25
100
AcDbSpline
210
0.0
220
0.0
230
1.0
 70
     8
 71
     3
 72
    24
 73
    20
 74
     0
 42
0.000000001
 43
0.00000001
 40
0.0
 40
0.0
 40
0.0
 40
0.0
 40
0.0624999999999999
 40
0.0624999999999999
 40
0.1249999999999998
 40
0.1249999999999998
 40
0.1874999999999996
 40
0.1874999999999996
 40
0.2499999999999995
 40
0.2499999999999995
 40
0.4999999999999994
 40
0.4999999999999994
 40
0.6249999999999994
 40
0.6249999999999994
 40
0.6874999999999996
 40
0.6874999999999996
 40
0.7499999999999996
 40
0.7499999999999996
 40
1.0
 40
1.0
 40
1.0
 40
1.0
 10
547.8446691383461
 20
-218.0909099484124
 30
0.0
 10
523.8544993084433
 20
-219.6963856062619
 30
0.0
 10
499.8561101925808
 20
-221.2017854674003
 30
0.0
 10
451.8500225809051
 20
-224.0123862743976
 30
0.0
 10
427.8411418527145
 20
-225.317664634714
 30
0.0
 10
379.8116956627183
 20
-227.7279016396895
 30
0.0
 10
355.7909105007698
 20
-228.8328553326841
 30
0.0
 10
307.7510144498953
 20
-230.842352129166
 30
0.0
 10
283.7302403465866
 20
-231.7469826829524
 30
0.0
 10
163.6222367115355
 20
-235.7689060786286
 30
0.0
 10
67.52262644966899
 20
-237.3846412401005
 30
0.0
 10
-76.64650904463578
 20
-237.4130007932899
 30
0.0
 10
-124.706177034497
 20
-237.0231525592533
 30
0.0
 10
-196.8006044337332
 20
-235.8406001739586
 30
0.0
 10
-220.8329031406256
 20
-235.3466093984829
 30
0.0
 10
-268.8991408460034
 20
-234.1597175836386
 30
0.0
 10
-292.9347098342645
 20
-233.4667628161366
 30
0.0
 10
-413.0967237786839
 20
-229.5046894600403
 30
0.0
 10
-509.1479538910506
 20
-224.7464673713104
 30
0.0
 10
-605.121236313582
 20
-218.4112011116069
 30
0.0
  0
SPLINE
  5
7B
330
1F
100
AcDbEntity
  8
0
  6
Continuous
 62
     7
370
    25
100
AcDbSpline
210
0.0
220
0.0
230
1.0
 70
     8
 71
     3
 72
     8
 73
     4
 74
     0
 42
0.000000001
 43
0.00000001
 40
0.0
 40
0.0
 40
0.0
 40
0.0
 40
1.0
 40
1.0
 40
1.0
 40
1.0
 10
637.9721754838813
 20
-270.4265952524169
 30
0.0
 10
640.4690903720679
 20
-270.3537318698923
 30
0.0
 10
642.9640552186169
 20
-270.214760334716
 30
0.0
 10
645.4545067751199
 20
-270.0091112601974
 30
0.0
  0
SPLINE
  5
7C
330
1F
100
AcDbEntity
  8
0
  6
Continuous
 62
     7
370
    25
100
AcDbSpline
210
0.0
220
0.0
230
1.0
 70
     8
 71
     3
 72
    14
 73
    10
 74
     0
 42
0.000000001
 43
0.00000001
 40
0.0
 40
0.0
 40
0.0
 40
0.0
 40
0.25
 40
0.25
 40
0.5
 40
0.5
 40
0.75
 40
0.75
 40
1.0
 40
1.0
 40
1.0
 40
1.0
 10
-605.4687978114247
 20
-270.3628414213117
 30
0.0
 10
-501.8819290723584
 20
-274.6859728572647
 30
0.0
 10
-398.2533122203479
 20
-277.942386632373
 30
0.0
 10
-190.9492786738871
 20
-282.2906280598876
 30
0.0
 10
-87.30817142522659
 20
-283.3814805958708
 30
0.0
 10
119.9521276229232
 20
-283.387993199024
 30
0.0
 10
223.5713198345163
 20
-282.3037176115178
 30
0.0
 10
430.7879630972905
 20
-277.9761399346078
 30
0.0
 10
534.384966750297
 20
-274.7333565821125
 30
0.0
 10
637.9721754838813
 20
-270.4265952524169
 30
0.0
  0
SPLINE
  5
7D
330
1F
100
AcDbEntity
  8
0
  6
Continuous
 62
     7
370
    25
100
AcDbSpline
210
0.0
220
0.0
230
1.0
 70
     8
 71
     3
 72
    55
 73
    51
 74
     0
 42
0.000000001
 43
0.00000001
 40
0.0
 40
0.0
 40
0.0
 40
0.0
 40
0.0624999999999976
 40
0.0624999999999976
 40
0.1249999999999952
 40
0.1249999999999952
 40
0.1874999999999928
 40
0.1874999999999928
 40
0.2187499999999921
 40
0.2187499999999921
 40
0.2499999999999913
 40
0.2499999999999913
 40
0.3124999999999891
 40
0.3124999999999891
 40
0.374999999999987
 40
0.374999999999987
 40
0.4374999999999848
 40
0.4374999999999848
 40
0.4531249999999844
 40
0.4531249999999844
 40
0.468749999999984
 40
0.468749999999984
 40
0.4999999999999843
 40
0.4999999999999843
 40
0.5624999999999857
 40
0.5624999999999857
 40
0.6249999999999871
 40
0.6249999999999871
 40
0.6562499999999878
 40
0.6562499999999878
 40
0.6718749999999882
 40
0.6718749999999882
 40
0.6874999999999886
 40
0.7499999999999917
 40
0.7499999999999917
 40
0.8124999999999947
 40
0.8124999999999947
 40
0.8749999999999978
 40
0.8749999999999978
 40
0.8906249999999987
 40
0.8906249999999987
 40
0.9062499999999994
 40
0.9062499999999994
 40
0.9374999999999996
 40
0.9374999999999996
 40
0.9687499999999998
 40
0.9687499999999998
 40
0.9843749999999998
 40
0.9843749999999998
 40
1.0
 40
1.0
 40
1.0
 40
1.0
 10
-735.4748450050048
 20
-134.9999999999108
 30
0.0
 10
-735.4748450050051
 20
-139.3572658169795
 30
0.0
 10
-735.2632293076839
 20
-143.6784788937431
 30
0.0
 10
-734.4375971232962
 20
-152.2523490307767
 30
0.0
 10
-733.8222831416308
 20
-156.5047850351489
 30
0.0
 10
-732.1892083441968
 20
-164.9410932582692
 30
0.0
 10
-731.1720798666795
 20
-169.1250731890473
 30
0.0
 10
-729.3395624211224
 20
-175.3487701568144
 30
0.0
 10
-728.6774527607108
 20
-177.4146009874534
 30
0.0
 10
-727.2483161447693
 20
-181.5283881516257
 30
0.0
 10
-726.4856966228651
 20
-183.5631803654205
 30
0.0
 10
-724.0628874050662
 20
-189.5863522879828
 30
0.0
 10
-722.265844385695
 20
-193.5010848277883
 30
0.0
 10
-718.3135145493859
 20
-201.1321266706753
 30
0.0
 10
-716.1592075366791
 20
-204.8489786815273
 30
0.0
 10
-711.4902587290566
 20
-212.0831013787871
 30
0.0
 10
-708.9768763738919
 20
-215.6010696598894
 30
0.0
 10
-705.6021854629159
 20
-219.8694970917298
 30
0.0
 10
-704.9161583471715
 20
-220.7158385798598
 30
0.0
 10
-703.5282059230137
 20
-222.3866292319684
 30
0.0
 10
-702.8254392785437
 20
-223.2121514067453
 30
0.0
 10
-700.6911091556136
 20
-225.659481592597
 30
0.0
 10
-699.2335624889146
 20
-227.2521060540134
 30
0.0
 10
-694.7579091281463
 20
-231.9142778830664
 30
0.0
 10
-691.6367051010874
 20
-234.8680294527911
 30
0.0
 10
-685.1239200449154
 20
-240.4718532051984
 30
0.0
 10
-681.7311525704754
 20
-243.1205928836466
 30
0.0
 10
-676.4354689823033
 20
-246.8617316438721
 30
0.0
 10
-674.635713730647
 20
-248.0699977817829
 30
0.0
 10
-671.882982616444
 20
-249.822758749497
 30
0.0
 10
-670.9564892869848
 20
-250.397085497015
 30
0.0
 10
-669.0959530467837
 20
-251.5196934480978
 30
0.0
 10
-664.4194835228299
 20
-254.2651537122037
 30
0.0
 10
-659.6187239383256
 20
-256.7086073025756
 30
0.0
 10
-651.7824948320524
 20
-260.2414725471925
 30
0.0
 10
-647.7869357050042
 20
-261.8197262856956
 30
0.0
 10
-639.6398363571365
 20
-264.5972230347668
 30
0.0
 10
-635.4883717664641
 20
-265.7966498442097
 30
0.0
 10
-630.1990315386913
 20
-267.0529253048789
 30
0.0
 10
-629.1354902079925
 20
-267.2921208757957
 30
0.0
 10
-627.0068878797674
 20
-267.7441700793783
 30
0.0
 10
-625.9408750320896
 20
-267.9572800219902
 30
0.0
 10
-622.7377015028845
 20
-268.5578667303943
 30
0.0
 10
-620.5954027412764
 20
-268.9065769398374
 30
0.0
 10
-616.2970870933713
 20
-269.5004946994221
 30
0.0
 10
-614.1410776322839
 20
-269.7457577493758
 30
0.0
 10
-610.8967337715216
 20
-270.0357182864634
 30
0.0
 10
-609.8135634115955
 20
-270.1193768361928
 30
0.0
 10
-607.6437693198693
 20
-270.2606400421229
 30
0.0
 10
-606.5570358427934
 20
-270.3174245060167
 30
0.0
 10
-605.4687978114247
 20
-270.3628414213117
 30
0.0
  0
SPLINE
  5
7F
330
1F
100
AcDbEntity
  8
0
  6
Continuous
 62
     7
370
    25
100
AcDbSpline
210
0.0
220
0.0
230
1.0
 70
     8
 71
     3
 72
    54
 73
    50
 74
     0
 42
0.000000001
 43
0.00000001
 40
0.0
 40
0.0
 40
0.0
 40
0.0
 40
0.0156249999999994
 40
0.0156249999999994
 40
0.0312499999999987
 40
0.0312499999999987
 40
0.062499999999999
 40
0.062499999999999
 40
0.1250000000000011
 40
0.1250000000000011
 40
0.1875000000000033
 40
0.1875000000000033
 40
0.2187500000000045
 40
0.2187500000000045
 40
0.2500000000000057
 40
0.2500000000000057
 40
0.3125000000000077
 40
0.3125000000000077
 40
0.3750000000000097
 40
0.3750000000000097
 40
0.4375000000000118
 40
0.4375000000000118
 40
0.4531250000000118
 40
0.4531250000000118
 40
0.4687500000000119
 40
0.4687500000000119
 40
0.5000000000000117
 40
0.5000000000000117
 40
0.6250000000000105
 40
0.6250000000000105
 40
0.6562500000000101
 40
0.6562500000000101
 40
0.6718750000000101
 40
0.6718750000000101
 40
0.68750000000001
 40
0.68750000000001
 40
0.7500000000000075
 40
0.7500000000000075
 40
0.8125000000000052
 40
0.8125000000000052
 40
0.8750000000000028
 40
0.8750000000000028
 40
0.8906250000000023
 40
0.8906250000000023
 40
0.9062500000000018
 40
0.9062500000000018
 40
0.9375000000000012
 40
0.9375000000000012
 40
1.0
 40
1.0
 40
1.0
 40
1.0
 10
-605.4687978369909
 20
270.3628414202443
 30
0.0
 10
-606.5570137553456
 20
270.3174254278198
 30
0.0
 10
-607.6428176649435
 20
270.2606780366791
 30
0.0
 10
-609.8085760788667
 20
270.1197254304176
 30
0.0
 10
-610.8887053711467
 20
270.0363377719568
 30
0.0
 10
-614.1209104357673
 20
269.7477546289913
 30
0.0
 10
-616.2648085066121
 20
269.5041629108808
 30
0.0
 10
-622.6643164651751
 20
268.6222629093148
 30
0.0
 10
-626.8877752380236
 20
267.8329958497163
 30
0.0
 10
-635.2505212777899
 20
265.8592499019532
 30
0.0
 10
-639.3896819025201
 20
264.6741763309824
 30
0.0
 10
-645.5335114789345
 20
262.591786593075
 30
0.0
 10
-647.5706166911134
 20
261.8467689966341
 30
0.0
 10
-651.622696809116
 20
260.2528253943264
 30
0.0
 10
-653.6258303929322
 20
259.4084441547686
 30
0.0
 10
-659.5472114738332
 20
256.7446668447157
 30
0.0
 10
-663.3865339248014
 20
254.7911341082608
 30
0.0
 10
-670.8527479044741
 20
250.5354325909852
 30
0.0
 10
-674.4797913859733
 20
248.2335132576976
 30
0.0
 10
-681.5201546620608
 20
243.2789163620629
 30
0.0
 10
-684.9339870136658
 20
240.6270800345346
 30
0.0
 10
-689.0626076184085
 20
237.0847028842107
 30
0.0
 10
-689.8811306571155
 20
236.3650611613527
 30
0.0
 10
-691.4955011802443
 20
234.9109862082237
 30
0.0
 10
-692.2924768353712
 20
234.1755971511949
 30
0.0
 10
-694.653064612381
 20
231.9446121610708
 30
0.0
 10
-696.1863424241895
 20
230.4242024012523
 30
0.0
 10
-703.6519034083318
 20
222.6578738389644
 30
0.0
 10
-708.9907173761758
 20
215.9264900833343
 30
0.0
 10
-714.8660993210773
 20
206.8593760112418
 30
0.0
 10
-716.0007646770044
 20
205.0128964917805
 30
0.0
 10
-717.6411681140667
 20
202.1927921056628
 30
0.0
 10
-718.178004347823
 20
201.2437541983203
 30
0.0
 10
-719.2254005699717
 20
199.3390420850763
 30
0.0
 10
-719.7366759391564
 20
198.3821759494361
 30
0.0
 10
-722.2314803053033
 20
193.5754913676126
 30
0.0
 10
-724.0300812959919
 20
189.6585347548458
 30
0.0
 10
-727.244591736273
 20
181.6856852174444
 30
0.0
 10
-728.6598768252973
 20
177.6295656171036
 30
0.0
 10
-731.1054262490721
 20
169.3775444110761
 30
0.0
 10
-732.1361146722071
 20
165.1817967683674
 30
0.0
 10
-733.176722191261
 20
159.8471653412512
 30
0.0
 10
-733.372556674113
 20
158.774798254717
 30
0.0
 10
-733.737681543614
 20
156.6291691004405
 30
0.0
 10
-733.9071351772998
 20
155.5551705612202
 30
0.0
 10
-734.3763216004577
 20
152.3296367728912
 30
0.0
 10
-734.6368749007877
 20
150.1745629001999
 30
0.0
 10
-735.2631919063731
 20
143.695310943524
 30
0.0
 10
-735.4748450043408
 20
139.3572138349654
 30
0.0
 10
-735.4748450050054
 20
134.9999999955858
 30
0.0
  0
SPLINE
  5
80
330
1F
100
AcDbEntity
  8
0
  6
Continuous
 62
     7
370
    25
100
AcDbSpline
210
0.0
220
0.0
230
1.0
 70
     8
 71
     3
 72
    18
 73
    14
 74
     0
 42
0.000000001
 43
0.00000001
 40
0.0
 40
0.0
 40
0.0
 40
0.0
 40
0.0625
 40
0.0625
 40
0.125
 40
0.125
 40
0.25
 40
0.25
 40
0.5
 40
0.5
 40
0.75
 40
0.75
 40
1.0
 40
1.0
 40
1.0
 40
1.0
 10
637.9721754838797
 20
270.426595252417
 30
0.0
 10
612.0763328147522
 20
271.5032457029494
 30
0.0
 10
586.1759231462138
 20
272.5136937477476
 30
0.0
 10
534.3732837331837
 20
274.4008235148286
 30
0.0
 10
508.4698290791472
 20
275.2775529928751
 30
0.0
 10
430.7530577783521
 20
277.707227151442
 30
0.0
 10
378.9311770044368
 20
279.059390578632
 30
0.0
 10
223.4538729220946
 20
282.3056554930416
 30
0.0
 10
119.8130361259489
 20
283.3889582885972
 30
0.0
 10
-87.44710370181329
 20
283.3805054688077
 30
0.0
 10
-191.0664061434443
 20
282.2886831255479
 30
0.0
 10
-398.2835915474008
 20
277.9412393169599
 30
0.0
 10
-501.8814783533044
 20
274.6859916679103
 30
0.0
 10
-605.4687978369911
 20
270.3628414202444
 30
0.0
  0
SPLINE
  5
81
330
1F
100
AcDbEntity
  8
0
  6
Continuous
 62
     7
370
    25
100
AcDbSpline
210
0.0
220
0.0
230
1.0
 70
     8
 71
     3
 72
     8
 73
     4
 74
     0
 42
0.000000001
 43
0.00000001
 40
0.0
 40
0.0
 40
0.0
 40
0.0
 40
1.0
 40
1.0
 40
1.0
 40
1.0
 10
645.4545067742417
 20
270.0091112602697
 30
0.0
 10
642.9640552180442
 20
270.2147603347474
 30
0.0
 10
640.4690903701502
 20
270.3537318754193
 30
0.0
 10
637.9721754838797
 20
270.426595252417
 30
0.0
  0
SPLINE
  5
82
330
1F
100
AcDbEntity
  8
0
  6
Continuous
 62
     7
370
    25
100
AcDbSpline
210
0.0
220
0.0
230
1.0
 70
     8
 71
     3
 72
    52
 73
    48
 74
     0
 42
0.000000001
 43
0.00000001
 40
0.0
 40
0.0
 40
0.0
 40
0.0
 40
0.0624999999999989
 40
0.0624999999999989
 40
0.1249999999999978
 40
0.1249999999999978
 40
0.1874999999999966
 40
0.1874999999999966
 40
0.2187499999999959
 40
0.2187499999999959
 40
0.2343749999999957
 40
0.2343749999999957
 40
0.2499999999999955
 40
0.2499999999999955
 40
0.3124999999999953
 40
0.3124999999999953
 40
0.3749999999999951
 40
0.3749999999999951
 40
0.4374999999999949
 40
0.4374999999999949
 40
0.4531249999999954
 40
0.4531249999999954
 40
0.4687499999999958
 40
0.4687499999999958
 40
0.4999999999999978
 40
0.4999999999999978
 40
0.5625000000000031
 40
0.5625000000000031
 40
0.6250000000000084
 40
0.6250000000000084
 40
0.6562500000000104
 40
0.6562500000000104
 40
0.6718750000000107
 40
0.6718750000000107
 40
0.687500000000011
 40
0.687500000000011
 40
0.7500000000000093
 40
0.7500000000000093
 40
0.8125000000000078
 40
0.8125000000000078
 40
0.8750000000000062
 40
0.8750000000000062
 40
0.9062500000000047
 40
0.9062500000000047
 40
0.9375000000000031
 40
0.9375000000000031
 40
1.0
 40
1.0
 40
1.0
 40
1.0
 10
771.7082039325005
 20
134.9999999999738
 30
0.0
 10
771.7082039325005
 20
139.2743701322479
 30
0.0
 10
771.5025549540984
 20
143.512591268366
 30
0.0
 10
770.6990879005524
 20
151.9200750846899
 30
0.0
 10
770.1000278539682
 20
156.0891170398887
 30
0.0
 10
768.5103630521701
 20
164.358347612428
 30
0.0
 10
767.520445179311
 20
168.4586577751634
 30
0.0
 10
765.738301167792
 20
174.5568433817961
 30
0.0
 10
765.0945867909355
 20
176.5808372201572
 30
0.0
 10
764.0529799225734
 20
179.6034554145043
 30
0.0
 10
763.6925714403103
 20
180.6101437350019
 30
0.0
 10
762.9494368303361
 20
182.6101108882953
 30
0.0
 10
762.5666530179385
 20
183.6036669589143
 30
0.0
 10
760.5975611988962
 20
188.5398391228771
 30
0.0
 10
758.8463671796457
 20
192.3879770736112
 30
0.0
 10
754.9995166789784
 20
199.8868236263426
 30
0.0
 10
752.9050227182043
 20
203.5382420552069
 30
0.0
 10
748.372966973168
 20
210.6444011759419
 30
0.0
 10
745.9361679776905
 20
214.0996474596798
 30
0.0
 10
742.6714573551187
 20
218.2933069025915
 30
0.0
 10
742.0074763820365
 20
219.1257070358629
 30
0.0
 10
740.657182033138
 20
220.7777055717022
 30
0.0
 10
739.9715097845644
 20
221.5966004568309
 30
0.0
 10
737.892320421865
 20
224.0214079868164
 30
0.0
 10
736.4733156914562
 20
225.5996400780894
 30
0.0
 10
732.1194699799426
 20
230.2214158412858
 30
0.0
 10
729.0871416524323
 20
233.1512355303684
 30
0.0
 10
722.7706529628688
 20
238.7173989743521
 30
0.0
 10
719.4856166020676
 20
241.3525207235885
 30
0.0
 10
714.3675765476481
 20
245.0831831319841
 30
0.0
 10
712.6298969973232
 20
246.2898186946544
 30
0.0
 10
709.975100313375
 20
248.04342817015
 30
0.0
 10
709.0820966146752
 20
248.6185402122735
 30
0.0
 10
707.2798000229024
 20
249.7497606608136
 30
0.0
 10
706.3694866076677
 20
250.3065250292078
 30
0.0
 10
701.7899592128344
 20
253.0349680128681
 30
0.0
 10
698.0534164830626
 20
255.0317722898245
 30
0.0
 10
690.4395052383139
 20
258.666041723642
 30
0.0
 10
686.5624126642681
 20
260.3043741469381
 30
0.0
 10
678.6693492480841
 20
263.2262507685043
 30
0.0
 10
674.6533038016341
 20
264.5097293860592
 30
0.0
 10
668.5239987130233
 20
266.1663688173292
 30
0.0
 10
666.4633334551289
 20
266.6737511100667
 30
0.0
 10
662.3064103344318
 20
267.5976853799037
 30
0.0
 10
660.2138005602901
 20
268.0133868668113
 30
0.0
 10
653.9241465918105
 20
269.1150952201637
 30
0.0
 10
649.7033253205262
 20
269.6582650053034
 30
0.0
 10
645.4545067742417
 20
270.0091112602698
 30
0.0
  0
SPLINE
  5
84
330
1F
100
AcDbEntity
  8
0
  6
Continuous
 62
     7
370
    25
100
AcDbSpline
210
0.0
220
0.0
230
1.0
 70
     8
 71
     3
 72
    50
 73
    46
 74
     0
 42
0.000000001
 43
0.00000001
 40
0.0
 40
0.0
 40
0.0
 40
0.0
 40
0.0625000000000008
 40
0.0625000000000008
 40
0.1250000000000016
 40
0.1250000000000016
 40
0.1875000000000023
 40
0.1875000000000023
 40
0.2187500000000026
 40
0.2187500000000026
 40
0.2343750000000018
 40
0.2343750000000018
 40
0.250000000000001
 40
0.250000000000001
 40
0.3125000000000005
 40
0.3125000000000005
 40
0.3750000000000002
 40
0.3750000000000002
 40
0.4374999999999998
 40
0.4374999999999998
 40
0.4531249999999998
 40
0.4531249999999998
 40
0.4687499999999998
 40
0.4687499999999998
 40
0.5000000000000001
 40
0.5000000000000001
 40
0.6250000000000024
 40
0.6250000000000024
 40
0.6875000000000042
 40
0.6875000000000042
 40
0.7031250000000043
 40
0.7031250000000043
 40
0.7187500000000043
 40
0.7187500000000043
 40
0.7500000000000042
 40
0.7500000000000042
 40
0.8125000000000032
 40
0.8125000000000032
 40
0.8750000000000022
 40
0.8750000000000022
 40
0.9062500000000014
 40
0.9062500000000014
 40
0.9375000000000008
 40
0.9375000000000008
 40
1.0
 40
1.0
 40
1.0
 40
1.0
 10
645.4545067751199
 20
-270.0091112601974
 30
0.0
 10
649.703835668334
 20
-269.658222863299
 30
0.0
 10
653.9050968274099
 20
-269.116648367509
 30
0.0
 10
662.2148796676703
 20
-267.6646330864858
 30
0.0
 10
666.3236054781838
 20
-266.7551465689194
 30
0.0
 10
674.4487754836318
 20
-264.5706989194791
 30
0.0
 10
678.4651843071574
 20
-263.2954112419683
 30
0.0
 10
684.418800197692
 20
-261.1008962517191
 30
0.0
 10
686.3914899710229
 20
-260.3223654677032
 30
0.0
 10
689.3324372181754
 20
-259.0828274653791
 30
0.0
 10
690.3109205797047
 20
-258.6571544976289
 30
0.0
 10
692.2556378074764
 20
-257.7843897915939
 30
0.0
 10
693.2211545979537
 20
-257.3376587363856
 30
0.0
 10
698.0147997359436
 20
-255.0526846146699
 30
0.0
 10
701.7410205409835
 20
-253.0602544369063
 30
0.0
 10
708.9811499651837
 20
-248.7542916284604
 30
0.0
 10
712.4946485550946
 20
-246.4401482361711
 30
0.0
 10
719.3084847544648
 20
-241.4894866249554
 30
0.0
 10
722.6086238857994
 20
-238.8528443833781
 30
0.0
 10
726.5958116958152
 20
-235.3482746818937
 30
0.0
 10
727.3863736336879
 20
-234.6369668792728
 30
0.0
 10
728.9535972868817
 20
-233.1933508442335
 30
0.0
 10
729.7311765162458
 20
-232.4601293935916
 30
0.0
 10
732.0317173885187
 20
-230.2392722444409
 30
0.0
 10
733.5246928215424
 20
-228.7282277908645
 30
0.0
 10
740.7897997804351
 20
-221.023371642334
 30
0.0
 10
745.9697425638068
 20
-214.3863456652207
 30
0.0
 10
752.7947335747214
 20
-203.7237908518049
 30
0.0
 10
754.9107338304324
 20
-200.0505850149203
 30
0.0
 10
757.3506962640898
 20
-195.3057085539337
 30
0.0
 10
757.8281563658691
 20
-194.3493259849509
 30
0.0
 10
758.7570691338282
 20
-192.4316517600239
 30
0.0
 10
759.209231081818
 20
-191.4690706861518
 30
0.0
 10
760.5293301511286
 20
-188.5702481991658
 30
0.0
 10
761.3609302723492
 20
-186.6229427298832
 30
0.0
 10
763.7125552410942
 20
-180.7374411845425
 30
0.0
 10
765.0890536123036
 20
-176.7555497400037
 30
0.0
 10
767.4631901952312
 20
-168.6764172609541
 30
0.0
 10
768.461178157052
 20
-164.5792854106575
 30
0.0
 10
769.6693510219865
 20
-158.3456706505185
 30
0.0
 10
770.0237985501577
 20
-156.2531029462768
 30
0.0
 10
770.6339614763338
 20
-152.0379112041044
 30
0.0
 10
770.8897647569875
 20
-149.9126428777076
 30
0.0
 10
771.5024498046191
 20
-143.5374656815782
 30
0.0
 10
771.708203931849
 20
-139.2749984068051
 30
0.0
 10
771.7082039325005
 20
-134.9999999953618
 30
0.0
  0
SPLINE
  5
85
330
1F
100
AcDbEntity
  8
0
  6
Continuous
 62
     7
370
    25
100
AcDbSpline
210
0.0
220
0.0
230
1.0
 70
    11
 71
     3
 72
   114
 73
   110
 74
     0
 42
0.000000001
 43
0.00000001
 40
0.0
 40
0.0
 40
0.0
 40
0.0
 40
0.0312499999999986
 40
0.0312499999999986
 40
0.0468749999999983
 40
0.0468749999999983
 40
0.0624999999999979
 40
0.0624999999999979
 40
0.0937499999999977
 40
0.0937499999999977
 40
0.1093749999999977
 40
0.1093749999999977
 40
0.1249999999999976
 40
0.1249999999999976
 40
0.1562499999999984
 40
0.1562499999999984
 40
0.1718749999999989
 40
0.1718749999999989
 40
0.1874999999999993
 40
0.1874999999999993
 40
0.2031249999999998
 40
0.2031249999999998
 40
0.2187500000000004
 40
0.2187500000000004
 40
0.2500000000000012
 40
0.2500000000000012
 40
0.2656250000000016
 40
0.2656250000000016
 40
0.2734375000000017
 40
0.2734375000000017
 40
0.2812500000000019
 40
0.2812500000000019
 40
0.3125000000000025
 40
0.3125000000000025
 40
0.3203125000000026
 40
0.3203125000000026
 40
0.3281250000000027
 40
0.3281250000000027
 40
0.3437500000000029
 40
0.3437500000000029
 40
0.3750000000000036
 40
0.3750000000000036
 40
0.4062500000000042
 40
0.4062500000000042
 40
0.421875000000004
 40
0.421875000000004
 40
0.4375000000000038
 40
0.4375000000000038
 40
0.4687500000000023
 40
0.4687500000000023
 40
0.4843750000000021
 40
0.4843750000000021
 40
0.5000000000000019
 40
0.5000000000000019
 40
0.5312500000000019
 40
0.5312500000000019
 40
0.546875000000002
 40
0.546875000000002
 40
0.5625000000000021
 40
0.5781250000000022
 40
0.5781250000000022
 40
0.5937500000000022
 40
0.5937500000000022
 40
0.6250000000000017
 40
0.6250000000000017
 40
0.6406250000000016
 40
0.6406250000000016
 40
0.6562500000000014
 40
0.6562500000000014
 40
0.6875000000000014
 40
0.6875000000000014
 40
0.6953125000000014
 40
0.6953125000000014
 40
0.7031250000000014
 40
0.7031250000000014
 40
0.7187500000000016
 40
0.7187500000000016
 40
0.7500000000000017
 40
0.7500000000000017
 40
0.7578125000000018
 40
0.7578125000000018
 40
0.7656250000000019
 40
0.7656250000000019
 40
0.7812500000000021
 40
0.7968750000000023
 40
0.7968750000000023
 40
0.8046875000000024
 40
0.8046875000000024
 40
0.8125000000000026
 40
0.8125000000000026
 40
0.8437500000000024
 40
0.8437500000000024
 40
0.8593750000000023
 40
0.8593750000000023
 40
0.8750000000000022
 40
0.8750000000000022
 40
0.9062500000000019
 40
0.9062500000000019
 40
0.9218750000000014
 40
0.9218750000000014
 40
0.9375000000000011
 40
0.9375000000000011
 40
0.9531250000000008
 40
0.9531250000000008
 40
0.9609375000000006
 40
0.9609375000000006
 40
0.9687500000000003
 40
0.9687500000000003
 40
1.0
 40
1.0
 40
1.0
 40
1.0
 10
-727.1052631578946
 20
26.00000000000006
 30
0.0
 10
-726.7915419618143
 20
26.00000000000006
 30
0.0
 10
-726.4829171049865
 20
25.83428412089366
 30
0.0
 10
-726.0273248456323
 20
25.34687466716317
 30
0.0
 10
-725.87669385892
 20
25.14430857677289
 30
0.0
 10
-725.5779548501323
 20
24.65713803824964
 30
0.0
 10
-725.4292358359297
 20
24.37082342524271
 30
0.0
 10
-724.9959474582666
 20
23.40424257000711
 30
0.0
 10
-724.7216621391582
 20
22.61479131658921
 30
0.0
 10
-724.3319413311605
 20
21.21454362967604
 30
0.0
 10
-724.2056772089506
 20
20.71153422998293
 30
0.0
 10
-723.9607309228197
 20
19.63004544558132
 30
0.0
 10
-723.8439515184775
 20
19.05988278841805
 30
0.0
 10
-723.5109571476537
 20
17.26743162893671
 30
0.0
 10
-723.3115656402357
 20
15.96238762644492
 30
0.0
 10
-723.0471855697635
 20
13.83581068574284
 30
0.0
 10
-722.9646011359571
 20
13.09498932148942
 30
0.0
 10
-722.8148001084131
 20
11.5870258459102
 30
0.0
 10
-722.747150387542
 20
10.81706148777544
 30
0.0
 10
-722.6260988224028
 20
9.245726771417312
 30
0.0
 10
-722.5726971928508
 20
8.444355939905517
 30
0.0
 10
-722.4803065197349
 20
6.809845214767417
 30
0.0
 10
-722.4412523733694
 20
5.974971560667407
 30
0.0
 10
-722.3470136151229
 20
3.431691263526355
 30
0.0
 10
-722.3160400275626
 20
1.729397845507206
 30
0.0
 10
-722.3156664453534
 20
-0.8338424059617043
 30
0.0
 10
-722.3232803093581
 20
-1.689901352861773
 30
0.0
 10
-722.346616328018
 20
-2.976523484967429
 30
0.0
 10
-722.3564228028398
 20
-3.407034303848607
 30
0.0
 10
-722.3798738482702
 20
-4.260916417199438
 30
0.0
 10
-722.393510642637
 20
-4.684598411432481
 30
0.0
 10
-722.4710645165643
 20
-6.787031011733571
 30
0.0
 10
-722.5628207802772
 20
-8.418310794165755
 30
0.0
 10
-722.7144782302385
 20
-10.39438344909098
 30
0.0
 10
-722.7466746810779
 20
-10.78641788589732
 30
0.0
 10
-722.8148621911548
 20
-11.56401626866999
 30
0.0
 10
-722.8508638024076
 20
-11.94951426240341
 30
0.0
 10
-722.9633411740571
 20
-13.083366614644
 30
0.0
 10
-723.0446523487418
 20
-13.81358115384223
 30
0.0
 10
-723.3070154191728
 20
-15.92939378556199
 30
0.0
 10
-723.5063196743621
 20
-17.24088033872665
 30
0.0
 10
-723.9551410840864
 20
-19.65996992644171
 30
0.0
 10
-724.1977421937175
 20
-20.72988548534929
 30
0.0
 10
-724.586615828157
 20
-22.13078557908787
 30
0.0
 10
-724.720487971695
 20
-22.56379066660818
 30
0.0
 10
-724.99687688586
 20
-23.36068285845986
 30
0.0
 10
-725.1398465995057
 20
-23.72512280068591
 30
0.0
 10
-725.5728385772167
 20
-24.69143265465748
 30
0.0
 10
-725.8695541579539
 20
-25.17624862533924
 30
0.0
 10
-726.3265326780786
 20
-25.66787448844496
 30
0.0
 10
-726.4812828504193
 20
-25.79242454305749
 30
0.0
 10
-726.7930735323284
 20
-25.95863932784502
 30
0.0
 10
-726.9484936499888
 20
-25.99968033880103
 30
0.0
 10
-727.4133738546094
 20
-26.00063375596125
 30
0.0
 10
-727.7214665861768
 20
-25.83950896933442
 30
0.0
 10
-728.1808071473628
 20
-25.350097633075
 30
0.0
 10
-728.3337788197138
 20
-25.14435918495369
 30
0.0
 10
-728.6322424286384
 20
-24.65771083444099
 30
0.0
 10
-728.9248501432032
 20
-24.09461852763949
 30
0.0
 10
-729.2059279972435
 20
-23.3810132334119
 30
0.0
 10
-729.4811670906652
 20
-22.59118764999103
 30
0.0
 10
-729.6161275218536
 20
-22.15723597604554
 30
0.0
 10
-730.0102375623085
 20
-20.74212711717479
 30
0.0
 10
-730.2521563996105
 20
-19.67315883728637
 30
0.0
 10
-730.5847224430161
 20
-17.88690834353378
 30
0.0
 10
-730.6904892619659
 20
-17.26080509268261
 30
0.0
 10
-730.8915525495823
 20
-15.9454570482157
 30
0.0
 10
-730.9870478605799
 20
-15.25379351281193
 30
0.0
 10
-731.2512682725873
 20
-13.12865941795841
 30
0.0
 10
-731.4001989920882
 20
-11.63241759013549
 30
0.0
 10
-731.5523794458934
 20
-9.66286712801173
 30
0.0
 10
-731.5811009979516
 20
-9.263949675618472
 30
0.0
 10
-731.6350525549378
 20
-8.455917606256541
 30
0.0
 10
-731.660343439581
 20
-8.045692244256333
 30
0.0
 10
-731.7303728970743
 20
-6.807841498624808
 30
0.0
 10
-731.7691545506352
 20
-5.976258607792627
 30
0.0
 10
-731.8624933882635
 20
-3.463031288098408
 30
0.0
 10
-731.8942673386583
 20
-1.763087238038981
 30
0.0
 10
-731.894847825357
 20
0.3932778435371474
 30
0.0
 10
-731.8929721428485
 20
0.8272181424680405
 30
0.0
 10
-731.8852778535947
 20
1.689299519557666
 30
0.0
 10
-731.8794695720163
 20
2.11820488422739
 30
0.0
 10
-731.8562701126427
 20
3.398633466042799
 30
0.0
 10
-731.8099663911498
 20
5.089135214117983
 30
0.0
 10
-731.7333776628037
 20
6.746662060510463
 30
0.0
 10
-731.6644163429106
 20
7.977264242785748
 30
0.0
 10
-731.6395058169617
 20
8.385370714026374
 30
0.0
 10
-731.5857669603437
 20
9.197317874892176
 30
0.0
 10
-731.5569670204804
 20
9.60052386451375
 30
0.0
 10
-731.4048147613606
 20
11.58351992689441
 30
0.0
 10
-731.2561228979534
 20
13.0826154655565
 30
0.0
 10
-730.9936858955808
 20
15.2037246504566
 30
0.0
 10
-730.8995419340043
 20
15.88968474172587
 30
0.0
 10
-730.697819356214
 20
17.21610183040983
 30
0.0
 10
-730.5918273276086
 20
17.84619901441276
 30
0.0
 10
-730.2590520096761
 20
19.64098334231554
 30
0.0
 10
-730.0176060038029
 20
20.71104426884465
 30
0.0
 10
-729.6257830403443
 20
22.12476310159528
 30
0.0
 10
-729.4899606402283
 20
22.5639666666493
 30
0.0
 10
-729.2141501995136
 20
23.35928698996418
 30
0.0
 10
-729.0734713512791
 20
23.71811695718063
 30
0.0
 10
-728.7866784603974
 20
24.3596853374195
 30
0.0
 10
-728.6405642579172
 20
24.64242151282495
 30
0.0
 10
-728.4172833067151
 20
25.00899159402375
 30
0.0
 10
-728.3421701849998
 20
25.12157583675097
 30
0.0
 10
-728.1905512175525
 20
25.32724648515446
 30
0.0
 10
-728.1138754923181
 20
25.42049870203451
 30
0.0
 10
-727.7295848399966
 20
25.83424754528297
 30
0.0
 10
-727.4189843539748
 20
26.00000000000005
 30
0.0
 10
-727.1052631578946
 20
26.00000000000006
 30
0.0
  0
SPLINE
  5
87
330
1F
100
AcDbEntity
  8
0
  6
Continuous
 62
     7
370
    25
100
AcDbSpline
210
0.0
220
0.0
230
1.0
 70
     8
 71
     3
 72
    25
 73
    21
 74
     0
 42
0.000000001
 43
0.00000001
 40
0.0
 40
0.0
 40
0.0
 40
0.0
 40
0.0039062500000001
 40
0.0058593750000001
 40
0.0058593750000001
 40
0.0078125000000001
 40
0.0078125000000001
 40
0.015625
 40
0.0312500000000001
 40
0.0625000000000001
 40
0.0625000000000001
 40
0.1250000000000002
 40
0.1250000000000002
 40
0.2500000000000002
 40
0.2500000000000002
 40
0.5000000000000002
 40
0.5000000000000002
 40
0.7500000000000002
 40
0.7500000000000002
 40
1.0
 40
1.0
 40
1.0
 40
1.0
 10
648.275162385249
 20
-299.2035892900685
 30
0.0
 10
646.6445412356633
 20
-299.3611334903405
 30
0.0
 10
644.1974171461862
 20
-299.5613146812977
 30
0.0
 10
641.7485131941069
 20
-299.7075564118552
 30
0.0
 10
640.1155160925736
 20
-299.7930964216139
 30
0.0
 10
639.2987562274515
 20
-299.8279471886271
 30
0.0
 10
635.2148717105574
 20
-299.999619267175
 30
0.0
 10
625.4134434531717
 20
-300.4084375554502
 30
0.0
 10
602.5427052483235
 20
-301.3399530896544
 30
0.0
 10
582.9379453466469
 20
-302.0999067515599
 30
0.0
 10
543.7267263322993
 20
-303.5683187948067
 30
0.0
 10
517.5836468908014
 20
-304.47856491326
 30
0.0
 10
439.1476014494438
 20
-307.0030108223002
 30
0.0
 10
386.8476366851868
 20
-308.4110037930727
 30
0.0
 10
229.9214427074447
 20
-311.8023781218693
 30
0.0
 10
125.3153783383625
 20
-312.9527151755179
 30
0.0
 10
-83.87382133466826
 20
-313.0193209943208
 30
0.0
 10
-188.4569590980196
 20
-311.9358293887239
 30
0.0
 10
-397.6004285803826
 20
-307.5467642852717
 30
0.0
 10
-502.1607655151535
 20
-304.2416989790864
 30
0.0
 10
-606.7098469005815
 20
-299.8399615797727
 30
0.0
  0
SPLINE
  5
8A
330
1F
100
AcDbEntity
  8
0
  6
Continuous
 62
     7
370
    25
100
AcDbSpline
210
0.0
220
0.0
230
1.0
 70
     8
 71
     3
 72
    26
 73
    22
 74
     0
 42
0.000000001
 43
0.00000001
 40
0.0
 40
0.0
 40
0.0
 40
0.0
 40
0.2500000000000003
 40
0.2500000000000003
 40
0.5000000000000006
 40
0.5000000000000006
 40
0.7500000000000009
 40
0.7500000000000009
 40
0.875000000000001
 40
0.875000000000001
 40
0.9375000000000009
 40
0.9375000000000009
 40
0.9687500000000009
 40
0.9687500000000009
 40
0.9843750000000009
 40
0.9921875000000008
 40
0.9921875000000008
 40
0.9941406250000006
 40
0.9941406250000006
 40
0.9960937500000003
 40
1.0
 40
1.0
 40
1.0
 40
1.0
 10
-606.7098469261975
 20
299.8399615786939
 30
0.0
 10
-502.1600110360976
 20
304.2417307444283
 30
0.0
 10
-397.5992845761845
 20
307.5467965172334
 30
0.0
 10
-188.4557756935273
 20
311.9358459994488
 30
0.0
 10
-83.87298822427908
 20
313.019321515228
 30
0.0
 10
125.3147665661998
 20
312.952714584135
 30
0.0
 10
229.9197362661423
 20
311.8023925959398
 30
0.0
 10
386.8437327752991
 20
308.4110993631605
 30
0.0
 10
439.1456918243371
 20
307.0030675920086
 30
0.0
 10
517.582595917998
 20
304.4786010840516
 30
0.0
 10
543.7259370729909
 20
303.5683473839433
 30
0.0
 10
582.9375119574802
 20
302.0999234652655
 30
0.0
 10
596.0074644017399
 20
301.5932836486118
 30
0.0
 10
615.6115372427586
 20
300.8076646191837
 30
0.0
 10
625.4133597323267
 20
300.4084410399574
 30
0.0
 10
635.2148621029614
 20
299.999619674247
 30
0.0
 10
639.2987770264966
 20
299.827946313508
 30
0.0
 10
640.1155427850853
 20
299.7930951689353
 30
0.0
 10
641.7485460397724
 20
299.7075545457869
 30
0.0
 10
644.1974528444867
 20
299.5613120931737
 30
0.0
 10
646.6445606320164
 20
299.3611316163306
 30
0.0
 10
648.2751623841855
 20
299.2035892901711
 30
0.0
  0
SPLINE
  5
8D
330
1F
100
AcDbEntity
  8
0
  6
Continuous
 62
     7
370
    25
100
AcDbSpline
210
0.0
220
0.0
230
1.0
 70
     8
 71
     3
 72
    52
 73
    48
 74
     0
 42
0.000000001
 43
0.00000001
 40
0.0
 40
0.0
 40
0.0
 40
0.0
 40
0.0625000000000001
 40
0.0625000000000001
 40
0.0937500000000001
 40
0.0937500000000001
 40
0.1250000000000002
 40
0.1250000000000002
 40
0.1874999999999996
 40
0.1874999999999996
 40
0.2499999999999991
 40
0.2499999999999991
 40
0.2812499999999989
 40
0.2812499999999989
 40
0.2968749999999987
 40
0.2968749999999987
 40
0.3124999999999986
 40
0.3124999999999986
 40
0.3749999999999984
 40
0.3749999999999984
 40
0.4374999999999982
 40
0.4374999999999982
 40
0.499999999999998
 40
0.499999999999998
 40
0.5312499999999978
 40
0.5312499999999978
 40
0.5468749999999983
 40
0.5468749999999983
 40
0.5624999999999988
 40
0.5624999999999988
 40
0.6249999999999981
 40
0.6249999999999981
 40
0.6874999999999976
 40
0.6874999999999976
 40
0.749999999999997
 40
0.749999999999997
 40
0.765624999999997
 40
0.765624999999997
 40
0.781249999999997
 40
0.781249999999997
 40
0.8124999999999968
 40
0.8124999999999968
 40
0.8749999999999978
 40
0.8749999999999978
 40
0.9374999999999989
 40
0.9374999999999989
 40
1.0
 40
1.0
 40
1.0
 40
1.0
 10
798.5410196624979
 20
-134.9999999993637
 30
0.0
 10
798.5410196617328
 20
-140.1324069037826
 30
0.0
 10
798.298587594481
 20
-145.2504122484389
 30
0.0
 10
797.5769438468182
 20
-152.9061537070169
 30
0.0
 10
797.2757814987376
 20
-155.4581924237717
 30
0.0
 10
796.5574869912182
 20
-160.5214930053936
 30
0.0
 10
796.1402363894987
 20
-163.0359330220721
 30
0.0
 10
794.7176612791991
 20
-170.5286550254701
 30
0.0
 10
793.542111602247
 20
-175.4565161343055
 30
0.0
 10
790.7442333989205
 20
-185.1799019764476
 30
0.0
 10
789.121628530184
 20
-189.9753448568507
 30
0.0
 10
786.3483008166811
 20
-197.0679724869769
 30
0.0
 10
785.3673390951739
 20
-199.4154406639244
 30
0.0
 10
783.8098932645361
 20
-202.9111686747136
 30
0.0
 10
783.276397952686
 20
-204.0721618365252
 30
0.0
 10
782.1803587951932
 20
-206.3855439532131
 30
0.0
 10
781.61702273892
 20
-207.5394412477212
 30
0.0
 10
778.7392966195474
 20
-213.2625854242747
 30
0.0
 10
776.241241543973
 20
-217.6990120717951
 30
0.0
 10
770.8656244323616
 20
-226.2965679884411
 30
0.0
 10
767.9881455499808
 20
-230.4577575778936
 30
0.0
 10
761.8575730381363
 20
-238.5076628210534
 30
0.0
 10
758.6032273860114
 20
-242.3954702475276
 30
0.0
 10
753.4356777008214
 20
-248.0196920665427
 30
0.0
 10
751.6652767986744
 20
-249.8596969901245
 30
0.0
 10
748.936123796681
 20
-252.5663494223762
 30
0.0
 10
748.0140472360763
 20
-253.4597514423454
 30
0.0
 10
746.1552957134896
 20
-255.2194223840399
 30
0.0
 10
745.2174168606181
 20
-256.0869052549124
 30
0.0
 10
740.4859803100956
 20
-260.363243994852
 30
0.0
 10
736.5662043021024
 20
-263.5887401667697
 30
0.0
 10
728.4640362255901
 20
-269.6582252539094
 30
0.0
 10
724.2821606375435
 20
-272.5029644699651
 30
0.0
 10
715.6559708696402
 20
-277.8111934574929
 30
0.0
 10
711.2120921659667
 20
-280.2753158533533
 30
0.0
 10
705.4893769809094
 20
-283.1116056041918
 30
0.0
 10
704.3364345701349
 20
-283.6666616271966
 30
0.0
 10
702.0136059375277
 20
-284.7521590823783
 30
0.0
 10
700.8454696749071
 20
-285.2817458379381
 30
0.0
 10
697.3329911100267
 20
-286.8259229912989
 30
0.0
 10
694.9758454884964
 20
-287.7981909835832
 30
0.0
 10
687.8586751434701
 20
-290.546198953256
 30
0.0
 10
683.0529920668266
 20
-292.1534202079766
 30
0.0
 10
673.3222957326623
 20
-294.9274313774615
 30
0.0
 10
668.3973227554468
 20
-296.0943699613139
 30
0.0
 10
658.4275904009613
 20
-297.986131946616
 30
0.0
 10
653.3826068885286
 20
-298.710128095905
 30
0.0
 10
648.2751623852486
 20
-299.2035892900684
 30
0.0
  0
SPLINE
  5
8E
330
1F
100
AcDbEntity
  8
0
  6
Continuous
 62
     7
370
    25
100
AcDbSpline
210
0.0
220
0.0
230
1.0
 70
     8
 71
     3
 72
    55
 73
    51
 74
     0
 42
0.000000001
 43
0.00000001
 40
0.0
 40
0.0
 40
0.0
 40
0.0
 40
0.0624999999999998
 40
0.0624999999999998
 40
0.0937499999999997
 40
0.1093749999999999
 40
0.1093749999999999
 40
0.1250000000000001
 40
0.1250000000000001
 40
0.1875000000000017
 40
0.1875000000000017
 40
0.2500000000000034
 40
0.2500000000000034
 40
0.3125000000000052
 40
0.3125000000000052
 40
0.3281250000000055
 40
0.3281250000000055
 40
0.3437500000000058
 40
0.3437500000000058
 40
0.3750000000000063
 40
0.3750000000000063
 40
0.4375000000000066
 40
0.4375000000000066
 40
0.500000000000007
 40
0.500000000000007
 40
0.5312500000000069
 40
0.5312500000000069
 40
0.5468750000000071
 40
0.5468750000000071
 40
0.5625000000000072
 40
0.5625000000000072
 40
0.6250000000000073
 40
0.6250000000000073
 40
0.6875000000000073
 40
0.6875000000000073
 40
0.7500000000000074
 40
0.7500000000000074
 40
0.7656250000000078
 40
0.7656250000000078
 40
0.781250000000008
 40
0.781250000000008
 40
0.812500000000007
 40
0.812500000000007
 40
0.8750000000000051
 40
0.8750000000000051
 40
0.9375000000000031
 40
0.9375000000000031
 40
0.9687500000000016
 40
0.9687500000000016
 40
1.0
 40
1.0
 40
1.0
 40
1.0
 10
-764.9784406626774
 20
135.0000000000957
 30
0.0
 10
-764.9784406618667
 20
140.3050342730278
 30
0.0
 10
-764.7208917562982
 20
145.5867999101755
 30
0.0
 10
-763.9582868523461
 20
153.475452654502
 30
0.0
 10
-763.4824195919687
 20
157.4112354295321
 30
0.0
 10
-762.8635865711371
 20
161.3341017520038
 30
0.0
 10
-762.4191356677331
 20
163.9464643159034
 30
0.0
 10
-762.1807602832512
 20
165.2521159025229
 30
0.0
 10
-760.9140892106433
 20
171.7473173815108
 30
0.0
 10
-759.6594481938774
 20
176.8558726226456
 30
0.0
 10
-756.6824379765154
 20
186.9031734820948
 30
0.0
 10
-754.959634347145
 20
191.8417613802002
 30
0.0
 10
-751.0467089793364
 20
201.5492764320293
 30
0.0
 10
-748.8572152116061
 20
206.3184315717349
 30
0.0
 10
-745.8204059100813
 20
212.1709809391243
 30
0.0
 10
-745.1980532390079
 20
213.3360483697278
 30
0.0
 10
-743.9230933049532
 20
215.6551992427546
 30
0.0
 10
-743.2696110216381
 20
216.8107419145587
 30
0.0
 10
-741.2727264222799
 20
220.2445496113399
 30
0.0
 10
-739.8914842536789
 20
222.4928645517659
 30
0.0
 10
-735.600261636067
 20
229.1171521486835
 30
0.0
 10
-732.5443302514727
 20
233.3737315915919
 30
0.0
 10
-726.0466290581187
 20
241.5712605076401
 30
0.0
 10
-722.6051986495534
 20
245.5124876225758
 30
0.0
 10
-717.1524134369602
 20
251.1865744520896
 30
0.0
 10
-715.2859780229862
 20
253.0379835382087
 30
0.0
 10
-712.4124431639551
 20
255.7546591982965
 30
0.0
 10
-711.4422823279677
 20
256.6501429080741
 30
0.0
 10
-709.4770913047271
 20
258.4207662869768
 30
0.0
 10
-708.480697784377
 20
259.2970621527294
 30
0.0
 10
-703.4544552104686
 20
263.6109515511827
 30
0.0
 10
-699.2985323799505
 20
266.8405966244604
 30
0.0
 10
-690.7275886466638
 20
272.8746140252468
 30
0.0
 10
-686.3120535034238
 20
275.6781422999413
 30
0.0
 10
-677.2227755339811
 20
280.8613875513165
 30
0.0
 10
-672.5488802149437
 20
283.2408542326312
 30
0.0
 10
-666.5417961912774
 20
285.944831473572
 30
0.0
 10
-665.3321325063
 20
286.4720908372385
 30
0.0
 10
-662.8961420687951
 20
287.4992595019929
 30
0.0
 10
-661.6686782902385
 20
287.9996112184173
 30
0.0
 10
-657.9687028429819
 20
289.4560643601956
 30
0.0
 10
-655.4885765554799
 20
290.3638080477066
 30
0.0
 10
-648.0086026789972
 20
292.9012718456067
 30
0.0
 10
-642.9692571077624
 20
294.3456799334879
 30
0.0
 10
-632.7876719163683
 20
296.7517498214131
 30
0.0
 10
-627.6455582485029
 20
297.7140025497273
 30
0.0
 10
-619.8540998260684
 20
298.7900795147618
 30
0.0
 10
-617.2438902003113
 20
299.0875133805707
 30
0.0
 10
-611.9969113983082
 20
299.5577721135229
 30
0.0
 10
-609.3596735827176
 20
299.7283982732912
 30
0.0
 10
-606.7098469261977
 20
299.8399615786939
 30
0.0
  0
SPLINE
  5
90
330
1F
100
AcDbEntity
  8
0
  6
Continuous
 62
     7
370
    25
100
AcDbSpline
210
0.0
220
0.0
230
1.0
 70
     8
 71
     3
 72
    54
 73
    50
 74
     0
 42
0.000000001
 43
0.00000001
 40
0.0
 40
0.0
 40
0.0
 40
0.0
 40
0.0312500000000018
 40
0.0312500000000018
 40
0.0625000000000036
 40
0.0625000000000036
 40
0.0937500000000054
 40
0.0937500000000054
 40
0.1093750000000063
 40
0.1093750000000063
 40
0.1250000000000072
 40
0.1250000000000072
 40
0.1875000000000096
 40
0.1875000000000096
 40
0.2500000000000119
 40
0.2500000000000119
 40
0.3125000000000143
 40
0.3125000000000143
 40
0.3281250000000141
 40
0.3281250000000141
 40
0.3437500000000139
 40
0.3437500000000139
 40
0.375000000000013
 40
0.375000000000013
 40
0.4375000000000115
 40
0.4375000000000115
 40
0.5000000000000099
 40
0.5000000000000099
 40
0.5312500000000085
 40
0.5312500000000085
 40
0.5468750000000075
 40
0.5468750000000075
 40
0.5625000000000067
 40
0.5625000000000067
 40
0.6250000000000052
 40
0.6250000000000052
 40
0.6875000000000039
 40
0.6875000000000039
 40
0.7500000000000024
 40
0.7500000000000024
 40
0.7812500000000022
 40
0.7812500000000022
 40
0.8125000000000019
 40
0.8125000000000019
 40
0.8750000000000013
 40
0.8750000000000013
 40
0.9375000000000007
 40
0.9375000000000007
 40
1.0
 40
1.0
 40
1.0
 40
1.0
 10
-606.7098469005814
 20
-299.8399615797727
 30
0.0
 10
-609.3597290049539
 20
-299.7283959399026
 30
0.0
 10
-612.0017444503217
 20
-299.5575760442748
 30
0.0
 10
-617.2684024660884
 20
-299.0850780607192
 30
0.0
 10
-619.8933381280842
 20
-298.7856076348137
 30
0.0
 10
-625.1265175658214
 20
-298.0609380211027
 30
0.0
 10
-627.7347520229288
 20
-297.6356686422781
 30
0.0
 10
-631.6345750260856
 20
-296.9033944281969
 30
0.0
 10
-632.9324284709486
 20
-296.6435788655983
 30
0.0
 10
-635.5239574667871
 20
-296.0924784733644
 30
0.0
 10
-636.8187695452352
 20
-295.8008891428213
 30
0.0
 10
-643.2581060367561
 20
-294.2695630836394
 30
0.0
 10
-648.3121557641732
 20
-292.8077897129434
 30
0.0
 10
-658.230661050318
 20
-289.4235617954264
 30
0.0
 10
-663.095033118698
 20
-287.500904381443
 30
0.0
 10
-672.635173848066
 20
-283.1973157566493
 30
0.0
 10
-677.3108867823732
 20
-280.8162491396066
 30
0.0
 10
-683.0344984838815
 20
-277.5458351099054
 30
0.0
 10
-684.1731666176818
 20
-276.877041624883
 30
0.0
 10
-686.43826425666
 20
-275.5097168951418
 30
0.0
 10
-687.5662103314427
 20
-274.810200144674
 30
0.0
 10
-690.917179834477
 20
-272.6756126023749
 30
0.0
 10
-693.108106997465
 20
-271.2041930759657
 30
0.0
 10
-699.5547593499324
 20
-266.6482528021143
 30
0.0
 10
-703.6848351671194
 20
-263.4225892823537
 30
0.0
 10
-711.6132856024254
 20
-256.5986600884119
 30
0.0
 10
-715.4128280026767
 20
-253.0017061916363
 30
0.0
 10
-720.8613504189819
 20
-247.3245599479247
 30
0.0
 10
-722.6357330012136
 20
-245.3852331343633
 30
0.0
 10
-725.2339646826155
 20
-242.4050902101683
 30
0.0
 10
-726.0894723809974
 20
-241.3998364137665
 30
0.0
 10
-727.7790833716955
 20
-239.3652851098261
 30
0.0
 10
-728.6142222755501
 20
-238.3346657870673
 30
0.0
 10
-732.7222197454927
 20
-233.1372800693772
 30
0.0
 10
-735.7818901533328
 20
-228.8537940059665
 30
0.0
 10
-741.4652998538403
 20
-220.0453729217505
 30
0.0
 10
-744.0877981579121
 20
-215.5197505551889
 30
0.0
 10
-748.898884865118
 20
-206.2281763536299
 30
0.0
 10
-751.0865126374781
 20
-201.4616924545289
 30
0.0
 10
-754.0357655874004
 20
-194.1279774053755
 30
0.0
 10
-754.9640872195044
 20
-191.6504201720415
 30
0.0
 10
-756.703761464645
 20
-186.6416564618942
 30
0.0
 10
-757.5097615114029
 20
-184.1263994299003
 30
0.0
 10
-759.7405196787979
 20
-176.5487301062055
 30
0.0
 10
-760.9786533833758
 20
-171.4545247927222
 30
0.0
 10
-762.9665118861172
 20
-161.1829096455325
 30
0.0
 10
-763.7156236319312
 20
-156.0053953732601
 30
0.0
 10
-764.7209330842194
 20
-145.5663948216233
 30
0.0
 10
-764.9784406626776
 20
-140.3051316898484
 30
0.0
 10
-764.9784406626771
 20
-134.9999999999098
 30
0.0
  0
SPLINE
  5
92
330
1F
100
AcDbEntity
  8
0
  6
Continuous
 62
     7
370
    25
100
AcDbSpline
210
0.0
220
0.0
230
1.0
 70
     8
 71
     3
 72
    52
 73
    48
 74
     0
 42
0.000000001
 43
0.00000001
 40
0.0
 40
0.0
 40
0.0
 40
0.0
 40
0.0624999999999986
 40
0.0624999999999986
 40
0.0781249999999989
 40
0.0781249999999989
 40
0.0937499999999993
 40
0.0937499999999993
 40
0.1249999999999999
 40
0.1249999999999999
 40
0.1875000000000001
 40
0.1875000000000001
 40
0.2500000000000003
 40
0.2500000000000003
 40
0.3125000000000004
 40
0.3125000000000004
 40
0.3281250000000007
 40
0.3281250000000007
 40
0.343750000000001
 40
0.343750000000001
 40
0.3750000000000011
 40
0.3750000000000011
 40
0.4374999999999998
 40
0.4374999999999998
 40
0.4999999999999986
 40
0.4999999999999986
 40
0.5312499999999986
 40
0.5312499999999986
 40
0.5624999999999986
 40
0.5624999999999986
 40
0.6249999999999992
 40
0.6249999999999992
 40
0.6875
 40
0.6875
 40
0.7500000000000007
 40
0.7500000000000007
 40
0.7656250000000007
 40
0.7656250000000007
 40
0.7812500000000007
 40
0.7812500000000007
 40
0.8125000000000006
 40
0.8125000000000006
 40
0.8750000000000004
 40
0.8750000000000004
 40
0.9375000000000002
 40
0.9375000000000002
 40
1.0
 40
1.0
 40
1.0
 40
1.0
 10
648.2751623841855
 20
299.203589290171
 30
0.0
 10
653.3815397335205
 20
298.710231200256
 30
0.0
 10
658.4500983785103
 20
297.9840133643281
 30
0.0
 10
664.738981175897
 20
296.7879856231047
 30
0.0
 10
665.9944160787654
 20
296.5343618769735
 30
0.0
 10
668.500604291369
 20
295.9982885799388
 30
0.0
 10
669.7524533647689
 20
295.7155560366446
 30
0.0
 10
673.4906451613041
 20
294.8263377324775
 30
0.0
 10
675.9601726436538
 20
294.1788707830971
 30
0.0
 10
683.302011309191
 20
292.0750627310908
 30
0.0
 10
688.1076957105753
 20
290.4575973662601
 30
0.0
 10
697.5437802916916
 20
286.7987749202938
 30
0.0
 10
702.1743060922203
 20
284.7577216292815
 30
0.0
 10
711.2589248896413
 20
280.2489457028036
 30
0.0
 10
715.7127948901291
 20
277.7806837927361
 30
0.0
 10
721.165999745659
 20
274.4193482034277
 30
0.0
 10
722.2505950192159
 20
273.7333785228138
 30
0.0
 10
724.3970870286416
 20
272.3407963069129
 30
0.0
 10
725.4603853272102
 20
271.6333132674424
 30
0.0
 10
728.6207939904925
 20
269.4776898785753
 30
0.0
 10
730.6884762081961
 20
267.9964406092621
 30
0.0
 10
736.7754486080804
 20
263.4221003738347
 30
0.0
 10
740.6782466583913
 20
260.197946834747
 30
0.0
 10
748.1763780260726
 20
253.4037183767221
 30
0.0
 10
751.771967658316
 20
249.8339318316542
 30
0.0
 10
756.9301406122922
 20
244.2146210629913
 30
0.0
 10
758.6104550243682
 20
242.2975533355705
 30
0.0
 10
761.8913899420512
 20
238.3737561304955
 30
0.0
 10
763.4936669706996
 20
236.3640847651404
 30
0.0
 10
768.1301772370791
 20
230.2612300379863
 30
0.0
 10
771.0124064869217
 20
226.0764954387765
 30
0.0
 10
776.3685993651779
 20
217.4798654347127
 30
0.0
 10
778.8425414228584
 20
213.0679580278054
 30
0.0
 10
783.3825364901984
 20
204.0171919354666
 30
0.0
 10
785.4479386849249
 20
199.3779711337151
 30
0.0
 10
787.7686137096401
 20
193.433680328902
 30
0.0
 10
788.2196402055672
 20
192.2375285352813
 30
0.0
 10
789.0951315676178
 20
189.8304459392104
 30
0.0
 10
789.5198290601874
 20
188.6187256043252
 30
0.0
 10
790.7474203548092
 20
184.9803203216616
 30
0.0
 10
791.506082130517
 20
182.544488294093
 30
0.0
 10
793.6064076062556
 20
175.2069124358501
 30
0.0
 10
794.7729483108858
 20
170.2751807601898
 30
0.0
 10
796.6459303231492
 20
160.3329305575848
 30
0.0
 10
797.3517382411205
 20
155.3223035697798
 30
0.0
 10
798.2987272983297
 20
145.2214874796383
 30
0.0
 10
798.5410196624985
 20
140.1314886620846
 30
0.0
 10
798.5410196624979
 20
134.9999999999723
 30
0.0
  0
SPLINE
  5
AE
330
1F
100
AcDbEntity
  8
0
  6
Continuous
 62
     7
370
    25
100
AcDbSpline
210
0.0
220
0.0
230
1.0
 70
     8
 71
     3
 72
    24
 73
    20
 74
     0
 42
0.000000001
 43
0.00000001
 40
0.0
 40
0.0
 40
0.0
 40
0.0
 40
0.040976104485252
 40
0.1044853912411232
 40
0.1698634876093856
 40
0.2328617781515026
 40
0.2977449760166322
 40
0.3597370621187269
 40
0.4235802422609998
 40
0.484668529134808
 40
0.5475535225278433
 40
0.6082343580433853
 40
0.6706629400303669
 40
0.7315892854501047
 40
0.7942400119250018
 40
0.8559508289825396
 40
0.9193960552647964
 40
0.9821049239780659
 40
1.0
 40
1.0
 40
1.0
 40
1.0
 10
-728.2401479088048
 20
25.20834168616974
 30
0.0
 10
-728.07085767558
 20
24.9967883020437
 30
0.0
 10
-727.6391827647018
 20
24.45734614700068
 30
0.0
 10
-726.9838498024374
 20
22.75376508635411
 30
0.0
 10
-726.3051039795721
 20
20.27454215765434
 30
0.0
 10
-725.7106886765043
 20
17.14402562179314
 30
0.0
 10
-725.2295548335727
 20
13.56912362854046
 30
0.0
 10
-724.8648117865645
 20
9.575567599494637
 30
0.0
 10
-724.633311736733
 20
5.380711333236547
 30
0.0
 10
-724.5340550015499
 20
1.011132017240421
 30
0.0
 10
-724.5695353613178
 20
-3.315932132173887
 30
0.0
 10
-724.7377055473723
 20
-7.576796048679622
 30
0.0
 10
-725.0296368866811
 20
-11.58086632087762
 30
0.0
 10
-725.4425476485036
 20
-15.29930499840576
 30
0.0
 10
-725.9596600303107
 20
-18.5729290376215
 30
0.0
 10
-726.5753594315906
 20
-21.38065491027737
 30
0.0
 10
-727.2687373096389
 20
-23.53432125492157
 30
0.0
 10
-727.8374316419803
 20
-24.83646265076735
 30
0.0
 10
-728.1734348184038
 20
-25.16179854793103
 30
0.0
 10
-728.2480316933517
 20
-25.23402715450275
 30
0.0
  0
SPLINE
  5
AF
330
1F
100
AcDbEntity
  8
0
  6
Continuous
 62
     7
370
    25
100
AcDbSpline
210
0.0
220
0.0
230
1.0
 70
    24
 71
     3
 72
    52
 73
    48
 74
     0
 42
0.000000001
 43
0.00000001
 40
0.0
 40
0.0
 40
0.0
 40
0.0
 40
0.015625
 40
0.015625
 40
0.03125
 40
0.03125
 40
0.0625
 40
0.0625
 40
0.125
 40
0.125
 40
0.1875
 40
0.1875
 40
0.25
 40
0.25
 40
0.265625
 40
0.265625
 40
0.28125
 40
0.28125
 40
0.3125
 40
0.3125
 40
0.375
 40
0.375
 40
0.4375
 40
0.4375
 40
0.5
 40
0.5
 40
0.515625
 40
0.515625
 40
0.53125
 40
0.5625
 40
0.5625
 40
0.625
 40
0.625
 40
0.6875
 40
0.6875
 40
0.75
 40
0.75
 40
0.765625
 40
0.765625
 40
0.78125
 40
0.8125
 40
0.8125
 40
0.875
 40
0.875
 40
0.9375
 40
0.9375
 40
1.0
 40
1.0
 40
1.0
 40
1.0
 10
-605.1212363135819
 20
-218.4112011116069
 30
0.0
 10
-605.1076986495499
 20
-218.2926746393896
 30
0.0
 10
-605.0933844242153
 20
-218.1673491306856
 30
0.0
 10
-605.0632174357468
 20
-217.9032277348416
 30
0.0
 10
-605.0473646726132
 20
-217.7644318477017
 30
0.0
 10
-604.9975204537252
 20
-217.3280301604337
 30
0.0
 10
-604.9612430684836
 20
-217.0104103344577
 30
0.0
 10
-604.843442212496
 20
-215.979027087585
 30
0.0
 10
-604.7529472220921
 20
-215.1867152130549
 30
0.0
 10
-604.548394096976
 20
-213.3957887841124
 30
0.0
 10
-604.4343356155329
 20
-212.3971711939597
 30
0.0
 10
-604.1824830757076
 20
-210.1921236322883
 30
0.0
 10
-604.0446906981764
 20
-208.9857083771404
 30
0.0
 10
-603.8571662248168
 20
-207.3438731070947
 30
0.0
 10
-603.818895699416
 20
-207.0088027171878
 30
0.0
 10
-603.7408061699836
 20
-206.325104523847
 30
0.0
 10
-603.7009870116414
 20
-205.9764753693753
 30
0.0
 10
-603.5798333297626
 20
-204.9157370857754
 30
0.0
 10
-603.4965997491931
 20
-204.1870011198356
 30
0.0
 10
-603.2396344388543
 20
-201.9371896571839
 30
0.0
 10
-603.0586517302287
 20
-200.35262957835
 30
0.0
 10
-602.6776828535586
 20
-197.0171282045804
 30
0.0
 10
-602.4776962168218
 20
-195.2661828060975
 30
0.0
 10
-602.0586283604711
 20
-191.5971129787193
 30
0.0
 10
-601.8395483133846
 20
-189.6789988156704
 30
0.0
 10
-601.5534329195602
 20
-187.1739692775627
 30
0.0
 10
-601.4955519570606
 20
-186.6672033925891
 30
0.0
 10
-601.3787414619618
 20
-185.6444910642789
 30
0.0
 10
-601.2023202926853
 20
-184.0998686855995
 30
0.0
 10
-601.0223213928388
 20
-182.5239221595662
 30
0.0
 10
-600.6576309951033
 20
-179.3309439475952
 30
0.0
 10
-600.408255598461
 20
-177.1475845473368
 30
0.0
 10
-599.8971968877556
 20
-172.6731060898464
 30
0.0
 10
-599.6355133889703
 20
-170.3819854153143
 30
0.0
 10
-599.0997483932559
 20
-165.6911957244543
 30
0.0
 10
-598.8256677819835
 20
-163.2915344623242
 30
0.0
 10
-598.4750826425866
 20
-160.222052187806
 30
0.0
 10
-598.4045179079093
 20
-159.6042359202087
 30
0.0
 10
-598.2632679542418
 20
-158.3675485072602
 30
0.0
 10
-598.0509780466447
 20
-156.5088841338978
 30
0.0
 10
-597.8374556035227
 20
-154.6394285274705
 30
0.0
 10
-597.4087918824765
 20
-150.8863439108705
 30
0.0
 10
-597.1208604861123
 20
-148.3654147039532
 30
0.0
 10
-596.5407404615822
 20
-143.2862828974808
 30
0.0
 10
-596.248551811846
 20
-140.7280801090722
 30
0.0
 10
-595.6598749290262
 20
-135.5740303386168
 30
0.0
 10
-595.3633853660156
 20
-132.9781717126435
 30
0.0
 10
-595.0646780119712
 20
-130.3628956342439
 30
0.0
  0
SPLINE
  5
B0
330
1F
100
AcDbEntity
  8
0
  6
Continuous
 62
     7
370
    25
100
AcDbSpline
210
0.0
220
0.0
230
1.0
 70
     8
 71
     3
 72
    22
 73
    18
 74
     0
 42
0.000000001
 43
0.00000001
 40
0.0
 40
0.0
 40
0.0
 40
0.0
 40
0.125
 40
0.125
 40
0.25
 40
0.25
 40
0.375
 40
0.375
 40
0.5
 40
0.5
 40
0.75
 40
0.75
 40
0.8125
 40
0.8125
 40
0.875
 40
0.875
 40
1.0
 40
1.0
 40
1.0
 40
1.0
 10
-595.0646780119708
 20
-130.3628956342439
 30
0.0
 10
-548.0623930911551
 20
-133.3764282747504
 30
0.0
 10
-501.0394201054465
 20
-136.0211148361652
 30
0.0
 10
-406.9516494665021
 20
-140.5647988524163
 30
0.0
 10
-359.8978033890765
 20
-142.4635518118993
 30
0.0
 10
-265.7722275972093
 20
-145.508945780336
 30
0.0
 10
-218.7001431238381
 20
-146.6558465763384
 30
0.0
 10
-124.5372756171205
 20
-148.1937949943336
 30
0.0
 10
-77.4443358304214
 20
-148.584937839827
 30
0.0
 10
63.84892946528924
 20
-148.6212113649766
 30
0.0
 10
158.0109133767819
 20
-147.1283029622515
 30
0.0
 10
275.67166239419
 20
-143.3738127326246
 30
0.0
 10
299.2017234870193
 20
-142.5283988894708
 30
0.0
 10
346.2576862094135
 20
-140.6493522241423
 30
0.0
 10
369.7845989361412
 20
-139.6156778468106
 30
0.0
 10
440.3505016611239
 20
-136.2331242544829
 30
0.0
 10
487.373902371163
 20
-133.6027069211104
 30
0.0
 10
534.3769410125102
 20
-130.6000590302755
 30
0.0
  0
SPLINE
  5
B1
330
1F
100
AcDbEntity
  8
0
  6
Continuous
 62
     7
370
    25
100
AcDbSpline
210
0.0
220
0.0
230
1.0
 70
     8
 71
     3
 72
    62
 73
    58
 74
     0
 42
0.000000001
 43
0.00000001
 40
0.0
 40
0.0
 40
0.0
 40
0.0
 40
0.0078909266226614
 40
0.0157928898365995
 40
0.0237058986593177
 40
0.0316299620823462
 40
0.0395650890712664
 40
0.0475112885657284
 40
0.0554685694794824
 40
0.0634369407003965
 40
0.0714164110904839
 40
0.079406989485926
 40
0.0874086846970956
 40
0.0954215055085803
 40
0.1034454606792119
 40
0.1114805589420827
 40
0.1195268090045792
 40
0.1275842195484052
 40
0.1356527992296019
 40
0.1437325566785791
 40
0.1518235005001436
 40
0.1599256392735226
 40
0.1680389815523904
 40
0.1761635358649013
 40
0.1842993107137124
 40
0.1924463145760203
 40
0.2006045559035847
 40
0.2087740431227602
 40
0.2169547846345329
 40
0.2251467888145448
 40
0.2333500640131344
 40
0.2415646185553648
 40
0.249790460741063
 40
0.280606634313496
 40
0.3117342213270716
 40
0.34317364324748
 40
0.3749253137137278
 40
0.4365143777112299
 40
0.4998559188613894
 40
0.561150871333689
 40
0.624925815391375
 40
0.685575920158166
 40
0.7498915219253413
 40
0.7788309366687748
 40
0.8093218779286546
 40
0.8413646161421036
 40
0.8749594295847539
 40
0.8844877507102596
 40
0.8946772438012972
 40
0.9055279435793568
 40
0.9170398869132868
 40
0.9292131128353115
 40
0.9420476625522197
 40
0.9555435794532505
 40
0.969700909115777
 40
0.9845196993095406
 40
1.0
 40
1.0
 40
1.0
 40
1.0
 10
547.8446691383461
 20
-218.0909099484124
 30
0.0
 10
547.8345787756651
 20
-218.0253659269239
 30
0.0
 10
547.814383937485
 20
-217.8941862112433
 30
0.0
 10
547.7820593019259
 20
-217.6842850359304
 30
0.0
 10
547.748219837335
 20
-217.4645807857449
 30
0.0
 10
547.7127196818768
 20
-217.2341213769429
 30
0.0
 10
547.6755969088371
 20
-216.9931427501996
 30
0.0
 10
547.6368403247743
 20
-216.7415635963621
 30
0.0
 10
547.5964520879263
 20
-216.4793895570065
 30
0.0
 10
547.5544308956497
 20
-216.2066047102264
 30
0.0
 10
547.5107764999142
 20
-215.9232007255706
 30
0.0
 10
547.4654884959771
 20
-215.6291690532803
 30
0.0
 10
547.4185666487513
 20
-215.3245030390285
 30
0.0
 10
547.3700108062781
 20
-215.0091973734185
 30
0.0
 10
547.3198209240476
 20
-214.6832482569643
 30
0.0
 10
547.2679970595518
 20
-214.3466533727977
 30
0.0
 10
547.2145393748042
 20
-213.9994119108296
 30
0.0
 10
547.159448136716
 20
-213.6415245779266
 30
0.0
 10
547.1027237180223
 20
-213.2729936116616
 30
0.0
 10
547.0443665980566
 20
-212.8938227929183
 30
0.0
 10
546.9843773635454
 20
-212.5040174586195
 30
0.0
 10
546.9227567093757
 20
-212.1035845142131
 30
0.0
 10
546.8595054393626
 20
-211.6925324460621
 30
0.0
 10
546.7946244669974
 20
-211.2708713335177
 30
0.0
 10
546.7281148161677
 20
-210.8386128613604
 30
0.0
 10
546.65997762194
 20
-210.3957703300894
 30
0.0
 10
546.5902141310243
 20
-209.9423586734127
 30
0.0
 10
546.5188257033826
 20
-209.4783944479852
 30
0.0
 10
546.445813809458
 20
-209.0038959260618
 30
0.0
 10
546.3711800437494
 20
-208.5188828023766
 30
0.0
 10
546.2949260771531
 20
-208.0233773428359
 30
0.0
 10
546.2170538382412
 20
-207.5174001402348
 30
0.0
 10
546.0648353310063
 20
-206.528486153491
 30
0.0
 10
545.8286836034664
 20
-204.9945058702777
 30
0.0
 10
545.4937557812356
 20
-202.818790751055
 30
0.0
 10
545.1350162592546
 20
-200.4882096797329
 30
0.0
 10
544.6340165952189
 20
-197.2333333151323
 30
0.0
 10
543.9572552018687
 20
-192.8374075165047
 30
0.0
 10
543.0837266997793
 20
-187.1619878459568
 30
0.0
 10
542.1362795920443
 20
-181.0078859318083
 30
0.0
 10
541.1465230790712
 20
-174.5771652323489
 30
0.0
 10
540.0913217160318
 20
-167.7234199636634
 30
0.0
 10
539.196822771161
 20
-161.9112876864685
 30
0.0
 10
538.4612313175401
 20
-157.133370173168
 30
0.0
 10
537.9105728964689
 20
-153.5565116781981
 30
0.0
 10
537.3254355710394
 20
-149.7549368112423
 30
0.0
 10
536.8634149452839
 20
-146.7528319355196
 30
0.0
 10
536.5339821673043
 20
-144.6130770117143
 30
0.0
 10
536.344637789206
 20
-143.383550381794
 30
0.0
 10
536.1425921132251
 20
-142.0715329027449
 30
0.0
 10
535.9278323125159
 20
-140.6768113649948
 30
0.0
 10
535.700359313879
 20
-139.1992662454954
 30
0.0
 10
535.460178585202
 20
-137.6388776558985
 30
0.0
 10
535.2073050492952
 20
-135.9957471160015
 30
0.0
 10
534.9417603112447
 20
-134.2701164186535
 30
0.0
 10
534.6635867685012
 20
-132.4623868006723
 30
0.0
 10
534.4738702713262
 20
-131.2298051426262
 30
0.0
 10
534.3769410125103
 20
-130.6000590302755
 30
0.0
  0
SPLINE
  5
B2
330
1F
100
AcDbEntity
  8
0
  6
Continuous
 62
     7
370
    25
100
AcDbSpline
210
0.0
220
0.0
230
1.0
 70
     8
 71
     3
 72
    22
 73
    18
 74
     0
 42
0.000000001
 43
0.00000001
 40
0.0
 40
0.0
 40
0.0
 40
0.0
 40
0.2499999999999998
 40
0.2499999999999998
 40
0.3124999999999997
 40
0.3124999999999997
 40
0.3749999999999997
 40
0.3749999999999997
 40
0.4999999999999996
 40
0.4999999999999996
 40
0.6249999999999994
 40
0.6249999999999994
 40
0.6874999999999994
 40
0.6874999999999994
 40
0.7499999999999996
 40
0.7499999999999996
 40
1.0
 40
1.0
 40
1.0
 40
1.0
 10
534.3769410125099
 20
130.6000590302753
 30
0.0
 10
440.3692546662377
 20
136.6054576021377
 30
0.0
 10
346.3003771916373
 20
141.1197674927498
 30
0.0
 10
228.636804709205
 20
144.8747496675835
 30
0.0
 10
205.1002167047332
 20
145.5313575192456
 30
0.0
 10
158.0192909778501
 20
146.6557302151273
 30
0.0
 10
134.4735214315514
 20
147.1235094987573
 30
0.0
 10
63.83629533560327
 20
148.2421734250119
 30
0.0
 10
16.74682537775491
 20
148.6090871044559
 30
0.0
 10
-77.42808517770769
 20
148.5849739767134
 30
0.0
 10
-124.5135264084469
 20
148.194066263106
 30
0.0
 10
-195.1386741106761
 20
147.0407308938643
 30
0.0
 10
-218.6798870161965
 20
146.561670144046
 30
0.0
 10
-265.7613112377915
 20
145.4151452384498
 30
0.0
 10
-289.3026376988108
 20
144.7476392741704
 30
0.0
 10
-406.9835575623562
 20
140.940071143184
 30
0.0
 10
-501.0584283633485
 20
136.390068615407
 30
0.0
 10
-595.0646780119713
 20
130.3628956342438
 30
0.0
  0
SPLINE
  5
B3
330
1F
100
AcDbEntity
  8
0
  6
Continuous
 62
     7
370
    25
100
AcDbSpline
210
0.0
220
0.0
230
1.0
 70
    24
 71
     3
 72
    52
 73
    48
 74
     0
 42
0.000000001
 43
0.00000001
 40
0.0
 40
0.0
 40
0.0
 40
0.0
 40
0.015625
 40
0.015625
 40
0.03125
 40
0.03125
 40
0.0625
 40
0.0625
 40
0.125
 40
0.125
 40
0.1875
 40
0.1875
 40
0.25
 40
0.25
 40
0.265625
 40
0.265625
 40
0.28125
 40
0.28125
 40
0.3125
 40
0.3125
 40
0.375
 40
0.375
 40
0.4375
 40
0.4375
 40
0.5
 40
0.5
 40
0.515625
 40
0.515625
 40
0.53125
 40
0.5625
 40
0.5625
 40
0.625
 40
0.625
 40
0.6875
 40
0.6875
 40
0.75
 40
0.75
 40
0.765625
 40
0.765625
 40
0.78125
 40
0.8125
 40
0.8125
 40
0.875
 40
0.875
 40
0.9375
 40
0.9375
 40
1.0
 40
1.0
 40
1.0
 40
1.0
 10
-605.1212363135837
 20
218.4112011116067
 30
0.0
 10
-605.1076986495518
 20
218.2926746393894
 30
0.0
 10
-605.093384424217
 20
218.1673491306854
 30
0.0
 10
-605.0632174357485
 20
217.9032277348415
 30
0.0
 10
-605.0473646726149
 20
217.7644318477015
 30
0.0
 10
-604.9975204537267
 20
217.3280301604336
 30
0.0
 10
-604.961243068485
 20
217.0104103344576
 30
0.0
 10
-604.8434422124973
 20
215.9790270875848
 30
0.0
 10
-604.7529472220933
 20
215.1867152130547
 30
0.0
 10
-604.5483940969773
 20
213.3957887841122
 30
0.0
 10
-604.4343356155342
 20
212.3971711939594
 30
0.0
 10
-604.182483075709
 20
210.192123632288
 30
0.0
 10
-604.0446906981774
 20
208.9857083771402
 30
0.0
 10
-603.8571662248179
 20
207.3438731070945
 30
0.0
 10
-603.8188956994172
 20
207.0088027171876
 30
0.0
 10
-603.7408061699849
 20
206.3251045238469
 30
0.0
 10
-603.7009870116425
 20
205.9764753693751
 30
0.0
 10
-603.5798333297637
 20
204.9157370857753
 30
0.0
 10
-603.4965997491942
 20
204.1870011198353
 30
0.0
 10
-603.2396344388553
 20
201.9371896571836
 30
0.0
 10
-603.0586517302297
 20
200.3526295783498
 30
0.0
 10
-602.6776828535596
 20
197.0171282045802
 30
0.0
 10
-602.4776962168228
 20
195.2661828060972
 30
0.0
 10
-602.0586283604721
 20
191.597112978719
 30
0.0
 10
-601.8395483133858
 20
189.6789988156701
 30
0.0
 10
-601.5534329195613
 20
187.1739692775625
 30
0.0
 10
-601.4955519570613
 20
186.6672033925888
 30
0.0
 10
-601.3787414619625
 20
185.6444910642786
 30
0.0
 10
-601.2023202926856
 20
184.0998686855995
 30
0.0
 10
-601.0223213928393
 20
182.5239221595661
 30
0.0
 10
-600.6576309951039
 20
179.3309439475952
 30
0.0
 10
-600.4082555984619
 20
177.1475845473366
 30
0.0
 10
-599.8971968877565
 20
172.6731060898463
 30
0.0
 10
-599.6355133889708
 20
170.3819854153141
 30
0.0
 10
-599.0997483932565
 20
165.6911957244542
 30
0.0
 10
-598.8256677819842
 20
163.291534462324
 30
0.0
 10
-598.4750826425872
 20
160.2220521878058
 30
0.0
 10
-598.4045179079098
 20
159.6042359202085
 30
0.0
 10
-598.2632679542423
 20
158.3675485072601
 30
0.0
 10
-598.0509780466454
 20
156.5088841338975
 30
0.0
 10
-597.8374556035229
 20
154.6394285274704
 30
0.0
 10
-597.408791882477
 20
150.8863439108703
 30
0.0
 10
-597.1208604861131
 20
148.365414703953
 30
0.0
 10
-596.540740461583
 20
143.2862828974807
 30
0.0
 10
-596.2485518118467
 20
140.7280801090721
 30
0.0
 10
-595.6598749290266
 20
135.5740303386168
 30
0.0
 10
-595.3633853660158
 20
132.9781717126434
 30
0.0
 10
-595.0646780119713
 20
130.3628956342438
 30
0.0
  0
SPLINE
  5
B4
330
1F
100
AcDbEntity
  8
0
  6
Continuous
 62
     7
370
    25
100
AcDbSpline
210
0.0
220
0.0
230
1.0
 70
     8
 71
     3
 72
    62
 73
    58
 74
     0
 42
0.000000001
 43
0.00000001
 40
0.0
 40
0.0
 40
0.0
 40
0.0
 40
0.0078909689048802
 40
0.0157929715823422
 40
0.0237060170498648
 40
0.0316301142989537
 40
0.0395652722951646
 40
0.047511499978132
 40
0.0554688062615838
 40
0.0634372000333752
 40
0.071416690155504
 40
0.0794072854641361
 40
0.0874089947696334
 40
0.0954218268565732
 40
0.103445790483773
 40
0.1114808943843178
 40
0.1195271472655821
 40
0.1275845578092585
 40
0.1356531346713742
 40
0.1437328864823311
 40
0.1518238218469209
 40
0.1599259493443546
 40
0.1680392775282958
 40
0.1761638149268771
 40
0.1842995700427384
 40
0.1924465513530542
 40
0.2006047673095606
 40
0.2087742263385864
 40
0.2169549368410894
 40
0.2251469071926796
 40
0.2333501457436592
 40
0.2415646608190541
 40
0.2497904607186467
 40
0.280607117421953
 40
0.3117348654974974
 40
0.3431741263724186
 40
0.3749253136519184
 40
0.4365151455716111
 40
0.4998559187915185
 40
0.5611517257384541
 40
0.6249258153339404
 40
0.6855768256235174
 40
0.749891521915542
 40
0.7788317112850006
 40
0.8093229108139738
 40
0.8413653908535378
 40
0.8749594295843963
 40
0.8844884402344175
 40
0.8946784696528907
 40
0.9055295525520664
 40
0.9170417257902878
 40
0.9292150283880013
 40
0.942049501538934
 40
0.955545188617985
 40
0.9697021351868963
 40
0.9845203889984862
 40
0.9999999999999999
 40
0.9999999999999999
 40
0.9999999999999999
 40
0.9999999999999999
 10
547.844669138347
 20
218.0909099484121
 30
0.0
 10
547.8345787216133
 20
218.0253655703745
 30
0.0
 10
547.8143837789327
 20
217.8941851650012
 30
0.0
 10
547.7820589815708
 20
217.684282857029
 30
0.0
 10
547.7482193591115
 20
217.4645774592272
 30
0.0
 10
547.7127190499023
 20
217.2341168896506
 30
0.0
 10
547.6755961282354
 20
216.993137102543
 30
0.0
 10
547.6368394014912
 20
216.7415567993241
 30
0.0
 10
547.5964510287688
 20
216.4793816328872
 30
0.0
 10
547.5544297082914
 20
216.2065956924327
 30
0.0
 10
547.5107751928953
 20
215.923190658645
 30
0.0
 10
547.4654870787116
 20
215.6291579928604
 30
0.0
 10
547.4185651315244
 20
215.3244910518195
 30
0.0
 10
547.3700092002572
 20
215.0091845371555
 30
0.0
 10
547.3198192412808
 20
214.6832346603734
 30
0.0
 10
547.2679953129698
 20
214.3466391155472
 30
0.0
 10
547.2145375782234
 20
213.9993971034816
 30
0.0
 10
547.1594463048423
 20
213.6415093418806
 30
0.0
 10
547.1027218664495
 20
213.2729780790932
 30
0.0
 10
547.0443647432717
 20
212.8938071067148
 30
0.0
 10
546.9843755229225
 20
212.5040017723081
 30
0.0
 10
546.9227549011857
 20
212.1035689918866
 30
0.0
 10
546.8595036827646
 20
211.6925172622963
 30
0.0
 10
546.7946227820449
 20
211.2708566732883
 30
0.0
 10
546.7281132238036
 20
210.8385989199489
 30
0.0
 10
546.659976144001
 20
210.3957573129896
 30
0.0
 10
546.5902127902282
 20
209.9423467962302
 30
0.0
 10
546.5188245233618
 20
209.4783839363259
 30
0.0
 10
546.4458128146371
 20
209.0038870154345
 30
0.0
 10
546.3711792597795
 20
208.5188757380314
 30
0.0
 10
546.2949255292947
 20
208.0233723798053
 30
0.0
 10
546.217053557375
 20
207.5173975426029
 30
0.0
 10
546.0648335129096
 20
206.52847512953
 30
0.0
 10
545.8286795376421
 20
204.994480879965
 30
0.0
 10
545.4937498496099
 20
202.8187520659519
 30
0.0
 10
545.1350120787109
 20
200.4881805512522
 30
0.0
 10
544.6340112538471
 20
197.2332997597041
 30
0.0
 10
543.9572518275097
 20
192.8373848541322
 30
0.0
 10
543.083718815579
 20
187.1619367702114
 30
0.0
 10
542.1362751096832
 20
181.0078569607974
 30
0.0
 10
541.1465135015887
 20
174.5771029022235
 30
0.0
 10
540.0913164685961
 20
167.7233861748565
 30
0.0
 10
539.1968129837978
 20
161.9112234841223
 30
0.0
 10
538.46122039147
 20
157.1333001650497
 30
0.0
 10
537.9105572507096
 20
153.5564100725551
 30
0.0
 10
537.3254245629491
 20
149.7548647023872
 30
0.0
 10
536.8634059487989
 20
146.7527733022936
 30
0.0
 10
536.5339702932197
 20
144.6130001057203
 30
0.0
 10
536.3446159131315
 20
143.3834085119321
 30
0.0
 10
536.1425630609854
 20
142.0713443559668
 30
0.0
 10
535.9277989279268
 20
140.676594562002
 30
0.0
 10
535.7003244522372
 20
139.1990397358117
 30
0.0
 10
535.4601451144421
 20
137.6386601036987
 30
0.0
 10
535.2072758480725
 20
135.9955572779121
 30
0.0
 10
534.9417382675542
 20
134.2699731123106
 30
0.0
 10
534.6635747757538
 20
132.4623088636222
 30
0.0
 10
534.4738659537823
 20
131.2297770847304
 30
0.0
 10
534.3769410125102
 20
130.6000590302753
 30
0.0
  0
SPLINE
  5
B5
330
1F
100
AcDbEntity
  8
0
  6
Continuous
 62
     7
370
    25
100
AcDbSpline
210
0.0
220
0.0
230
1.0
 70
    24
 71
     3
 72
    52
 73
    48
 74
     0
 42
0.000000001
 43
0.00000001
 40
0.0
 40
0.0
 40
0.0
 40
0.0
 40
0.015625
 40
0.015625
 40
0.03125
 40
0.03125
 40
0.0625
 40
0.0625
 40
0.125
 40
0.125
 40
0.1875
 40
0.1875
 40
0.25
 40
0.25
 40
0.265625
 40
0.265625
 40
0.28125
 40
0.28125
 40
0.3125
 40
0.3125
 40
0.375
 40
0.375
 40
0.4375
 40
0.4375
 40
0.5
 40
0.5
 40
0.515625
 40
0.515625
 40
0.53125
 40
0.5625
 40
0.5625
 40
0.625
 40
0.625
 40
0.6875
 40
0.6875
 40
0.75
 40
0.75
 40
0.765625
 40
0.765625
 40
0.78125
 40
0.8125
 40
0.8125
 40
0.875
 40
0.875
 40
0.9375
 40
0.9375
 40
1.0
 40
1.0
 40
1.0
 40
1.0
 10
-683.575464984988
 20
-134.999999974735
 30
0.0
 10
-683.4562473208464
 20
-134.9937541287002
 30
0.0
 10
-683.3301948885199
 20
-134.9871502072906
 30
0.0
 10
-683.0645488493723
 20
-134.9732329386356
 30
0.0
 10
-682.9249552425512
 20
-134.9659195913902
 30
0.0
 10
-682.4860552031582
 20
-134.9429254982711
 30
0.0
 10
-682.1666295516569
 20
-134.9261907010142
 30
0.0
 10
-681.1294160639359
 20
-134.8718508026762
 30
0.0
 10
-680.3326668815594
 20
-134.8301088950712
 30
0.0
 10
-678.5317811744137
 20
-134.7357600002649
 30
0.0
 10
-677.5276416002151
 20
-134.6831528533033
 30
0.0
 10
-675.3104572150323
 20
-134.5669939568816
 30
0.0
 10
-674.0974272008319
 20
-134.503442982629
 30
0.0
 10
-672.4466195391918
 20
-134.4169567176788
 30
0.0
 10
-672.1097194075674
 20
-134.3993064276284
 30
0.0
 10
-671.4222904037867
 20
-134.363291834083
 30
0.0
 10
-671.0717908599886
 20
-134.3449290671089
 30
0.0
 10
-670.0053638950078
 20
-134.2890586667063
 30
0.0
 10
-669.2727259200905
 20
-134.2506755627968
 30
0.0
 10
-667.0108849642512
 20
-134.1321770964232
 30
0.0
 10
-665.4178745246425
 20
-134.0487188437448
 30
0.0
 10
-662.0646238806746
 20
-133.8730411252692
 30
0.0
 10
-660.3043795615541
 20
-133.7808214438986
 30
0.0
 10
-656.6158573342161
 20
-133.587578755461
 30
0.0
 10
-654.6875897514066
 20
-133.4865562893451
 30
0.0
 10
-652.1693184532135
 20
-133.3546233671924
 30
0.0
 10
-651.6598562386034
 20
-133.3279325024122
 30
0.0
 10
-650.6318003284176
 20
-133.2740723720663
 30
0.0
 10
-649.0791106343253
 20
-133.1927265342745
 30
0.0
 10
-647.4949425394939
 20
-133.1097315344579
 30
0.0
 10
-644.2853186821792
 20
-132.9415784626223
 30
0.0
 10
-642.0905925214529
 20
-132.826596158723
 30
0.0
 10
-637.5928487436553
 20
-132.5909581319049
 30
0.0
 10
-635.2898295031712
 20
-132.470302323935
 30
0.0
 10
-630.5747067858135
 20
-132.2232757550121
 30
0.0
 10
-628.162611099849
 20
-132.096905402227
 30
0.0
 10
-625.0772408164229
 20
-131.9352620091154
 30
0.0
 10
-624.4562396949729
 20
-131.9027275904958
 30
0.0
 10
-623.2131887261048
 20
-131.8376038102164
 30
0.0
 10
-621.3449614790029
 20
-131.7397268737115
 30
0.0
 10
-619.4658908639755
 20
-131.6412818501948
 30
0.0
 10
-615.6935076700664
 20
-131.4436456627795
 30
0.0
 10
-613.1596214468452
 20
-131.3108946704334
 30
0.0
 10
-608.0543950067653
 20
-131.0434304607693
 30
0.0
 10
-605.4830546006403
 20
-130.9087172335357
 30
0.0
 10
-600.3025471082047
 20
-130.6373090289466
 30
0.0
 10
-597.6933683240923
 20
-130.5006134387399
 30
0.0
 10
-595.0646780119712
 20
-130.3628956342439
 30
0.0
  0
SPLINE
  5
B6
330
1F
100
AcDbEntity
  8
0
  6
Continuous
 62
     7
370
    25
100
AcDbSpline
210
0.0
220
0.0
230
1.0
 70
     8
 71
     3
 72
    61
 73
    57
 74
     0
 42
0.000000001
 43
0.00000001
 40
0.0
 40
0.0
 40
0.0
 40
0.0
 40
0.0078780596048323
 40
0.0157673124150583
 40
0.0236677609735971
 40
0.0315794078125738
 40
0.0395022554533721
 40
0.0474363064066961
 40
0.0553815631726222
 40
0.0633380282406683
 40
0.0713057040898368
 40
0.0792845931886794
 40
0.0872746979953568
 40
0.0952760209576831
 40
0.1032885645131927
 40
0.1113123310891904
 40
0.1193473231028067
 40
0.1273935429610521
 40
0.1354509930608745
 40
0.1435196757892084
 40
0.1515995935230328
 40
0.1596907486294176
 40
0.1677931434655917
 40
0.175906780378972
 40
0.1840316617072383
 40
0.1921677897783696
 40
0.2003151669107027
 40
0.2084737954129855
 40
0.2166436775844245
 40
0.2248248157147298
 40
0.2330172120841756
 40
0.2412208689636445
 40
0.2494357886146797
 40
0.309660905709003
 40
0.3714273716173936
 40
0.4347358872642621
 40
0.499587096845506
 40
0.5608877455067587
 40
0.624803083869218
 40
0.6853274573023596
 40
0.7497535942007957
 40
0.7784930779327983
 40
0.8089337671938246
 40
0.8410756310608439
 40
0.8749186345406087
 40
0.8828507863369113
 40
0.8914707210050884
 40
0.9007784366936984
 40
0.9107739313732999
 40
0.921457202842094
 40
0.9328282487298234
 40
0.9448870665005951
 40
0.9576336534549211
 40
0.9710680067312477
 40
0.9851901233071083
 40
1.0
 40
1.0
 40
1.0
 40
1.0
 10
-683.5754649849881
 20
134.9999999747352
 30
0.0
 10
-683.5149551785714
 20
134.9968292147609
 30
0.0
 10
-683.3938495929573
 20
134.9904831897729
 30
0.0
 10
-683.1986128305821
 20
134.9802456278859
 30
0.0
 10
-682.9932524864895
 20
134.9694739098362
 30
0.0
 10
-682.7767803268016
 20
134.9581167147753
 30
0.0
 10
-682.5494375971227
 20
134.9461878233331
 30
0.0
 10
-682.3111372365261
 20
134.9336835351589
 30
0.0
 10
-682.0618821927713
 20
134.9206048438576
 30
0.0
 10
-681.8016531165745
 20
134.9069514826297
 30
0.0
 10
-681.5304385372001
 20
134.8927235231075
 30
0.0
 10
-681.2482267791431
 20
134.8779209460505
 30
0.0
 10
-680.9550081518203
 20
134.8625437566311
 30
0.0
 10
-680.6507743806262
 20
134.8465919534515
 30
0.0
 10
-680.3355187785528
 20
134.8300655368822
 30
0.0
 10
-680.0092362187833
 20
134.81296450682
 30
0.0
 10
-679.671923160539
 20
134.7952888633012
 30
0.0
 10
-679.323577660444
 20
134.7770386062948
 30
0.0
 10
-678.9641993875769
 20
134.7582137358169
 30
0.0
 10
-678.5937896373351
 20
134.7388142518607
 30
0.0
 10
-678.2123513454152
 20
134.7188401544208
 30
0.0
 10
-677.8198891015246
 20
134.698291443496
 30
0.0
 10
-677.4164091630274
 20
134.677168119084
 30
0.0
 10
-677.0019194680764
 20
134.6554701811752
 30
0.0
 10
-676.5764296498214
 20
134.6331976298183
 30
0.0
 10
-676.1399510456648
 20
134.6103504647951
 30
0.0
 10
-675.6924967241907
 20
134.5869286869102
 30
0.0
 10
-675.2340814450431
 20
134.5629322931549
 30
0.0
 10
-674.7647218686145
 20
134.538361294767
 30
0.0
 10
-674.2844358305387
 20
134.513215649701
 30
0.0
 10
-673.7932451126006
 20
134.4874955151927
 30
0.0
 10
-673.2911651368573
 20
134.4612003031976
 30
0.0
 10
-671.6960105455487
 20
134.377642192529
 30
0.0
 10
-668.7619940401429
 20
134.2237355318836
 30
0.0
 10
-664.0519644928954
 20
133.9768005913185
 30
0.0
 10
-658.69763917347
 20
133.6964620911513
 30
0.0
 10
-652.8600797399158
 20
133.390873137747
 30
0.0
 10
-646.5607908634214
 20
133.0607234533304
 30
0.0
 10
-640.0196565126773
 20
132.7181375814822
 30
0.0
 10
-633.031794246947
 20
132.351917669364
 30
0.0
 10
-627.1093880811567
 20
132.0417609567527
 30
0.0
 10
-622.2355588452663
 20
131.7863440017036
 30
0.0
 10
-618.58724348842
 20
131.5951664514731
 30
0.0
 10
-614.6895867559356
 20
131.3909998233084
 30
0.0
 10
-611.670751811688
 20
131.2329135734379
 30
0.0
 10
-609.6024227951086
 20
131.1245169722363
 30
0.0
 10
-608.5390661166739
 20
131.0687559235859
 30
0.0
 10
-607.388705365128
 20
131.0084309345787
 30
0.0
 10
-606.1510488916775
 20
130.9435380539582
 30
0.0
 10
-604.8258712416302
 20
130.8740783223349
 30
0.0
 10
-603.4130200931116
 20
130.8000513432628
 30
0.0
 10
-601.9124376715698
 20
130.7214570773241
 30
0.0
 10
-600.3241793948464
 20
130.638295775485
 30
0.0
 10
-598.6484348709118
 20
130.5505660844735
 30
0.0
 10
-596.8855496326831
 20
130.4582733061582
 30
0.0
 10
-595.6811784999472
 20
130.3951880707959
 30
0.0
 10
-595.0646780119716
 20
130.3628956342473
 30
0.0
  0
SPLINE
  5
B8
330
1F
100
AcDbEntity
  8
0
  6
Continuous
 62
     7
370
    25
100
AcDbSpline
210
0.0
220
0.0
230
1.0
 70
    24
 71
     3
 72
    69
 73
    65
 74
     0
 42
0.000000001
 43
0.00000001
 40
0.0
 40
0.0
 40
0.0
 40
0.0
 40
0.015625
 40
0.015625
 40
0.03125
 40
0.03125
 40
0.0625
 40
0.0625
 40
0.078125
 40
0.078125
 40
0.09375
 40
0.09375
 40
0.125
 40
0.125
 40
0.1875
 40
0.1875
 40
0.25
 40
0.25
 40
0.265625
 40
0.265625
 40
0.28125
 40
0.3125
 40
0.3125
 40
0.375
 40
0.375
 40
0.390625
 40
0.390625
 40
0.40625
 40
0.40625
 40
0.4375
 40
0.4375
 40
0.5
 40
0.5
 40
0.515625
 40
0.515625
 40
0.53125
 40
0.53125
 40
0.5625
 40
0.5625
 40
0.625
 40
0.625
 40
0.6875
 40
0.6875
 40
0.703125
 40
0.703125
 40
0.71875
 40
0.71875
 40
0.75
 40
0.75
 40
0.765625
 40
0.765625
 40
0.78125
 40
0.78125
 40
0.8125
 40
0.8125
 40
0.875
 40
0.875
 40
0.9375
 40
0.9375
 40
0.96875
 40
0.96875
 40
0.984375
 40
0.984375
 40
1.0
 40
1.0
 40
1.0
 40
1.0
 10
614.8753882025021
 20
-134.9999999747061
 30
0.0
 10
614.6410677214499
 20
-134.9871923204632
 30
0.0
 10
614.402758103526
 20
-134.9741666251616
 30
0.0
 10
613.9181661775764
 20
-134.9476794576353
 30
0.0
 10
613.6718838695507
 20
-134.9342179854107
 30
0.0
 10
612.9210862857842
 20
-134.8931803611444
 30
0.0
 10
612.4046203503534
 20
-134.8649510015105
 30
0.0
 10
611.6060536296793
 20
-134.8213023780424
 30
0.0
 10
611.335882160518
 20
-134.8065351551869
 30
0.0
 10
610.7875614035297
 20
-134.7765646522322
 30
0.0
 10
610.5093702831214
 20
-134.7613590856184
 30
0.0
 10
609.6649672962083
 20
-134.7152051111578
 30
0.0
 10
609.0882491888613
 20
-134.6836824457837
 30
0.0
 10
607.3173586407784
 20
-134.5868878602654
 30
0.0
 10
606.0824993962923
 20
-134.5193920520842
 30
0.0
 10
603.50626409641
 20
-134.3785783646886
 30
0.0
 10
602.1648850847461
 20
-134.3052603238885
 30
0.0
 10
600.421873561598
 20
-134.2099895697929
 30
0.0
 10
600.0699531735426
 20
-134.1907540568279
 30
0.0
 10
599.3594686843416
 20
-134.1519198941385
 30
0.0
 10
598.2837756231293
 20
-134.0931239035463
 30
0.0
 10
597.1781297586232
 20
-134.0326907314902
 30
0.0
 10
594.9266352611417
 20
-133.9096269560829
 30
0.0
 10
593.3720858018797
 20
-133.8246572944967
 30
0.0
 10
591.3603002953992
 20
-133.7146957023124
 30
0.0
 10
590.9543097014705
 20
-133.6925047818706
 30
0.0
 10
590.1362665454777
 20
-133.647791601654
 30
0.0
 10
589.7250019950526
 20
-133.6253124135754
 30
0.0
 10
588.4845358899007
 20
-133.5575101416465
 30
0.0
 10
587.6486640403128
 20
-133.5118224681114
 30
0.0
 10
585.1147365207906
 20
-133.3733212692367
 30
0.0
 10
583.3904005668107
 20
-133.2790712975824
 30
0.0
 10
581.1919056944672
 20
-133.1589044130944
 30
0.0
 10
580.7500504779657
 20
-133.1347531787978
 30
0.0
 10
579.8620361835069
 20
-133.0862154667075
 30
0.0
 10
579.4158771045552
 20
-133.0618289888593
 30
0.0
 10
578.0709512419883
 20
-132.9883170817791
 30
0.0
 10
577.1657377395459
 20
-132.9388392832391
 30
0.0
 10
574.4242970431055
 20
-132.7889956826722
 30
0.0
 10
572.5623009769985
 20
-132.6872213874452
 30
0.0
 10
568.7687698686937
 20
-132.4798718865535
 30
0.0
 10
566.837238035398
 20
-132.3742968562832
 30
0.0
 10
564.3782126044126
 20
-132.2398897086317
 30
0.0
 10
563.8838834482074
 20
-132.2128703167013
 30
0.0
 10
562.8945261398499
 20
-132.1587933266267
 30
0.0
 10
562.3990749189671
 20
-132.1317126040932
 30
0.0
 10
560.9104219045056
 20
-132.0503447568983
 30
0.0
 10
559.9149214938981
 20
-131.995931992805
 30
0.0
 10
558.4171330244799
 20
-131.9140648134651
 30
0.0
 10
557.917113706383
 20
-131.8867344046497
 30
0.0
 10
556.9155698619643
 20
-131.8319913142855
 30
0.0
 10
556.4140453345666
 20
-131.8045786326779
 30
0.0
 10
554.9072235056897
 20
-131.7222177016006
 30
0.0
 10
553.8996786302101
 20
-131.6671466026451
 30
0.0
 10
550.8681049872627
 20
-131.5014447107045
 30
0.0
 10
548.8351477158923
 20
-131.3903258972512
 30
0.0
 10
544.7454383568335
 20
-131.1667876764795
 30
0.0
 10
542.6886866224335
 20
-131.0543682884711
 30
0.0
 10
539.5854733577357
 20
-130.8847506675198
 30
0.0
 10
538.5480534544934
 20
-130.8280466382102
 30
0.0
 10
536.9873395413755
 20
-130.7427400355541
 30
0.0
 10
536.4663375606275
 20
-130.7142627415535
 30
0.0
 10
535.4227954404224
 20
-130.6572240797879
 30
0.0
 10
534.9002553009656
 20
-130.6286627120229
 30
0.0
 10
534.3769410125097
 20
-130.6000590302755
 30
0.0
  0
SPLINE
  5
B9
330
1F
100
AcDbEntity
  8
0
  6
Continuous
 62
     7
370
    25
100
AcDbSpline
210
0.0
220
0.0
230
1.0
 70
     8
 71
     3
 72
    53
 73
    49
 74
     0
 42
0.000000001
 43
0.00000001
 40
0.0
 40
0.0
 40
0.0
 40
0.0
 40
0.0093387043798568
 40
0.0187011275040268
 40
0.0280872717724841
 40
0.0374971395670296
 40
0.0469307332514913
 40
0.0563880551718776
 40
0.0658691076565731
 40
0.0753738930165064
 40
0.0849024135453209
 40
0.0944546715195459
 40
0.1040306691987706
 40
0.1136304088258
 40
0.1232538926268215
 40
0.132901122811567
 40
0.1425721015734863
 40
0.1522668310898845
 40
0.1619853135220868
 40
0.1717275510155986
 40
0.1814935457002491
 40
0.1912832996903473
 40
0.2010968150848318
 40
0.2109340939674099
 40
0.2207951384067121
 40
0.2306799504564321
 40
0.240588532155469
 40
0.2505208855280676
 40
0.3104033970775369
 40
0.3720369168902516
 40
0.4354217613575278
 40
0.5005582151024008
 40
0.5581073043530975
 40
0.6189373486974551
 40
0.6830483007334784
 40
0.7504400801024246
 40
0.7790170360390593
 40
0.8092949468559356
 40
0.8412737907689565
 40
0.8749535437455652
 40
0.8860309658044426
 40
0.8984093693069644
 40
0.9120887479661007
 40
0.9270690947950894
 40
0.9433504021163394
 40
0.9609326615670243
 40
0.9798158641027356
 40
1.0
 40
1.0
 40
1.0
 40
1.0
 10
614.8753882025021
 20
134.999999974706
 30
0.0
 10
614.735757806729
 20
134.9923674650189
 30
0.0
 10
614.4561423773742
 20
134.9770830603491
 30
0.0
 10
614.0252760115371
 20
134.9535256011903
 30
0.0
 10
613.5853452635295
 20
134.9294700754316
 30
0.0
 10
613.1355450041245
 20
134.9048729472035
 30
0.0
 10
612.6760714540414
 20
134.8797459262037
 30
0.0
 10
612.2068534237482
 20
134.8540858629129
 30
0.0
 10
611.7278935956623
 20
134.8278936044072
 30
0.0
 10
611.239176760384
 20
134.8011689228312
 30
0.0
 10
610.740694526254
 20
134.773911879444
 30
0.0
 10
610.2324387021089
 20
134.7461224577441
 30
0.0
 10
609.7144031055681
 20
134.717800662147
 30
0.0
 10
609.1865831051458
 20
134.6889464914357
 30
0.0
 10
608.6489757717692
 20
134.6595599459238
 30
0.0
 10
608.1015798663026
 20
134.6296410254926
 30
0.0
 10
607.5443958710424
 20
134.5991897301543
 30
0.0
 10
606.9774260093582
 20
134.5682060598859
 30
0.0
 10
606.4006742681024
 20
134.5366900146549
 30
0.0
 10
605.8141464201789
 20
134.5046415945023
 30
0.0
 10
605.2178500430513
 20
134.4720607992042
 30
0.0
 10
604.6117945526639
 20
134.4389476294749
 30
0.0
 10
603.9959911788295
 20
134.4053020825899
 30
0.0
 10
603.370453159236
 20
134.3711241686692
 30
0.0
 10
602.7351951139411
 20
134.3364138497057
 30
0.0
 10
602.0902354886383
 20
134.301171267971
 30
0.0
 10
601.4355875029371
 20
134.2653958905273
 30
0.0
 10
599.6582366031405
 20
134.1682569993813
 30
0.0
 10
596.6024003396163
 20
134.0011208293675
 30
0.0
 10
592.0189832484356
 20
133.7505045763781
 30
0.0
 10
587.0254706001152
 20
133.477647979694
 30
0.0
 10
581.8821268232459
 20
133.1967039229496
 30
0.0
 10
576.5929307336648
 20
132.9073583817727
 30
0.0
 10
571.1467825248689
 20
132.6095042242314
 30
0.0
 10
565.2265833095352
 20
132.2860798388867
 30
0.0
 10
560.1656999420779
 20
132.0096718743853
 30
0.0
 10
556.1152653710725
 20
131.7882235038581
 30
0.0
 10
553.1771097100965
 20
131.6276096172433
 30
0.0
 10
550.0510374739246
 20
131.456757592609
 30
0.0
 10
547.5343587345617
 20
131.3192415632697
 30
0.0
 10
545.6542251893734
 20
131.2164452497773
 30
0.0
 10
544.4302122437006
 20
131.1494980875501
 30
0.0
 10
543.0753602739633
 20
131.0754055987689
 30
0.0
 10
541.5893597433343
 20
130.9941637202003
 30
0.0
 10
539.9720496947576
 20
130.9057737136135
 30
0.0
 10
538.2234545715914
 20
130.8102338868026
 30
0.0
 10
536.3438380787416
 20
130.7075492881933
 30
0.0
 10
535.0469685203399
 20
130.6366758064493
 30
0.0
 10
534.3769410125097
 20
130.6000590302774
 30
0.0
  0
CIRCLE
  5
BB
330
1F
100
AcDbEntity
  8
0
  6
Continuous
 62
     7
370
    25
100
AcDbCircle
 10
-520.0
 20
0.0
 30
0.0
 40
45.00000000000021
  0
CIRCLE
  5
BC
330
1F
100
AcDbEntity
  8
0
  6
Continuous
 62
     7
370
    25
100
AcDbCircle
 10
-520.0
 20
0.0
 30
0.0
 40
39.99999999999996
  0
CIRCLE
  5
BD
330
1F
100
AcDbEntity
  8
0
  6
Continuous
 62
     7
370
    25
100
AcDbCircle
 10
-520.0
 20
0.0
 30
0.0
 40
37.99999999999999
  0
CIRCLE
  5
BE
330
1F
100
AcDbEntity
  8
0
  6
Continuous
 62
     7
370
    25
100
AcDbCircle
 10
-520.0
 20
0.0
 30
0.0
 40
26.00000000000003
  0
LINE
  5
BF
330
1F
100
AcDbEntity
  8
0
  6
Continuous
 62
     7
370
    25
100
AcDbLine
 10
614.8753882025
 20
134.9999999747
 30
0.0
 11
614.8753882025
 21
-134.9999999747
 31
0.0
  0
LINE
  5
C0
330
1F
100
AcDbEntity
  8
0
  6
Continuous
 62
     7
370
    25
100
AcDbLine
 10
-683.575464985
 20
-134.9999999747
 30
0.0
 11
-683.575464985
 21
134.9999999747
 31
0.0
  0
LINE
  5
C1
330
1F
100
AcDbEntity
  8
0
  6
Continuous
 62
     7
370
    25
100
AcDbLine
 10
-735.474845005
 20
134.9999999956
 30
0.0
 11
-735.474845005
 21
-134.9999999999
 31
0.0
  0
LINE
  5
C2
330
1F
100
AcDbEntity
  8
0
  6
Continuous
 62
     7
370
    25
100
AcDbLine
 10
771.7082039325
 20
-134.9999999954
 30
0.0
 11
771.7082039325
 21
135.0
 31
0.0
  0
LINE
  5
C3
330
1F
100
AcDbEntity
  8
0
  6
Continuous
 62
     7
370
    25
100
AcDbLine
 10
645.4545067751
 20
-270.0091112602
 30
0.0
 11
648.2751623852
 21
-299.2035892901
 31
0.0
  0
LINE
  5
C4
330
1F
100
AcDbEntity
  8
0
  6
Continuous
 62
     7
370
    25
100
AcDbLine
 10
-605.4687978114
 20
-270.3628414213
 30
0.0
 11
-606.7098469006
 21
-299.8399615798
 31
0.0
  0
LINE
  5
C5
330
1F
100
AcDbEntity
  8
0
  6
Continuous
 62
     7
370
    25
100
AcDbLine
 10
-606.7098469262
 20
299.8399615787
 30
0.0
 11
-605.468797837
 21
270.3628414202
 31
0.0
  0
LINE
  5
C6
330
1F
100
AcDbEntity
  8
0
  6
Continuous
 62
     7
370
    25
100
AcDbLine
 10
648.2751623842
 20
299.2035892902
 30
0.0
 11
645.4545067742
 21
270.0091112603
 31
0.0
  0
LINE
  5
C7
330
1F
100
AcDbEntity
  8
0
  6
Continuous
 62
     7
370
    25
100
AcDbLine
 10
771.7082039325
 20
-134.9999999954
 30
0.0
 11
798.5410196625
 21
-134.9999999994
 31
0.0
  0
LINE
  5
C8
330
1F
100
AcDbEntity
  8
0
  6
Continuous
 62
     7
370
    25
100
AcDbLine
 10
-764.9784406627
 20
-134.9999999999
 30
0.0
 11
-764.9784406627
 21
135.0000000001
 31
0.0
  0
LINE
  5
C9
330
1F
100
AcDbEntity
  8
0
  6
Continuous
 62
     7
370
    25
100
AcDbLine
 10
798.5410196625
 20
135.0
 30
0.0
 11
798.5410196625
 21
-134.9999999994
 31
0.0
  0
LINE
  5
CA
330
1F
100
AcDbEntity
  8
0
  6
Continuous
 62
     7
370
    25
100
AcDbLine
 10
843.0
 20
-320.0
 30
0.0
 11
843.0
 21
320.0
 31
0.0
  0
LINE
  5
CB
330
1F
100
AcDbEntity
  8
0
  6
Continuous
 62
     7
370
    25
100
AcDbLine
 10
-820.0
 20
-343.0
 30
0.0
 11
820.0
 21
-343.0
 31
0.0
  0
LINE
  5
CC
330
1F
100
AcDbEntity
  8
0
  6
Continuous
 62
     7
370
    25
100
AcDbLine
 10
-843.0
 20
320.0
 30
0.0
 11
-843.0
 21
-320.0
 31
0.0
  0
LINE
  5
CD
330
1F
100
AcDbEntity
  8
0
  6
Continuous
 62
     7
370
    25
100
AcDbLine
 10
820.0
 20
343.0
 30
0.0
 11
-820.0
 21
343.0
 31
0.0
  0
LINE
  5
CE
330
1F
100
AcDbEntity
  8
0
  6
Continuous
 62
     7
370
    25
100
AcDbLine
 10
-850.0
 20
-320.0
 30
0.0
 11
-850.0
 21
320.0
 31
0.0
  0
LINE
  5
CF
330
1F
100
AcDbEntity
  8
0
  6
Continuous
 62
     7
370
    25
100
AcDbLine
 10
-850.0
 20
320.0
 30
0.0
 11
-843.0
 21
320.0
 31
0.0
  0
LINE
  5
D0
330
1F
100
AcDbEntity
  8
0
  6
Continuous
 62
     7
370
    25
100
AcDbLine
 10
-850.0
 20
-320.0
 30
0.0
 11
-843.0
 21
-320.0
 31
0.0
  0
LINE
  5
D1
330
1F
100
AcDbEntity
  8
0
  6
Continuous
 62
     7
370
    25
100
AcDbLine
 10
-764.9784406627
 20
-134.9999999999
 30
0.0
 11
-735.474845005
 21
-134.9999999999
 31
0.0
  0
LINE
  5
D2
330
1F
100
AcDbEntity
  8
0
  6
Continuous
 62
     7
370
    25
100
AcDbLine
 10
-820.0
 20
343.0
 30
0.0
 11
-820.0
 21
350.0
 31
0.0
  0
LINE
  5
D3
330
1F
100
AcDbEntity
  8
0
  6
Continuous
 62
     7
370
    25
100
AcDbLine
 10
-764.9784406627
 20
135.0000000001
 30
0.0
 11
-735.474845005
 21
134.9999999956
 31
0.0
  0
LINE
  5
D4
330
1F
100
AcDbEntity
  8
0
  6
Continuous
 62
     7
370
    25
100
AcDbLine
 10
843.0
 20
320.0
 30
0.0
 11
850.0
 21
320.0
 31
0.0
  0
LINE
  5
D5
330
1F
100
AcDbEntity
  8
0
  6
Continuous
 62
     7
370
    25
100
AcDbLine
 10
850.0
 20
320.0
 30
0.0
 11
850.0
 21
-320.0
 31
0.0
  0
LINE
  5
D6
330
1F
100
AcDbEntity
  8
0
  6
Continuous
 62
     7
370
    25
100
AcDbLine
 10
843.0
 20
-320.0
 30
0.0
 11
850.0
 21
-320.0
 31
0.0
  0
LINE
  5
D7
330
1F
100
AcDbEntity
  8
0
  6
Continuous
 62
     7
370
    25
100
AcDbLine
 10
820.0
 20
-350.0
 30
0.0
 11
-820.0
 21
-350.0
 31
0.0
  0
LINE
  5
D8
330
1F
100
AcDbEntity
  8
0
  6
Continuous
 62
     7
370
    25
100
AcDbLine
 10
-820.0
 20
-350.0
 30
0.0
 11
-820.0
 21
-343.0
 31
0.0
  0
LINE
  5
D9
330
1F
100
AcDbEntity
  8
0
  6
Continuous
 62
     7
370
    25
100
AcDbLine
 10
820.0
 20
-350.0
 30
0.0
 11
820.0
 21
-343.0
 31
0.0
  0
LINE
  5
DA
330
1F
100
AcDbEntity
  8
0
  6
Continuous
 62
     7
370
    25
100
AcDbLine
 10
771.7082039325
 20
135.0
 30
0.0
 11
798.5410196625
 21
135.0
 31
0.0
  0
LINE
  5
DB
330
1F
100
AcDbEntity
  8
0
  6
Continuous
 62
     7
370
    25
100
AcDbLine
 10
820.0
 20
343.0
 30
0.0
 11
820.0
 21
350.0
 31
0.0
  0
LINE
  5
DC
330
1F
100
AcDbEntity
  8
0
  6
Continuous
 62
     7
370
    25
100
AcDbLine
 10
-820.0
 20
350.0
 30
0.0
 11
820.0
 21
350.0
 31
0.0
  0
LINE
  5
DD
330
1F
100
AcDbEntity
  8
0
  6
Continuous
 62
     7
370
    25
100
AcDbLine
 10
-595.064678012
 20
130.3628956342
 30
0.0
 11
-595.064678012
 21
-130.3628956342
 31
0.0
  0
LINE
  5
DE
330
1F
100
AcDbEntity
  8
0
  6
Continuous
 62
     7
370
    25
100
AcDbLine
 10
534.3769410125
 20
-130.6000590303
 30
0.0
 11
534.3769410125
 21
130.6000590303
 31
0.0
  0
ARC
  5
DF
330
1F
100
AcDbEntity
  8
0
  6
Continuous
 62
     7
370
    25
100
AcDbCircle
 10
820.0
 20
320.0
 30
0.0
 40
23.00000000000006
100
AcDbArc
 50
0.0
 51
90.0
  0
ARC
  5
E0
330
1F
100
AcDbEntity
  8
0
  6
Continuous
 62
     7
370
    25
100
AcDbCircle
 10
820.0
 20
-320.0
 30
0.0
 40
23.00000000000006
100
AcDbArc
 50
270.0
 51
0.0
  0
ARC
  5
E1
330
1F
100
AcDbEntity
  8
0
  6
Continuous
 62
     7
370
    25
100
AcDbCircle
 10
-820.0
 20
-320.0
 30
0.0
 40
23.00000000000006
100
AcDbArc
 50
180.0
 51
270.0
  0
ARC
  5
E2
330
1F
100
AcDbEntity
  8
0
  6
Continuous
 62
     7
370
    25
100
AcDbCircle
 10
-820.0
 20
320.0
 30
0.0
 40
23.00000000000006
100
AcDbArc
 50
90.0
 51
180.0
  0
ARC
  5
E3
330
1F
100
AcDbEntity
  8
0
  6
Continuous
 62
     7
370
    25
100
AcDbCircle
 10
-820.0
 20
320.0
 30
0.0
 40
30.00000000000023
100
AcDbArc
 50
90.0
 51
180.0
  0
ARC
  5
E4
330
1F
100
AcDbEntity
  8
0
  6
Continuous
 62
     7
370
    25
100
AcDbCircle
 10
-820.0
 20
-320.0
 30
0.0
 40
30.00000000000006
100
AcDbArc
 50
180.0
 51
270.0
  0
ARC
  5
E5
330
1F
100
AcDbEntity
  8
0
  6
Continuous
 62
     7
370
    25
100
AcDbCircle
 10
820.0
 20
-320.0
 30
0.0
 40
30.00000000000023
100
AcDbArc
 50
270.0
 51
0.0
  0
ARC
  5
E6
330
1F
100
AcDbEntity
  8
0
  6
Continuous
 62
     7
370
    25
100
AcDbCircle
 10
820.0
 20
320.0
 30
0.0
 40
30.00000000000006
100
AcDbArc
 50
0.0
 51
90.0
  0
SPLINE
  5
127
330
23
100
AcDbEntity
 67
     1
  8
0
  6
Continuous
 62
     7
370
    25
100
AcDbSpline
210
0.0
220
0.0
230
1.0
 70
     8
 71
     3
 72
     9
 73
     5
 74
     0
 42
0.000000001
 43
0.00000001
 40
0.0
 40
0.0
 40
0.0
 40
0.0
 40
0.5917314685828095
 40
1.0
 40
1.0
 40
1.0
 40
1.0
 10
-284.4510732900463
 20
357.8
 30
0.0
 10
-275.5982101042202
 20
303.9909812201929
 30
0.0
 10
-260.6372630262685
 20
213.056120330203
 30
0.0
 10
-245.6754758231129
 20
122.1163947394396
 30
0.0
 10
-239.5670489343041
 20
84.98856652501631
 30
0.0
  0
SPLINE
  5
128
330
23
100
AcDbEntity
 67
     1
  8
0
  6
Continuous
 62
     7
370
    25
100
AcDbSpline
210
0.0
220
0.0
230
1.0
 70
     8
 71
     3
 72
     9
 73
     5
 74
     0
 42
0.000000001
 43
0.00000001
 40
0.0
 40
0.0
 40
0.0
 40
0.0
 40
0.4082363700012021
 40
1.0
 40
1.0
 40
1.0
 40
1.0
 10
239.5707781507238
 20
85.01130675167606
 30
0.0
 10
245.6778707494815
 20
122.1310059608157
 30
0.0
 10
260.6375682373359
 20
213.0579834102534
 30
0.0
 10
275.5980220634768
 20
303.9898365207908
 30
0.0
 10
284.4510745260633
 20
357.8
 30
0.0
  0
SPLINE
  5
142
330
23
100
AcDbEntity
 67
     1
  8
0
  6
Continuous
 62
     7
370
    25
100
AcDbSpline
210
0.0
220
0.0
230
1.0
 70
     8
 71
     3
 72
    56
 73
    52
 74
     0
 42
0.000000001
 43
0.00000001
 40
0.0
 40
0.0
 40
0.0
 40
0.0
 40
0.0130112822848697
 40
0.0235690298180076
 40
0.0316731841426597
 40
0.0397393068126375
 40
0.0502598684851751
 40
0.0632354186755658
 40
0.0818489903098371
 40
0.0949344058712157
 40
0.1079589502633474
 40
0.12647110088909
 40
0.1377486031548245
 40
0.1442853785589709
 40
0.152676345918416
 40
0.1641436931875495
 40
0.1919436173854338
 40
0.2196034030111106
 40
0.2381446377264889
 40
0.2438756404698771
 40
0.2529295698057852
 40
0.2639505316252904
 40
0.280511532088961
 40
0.3127532131473719
 40
0.3442638705796377
 40
0.364818655717656
 40
0.3703430004296738
 40
0.3793051648434638
 40
0.3969919646083558
 40
0.4167935571506131
 40
0.4446765175546888
 40
0.4724159243383202
 40
0.4909847462951161
 40
0.4966714395917207
 40
0.5056708854646651
 40
0.5423849700083375
 40
0.5925578464976635
 40
0.6292688027256194
 40
0.6551146163746496
 40
0.6910432639194253
 40
0.7269927672232052
 40
0.7528640626957542
 40
0.7659945190092459
 40
0.7920205765221101
 40
0.8327568302755199
 40
0.867758616481046
 40
0.9019180369156721
 40
0.9464058512827873
 40
0.9837044782863138
 40
0.9917327992015152
 40
1.0
 40
1.0
 40
1.0
 40
1.0
 10
186.9561337567483
 20
30.31027719577176
 30
0.0
 10
187.1927981197867
 20
30.50623896787067
 30
0.0
 10
187.6214990969223
 20
30.86121004210207
 30
0.0
 10
188.1909499830513
 20
31.34320048118935
 30
0.0
 10
188.6674379356853
 20
31.75125784864599
 30
0.0
 10
189.1383078399603
 20
32.15889987054388
 30
0.0
 10
189.6909844473727
 20
32.64360397861687
 30
0.0
 10
190.4218009002476
 20
33.29526119579337
 30
0.0
 10
191.1883170291483
 20
33.9942002115417
 30
0.0
 10
191.9456083799475
 20
34.70010533115914
 30
0.0
 10
192.6890323566905
 20
35.40482021025651
 30
0.0
 10
193.392846465815
 20
36.08650449663295
 30
0.0
 10
193.9833003536546
 20
36.67031350515268
 30
0.0
 10
194.4067116952562
 20
37.09425548842396
 30
0.0
 10
194.8280285811503
 20
37.51984501091635
 30
0.0
 10
195.5819616930819
 20
38.29164190603942
 30
0.0
 10
196.6227889158036
 20
39.38584832324673
 30
0.0
 10
197.7453145275465
 20
40.61078392815798
 30
0.0
 10
198.5169562537914
 20
41.47954119123862
 30
0.0
 10
199.0027326964135
 20
42.03429152841071
 30
0.0
 10
199.3771706904395
 20
42.4663612902382
 30
0.0
 10
199.9040548656263
 20
43.08266159593746
 30
0.0
 10
200.7512270210092
 20
44.09142801052835
 30
0.0
 10
201.8641208451342
 20
45.46128671453389
 30
0.0
 10
202.9939676942698
 20
46.91211681657195
 30
0.0
 10
203.7464235607991
 20
47.91316628544124
 30
0.0
 10
204.1952474816342
 20
48.5197735260951
 30
0.0
 10
204.604887296054
 20
49.07907487025228
 30
0.0
 10
205.1895634807203
 20
49.89255156508848
 30
0.0
 10
205.9926867774598
 20
51.03749543937028
 30
0.0
 10
206.8966648047908
 20
52.36940980636556
 30
0.0
 10
207.758293835956
 20
53.68855969551714
 30
0.0
 10
208.3467710820741
 20
54.61942252573501
 30
0.0
 10
208.7160734863242
 20
55.21270465335654
 30
0.0
 10
209.2831275997659
 20
56.13375222189412
 30
0.0
 10
210.3092292132763
 20
57.85394739132152
 30
0.0
 10
211.5646682322464
 20
60.09614663726143
 30
0.0
 10
212.6483519623827
 20
62.1627590931362
 30
0.0
 10
213.5522773581967
 20
63.96857934362652
 30
0.0
 10
214.412469921735
 20
65.77369010276826
 30
0.0
 10
215.2296165977504
 20
67.59318311476872
 30
0.0
 10
215.8259257692524
 20
68.99100186417648
 30
0.0
 10
216.3257263801571
 20
70.20046424286782
 30
0.0
 10
216.9234863899872
 20
71.70182770884057
 30
0.0
 10
217.6431412320984
 20
73.62586169579458
 30
0.0
 10
218.3675566700221
 20
75.70876078319246
 30
0.0
 10
219.068366389553
 20
77.87284793243876
 30
0.0
 10
219.7263464213899
 20
80.08595306679015
 30
0.0
 10
220.1897264542137
 20
81.79885560458375
 30
0.0
 10
220.4528758291221
 20
82.83205390130814
 30
0.0
 10
220.5308025872481
 20
83.1463811866458
 30
0.0
 10
220.5703371396436
 20
83.30584872809594
 30
0.0
  0
SPLINE
  5
143
330
23
100
AcDbEntity
 67
     1
  8
0
  6
Continuous
 62
     7
370
    25
100
AcDbSpline
210
0.0
220
0.0
230
1.0
 70
     8
 71
     3
 72
    46
 73
    42
 74
     0
 42
0.000000001
 43
0.00000001
 40
0.0
 40
0.0
 40
0.0
 40
0.0
 40
0.0067113107571123
 40
0.0301350236595343
 40
0.0951046465789337
 40
0.1512509214441487
 40
0.1994014327616598
 40
0.2396909369283413
 40
0.2481690010845773
 40
0.256913006012449
 40
0.3211626889541467
 40
0.3854022666482195
 40
0.4122707559070164
 40
0.4496283941082684
 40
0.4870065124313198
 40
0.5139000834541975
 40
0.549994647973428
 40
0.5992492476274551
 40
0.635379927558736
 40
0.644044175379774
 40
0.6495226687319534
 40
0.6673497443615246
 40
0.6939667504588591
 40
0.7207150454830255
 40
0.7397870052362142
 40
0.7568728077333665
 40
0.76556150278221
 40
0.7710591384834097
 40
0.7888853847153214
 40
0.8154871703801215
 40
0.8422234638497338
 40
0.8613138811708126
 40
0.8784316683006123
 40
0.8962172662861948
 40
0.9087413270972233
 40
0.9213269890280292
 40
0.9392161689122943
 40
0.9570326338257098
 40
0.9695528449213278
 40
0.9821291167308888
 40
1.0
 40
1.0
 40
1.0
 40
1.0
 10
135.0000006412298
 20
83.29682400222647
 30
0.0
 10
135.1251553069352
 20
83.16738592626311
 30
0.0
 10
135.6871228492872
 20
82.58618508148518
 30
0.0
 10
137.4729145451369
 20
80.76714132574902
 30
0.0
 10
140.1756962481481
 20
78.00722836051094
 30
0.0
 10
143.3230382009812
 20
74.78995261257505
 30
0.0
 10
146.0003748526069
 20
72.05787619363602
 30
0.0
 10
147.7825294389546
 20
70.23211770390981
 30
0.0
 10
148.8483435520447
 20
69.16195212378557
 30
0.0
 10
150.3585820992418
 20
67.64923549238591
 30
0.0
 10
152.8628324788924
 20
65.08801847991133
 30
0.0
 10
155.6975534220979
 20
62.23768026267057
 30
0.0
 10
158.0116165639509
 20
59.88838275145456
 30
0.0
 10
159.831023662384
 20
58.04051702438376
 30
0.0
 10
161.646358830497
 20
56.21188625688273
 30
0.0
 10
163.4294943223114
 20
54.41927501849739
 30
0.0
 10
165.3874863287307
 20
52.41147481322494
 30
0.0
 10
167.4954487693144
 20
50.26778044789423
 30
0.0
 10
169.1180876427564
 20
48.63218646052006
 30
0.0
 10
169.9757883485099
 20
47.76044381524652
 30
0.0
 10
170.5227110097162
 20
47.20892355258729
 30
0.0
 10
171.3647966497269
 20
46.34452600238423
 30
0.0
 10
172.5608398756563
 20
45.12218805214452
 30
0.0
 10
173.7677847632485
 20
43.88908166701053
 30
0.0
 10
174.8120394784819
 20
42.82886234834088
 30
0.0
 10
175.5454396204832
 20
42.07390972098182
 30
0.0
 10
176.0580360289363
 20
41.5520341923315
 30
0.0
 10
176.5837336058325
 20
41.02052735061229
 30
0.0
 10
177.3881214882431
 20
40.18824632320405
 30
0.0
 10
178.5284505546531
 20
39.0142509809214
 30
0.0
 10
179.6780092635752
 20
37.83324719861264
 30
0.0
 10
180.6723666826906
 20
36.81962852829393
 30
0.0
 10
181.5054913860449
 20
35.95062043339145
 30
0.0
 10
182.2397844770136
 20
35.19782812669184
 30
0.0
 10
182.8989977335703
 20
34.5218716361986
 30
0.0
 10
183.5482107704578
 20
33.844973131089
 30
0.0
 10
184.2725291565185
 20
33.09123745650267
 30
0.0
 10
184.9932703099439
 20
32.34762443566175
 30
0.0
 10
185.6322133259139
 20
31.69292744734528
 30
0.0
 10
186.2590847588723
 20
31.03789329232387
 30
0.0
 10
186.6983235951636
 20
30.57939288777531
 30
0.0
 10
186.9561337567482
 20
30.31027719577206
 30
0.0
  0
SPLINE
  5
145
330
23
100
AcDbEntity
 67
     1
  8
0
  6
Continuous
 62
     7
370
    25
100
AcDbSpline
210
0.0
220
0.0
230
1.0
 70
     8
 71
     3
 72
    56
 73
    52
 74
     0
 42
0.000000001
 43
0.00000001
 40
0.0
 40
0.0
 40
0.0
 40
0.0
 40
0.0130522193968734
 40
0.0236439346526894
 40
0.0317753795170762
 40
0.039866102288843
 40
0.0504179049123411
 40
0.0634310510965438
 40
0.0821051666536127
 40
0.0952354237099123
 40
0.1082995628337909
 40
0.1268624628653709
 40
0.1381766513782564
 40
0.1447344419115872
 40
0.153152950365031
 40
0.1646579525574732
 40
0.1925481415327497
 40
0.2202985595127201
 40
0.2388973986957081
 40
0.2446397566467286
 40
0.2537133441440217
 40
0.2647687931744064
 40
0.2813837360600458
 40
0.3137310888089853
 40
0.3453451994902899
 40
0.3659646861843019
 40
0.3715017708062401
 40
0.3804858879419858
 40
0.3982281739043831
 40
0.4180943517223293
 40
0.4460685961886555
 40
0.4738981532218448
 40
0.4925253726860117
 40
0.4982261099088384
 40
0.507248712583157
 40
0.5438461807298686
 40
0.5938658710696018
 40
0.6304531463917027
 40
0.6562147134485817
 40
0.6920299430453843
 40
0.7278668845254097
 40
0.7536549972151739
 40
0.7667421115946402
 40
0.7926934204953315
 40
0.8333203983773971
 40
0.8682293097732614
 40
0.9023036207073297
 40
0.9466215555820423
 40
0.9837704449250869
 40
0.9917664742906852
 40
1.0
 40
1.0
 40
1.0
 40
1.0
 10
-186.9561337567483
 20
30.31027719577106
 30
0.0
 10
-186.7678618029504
 20
30.50661714322492
 30
0.0
 10
-186.4268094778878
 20
30.86228453940915
 30
0.0
 10
-185.9655519947672
 20
31.34528063683917
 30
0.0
 10
-185.5727870970558
 20
31.75423150516427
 30
0.0
 10
-185.1748247097902
 20
32.1628010371516
 30
0.0
 10
-184.7023072205174
 20
32.64855524462462
 30
0.0
 10
-184.0695541220601
 20
33.30172393319889
 30
0.0
 10
-183.3962936787323
 20
34.00239537753089
 30
0.0
 10
-182.7176257987668
 20
34.71010013883019
 30
0.0
 10
-182.0278809438603
 20
35.41663930962213
 30
0.0
 10
-181.3620863943862
 20
36.10013687843264
 30
0.0
 10
-180.7960563015538
 20
36.68552160493746
 30
0.0
 10
-180.3880300711134
 20
37.11071397849031
 30
0.0
 10
-179.970279719327
 20
37.53764427392473
 30
0.0
 10
-179.212928146088
 20
38.31190771951679
 30
0.0
 10
-178.1428210587383
 20
39.40966677524879
 30
0.0
 10
-176.9491560758077
 20
40.63856518952932
 30
0.0
 10
-176.1067179211303
 20
41.5100642758561
 30
0.0
 10
-175.5554423005728
 20
42.06656870062259
 30
0.0
 10
-175.1297599996082
 20
42.4999226243559
 30
0.0
 10
-174.5242421382805
 20
43.11831268222746
 30
0.0
 10
-173.5265251636861
 20
44.13077951342456
 30
0.0
 10
-172.1834550541946
 20
45.50571310813409
 30
0.0
 10
-170.7571646555457
 20
46.96194028629366
 30
0.0
 10
-169.7790532381986
 20
47.96661124600652
 30
0.0
 10
-169.1750820967481
 20
48.57535907149907
 30
0.0
 10
-168.6212643922844
 20
49.13659409792642
 30
0.0
 10
-167.8229628431102
 20
49.95305042615647
 30
0.0
 10
-166.6859583674492
 20
51.10252407336593
 30
0.0
 10
-165.3704136013466
 20
52.43970759950741
 30
0.0
 10
-164.068197085695
 20
53.76399544923844
 30
0.0
 10
-163.1529156495266
 20
54.69836384710234
 30
0.0
 10
-162.561371371997
 20
55.29379599323961
 30
0.0
 10
-161.6530788918886
 20
56.2140693524539
 30
0.0
 10
-159.944231703637
 20
57.93100633712703
 30
0.0
 10
-157.7322493155405
 20
60.16720082771285
 30
0.0
 10
-155.7066069163291
 20
62.22794984837454
 30
0.0
 10
-153.9177117092245
 20
64.02862823136155
 30
0.0
 10
-152.1398747146127
 20
65.8286410384852
 30
0.0
 10
-150.357696419437
 20
67.64268317858938
 30
0.0
 10
-148.9817962100699
 20
69.03581937041616
 30
0.0
 10
-147.7777013203891
 20
70.24085981314649
 30
0.0
 10
-146.3088093631548
 20
71.73775253599626
 30
0.0
 10
-144.4351210432301
 20
73.6559404612236
 30
0.0
 10
-142.3993561703014
 20
75.73165775099379
 30
0.0
 10
-140.2917771077858
 20
77.88721933853256
 30
0.0
 10
-138.1338293716421
 20
80.09119139036903
 30
0.0
 10
-136.4516524422425
 20
81.79685530124551
 30
0.0
 10
-135.4564432692901
 20
82.8252543059256
 30
0.0
 10
-135.1536248445425
 20
83.13810804766312
 30
0.0
 10
-134.9999999747352
 20
83.29682400222636
 30
0.0
  0
SPLINE
  5
146
330
23
100
AcDbEntity
 67
     1
  8
0
  6
Continuous
 62
     7
370
    25
100
AcDbSpline
210
0.0
220
0.0
230
1.0
 70
     8
 71
     3
 72
    63
 73
    59
 74
     0
 42
0.000000001
 43
0.00000001
 40
0.0
 40
0.0
 40
0.0
 40
0.0
 40
0.0124691924772778
 40
0.0226029418483611
 40
0.030389860079083
 40
0.0381210670615417
 40
0.0482026547026428
 40
0.0606471274821573
 40
0.0785102710610103
 40
0.091085396336102
 40
0.103560681232902
 40
0.1212952762808205
 40
0.1321107114102492
 40
0.1383870610162593
 40
0.1464240884679744
 40
0.1574054178481388
 40
0.1840598588567488
 40
0.2106248960140711
 40
0.228433658990861
 40
0.2339112845409191
 40
0.242580801620604
 40
0.2533805664654211
 40
0.2596433363110477
 40
0.2676730627539251
 40
0.278645425103751
 40
0.3053105626191864
 40
0.3318891485442481
 40
0.3496973197272937
 40
0.3551544375369519
 40
0.3637973992061185
 40
0.3997577206971833
 40
0.4488932886863526
 40
0.4849995812185149
 40
0.511901694849907
 40
0.549311364978581
 40
0.5867859359460526
 40
0.6137693067425625
 40
0.6406351966181886
 40
0.6779905704060372
 40
0.7155033951865567
 40
0.7425349693342365
 40
0.7513043328519298
 40
0.7562486203703801
 40
0.7598291793224959
 40
0.7698887482574632
 40
0.7892862955081735
 40
0.8104886904652548
 40
0.8301593985140017
 40
0.8482802637927984
 40
0.8857705032383452
 40
0.9242208892671185
 40
0.9695560027481346
 40
0.9789301284796409
 40
0.9857852054755739
 40
0.9901059854125871
 40
0.9931629505650157
 40
0.9962009961281281
 40
1.0
 40
1.0
 40
1.0
 40
1.0
 10
-186.9561337567482
 20
30.31027719577115
 30
0.0
 10
-187.1829857889596
 20
30.49761984931265
 30
0.0
 10
-187.5942011344279
 20
30.83721642795498
 30
0.0
 10
-188.141131137128
 20
31.29538657888012
 30
0.0
 10
-188.5993866266929
 20
31.68443637959459
 30
0.0
 10
-189.0521397053656
 20
32.07832799018512
 30
0.0
 10
-189.5830589832802
 20
32.54646227760069
 30
0.0
 10
-190.285593629455
 20
33.1731043689695
 30
0.0
 10
-191.023335757861
 20
33.83903363327418
 30
0.0
 10
-191.7519905693066
 20
34.50965894960459
 30
0.0
 10
-192.4673572304185
 20
35.19063827972302
 30
0.0
 10
-193.1450848659922
 20
35.8452801857522
 30
0.0
 10
-193.7142644618873
 20
36.40085610319585
 30
0.0
 10
-194.1226425198502
 20
36.80060566200746
 30
0.0
 10
-194.5283758220582
 20
37.21175546379813
 30
0.0
 10
-195.2544253085651
 20
37.95740690077739
 30
0.0
 10
-196.2587974570179
 20
39.00911187292114
 30
0.0
 10
-197.3447779983193
 20
40.17700811004493
 30
0.0
 10
-198.0925004252079
 20
40.99791683394552
 30
0.0
 10
-198.5643767961284
 20
41.53250705541739
 30
0.0
 10
-198.9310042157764
 20
41.94836581590736
 30
0.0
 10
-199.3060597240742
 20
42.37704510029841
 30
0.0
 10
-199.6693783294959
 20
42.79397067024207
 30
0.0
 10
-200.0300307235535
 20
43.223006878401
 30
0.0
 10
-200.675326828949
 20
44.00214489406931
 30
0.0
 10
-201.5668874588833
 20
45.10013944475802
 30
0.0
 10
-202.5293650200945
 20
46.3154255329862
 30
0.0
 10
-203.1902118003616
 20
47.16860481846841
 30
0.0
 10
-203.605974951038
 20
47.72411144847128
 30
0.0
 10
-204.2550580809056
 20
48.59104375778372
 30
0.0
 10
-205.4372585007513
 20
50.23963929994713
 30
0.0
 10
-206.8994678070041
 20
52.3789787063201
 30
0.0
 10
-208.1917620750874
 20
54.35686894538602
 30
0.0
 10
-209.3006269874464
 20
56.16754794722817
 30
0.0
 10
-210.3827519115487
 20
58.00936669511872
 30
0.0
 10
-211.4187131168859
 20
59.84989666358792
 30
0.0
 10
-212.3096022336408
 20
61.50311303612616
 30
0.0
 10
-213.1641395454573
 20
63.18640916291562
 30
0.0
 10
-214.0761744754464
 20
65.07223853600722
 30
0.0
 10
-214.9432279211071
 20
66.95528072123366
 30
0.0
 10
-215.5373540831847
 20
68.30999345427516
 30
0.0
 10
-215.8581777125396
 20
69.06583388057747
 30
0.0
 10
-215.9928795068154
 20
69.38621699341921
 30
0.0
 10
-216.136689908474
 20
69.72895700040871
 30
0.0
 10
-216.3888291490843
 20
70.35395678248949
 30
0.0
 10
-216.7663837489711
 20
71.31262622285084
 30
0.0
 10
-217.2007144692944
 20
72.45265236308654
 30
0.0
 10
-217.6111784394569
 20
73.56844552726469
 30
0.0
 10
-218.1177788799857
 20
74.99388994392812
 30
0.0
 10
-218.7190048892362
 20
76.78056194744563
 30
0.0
 10
-219.4371698135057
 20
79.09536618601078
 30
0.0
 10
-219.9399094767821
 20
80.87449929598903
 30
0.0
 10
-220.2503128888909
 20
82.04481127676452
 30
0.0
 10
-220.3518344644189
 20
82.43564761923568
 30
0.0
 10
-220.4210423502012
 20
82.70540736791465
 30
0.0
 10
-220.4716858188102
 20
82.90723288873609
 30
0.0
 10
-220.519525680094
 20
83.09955682855175
 30
0.0
 10
-220.5521882148502
 20
83.23216503147529
 30
0.0
 10
-220.5703371396434
 20
83.30584872809602
 30
0.0
  0
SPLINE
  5
149
330
23
100
AcDbEntity
 67
     1
  8
0
  6
Continuous
 62
     7
370
    25
100
AcDbSpline
210
0.0
220
0.0
230
1.0
 70
    11
 71
     3
 72
   114
 73
   110
 74
     0
 42
0.000000001
 43
0.00000001
 40
0.0
 40
0.0
 40
0.0
 40
0.0
 40
0.0312499999999974
 40
0.0312499999999974
 40
0.0468749999999967
 40
0.0468749999999967
 40
0.0624999999999961
 40
0.0624999999999961
 40
0.0937499999999954
 40
0.0937499999999954
 40
0.109374999999995
 40
0.109374999999995
 40
0.1249999999999946
 40
0.1249999999999946
 40
0.1562499999999949
 40
0.1562499999999949
 40
0.1718749999999949
 40
0.1718749999999949
 40
0.1874999999999949
 40
0.1874999999999949
 40
0.2031249999999949
 40
0.2031249999999949
 40
0.218749999999995
 40
0.218749999999995
 40
0.2499999999999948
 40
0.2499999999999948
 40
0.2656249999999947
 40
0.2656249999999947
 40
0.2734374999999946
 40
0.2734374999999946
 40
0.2812499999999944
 40
0.2812499999999944
 40
0.3124999999999938
 40
0.3124999999999938
 40
0.3203124999999937
 40
0.3203124999999937
 40
0.3281249999999937
 40
0.3281249999999937
 40
0.3437499999999935
 40
0.3437499999999935
 40
0.3749999999999941
 40
0.3749999999999941
 40
0.4062499999999946
 40
0.4062499999999946
 40
0.4218749999999951
 40
0.4218749999999951
 40
0.4374999999999956
 40
0.4374999999999956
 40
0.4687499999999963
 40
0.4687499999999963
 40
0.4843749999999967
 40
0.4843749999999967
 40
0.4999999999999971
 40
0.4999999999999971
 40
0.5312499999999974
 40
0.5312499999999974
 40
0.5468749999999974
 40
0.5468749999999974
 40
0.5624999999999974
 40
0.5781249999999976
 40
0.5781249999999976
 40
0.5937499999999976
 40
0.5937499999999976
 40
0.6249999999999974
 40
0.6249999999999974
 40
0.6406249999999973
 40
0.6406249999999973
 40
0.6562499999999972
 40
0.6562499999999972
 40
0.6874999999999968
 40
0.6874999999999968
 40
0.6953124999999968
 40
0.6953124999999968
 40
0.7031249999999967
 40
0.7031249999999967
 40
0.7187499999999964
 40
0.7187499999999964
 40
0.7499999999999963
 40
0.7499999999999963
 40
0.7578124999999963
 40
0.7578124999999963
 40
0.7656249999999963
 40
0.7656249999999963
 40
0.7812499999999961
 40
0.7968749999999959
 40
0.7968749999999959
 40
0.8046874999999959
 40
0.8046874999999959
 40
0.8124999999999959
 40
0.8124999999999959
 40
0.8437499999999966
 40
0.8437499999999966
 40
0.8593749999999968
 40
0.8593749999999968
 40
0.874999999999997
 40
0.874999999999997
 40
0.9062499999999974
 40
0.9062499999999974
 40
0.9218749999999978
 40
0.9218749999999978
 40
0.9374999999999981
 40
0.9374999999999981
 40
0.9531249999999986
 40
0.9531249999999986
 40
0.9609374999999988
 40
0.9609374999999988
 40
0.968749999999999
 40
0.968749999999999
 40
1.0
 40
1.0
 40
1.0
 40
1.0
 10
-26.00000000000007
 20
320.0
 30
0.0
 10
-26.00000000000007
 20
318.2969420784211
 30
0.0
 10
-25.83428412089368
 20
316.621549998499
 30
0.0
 10
-25.34687466716315
 20
314.1483348762893
 30
0.0
 10
-25.14430857677281
 20
313.3306238055661
 30
0.0
 10
-24.65713803824956
 20
311.7088977578636
 30
0.0
 10
-24.37082342524267
 20
310.9015659664774
 30
0.0
 10
-23.40424257000707
 20
308.5494290591629
 30
0.0
 10
-22.61479131658919
 20
307.0604516125724
 30
0.0
 10
-21.21454362967598
 20
304.94482436916
 30
0.0
 10
-20.7115342299828
 20
304.2593905628742
 30
0.0
 10
-19.63004544558117
 20
302.9296821524523
 30
0.0
 10
-19.05988278841794
 20
302.2957368145938
 30
0.0
 10
-17.26743162893659
 20
300.4880530872643
 30
0.0
 10
-15.96238762644486
 20
299.4056420469944
 30
0.0
 10
-13.83581068574274
 20
297.9704359501455
 30
0.0
 10
-13.09498932148932
 20
297.522120452341
 30
0.0
 10
-11.58702584591009
 20
296.7089148742443
 30
0.0
 10
-10.81706148777528
 20
296.3416735323715
 30
0.0
 10
-9.245726771417132
 20
295.6845364644739
 30
0.0
 10
-8.44435593990541
 20
295.3946419040475
 30
0.0
 10
-6.80984521476731
 20
294.8930925357029
 30
0.0
 10
-5.974971560667239
 20
294.6810843125758
 30
0.0
 10
-3.431691263526181
 20
294.1695024820938
 30
0.0
 10
-1.729397845507075
 20
294.0013601496241
 30
0.0
 10
0.8338424059618467
 20
293.9993321319158
 30
0.0
 10
1.689901352861951
 20
294.0406645365144
 30
0.0
 10
2.976523484967598
 20
294.16734578067
 30
0.0
 10
3.407034303848776
 20
294.2205809297029
 30
0.0
 10
4.260916417199605
 20
294.3478866048965
 30
0.0
 10
4.684598411432626
 20
294.4219149171737
 30
0.0
 10
6.787031011733713
 20
294.8429216613505
 30
0.0
 10
8.41831079416597
 20
295.3410270929313
 30
0.0
 10
10.39438344909117
 20
296.1643103927235
 30
0.0
 10
10.78641788589749
 20
296.339091125852
 30
0.0
 10
11.56401626867018
 20
296.7092518948429
 30
0.0
 10
11.94951426240366
 20
296.9046892130693
 30
0.0
 10
13.08336661464424
 20
297.515280659167
 30
0.0
 10
13.81358115384242
 20
297.9566841788846
 30
0.0
 10
15.92939378556216
 20
299.3809408469396
 30
0.0
 10
17.2408803387268
 20
300.4628782322515
 30
0.0
 10
19.65996992644184
 20
302.8993373136145
 30
0.0
 10
20.72988548534945
 20
304.2163147658942
 30
0.0
 10
22.13078557908796
 20
306.32734306714
 30
0.0
 10
22.5637906666082
 20
307.0540775606297
 30
0.0
 10
23.36068285845987
 20
308.5544745232396
 30
0.0
 10
23.725122800686
 20
309.3305958258873
 30
0.0
 10
24.69143265465755
 20
311.6811237048905
 30
0.0
 10
25.17624862533931
 20
313.2918654288914
 30
0.0
 10
25.66787448844503
 20
315.7726059667119
 30
0.0
 10
25.79242454305752
 20
316.6126783308487
 30
0.0
 10
25.95863932784504
 20
318.3052563183551
 30
0.0
 10
25.99968033880102
 20
319.1489655285087
 30
0.0
 10
26.00063375596124
 20
321.6726009250223
 30
0.0
 10
25.83950896933444
 20
323.3451043249586
 30
0.0
 10
25.35009763307502
 20
325.8386673714006
 30
0.0
 10
25.14435918495358
 20
326.6690850213034
 30
0.0
 10
24.65771083444094
 20
328.2893160411776
 30
0.0
 10
24.09461852763935
 20
329.8777579202465
 30
0.0
 10
23.38101323341185
 20
331.403609127894
 30
0.0
 10
22.59118764999096
 20
332.8977642064683
 30
0.0
 10
22.15723597604554
 20
333.6304065472073
 30
0.0
 10
20.74212711717475
 20
335.7698610525336
 30
0.0
 10
19.67315883728622
 20
337.0831347407453
 30
0.0
 10
17.88690834353359
 20
338.8884932620873
 30
0.0
 10
17.26080509268245
 20
339.4626559935273
 30
0.0
 10
15.94545704821555
 20
340.554142412017
 30
0.0
 10
15.25379351281184
 20
341.0725455288606
 30
0.0
 10
13.12865941795831
 20
342.5068849083312
 30
0.0
 10
11.63241759013527
 20
343.3153659570498
 30
0.0
 10
9.662867128011545
 20
344.1414884205655
 30
0.0
 10
9.26394967561823
 20
344.2974054174522
 30
0.0
 10
8.455917606256298
 20
344.5902852982356
 30
0.0
 10
8.045692244256156
 20
344.7275786720092
 30
0.0
 10
6.807841498624621
 20
345.1077385841172
 30
0.0
 10
5.976258607792483
 20
345.3182675605895
 30
0.0
 10
3.463031288098294
 20
345.8249641077177
 30
0.0
 10
1.76308723803884
 20
345.9974512669988
 30
0.0
 10
-0.3932778435373013
 20
346.0006024805117
 30
0.0
 10
-0.8272181424681682
 20
345.9904202040342
 30
0.0
 10
-1.68929951955779
 20
345.9486512052305
 30
0.0
 10
-2.118204884227544
 20
345.9171205338021
 30
0.0
 10
-3.398633496385357
 20
345.7911807627728
 30
0.0
 10
-5.089135214118138
 20
345.5398175519564
 30
0.0
 10
-6.746662060510618
 20
345.1240501695067
 30
0.0
 10
-7.977264242785886
 20
344.7496887186571
 30
0.0
 10
-8.385370714026564
 20
344.6144601492212
 30
0.0
 10
-9.19731787489236
 20
344.3227349275822
 30
0.0
 10
-9.6005238645139
 20
344.1663923968941
 30
0.0
 10
-11.58351992689455
 20
343.3404229902434
 30
0.0
 10
-13.08261546555669
 20
342.5332385888912
 30
0.0
 10
-15.20372465045678
 20
341.1085805760115
 30
0.0
 10
-15.88968474172607
 20
340.5975133560248
 30
0.0
 10
-17.21610183041003
 20
339.5024479337342
 30
0.0
 10
-17.8461990144129
 20
338.9270626355903
 30
0.0
 10
-19.64098334231568
 20
337.1205680525281
 30
0.0
 10
-20.71104426884479
 20
335.8098611635039
 30
0.0
 10
-22.12476310159536
 20
333.6828222190132
 30
0.0
 10
-22.56396666664935
 20
332.9455006183843
 30
0.0
 10
-23.35928698996424
 20
331.4482439402182
 30
0.0
 10
-23.71811695718067
 20
330.6845587640892
 30
0.0
 10
-24.35968533741951
 20
329.1276830707298
 30
0.0
 10
-24.64242151282507
 20
328.3344916858381
 30
0.0
 10
-25.00899159402388
 20
327.1223950935981
 30
0.0
 10
-25.12157583675102
 20
326.7146381471442
 30
0.0
 10
-25.3272464851545
 20
325.89156375243
 30
0.0
 10
-25.42049870203457
 20
325.4753241011575
 30
0.0
 10
-25.834247545283
 20
323.3891748456971
 30
0.0
 10
-26.00000000000008
 20
321.7030579215792
 30
0.0
 10
-26.00000000000007
 20
320.0
 30
0.0
  0
SPLINE
  5
14A
330
23
100
AcDbEntity
 67
     1
  8
0
  6
Continuous
 62
     7
370
    25
100
AcDbSpline
210
0.0
220
0.0
230
1.0
 70
     8
 71
     3
 72
    28
 73
    24
 74
     0
 42
0.000000001
 43
0.00000001
 40
0.0
 40
0.0
 40
0.0
 40
0.0
 40
0.124999999999998
 40
0.124999999999998
 40
0.2499999999999959
 40
0.2499999999999959
 40
0.4999999999999926
 40
0.4999999999999926
 40
0.5624999999999929
 40
0.5624999999999929
 40
0.6249999999999932
 40
0.6249999999999932
 40
0.7499999999999938
 40
0.7499999999999938
 40
0.8749999999999944
 40
0.8749999999999944
 40
0.9374999999999958
 40
0.9374999999999958
 40
0.9687499999999969
 40
0.9843749999999983
 40
0.9921874999999991
 40
0.9921874999999991
 40
1.0
 40
1.0
 40
1.0
 40
1.0
 10
-186.9561337567481
 20
30.31027719577106
 30
0.0
 10
-184.8447694795158
 20
28.35932492538068
 30
0.0
 10
-182.6907001225899
 20
26.55927127016616
 30
0.0
 10
-178.3061893028656
 20
23.22902130672361
 30
0.0
 10
-176.0757069487626
 20
21.69896950003419
 30
0.0
 10
-169.2783333956255
 20
17.48309550106444
 30
0.0
 10
-164.6063384316285
 20
15.16864746542498
 30
0.0
 10
-158.6040164379734
 20
12.8491460808807
 30
0.0
 10
-157.3934668487484
 20
12.41356391516365
 30
0.0
 10
-154.9674496613352
 20
11.60366089004575
 30
0.0
 10
-153.7519959988059
 20
11.22921174025346
 30
0.0
 10
-150.0984892419544
 20
10.19500697967168
 30
0.0
 10
-147.6533043943457
 20
9.62421914752587
 30
0.0
 10
-142.7445484621248
 20
8.712004964624848
 30
0.0
 10
-140.2809757672632
 20
8.370598710885552
 30
0.0
 10
-136.5719812011679
 20
8.028585310954739
 30
0.0
 10
-135.3334083374432
 20
7.942969046506959
 30
0.0
 10
-133.4720052417688
 20
7.857246488301301
 30
0.0
 10
-132.5403965868701
 20
7.825064642558194
 30
0.0
 10
-131.4519271288367
 20
7.806267090287533
 30
0.0
 10
-130.9850981582833
 20
7.802237280261693
 30
0.0
 10
-130.6738027401341
 20
7.800446526841504
 30
0.0
 10
-130.5167569271356
 20
7.800000000000002
 30
0.0
 10
-130.3628956342543
 20
7.800000000000002
 30
0.0
  0
SPLINE
  5
14B
330
23
100
AcDbEntity
 67
     1
  8
0
  6
Continuous
 62
     7
370
    25
100
AcDbSpline
210
0.0
220
0.0
230
1.0
 70
     8
 71
     3
 72
    28
 73
    24
 74
     0
 42
0.000000001
 43
0.00000001
 40
0.0
 40
0.0
 40
0.0
 40
0.0
 40
0.1250000000000023
 40
0.1250000000000023
 40
0.2500000000000047
 40
0.2500000000000047
 40
0.5000000000000087
 40
0.5000000000000087
 40
0.5625000000000079
 40
0.5625000000000079
 40
0.6250000000000071
 40
0.6250000000000071
 40
0.7500000000000033
 40
0.7500000000000033
 40
0.8749999999999997
 40
0.8749999999999997
 40
0.9374999999999978
 40
0.9374999999999978
 40
0.9687499999999987
 40
0.9843749999999993
 40
0.9921874999999998
 40
0.9921874999999998
 40
1.0
 40
1.0
 40
1.0
 40
1.0
 10
186.9561337567484
 20
30.31027719577192
 30
0.0
 10
184.8447694795159
 20
28.35932492538123
 30
0.0
 10
182.6907001225896
 20
26.55927127016638
 30
0.0
 10
178.3061893028649
 20
23.22902130672341
 30
0.0
 10
176.0757069487615
 20
21.69896950003367
 30
0.0
 10
169.2783333956233
 20
17.4830955010635
 30
0.0
 10
164.6063384316257
 20
15.16864746542379
 30
0.0
 10
158.6040164379699
 20
12.84914608087945
 30
0.0
 10
157.3934668487448
 20
12.41356391516249
 30
0.0
 10
154.9674496613314
 20
11.60366089004461
 30
0.0
 10
153.7519959988016
 20
11.22921174025221
 30
0.0
 10
150.0984892419497
 20
10.19500697967049
 30
0.0
 10
147.6533043943405
 20
9.624219147524732
 30
0.0
 10
142.744548462119
 20
8.712004964623931
 30
0.0
 10
140.2809757672573
 20
8.37059871088483
 30
0.0
 10
136.5719812011615
 20
8.028585310954266
 30
0.0
 10
135.3334083374356
 20
7.942969046506515
 30
0.0
 10
133.4720052417623
 20
7.857246488301051
 30
0.0
 10
132.5403965868649
 20
7.825064642557999
 30
0.0
 10
131.4519271288338
 20
7.806267090287477
 30
0.0
 10
130.9850981582671
 20
7.802237280261553
 30
0.0
 10
130.6738027401087
 20
7.800446526841393
 30
0.0
 10
130.5167569271267
 20
7.800000000000002
 30
0.0
 10
130.3628956342395
 20
7.800000000000002
 30
0.0
  0
SPLINE
  5
14D
330
23
100
AcDbEntity
 67
     1
  8
0
  6
Continuous
 62
     7
370
    25
100
AcDbSpline
210
0.0
220
0.0
230
1.0
 70
    24
 71
     3
 72
    14
 73
    10
 74
     0
 42
0.000000001
 43
0.00000001
 40
0.0
 40
0.0
 40
0.0
 40
0.0
 40
0.1264849585379761
 40
0.2529780200727826
 40
0.4344725090491567
 40
0.615991456936826
 40
0.7975843948346064
 40
0.9792022290581275
 40
1.0
 40
1.0
 40
1.0
 40
1.0
 10
130.3628956342439
 20
7.800000000000002
 30
0.0
 10
131.8383218063924
 20
7.800000000000002
 30
0.0
 10
134.7892686708106
 20
7.800000000000002
 30
0.0
 10
139.0286056265976
 20
7.800000000000002
 30
0.0
 10
142.9434179608166
 20
7.800000000000002
 30
0.0
 10
146.117242669986
 20
7.800000000000002
 30
0.0
 10
147.9717240909574
 20
7.800000000000002
 30
0.0
 10
148.749649161972
 20
7.800000000000002
 30
0.0
 10
148.5559438105601
 20
7.800000000000002
 30
0.0
 10
148.5360409995808
 20
7.800000000000002
 30
0.0
  0
SPLINE
  5
14E
330
23
100
AcDbEntity
 67
     1
  8
0
  6
Continuous
 62
     7
370
    25
100
AcDbSpline
210
0.0
220
0.0
230
1.0
 70
    24
 71
     3
 72
    14
 73
    10
 74
     0
 42
0.000000001
 43
0.00000001
 40
0.0
 40
0.0
 40
0.0
 40
0.0
 40
0.0824167601855556
 40
0.2638271016258513
 40
0.4452374664665445
 40
0.5839063907498632
 40
0.722575332259491
 40
0.8612876555040865
 40
1.0
 40
1.0
 40
1.0
 40
1.0
 10
-148.4478048806514
 20
7.800000000000002
 30
0.0
 10
-148.480967757041
 20
7.800000000000002
 30
0.0
 10
-148.58712657158
 20
7.800000000000002
 30
0.0
 10
-147.4799585562232
 20
7.800000000000002
 30
0.0
 10
-145.3615022468731
 20
7.800000000000002
 30
0.0
 10
-142.4775785819924
 20
7.800000000000002
 30
0.0
 10
-139.1635454605315
 20
7.800000000000002
 30
0.0
 10
-135.2004344144069
 20
7.800000000000002
 30
0.0
 10
-131.9754086433137
 20
7.800000000000002
 30
0.0
 10
-130.3628956342452
 20
7.800000000000002
 30
0.0
  0
SPLINE
  5
150
330
23
100
AcDbEntity
 67
     1
  8
0
  6
Continuous
 62
     8
370
    25
100
AcDbSpline
210
0.0
220
0.0
230
1.0
 70
     8
 71
     3
 72
    15
 73
    11
 74
     0
 42
0.000000001
 43
0.00000001
 40
0.0
 40
0.0
 40
0.0
 40
0.0
 40
0.0000001040121435
 40
0.1396950784334137
 40
0.2794021285046541
 40
0.4191228026275716
 40
0.5588707538363173
 40
0.7390377302488444
 40
0.9192309010934546
 40
1.0
 40
1.0
 40
1.0
 40
1.0
 10
-220.5703371396434
 20
83.30584872809598
 30
0.0
 10
-220.5703384576287
 20
83.30584888428486
 30
0.0
 10
-222.3404785559271
 20
83.51562072117567
 30
0.0
 10
-225.6347387135348
 20
83.89631202623323
 30
0.0
 10
-229.8378298331265
 20
84.35530987041665
 30
0.0
 10
-233.2961118237211
 20
84.70487066986868
 30
0.0
 10
-236.2871849423961
 20
84.97391848244973
 30
0.0
 10
-238.4578528473882
 20
85.11695049093733
 30
0.0
 10
-239.5785748717951
 20
85.13516942316356
 30
0.0
 10
-239.4575867100239
 20
85.04168344121682
 30
0.0
 10
-239.4201402821784
 20
85.01274907254567
 30
0.0
  0
LWPOLYLINE
  5
151
330
23
100
AcDbEntity
 67
     1
  8
0
  6
Continuous
 62
     8
370
    25
100
AcDbPolyline
 90
       10
 70
   128
 43
0.0
 10
239.5108804118
 20
85.0237304269
 10
239.5691431404
 20
85.0498534638
 10
238.8297272184
 20
85.1117449187
 10
236.8447739506
 20
85.0061706931
 10
233.6156050692
 20
84.7295764449
 10
229.1452808428
 20
84.2767653013
 10
225.1755940878
 20
83.8396994385
 10
220.5703410936
 20
83.3058491967
 10
220.5703371396
 20
83.3058487281
 10
220.5703371396
 20
83.3058487281
  0
LINE
  5
154
330
23
100
AcDbEntity
 67
     1
  8
0
  6
Continuous
 62
     7
370
    25
100
AcDbLine
 10
-42.2
 20
5.0
 30
0.0
 11
-42.2
 21
4.2
 31
0.0
  0
LINE
  5
155
330
23
100
AcDbEntity
 67
     1
  8
0
  6
Continuous
 62
     7
370
    25
100
AcDbLine
 10
42.2
 20
4.2
 30
0.0
 11
42.2
 21
5.0
 31
0.0
  0
LINE
  5
156
330
23
100
AcDbEntity
 67
     1
  8
0
  6
Continuous
 62
     7
370
    25
100
AcDbLine
 10
350.0
 20
357.8
 30
0.0
 11
-350.0
 21
357.8
 31
0.0
  0
LINE
  5
157
330
23
100
AcDbEntity
 67
     1
  8
0
  6
Continuous
 62
     7
370
    25
100
AcDbLine
 10
320.0
 20
357.8
 30
0.0
 11
320.0
 21
390.0
 31
0.0
  0
LINE
  5
158
330
23
100
AcDbEntity
 67
     1
  8
0
  6
Continuous
 62
     7
370
    25
100
AcDbLine
 10
350.0
 20
357.8
 30
0.0
 11
350.0
 21
383.0
 31
0.0
  0
LINE
  5
159
330
23
100
AcDbEntity
 67
     1
  8
0
  6
Continuous
 62
     7
370
    25
100
AcDbLine
 10
-343.0
 20
390.0
 30
0.0
 11
343.0
 21
390.0
 31
0.0
  0
LINE
  5
15A
330
23
100
AcDbEntity
 67
     1
  8
0
  6
Continuous
 62
     7
370
    25
100
AcDbLine
 10
-320.0
 20
357.8
 30
0.0
 11
-320.0
 21
390.0
 31
0.0
  0
LINE
  5
15B
330
23
100
AcDbEntity
 67
     1
  8
0
  6
Continuous
 62
     7
370
    25
100
AcDbLine
 10
350.0
 20
383.0
 30
0.0
 11
-350.0
 21
383.0
 31
0.0
  0
LINE
  5
15C
330
23
100
AcDbEntity
 67
     1
  8
0
  6
Continuous
 62
     7
370
    25
100
AcDbLine
 10
-350.0
 20
357.8
 30
0.0
 11
-350.0
 21
383.0
 31
0.0
  0
LINE
  5
15D
330
23
100
AcDbEntity
 67
     1
  8
0
  6
Continuous
 62
     7
370
    25
100
AcDbLine
 10
135.0000006412
 20
83.2968240022
 30
0.0
 11
-134.9999999747
 21
83.2968240022
 31
0.0
  0
LINE
  5
15E
330
23
100
AcDbEntity
 67
     1
  8
0
  6
Continuous
 62
     7
370
    25
100
AcDbLine
 10
-239.4201402822
 20
85.0127490725
 30
0.0
 11
-239.4195247435
 21
85.0114793619
 31
0.0
  0
LINE
  5
15F
330
23
100
AcDbEntity
 67
     1
  8
0
  6
Continuous
 62
     7
370
    25
100
AcDbLine
 10
239.5067615652
 20
85.0218836754
 30
0.0
 11
239.5108804118
 21
85.0237304269
 31
0.0
  0
LINE
  5
160
330
23
100
AcDbEntity
 67
     1
  8
0
  6
Continuous
 62
     7
370
    25
100
AcDbLine
 10
-130.3628956342
 20
7.8
 30
0.0
 11
130.3628956342
 21
7.8
 31
0.0
  0
LINE
  5
161
330
23
100
AcDbEntity
 67
     1
  8
0
  6
Continuous
 62
     7
370
    25
100
AcDbLine
 10
-37.9999999728
 20
0.0
 30
0.0
 11
38.0
 21
0.0
 31
0.0
  0
LINE
  5
162
330
23
100
AcDbEntity
 67
     1
  8
0
  6
Continuous
 62
     8
370
    25
100
AcDbLine
 10
-42.2
 20
5.0
 30
0.0
 11
42.2
 21
5.0
 31
0.0
  0
LINE
  5
163
330
23
100
AcDbEntity
 67
     1
  8
0
  6
Continuous
 62
     8
370
    25
100
AcDbLine
 10
42.2
 20
4.2
 30
0.0
 11
-42.2
 21
4.2
 31
0.0
  0
ARC
  5
164
330
23
100
AcDbEntity
 67
     1
  8
0
  6
Continuous
 62
     7
370
    25
100
AcDbCircle
 10
148.5973178584
 20
100.0
 30
0.0
 40
92.19999999999979
100
AcDbArc
 50
269.9999987999
 51
350.6441141033
  0
ARC
  5
165
330
23
100
AcDbEntity
 67
     1
  8
0
  6
Continuous
 62
     7
370
    25
100
AcDbCircle
 10
-148.5973177633
 20
99.9999999993
 30
0.0
 40
92.19999999930275
100
AcDbArc
 50
189.3705603641
 51
270.0004768705
  0
ARC
  5
166
330
23
100
AcDbEntity
 67
     1
  8
0
  6
Continuous
 62
     7
370
    25
100
AcDbCircle
 10
-45.0
 20
5.0
 30
0.0
 40
2.799999999999998
100
AcDbArc
 50
0.0
 51
90.0
  0
ARC
  5
167
330
23
100
AcDbEntity
 67
     1
  8
0
  6
Continuous
 62
     7
370
    25
100
AcDbCircle
 10
45.0
 20
5.0
 30
0.0
 40
2.800000000000013
100
AcDbArc
 50
90.0
 51
180.0
  0
ARC
  5
168
330
23
100
AcDbEntity
 67
     1
  8
0
  6
Continuous
 62
     7
370
    25
100
AcDbCircle
 10
-38.0
 20
4.2
 30
0.0
 40
4.200000000000013
100
AcDbArc
 50
180.0
 51
270.0
  0
ARC
  5
169
330
23
100
AcDbEntity
 67
     1
  8
0
  6
Continuous
 62
     7
370
    25
100
AcDbCircle
 10
38.0
 20
4.2
 30
0.0
 40
4.200000000000013
100
AcDbArc
 50
270.0
 51
0.0
  0
ARC
  5
16A
330
23
100
AcDbEntity
 67
     1
  8
0
  6
Continuous
 62
     7
370
    25
100
AcDbCircle
 10
-343.0
 20
383.0
 30
0.0
 40
7.000000000000057
100
AcDbArc
 50
90.0
 51
180.0
  0
ARC
  5
16B
330
23
100
AcDbEntity
 67
     1
  8
0
  6
Continuous
 62
     7
370
    25
100
AcDbCircle
 10
343.0
 20
383.0
 30
0.0
 40
7.000000000000057
100
AcDbArc
 50
0.0
 51
90.0
  0
VIEWPORT
  5
16E
330
23
100
AcDbEntity
 67
     1
  8
0
100
AcDbViewport
 10
0.0
 20
0.0
 30
0.0
 40
205.6
 41
156.0
 68
     1
 69
     1
 12
0.0
 22
0.0
 13
0.0
 23
0.0
 14
10.0
 24
10.0
 15
10.0
 25
10.0
 16
0.0
 26
0.0
 36
1.0
 17
0.0
 27
0.0
 37
0.0
 42
50.0
 43
0.0
 44
0.0
 45
1315.6809338521
 50
0.0
 51
0.0
 72
   100
 90
   557152
  1

281
     0
 71
     1
 74
     0
110
0.0
120
0.0
130
0.0
111
1.0
121
0.0
131
0.0
112
0.0
122
1.0
132
0.0
 79
     0
146
0.0
  0
ENDSEC
  0
SECTION
  2
OBJECTS
  0
DICTIONARY
  5
C
330
0
100
AcDbDictionary
281
     1
  3
ACAD_GROUP
350
D
  3
ACAD_LAYOUT
350
1A
  3
ACAD_MLINESTYLE
350
17
  3
ACAD_PLOTSETTINGS
350
19
  3
ACAD_PLOTSTYLENAME
350
E
  3
ACAD_SCALELIST
350
47
  0
DICTIONARY
  5
D
102
{ACAD_REACTORS
330
C
102
}
330
C
100
AcDbDictionary
281
     1
  0
DICTIONARY
  5
1A
102
{ACAD_REACTORS
330
C
102
}
330
C
100
AcDbDictionary
281
     1
  3
_Front
350
1E
  3
_Left
350
26
  3
Model
350
22
  0
DICTIONARY
  5
17
102
{ACAD_REACTORS
330
C
102
}
330
C
100
AcDbDictionary
281
     1
  3
Standard
350
18
  0
DICTIONARY
  5
19
102
{ACAD_REACTORS
330
C
102
}
330
C
100
AcDbDictionary
281
     1
  0
ACDBDICTIONARYWDFLT
  5
E
102
{ACAD_REACTORS
330
C
102
}
330
C
100
AcDbDictionary
281
     1
  3
Normal
350
F
100
AcDbDictionaryWithDefault
340
F
  0
DICTIONARY
  5
47
102
{ACAD_REACTORS
330
C
102
}
330
C
100
AcDbDictionary
281
     1
  3
A0
350
48
  3
A1
350
49
  3
A2
350
4A
  3
A3
350
4B
  3
A4
350
4C
  3
A5
350
4D
  3
A6
350
4E
  3
A7
350
4F
  3
A8
350
50
  3
A9
350
51
  3
B0
350
52
  3
B1
350
53
  3
B2
350
54
  3
B3
350
55
  3
B4
350
56
  3
B5
350
57
  3
B6
350
58
  3
B7
350
59
  3
B8
350
5A
  3
B9
350
5B
  3
C0
350
5C
  3
C1
350
5D
  3
C2
350
5E
  3
C3
350
5F
  3
C4
350
60
  3
C5
350
61
  3
C6
350
62
  3
C7
350
63
  3
C8
350
64
  3
C9
350
65
  3
D0
350
66
  3
D1
350
67
  3
D2
350
68
  0
LAYOUT
  5
1E
102
{ACAD_REACTORS
330
1A
102
}
330
1A
100
AcDbPlotSettings
  1

  2
none_device
  4
ISO_A4_(210.00_x_297.00_MM)
  6

 40
7.5
 41
20.0
 42
7.5
 43
20.0
 44
210.0
 45
297.0
 46
0.0
 47
0.0
 48
0.0
 49
0.0
140
0.0
141
0.0
142
1.0
143
6.6147859922
 70
   688
 72
     1
 73
     1
 74
     1
  7

 75
     0
147
0.1511764706
148
850.0
149
0.0
100
AcDbLayout
  1
_Front
 70
     1
 71
     1
 10
-982.2957198444
 20
-49.6108949416
 11
982.2957198444
 21
1339.4941634241
 12
0.0
 22
0.0
 32
0.0
 14
1.0000000000E+20
 24
1.0000000000E+20
 34
1.0000000000E+20
 15
-1.0000000000E+20
 25
-1.0000000000E+20
 35
-1.0000000000E+20
146
0.0
 13
0.0
 23
0.0
 33
0.0
 16
1.0
 26
0.0
 36
0.0
 17
0.0
 27
1.0
 37
0.0
 76
     0
330
1B
331
16C
  0
LAYOUT
  5
26
102
{ACAD_REACTORS
330
1A
102
}
330
1A
100
AcDbPlotSettings
  1

  2
none_device
  4
ANSI_A_(11.00_x_8.50_Inches)
  6

 40
6.35
 41
19.05
 42
6.35000508
 43
19.05000254
 44
279.4
 45
215.9
 46
133.34999746
 47
88.89999873
 48
0.0
 49
0.0
140
0.0
141
0.0
142
0.0064058824
143
1.0
 70
  1696
 72
     0
 73
     0
 74
     1
  7

 75
     0
147
0.0061764705
148
21590.0
149
8890.0
100
AcDbLayout
  1
_Left
 70
     1
 71
     2
 10
0.0
 20
0.0
 11
0.0
 21
0.0
 12
0.0
 22
0.0
 32
0.0
 14
-850.0
 24
-350.0
 34
0.0
 15
850.0
 25
350.0
 35
0.0
146
0.0
 13
0.0
 23
0.0
 33
0.0
 16
1.0
 26
0.0
 36
0.0
 17
0.0
 27
1.0
 37
0.0
 76
     0
330
23
331
16E
  0
LAYOUT
  5
22
102
{ACAD_REACTORS
330
1A
102
}
330
1A
100
AcDbPlotSettings
  1

  2
none_device
  4
Letter_(8.50_x_11.00_Inches)
  6

 40
6.35
 41
6.35
 42
6.35000508
 43
6.35000508
 44
215.9
 45
279.4
 46
0.0
 47
0.0
 48
0.0
 49
0.0
140
0.0
141
0.0
142
1.0
143
1.0
 70
  1712
 72
     1
 73
     0
 74
     0
  7

 75
     0
147
1.0
148
0.0
149
0.0
100
AcDbLayout
  1
Model
 70
     1
 71
     0
 10
0.0
 20
0.0
 11
420.0
 21
297.0
 12
0.0
 22
0.0
 32
0.0
 14
-850.0
 24
-350.0
 34
0.0
 15
850.0
 25
350.0
 35
0.0
146
0.0
 13
0.0
 23
0.0
 33
0.0
 16
1.0
 26
0.0
 36
0.0
 17
0.0
 27
1.0
 37
0.0
 76
     0
330
1F
331
29
  0
MLINESTYLE
  5
18
102
{ACAD_REACTORS
330
17
102
}
330
17
100
AcDbMlineStyle
  2
Standard
 70
     0
  3

 62
   256
 51
90.0
 52
90.0
 71
     2
 49
0.5
 62
   256
  6
BYLAYER
 49
-0.5
 62
   256
  6
BYLAYER
  0
ACDBPLACEHOLDER
  5
F
102
{ACAD_REACTORS
330
E
102
}
330
E
  0
SCALE
  5
48
102
{ACAD_REACTORS
330
47
102
}
330
47
100
AcDbScale
 70
     0
300
1:1
140
1.0
141
1.0
290
     1
  0
SCALE
  5
49
102
{ACAD_REACTORS
330
47
102
}
330
47
100
AcDbScale
 70
     0
300
1:2
140
1.0
141
2.0
290
     0
  0
SCALE
  5
4A
102
{ACAD_REACTORS
330
47
102
}
330
47
100
AcDbScale
 70
     0
300
1:4
140
1.0
141
4.0
290
     0
  0
SCALE
  5
4B
102
{ACAD_REACTORS
330
47
102
}
330
47
100
AcDbScale
 70
     0
300
1:5
140
1.0
141
5.0
290
     0
  0
SCALE
  5
4C
102
{ACAD_REACTORS
330
47
102
}
330
47
100
AcDbScale
 70
     0
300
1:8
140
1.0
141
8.0
290
     0
  0
SCALE
  5
4D
102
{ACAD_REACTORS
330
47
102
}
330
47
100
AcDbScale
 70
     0
300
1:10
140
1.0
141
10.0
290
     0
  0
SCALE
  5
4E
102
{ACAD_REACTORS
330
47
102
}
330
47
100
AcDbScale
 70
     0
300
1:16
140
1.0
141
16.0
290
     0
  0
SCALE
  5
4F
102
{ACAD_REACTORS
330
47
102
}
330
47
100
AcDbScale
 70
     0
300
1:20
140
1.0
141
20.0
290
     0
  0
SCALE
  5
50
102
{ACAD_REACTORS
330
47
102
}
330
47
100
AcDbScale
 70
     0
300
1:30
140
1.0
141
30.0
290
     0
  0
SCALE
  5
51
102
{ACAD_REACTORS
330
47
102
}
330
47
100
AcDbScale
 70
     0
300
1:40
140
1.0
141
40.0
290
     0
  0
SCALE
  5
52
102
{ACAD_REACTORS
330
47
102
}
330
47
100
AcDbScale
 70
     0
300
1:50
140
1.0
141
50.0
290
     0
  0
SCALE
  5
53
102
{ACAD_REACTORS
330
47
102
}
330
47
100
AcDbScale
 70
     0
300
1:100
140
1.0
141
100.0
290
     0
  0
SCALE
  5
54
102
{ACAD_REACTORS
330
47
102
}
330
47
100
AcDbScale
 70
     0
300
2:1
140
2.0
141
1.0
290
     0
  0
SCALE
  5
55
102
{ACAD_REACTORS
330
47
102
}
330
47
100
AcDbScale
 70
     0
300
4:1
140
4.0
141
1.0
290
     0
  0
SCALE
  5
56
102
{ACAD_REACTORS
330
47
102
}
330
47
100
AcDbScale
 70
     0
300
8:1
140
8.0
141
1.0
290
     0
  0
SCALE
  5
57
102
{ACAD_REACTORS
330
47
102
}
330
47
100
AcDbScale
 70
     0
300
10:1
140
10.0
141
1.0
290
     0
  0
SCALE
  5
58
102
{ACAD_REACTORS
330
47
102
}
330
47
100
AcDbScale
 70
     0
300
100:1
140
100.0
141
1.0
290
     0
  0
SCALE
  5
59
102
{ACAD_REACTORS
330
47
102
}
330
47
100
AcDbScale
 70
     0
300
1/128" = 1'-0"
140
0.0078125
141
12.0
290
     0
  0
SCALE
  5
5A
102
{ACAD_REACTORS
330
47
102
}
330
47
100
AcDbScale
 70
     0
300
1/64" = 1'-0"
140
0.015625
141
12.0
290
     0
  0
SCALE
  5
5B
102
{ACAD_REACTORS
330
47
102
}
330
47
100
AcDbScale
 70
     0
300
1/32" = 1'-0"
140
0.03125
141
12.0
290
     0
  0
SCALE
  5
5C
102
{ACAD_REACTORS
330
47
102
}
330
47
100
AcDbScale
 70
     0
300
1/16" = 1'-0"
140
0.0625
141
12.0
290
     0
  0
SCALE
  5
5D
102
{ACAD_REACTORS
330
47
102
}
330
47
100
AcDbScale
 70
     0
300
3/32" = 1'-0"
140
0.09375
141
12.0
290
     0
  0
SCALE
  5
5E
102
{ACAD_REACTORS
330
47
102
}
330
47
100
AcDbScale
 70
     0
300
1/8" = 1'-0"
140
0.125
141
12.0
290
     0
  0
SCALE
  5
5F
102
{ACAD_REACTORS
330
47
102
}
330
47
100
AcDbScale
 70
     0
300
3/16" = 1'-0"
140
0.1875
141
12.0
290
     0
  0
SCALE
  5
60
102
{ACAD_REACTORS
330
47
102
}
330
47
100
AcDbScale
 70
     0
300
1/4" = 1'-0"
140
0.25
141
12.0
290
     0
  0
SCALE
  5
61
102
{ACAD_REACTORS
330
47
102
}
330
47
100
AcDbScale
 70
     0
300
3/8" = 1'-0"
140
0.375
141
12.0
290
     0
  0
SCALE
  5
62
102
{ACAD_REACTORS
330
47
102
}
330
47
100
AcDbScale
 70
     0
300
1/2" = 1'-0"
140
0.5
141
12.0
290
     0
  0
SCALE
  5
63
102
{ACAD_REACTORS
330
47
102
}
330
47
100
AcDbScale
 70
     0
300
3/4" = 1'-0"
140
0.75
141
12.0
290
     0
  0
SCALE
  5
64
102
{ACAD_REACTORS
330
47
102
}
330
47
100
AcDbScale
 70
     0
300
1" = 1'-0"
140
1.0
141
12.0
290
     0
  0
SCALE
  5
65
102
{ACAD_REACTORS
330
47
102
}
330
47
100
AcDbScale
 70
     0
300
1-1/2" = 1'-0"
140
1.5
141
12.0
290
     0
  0
SCALE
  5
66
102
{ACAD_REACTORS
330
47
102
}
330
47
100
AcDbScale
 70
     0
300
3" = 1'-0"
140
3.0
141
12.0
290
     0
  0
SCALE
  5
67
102
{ACAD_REACTORS
330
47
102
}
330
47
100
AcDbScale
 70
     0
300
6" = 1'-0"
140
6.0
141
12.0
290
     0
  0
SCALE
  5
68
102
{ACAD_REACTORS
330
47
102
}
330
47
100
AcDbScale
 70
     0
300
1'-0" = 1'-0"
140
12.0
141
12.0
290
     0
  0
ENDSEC
  0
EOF
