  0
SECTION
  2
HEADER
  9
$ACADVER
  1
AC1015
  9
$ACADMAINTVER
 70
     6
  9
$DWGCODEPAGE
  3
ANSI_1252
  9
$INSBASE
 10
0.0
 20
0.0
 30
0.0
  9
$EXTMIN
 10
-31.5
 20
-99.9836996371
 30
0.0
  9
$EXTMAX
 10
31.5
 20
17.0000440414
 30
0.0
  9
$LIMMIN
 10
0.0
 20
0.0
  9
$LIMMAX
 10
420.0
 20
297.0
  9
$ORTHOMODE
 70
     0
  9
$REGENMODE
 70
     1
  9
$FILLMODE
 70
     1
  9
$QTEXTMODE
 70
     0
  9
$MIRRTEXT
 70
     1
  9
$LTSCALE
 40
1.0
  9
$ATTMODE
 70
     1
  9
$TEXTSIZE
 40
3.5
  9
$TRACEWID
 40
1.0
  9
$TEXTSTYLE
  7
Standard
  9
$CLAYER
  8
0
  9
$CELTYPE
  6
ByLayer
  9
$CECOLOR
 62
   256
  9
$CELTSCALE
 40
1.0
  9
$DISPSILH
 70
     0
  9
$DIMSCALE
 40
1.0
  9
$DIMASZ
 40
3.302
  9
$DIMEXO
 40
1.0
  9
$DIMDLI
 40
3.75
  9
$DIMRND
 40
0.0
  9
$DIMDLE
 40
0.0
  9
$DIMEXE
 40
1.0
  9
$DIMTP
 40
0.0
  9
$DIMTM
 40
0.0
  9
$DIMTXT
 40
3.5
  9
$DIMCEN
 40
2.5
  9
$DIMTSZ
 40
0.0
  9
$DIMTOL
 70
     0
  9
$DIMLIM
 70
     0
  9
$DIMTIH
 70
     1
  9
$DIMTOH
 70
     1
  9
$DIMSE1
 70
     0
  9
$DIMSE2
 70
     0
  9
$DIMTAD
 70
     1
  9
$DIMZIN
 70
     1
  9
$DIMBLK
  1

  9
$DIMASO
 70
     1
  9
$DIMSHO
 70
     1
  9
$DIMPOST
  1

  9
$DIMAPOST
  1

  9
$DIMALT
 70
     0
  9
$DIMALTD
 70
     3
  9
$DIMALTF
 40
0.0393700787
  9
$DIMLFAC
 40
1.0
  9
$DIMTOFL
 70
     1
  9
$DIMTVP
 40
0.0
  9
$DIMTIX
 70
     0
  9
$DIMSOXD
 70
     0
  9
$DIMSAH
 70
     0
  9
$DIMBLK1
  1

  9
$DIMBLK2
  1

  9
$DIMSTYLE
  2
ISO-25
  9
$DIMCLRD
 70
     0
  9
$DIMCLRE
 70
     0
  9
$DIMCLRT
 70
     0
  9
$DIMTFAC
 40
1.0
  9
$DIMGAP
 40
1.524
  9
$DIMJUST
 70
     0
  9
$DIMSD1
 70
     0
  9
$DIMSD2
 70
     0
  9
$DIMTOLJ
 70
     0
  9
$DIMTZIN
 70
     1
  9
$DIMALTZ
 70
     0
  9
$DIMALTTZ
 70
     0
  9
$DIMUPT
 70
     0
  9
$DIMDEC
 70
     2
  9
$DIMTDEC
 70
     2
  9
$DIMALTU
 70
     2
  9
$DIMALTTD
 70
     3
  9
$DIMTXSTY
  7
Standard
  9
$DIMAUNIT
 70
     0
  9
$DIMADEC
 70
     2
  9
$DIMALTRND
 40
0.0
  9
$DIMAZIN
 70
     0
  9
$DIMDSEP
 70
    44
  9
$DIMATFIT
 70
     3
  9
$DIMFRAC
 70
     0
  9
$DIMLDRBLK
  1

  9
$DIMLUNIT
 70
     2
  9
$DIMLWD
 70
    -2
  9
$DIMLWE
 70
    -2
  9
$DIMTMOVE
 70
     0
  9
$LUNITS
 70
     2
  9
$LUPREC
 70
     2
  9
$SKETCHINC
 40
1.0
  9
$FILLETRAD
 40
10.0
  9
$AUNITS
 70
     0
  9
$AUPREC
 70
     2
  9
$MENU
  1
.
  9
$ELEVATION
 40
0.0
  9
$PELEVATION
 40
0.0
  9
$THICKNESS
 40
0.0
  9
$LIMCHECK
 70
     0
  9
$CHAMFERA
 40
0.0
  9
$CHAMFERB
 40
0.0
  9
$CHAMFERC
 40
0.0
  9
$CHAMFERD
 40
0.0
  9
$SKPOLY
 70
     0
  9
$TDCREATE
 40
2458719.613184757
  9
$TDUCREATE
 40
2458719.57151809
  9
$TDUPDATE
 40
2458719.613259641
  9
$TDUUPDATE
 40
2458719.571592974
  9
$TDINDWG
 40
0.0000000116
  9
$TDUSRTIMER
 40
0.0000000116
  9
$USRTIMER
 70
     1
  9
$ANGBASE
 50
0.0
  9
$ANGDIR
 70
     0
  9
$PDMODE
 70
     0
  9
$PDSIZE
 40
-1.0
  9
$PLINEWID
 40
0.0
  9
$SPLFRAME
 70
     0
  9
$SPLINETYPE
 70
     6
  9
$SPLINESEGS
 70
     8
  9
$HANDSEED
  5
16A
  9
$SURFTAB1
 70
     6
  9
$SURFTAB2
 70
     6
  9
$SURFTYPE
 70
     6
  9
$SURFU
 70
     6
  9
$SURFV
 70
     6
  9
$UCSBASE
  2

  9
$UCSNAME
  2

  9
$UCSORG
 10
0.0
 20
0.0
 30
0.0
  9
$UCSXDIR
 10
1.0
 20
0.0
 30
0.0
  9
$UCSYDIR
 10
0.0
 20
1.0
 30
0.0
  9
$UCSORTHOREF
  2

  9
$UCSORTHOVIEW
 70
     0
  9
$UCSORGTOP
 10
0.0
 20
0.0
 30
0.0
  9
$UCSORGBOTTOM
 10
0.0
 20
0.0
 30
0.0
  9
$UCSORGLEFT
 10
0.0
 20
0.0
 30
0.0
  9
$UCSORGRIGHT
 10
0.0
 20
0.0
 30
0.0
  9
$UCSORGFRONT
 10
0.0
 20
0.0
 30
0.0
  9
$UCSORGBACK
 10
0.0
 20
0.0
 30
0.0
  9
$PUCSBASE
  2

  9
$PUCSNAME
  2

  9
$PUCSORG
 10
0.0
 20
0.0
 30
0.0
  9
$PUCSXDIR
 10
1.0
 20
0.0
 30
0.0
  9
$PUCSYDIR
 10
0.0
 20
1.0
 30
0.0
  9
$PUCSORTHOREF
  2

  9
$PUCSORTHOVIEW
 70
     0
  9
$PUCSORGTOP
 10
0.0
 20
0.0
 30
0.0
  9
$PUCSORGBOTTOM
 10
0.0
 20
0.0
 30
0.0
  9
$PUCSORGLEFT
 10
0.0
 20
0.0
 30
0.0
  9
$PUCSORGRIGHT
 10
0.0
 20
0.0
 30
0.0
  9
$PUCSORGFRONT
 10
0.0
 20
0.0
 30
0.0
  9
$PUCSORGBACK
 10
0.0
 20
0.0
 30
0.0
  9
$USERI1
 70
     0
  9
$USERI2
 70
     0
  9
$USERI3
 70
     0
  9
$USERI4
 70
     0
  9
$USERI5
 70
     0
  9
$USERR1
 40
0.0
  9
$USERR2
 40
0.0
  9
$USERR3
 40
0.0
  9
$USERR4
 40
0.0
  9
$USERR5
 40
0.0
  9
$WORLDVIEW
 70
     1
  9
$SHADEDGE
 70
     3
  9
$SHADEDIF
 70
    70
  9
$TILEMODE
 70
     0
  9
$MAXACTVP
 70
    64
  9
$PINSBASE
 10
0.0
 20
0.0
 30
0.0
  9
$PLIMCHECK
 70
     0
  9
$PEXTMIN
 10
-31.5
 20
-99.9836996371
 30
0.0
  9
$PEXTMAX
 10
31.5
 20
17.0000440414
 30
0.0
  9
$PLIMMIN
 10
0.0
 20
0.0
  9
$PLIMMAX
 10
0.0
 20
0.0
  9
$UNITMODE
 70
     0
  9
$VISRETAIN
 70
     1
  9
$PLINEGEN
 70
     0
  9
$PSLTSCALE
 70
     1
  9
$TREEDEPTH
 70
  3020
  9
$CMLSTYLE
  2
Standard
  9
$CMLJUST
 70
     0
  9
$CMLSCALE
 40
20.0
  9
$PROXYGRAPHICS
 70
     1
  9
$MEASUREMENT
 70
     1
  9
$CELWEIGHT
370
    -1
  9
$ENDCAPS
280
     0
  9
$JOINSTYLE
280
     0
  9
$LWDISPLAY
290
     1
  9
$INSUNITS
 70
     4
  9
$HYPERLINKBASE
  1

  9
$STYLESHEET
  1

  9
$XEDIT
290
     1
  9
$CEPSNTYPE
380
     0
  9
$PSTYLEMODE
290
     1
  9
$FINGERPRINTGUID
  2
{7fce61c7-60b5-4116-85f6-9de3057c6653}
  9
$VERSIONGUID
  2
{FAEB1C32-E019-11D5-929B-00C0DF256EC4}
  9
$EXTNAMES
290
     1
  9
$PSVPSCALE
 40
0.0
  9
$OLESTARTUP
290
     0
  0
ENDSEC
  0
SECTION
  2
CLASSES
  0
CLASS
  1
ACDBDICTIONARYWDFLT
  2
AcDbDictionaryWithDefault
  3
ObjectDBX Classes
 90
        0
280
     0
281
     0
  0
CLASS
  1
VISUALSTYLE
  2
AcDbVisualStyle
  3
ObjectDBX Classes
 90
     4095
280
     0
281
     0
  0
CLASS
  1
MATERIAL
  2
AcDbMaterial
  3
ObjectDBX Classes
 90
     1153
280
     0
281
     0
  0
CLASS
  1
SCALE
  2
AcDbScale
  3
ObjectDBX Classes
 90
     1153
280
     0
281
     0
  0
CLASS
  1
TABLESTYLE
  2
AcDbTableStyle
  3
ObjectDBX Classes
 90
     4095
280
     0
281
     0
  0
CLASS
  1
MLEADERSTYLE
  2
AcDbMLeaderStyle
  3
ACDB_MLEADERSTYLE_CLASS
 90
     4095
280
     0
281
     0
  0
CLASS
  1
SUN
  2
AcDbSun
  3
SCENEOE
 90
     1153
280
     0
281
     0
  0
CLASS
  1
ACDBPLACEHOLDER
  2
AcDbPlaceHolder
  3
ObjectDBX Classes
 90
        0
280
     0
281
     0
  0
CLASS
  1
LAYOUT
  2
AcDbLayout
  3
ObjectDBX Classes
 90
        0
280
     0
281
     0
  0
ENDSEC
  0
SECTION
  2
TABLES
  0
TABLE
  2
VPORT
  5
8
330
0
100
AcDbSymbolTable
 70
     1
  0
VPORT
  5
29
330
8
100
AcDbSymbolTableRecord
100
AcDbViewportTableRecord
  2
*Active
 70
     0
 10
0.0
 20
0.0
 11
1.0
 21
1.0
 12
0.0
 22
-41.4918277979
 13
0.0
 23
0.0
 14
10.0
 24
10.0
 15
10.0
 25
10.0
 16
0.0
 26
0.0
 36
1.0
 17
0.0
 27
0.0
 37
0.0
 40
119.3234185521
 41
0.5385363643
 42
50.0
 43
0.0
 44
0.0
 50
0.0
 51
0.0
 71
     0
 72
   100
 73
     1
 74
     3
 75
     0
 76
     0
 77
     0
 78
     0
281
     0
 65
     1
110
0.0
120
0.0
130
0.0
111
1.0
121
0.0
131
0.0
112
0.0
122
1.0
132
0.0
 79
     0
146
0.0
  0
ENDTAB
  0
TABLE
  2
LTYPE
  5
5
330
0
100
AcDbSymbolTable
 70
     6
  0
LTYPE
  5
14
330
5
100
AcDbSymbolTableRecord
100
AcDbLinetypeTableRecord
  2
ByBlock
 70
     0
  3

 72
    65
 73
     0
 40
0.0
  0
LTYPE
  5
15
330
5
100
AcDbSymbolTableRecord
100
AcDbLinetypeTableRecord
  2
ByLayer
 70
     0
  3

 72
    65
 73
     0
 40
0.0
  0
LTYPE
  5
16
330
5
100
AcDbSymbolTableRecord
100
AcDbLinetypeTableRecord
  2
Continuous
 70
     0
  3
Solid line
 72
    65
 73
     0
 40
0.0
  0
LTYPE
  5
6E
330
5
100
AcDbSymbolTableRecord
100
AcDbLinetypeTableRecord
  2
HIDDEN
 70
     0
  3
Hidden __ __ __ __ __ __ __ __ __ __ __ __ __ __
 72
    65
 73
     2
 40
1.905
 49
1.27
 74
     0
 49
-0.635
 74
     0
  0
LTYPE
  5
6F
330
5
100
AcDbSymbolTableRecord
100
AcDbLinetypeTableRecord
  2
PHANTOM
 70
     0
  3
Phantom ______  __  __  ______  __  __  ______
 72
    65
 73
     6
 40
12.7
 49
6.35
 74
     0
 49
-1.27
 74
     0
 49
1.27
 74
     0
 49
-1.27
 74
     0
 49
1.27
 74
     0
 49
-1.27
 74
     0
  0
LTYPE
  5
70
330
5
100
AcDbSymbolTableRecord
100
AcDbLinetypeTableRecord
  2
CENTER
 70
     0
  3
Center ____ _ ____ _ ____ _ ____ _ ____ _ ____
 72
    65
 73
     4
 40
10.16
 49
6.35
 74
     0
 49
-1.27
 74
     0
 49
1.27
 74
     0
 49
-1.27
 74
     0
  0
LTYPE
  5
71
330
5
100
AcDbSymbolTableRecord
100
AcDbLinetypeTableRecord
  2
CENTERX2
 70
     0
  3
Center (2x) ________  __  ________  __  _____
 72
    65
 73
     4
 40
20.32
 49
12.7
 74
     0
 49
-2.54
 74
     0
 49
2.54
 74
     0
 49
-2.54
 74
     0
  0
LTYPE
  5
72
330
5
100
AcDbSymbolTableRecord
100
AcDbLinetypeTableRecord
  2
DOT2
 70
     0
  3
Dot (.5x) ........................................
 72
    65
 73
     2
 40
0.635
 49
0.0
 74
     0
 49
-0.635
 74
     0
  0
ENDTAB
  0
TABLE
  2
LAYER
  5
2
330
0
100
AcDbSymbolTable
 70
     1
  0
LAYER
  5
10
330
2
100
AcDbSymbolTableRecord
100
AcDbLayerTableRecord
  2
0
 70
     0
 62
     7
  6
Continuous
370
    -3
390
F
  0
ENDTAB
  0
TABLE
  2
STYLE
  5
3
330
0
100
AcDbSymbolTable
 70
     1
  0
STYLE
  5
11
330
3
100
AcDbSymbolTableRecord
100
AcDbTextStyleTableRecord
  2
Standard
 70
     0
 40
0.0
 41
1.0
 50
0.0
 71
     0
 42
3.5
  3
txt
  4

  0
ENDTAB
  0
TABLE
  2
VIEW
  5
6
330
0
100
AcDbSymbolTable
 70
     0
  0
ENDTAB
  0
TABLE
  2
UCS
  5
7
330
0
100
AcDbSymbolTable
 70
     0
  0
ENDTAB
  0
TABLE
  2
APPID
  5
9
330
0
100
AcDbSymbolTable
 70
     1
  0
APPID
  5
12
330
9
100
AcDbSymbolTableRecord
100
AcDbRegAppTableRecord
  2
ACAD
 70
     0
  0
ENDTAB
  0
TABLE
  2
DIMSTYLE
  5
A
330
0
100
AcDbSymbolTable
 70
     1
100
AcDbDimStyleTable
  0
DIMSTYLE
105
27
330
A
100
AcDbSymbolTableRecord
100
AcDbDimStyleTableRecord
  2
ISO-25
 70
     0
 41
2.5
 42
0.625
 43
3.75
 44
1.25
 73
     0
 74
     0
 77
     1
 78
     8
140
2.5
141
2.5
143
0.0393700787
147
0.625
171
     3
172
     1
178
     0
271
     2
272
     2
274
     3
278
    44
283
     0
284
     8
340
11
  0
ENDTAB
  0
TABLE
  2
BLOCK_RECORD
  5
1
330
0
100
AcDbSymbolTable
 70
     1
  0
BLOCK_RECORD
  5
1F
330
1
100
AcDbSymbolTableRecord
100
AcDbBlockTableRecord
  2
*Model_Space
340
22
  0
BLOCK_RECORD
  5
23
330
1
100
AcDbSymbolTableRecord
100
AcDbBlockTableRecord
  2
*Paper_Space
340
26
  0
BLOCK_RECORD
  5
1B
330
1
100
AcDbSymbolTableRecord
100
AcDbBlockTableRecord
  2
*Paper_Space0
340
1E
  0
ENDTAB
  0
ENDSEC
  0
SECTION
  2
BLOCKS
  0
BLOCK
  5
20
330
1F
100
AcDbEntity
  8
0
100
AcDbBlockBegin
  2
*Model_Space
 70
     0
 10
0.0
 20
0.0
 30
0.0
  3
*Model_Space
  1

  0
ENDBLK
  5
21
330
1F
100
AcDbEntity
  8
0
100
AcDbBlockEnd
  0
BLOCK
  5
24
330
23
100
AcDbEntity
 67
     1
  8
0
100
AcDbBlockBegin
  2
*Paper_Space
 70
     0
 10
0.0
 20
0.0
 30
0.0
  3
*Paper_Space
  1

  0
ENDBLK
  5
25
330
23
100
AcDbEntity
 67
     1
  8
0
100
AcDbBlockEnd
  0
BLOCK
  5
1C
330
1B
100
AcDbEntity
  8
0
100
AcDbBlockBegin
  2
*Paper_Space0
 70
     0
 10
0.0
 20
0.0
 30
0.0
  3
*Paper_Space0
  1

  0
CIRCLE
  5
E4
330
1B
100
AcDbEntity
  8
0
  6
Continuous
 62
     7
370
    25
100
AcDbCircle
 10
-218.0
 20
-28.9836996371
 30
0.0
 40
3.499999999999972
  0
SPLINE
  5
F0
330
1B
100
AcDbEntity
  8
0
  6
Continuous
 62
     7
370
    25
100
AcDbSpline
210
0.0
220
0.0
230
1.0
 70
     8
 71
     3
 72
     8
 73
     4
 74
     0
 42
0.000000001
 43
0.00000001
 40
0.0
 40
0.0
 40
0.0
 40
0.0
 40
1.0
 40
1.0
 40
1.0
 40
1.0
 10
202.3839461307354
 20
-56.66553878598899
 30
0.0
 10
201.9041119014469
 20
-51.9976930109682
 30
0.0
 10
200.9892967319745
 20
-47.36924375169677
 30
0.0
 10
199.6159164815101
 20
-42.78987993167376
 30
0.0
  0
SPLINE
  5
F1
330
1B
100
AcDbEntity
  8
0
  6
Continuous
 62
     7
370
    25
100
AcDbSpline
210
0.0
220
0.0
230
1.0
 70
     8
 71
     3
 72
    58
 73
    54
 74
     0
 42
0.000000001
 43
0.00000001
 40
0.0
 40
0.0
 40
0.0
 40
0.0
 40
0.0624999999999985
 40
0.0624999999999985
 40
0.0937499999999987
 40
0.0937499999999987
 40
0.1249999999999988
 40
0.1249999999999988
 40
0.156249999999999
 40
0.156249999999999
 40
0.1874999999999991
 40
0.1874999999999991
 40
0.2187499999999993
 40
0.2187499999999993
 40
0.2499999999999994
 40
0.2499999999999994
 40
0.2812499999999996
 40
0.2812499999999996
 40
0.3124999999999997
 40
0.3124999999999997
 40
0.3437499999999999
 40
0.3437499999999999
 40
0.3750000000000001
 40
0.3750000000000001
 40
0.4375000000000042
 40
0.4375000000000042
 40
0.5000000000000083
 40
0.5000000000000083
 40
0.531250000000008
 40
0.531250000000008
 40
0.5625000000000078
 40
0.5625000000000078
 40
0.5937500000000074
 40
0.5937500000000074
 40
0.6250000000000071
 40
0.6250000000000071
 40
0.6562500000000069
 40
0.6562500000000069
 40
0.6875000000000066
 40
0.6875000000000066
 40
0.7187500000000063
 40
0.7187500000000063
 40
0.750000000000006
 40
0.750000000000006
 40
0.7812500000000057
 40
0.7812500000000057
 40
0.8125000000000054
 40
0.8125000000000054
 40
0.8750000000000036
 40
0.8750000000000036
 40
0.9375000000000018
 40
0.9375000000000018
 40
1.0
 40
1.0
 40
1.0
 40
1.0
 10
215.9269063498411
 20
-42.16372043195886
 30
0.0
 10
215.6292870062774
 20
-42.38251380822647
 30
0.0
 10
215.3732883650493
 20
-42.64152053754092
 30
0.0
 10
215.0510206283056
 20
-43.089662968472
 30
0.0
 10
214.9555789427042
 20
-43.24741490138944
 30
0.0
 10
214.7917790597375
 20
-43.57284788866694
 30
0.0
 10
214.7227331282467
 20
-43.74146479988615
 30
0.0
 10
214.6108651967123
 20
-44.09073221067623
 30
0.0
 10
214.5684511456576
 20
-44.27116300982706
 30
0.0
 10
214.5129931991074
 20
-44.6315355340113
 30
0.0
 10
214.4993866829044
 20
-44.81303072462673
 30
0.0
 10
214.5006554631147
 20
-45.17865933989594
 30
0.0
 10
214.5159102295752
 20
-45.36373887796634
 30
0.0
 10
214.5743355831786
 20
-45.72406080324288
 30
0.0
 10
214.6173639236839
 20
-45.90077413919735
 30
0.0
 10
214.7309802780497
 20
-46.24733032868744
 30
0.0
 10
214.8024001098744
 20
-46.4185476168838
 30
0.0
 10
214.9693192370126
 20
-46.74392913784911
 30
0.0
 10
215.0647557367112
 20
-46.89876685801083
 30
0.0
 10
215.2792766136396
 20
-47.19295417216698
 30
0.0
 10
215.399475008387
 20
-47.33336016973048
 30
0.0
 10
215.6592840103334
 20
-47.59227846595424
 30
0.0
 10
215.797982405265
 20
-47.71027654848336
 30
0.0
 10
216.2398519121121
 20
-48.03071313770592
 30
0.0
 10
216.5730153888732
 20
-48.20025236800716
 30
0.0
 10
217.2654391208067
 20
-48.42505356627919
 30
0.0
 10
217.634912699323
 20
-48.48361046827669
 30
0.0
 10
218.1812598864737
 20
-48.48374406461905
 30
0.0
 10
218.3630621867706
 20
-48.46966264067454
 30
0.0
 10
218.7260233319941
 20
-48.41249568457035
 30
0.0
 10
218.9058001330186
 20
-48.36936458449222
 30
0.0
 10
219.2524688661894
 20
-48.25700419918917
 30
0.0
 10
219.4208095324888
 20
-48.18757652863225
 30
0.0
 10
219.7473619343377
 20
-48.02183280306212
 30
0.0
 10
219.9056406496755
 20
-47.92508985931245
 30
0.0
 10
220.200948943428
 20
-47.71116484740566
 30
0.0
 10
220.3394955630931
 20
-47.5933150591908
 30
0.0
 10
220.5983111993305
 20
-47.33574365292078
 30
0.0
 10
220.7192047989596
 20
-47.19486708382325
 30
0.0
 10
220.934516080726
 20
-46.89993333580917
 30
0.0
 10
221.0299346362565
 20
-46.745146350583
 30
0.0
 10
221.1964567881155
 20
-46.42101046851742
 30
0.0
 10
221.268004010972
 20
-46.25005767235205
 30
0.0
 10
221.3822826080773
 20
-45.90221868875032
 30
0.0
 10
221.4253486097251
 20
-45.72540181815365
 30
0.0
 10
221.4838100085974
 20
-45.36606470806169
 30
0.0
 10
221.4991921972997
 20
-45.18223515461543
 30
0.0
 10
221.5015218356771
 20
-44.63100376866227
 30
0.0
 10
221.446423726241
 20
-44.27070319230579
 30
0.0
 10
221.2219202334605
 20
-43.56756742567231
 30
0.0
 10
221.058280173115
 20
-43.2422941908255
 30
0.0
 10
220.6289489356526
 20
-42.64399922053752
 30
0.0
 10
220.3707135229241
 20
-42.38251419726627
 30
0.0
 10
220.0730936501589
 20
-42.16372043195885
 30
0.0
  0
CIRCLE
  5
F2
330
1B
100
AcDbEntity
  8
0
  6
Continuous
 62
     7
370
    25
100
AcDbCircle
 10
218.0
 20
-28.9836996371
 30
0.0
 40
3.499999999999972
  0
SPLINE
  5
F8
330
1B
100
AcDbEntity
  8
0
  6
Continuous
 62
     7
370
    25
100
AcDbSpline
210
0.0
220
0.0
230
1.0
 70
     8
 71
     3
 72
    58
 73
    54
 74
     0
 42
0.000000001
 43
0.00000001
 40
0.0
 40
0.0
 40
0.0
 40
0.0
 40
0.0624999999999974
 40
0.0624999999999974
 40
0.0937499999999961
 40
0.0937499999999961
 40
0.1249999999999948
 40
0.1249999999999948
 40
0.1562499999999935
 40
0.1562499999999935
 40
0.1874999999999922
 40
0.1874999999999922
 40
0.2187499999999909
 40
0.2187499999999909
 40
0.2499999999999896
 40
0.2499999999999896
 40
0.2812499999999883
 40
0.2812499999999883
 40
0.312499999999987
 40
0.312499999999987
 40
0.3437499999999857
 40
0.3437499999999857
 40
0.3749999999999845
 40
0.3749999999999845
 40
0.4374999999999857
 40
0.4374999999999857
 40
0.4999999999999869
 40
0.4999999999999869
 40
0.5312499999999875
 40
0.5312499999999875
 40
0.5624999999999881
 40
0.5624999999999881
 40
0.5937499999999887
 40
0.5937499999999887
 40
0.6249999999999892
 40
0.6249999999999892
 40
0.6562499999999899
 40
0.6562499999999899
 40
0.6874999999999905
 40
0.6874999999999905
 40
0.718749999999991
 40
0.718749999999991
 40
0.7499999999999916
 40
0.7499999999999916
 40
0.7812499999999922
 40
0.7812499999999922
 40
0.8124999999999928
 40
0.8124999999999928
 40
0.8749999999999952
 40
0.8749999999999952
 40
0.9374999999999976
 40
0.9374999999999976
 40
1.0
 40
1.0
 40
1.0
 40
1.0
 10
-220.0730936501588
 20
-42.16372043195884
 30
0.0
 10
-220.3707129937227
 20
-42.38251380822644
 30
0.0
 10
-220.6267116349508
 20
-42.64152053754094
 30
0.0
 10
-220.9489793716945
 20
-43.08966296847202
 30
0.0
 10
-221.0444210572958
 20
-43.24741490138944
 30
0.0
 10
-221.2082209402626
 20
-43.57284788866695
 30
0.0
 10
-221.2772668717533
 20
-43.74146479988615
 30
0.0
 10
-221.3891348032876
 20
-44.09073221067625
 30
0.0
 10
-221.4315488543423
 20
-44.27116300982705
 30
0.0
 10
-221.4870068008927
 20
-44.63153553401133
 30
0.0
 10
-221.5006133170957
 20
-44.81303072462675
 30
0.0
 10
-221.4993445368853
 20
-45.17865933989594
 30
0.0
 10
-221.4840897704248
 20
-45.36373887796633
 30
0.0
 10
-221.4256644168213
 20
-45.72406080324288
 30
0.0
 10
-221.3826360763161
 20
-45.90077413919736
 30
0.0
 10
-221.2690197219504
 20
-46.24733032868748
 30
0.0
 10
-221.1975998901258
 20
-46.41854761688381
 30
0.0
 10
-221.0306807629873
 20
-46.74392913784913
 30
0.0
 10
-220.9352442632888
 20
-46.89876685801086
 30
0.0
 10
-220.7207233863604
 20
-47.19295417216698
 30
0.0
 10
-220.600524991613
 20
-47.3333601697305
 30
0.0
 10
-220.3407159896666
 20
-47.59227846595426
 30
0.0
 10
-220.2020175947351
 20
-47.71027654848336
 30
0.0
 10
-219.760148087888
 20
-48.03071313770588
 30
0.0
 10
-219.4269846111268
 20
-48.20025236800716
 30
0.0
 10
-218.7345608791933
 20
-48.42505356627919
 30
0.0
 10
-218.3650873006769
 20
-48.48361046827669
 30
0.0
 10
-217.8187401135263
 20
-48.48374406461906
 30
0.0
 10
-217.6369378132295
 20
-48.46966264067454
 30
0.0
 10
-217.2739766680059
 20
-48.41249568457034
 30
0.0
 10
-217.0941998669813
 20
-48.36936458449224
 30
0.0
 10
-216.7475311338106
 20
-48.25700419918917
 30
0.0
 10
-216.5791904675112
 20
-48.18757652863224
 30
0.0
 10
-216.2526380656624
 20
-48.02183280306213
 30
0.0
 10
-216.0943593503246
 20
-47.92508985931245
 30
0.0
 10
-215.7990510565721
 20
-47.71116484740565
 30
0.0
 10
-215.6605044369069
 20
-47.5933150591908
 30
0.0
 10
-215.4016888006695
 20
-47.33574365292077
 30
0.0
 10
-215.2807952010404
 20
-47.19486708382325
 30
0.0
 10
-215.0654839192739
 20
-46.89993333580916
 30
0.0
 10
-214.9700653637435
 20
-46.74514635058298
 30
0.0
 10
-214.8035432118845
 20
-46.42101046851739
 30
0.0
 10
-214.731995989028
 20
-46.25005767235202
 30
0.0
 10
-214.6177173919228
 20
-45.90221868875029
 30
0.0
 10
-214.5746513902749
 20
-45.72540181815361
 30
0.0
 10
-214.5161899914027
 20
-45.36606470806166
 30
0.0
 10
-214.5008078027003
 20
-45.1822351546154
 30
0.0
 10
-214.4984781643229
 20
-44.63100376866225
 30
0.0
 10
-214.553576273759
 20
-44.27070319230577
 30
0.0
 10
-214.7780797665395
 20
-43.56756742567229
 30
0.0
 10
-214.9417198268849
 20
-43.24229419082547
 30
0.0
 10
-215.3710510643475
 20
-42.64399922053749
 30
0.0
 10
-215.629286477076
 20
-42.38251419726628
 30
0.0
 10
-215.9269063498412
 20
-42.16372043195883
 30
0.0
  0
SPLINE
  5
F9
330
1B
100
AcDbEntity
  8
0
  6
Continuous
 62
     7
370
    25
100
AcDbSpline
210
0.0
220
0.0
230
1.0
 70
     8
 71
     3
 72
     8
 73
     4
 74
     0
 42
0.000000001
 43
0.00000001
 40
0.0
 40
0.0
 40
0.0
 40
0.0
 40
1.0
 40
1.0
 40
1.0
 40
1.0
 10
-199.6159164815101
 20
-42.78987993167377
 30
0.0
 10
-200.9892967319745
 20
-47.36924375169678
 30
0.0
 10
-201.9041119014469
 20
-51.99769301096823
 30
0.0
 10
-202.3839461307354
 20
-56.66553878598902
 30
0.0
  0
LWPOLYLINE
  5
FA
330
1B
100
AcDbEntity
  8
0
  6
Continuous
 62
     7
370
    25
100
AcDbPolyline
 90
        9
 70
   128
 43
0.0
 10
-230.0
 20
-55.1186781616
 10
-229.8462822432
 20
-55.4204556989
 10
-229.3910362601
 20
-55.7106360947
 10
-228.6517568984
 20
-55.9780678791
 10
-227.6568542495
 20
-56.2124737986
 10
-226.4445618642
 20
-56.4048457652
 10
-225.0614674589
 20
-56.5477910321
 10
-223.5607225761
 20
-56.6358162928
 10
-222.0
 20
-56.665538786
  0
LWPOLYLINE
  5
FC
330
1B
100
AcDbEntity
  8
0
  6
Continuous
 62
     7
370
    25
100
AcDbPolyline
 90
        9
 70
   128
 43
0.0
 10
222.0
 20
-56.665538786
 10
223.5607225761
 20
-56.6358162928
 10
225.0614674589
 20
-56.5477910321
 10
226.4445618642
 20
-56.4048457652
 10
227.6568542495
 20
-56.2124737986
 10
228.6517568984
 20
-55.9780678791
 10
229.3910362601
 20
-55.7106360947
 10
229.8462822432
 20
-55.4204556989
 10
230.0
 20
-55.1186781616
  0
LWPOLYLINE
  5
101
330
1B
100
AcDbEntity
  8
0
  6
Continuous
 62
     7
370
    25
100
AcDbPolyline
 90
        3
 70
   128
 43
0.0
 10
202.588376021
 20
-59.0176553138
 10
202.4954171636
 20
-57.840792574
 10
202.3839461307
 20
-56.665538786
  0
LWPOLYLINE
  5
103
330
1B
100
AcDbEntity
  8
0
  6
Continuous
 62
     7
370
    25
100
AcDbPolyline
 90
        9
 70
   128
 43
0.0
 10
-230.0
 20
-86.3372026835
 10
-229.8462822432
 20
-86.6389802209
 10
-229.3910362601
 20
-86.9291606167
 10
-228.6517568984
 20
-87.1965924011
 10
-227.6568542495
 20
-87.4309983206
 10
-226.4445618642
 20
-87.6233702872
 10
-225.0614674589
 20
-87.7663155541
 10
-223.5607225761
 20
-87.8543408148
 10
-222.0
 20
-87.8840633079
  0
LWPOLYLINE
  5
107
330
1B
100
AcDbEntity
  8
0
  6
Continuous
 62
     7
370
    25
100
AcDbPolyline
 90
        3
 70
   128
 43
0.0
 10
-202.3839461307
 20
-56.665538786
 10
-202.4954171636
 20
-57.840792574
 10
-202.588376021
 20
-59.0176553138
  0
LWPOLYLINE
  5
108
330
1B
100
AcDbEntity
  8
0
  6
Continuous
 62
     7
370
    25
100
AcDbPolyline
 90
        9
 70
   128
 43
0.0
 10
222.0
 20
-87.8840633079
 10
223.5607225761
 20
-87.8543408148
 10
225.0614674589
 20
-87.7663155541
 10
226.4445618642
 20
-87.6233702872
 10
227.6568542495
 20
-87.4309983206
 10
228.6517568984
 20
-87.1965924011
 10
229.3910362601
 20
-86.9291606167
 10
229.8462822432
 20
-86.6389802209
 10
230.0
 20
-86.3372026835
  0
LINE
  5
114
330
1B
100
AcDbEntity
  8
0
  6
Continuous
 62
     7
370
    25
100
AcDbLine
 10
210.5
 20
-99.9836996371
 30
0.0
 11
210.5
 21
-100.0375163825
 31
0.0
  0
LINE
  5
115
330
1B
100
AcDbEntity
  8
0
  6
Continuous
 62
     7
370
    25
100
AcDbLine
 10
-210.5
 20
-100.0373646835
 30
0.0
 11
-210.5
 21
-99.9836996371
 31
0.0
  0
LINE
  5
116
330
1B
100
AcDbEntity
  8
0
  6
Continuous
 62
     7
370
    25
100
AcDbLine
 10
-230.0
 20
17.0
 30
0.0
 11
-232.4993889714
 21
0.1847374457
 31
0.0
  0
LINE
  5
117
330
1B
100
AcDbEntity
  8
0
  6
Continuous
 62
     7
370
    25
100
AcDbLine
 10
230.0
 20
17.0
 30
0.0
 11
232.4993889714
 21
0.1847374457
 31
0.0
  0
LINE
  5
118
330
1B
100
AcDbEntity
  8
0
  6
Continuous
 62
     7
370
    25
100
AcDbLine
 10
-230.0
 20
-42.163720432
 30
0.0
 11
-220.0730936502
 21
-42.163720432
 31
0.0
  0
LINE
  5
119
330
1B
100
AcDbEntity
  8
0
  6
Continuous
 62
     7
370
    25
100
AcDbLine
 10
-222.0
 20
-1.3398913262
 30
0.0
 11
-222.0
 21
-99.9836996371
 31
0.0
  0
LINE
  5
11A
330
1B
100
AcDbEntity
  8
0
  6
Continuous
 62
     7
370
    25
100
AcDbLine
 10
-188.5
 20
-5.725253624
 30
0.0
 11
-199.6159164815
 21
-42.7898799317
 31
0.0
  0
LINE
  5
11B
330
1B
100
AcDbEntity
  8
0
  6
Continuous
 62
     7
370
    25
100
AcDbLine
 10
-199.4281272766
 20
-42.163720432
 30
0.0
 11
-215.9269063498
 21
-42.163720432
 31
0.0
  0
LINE
  5
11C
330
1B
100
AcDbEntity
  8
0
  6
Continuous
 62
     7
370
    25
100
AcDbLine
 10
-230.0
 20
-91.9836996371
 30
0.0
 11
-230.0
 21
-0.1847265392
 31
0.0
  0
LINE
  5
11D
330
1B
100
AcDbEntity
  8
0
  6
Continuous
 62
     7
370
    25
100
AcDbLine
 10
220.0730936502
 20
-42.163720432
 30
0.0
 11
230.0
 21
-42.163720432
 31
0.0
  0
LINE
  5
11E
330
1B
100
AcDbEntity
  8
0
  6
Continuous
 62
     7
370
    25
100
AcDbLine
 10
222.0
 20
-99.9836996371
 30
0.0
 11
222.0
 21
-1.3398913262
 31
0.0
  0
LINE
  5
11F
330
1B
100
AcDbEntity
  8
0
  6
Continuous
 62
     7
370
    25
100
AcDbLine
 10
230.0
 20
-0.1847265392
 30
0.0
 11
230.0
 21
-91.9836996371
 31
0.0
  0
LINE
  5
120
330
1B
100
AcDbEntity
  8
0
  6
Continuous
 62
     7
370
    25
100
AcDbLine
 10
202.3839461307
 20
-56.665538786
 30
0.0
 11
222.0
 21
-56.665538786
 31
0.0
  0
LINE
  5
121
330
1B
100
AcDbEntity
  8
0
  6
Continuous
 62
     7
370
    25
100
AcDbLine
 10
199.4281272766
 20
-42.163720432
 30
0.0
 11
215.9269063498
 21
-42.163720432
 31
0.0
  0
LINE
  5
122
330
1B
100
AcDbEntity
  8
0
  6
Continuous
 62
     7
370
    25
100
AcDbLine
 10
199.6159164815
 20
-42.7898799317
 30
0.0
 11
188.5
 21
-5.725253624
 31
0.0
  0
LINE
  5
123
330
1B
100
AcDbEntity
  8
0
  6
Continuous
 62
     7
370
    25
100
AcDbLine
 10
-202.3839461307
 20
-56.665538786
 30
0.0
 11
-222.0
 21
-56.665538786
 31
0.0
  0
LINE
  5
124
330
1B
100
AcDbEntity
  8
0
  6
Continuous
 62
     7
370
    25
100
AcDbLine
 10
204.6400294596
 20
-87.8840633079
 30
0.0
 11
222.0
 21
-87.8840633079
 31
0.0
  0
LINE
  5
125
330
1B
100
AcDbEntity
  8
0
  6
Continuous
 62
     7
370
    25
100
AcDbLine
 10
205.5
 20
-99.9836996371
 30
0.0
 11
202.588376021
 21
-59.0176553138
 31
0.0
  0
LINE
  5
126
330
1B
100
AcDbEntity
  8
0
  6
Continuous
 62
     7
370
    25
100
AcDbLine
 10
-204.6400294596
 20
-87.8840633079
 30
0.0
 11
-222.0
 21
-87.8840633079
 31
0.0
  0
LINE
  5
127
330
1B
100
AcDbEntity
  8
0
  6
Continuous
 62
     7
370
    25
100
AcDbLine
 10
-202.588376021
 20
-59.0176553138
 30
0.0
 11
-205.5
 21
-99.9836996371
 31
0.0
  0
LINE
  5
128
330
1B
100
AcDbEntity
  8
0
  6
Continuous
 62
     7
370
    25
100
AcDbLine
 10
205.5
 20
-99.9836996371
 30
0.0
 11
222.0
 21
-99.9836996371
 31
0.0
  0
LINE
  5
129
330
1B
100
AcDbEntity
  8
0
  6
Continuous
 62
     7
370
    25
100
AcDbLine
 10
-205.5
 20
-99.9836996371
 30
0.0
 11
-222.0
 21
-99.9836996371
 31
0.0
  0
ARC
  5
12A
330
1B
100
AcDbEntity
  8
0
  6
Continuous
 62
     7
370
    25
100
AcDbCircle
 10
0.0
 20
1564.3823529413
 30
0.0
 40
1567.382352941255
100
AcDbArc
 50
261.5455626693
 51
278.4544373307
  0
ARC
  5
12B
330
1B
100
AcDbEntity
  8
0
  6
Continuous
 62
     7
370
    25
100
AcDbCircle
 10
0.0
 20
1564.3823529413
 30
0.0
 40
1564.382352941255
100
AcDbArc
 50
261.5455626693
 51
278.4544373307
  0
ARC
  5
12C
330
1B
100
AcDbEntity
  8
0
  6
Continuous
 62
     7
370
    25
100
AcDbCircle
 10
0.0
 20
1564.3823529413
 30
0.0
 40
1581.38235294126
100
AcDbArc
 50
261.5455626693
 51
278.4544373307
  0
ARC
  5
12D
330
1B
100
AcDbEntity
  8
0
  6
Continuous
 62
     7
370
    25
100
AcDbCircle
 10
-218.0
 20
-44.9836996371
 30
0.0
 40
3.500000000000064
100
AcDbArc
 50
53.6787195121
 51
126.3212804879
  0
ARC
  5
12E
330
1B
100
AcDbEntity
  8
0
  6
Continuous
 62
     7
370
    25
100
AcDbCircle
 10
218.0
 20
-44.9836996371
 30
0.0
 40
3.500000000000053
100
AcDbArc
 50
53.6787195121
 51
126.3212804879
  0
ARC
  5
12F
330
1B
100
AcDbEntity
  8
0
  6
Continuous
 62
     7
370
    25
100
AcDbCircle
 10
-222.0
 20
-91.9836996371
 30
0.0
 40
7.999999999999972
100
AcDbArc
 50
180.0
 51
270.0
  0
ARC
  5
130
330
1B
100
AcDbEntity
  8
0
  6
Continuous
 62
     7
370
    25
100
AcDbCircle
 10
222.0
 20
-91.9836996371
 30
0.0
 40
8.000000000000014
100
AcDbArc
 50
270.0
 51
0.0
  0
VIEWPORT
  5
166
330
1B
100
AcDbEntity
  8
0
100
AcDbViewport
 10
0.0
 20
0.0
 30
0.0
 40
205.6
 41
156.0
 68
     1
 69
     1
 12
0.0
 22
-41.4918277979
 13
0.0
 23
0.0
 14
10.0
 24
10.0
 15
10.0
 25
10.0
 16
0.0
 26
0.0
 36
1.0
 17
0.0
 27
0.0
 37
0.0
 42
50.0
 43
0.0
 44
0.0
 45
119.3234185521
 50
0.0
 51
0.0
 72
   100
 90
   557152
  1

281
     0
 71
     1
 74
     0
110
0.0
120
0.0
130
0.0
111
1.0
121
0.0
131
0.0
112
0.0
122
1.0
132
0.0
 79
     0
146
0.0
  0
ENDBLK
  5
1D
330
1B
100
AcDbEntity
  8
0
100
AcDbBlockEnd
  0
ENDSEC
  0
SECTION
  2
ENTITIES
  0
SPLINE
  5
81
330
1F
100
AcDbEntity
  8
0
  6
Continuous
 62
     7
370
    25
100
AcDbSpline
210
0.0
220
0.0
230
1.0
 70
     8
 71
     3
 72
    29
 73
    25
 74
     0
 42
0.000000001
 43
0.00000001
 40
0.0
 40
0.0
 40
0.0
 40
0.0
 40
0.1250000000000003
 40
0.1250000000000003
 40
0.1875
 40
0.1875
 40
0.2499999999999997
 40
0.2499999999999997
 40
0.3750000000000017
 40
0.3750000000000017
 40
0.4375000000000027
 40
0.4375000000000027
 40
0.5000000000000037
 40
0.5000000000000037
 40
0.6250000000000017
 40
0.6250000000000017
 40
0.6875000000000003
 40
0.6875000000000003
 40
0.749999999999999
 40
0.8124999999999977
 40
0.8124999999999977
 40
0.8749999999999963
 40
0.8749999999999963
 40
1.0
 40
1.0
 40
1.0
 40
1.0
 10
22.0
 20
-0.1847265392052044
 30
0.0
 10
22.53097831045035
 20
-0.1847265392052044
 30
0.0
 10
23.05292679545752
 20
-0.1924231326144998
 30
0.0
 10
23.82287503961383
 20
-0.2150043599602816
 30
0.0
 10
24.07734579377606
 20
-0.2243842241298269
 30
0.0
 10
24.5818317896378
 20
-0.2469237075135439
 30
0.0
 10
24.83226228173991
 20
-0.2601340936914873
 30
0.0
 10
25.5602288553347
 20
-0.304568009734392
 30
0.0
 10
26.02029756160928
 20
-0.3407613348807778
 30
0.0
 10
26.67293926203801
 20
-0.4047067455499181
 30
0.0
 10
26.88517653689868
 20
-0.4277634589530677
 30
0.0
 10
27.29174940635423
 20
-0.4766304507870037
 30
0.0
 10
27.48520037172696
 20
-0.5023071333980916
 30
0.0
 10
28.03697116455269
 20
-0.5829214570346395
 30
0.0
 10
28.36697910836894
 20
-0.6414097020189455
 30
0.0
 10
28.80389419893198
 20
-0.7363140774792609
 30
0.0
 10
28.93888176587755
 20
-0.7689923093187265
 30
0.0
 10
29.18389480714375
 20
-0.8353643315671191
 30
0.0
 10
29.40531757031293
 20
-0.9030430354394908
 30
0.0
 10
29.58021460122128
 20
-0.9732699027562158
 30
0.0
 10
29.73150691434892
 20
-1.044777572390215
 30
0.0
 10
29.79554563242491
 20
-1.081342851525197
 30
0.0
 10
29.9487054017985
 20
-1.191416434210918
 30
0.0
 10
30.0
 20
-1.265372043356181
 30
0.0
 10
30.0
 20
-1.339891326232363
 30
0.0
  0
SPLINE
  5
86
330
1F
100
AcDbEntity
  8
0
  6
Continuous
 62
     7
370
    25
100
AcDbSpline
210
0.0
220
0.0
230
1.0
 70
     8
 71
     3
 72
    26
 73
    22
 74
     0
 42
0.000000001
 43
0.00000001
 40
0.0
 40
0.0
 40
0.0
 40
0.0
 40
0.1249999999999901
 40
0.1249999999999901
 40
0.1874999999999882
 40
0.1874999999999882
 40
0.2499999999999864
 40
0.2499999999999864
 40
0.3749999999999891
 40
0.3749999999999891
 40
0.4999999999999918
 40
0.4999999999999918
 40
0.6249999999999944
 40
0.6249999999999944
 40
0.6874999999999943
 40
0.6874999999999943
 40
0.7499999999999941
 40
0.7499999999999941
 40
0.874999999999997
 40
0.874999999999997
 40
1.0
 40
1.0
 40
1.0
 40
1.0
 10
-30.0
 20
-1.339891326232134
 30
0.0
 10
-30.00000000000001
 20
-1.265358719573437
 30
0.0
 10
-29.94869332053416
 20
-1.191786093365191
 30
0.0
 10
-29.79787295815659
 20
-1.082830617194303
 30
0.0
 10
-29.73519891656195
 20
-1.046748162314565
 30
0.0
 10
-29.58448651515284
 20
-0.9750750050828219
 30
0.0
 10
-29.49595181566209
 20
-0.939352780716815
 30
0.0
 10
-29.19731341980166
 20
-0.8351771304343849
 30
0.0
 10
-28.95351169768961
 20
-0.7690308990736319
 30
0.0
 10
-28.37720683782099
 20
-0.6434189070588445
 30
0.0
 10
-28.04102813348738
 20
-0.5835901227102327
 30
0.0
 10
-27.30524486898717
 20
-0.4759403206773052
 30
0.0
 10
-26.9035909848502
 20
-0.4274735209489969
 30
0.0
 10
-26.2492672833066
 20
-0.3631152108811292
 30
0.0
 10
-26.02167968760688
 20
-0.3430244281711695
 30
0.0
 10
-25.55887713543304
 20
-0.3065770641311125
 30
0.0
 10
-25.32256755694662
 20
-0.290098458594068
 30
0.0
 10
-24.59915804448816
 20
-0.2458334298395051
 30
0.0
 10
-24.09601653624414
 20
-0.2231174500724672
 30
0.0
 10
-23.05648286115463
 20
-0.1924270496107688
 30
0.0
 10
-22.53107614650962
 20
-0.1847265392054265
 30
0.0
 10
-22.0
 20
-0.1847265392054265
 30
0.0
  0
SPLINE
  5
89
330
1F
100
AcDbEntity
  8
0
  6
Continuous
 62
     7
370
    25
100
AcDbSpline
210
0.0
220
0.0
230
1.0
 70
     8
 71
     3
 72
    18
 73
    14
 74
     0
 42
0.000000001
 43
0.00000001
 40
0.0
 40
0.0
 40
0.0
 40
0.0
 40
0.2500000000000007
 40
0.2500000000000007
 40
0.3750000000000006
 40
0.3750000000000006
 40
0.5000000000000004
 40
0.5000000000000004
 40
0.6250000000000003
 40
0.6250000000000003
 40
0.7500000000000002
 40
0.7500000000000002
 40
1.0
 40
1.0
 40
1.0
 40
1.0
 10
28.49999999999999
 20
15.48353660339034
 30
0.0
 10
28.69780892991345
 20
15.48353660339034
 30
0.0
 10
28.89381324096609
 20
15.44405545531608
 30
0.0
 10
29.16882513043481
 20
15.32815636359785
 30
0.0
 10
29.25522451846912
 20
15.28104764522775
 30
0.0
 10
29.41789740435735
 20
15.17054867800927
 30
0.0
 10
29.49489804794624
 20
15.10630634513197
 30
0.0
 10
29.63327265992498
 20
14.96550743683468
 30
0.0
 10
29.69496437974105
 20
14.88904510281848
 30
0.0
 10
29.80344112788189
 20
14.72406300823598
 30
0.0
 10
29.85003850323057
 20
14.63531300359999
 30
0.0
 10
29.96125158811918
 20
14.36214062716716
 30
0.0
 10
30.00000000000001
 20
14.16354896024925
 30
0.0
 10
30.0
 20
13.96710523770461
 30
0.0
  0
SPLINE
  5
8C
330
1F
100
AcDbEntity
  8
0
  6
Continuous
 62
     7
370
    25
100
AcDbSpline
210
0.0
220
0.0
230
1.0
 70
     8
 71
     3
 72
    18
 73
    14
 74
     0
 42
0.000000001
 43
0.00000001
 40
0.0
 40
0.0
 40
0.0
 40
0.0
 40
0.2500000000000028
 40
0.2500000000000028
 40
0.3750000000000023
 40
0.3750000000000023
 40
0.5000000000000019
 40
0.5000000000000019
 40
0.6250000000000013
 40
0.6250000000000013
 40
0.750000000000001
 40
0.750000000000001
 40
1.0
 40
1.0
 40
1.0
 40
1.0
 10
-30.00000000000001
 20
13.96710523771827
 30
0.0
 10
-29.99999999999826
 20
14.16495881161937
 30
0.0
 10
-29.96204100518292
 20
14.36048074207126
 30
0.0
 10
-29.84918669632032
 20
14.6372648652779
 30
0.0
 10
-29.80323629052371
 20
14.72435973132373
 30
0.0
 10
-29.69530729022743
 20
14.88853836561582
 30
0.0
 10
-29.63254736700357
 20
14.96636993745823
 30
0.0
 10
-29.49374422358269
 20
15.10735418582217
 30
0.0
 10
-29.41829102215177
 20
15.17025574056214
 30
0.0
 10
-29.25536245554462
 20
15.28097942962699
 30
0.0
 10
-29.16707423699757
 20
15.32895730754403
 30
0.0
 10
-28.89487050351723
 20
15.44348291730087
 30
0.0
 10
-28.69649170828641
 20
15.48353660339059
 30
0.0
 10
-28.5
 20
15.48353660339059
 30
0.0
  0
CIRCLE
  5
97
330
1F
100
AcDbEntity
  8
0
  6
Continuous
 62
     7
370
    25
100
AcDbCircle
 10
0.0
 20
-14.9836996371
 30
0.0
 40
3.5
  0
CIRCLE
  5
98
330
1F
100
AcDbEntity
  8
0
  6
Continuous
 62
     7
370
    25
100
AcDbCircle
 10
0.0
 20
-39.9836996371
 30
0.0
 40
3.499999999999992
  0
LINE
  5
AA
330
1F
100
AcDbEntity
  8
0
  6
Continuous
 62
     7
370
    25
100
AcDbLine
 10
30.0
 20
-17.0
 30
0.0
 11
31.5
 21
-17.0
 31
0.0
  0
LINE
  5
AB
330
1F
100
AcDbEntity
  8
0
  6
Continuous
 62
     7
370
    25
100
AcDbLine
 10
-31.5
 20
-17.0
 30
0.0
 11
-30.0
 21
-17.0
 31
0.0
  0
LINE
  5
AC
330
1F
100
AcDbEntity
  8
0
  6
Continuous
 62
     7
370
    25
100
AcDbLine
 10
-31.5
 20
14.0326007257
 30
0.0
 11
-31.5
 21
-17.0
 31
0.0
  0
LINE
  5
AD
330
1F
100
AcDbEntity
  8
0
  6
Continuous
 62
     7
370
    25
100
AcDbLine
 10
28.5
 20
17.0
 30
0.0
 11
-28.5
 21
17.0
 31
0.0
  0
LINE
  5
AE
330
1F
100
AcDbEntity
  8
0
  6
Continuous
 62
     7
370
    25
100
AcDbLine
 10
30.0
 20
0.1847374457
 30
0.0
 11
31.5
 21
0.1847374457
 31
0.0
  0
LINE
  5
AF
330
1F
100
AcDbEntity
  8
0
  6
Continuous
 62
     7
370
    25
100
AcDbLine
 10
30.0
 20
14.0326007257
 30
0.0
 11
30.0
 21
-0.1847265392
 31
0.0
  0
LINE
  5
B0
330
1F
100
AcDbEntity
  8
0
  6
Continuous
 62
     7
370
    25
100
AcDbLine
 10
-28.5
 20
15.5163003629
 30
0.0
 11
28.5
 21
15.5163003629
 31
0.0
  0
LINE
  5
B1
330
1F
100
AcDbEntity
  8
0
  6
Continuous
 62
     7
370
    25
100
AcDbLine
 10
-30.0
 20
-0.1847265392
 30
0.0
 11
-30.0
 21
14.0326007257
 31
0.0
  0
LINE
  5
B2
330
1F
100
AcDbEntity
  8
0
  6
Continuous
 62
     7
370
    25
100
AcDbLine
 10
-31.5
 20
0.1847374457
 30
0.0
 11
-30.0
 21
0.1847374457
 31
0.0
  0
LINE
  5
B3
330
1F
100
AcDbEntity
  8
0
  6
Continuous
 62
     7
370
    25
100
AcDbLine
 10
31.5
 20
14.0326007257
 30
0.0
 11
31.5
 21
-17.0
 31
0.0
  0
LINE
  5
B4
330
1F
100
AcDbEntity
  8
0
  6
Continuous
 62
     7
370
    25
100
AcDbLine
 10
22.0
 20
-0.1847265392
 30
0.0
 11
30.0
 21
-0.1847265392
 31
0.0
  0
LINE
  5
B5
330
1F
100
AcDbEntity
  8
0
  6
Continuous
 62
     7
370
    25
100
AcDbLine
 10
-30.0
 20
-0.1847265392
 30
0.0
 11
-22.0
 21
-0.1847265392
 31
0.0
  0
LINE
  5
B6
330
1F
100
AcDbEntity
  8
0
  6
Continuous
 62
     7
370
    25
100
AcDbLine
 10
28.5
 20
15.5163003629
 30
0.0
 11
28.5
 21
15.4835366034
 31
0.0
  0
LINE
  5
B7
330
1F
100
AcDbEntity
  8
0
  6
Continuous
 62
     7
370
    25
100
AcDbLine
 10
-28.5
 20
15.5163003629
 30
0.0
 11
-28.5
 21
15.4835366034
 31
0.0
  0
LINE
  5
B8
330
1F
100
AcDbEntity
  8
0
  6
Continuous
 62
     7
370
    25
100
AcDbLine
 10
-28.5
 20
15.4835366034
 30
0.0
 11
28.5
 21
15.4835366034
 31
0.0
  0
LINE
  5
B9
330
1F
100
AcDbEntity
  8
0
  6
Continuous
 62
     7
370
    25
100
AcDbLine
 10
22.0
 20
-43.35954408
 30
0.0
 11
22.0
 21
-0.1847265392
 31
0.0
  0
LINE
  5
BA
330
1F
100
AcDbEntity
  8
0
  6
Continuous
 62
     7
370
    25
100
AcDbLine
 10
14.5726678247
 20
-86.389368719
 30
0.0
 11
20.6352257193
 21
-56.8138052925
 31
0.0
  0
LINE
  5
BB
330
1F
100
AcDbEntity
  8
0
  6
Continuous
 62
     7
370
    25
100
AcDbLine
 10
-7.7152561824
 20
-91.9836996371
 30
0.0
 11
7.7152561824
 21
-91.9836996371
 31
0.0
  0
LINE
  5
BC
330
1F
100
AcDbEntity
  8
0
  6
Continuous
 62
     7
370
    25
100
AcDbLine
 10
-20.7355997175
 20
-55.1186781616
 30
0.0
 11
-14.5831546604
 21
-86.3372026835
 31
0.0
  0
LINE
  5
BD
330
1F
100
AcDbEntity
  8
0
  6
Continuous
 62
     7
370
    25
100
AcDbLine
 10
-22.0
 20
-0.1847265392
 30
0.0
 11
-22.0
 21
-42.163720432
 31
0.0
  0
LINE
  5
BE
330
1F
100
AcDbEntity
  8
0
  6
Continuous
 62
     7
370
    25
100
AcDbLine
 10
30.0
 20
-1.3398913262
 30
0.0
 11
30.0
 21
-43.35954408
 31
0.0
  0
LINE
  5
BF
330
1F
100
AcDbEntity
  8
0
  6
Continuous
 62
     7
370
    25
100
AcDbLine
 10
30.0
 20
-43.35954408
 30
0.0
 11
22.0
 21
-43.35954408
 31
0.0
  0
LINE
  5
C0
330
1F
100
AcDbEntity
  8
0
  6
Continuous
 62
     7
370
    25
100
AcDbLine
 10
-22.4321814923
 20
-87.8840633079
 30
0.0
 11
-28.5846265495
 21
-56.665538786
 31
0.0
  0
LINE
  5
C1
330
1F
100
AcDbEntity
  8
0
  6
Continuous
 62
     7
370
    25
100
AcDbLine
 10
-28.5846265495
 20
-56.665538786
 30
0.0
 11
-20.7355997175
 21
-55.1186781616
 31
0.0
  0
LINE
  5
C2
330
1F
100
AcDbEntity
  8
0
  6
Continuous
 62
     7
370
    25
100
AcDbLine
 10
-22.4321814923
 20
-87.8840633079
 30
0.0
 11
-14.5831546604
 21
-86.3372026835
 31
0.0
  0
LINE
  5
C3
330
1F
100
AcDbEntity
  8
0
  6
Continuous
 62
     7
370
    25
100
AcDbLine
 10
28.4722675963
 20
-58.4202842432
 30
0.0
 11
22.4097097017
 21
-87.9958476698
 31
0.0
  0
LINE
  5
C4
330
1F
100
AcDbEntity
  8
0
  6
Continuous
 62
     7
370
    25
100
AcDbLine
 10
22.4097097017
 20
-87.9958476698
 30
0.0
 11
14.5726678247
 21
-86.389368719
 31
0.0
  0
LINE
  5
C5
330
1F
100
AcDbEntity
  8
0
  6
Continuous
 62
     7
370
    25
100
AcDbLine
 10
28.4722675963
 20
-58.4202842432
 30
0.0
 11
20.6352257193
 21
-56.8138052925
 31
0.0
  0
LINE
  5
C6
330
1F
100
AcDbEntity
  8
0
  6
Continuous
 62
     7
370
    25
100
AcDbLine
 10
7.7152561824
 20
-99.9836996371
 30
0.0
 11
-7.7152561824
 21
-99.9836996371
 31
0.0
  0
LINE
  5
C7
330
1F
100
AcDbEntity
  8
0
  6
Continuous
 62
     7
370
    25
100
AcDbLine
 10
-7.7152561824
 20
-99.9836996371
 30
0.0
 11
-7.7152561824
 21
-91.9836996371
 31
0.0
  0
LINE
  5
C8
330
1F
100
AcDbEntity
  8
0
  6
Continuous
 62
     7
370
    25
100
AcDbLine
 10
7.7152561824
 20
-99.9836996371
 30
0.0
 11
7.7152561824
 21
-91.9836996371
 31
0.0
  0
LINE
  5
C9
330
1F
100
AcDbEntity
  8
0
  6
Continuous
 62
     7
370
    25
100
AcDbLine
 10
-30.0
 20
-42.163720432
 30
0.0
 11
-22.0
 21
-42.163720432
 31
0.0
  0
LINE
  5
CA
330
1F
100
AcDbEntity
  8
0
  6
Continuous
 62
     7
370
    25
100
AcDbLine
 10
-30.0
 20
-42.163720432
 30
0.0
 11
-30.0
 21
-1.3398913262
 31
0.0
  0
ARC
  5
CB
330
1F
100
AcDbEntity
  8
0
  6
Continuous
 62
     7
370
    25
100
AcDbCircle
 10
-28.5162117956
 20
14.0162108226
 30
0.0
 40
2.983833218824094
100
AcDbArc
 50
89.6886984067
 51
179.6852783212
  0
ARC
  5
CC
330
1F
100
AcDbEntity
  8
0
  6
Continuous
 62
     7
370
    25
100
AcDbCircle
 10
28.5162117956
 20
14.0162108226
 30
0.0
 40
2.983833218824108
100
AcDbArc
 50
0.3147216788
 51
90.3113015933
  0
ARC
  5
CD
330
1F
100
AcDbEntity
  8
0
  6
Continuous
 62
     7
370
    25
100
AcDbCircle
 10
28.5081058978
 20
14.0244057741
 30
0.0
 40
1.49191660941193
100
AcDbArc
 50
0.3147216788
 51
90.3113015933
  0
ARC
  5
CE
330
1F
100
AcDbEntity
  8
0
  6
Continuous
 62
     7
370
    25
100
AcDbCircle
 10
-28.5081058978
 20
14.0244057741
 30
0.0
 40
1.49191660941229
100
AcDbArc
 50
89.6886984067
 51
179.6852783211
  0
ARC
  5
CF
330
1F
100
AcDbEntity
  8
0
  6
Continuous
 62
     7
370
    25
100
AcDbCircle
 10
-45.0
 20
-43.35954408
 30
0.0
 40
67.00000000000134
100
AcDbArc
 50
348.4156780549
 51
0.0
  0
ARC
  5
D0
330
1F
100
AcDbEntity
  8
0
  6
Continuous
 62
     7
370
    25
100
AcDbCircle
 10
7.7152561824
 20
-84.9836996371
 30
0.0
 40
6.999999999999987
100
AcDbArc
 50
270.0
 51
348.4156780549
  0
ARC
  5
D1
330
1F
100
AcDbEntity
  8
0
  6
Continuous
 62
     7
370
    25
100
AcDbCircle
 10
-7.7152561824
 20
-84.9836996371
 30
0.0
 40
6.999999999999973
100
AcDbArc
 50
191.148793822
 51
270.0
  0
ARC
  5
D2
330
1F
100
AcDbEntity
  8
0
  6
Continuous
 62
     7
370
    25
100
AcDbCircle
 10
45.0
 20
-42.163720432
 30
0.0
 40
66.99999999999696
100
AcDbArc
 50
180.0
 51
191.148793822
  0
ARC
  5
D3
330
1F
100
AcDbEntity
  8
0
  6
Continuous
 62
     7
370
    25
100
AcDbCircle
 10
-45.0
 20
-43.35954408
 30
0.0
 40
75.00000000000512
100
AcDbArc
 50
348.4156780549
 51
0.0
  0
ARC
  5
D4
330
1F
100
AcDbEntity
  8
0
  6
Continuous
 62
     7
370
    25
100
AcDbCircle
 10
-7.7152561824
 20
-84.9836996371
 30
0.0
 40
15.00000000000001
100
AcDbArc
 50
191.148793822
 51
270.0
  0
ARC
  5
D5
330
1F
100
AcDbEntity
  8
0
  6
Continuous
 62
     7
370
    25
100
AcDbCircle
 10
7.7152561824
 20
-84.9836996371
 30
0.0
 40
15.00000000000003
100
AcDbArc
 50
270.0
 51
348.4156780549
  0
ARC
  5
D6
330
1F
100
AcDbEntity
  8
0
  6
Continuous
 62
     7
370
    25
100
AcDbCircle
 10
45.0
 20
-42.163720432
 30
0.0
 40
74.99999999999741
100
AcDbArc
 50
180.0
 51
191.148793822
  0
SPLINE
  5
144
330
23
100
AcDbEntity
 67
     1
  8
0
  6
Continuous
 62
     7
370
    25
100
AcDbSpline
210
0.0
220
0.0
230
1.0
 70
    11
 71
     3
 72
    68
 73
    64
 74
     0
 42
0.000000001
 43
0.00000001
 40
0.0
 40
0.0
 40
0.0
 40
0.0
 40
0.0312500000000001
 40
0.0312500000000001
 40
0.0625000000000001
 40
0.0625000000000001
 40
0.0937500000000002
 40
0.0937500000000002
 40
0.1250000000000002
 40
0.1250000000000002
 40
0.1562500000000003
 40
0.1562500000000003
 40
0.1875000000000003
 40
0.1875000000000003
 40
0.2187500000000004
 40
0.2187500000000004
 40
0.2500000000000004
 40
0.2500000000000004
 40
0.2812500000000005
 40
0.2812500000000005
 40
0.3125000000000006
 40
0.3125000000000006
 40
0.3437500000000006
 40
0.3437500000000006
 40
0.3750000000000006
 40
0.3750000000000006
 40
0.4062500000000006
 40
0.4062500000000006
 40
0.4375000000000006
 40
0.4375000000000006
 40
0.4687500000000006
 40
0.4687500000000006
 40
0.5000000000000006
 40
0.5000000000000006
 40
0.5312500000000006
 40
0.5312500000000006
 40
0.5625000000000007
 40
0.5625000000000007
 40
0.5937500000000007
 40
0.5937500000000007
 40
0.6250000000000007
 40
0.6250000000000007
 40
0.6562500000000006
 40
0.6562500000000006
 40
0.6875000000000006
 40
0.6875000000000006
 40
0.7187500000000004
 40
0.7187500000000004
 40
0.7500000000000004
 40
0.7500000000000004
 40
0.7812500000000003
 40
0.7812500000000003
 40
0.8125000000000003
 40
0.8125000000000003
 40
0.8437500000000002
 40
0.8437500000000002
 40
0.8750000000000002
 40
0.8750000000000002
 40
0.9062500000000001
 40
0.9062500000000001
 40
0.9375000000000001
 40
0.9375000000000001
 40
1.0
 40
1.0
 40
1.0
 40
1.0
 10
0.0000000000003331
 20
-3.499999999999999
 30
0.0
 10
-0.2312271272248608
 20
-3.5
 30
0.0
 10
-0.4585902754354306
 20
-3.4773112132056
 30
0.0
 10
-0.9059046669666015
 20
-3.388411877056447
 30
0.0
 10
-1.128171808354032
 20
-3.321123019808931
 30
0.0
 10
-1.552030883231162
 20
-3.145445895157954
 30
0.0
 10
-1.75306186310453
 20
-3.037941578265344
 30
0.0
 10
-2.133522010455374
 20
-2.783953799854994
 30
0.0
 10
-2.313657956154025
 20
-2.636118470340602
 30
0.0
 10
-2.636533692546189
 20
-2.313184777706752
 30
0.0
 10
-2.781416087761007
 20
-2.136980227289661
 30
0.0
 10
-3.037279693882936
 20
-1.754392204214587
 30
0.0
 10
-3.146011858382095
 20
-1.550667211334773
 30
0.0
 10
-3.32056532620065
 20
-1.129515527924862
 30
0.0
 10
-3.387740650774562
 20
-0.9089893390622982
 30
0.0
 10
-3.477644811642596
 20
-0.4572033458917784
 30
0.0
 10
-3.499878305603071
 20
-0.2301134052125481
 30
0.0
 10
-3.500120707571889
 20
0.2263964790273991
 30
0.0
 10
-3.477411137447801
 20
0.4582348262208819
 30
0.0
 10
-3.388140482776836
 20
0.9071226178287611
 30
0.0
 10
-3.322087628733914
 20
1.125297910509494
 30
0.0
 10
-3.146908336379463
 20
1.549041485180273
 30
0.0
 10
-3.037326052675822
 20
1.754043084525405
 30
0.0
 10
-2.78400854392519
 20
2.133380678638108
 30
0.0
 10
-2.639400699634732
 20
2.310178444814562
 30
0.0
 10
-2.312886611818753
 20
2.637027876414643
 30
0.0
 10
-2.135739309635879
 20
2.782193555999838
 30
0.0
 10
-1.756743478601709
 20
3.035759498405891
 30
0.0
 10
-1.552280256548079
 20
3.145334273132336
 30
0.0
 10
-1.128137426380484
 20
3.321145530055825
 30
0.0
 10
-0.9099707304993674
 20
3.387361730455872
 30
0.0
 10
-0.4615975488933214
 20
3.47695181533747
 30
0.0
 10
-0.2296465719664154
 20
3.49991904115928
 30
0.0
 10
0.2271721499196273
 20
3.500080521500387
 30
0.0
 10
0.4541754208705006
 20
3.478016714510037
 30
0.0
 10
0.9053126084214206
 20
3.388699552980109
 30
0.0
 10
1.126635808658811
 20
3.321544023154246
 30
0.0
 10
1.547952625279227
 20
3.147348981761543
 30
0.0
 10
1.751069608877873
 20
3.039226187766541
 30
0.0
 10
2.134562186595079
 20
2.783304666596948
 30
0.0
 10
2.310960042998557
 20
2.638471921108121
 30
0.0
 10
2.633981597995732
 20
2.316076712941938
 30
0.0
 10
2.781878216234907
 20
2.13625302742808
 30
0.0
 10
3.03647586527179
 20
1.755630293307807
 30
0.0
 10
3.144108634181487
 20
1.554695503945499
 30
0.0
 10
3.319958979273772
 20
1.13153417511911
 30
0.0
 10
3.38760387830795
 20
0.9089437043176705
 30
0.0
 10
3.476927620908245
 20
0.4615333280611326
 30
0.0
 10
3.499762585620826
 20
0.2343524795256419
 30
0.0
 10
3.500233766930172
 20
-0.2272065518707787
 30
0.0
 10
3.477696630964365
 20
-0.4556294720381338
 30
0.0
 10
3.38920777660319
 20
-0.9029079243328463
 30
0.0
 10
3.322313711205941
 20
-1.12472621763687
 30
0.0
 10
3.146792594480531
 20
-1.549346258145384
 30
0.0
 10
3.039403039705075
 20
-1.750500003341396
 30
0.0
 10
2.785985064456027
 20
-2.130846855148078
 30
0.0
 10
2.638293535784113
 20
-2.311194203174031
 30
0.0
 10
2.315406540529357
 20
-2.634597498256447
 30
0.0
 10
2.13937130707463
 20
-2.779547704988965
 30
0.0
 10
1.757626659111177
 20
-3.035381946481373
 30
0.0
 10
1.553410423913177
 20
-3.144659922279333
 30
0.0
 10
0.921845551096028
 20
-3.407063349509201
 30
0.0
 10
0.4624542544507191
 20
-3.499999999999999
 30
0.0
 10
0.0000000000003328
 20
-3.499999999999999
 30
0.0
  0
LINE
  5
14E
330
23
100
AcDbEntity
 67
     1
  8
0
  6
Continuous
 62
     7
370
    25
100
AcDbLine
 10
232.4993889714
 20
-31.5
 30
0.0
 11
-232.4993889714
 21
-31.5
 31
0.0
  0
LINE
  5
14F
330
23
100
AcDbEntity
 67
     1
  8
0
  6
Continuous
 62
     7
370
    25
100
AcDbLine
 10
230.0
 20
-28.5
 30
0.0
 11
-230.0
 21
-28.5
 31
0.0
  0
LINE
  5
150
330
23
100
AcDbEntity
 67
     1
  8
0
  6
Continuous
 62
     7
370
    25
100
AcDbLine
 10
232.4993889714
 20
31.5
 30
0.0
 11
-232.4993889714
 21
31.5
 31
0.0
  0
LINE
  5
151
330
23
100
AcDbEntity
 67
     1
  8
0
  6
Continuous
 62
     7
370
    25
100
AcDbLine
 10
230.0
 20
28.5
 30
0.0
 11
-230.0
 21
28.5
 31
0.0
  0
LINE
  5
152
330
23
100
AcDbEntity
 67
     1
  8
0
  6
Continuous
 62
     7
370
    25
100
AcDbLine
 10
-232.4993889714
 20
-30.0
 30
0.0
 11
-230.441068642
 21
-30.0
 31
0.0
  0
LINE
  5
153
330
23
100
AcDbEntity
 67
     1
  8
0
  6
Continuous
 62
     7
370
    25
100
AcDbLine
 10
-230.220534321
 20
-28.5
 30
0.0
 11
-230.220534321
 21
28.5
 31
0.0
  0
LINE
  5
154
330
23
100
AcDbEntity
 67
     1
  8
0
  6
Continuous
 62
     7
370
    25
100
AcDbLine
 10
-230.441068642
 20
30.0
 30
0.0
 11
-232.4993889714
 21
30.0
 31
0.0
  0
LINE
  5
155
330
23
100
AcDbEntity
 67
     1
  8
0
  6
Continuous
 62
     7
370
    25
100
AcDbLine
 10
-232.4993889714
 20
30.0
 30
0.0
 11
-232.4993889714
 21
31.5
 31
0.0
  0
LINE
  5
156
330
23
100
AcDbEntity
 67
     1
  8
0
  6
Continuous
 62
     7
370
    25
100
AcDbLine
 10
-230.0
 20
28.5
 30
0.0
 11
-230.0
 21
-28.5
 31
0.0
  0
LINE
  5
157
330
23
100
AcDbEntity
 67
     1
  8
0
  6
Continuous
 62
     7
370
    25
100
AcDbLine
 10
-232.4993889714
 20
-31.5
 30
0.0
 11
-232.4993889714
 21
-30.0
 31
0.0
  0
LINE
  5
158
330
23
100
AcDbEntity
 67
     1
  8
0
  6
Continuous
 62
     7
370
    25
100
AcDbLine
 10
230.0
 20
28.5
 30
0.0
 11
230.0
 21
-28.5
 31
0.0
  0
LINE
  5
159
330
23
100
AcDbEntity
 67
     1
  8
0
  6
Continuous
 62
     7
370
    25
100
AcDbLine
 10
232.4993889714
 20
30.0
 30
0.0
 11
232.4993889714
 21
31.5
 31
0.0
  0
LINE
  5
15A
330
23
100
AcDbEntity
 67
     1
  8
0
  6
Continuous
 62
     7
370
    25
100
AcDbLine
 10
230.441068642
 20
30.0
 30
0.0
 11
232.4993889714
 21
30.0
 31
0.0
  0
LINE
  5
15B
330
23
100
AcDbEntity
 67
     1
  8
0
  6
Continuous
 62
     7
370
    25
100
AcDbLine
 10
230.220534321
 20
-28.5
 30
0.0
 11
230.220534321
 21
28.5
 31
0.0
  0
LINE
  5
15C
330
23
100
AcDbEntity
 67
     1
  8
0
  6
Continuous
 62
     7
370
    25
100
AcDbLine
 10
232.4993889714
 20
-30.0
 30
0.0
 11
230.441068642
 21
-30.0
 31
0.0
  0
LINE
  5
15D
330
23
100
AcDbEntity
 67
     1
  8
0
  6
Continuous
 62
     7
370
    25
100
AcDbLine
 10
232.4993889714
 20
-31.5
 30
0.0
 11
232.4993889714
 21
-30.0
 31
0.0
  0
ARC
  5
15E
330
23
100
AcDbEntity
 67
     1
  8
0
  6
Continuous
 62
     7
370
    25
100
AcDbCircle
 10
235.4320482846
 20
-29.2337882044
 30
0.0
 40
5.481386110733474
100
AcDbArc
 50
172.3067697071
 51
204.4209709596
  0
ARC
  5
15F
330
23
100
AcDbEntity
 67
     1
  8
0
  6
Continuous
 62
     7
370
    25
100
AcDbCircle
 10
-235.4320482846
 20
-29.2337882044
 30
0.0
 40
5.481386110733368
100
AcDbArc
 50
335.5790290404
 51
7.6932302929
  0
ARC
  5
160
330
23
100
AcDbEntity
 67
     1
  8
0
  6
Continuous
 62
     7
370
    25
100
AcDbCircle
 10
235.4320482846
 20
29.2337882044
 30
0.0
 40
5.481386110733262
100
AcDbArc
 50
155.5790290404
 51
187.6932302929
  0
ARC
  5
161
330
23
100
AcDbEntity
 67
     1
  8
0
  6
Continuous
 62
     7
370
    25
100
AcDbCircle
 10
-235.4320482846
 20
29.2337882044
 30
0.0
 40
5.481386110733035
100
AcDbArc
 50
352.3067697071
 51
24.4209709596
  0
ARC
  5
162
330
23
100
AcDbEntity
 67
     1
  8
0
  6
Continuous
 62
     7
370
    25
100
AcDbCircle
 10
-232.9365584633
 20
-28.8668941022
 30
0.0
 40
2.74069305536801
100
AcDbArc
 50
335.5790290404
 51
7.6932302929
  0
ARC
  5
163
330
23
100
AcDbEntity
 67
     1
  8
0
  6
Continuous
 62
     7
370
    25
100
AcDbCircle
 10
-232.9365584633
 20
28.8668941022
 30
0.0
 40
2.740693055365848
100
AcDbArc
 50
352.3067697071
 51
24.4209709596
  0
ARC
  5
164
330
23
100
AcDbEntity
 67
     1
  8
0
  6
Continuous
 62
     7
370
    25
100
AcDbCircle
 10
232.9365584633
 20
28.8668941022
 30
0.0
 40
2.740693055366332
100
AcDbArc
 50
155.5790290404
 51
187.6932302929
  0
ARC
  5
165
330
23
100
AcDbEntity
 67
     1
  8
0
  6
Continuous
 62
     7
370
    25
100
AcDbCircle
 10
232.9365584633
 20
-28.8668941022
 30
0.0
 40
2.740693055366797
100
AcDbArc
 50
172.3067697071
 51
204.4209709596
  0
VIEWPORT
  5
168
330
23
100
AcDbEntity
 67
     1
  8
0
100
AcDbViewport
 10
0.0
 20
0.0
 30
0.0
 40
205.6
 41
156.0
 68
     1
 69
     1
 12
0.0
 22
-41.4918277979
 13
0.0
 23
0.0
 14
10.0
 24
10.0
 15
10.0
 25
10.0
 16
0.0
 26
0.0
 36
1.0
 17
0.0
 27
0.0
 37
0.0
 42
50.0
 43
0.0
 44
0.0
 45
119.3234185521
 50
0.0
 51
0.0
 72
   100
 90
   557152
  1

281
     0
 71
     1
 74
     0
110
0.0
120
0.0
130
0.0
111
1.0
121
0.0
131
0.0
112
0.0
122
1.0
132
0.0
 79
     0
146
0.0
  0
ENDSEC
  0
SECTION
  2
OBJECTS
  0
DICTIONARY
  5
C
330
0
100
AcDbDictionary
281
     1
  3
ACAD_GROUP
350
D
  3
ACAD_LAYOUT
350
1A
  3
ACAD_MLINESTYLE
350
17
  3
ACAD_PLOTSETTINGS
350
19
  3
ACAD_PLOTSTYLENAME
350
E
  3
ACAD_SCALELIST
350
47
  0
DICTIONARY
  5
D
102
{ACAD_REACTORS
330
C
102
}
330
C
100
AcDbDictionary
281
     1
  0
DICTIONARY
  5
1A
102
{ACAD_REACTORS
330
C
102
}
330
C
100
AcDbDictionary
281
     1
  3
_Front
350
1E
  3
_Top
350
26
  3
Model
350
22
  0
DICTIONARY
  5
17
102
{ACAD_REACTORS
330
C
102
}
330
C
100
AcDbDictionary
281
     1
  3
Standard
350
18
  0
DICTIONARY
  5
19
102
{ACAD_REACTORS
330
C
102
}
330
C
100
AcDbDictionary
281
     1
  0
ACDBDICTIONARYWDFLT
  5
E
102
{ACAD_REACTORS
330
C
102
}
330
C
100
AcDbDictionary
281
     1
  3
Normal
350
F
100
AcDbDictionaryWithDefault
340
F
  0
DICTIONARY
  5
47
102
{ACAD_REACTORS
330
C
102
}
330
C
100
AcDbDictionary
281
     1
  3
A0
350
48
  3
A1
350
49
  3
A2
350
4A
  3
A3
350
4B
  3
A4
350
4C
  3
A5
350
4D
  3
A6
350
4E
  3
A7
350
4F
  3
A8
350
50
  3
A9
350
51
  3
B0
350
52
  3
B1
350
53
  3
B2
350
54
  3
B3
350
55
  3
B4
350
56
  3
B5
350
57
  3
B6
350
58
  3
B7
350
59
  3
B8
350
5A
  3
B9
350
5B
  3
C0
350
5C
  3
C1
350
5D
  3
C2
350
5E
  3
C3
350
5F
  3
C4
350
60
  3
C5
350
61
  3
C6
350
62
  3
C7
350
63
  3
C8
350
64
  3
C9
350
65
  3
D0
350
66
  3
D1
350
67
  3
D2
350
68
  0
LAYOUT
  5
1E
102
{ACAD_REACTORS
330
1A
102
}
330
1A
100
AcDbPlotSettings
  1

  2
none_device
  4
ISO_A4_(210.00_x_297.00_MM)
  6

 40
7.5
 41
20.0
 42
7.5
 43
20.0
 44
210.0
 45
297.0
 46
0.0
 47
0.0
 48
0.0
 49
0.0
140
0.0
141
0.0
142
1.0
143
1.8093337663
 70
   688
 72
     1
 73
     1
 74
     1
  7

 75
     0
147
0.5526896246
148
232.4993889714
149
100.0375163825
100
AcDbLayout
  1
_Front
 70
     1
 71
     1
 10
-268.6860642977
 20
-113.6075196299
 11
268.6860642977
 21
266.3525712962
 12
0.0
 22
0.0
 32
0.0
 14
1.0000000000E+20
 24
1.0000000000E+20
 34
1.0000000000E+20
 15
-1.0000000000E+20
 25
-1.0000000000E+20
 35
-1.0000000000E+20
146
0.0
 13
0.0
 23
0.0
 33
0.0
 16
1.0
 26
0.0
 36
0.0
 17
0.0
 27
1.0
 37
0.0
 76
     0
330
1B
331
166
  0
LAYOUT
  5
26
102
{ACAD_REACTORS
330
1A
102
}
330
1A
100
AcDbPlotSettings
  1

  2
none_device
  4
ANSI_A_(11.00_x_8.50_Inches)
  6

 40
6.35
 41
19.05
 42
6.35000508
 43
19.05000254
 44
279.4
 45
215.9
 46
133.34999746
 47
164.7097179823
 48
0.0
 49
0.0
140
0.0
141
0.0
142
0.0719330715
143
1.0
 70
  1696
 72
     0
 73
     0
 74
     1
  7

 75
     0
147
0.059837373
148
800.1
149
2539.5859707834
100
AcDbLayout
  1
_Top
 70
     1
 71
     2
 10
0.0
 20
0.0
 11
0.0
 21
0.0
 12
0.0
 22
0.0
 32
0.0
 14
-31.5
 24
-99.9836996371
 34
0.0
 15
31.5
 25
17.0000440414
 35
0.0
146
0.0
 13
0.0
 23
0.0
 33
0.0
 16
1.0
 26
0.0
 36
0.0
 17
0.0
 27
1.0
 37
0.0
 76
     0
330
23
331
168
  0
LAYOUT
  5
22
102
{ACAD_REACTORS
330
1A
102
}
330
1A
100
AcDbPlotSettings
  1

  2
none_device
  4
Letter_(8.50_x_11.00_Inches)
  6

 40
6.35
 41
6.35
 42
6.35000508
 43
6.35000508
 44
215.9
 45
279.4
 46
0.0
 47
0.0
 48
0.0
 49
0.0
140
0.0
141
0.0
142
1.0
143
1.0
 70
  1712
 72
     1
 73
     0
 74
     0
  7

 75
     0
147
1.0
148
0.0
149
0.0
100
AcDbLayout
  1
Model
 70
     1
 71
     0
 10
0.0
 20
0.0
 11
420.0
 21
297.0
 12
0.0
 22
0.0
 32
0.0
 14
-31.5
 24
-99.9836996371
 34
0.0
 15
31.5
 25
17.0000440414
 35
0.0
146
0.0
 13
0.0
 23
0.0
 33
0.0
 16
1.0
 26
0.0
 36
0.0
 17
0.0
 27
1.0
 37
0.0
 76
     0
330
1F
331
29
  0
MLINESTYLE
  5
18
102
{ACAD_REACTORS
330
17
102
}
330
17
100
AcDbMlineStyle
  2
Standard
 70
     0
  3

 62
   256
 51
90.0
 52
90.0
 71
     2
 49
0.5
 62
   256
  6
BYLAYER
 49
-0.5
 62
   256
  6
BYLAYER
  0
ACDBPLACEHOLDER
  5
F
102
{ACAD_REACTORS
330
E
102
}
330
E
  0
SCALE
  5
48
102
{ACAD_REACTORS
330
47
102
}
330
47
100
AcDbScale
 70
     0
300
1:1
140
1.0
141
1.0
290
     1
  0
SCALE
  5
49
102
{ACAD_REACTORS
330
47
102
}
330
47
100
AcDbScale
 70
     0
300
1:2
140
1.0
141
2.0
290
     0
  0
SCALE
  5
4A
102
{ACAD_REACTORS
330
47
102
}
330
47
100
AcDbScale
 70
     0
300
1:4
140
1.0
141
4.0
290
     0
  0
SCALE
  5
4B
102
{ACAD_REACTORS
330
47
102
}
330
47
100
AcDbScale
 70
     0
300
1:5
140
1.0
141
5.0
290
     0
  0
SCALE
  5
4C
102
{ACAD_REACTORS
330
47
102
}
330
47
100
AcDbScale
 70
     0
300
1:8
140
1.0
141
8.0
290
     0
  0
SCALE
  5
4D
102
{ACAD_REACTORS
330
47
102
}
330
47
100
AcDbScale
 70
     0
300
1:10
140
1.0
141
10.0
290
     0
  0
SCALE
  5
4E
102
{ACAD_REACTORS
330
47
102
}
330
47
100
AcDbScale
 70
     0
300
1:16
140
1.0
141
16.0
290
     0
  0
SCALE
  5
4F
102
{ACAD_REACTORS
330
47
102
}
330
47
100
AcDbScale
 70
     0
300
1:20
140
1.0
141
20.0
290
     0
  0
SCALE
  5
50
102
{ACAD_REACTORS
330
47
102
}
330
47
100
AcDbScale
 70
     0
300
1:30
140
1.0
141
30.0
290
     0
  0
SCALE
  5
51
102
{ACAD_REACTORS
330
47
102
}
330
47
100
AcDbScale
 70
     0
300
1:40
140
1.0
141
40.0
290
     0
  0
SCALE
  5
52
102
{ACAD_REACTORS
330
47
102
}
330
47
100
AcDbScale
 70
     0
300
1:50
140
1.0
141
50.0
290
     0
  0
SCALE
  5
53
102
{ACAD_REACTORS
330
47
102
}
330
47
100
AcDbScale
 70
     0
300
1:100
140
1.0
141
100.0
290
     0
  0
SCALE
  5
54
102
{ACAD_REACTORS
330
47
102
}
330
47
100
AcDbScale
 70
     0
300
2:1
140
2.0
141
1.0
290
     0
  0
SCALE
  5
55
102
{ACAD_REACTORS
330
47
102
}
330
47
100
AcDbScale
 70
     0
300
4:1
140
4.0
141
1.0
290
     0
  0
SCALE
  5
56
102
{ACAD_REACTORS
330
47
102
}
330
47
100
AcDbScale
 70
     0
300
8:1
140
8.0
141
1.0
290
     0
  0
SCALE
  5
57
102
{ACAD_REACTORS
330
47
102
}
330
47
100
AcDbScale
 70
     0
300
10:1
140
10.0
141
1.0
290
     0
  0
SCALE
  5
58
102
{ACAD_REACTORS
330
47
102
}
330
47
100
AcDbScale
 70
     0
300
100:1
140
100.0
141
1.0
290
     0
  0
SCALE
  5
59
102
{ACAD_REACTORS
330
47
102
}
330
47
100
AcDbScale
 70
     0
300
1/128" = 1'-0"
140
0.0078125
141
12.0
290
     0
  0
SCALE
  5
5A
102
{ACAD_REACTORS
330
47
102
}
330
47
100
AcDbScale
 70
     0
300
1/64" = 1'-0"
140
0.015625
141
12.0
290
     0
  0
SCALE
  5
5B
102
{ACAD_REACTORS
330
47
102
}
330
47
100
AcDbScale
 70
     0
300
1/32" = 1'-0"
140
0.03125
141
12.0
290
     0
  0
SCALE
  5
5C
102
{ACAD_REACTORS
330
47
102
}
330
47
100
AcDbScale
 70
     0
300
1/16" = 1'-0"
140
0.0625
141
12.0
290
     0
  0
SCALE
  5
5D
102
{ACAD_REACTORS
330
47
102
}
330
47
100
AcDbScale
 70
     0
300
3/32" = 1'-0"
140
0.09375
141
12.0
290
     0
  0
SCALE
  5
5E
102
{ACAD_REACTORS
330
47
102
}
330
47
100
AcDbScale
 70
     0
300
1/8" = 1'-0"
140
0.125
141
12.0
290
     0
  0
SCALE
  5
5F
102
{ACAD_REACTORS
330
47
102
}
330
47
100
AcDbScale
 70
     0
300
3/16" = 1'-0"
140
0.1875
141
12.0
290
     0
  0
SCALE
  5
60
102
{ACAD_REACTORS
330
47
102
}
330
47
100
AcDbScale
 70
     0
300
1/4" = 1'-0"
140
0.25
141
12.0
290
     0
  0
SCALE
  5
61
102
{ACAD_REACTORS
330
47
102
}
330
47
100
AcDbScale
 70
     0
300
3/8" = 1'-0"
140
0.375
141
12.0
290
     0
  0
SCALE
  5
62
102
{ACAD_REACTORS
330
47
102
}
330
47
100
AcDbScale
 70
     0
300
1/2" = 1'-0"
140
0.5
141
12.0
290
     0
  0
SCALE
  5
63
102
{ACAD_REACTORS
330
47
102
}
330
47
100
AcDbScale
 70
     0
300
3/4" = 1'-0"
140
0.75
141
12.0
290
     0
  0
SCALE
  5
64
102
{ACAD_REACTORS
330
47
102
}
330
47
100
AcDbScale
 70
     0
300
1" = 1'-0"
140
1.0
141
12.0
290
     0
  0
SCALE
  5
65
102
{ACAD_REACTORS
330
47
102
}
330
47
100
AcDbScale
 70
     0
300
1-1/2" = 1'-0"
140
1.5
141
12.0
290
     0
  0
SCALE
  5
66
102
{ACAD_REACTORS
330
47
102
}
330
47
100
AcDbScale
 70
     0
300
3" = 1'-0"
140
3.0
141
12.0
290
     0
  0
SCALE
  5
67
102
{ACAD_REACTORS
330
47
102
}
330
47
100
AcDbScale
 70
     0
300
6" = 1'-0"
140
6.0
141
12.0
290
     0
  0
SCALE
  5
68
102
{ACAD_REACTORS
330
47
102
}
330
47
100
AcDbScale
 70
     0
300
1'-0" = 1'-0"
140
12.0
141
12.0
290
     0
  0
ENDSEC
  0
EOF
