  0
SECTION
  2
HEADER
  9
$ACADVER
  1
AC1015
  9
$ACADMAINTVER
 70
     6
  9
$DWGCODEPAGE
  3
ANSI_1252
  9
$INSBASE
 10
0.0
 20
0.0
 30
0.0
  9
$EXTMIN
 10
-66.0
 20
-294.0
 30
0.0
  9
$EXTMAX
 10
66.0
 20
66.0
 30
0.0
  9
$LIMMIN
 10
0.0
 20
0.0
  9
$LIMMAX
 10
420.0
 20
297.0
  9
$ORTHOMODE
 70
     0
  9
$REGENMODE
 70
     1
  9
$FILLMODE
 70
     1
  9
$QTEXTMODE
 70
     0
  9
$MIRRTEXT
 70
     1
  9
$LTSCALE
 40
1.0
  9
$ATTMODE
 70
     1
  9
$TEXTSIZE
 40
3.5
  9
$TRACEWID
 40
1.0
  9
$TEXTSTYLE
  7
Standard
  9
$CLAYER
  8
0
  9
$CELTYPE
  6
ByLayer
  9
$CECOLOR
 62
   256
  9
$CELTSCALE
 40
1.0
  9
$DISPSILH
 70
     0
  9
$DIMSCALE
 40
1.0
  9
$DIMASZ
 40
3.302
  9
$DIMEXO
 40
1.0
  9
$DIMDLI
 40
3.75
  9
$DIMRND
 40
0.0
  9
$DIMDLE
 40
0.0
  9
$DIMEXE
 40
1.0
  9
$DIMTP
 40
0.0
  9
$DIMTM
 40
0.0
  9
$DIMTXT
 40
3.5
  9
$DIMCEN
 40
2.5
  9
$DIMTSZ
 40
0.0
  9
$DIMTOL
 70
     0
  9
$DIMLIM
 70
     0
  9
$DIMTIH
 70
     1
  9
$DIMTOH
 70
     1
  9
$DIMSE1
 70
     0
  9
$DIMSE2
 70
     0
  9
$DIMTAD
 70
     1
  9
$DIMZIN
 70
     1
  9
$DIMBLK
  1

  9
$DIMASO
 70
     1
  9
$DIMSHO
 70
     1
  9
$DIMPOST
  1

  9
$DIMAPOST
  1

  9
$DIMALT
 70
     0
  9
$DIMALTD
 70
     3
  9
$DIMALTF
 40
0.0393700787
  9
$DIMLFAC
 40
1.0
  9
$DIMTOFL
 70
     1
  9
$DIMTVP
 40
0.0
  9
$DIMTIX
 70
     0
  9
$DIMSOXD
 70
     0
  9
$DIMSAH
 70
     0
  9
$DIMBLK1
  1

  9
$DIMBLK2
  1

  9
$DIMSTYLE
  2
ISO-25
  9
$DIMCLRD
 70
     0
  9
$DIMCLRE
 70
     0
  9
$DIMCLRT
 70
     0
  9
$DIMTFAC
 40
1.0
  9
$DIMGAP
 40
1.524
  9
$DIMJUST
 70
     0
  9
$DIMSD1
 70
     0
  9
$DIMSD2
 70
     0
  9
$DIMTOLJ
 70
     0
  9
$DIMTZIN
 70
     1
  9
$DIMALTZ
 70
     0
  9
$DIMALTTZ
 70
     0
  9
$DIMUPT
 70
     0
  9
$DIMDEC
 70
     2
  9
$DIMTDEC
 70
     2
  9
$DIMALTU
 70
     2
  9
$DIMALTTD
 70
     3
  9
$DIMTXSTY
  7
Standard
  9
$DIMAUNIT
 70
     0
  9
$DIMADEC
 70
     2
  9
$DIMALTRND
 40
0.0
  9
$DIMAZIN
 70
     0
  9
$DIMDSEP
 70
    44
  9
$DIMATFIT
 70
     3
  9
$DIMFRAC
 70
     0
  9
$DIMLDRBLK
  1

  9
$DIMLUNIT
 70
     2
  9
$DIMLWD
 70
    -2
  9
$DIMLWE
 70
    -2
  9
$DIMTMOVE
 70
     0
  9
$LUNITS
 70
     2
  9
$LUPREC
 70
     2
  9
$SKETCHINC
 40
1.0
  9
$FILLETRAD
 40
10.0
  9
$AUNITS
 70
     0
  9
$AUPREC
 70
     2
  9
$MENU
  1
.
  9
$ELEVATION
 40
0.0
  9
$PELEVATION
 40
0.0
  9
$THICKNESS
 40
0.0
  9
$LIMCHECK
 70
     0
  9
$CHAMFERA
 40
0.0
  9
$CHAMFERB
 40
0.0
  9
$CHAMFERC
 40
0.0
  9
$CHAMFERD
 40
0.0
  9
$SKPOLY
 70
     0
  9
$TDCREATE
 40
2459670.463328484
  9
$TDUCREATE
 40
2459670.421661817
  9
$TDUPDATE
 40
2459670.463356343
  9
$TDUUPDATE
 40
2459670.421689676
  9
$TDINDWG
 40
0.0000000116
  9
$TDUSRTIMER
 40
0.0000000116
  9
$USRTIMER
 70
     1
  9
$ANGBASE
 50
0.0
  9
$ANGDIR
 70
     0
  9
$PDMODE
 70
     0
  9
$PDSIZE
 40
-1.0
  9
$PLINEWID
 40
0.0
  9
$SPLFRAME
 70
     0
  9
$SPLINETYPE
 70
     6
  9
$SPLINESEGS
 70
     8
  9
$HANDSEED
  5
1EB
  9
$SURFTAB1
 70
     6
  9
$SURFTAB2
 70
     6
  9
$SURFTYPE
 70
     6
  9
$SURFU
 70
     6
  9
$SURFV
 70
     6
  9
$UCSBASE
  2

  9
$UCSNAME
  2

  9
$UCSORG
 10
0.0
 20
0.0
 30
0.0
  9
$UCSXDIR
 10
1.0
 20
0.0
 30
0.0
  9
$UCSYDIR
 10
0.0
 20
1.0
 30
0.0
  9
$UCSORTHOREF
  2

  9
$UCSORTHOVIEW
 70
     0
  9
$UCSORGTOP
 10
0.0
 20
0.0
 30
0.0
  9
$UCSORGBOTTOM
 10
0.0
 20
0.0
 30
0.0
  9
$UCSORGLEFT
 10
0.0
 20
0.0
 30
0.0
  9
$UCSORGRIGHT
 10
0.0
 20
0.0
 30
0.0
  9
$UCSORGFRONT
 10
0.0
 20
0.0
 30
0.0
  9
$UCSORGBACK
 10
0.0
 20
0.0
 30
0.0
  9
$PUCSBASE
  2

  9
$PUCSNAME
  2

  9
$PUCSORG
 10
0.0
 20
0.0
 30
0.0
  9
$PUCSXDIR
 10
1.0
 20
0.0
 30
0.0
  9
$PUCSYDIR
 10
0.0
 20
1.0
 30
0.0
  9
$PUCSORTHOREF
  2

  9
$PUCSORTHOVIEW
 70
     0
  9
$PUCSORGTOP
 10
0.0
 20
0.0
 30
0.0
  9
$PUCSORGBOTTOM
 10
0.0
 20
0.0
 30
0.0
  9
$PUCSORGLEFT
 10
0.0
 20
0.0
 30
0.0
  9
$PUCSORGRIGHT
 10
0.0
 20
0.0
 30
0.0
  9
$PUCSORGFRONT
 10
0.0
 20
0.0
 30
0.0
  9
$PUCSORGBACK
 10
0.0
 20
0.0
 30
0.0
  9
$USERI1
 70
     0
  9
$USERI2
 70
     0
  9
$USERI3
 70
     0
  9
$USERI4
 70
     0
  9
$USERI5
 70
     0
  9
$USERR1
 40
0.0
  9
$USERR2
 40
0.0
  9
$USERR3
 40
0.0
  9
$USERR4
 40
0.0
  9
$USERR5
 40
0.0
  9
$WORLDVIEW
 70
     1
  9
$SHADEDGE
 70
     3
  9
$SHADEDIF
 70
    70
  9
$TILEMODE
 70
     1
  9
$MAXACTVP
 70
    64
  9
$PINSBASE
 10
0.0
 20
0.0
 30
0.0
  9
$PLIMCHECK
 70
     0
  9
$PEXTMIN
 10
-66.0
 20
-161.0
 30
0.0
  9
$PEXTMAX
 10
66.0
 20
29.0
 30
0.0
  9
$PLIMMIN
 10
-85.4871794872
 20
-168.3076923077
  9
$PLIMMAX
 10
203.8974358974
 20
36.3076923077
  9
$UNITMODE
 70
     0
  9
$VISRETAIN
 70
     1
  9
$PLINEGEN
 70
     0
  9
$PSLTSCALE
 70
     1
  9
$TREEDEPTH
 70
  3020
  9
$CMLSTYLE
  2
Standard
  9
$CMLJUST
 70
     0
  9
$CMLSCALE
 40
20.0
  9
$PROXYGRAPHICS
 70
     1
  9
$MEASUREMENT
 70
     1
  9
$CELWEIGHT
370
    -1
  9
$ENDCAPS
280
     0
  9
$JOINSTYLE
280
     0
  9
$LWDISPLAY
290
     1
  9
$INSUNITS
 70
     4
  9
$HYPERLINKBASE
  1

  9
$STYLESHEET
  1

  9
$XEDIT
290
     1
  9
$CEPSNTYPE
380
     0
  9
$PSTYLEMODE
290
     1
  9
$FINGERPRINTGUID
  2
{c42824e3-5815-43bd-b8b8-ea03cfc23f85}
  9
$VERSIONGUID
  2
{FAEB1C32-E019-11D5-929B-00C0DF256EC4}
  9
$EXTNAMES
290
     1
  9
$PSVPSCALE
 40
0.0
  9
$OLESTARTUP
290
     0
  0
ENDSEC
  0
SECTION
  2
CLASSES
  0
CLASS
  1
ACDBDICTIONARYWDFLT
  2
AcDbDictionaryWithDefault
  3
ObjectDBX Classes
 90
        0
280
     0
281
     0
  0
CLASS
  1
VISUALSTYLE
  2
AcDbVisualStyle
  3
ObjectDBX Classes
 90
     4095
280
     0
281
     0
  0
CLASS
  1
MATERIAL
  2
AcDbMaterial
  3
ObjectDBX Classes
 90
     1153
280
     0
281
     0
  0
CLASS
  1
SCALE
  2
AcDbScale
  3
ObjectDBX Classes
 90
     1153
280
     0
281
     0
  0
CLASS
  1
TABLESTYLE
  2
AcDbTableStyle
  3
ObjectDBX Classes
 90
     4095
280
     0
281
     0
  0
CLASS
  1
MLEADERSTYLE
  2
AcDbMLeaderStyle
  3
ACDB_MLEADERSTYLE_CLASS
 90
     4095
280
     0
281
     0
  0
CLASS
  1
SUN
  2
AcDbSun
  3
SCENEOE
 90
     1153
280
     0
281
     0
  0
CLASS
  1
ACDBPLACEHOLDER
  2
AcDbPlaceHolder
  3
ObjectDBX Classes
 90
        0
280
     0
281
     0
  0
CLASS
  1
LAYOUT
  2
AcDbLayout
  3
ObjectDBX Classes
 90
        0
280
     0
281
     0
  0
ENDSEC
  0
SECTION
  2
TABLES
  0
TABLE
  2
VPORT
  5
8
330
0
100
AcDbSymbolTable
 70
     1
  0
VPORT
  5
29
330
8
100
AcDbSymbolTableRecord
100
AcDbViewportTableRecord
  2
*Active
 70
     0
 10
0.0
 20
0.0
 11
1.0
 21
1.0
 12
0.0
 22
-114.0
 13
0.0
 23
0.0
 14
10.0
 24
10.0
 15
10.0
 25
10.0
 16
0.0
 26
0.0
 36
1.0
 17
0.0
 27
0.0
 37
0.0
 40
367.2
 41
0.3666666667
 42
50.0
 43
0.0
 44
0.0
 50
0.0
 51
0.0
 71
     0
 72
   100
 73
     1
 74
     3
 75
     0
 76
     0
 77
     0
 78
     0
281
     0
 65
     1
110
0.0
120
0.0
130
0.0
111
1.0
121
0.0
131
0.0
112
0.0
122
1.0
132
0.0
 79
     0
146
0.0
  0
ENDTAB
  0
TABLE
  2
LTYPE
  5
5
330
0
100
AcDbSymbolTable
 70
     6
  0
LTYPE
  5
14
330
5
100
AcDbSymbolTableRecord
100
AcDbLinetypeTableRecord
  2
ByBlock
 70
     0
  3

 72
    65
 73
     0
 40
0.0
  0
LTYPE
  5
15
330
5
100
AcDbSymbolTableRecord
100
AcDbLinetypeTableRecord
  2
ByLayer
 70
     0
  3

 72
    65
 73
     0
 40
0.0
  0
LTYPE
  5
16
330
5
100
AcDbSymbolTableRecord
100
AcDbLinetypeTableRecord
  2
Continuous
 70
     0
  3
Solid line
 72
    65
 73
     0
 40
0.0
  0
LTYPE
  5
6E
330
5
100
AcDbSymbolTableRecord
100
AcDbLinetypeTableRecord
  2
HIDDEN
 70
     0
  3
Hidden __ __ __ __ __ __ __ __ __ __ __ __ __ __
 72
    65
 73
     2
 40
1.905
 49
1.27
 74
     0
 49
-0.635
 74
     0
  0
LTYPE
  5
6F
330
5
100
AcDbSymbolTableRecord
100
AcDbLinetypeTableRecord
  2
PHANTOM
 70
     0
  3
Phantom ______  __  __  ______  __  __  ______
 72
    65
 73
     6
 40
12.7
 49
6.35
 74
     0
 49
-1.27
 74
     0
 49
1.27
 74
     0
 49
-1.27
 74
     0
 49
1.27
 74
     0
 49
-1.27
 74
     0
  0
LTYPE
  5
70
330
5
100
AcDbSymbolTableRecord
100
AcDbLinetypeTableRecord
  2
CENTER
 70
     0
  3
Center ____ _ ____ _ ____ _ ____ _ ____ _ ____
 72
    65
 73
     4
 40
10.16
 49
6.35
 74
     0
 49
-1.27
 74
     0
 49
1.27
 74
     0
 49
-1.27
 74
     0
  0
LTYPE
  5
71
330
5
100
AcDbSymbolTableRecord
100
AcDbLinetypeTableRecord
  2
CENTERX2
 70
     0
  3
Center (2x) ________  __  ________  __  _____
 72
    65
 73
     4
 40
20.32
 49
12.7
 74
     0
 49
-2.54
 74
     0
 49
2.54
 74
     0
 49
-2.54
 74
     0
  0
LTYPE
  5
72
330
5
100
AcDbSymbolTableRecord
100
AcDbLinetypeTableRecord
  2
DOT2
 70
     0
  3
Dot (.5x) ........................................
 72
    65
 73
     2
 40
0.635
 49
0.0
 74
     0
 49
-0.635
 74
     0
  0
ENDTAB
  0
TABLE
  2
LAYER
  5
2
330
0
100
AcDbSymbolTable
 70
     1
  0
LAYER
  5
10
330
2
100
AcDbSymbolTableRecord
100
AcDbLayerTableRecord
  2
0
 70
     0
 62
     7
  6
Continuous
370
    -3
390
F
  0
ENDTAB
  0
TABLE
  2
STYLE
  5
3
330
0
100
AcDbSymbolTable
 70
     1
  0
STYLE
  5
11
330
3
100
AcDbSymbolTableRecord
100
AcDbTextStyleTableRecord
  2
Standard
 70
     0
 40
0.0
 41
1.0
 50
0.0
 71
     0
 42
3.5
  3
txt
  4

  0
ENDTAB
  0
TABLE
  2
VIEW
  5
6
330
0
100
AcDbSymbolTable
 70
     0
  0
ENDTAB
  0
TABLE
  2
UCS
  5
7
330
0
100
AcDbSymbolTable
 70
     0
  0
ENDTAB
  0
TABLE
  2
APPID
  5
9
330
0
100
AcDbSymbolTable
 70
     1
  0
APPID
  5
12
330
9
100
AcDbSymbolTableRecord
100
AcDbRegAppTableRecord
  2
ACAD
 70
     0
  0
ENDTAB
  0
TABLE
  2
DIMSTYLE
  5
A
330
0
100
AcDbSymbolTable
 70
     1
100
AcDbDimStyleTable
  0
DIMSTYLE
105
27
330
A
100
AcDbSymbolTableRecord
100
AcDbDimStyleTableRecord
  2
ISO-25
 70
     0
 41
2.5
 42
0.625
 43
3.75
 44
1.25
 73
     0
 74
     0
 77
     1
 78
     8
140
2.5
141
2.5
143
0.0393700787
147
0.625
171
     3
172
     1
178
     0
271
     2
272
     2
274
     3
278
    44
283
     0
284
     8
340
11
  0
ENDTAB
  0
TABLE
  2
BLOCK_RECORD
  5
1
330
0
100
AcDbSymbolTable
 70
     1
  0
BLOCK_RECORD
  5
1F
330
1
100
AcDbSymbolTableRecord
100
AcDbBlockTableRecord
  2
*Model_Space
340
22
  0
BLOCK_RECORD
  5
1B
330
1
100
AcDbSymbolTableRecord
100
AcDbBlockTableRecord
  2
*Paper_Space
340
1E
  0
BLOCK_RECORD
  5
23
330
1
100
AcDbSymbolTableRecord
100
AcDbBlockTableRecord
  2
*Paper_Space0
340
26
  0
ENDTAB
  0
ENDSEC
  0
SECTION
  2
BLOCKS
  0
BLOCK
  5
20
330
1F
100
AcDbEntity
  8
0
100
AcDbBlockBegin
  2
*Model_Space
 70
     0
 10
0.0
 20
0.0
 30
0.0
  3
*Model_Space
  1

  0
ENDBLK
  5
21
330
1F
100
AcDbEntity
  8
0
100
AcDbBlockEnd
  0
BLOCK
  5
1C
330
1B
100
AcDbEntity
 67
     1
  8
0
100
AcDbBlockBegin
  2
*Paper_Space
 70
     0
 10
0.0
 20
0.0
 30
0.0
  3
*Paper_Space
  1

  0
ENDBLK
  5
1D
330
1B
100
AcDbEntity
 67
     1
  8
0
100
AcDbBlockEnd
  0
BLOCK
  5
24
330
23
100
AcDbEntity
  8
0
100
AcDbBlockBegin
  2
*Paper_Space0
 70
     0
 10
0.0
 20
0.0
 30
0.0
  3
*Paper_Space0
  1

  0
LWPOLYLINE
  5
13A
330
23
100
AcDbEntity
  8
0
  6
Continuous
 62
     7
370
    25
100
AcDbPolyline
 90
        3
 70
   128
 43
0.0
 10
58.4999999763
 20
-15.0
 10
59.9999999068
 20
-7.5
 10
61.4999999566
 20
0.0
  0
LWPOLYLINE
  5
13C
330
23
100
AcDbEntity
  8
0
  6
Continuous
 62
     7
370
    25
100
AcDbPolyline
 90
        3
 70
   128
 43
0.0
 10
58.4999999691
 20
-55.0
 10
58.5000006779
 20
-35.0
 10
58.4999999685
 20
-15.0
  0
SPLINE
  5
13E
330
23
100
AcDbEntity
  8
0
  6
Continuous
 62
     7
370
    25
100
AcDbSpline
210
0.0
220
0.0
230
1.0
 70
     8
 71
     3
 72
     9
 73
     5
 74
     0
 42
0.000000001
 43
0.00000001
 40
0.0
 40
0.0
 40
0.0
 40
0.0
 40
0.4733017558698589
 40
1.0
 40
1.0
 40
1.0
 40
1.0
 10
44.99999261240084
 20
-114.9999983613434
 30
0.0
 10
47.12939797100121
 20
-105.5338624295086
 30
0.0
 10
51.6284418308467
 20
-85.53364942705015
 30
0.0
 10
56.12936936302476
 20
-65.533856053051
 30
0.0
 10
58.49999999117994
 20
-55.00000000000001
 30
0.0
  0
SPLINE
  5
176
330
23
100
AcDbEntity
  8
0
  6
Continuous
 62
     7
370
    25
100
AcDbSpline
210
0.0
220
0.0
230
1.0
 70
    24
 71
     3
 72
    32
 73
    28
 74
     0
 42
0.000000001
 43
0.00000001
 40
0.0
 40
0.0
 40
0.0
 40
0.0
 40
0.0017909092972499
 40
0.043447690290636
 40
0.0850871527404806
 40
0.1267116286925407
 40
0.1683221127326006
 40
0.2099200469046553
 40
0.2515075856873344
 40
0.2930858915663128
 40
0.334656298586549
 40
0.3762208775303136
 40
0.4177808885654329
 40
0.4593376040946871
 40
0.5008930681652021
 40
0.5424485915338793
 40
0.5840054052778794
 40
0.6255655551093849
 40
0.66713039117694
 40
0.7087010926442191
 40
0.750279737091897
 40
0.79186773152321
 40
0.8334661560826101
 40
0.8750771829270806
 40
0.9167023149895743
 40
0.9583424662573682
 40
1.0
 40
1.0
 40
1.0
 40
1.0
 10
58.47939824188126
 20
-15.0
 30
0.0
 10
58.48622467225145
 20
-15.0
 30
0.0
 10
58.65183475254379
 20
-15.00000000000003
 30
0.0
 10
58.0499633497554
 20
-14.99999999999994
 30
0.0
 10
56.60290105062796
 20
-14.99999999999999
 30
0.0
 10
54.07515985024572
 20
-15.00000000000003
 30
0.0
 10
50.65553752374841
 20
-14.99999999999997
 30
0.0
 10
46.36492410841031
 20
-14.99999999999998
 30
0.0
 10
41.28748977958477
 20
-15.00000000000003
 30
0.0
 10
35.50656825232076
 20
-14.99999999999999
 30
0.0
 10
29.1223085294848
 20
-14.99999999999999
 30
0.0
 10
22.24320117593237
 20
-15.00000000000006
 30
0.0
 10
14.98592230178064
 20
-14.99999999999996
 30
0.0
 10
7.47424324714914
 20
-14.99999999999996
 30
0.0
 10
-0.1643859103104411
 20
-15.00000000000003
 30
0.0
 10
-7.800227775395005
 20
-15.0
 30
0.0
 10
-15.30356530391505
 20
-14.99999999999999
 30
0.0
 10
-22.54713051486002
 20
-14.99999999999999
 30
0.0
 10
-29.40734329065613
 20
-15.00000000000001
 30
0.0
 10
-35.76787538031061
 20
-15.0
 30
0.0
 10
-41.5204116482709
 20
-14.99999999999997
 30
0.0
 10
-46.56644108869472
 20
-15.0
 30
0.0
 10
-50.81853381736795
 20
-15.00000000000001
 30
0.0
 10
-54.21030062852697
 20
-14.99999999999999
 30
0.0
 10
-56.65785864820913
 20
-15.0
 30
0.0
 10
-58.21028304756575
 20
-15.0
 30
0.0
 10
-58.40341424838209
 20
-15.0
 30
0.0
 10
-58.49999999999999
 20
-15.0
 30
0.0
  0
SPLINE
  5
177
330
23
100
AcDbEntity
  8
0
  6
Continuous
 62
     7
370
    25
100
AcDbSpline
210
0.0
220
0.0
230
1.0
 70
    24
 71
     3
 72
    32
 73
    28
 74
     0
 42
0.000000001
 43
0.00000001
 40
0.0
 40
0.0
 40
0.0
 40
0.0
 40
0.0017966478112113
 40
0.0434531893276967
 40
0.0850924124002015
 40
0.1267166490610764
 40
0.168326893890388
 40
0.2099245889238412
 40
0.25151188862768
 40
0.2930899554808961
 40
0.3346601235207791
 40
0.3762244635176949
 40
0.4177842356322255
 40
0.4593407122598364
 40
0.5008959374359023
 40
0.5424512219097896
 40
0.5840077967515817
 40
0.6255677076617007
 40
0.6671323047809288
 40
0.708702767266162
 40
0.7502811726861314
 40
0.7918689280359844
 40
0.833467113453964
 40
0.8750779010845655
 40
0.9167027938521021
 40
0.9583427057385964
 40
1.0
 40
1.0
 40
1.0
 40
1.0
 10
58.4793350825385
 20
-55.00000000000001
 30
0.0
 10
58.48618424749691
 20
-55.00000000000001
 30
0.0
 10
58.65183611305327
 20
-55.00000000000004
 30
0.0
 10
58.04998102526054
 20
-54.99999999999999
 30
0.0
 10
56.60289631716367
 20
-54.99999999999999
 30
0.0
 10
54.07516111791971
 20
-55.00000000000004
 30
0.0
 10
50.65553718423549
 20
-54.99999999999994
 30
0.0
 10
46.36492419934632
 20
-55.00000000000001
 30
0.0
 10
41.287489755227
 20
-55.00000000000008
 30
0.0
 10
35.50656825884543
 20
-54.99999999999993
 30
0.0
 10
29.12230852773692
 20
-54.99999999999994
 30
0.0
 10
22.24320117640064
 20
-55.00000000000016
 30
0.0
 10
14.98592230165519
 20
-54.99999999999986
 30
0.0
 10
7.474243247182766
 20
-54.99999999999991
 30
0.0
 10
-0.1643859103194339
 20
-55.00000000000024
 30
0.0
 10
-7.800227775392604
 20
-54.99999999999999
 30
0.0
 10
-15.30356530391569
 20
-54.99999999999996
 30
0.0
 10
-22.54713051485985
 20
-55.00000000000009
 30
0.0
 10
-29.40734329065617
 20
-54.99999999999996
 30
0.0
 10
-35.76787538031062
 20
-54.99999999999994
 30
0.0
 10
-41.52041164827089
 20
-55.00000000000004
 30
0.0
 10
-46.56644108869476
 20
-55.00000000000001
 30
0.0
 10
-50.81853381736792
 20
-55.00000000000001
 30
0.0
 10
-54.21030062852702
 20
-55.00000000000009
 30
0.0
 10
-56.65785864820911
 20
-54.99999999999998
 30
0.0
 10
-58.21028304756575
 20
-54.99999999999996
 30
0.0
 10
-58.40341424838211
 20
-55.0
 30
0.0
 10
-58.5
 20
-55.00000000000001
 30
0.0
  0
SPLINE
  5
178
330
23
100
AcDbEntity
  8
0
  6
Continuous
 62
     7
370
    25
100
AcDbSpline
210
0.0
220
0.0
230
1.0
 70
     8
 71
     3
 72
    26
 73
    22
 74
     0
 42
0.000000001
 43
0.00000001
 40
0.0
 40
0.0
 40
0.0
 40
0.0
 40
0.0503856462876063
 40
0.1007827967600166
 40
0.1511799472324269
 40
0.2015770977048372
 40
0.2412903041698223
 40
0.2813887378172644
 40
0.3217962544921574
 40
0.3624237269543555
 40
0.4031947861514289
 40
0.4506494370728074
 40
0.502678752364417
 40
0.5531775681372589
 40
0.604783029204142
 40
0.6709822348553255
 40
0.7387979296491707
 40
0.8063087204204475
 40
0.8711117758189313
 40
0.9361033121008006
 40
1.0
 40
1.0
 40
1.0
 40
1.0
 10
44.99995053667286
 20
-115.0
 30
0.0
 10
44.95818913300084
 20
-115.0000002026167
 30
0.0
 10
44.87465679058203
 20
-115.0000006078964
 30
0.0
 10
44.20108574072443
 20
-114.9999975677667
 30
0.0
 10
43.13297469934974
 20
-115.0000091208055
 30
0.0
 10
41.74634313738768
 20
-114.999968999746
 30
0.0
 10
40.15494294315452
 20
-115.0000891208918
 30
0.0
 10
38.44165364824648
 20
-115.0001004067176
 30
0.0
 10
36.4785401107138
 20
-115.0000413583294
 30
0.0
 10
34.27688515554753
 20
-115.0000235962342
 30
0.0
 10
31.72074580946513
 20
-114.9999263662724
 30
0.0
 10
28.68884316652118
 20
-115.0003311236613
 30
0.0
 10
25.17498163459964
 20
-114.9999813489102
 30
0.0
 10
21.31290629941176
 20
-114.9999441415288
 30
0.0
 10
16.86434245183444
 20
-115.0000462190694
 30
0.0
 10
11.7172585793848
 20
-114.9998519716381
 30
0.0
 10
5.929136386756725
 20
-114.9997700399747
 30
0.0
 10
0.078162495624548
 20
-115.0001226607115
 30
0.0
 10
-5.68451268857173
 20
-114.9997403856491
 30
0.0
 10
-11.27039745005108
 20
-114.9999110038865
 30
0.0
 10
-14.8223351692555
 20
-114.9999618844889
 30
0.0
 10
-16.5832179599328
 20
-114.999987108686
 30
0.0
  0
SPLINE
  5
179
330
23
100
AcDbEntity
  8
0
  6
Continuous
 62
     7
370
    25
100
AcDbSpline
210
0.0
220
0.0
230
1.0
 70
     8
 71
     3
 72
    27
 73
    23
 74
     0
 42
0.000000001
 43
0.00000001
 40
0.0
 40
0.0
 40
0.0
 40
0.0
 40
0.0114696132231035
 40
0.0784076268455082
 40
0.1391126751542942
 40
0.2012809279962264
 40
0.2426260030419332
 40
0.2839781985004742
 40
0.3265075837918859
 40
0.3690426935552724
 40
0.4230702023940454
 40
0.4771069641071564
 40
0.5326728418997165
 40
0.5882447231190385
 40
0.6435223425504742
 40
0.6988029751666398
 40
0.7552220537843484
 40
0.811638965356373
 40
0.8892742512140345
 40
0.9288277600631539
 40
0.968348390452342
 40
1.0
 40
1.0
 40
1.0
 40
1.0
 10
-56.2001694773985
 20
-65.05262494231533
 30
0.0
 10
-56.21563253391648
 20
-65.03595259132449
 30
0.0
 10
-56.32133980946004
 20
-64.92197843633771
 30
0.0
 10
-55.84739133643124
 20
-65.4240562779322
 30
0.0
 10
-54.81231387438049
 20
-66.53046175593028
 30
0.0
 10
-53.41771583253635
 20
-68.03597863452939
 30
0.0
 10
-51.92667779996015
 20
-69.66599649773644
 30
0.0
 10
-50.4719595011539
 20
-71.27111013866639
 30
0.0
 10
-48.85947314995209
 20
-73.0679979277258
 30
0.0
 10
-46.9491572499679
 20
-75.21818116638529
 30
0.0
 10
-44.73830207556775
 20
-77.73490080051707
 30
0.0
 10
-42.1966695429431
 20
-80.66139797354649
 30
0.0
 10
-39.51610415774745
 20
-83.78257926129874
 30
0.0
 10
-36.72470442483851
 20
-87.07008425668405
 30
0.0
 10
-33.86891292354147
 20
-90.47064312566971
 30
0.0
 10
-30.9557124419011
 20
-93.9921496011072
 30
0.0
 10
-28.0015598226038
 20
-97.62920039473357
 30
0.0
 10
-24.68059548401978
 20
-101.8570320542285
 30
0.0
 10
-21.73035847306019
 20
-105.837804558406
 30
0.0
 10
-19.28704577382759
 20
-109.5825540777649
 30
0.0
 10
-17.71241557975503
 20
-112.3241491084887
 30
0.0
 10
-16.93089384561193
 20
-114.1763087583538
 30
0.0
 10
-16.58333669686889
 20
-114.9999983613434
 30
0.0
  0
SPLINE
  5
186
330
23
100
AcDbEntity
  8
0
  6
Continuous
 62
     7
370
    25
100
AcDbSpline
210
0.0
220
0.0
230
1.0
 70
     8
 71
     3
 72
    40
 73
    36
 74
     0
 42
0.000000001
 43
0.00000001
 40
0.0
 40
0.0
 40
0.0
 40
0.0
 40
0.0156249999999997
 40
0.0156249999999997
 40
0.0312499999999994
 40
0.0312499999999994
 40
0.0624999999999989
 40
0.0624999999999989
 40
0.1249999999999978
 40
0.1249999999999978
 40
0.2499999999999954
 40
0.2499999999999954
 40
0.2812499999999948
 40
0.2812499999999948
 40
0.3124999999999941
 40
0.3124999999999941
 40
0.3749999999999928
 40
0.3749999999999928
 40
0.4999999999999894
 40
0.4999999999999894
 40
0.531249999999989
 40
0.531249999999989
 40
0.5624999999999887
 40
0.5624999999999887
 40
0.6249999999999889
 40
0.6249999999999889
 40
0.7499999999999902
 40
0.7499999999999902
 40
0.7812499999999915
 40
0.7812499999999915
 40
0.8124999999999927
 40
0.8124999999999927
 40
0.8749999999999951
 40
0.8749999999999951
 40
1.0
 40
1.0
 40
1.0
 40
1.0
 10
0.0
 20
-150.0
 30
0.0
 10
-0.0927640441221039
 20
-150.0
 30
0.0
 10
-0.1875183186744317
 20
-149.9966450216712
 30
0.0
 10
-0.3751624055035596
 20
-149.9832070948594
 30
0.0
 10
-0.4688309791876094
 20
-149.9731385397014
 30
0.0
 10
-0.7494257139710331
 20
-149.9329722921154
 30
0.0
 10
-0.9359412470471284
 20
-149.8929184805927
 30
0.0
 10
-1.494225227890916
 20
-149.7334674729217
 30
0.0
 10
-1.864733661957718
 20
-149.5748470362032
 30
0.0
 10
-2.974101281899455
 20
-148.9438524465615
 30
0.0
 10
-3.710752764317177
 20
-148.3174518168225
 30
0.0
 10
-4.637494906378617
 20
-147.267199367865
 30
0.0
 10
-4.822748836286084
 20
-147.0440838016562
 30
0.0
 10
-5.190718909918485
 20
-146.5751275244343
 30
0.0
 10
-5.373815295026119
 20
-146.3288635244216
 30
0.0
 10
-5.920828818945123
 20
-145.5552258391208
 30
0.0
 10
-6.28247507218746
 20
-144.9930659454541
 30
0.0
 10
-7.361211373698106
 20
-143.1692415035733
 30
0.0
 10
-8.072085922603597
 20
-141.7712200410121
 30
0.0
 10
-8.959384723861097
 20
-139.7877531155354
 30
0.0
 10
-9.136805841724687
 20
-139.3790495245463
 30
0.0
 10
-9.48835000736513
 20
-138.5457230861783
 30
0.0
 10
-9.662904010956346
 20
-138.1201570621905
 30
0.0
 10
-10.18330537484111
 20
-136.8171742741795
 30
0.0
 10
-10.52589903573683
 20
-135.9135186694937
 30
0.0
 10
-11.54348887471131
 20
-133.0992104323511
 30
0.0
 10
-12.20832026552969
 20
-131.0859724953229
 30
0.0
 10
-13.03072869277244
 20
-128.3925481403894
 30
0.0
 10
-13.19499210562416
 20
-127.8441789108861
 30
0.0
 10
-13.51973971852104
 20
-126.7400185886407
 30
0.0
 10
-13.68059018956329
 20
-126.1830572504669
 30
0.0
 10
-14.15895927482237
 20
-124.4978007827988
 30
0.0
 10
-14.47230470852949
 20
-123.3551591798862
 30
0.0
 10
-15.39834230147644
 20
-119.8710054597023
 30
0.0
 10
-15.99710378844937
 20
-117.4736852570438
 30
0.0
 10
-16.58313114841217
 20
-114.9999696218531
 30
0.0
  0
LINE
  5
198
330
23
100
AcDbEntity
  8
0
  6
Continuous
 62
     7
370
    25
100
AcDbLine
 10
66.0
 20
0.0
 30
0.0
 11
66.0
 21
28.0
 31
0.0
  0
LINE
  5
199
330
23
100
AcDbEntity
  8
0
  6
Continuous
 62
     7
370
    25
100
AcDbLine
 10
-66.0
 20
28.0
 30
0.0
 11
-66.0
 21
0.0
 31
0.0
  0
LINE
  5
19A
330
23
100
AcDbEntity
  8
0
  6
Continuous
 62
     7
370
    25
100
AcDbLine
 10
-61.5
 20
0.0
 30
0.0
 11
-58.5
 21
-15.0
 31
0.0
  0
LINE
  5
19B
330
23
100
AcDbEntity
  8
0
  6
Continuous
 62
     7
370
    25
100
AcDbLine
 10
-58.5
 20
-15.0
 30
0.0
 11
-58.5
 21
-55.0
 31
0.0
  0
LINE
  5
19C
330
23
100
AcDbEntity
  8
0
  6
Continuous
 62
     7
370
    25
100
AcDbLine
 10
-58.5
 20
-55.0
 30
0.0
 11
-56.2496484465
 21
-65.0
 31
0.0
  0
LINE
  5
19D
330
23
100
AcDbEntity
  8
0
  6
Continuous
 62
     7
370
    25
100
AcDbLine
 10
-290.5
 20
-60.5
 30
0.0
 11
-293.5
 21
-60.5
 31
0.0
  0
LINE
  5
19E
330
23
100
AcDbEntity
  8
0
  6
Continuous
 62
     7
370
    25
100
AcDbLine
 10
-293.5
 20
-154.5
 30
0.0
 11
-290.5
 21
-154.5
 31
0.0
  0
LINE
  5
19F
330
23
100
AcDbEntity
  8
0
  6
Continuous
 62
     7
370
    25
100
AcDbLine
 10
-280.5
 20
-151.0
 30
0.0
 11
-274.5
 21
-151.0
 31
0.0
  0
LINE
  5
1A0
330
23
100
AcDbEntity
  8
0
  6
Continuous
 62
     7
370
    25
100
AcDbLine
 10
-274.5
 20
-64.0
 30
0.0
 11
-280.5
 21
-64.0
 31
0.0
  0
LINE
  5
1A1
330
23
100
AcDbEntity
  8
0
  6
Continuous
 62
     7
370
    25
100
AcDbLine
 10
-264.5
 20
-151.0
 30
0.0
 11
-254.5
 21
-151.0
 31
0.0
  0
LINE
  5
1A2
330
23
100
AcDbEntity
  8
0
  6
Continuous
 62
     7
370
    25
100
AcDbLine
 10
-254.5
 20
-64.0
 30
0.0
 11
-264.5
 21
-64.0
 31
0.0
  0
LINE
  5
1A3
330
23
100
AcDbEntity
  8
0
  6
Continuous
 62
     7
370
    25
100
AcDbLine
 10
-288.5
 20
-151.0
 30
0.0
 11
-282.5
 21
-151.0
 31
0.0
  0
LINE
  5
1A4
330
23
100
AcDbEntity
  8
0
  6
Continuous
 62
     7
370
    25
100
AcDbLine
 10
-282.5
 20
-64.0
 30
0.0
 11
-288.5
 21
-64.0
 31
0.0
  0
LINE
  5
1A5
330
23
100
AcDbEntity
  8
0
  6
Continuous
 62
     7
370
    25
100
AcDbLine
 10
-272.5
 20
-151.0
 30
0.0
 11
-266.5
 21
-151.0
 31
0.0
  0
LINE
  5
1A6
330
23
100
AcDbEntity
  8
0
  6
Continuous
 62
     7
370
    25
100
AcDbLine
 10
-266.5
 20
-64.0
 30
0.0
 11
-272.5
 21
-64.0
 31
0.0
  0
LINE
  5
1A7
330
23
100
AcDbEntity
  8
0
  6
Continuous
 62
     7
370
    25
100
AcDbLine
 10
-253.0
 20
-150.0
 30
0.0
 11
0.0
 21
-150.0
 31
0.0
  0
LINE
  5
1A8
330
23
100
AcDbEntity
  8
0
  6
Continuous
 62
     7
370
    25
100
AcDbLine
 10
-56.2005915493
 20
-65.0
 30
0.0
 11
-253.0
 21
-65.0
 31
0.0
  0
LINE
  5
1A9
330
23
100
AcDbEntity
  8
0
  6
Continuous
 62
     7
370
    25
100
AcDbLine
 10
-65.0
 20
29.0
 30
0.0
 11
64.9999999984
 21
29.0
 31
0.0
  0
LINE
  5
1AA
330
23
100
AcDbEntity
  8
0
  6
Continuous
 62
     7
370
    25
100
AcDbLine
 10
-66.0
 20
0.0
 30
0.0
 11
66.0
 21
0.0
 31
0.0
  0
LINE
  5
1AB
330
23
100
AcDbEntity
  8
0
  6
Continuous
 62
     7
370
    25
100
AcDbLine
 10
-254.0
 20
-160.5
 30
0.0
 11
-254.0
 21
-54.5
 31
0.0
  0
LINE
  5
1AC
330
23
100
AcDbEntity
  8
0
  6
Continuous
 62
     7
370
    25
100
AcDbLine
 10
-253.0
 20
-54.5
 30
0.0
 11
-253.0
 21
-160.5
 31
0.0
  0
LINE
  5
1AD
330
23
100
AcDbEntity
  8
0
  6
Continuous
 62
     7
370
    25
100
AcDbLine
 10
-273.0
 20
-55.5
 30
0.0
 11
-273.0
 21
-159.5
 31
0.0
  0
LINE
  5
1AE
330
23
100
AcDbEntity
  8
0
  6
Continuous
 62
     7
370
    25
100
AcDbLine
 10
-274.0
 20
-159.5
 30
0.0
 11
-274.0
 21
-55.5
 31
0.0
  0
LINE
  5
1AF
330
23
100
AcDbEntity
  8
0
  6
Continuous
 62
     7
370
    25
100
AcDbLine
 10
-265.0
 20
-55.5
 30
0.0
 11
-265.0
 21
-159.5
 31
0.0
  0
LINE
  5
1B0
330
23
100
AcDbEntity
  8
0
  6
Continuous
 62
     7
370
    25
100
AcDbLine
 10
-266.0
 20
-159.5
 30
0.0
 11
-266.0
 21
-55.5
 31
0.0
  0
LINE
  5
1B1
330
23
100
AcDbEntity
  8
0
  6
Continuous
 62
     7
370
    25
100
AcDbLine
 10
-281.0
 20
-55.5
 30
0.0
 11
-281.0
 21
-159.5
 31
0.0
  0
LINE
  5
1B2
330
23
100
AcDbEntity
  8
0
  6
Continuous
 62
     7
370
    25
100
AcDbLine
 10
-282.0
 20
-159.5
 30
0.0
 11
-282.0
 21
-55.5
 31
0.0
  0
LINE
  5
1B3
330
23
100
AcDbEntity
  8
0
  6
Continuous
 62
     7
370
    25
100
AcDbLine
 10
-290.0
 20
-159.5
 30
0.0
 11
-290.0
 21
-55.5
 31
0.0
  0
LINE
  5
1B4
330
23
100
AcDbEntity
  8
0
  6
Continuous
 62
     7
370
    25
100
AcDbLine
 10
-289.0
 20
-55.5
 30
0.0
 11
-289.0
 21
-159.5
 31
0.0
  0
LINE
  5
1B5
330
23
100
AcDbEntity
  8
0
  6
Continuous
 62
     7
370
    25
100
AcDbLine
 10
-294.0
 20
-154.0
 30
0.0
 11
-294.0
 21
-61.0
 31
0.0
  0
LINE
  5
1B6
330
23
100
AcDbEntity
  8
0
  6
Continuous
 62
     8
370
    25
100
AcDbLine
 10
66.0
 20
28.0
 30
0.0
 11
-66.0
 21
28.0
 31
0.0
  0
LINE
  5
1B7
330
23
100
AcDbEntity
  8
0
  6
Continuous
 62
     8
370
    25
100
AcDbLine
 10
-253.5
 20
-161.0
 30
0.0
 11
-253.5
 21
-54.0
 31
0.0
  0
LINE
  5
1B8
330
23
100
AcDbEntity
  8
0
  6
Continuous
 62
     8
370
    25
100
AcDbLine
 10
-273.5
 20
-55.0
 30
0.0
 11
-273.5
 21
-160.0
 31
0.0
  0
LINE
  5
1B9
330
23
100
AcDbEntity
  8
0
  6
Continuous
 62
     8
370
    25
100
AcDbLine
 10
-265.5
 20
-55.0
 30
0.0
 11
-265.5
 21
-160.0
 31
0.0
  0
LINE
  5
1BA
330
23
100
AcDbEntity
  8
0
  6
Continuous
 62
     8
370
    25
100
AcDbLine
 10
-281.5
 20
-55.0
 30
0.0
 11
-281.5
 21
-160.0
 31
0.0
  0
LINE
  5
1BB
330
23
100
AcDbEntity
  8
0
  6
Continuous
 62
     8
370
    25
100
AcDbLine
 10
-289.5
 20
-55.0
 30
0.0
 11
-289.5
 21
-160.0
 31
0.0
  0
LINE
  5
1BC
330
23
100
AcDbEntity
  8
0
  6
Continuous
 62
     8
370
    25
100
AcDbLine
 10
-290.5
 20
-154.5
 30
0.0
 11
-290.5
 21
-60.5
 31
0.0
  0
LINE
  5
1BD
330
23
100
AcDbEntity
  8
0
  6
Continuous
 62
     8
370
    25
100
AcDbLine
 10
-293.5
 20
-60.5
 30
0.0
 11
-293.5
 21
-154.5
 31
0.0
  0
LINE
  5
1BE
330
23
100
AcDbEntity
  8
0
  6
Continuous
 62
     8
370
    25
100
AcDbLine
 10
-274.5
 20
-151.0
 30
0.0
 11
-274.5
 21
-64.0
 31
0.0
  0
LINE
  5
1BF
330
23
100
AcDbEntity
  8
0
  6
Continuous
 62
     8
370
    25
100
AcDbLine
 10
-272.5
 20
-64.0
 30
0.0
 11
-272.5
 21
-151.0
 31
0.0
  0
LINE
  5
1C0
330
23
100
AcDbEntity
  8
0
  6
Continuous
 62
     8
370
    25
100
AcDbLine
 10
-254.5
 20
-151.0
 30
0.0
 11
-254.5
 21
-64.0
 31
0.0
  0
LINE
  5
1C1
330
23
100
AcDbEntity
  8
0
  6
Continuous
 62
     8
370
    25
100
AcDbLine
 10
-288.5
 20
-64.0
 30
0.0
 11
-288.5
 21
-151.0
 31
0.0
  0
LINE
  5
1C2
330
23
100
AcDbEntity
  8
0
  6
Continuous
 62
     8
370
    25
100
AcDbLine
 10
-266.5
 20
-151.0
 30
0.0
 11
-266.5
 21
-64.0
 31
0.0
  0
LINE
  5
1C3
330
23
100
AcDbEntity
  8
0
  6
Continuous
 62
     8
370
    25
100
AcDbLine
 10
-264.5
 20
-64.0
 30
0.0
 11
-264.5
 21
-151.0
 31
0.0
  0
LINE
  5
1C4
330
23
100
AcDbEntity
  8
0
  6
Continuous
 62
     8
370
    25
100
AcDbLine
 10
-282.5
 20
-151.0
 30
0.0
 11
-282.5
 21
-64.0
 31
0.0
  0
LINE
  5
1C5
330
23
100
AcDbEntity
  8
0
  6
Continuous
 62
     8
370
    25
100
AcDbLine
 10
-280.5
 20
-64.0
 30
0.0
 11
-280.5
 21
-151.0
 31
0.0
  0
ARC
  5
1C6
330
23
100
AcDbEntity
  8
0
  6
Continuous
 62
     7
370
    25
100
AcDbCircle
 10
-65.0
 20
28.0
 30
0.0
 40
0.9999999999999858
100
AcDbArc
 50
90.0
 51
180.0
  0
ARC
  5
1C7
330
23
100
AcDbEntity
  8
0
  6
Continuous
 62
     7
370
    25
100
AcDbCircle
 10
65.0
 20
28.0
 30
0.0
 40
1.000000000000021
100
AcDbArc
 50
0.0
 51
90.0
  0
ARC
  5
1C8
330
23
100
AcDbEntity
  8
0
  6
Continuous
 62
     7
370
    25
100
AcDbCircle
 10
-253.5
 20
-54.5
 30
0.0
 40
0.5
100
AcDbArc
 50
0.0
 51
180.0
  0
ARC
  5
1C9
330
23
100
AcDbEntity
  8
0
  6
Continuous
 62
     7
370
    25
100
AcDbCircle
 10
-253.5
 20
-160.5
 30
0.0
 40
0.5000000000000568
100
AcDbArc
 50
180.0
 51
360.0
  0
ARC
  5
1CA
330
23
100
AcDbEntity
  8
0
  6
Continuous
 62
     7
370
    25
100
AcDbCircle
 10
-273.5
 20
-55.5
 30
0.0
 40
0.5000000000000568
100
AcDbArc
 50
0.0
 51
180.0
  0
ARC
  5
1CB
330
23
100
AcDbEntity
  8
0
  6
Continuous
 62
     7
370
    25
100
AcDbCircle
 10
-273.5
 20
-159.5
 30
0.0
 40
0.5000000000000568
100
AcDbArc
 50
180.0
 51
360.0
  0
ARC
  5
1CC
330
23
100
AcDbEntity
  8
0
  6
Continuous
 62
     7
370
    25
100
AcDbCircle
 10
-265.5
 20
-55.5
 30
0.0
 40
0.5000000000000568
100
AcDbArc
 50
0.0
 51
180.0
  0
ARC
  5
1CD
330
23
100
AcDbEntity
  8
0
  6
Continuous
 62
     7
370
    25
100
AcDbCircle
 10
-265.5
 20
-159.5
 30
0.0
 40
0.5000000000000568
100
AcDbArc
 50
180.0
 51
360.0
  0
ARC
  5
1CE
330
23
100
AcDbEntity
  8
0
  6
Continuous
 62
     7
370
    25
100
AcDbCircle
 10
-281.5
 20
-55.5
 30
0.0
 40
0.5
100
AcDbArc
 50
360.0
 51
180.0
  0
ARC
  5
1CF
330
23
100
AcDbEntity
  8
0
  6
Continuous
 62
     7
370
    25
100
AcDbCircle
 10
-281.5
 20
-159.5
 30
0.0
 40
0.5
100
AcDbArc
 50
180.0
 51
0.0
  0
ARC
  5
1D0
330
23
100
AcDbEntity
  8
0
  6
Continuous
 62
     7
370
    25
100
AcDbCircle
 10
-289.5
 20
-55.5
 30
0.0
 40
0.5
100
AcDbArc
 50
360.0
 51
180.0
  0
ARC
  5
1D1
330
23
100
AcDbEntity
  8
0
  6
Continuous
 62
     7
370
    25
100
AcDbCircle
 10
-289.5
 20
-159.5
 30
0.0
 40
0.5000000000000568
100
AcDbArc
 50
180.0
 51
0.0
  0
ARC
  5
1D2
330
23
100
AcDbEntity
  8
0
  6
Continuous
 62
     7
370
    25
100
AcDbCircle
 10
-290.5
 20
-60.0
 30
0.0
 40
0.4999999999999503
100
AcDbArc
 50
270.0
 51
0.0
  0
ARC
  5
1D3
330
23
100
AcDbEntity
  8
0
  6
Continuous
 62
     7
370
    25
100
AcDbCircle
 10
-290.5
 20
-155.0
 30
0.0
 40
0.4999999999999432
100
AcDbArc
 50
360.0
 51
90.0
  0
ARC
  5
1D4
330
23
100
AcDbEntity
  8
0
  6
Continuous
 62
     7
370
    25
100
AcDbCircle
 10
-293.5
 20
-154.0
 30
0.0
 40
0.5000000000000568
100
AcDbArc
 50
180.0
 51
270.0
  0
ARC
  5
1D5
330
23
100
AcDbEntity
  8
0
  6
Continuous
 62
     7
370
    25
100
AcDbCircle
 10
-293.5
 20
-61.0
 30
0.0
 40
0.5000000000000142
100
AcDbArc
 50
90.0
 51
180.0
  0
ARC
  5
1D6
330
23
100
AcDbEntity
  8
0
  6
Continuous
 62
     7
370
    25
100
AcDbCircle
 10
0.0
 20
-103.5714285714
 30
0.0
 40
46.42857142857147
100
AcDbArc
 50
270.0019721162
 51
345.7494028318
  0
ARC
  5
1D7
330
23
100
AcDbEntity
  8
0
  6
Continuous
 62
     7
370
    25
100
AcDbCircle
 10
-274.5
 20
-63.5
 30
0.0
 40
0.500000000000071
100
AcDbArc
 50
270.0
 51
360.0
  0
ARC
  5
1D8
330
23
100
AcDbEntity
  8
0
  6
Continuous
 62
     7
370
    25
100
AcDbCircle
 10
-274.5
 20
-151.5
 30
0.0
 40
0.5
100
AcDbArc
 50
0.0
 51
90.0
  0
ARC
  5
1D9
330
23
100
AcDbEntity
  8
0
  6
Continuous
 62
     7
370
    25
100
AcDbCircle
 10
-272.5
 20
-63.5
 30
0.0
 40
0.4999999999999005
100
AcDbArc
 50
180.0
 51
270.0
  0
ARC
  5
1DA
330
23
100
AcDbEntity
  8
0
  6
Continuous
 62
     7
370
    25
100
AcDbCircle
 10
-272.5
 20
-151.5
 30
0.0
 40
0.4999999999998863
100
AcDbArc
 50
90.0
 51
180.0
  0
ARC
  5
1DB
330
23
100
AcDbEntity
  8
0
  6
Continuous
 62
     7
370
    25
100
AcDbCircle
 10
-254.5
 20
-63.5
 30
0.0
 40
0.5000000000000142
100
AcDbArc
 50
270.0
 51
0.0
  0
ARC
  5
1DC
330
23
100
AcDbEntity
  8
0
  6
Continuous
 62
     7
370
    25
100
AcDbCircle
 10
-254.5
 20
-151.5
 30
0.0
 40
0.5
100
AcDbArc
 50
0.0
 51
90.0
  0
ARC
  5
1DD
330
23
100
AcDbEntity
  8
0
  6
Continuous
 62
     7
370
    25
100
AcDbCircle
 10
-288.5
 20
-63.5
 30
0.0
 40
0.5000000000000142
100
AcDbArc
 50
180.0
 51
270.0
  0
ARC
  5
1DE
330
23
100
AcDbEntity
  8
0
  6
Continuous
 62
     7
370
    25
100
AcDbCircle
 10
-288.5
 20
-151.5
 30
0.0
 40
0.5
100
AcDbArc
 50
90.0
 51
180.0
  0
ARC
  5
1DF
330
23
100
AcDbEntity
  8
0
  6
Continuous
 62
     7
370
    25
100
AcDbCircle
 10
-266.5
 20
-63.5
 30
0.0
 40
0.500000000000071
100
AcDbArc
 50
270.0
 51
360.0
  0
ARC
  5
1E0
330
23
100
AcDbEntity
  8
0
  6
Continuous
 62
     7
370
    25
100
AcDbCircle
 10
-266.5
 20
-151.5
 30
0.0
 40
0.5
100
AcDbArc
 50
0.0
 51
90.0
  0
ARC
  5
1E1
330
23
100
AcDbEntity
  8
0
  6
Continuous
 62
     7
370
    25
100
AcDbCircle
 10
-264.5
 20
-63.5
 30
0.0
 40
0.5
100
AcDbArc
 50
180.0
 51
270.0
  0
ARC
  5
1E2
330
23
100
AcDbEntity
  8
0
  6
Continuous
 62
     7
370
    25
100
AcDbCircle
 10
-264.5
 20
-151.5
 30
0.0
 40
0.5
100
AcDbArc
 50
90.0
 51
180.0
  0
ARC
  5
1E3
330
23
100
AcDbEntity
  8
0
  6
Continuous
 62
     7
370
    25
100
AcDbCircle
 10
-282.5
 20
-63.5
 30
0.0
 40
0.5
100
AcDbArc
 50
270.0
 51
0.0
  0
ARC
  5
1E4
330
23
100
AcDbEntity
  8
0
  6
Continuous
 62
     7
370
    25
100
AcDbCircle
 10
-282.5
 20
-151.5
 30
0.0
 40
0.4999999999999432
100
AcDbArc
 50
360.0
 51
90.0
  0
ARC
  5
1E5
330
23
100
AcDbEntity
  8
0
  6
Continuous
 62
     7
370
    25
100
AcDbCircle
 10
-280.5
 20
-63.5
 30
0.0
 40
0.5000000000000142
100
AcDbArc
 50
180.0
 51
270.0
  0
ARC
  5
1E6
330
23
100
AcDbEntity
  8
0
  6
Continuous
 62
     7
370
    25
100
AcDbCircle
 10
-280.5
 20
-151.5
 30
0.0
 40
0.5
100
AcDbArc
 50
90.0
 51
180.0
  0
VIEWPORT
  5
1E9
330
23
100
AcDbEntity
  8
0
100
AcDbViewport
 10
0.0
 20
0.0
 30
0.0
 40
205.6
 41
156.0
 68
     1
 69
     1
 12
0.0
 22
-114.0
 13
0.0
 23
0.0
 14
10.0
 24
10.0
 15
10.0
 25
10.0
 16
0.0
 26
0.0
 36
1.0
 17
0.0
 27
0.0
 37
0.0
 42
50.0
 43
0.0
 44
0.0
 45
367.2
 50
0.0
 51
0.0
 72
   100
 90
   557152
  1

281
     0
 71
     1
 74
     0
110
0.0
120
0.0
130
0.0
111
1.0
121
0.0
131
0.0
112
0.0
122
1.0
132
0.0
 79
     0
146
0.0
  0
ENDBLK
  5
25
330
23
100
AcDbEntity
  8
0
100
AcDbBlockEnd
  0
ENDSEC
  0
SECTION
  2
ENTITIES
  0
CIRCLE
  5
A7
330
1F
100
AcDbEntity
  8
0
  6
Continuous
 62
     7
370
    25
100
AcDbCircle
 10
0.0
 20
0.0
 30
0.0
 40
55.99999999999998
  0
CIRCLE
  5
A8
330
1F
100
AcDbEntity
  8
0
  6
Continuous
 62
     7
370
    25
100
AcDbCircle
 10
0.0
 20
0.0
 30
0.0
 40
57.0
  0
CIRCLE
  5
A9
330
1F
100
AcDbEntity
  8
0
  6
Continuous
 62
     7
370
    25
100
AcDbCircle
 10
0.0
 20
0.0
 30
0.0
 40
64.99999999999994
  0
CIRCLE
  5
AA
330
1F
100
AcDbEntity
  8
0
  6
Continuous
 62
     7
370
    25
100
AcDbCircle
 10
0.0
 20
0.0
 30
0.0
 40
66.00000000000001
  0
SPLINE
  5
B6
330
1F
100
AcDbEntity
  8
0
  6
Continuous
 62
     7
370
    25
100
AcDbSpline
210
0.0
220
0.0
230
1.0
 70
     8
 71
     3
 72
    19
 73
    15
 74
     0
 42
0.000000001
 43
0.00000001
 40
0.0
 40
0.0
 40
0.0
 40
0.0
 40
0.0023479877522401
 40
0.1112281267245768
 40
0.2204506627416257
 40
0.3293377566010441
 40
0.4395013892451467
 40
0.550010603690841
 40
0.6601788515776068
 40
0.7431673109672237
 40
0.8261559906691903
 40
0.9115552628847405
 40
0.9969546205996436
 40
1.0
 40
1.0
 40
1.0
 40
1.0
 10
35.17297132981219
 20
-12.66965363334908
 30
0.0
 10
35.15800498433122
 20
-12.66074677494221
 30
0.0
 10
34.44902404089466
 20
-12.23881392003159
 30
0.0
 10
32.60468673033782
 20
-11.36510967133027
 30
0.0
 10
29.66143751728796
 20
-10.05296051510517
 30
0.0
 10
26.26508879217721
 20
-8.700043434560808
 30
0.0
 10
22.51752550391613
 20
-7.315764344398124
 30
0.0
 10
18.45858528321186
 20
-5.903562958718703
 30
0.0
 10
14.51227708849767
 20
-4.590631442037363
 30
0.0
 10
10.78679623467123
 20
-3.387081794381019
 30
0.0
 10
7.315271430814528
 20
-2.285494756467624
 30
0.0
 10
3.754030015803727
 20
-1.169298715843203
 30
0.0
 10
1.294128454387542
 20
-0.4030575761984484
 30
0.0
 10
0.0430769167917019
 20
-0.0134163479778987
 30
0.0
 10
-0.0000000000000071
 20
0.0
 30
0.0
  0
SPLINE
  5
B7
330
1F
100
AcDbEntity
  8
0
  6
Continuous
 62
     7
370
    25
100
AcDbSpline
210
0.0
220
0.0
230
1.0
 70
     8
 71
     3
 72
    19
 73
    15
 74
     0
 42
0.000000001
 43
0.00000001
 40
0.0
 40
0.0
 40
0.0
 40
0.0
 40
0.0030394844701549
 40
0.0883007239461704
 40
0.1735618779532027
 40
0.2564148531579663
 40
0.3392676081447908
 40
0.4492221375432023
 40
0.5595169705929336
 40
0.6694668928596804
 40
0.7781426769889126
 40
0.8871532514744869
 40
0.995822093593447
 40
1.0
 40
1.0
 40
1.0
 40
1.0
 10
-0.0000000000000071
 20
0.0
 30
0.0
 10
-0.043076916712087
 20
-0.0134163479514754
 30
0.0
 10
-1.2945137864822
 20
-0.4031775882082089
 30
0.0
 10
-3.755186950988452
 20
-1.169659117816246
 30
0.0
 10
-7.317525726072884
 20
-2.286203525357855
 30
0.0
 10
-10.79006458557263
 20
-3.388125254677687
 30
0.0
 10
-14.51610135453562
 20
-4.591882614771961
 30
0.0
 10
-18.46254170042484
 20
-5.904904699249661
 30
0.0
 10
-22.5211836864489
 20
-7.31707868112054
 30
0.0
 10
-26.26852661497431
 20
-8.701336747337155
 30
0.0
 10
-29.66415278154126
 20
-10.0541895523264
 30
0.0
 10
-32.60835246152311
 20
-11.36641610827774
 30
0.0
 10
-34.46436341223036
 20
-12.24708650994973
 30
0.0
 10
-35.18371446425741
 20
-12.67587502938068
 30
0.0
 10
-35.21034687864325
 20
-12.69174999543682
 30
0.0
  0
CIRCLE
  5
B8
330
1F
100
AcDbEntity
  8
0
  6
Continuous
 62
     7
370
    25
100
AcDbCircle
 10
0.0
 20
0.0
 30
0.0
 40
43.5
  0
CIRCLE
  5
B9
330
1F
100
AcDbEntity
  8
0
  6
Continuous
 62
     7
370
    25
100
AcDbCircle
 10
0.0
 20
0.0
 30
0.0
 40
44.50000000000004
  0
CIRCLE
  5
BA
330
1F
100
AcDbEntity
  8
0
  6
Continuous
 62
     7
370
    25
100
AcDbCircle
 10
0.0
 20
0.0
 30
0.0
 40
42.49999999999998
  0
CIRCLE
  5
BB
330
1F
100
AcDbEntity
  8
0
  6
Continuous
 62
     7
370
    25
100
AcDbCircle
 10
0.0
 20
0.0
 30
0.0
 40
38.50000000000005
  0
CIRCLE
  5
BC
330
1F
100
AcDbEntity
  8
0
  6
Continuous
 62
     7
370
    25
100
AcDbCircle
 10
0.0
 20
0.0
 30
0.0
 40
37.50000000000002
  0
LINE
  5
CC
330
1F
100
AcDbEntity
  8
0
  6
Continuous
 62
     7
370
    25
100
AcDbLine
 10
-47.0
 20
-290.5
 30
0.0
 11
-47.0
 21
-293.5
 31
0.0
  0
LINE
  5
CD
330
1F
100
AcDbEntity
  8
0
  6
Continuous
 62
     7
370
    25
100
AcDbLine
 10
47.0
 20
-293.5
 30
0.0
 11
47.0
 21
-290.5
 31
0.0
  0
LINE
  5
CE
330
1F
100
AcDbEntity
  8
0
  6
Continuous
 62
     7
370
    25
100
AcDbLine
 10
43.5
 20
-264.5
 30
0.0
 11
43.5
 21
-254.5
 31
0.0
  0
LINE
  5
CF
330
1F
100
AcDbEntity
  8
0
  6
Continuous
 62
     7
370
    25
100
AcDbLine
 10
-43.5
 20
-254.5
 30
0.0
 11
-43.5
 21
-264.5
 31
0.0
  0
LINE
  5
D0
330
1F
100
AcDbEntity
  8
0
  6
Continuous
 62
     7
370
    25
100
AcDbLine
 10
43.5
 20
-280.5
 30
0.0
 11
43.5
 21
-274.5
 31
0.0
  0
LINE
  5
D1
330
1F
100
AcDbEntity
  8
0
  6
Continuous
 62
     7
370
    25
100
AcDbLine
 10
-43.5
 20
-274.5
 30
0.0
 11
-43.5
 21
-280.5
 31
0.0
  0
LINE
  5
D2
330
1F
100
AcDbEntity
  8
0
  6
Continuous
 62
     7
370
    25
100
AcDbLine
 10
43.5
 20
-288.5
 30
0.0
 11
43.5
 21
-282.5
 31
0.0
  0
LINE
  5
D3
330
1F
100
AcDbEntity
  8
0
  6
Continuous
 62
     7
370
    25
100
AcDbLine
 10
-43.5
 20
-282.5
 30
0.0
 11
-43.5
 21
-288.5
 31
0.0
  0
LINE
  5
D4
330
1F
100
AcDbEntity
  8
0
  6
Continuous
 62
     7
370
    25
100
AcDbLine
 10
43.5
 20
-272.5
 30
0.0
 11
43.5
 21
-266.5
 31
0.0
  0
LINE
  5
D5
330
1F
100
AcDbEntity
  8
0
  6
Continuous
 62
     7
370
    25
100
AcDbLine
 10
-43.5
 20
-266.5
 30
0.0
 11
-43.5
 21
-272.5
 31
0.0
  0
LINE
  5
D6
330
1F
100
AcDbEntity
  8
0
  6
Continuous
 62
     7
370
    25
100
AcDbLine
 10
42.5
 20
-253.0
 30
0.0
 11
42.5
 21
-50.4950492623
 31
0.0
  0
LINE
  5
D7
330
1F
100
AcDbEntity
  8
0
  6
Continuous
 62
     7
370
    25
100
AcDbLine
 10
-42.5
 20
-50.4950492623
 30
0.0
 11
-42.5
 21
-253.0
 31
0.0
  0
LINE
  5
D8
330
1F
100
AcDbEntity
  8
0
  6
Continuous
 62
     7
370
    25
100
AcDbLine
 10
-53.0
 20
-254.0
 30
0.0
 11
53.0
 21
-254.0
 31
0.0
  0
LINE
  5
D9
330
1F
100
AcDbEntity
  8
0
  6
Continuous
 62
     7
370
    25
100
AcDbLine
 10
-53.0
 20
-253.0
 30
0.0
 11
52.9999999838
 21
-253.0
 31
0.0
  0
LINE
  5
DA
330
1F
100
AcDbEntity
  8
0
  6
Continuous
 62
     7
370
    25
100
AcDbLine
 10
-52.0
 20
-273.0
 30
0.0
 11
51.9999999968
 21
-273.0
 31
0.0
  0
LINE
  5
DB
330
1F
100
AcDbEntity
  8
0
  6
Continuous
 62
     7
370
    25
100
AcDbLine
 10
51.9999999968
 20
-274.0
 30
0.0
 11
-52.0
 21
-274.0
 31
0.0
  0
LINE
  5
DC
330
1F
100
AcDbEntity
  8
0
  6
Continuous
 62
     7
370
    25
100
AcDbLine
 10
-52.0
 20
-265.0
 30
0.0
 11
51.9999999968
 21
-265.0
 31
0.0
  0
LINE
  5
DD
330
1F
100
AcDbEntity
  8
0
  6
Continuous
 62
     7
370
    25
100
AcDbLine
 10
51.9999999968
 20
-266.0
 30
0.0
 11
-52.0
 21
-266.0
 31
0.0
  0
LINE
  5
DE
330
1F
100
AcDbEntity
  8
0
  6
Continuous
 62
     7
370
    25
100
AcDbLine
 10
-52.0
 20
-281.0
 30
0.0
 11
51.9999999968
 21
-281.0
 31
0.0
  0
LINE
  5
DF
330
1F
100
AcDbEntity
  8
0
  6
Continuous
 62
     7
370
    25
100
AcDbLine
 10
51.9999999968
 20
-282.0
 30
0.0
 11
-52.0
 21
-282.0
 31
0.0
  0
LINE
  5
E0
330
1F
100
AcDbEntity
  8
0
  6
Continuous
 62
     7
370
    25
100
AcDbLine
 10
51.9999999968
 20
-290.0
 30
0.0
 11
-52.0
 21
-290.0
 31
0.0
  0
LINE
  5
E1
330
1F
100
AcDbEntity
  8
0
  6
Continuous
 62
     7
370
    25
100
AcDbLine
 10
-52.0
 20
-289.0
 30
0.0
 11
51.9999999968
 21
-289.0
 31
0.0
  0
LINE
  5
E2
330
1F
100
AcDbEntity
  8
0
  6
Continuous
 62
     7
370
    25
100
AcDbLine
 10
46.5
 20
-294.0
 30
0.0
 11
-46.4999999768
 21
-294.0
 31
0.0
  0
LINE
  5
E3
330
1F
100
AcDbEntity
  8
0
  6
Continuous
 62
     8
370
    25
100
AcDbLine
 10
53.5
 20
-253.5
 30
0.0
 11
-53.5
 21
-253.5
 31
0.0
  0
LINE
  5
E4
330
1F
100
AcDbEntity
  8
0
  6
Continuous
 62
     8
370
    25
100
AcDbLine
 10
-52.5
 20
-273.5
 30
0.0
 11
52.5
 21
-273.5
 31
0.0
  0
LINE
  5
E5
330
1F
100
AcDbEntity
  8
0
  6
Continuous
 62
     8
370
    25
100
AcDbLine
 10
-52.5
 20
-265.5
 30
0.0
 11
52.5
 21
-265.5
 31
0.0
  0
LINE
  5
E6
330
1F
100
AcDbEntity
  8
0
  6
Continuous
 62
     8
370
    25
100
AcDbLine
 10
-52.5
 20
-281.5
 30
0.0
 11
52.5
 21
-281.5
 31
0.0
  0
LINE
  5
E7
330
1F
100
AcDbEntity
  8
0
  6
Continuous
 62
     8
370
    25
100
AcDbLine
 10
-52.5
 20
-289.5
 30
0.0
 11
52.5
 21
-289.5
 31
0.0
  0
LINE
  5
E8
330
1F
100
AcDbEntity
  8
0
  6
Continuous
 62
     8
370
    25
100
AcDbLine
 10
47.0
 20
-290.5
 30
0.0
 11
-47.0
 21
-290.5
 31
0.0
  0
LINE
  5
E9
330
1F
100
AcDbEntity
  8
0
  6
Continuous
 62
     8
370
    25
100
AcDbLine
 10
-47.0
 20
-293.5
 30
0.0
 11
47.0
 21
-293.5
 31
0.0
  0
LINE
  5
EA
330
1F
100
AcDbEntity
  8
0
  6
Continuous
 62
     8
370
    25
100
AcDbLine
 10
43.5
 20
-274.5
 30
0.0
 11
-43.5
 21
-274.5
 31
0.0
  0
LINE
  5
EB
330
1F
100
AcDbEntity
  8
0
  6
Continuous
 62
     8
370
    25
100
AcDbLine
 10
-43.5
 20
-272.5
 30
0.0
 11
43.5
 21
-272.5
 31
0.0
  0
LINE
  5
EC
330
1F
100
AcDbEntity
  8
0
  6
Continuous
 62
     8
370
    25
100
AcDbLine
 10
-43.5
 20
-288.5
 30
0.0
 11
43.5
 21
-288.5
 31
0.0
  0
LINE
  5
ED
330
1F
100
AcDbEntity
  8
0
  6
Continuous
 62
     8
370
    25
100
AcDbLine
 10
43.5
 20
-254.5
 30
0.0
 11
-43.5
 21
-254.5
 31
0.0
  0
LINE
  5
EE
330
1F
100
AcDbEntity
  8
0
  6
Continuous
 62
     8
370
    25
100
AcDbLine
 10
43.5
 20
-266.5
 30
0.0
 11
-43.5
 21
-266.5
 31
0.0
  0
LINE
  5
EF
330
1F
100
AcDbEntity
  8
0
  6
Continuous
 62
     8
370
    25
100
AcDbLine
 10
-43.5
 20
-264.5
 30
0.0
 11
43.5
 21
-264.5
 31
0.0
  0
LINE
  5
F0
330
1F
100
AcDbEntity
  8
0
  6
Continuous
 62
     8
370
    25
100
AcDbLine
 10
43.5
 20
-282.5
 30
0.0
 11
-43.5
 21
-282.5
 31
0.0
  0
LINE
  5
F1
330
1F
100
AcDbEntity
  8
0
  6
Continuous
 62
     8
370
    25
100
AcDbLine
 10
-43.5
 20
-280.5
 30
0.0
 11
43.5
 21
-280.5
 31
0.0
  0
ARC
  5
F2
330
1F
100
AcDbEntity
  8
0
  6
Continuous
 62
     7
370
    25
100
AcDbCircle
 10
-53.0
 20
-253.5
 30
0.0
 40
0.5
100
AcDbArc
 50
90.0
 51
270.0
  0
ARC
  5
F3
330
1F
100
AcDbEntity
  8
0
  6
Continuous
 62
     7
370
    25
100
AcDbCircle
 10
53.0
 20
-253.5
 30
0.0
 40
0.5
100
AcDbArc
 50
270.0
 51
90.0
  0
ARC
  5
F4
330
1F
100
AcDbEntity
  8
0
  6
Continuous
 62
     7
370
    25
100
AcDbCircle
 10
-52.0
 20
-273.5
 30
0.0
 40
0.5000000000000568
100
AcDbArc
 50
90.0
 51
270.0
  0
ARC
  5
F5
330
1F
100
AcDbEntity
  8
0
  6
Continuous
 62
     7
370
    25
100
AcDbCircle
 10
52.0
 20
-273.5
 30
0.0
 40
0.5000000000000568
100
AcDbArc
 50
270.0
 51
90.0
  0
ARC
  5
F6
330
1F
100
AcDbEntity
  8
0
  6
Continuous
 62
     7
370
    25
100
AcDbCircle
 10
-52.0
 20
-265.5
 30
0.0
 40
0.5000000000000568
100
AcDbArc
 50
90.0
 51
270.0
  0
ARC
  5
F7
330
1F
100
AcDbEntity
  8
0
  6
Continuous
 62
     7
370
    25
100
AcDbCircle
 10
52.0
 20
-265.5
 30
0.0
 40
0.5000000000000568
100
AcDbArc
 50
270.0
 51
90.0
  0
ARC
  5
F8
330
1F
100
AcDbEntity
  8
0
  6
Continuous
 62
     7
370
    25
100
AcDbCircle
 10
-52.0
 20
-281.5
 30
0.0
 40
0.5
100
AcDbArc
 50
90.0
 51
270.0
  0
ARC
  5
F9
330
1F
100
AcDbEntity
  8
0
  6
Continuous
 62
     7
370
    25
100
AcDbCircle
 10
52.0
 20
-281.5
 30
0.0
 40
0.5
100
AcDbArc
 50
270.0
 51
90.0
  0
ARC
  5
FA
330
1F
100
AcDbEntity
  8
0
  6
Continuous
 62
     7
370
    25
100
AcDbCircle
 10
-52.0
 20
-289.5
 30
0.0
 40
0.5
100
AcDbArc
 50
90.0
 51
270.0
  0
ARC
  5
FB
330
1F
100
AcDbEntity
  8
0
  6
Continuous
 62
     7
370
    25
100
AcDbCircle
 10
52.0
 20
-289.5
 30
0.0
 40
0.5000000000000568
100
AcDbArc
 50
270.0
 51
90.0
  0
ARC
  5
FC
330
1F
100
AcDbEntity
  8
0
  6
Continuous
 62
     7
370
    25
100
AcDbCircle
 10
-47.5
 20
-290.5
 30
0.0
 40
0.4999999999999432
100
AcDbArc
 50
360.0
 51
90.0
  0
ARC
  5
FD
330
1F
100
AcDbEntity
  8
0
  6
Continuous
 62
     7
370
    25
100
AcDbCircle
 10
47.5
 20
-290.5
 30
0.0
 40
0.4999999999999076
100
AcDbArc
 50
90.0
 51
180.0
  0
ARC
  5
FE
330
1F
100
AcDbEntity
  8
0
  6
Continuous
 62
     7
370
    25
100
AcDbCircle
 10
46.5
 20
-293.5
 30
0.0
 40
0.5000000000000284
100
AcDbArc
 50
270.0
 51
0.0
  0
ARC
  5
FF
330
1F
100
AcDbEntity
  8
0
  6
Continuous
 62
     7
370
    25
100
AcDbCircle
 10
-46.5
 20
-293.5
 30
0.0
 40
0.5000000000000284
100
AcDbArc
 50
180.0
 51
270.0
  0
ARC
  5
100
330
1F
100
AcDbEntity
  8
0
  6
Continuous
 62
     7
370
    25
100
AcDbCircle
 10
-44.0
 20
-274.5
 30
0.0
 40
0.5000000000000568
100
AcDbArc
 50
0.0
 51
90.0
  0
ARC
  5
101
330
1F
100
AcDbEntity
  8
0
  6
Continuous
 62
     7
370
    25
100
AcDbCircle
 10
44.0
 20
-274.5
 30
0.0
 40
0.5000000000000568
100
AcDbArc
 50
90.0
 51
180.0
  0
ARC
  5
102
330
1F
100
AcDbEntity
  8
0
  6
Continuous
 62
     7
370
    25
100
AcDbCircle
 10
-44.0
 20
-272.5
 30
0.0
 40
0.4999999999999432
100
AcDbArc
 50
270.0
 51
0.0
  0
ARC
  5
103
330
1F
100
AcDbEntity
  8
0
  6
Continuous
 62
     7
370
    25
100
AcDbCircle
 10
44.0
 20
-272.5
 30
0.0
 40
0.4999999999999432
100
AcDbArc
 50
180.0
 51
270.0
  0
ARC
  5
104
330
1F
100
AcDbEntity
  8
0
  6
Continuous
 62
     7
370
    25
100
AcDbCircle
 10
-44.0
 20
-288.5
 30
0.0
 40
0.5000000000000284
100
AcDbArc
 50
270.0
 51
0.0
  0
ARC
  5
105
330
1F
100
AcDbEntity
  8
0
  6
Continuous
 62
     7
370
    25
100
AcDbCircle
 10
44.0
 20
-288.5
 30
0.0
 40
0.5000000000000284
100
AcDbArc
 50
180.0
 51
270.0
  0
ARC
  5
106
330
1F
100
AcDbEntity
  8
0
  6
Continuous
 62
     7
370
    25
100
AcDbCircle
 10
-44.0
 20
-254.5
 30
0.0
 40
0.5000000000000213
100
AcDbArc
 50
0.0
 51
90.0
  0
ARC
  5
107
330
1F
100
AcDbEntity
  8
0
  6
Continuous
 62
     7
370
    25
100
AcDbCircle
 10
44.0
 20
-254.5
 30
0.0
 40
0.5000000000000213
100
AcDbArc
 50
90.0
 51
180.0
  0
ARC
  5
108
330
1F
100
AcDbEntity
  8
0
  6
Continuous
 62
     7
370
    25
100
AcDbCircle
 10
-44.0
 20
-266.5
 30
0.0
 40
0.5000000000000568
100
AcDbArc
 50
0.0
 51
90.0
  0
ARC
  5
109
330
1F
100
AcDbEntity
  8
0
  6
Continuous
 62
     7
370
    25
100
AcDbCircle
 10
44.0
 20
-266.5
 30
0.0
 40
0.5000000000000568
100
AcDbArc
 50
90.0
 51
180.0
  0
ARC
  5
10A
330
1F
100
AcDbEntity
  8
0
  6
Continuous
 62
     7
370
    25
100
AcDbCircle
 10
-44.0
 20
-264.5
 30
0.0
 40
0.5000000000000142
100
AcDbArc
 50
270.0
 51
0.0
  0
ARC
  5
10B
330
1F
100
AcDbEntity
  8
0
  6
Continuous
 62
     7
370
    25
100
AcDbCircle
 10
44.0
 20
-264.5
 30
0.0
 40
0.5000000000000071
100
AcDbArc
 50
180.0
 51
270.0
  0
ARC
  5
10C
330
1F
100
AcDbEntity
  8
0
  6
Continuous
 62
     7
370
    25
100
AcDbCircle
 10
-44.0
 20
-282.5
 30
0.0
 40
0.5
100
AcDbArc
 50
360.0
 51
90.0
  0
ARC
  5
10D
330
1F
100
AcDbEntity
  8
0
  6
Continuous
 62
     7
370
    25
100
AcDbCircle
 10
44.0
 20
-282.5
 30
0.0
 40
0.4999999999999432
100
AcDbArc
 50
90.0
 51
180.0
  0
ARC
  5
10E
330
1F
100
AcDbEntity
  8
0
  6
Continuous
 62
     7
370
    25
100
AcDbCircle
 10
-44.0
 20
-280.5
 30
0.0
 40
0.5000000000000284
100
AcDbArc
 50
270.0
 51
0.0
  0
ARC
  5
10F
330
1F
100
AcDbEntity
  8
0
  6
Continuous
 62
     7
370
    25
100
AcDbCircle
 10
44.0
 20
-280.5
 30
0.0
 40
0.5000000000000284
100
AcDbArc
 50
180.0
 51
270.0
  0
SPLINE
  5
114
330
1B
100
AcDbEntity
 67
     1
  8
0
  6
Continuous
 62
     7
370
    25
100
AcDbSpline
210
0.0
220
0.0
230
1.0
 70
     8
 71
     3
 72
     9
 73
     5
 74
     0
 42
0.000000001
 43
0.00000001
 40
0.0
 40
0.0
 40
0.0
 40
0.0
 40
0.5026376776902927
 40
1.0
 40
1.0
 40
1.0
 40
1.0
 10
-61.50012985545076
 20
0.0
 30
0.0
 10
-60.89815677581762
 20
-2.493335863367238
 30
0.0
 10
-59.70052853115575
 20
-7.453839172280617
 30
0.0
 10
-58.89884880768653
 20
-12.49347501411169
 30
0.0
 10
-58.50012351867328
 20
-15.00000000000002
 30
0.0
  0
SPLINE
  5
115
330
1B
100
AcDbEntity
 67
     1
  8
0
  6
Continuous
 62
     7
370
    25
100
AcDbSpline
210
0.0
220
0.0
230
1.0
 70
     8
 71
     3
 72
     9
 73
     5
 74
     0
 42
0.000000001
 43
0.00000001
 40
0.0
 40
0.0
 40
0.0
 40
0.0
 40
0.4973977410171176
 40
1.0
 40
1.0
 40
1.0
 40
1.0
 10
58.50012041418052
 20
-15.00000000000001
 30
0.0
 10
58.90020292005692
 20
-12.49356171944867
 30
0.0
 10
59.70455419245773
 20
-7.454459058013202
 30
0.0
 10
60.89952936887224
 20
-2.493426280743755
 30
0.0
 10
61.50012659196665
 20
0.0
 30
0.0
  0
SPLINE
  5
116
330
1B
100
AcDbEntity
 67
     1
  8
0
  6
Continuous
 62
     7
370
    25
100
AcDbSpline
210
0.0
220
0.0
230
1.0
 70
     8
 71
     3
 72
    11
 73
     7
 74
     0
 42
0.000000001
 43
0.00000001
 40
0.0
 40
0.0
 40
0.0
 40
0.0
 40
0.2545508410920072
 40
0.5114937240977365
 40
0.7715730892500995
 40
1.0
 40
1.0
 40
1.0
 40
1.0
 10
-58.500123519799
 20
-54.99999999999996
 30
0.0
 10
-58.31978292503955
 20
-58.33963419626253
 30
0.0
 10
-57.95740705535555
 20
-65.05028549422096
 30
0.0
 10
-56.2943888848322
 20
-75.0579716895837
 30
0.0
 10
-54.20972056944774
 20
-84.62587789550474
 30
0.0
 10
-52.40535389785967
 20
-90.78250670929442
 30
0.0
 10
-51.56162695926575
 20
-93.66136368604528
 30
0.0
  0
SPLINE
  5
117
330
1B
100
AcDbEntity
 67
     1
  8
0
  6
Continuous
 62
     7
370
    25
100
AcDbSpline
210
0.0
220
0.0
230
1.0
 70
     8
 71
     3
 72
    11
 73
     7
 74
     0
 42
0.000000001
 43
0.00000001
 40
0.0
 40
0.0
 40
0.0
 40
0.0
 40
0.221644708807575
 40
0.4839091322814179
 40
0.7431545051358233
 40
1.0
 40
1.0
 40
1.0
 40
1.0
 10
51.55375119674241
 20
-93.34113875485266
 30
0.0
 10
52.35545501687108
 20
-90.56808864585851
 30
0.0
 10
54.10578689725885
 20
-84.51378543584477
 30
0.0
 10
56.16723139988506
 20
-75.05503355798024
 30
0.0
 10
57.8629137832472
 20
-65.05023912043119
 30
0.0
 10
58.28837768861058
 20
-58.33967809686808
 30
0.0
 10
58.50012041485368
 20
-55.00000000000015
 30
0.0
  0
SPLINE
  5
118
330
1B
100
AcDbEntity
 67
     1
  8
0
  6
Continuous
 62
     7
370
    25
100
AcDbSpline
210
0.0
220
0.0
230
1.0
 70
     8
 71
     3
 72
    12
 73
     8
 74
     0
 42
0.000000001
 43
0.00000001
 40
0.0
 40
0.0
 40
0.0
 40
0.0
 40
0.1844293186799726
 40
0.361368212263814
 40
0.5314503569878201
 40
0.7736275353544685
 40
1.0
 40
1.0
 40
1.0
 40
1.0
 10
-58.50012352373045
 20
-15.00000000000002
 30
0.0
 10
-58.26805799953051
 20
-17.45162508186977
 30
0.0
 10
-57.81335207637022
 20
-22.25530477508442
 30
0.0
 10
-57.83997816496468
 20
-29.35510074597782
 30
0.0
 10
-58.10648106044206
 20
-37.21162297198547
 30
0.0
 10
-58.57442095587644
 20
-45.72467458357262
 30
0.0
 10
-58.5243260804907
 20
-51.97854154909081
 30
0.0
 10
-58.50012352143145
 20
-54.99999999999996
 30
0.0
  0
SPLINE
  5
119
330
1B
100
AcDbEntity
 67
     1
  8
0
  6
Continuous
 62
     7
370
    25
100
AcDbSpline
210
0.0
220
0.0
230
1.0
 70
     8
 71
     3
 72
    12
 73
     8
 74
     0
 42
0.000000001
 43
0.00000001
 40
0.0
 40
0.0
 40
0.0
 40
0.0
 40
0.2263706601542791
 40
0.4685447410197662
 40
0.6386153535799829
 40
0.8155531178539769
 40
1.0
 40
1.0
 40
1.0
 40
1.0
 10
58.50012041679949
 20
-55.00000000000014
 30
0.0
 10
58.51120031227302
 20
-51.9785294605276
 30
0.0
 10
58.53413361445818
 20
-45.72465305069971
 30
0.0
 10
58.06916232221965
 20
-37.21193028020516
 30
0.0
 10
57.81464086740016
 20
-29.35486110740868
 30
0.0
 10
57.80348872324082
 20
-22.25490265788608
 30
0.0
 10
58.26471528474099
 20
-17.45156995425942
 30
0.0
 10
58.50012041906085
 20
-15.00000000000001
 30
0.0
  0
CIRCLE
  5
11A
330
1B
100
AcDbEntity
 67
     1
  8
0
  6
Continuous
 62
     7
370
    25
100
AcDbCircle
 10
0.0
 20
-107.5
 30
0.0
 40
46.49999999999996
  0
CIRCLE
  5
11B
330
1B
100
AcDbEntity
 67
     1
  8
0
  6
Continuous
 62
     7
370
    25
100
AcDbCircle
 10
0.0
 20
-107.5
 30
0.0
 40
40.50000000000001
  0
CIRCLE
  5
11C
330
1B
100
AcDbEntity
 67
     1
  8
0
  6
Continuous
 62
     7
370
    25
100
AcDbCircle
 10
0.0
 20
-107.5
 30
0.0
 40
46.99999999999994
  0
CIRCLE
  5
11D
330
1B
100
AcDbEntity
 67
     1
  8
0
  6
Continuous
 62
     7
370
    25
100
AcDbCircle
 10
0.0
 20
-107.5
 30
0.0
 40
40.00000000000001
  0
CIRCLE
  5
11E
330
1B
100
AcDbEntity
 67
     1
  8
0
  6
Continuous
 62
     7
370
    25
100
AcDbCircle
 10
0.0
 20
-107.5
 30
0.0
 40
47.49999999999996
  0
CIRCLE
  5
11F
330
1B
100
AcDbEntity
 67
     1
  8
0
  6
Continuous
 62
     7
370
    25
100
AcDbCircle
 10
0.0
 20
-107.5
 30
0.0
 40
52.50000000000007
  0
CIRCLE
  5
120
330
1B
100
AcDbEntity
 67
     1
  8
0
  6
Continuous
 62
     7
370
    25
100
AcDbCircle
 10
0.0
 20
-107.5
 30
0.0
 40
52.00000000000001
  0
CIRCLE
  5
121
330
1B
100
AcDbEntity
 67
     1
  8
0
  6
Continuous
 62
     7
370
    25
100
AcDbCircle
 10
0.0
 20
-107.5
 30
0.0
 40
53.50000000000009
  0
CIRCLE
  5
122
330
1B
100
AcDbEntity
 67
     1
  8
0
  6
Continuous
 62
     7
370
    25
100
AcDbCircle
 10
0.0
 20
-107.5
 30
0.0
 40
52.99999999999999
  0
SPLINE
  5
127
330
1B
100
AcDbEntity
 67
     1
  8
0
  6
Continuous
 62
     7
370
    25
100
AcDbSpline
210
0.0
220
0.0
230
1.0
 70
    24
 71
     3
 72
    19
 73
    15
 74
     0
 42
0.000000001
 43
0.00000001
 40
0.0
 40
0.0
 40
0.0
 40
0.0
 40
0.0833513692126168
 40
0.166736110323664
 40
0.2501528153273164
 40
0.3335972464078567
 40
0.4170659988809744
 40
0.5005572603203936
 40
0.5840671600931011
 40
0.6675920964518474
 40
0.7511300701288725
 40
0.8346773965458447
 40
0.9182303689160966
 40
1.0
 40
1.0
 40
1.0
 40
1.0
 10
0.0000000000000063
 20
-15.0
 30
0.0
 10
-2.553101014389874
 20
-14.99999999999999
 30
0.0
 10
-7.660325243866992
 20
-14.99999999999997
 30
0.0
 10
-15.19146218033739
 20
-14.99999999999999
 30
0.0
 10
-22.46513922486706
 20
-15.00000000000003
 30
0.0
 10
-29.35568956680957
 20
-14.99999999999998
 30
0.0
 10
-35.74459296113097
 20
-14.99999999999998
 30
0.0
 10
-41.52150900504755
 20
-15.00000000000003
 30
0.0
 10
-46.58625874792236
 20
-14.99999999999996
 30
0.0
 10
-50.85000651035881
 20
-14.99999999999997
 30
0.0
 10
-54.24597624175724
 20
-15.00000000000005
 30
0.0
 10
-56.68836511203288
 20
-14.99999999999996
 30
0.0
 10
-58.22141345193118
 20
-14.99999999999996
 30
0.0
 10
-58.40084119377516
 20
-15.0
 30
0.0
 10
-58.48958731771864
 20
-15.00000000000002
 30
0.0
  0
SPLINE
  5
128
330
1B
100
AcDbEntity
 67
     1
  8
0
  6
Continuous
 62
     7
370
    25
100
AcDbSpline
210
0.0
220
0.0
230
1.0
 70
    24
 71
     3
 72
    20
 73
    16
 74
     0
 42
0.000000001
 43
0.00000001
 40
0.0
 40
0.0
 40
0.0
 40
0.0
 40
0.0017771235284625
 40
0.0848889206695437
 40
0.1680032985845721
 40
0.2511243487348541
 40
0.3342547714418583
 40
0.4173969250542272
 40
0.500554964770827
 40
0.5837317046235376
 40
0.6669293049207684
 40
0.7501521100157099
 40
0.833403125801408
 40
0.9166841802689211
 40
1.0
 40
1.0
 40
1.0
 40
1.0
 10
58.48969802372457
 20
-15.00000000000002
 30
0.0
 10
58.49316290439208
 20
-15.00000000000002
 30
0.0
 10
58.65867192804831
 20
-15.00000000000004
 30
0.0
 10
58.07132591386026
 20
-15.0
 30
0.0
 10
56.65497481227947
 20
-14.99999999999999
 30
0.0
 10
54.15563331590268
 20
-14.99999999999999
 30
0.0
 10
50.76514149695798
 20
-15.00000000000001
 30
0.0
 10
46.5013500251122
 20
-14.99999999999999
 30
0.0
 10
41.4470746296974
 20
-14.99999999999996
 30
0.0
 10
35.68413554534317
 20
-15.0
 30
0.0
 10
29.3115883403284
 20
-15.00000000000001
 30
0.0
 10
22.43708493882714
 20
-14.99999999999999
 30
0.0
 10
15.17695974690004
 20
-15.0
 30
0.0
 10
7.65490612682661
 20
-15.0
 30
0.0
 10
2.551990332673927
 20
-15.0
 30
0.0
 10
0.0000000000000063
 20
-15.0
 30
0.0
  0
SPLINE
  5
129
330
1B
100
AcDbEntity
 67
     1
  8
0
  6
Continuous
 62
     7
370
    25
100
AcDbSpline
210
0.0
220
0.0
230
1.0
 70
    24
 71
     3
 72
    18
 73
    14
 74
     0
 42
0.000000001
 43
0.00000001
 40
0.0
 40
0.0
 40
0.0
 40
0.0
 40
0.0652113495890485
 40
0.1587933644922059
 40
0.2524064842219134
 40
0.3460468891928992
 40
0.4397125461133573
 40
0.5333991126679644
 40
0.6271025481940646
 40
0.7208206097895284
 40
0.8145491638666732
 40
0.908284051923132
 40
1.0
 40
1.0
 40
1.0
 40
1.0
 10
-9.912111999094249
 20
-55.00000000000001
 30
0.0
 10
-11.66663954331886
 20
-54.99999999999999
 30
0.0
 10
-15.93901442280552
 20
-54.99999999999996
 30
0.0
 10
-22.46101013634018
 20
-54.99999999999993
 30
0.0
 10
-29.35679645453692
 20
-55.00000000000005
 30
0.0
 10
-35.74429625599404
 20
-55.00000000000004
 30
0.0
 10
-41.52158850623786
 20
-54.99999999999996
 30
0.0
 10
-46.58623754782889
 20
-54.99999999999996
 30
0.0
 10
-50.85001178783406
 20
-55.00000000000001
 30
0.0
 10
-54.2459763372236
 20
-55.00000000000003
 30
0.0
 10
-56.68835945086434
 20
-55.00000000000004
 30
0.0
 10
-58.22133544002418
 20
-54.99999999999998
 30
0.0
 10
-58.40075850471094
 20
-54.99999999999997
 30
0.0
 10
-58.48949337821009
 20
-54.99999999999997
 30
0.0
  0
SPLINE
  5
12A
330
1B
100
AcDbEntity
 67
     1
  8
0
  6
Continuous
 62
     7
370
    25
100
AcDbSpline
210
0.0
220
0.0
230
1.0
 70
    24
 71
     3
 72
    19
 73
    15
 74
     0
 42
0.000000001
 43
0.00000001
 40
0.0
 40
0.0
 40
0.0
 40
0.0
 40
0.0020040972414635
 40
0.0948692442621057
 40
0.1877372749161221
 40
0.2806127608066886
 40
0.373498719143862
 40
0.4663977850336194
 40
0.5593146012964374
 40
0.6522523121969479
 40
0.7452133315604433
 40
0.8382025135593955
 40
0.9312232168349266
 40
1.0
 40
1.0
 40
1.0
 40
1.0
 10
58.48960345511686
 20
-55.00000000000014
 30
0.0
 10
58.49310110234597
 20
-55.00000000000015
 30
0.0
 10
58.65867148608594
 20
-55.00000000000011
 30
0.0
 10
58.07135235011327
 20
-55.00000000000001
 30
0.0
 10
56.65496806776528
 20
-54.99999999999996
 30
0.0
 10
54.15563385521136
 20
-55.00000000000011
 30
0.0
 10
50.7651460861138
 20
-54.99999999999996
 30
0.0
 10
46.50133112463666
 20
-54.99999999999995
 30
0.0
 10
41.44714566288665
 20
-55.00000000000004
 30
0.0
 10
35.68387022604688
 20
-54.99999999999999
 30
0.0
 10
29.3125789548876
 20
-55.00000000000001
 30
0.0
 10
22.43338616211244
 20
-55.00000000000006
 30
0.0
 10
15.82084998343589
 20
-55.0
 30
0.0
 10
11.44926803436328
 20
-54.99999999999999
 30
0.0
 10
9.590998475212313
 20
-54.99999999999998
 30
0.0
  0
LWPOLYLINE
  5
12B
330
1B
100
AcDbEntity
 67
     1
  8
0
  6
Continuous
 62
     7
370
    25
100
AcDbPolyline
 90
      192
 70
   128
 43
0.0
 10
-38.2228434058
 20
-119.1074677319
 10
-37.2099080399
 20
-118.6402369359
 10
-35.9953128499
 20
-118.2303148497
 10
-34.5641607176
 20
-117.9649004475
 10
-33.0896115643
 20
-117.4025551717
 10
-31.447327331
 20
-116.8682610183
 10
-29.6450855684
 20
-116.3703628318
 10
-28.6577801721
 20
-116.2376698366
 10
-27.5967695753
 20
-116.2908249743
 10
-27.0409043718
 20
-116.1498832764
 10
-26.4995494902
 20
-115.9236609195
 10
-25.6332940404
 20
-115.5631573395
 10
-25.0108944714
 20
-115.512529874
 10
-24.3769116517
 20
-115.4735862103
 10
-23.3665800531
 20
-115.3965769022
 10
-22.2228396478
 20
-115.1950193154
 10
-21.0573280219
 20
-114.9863330777
 10
-20.4481528142
 20
-114.9474068296
 10
-19.8388068168
 20
-114.9455494299
 10
-19.2132669433
 20
-115.1270143475
 10
-18.8962064106
 20
-115.233229412
 10
-18.733833798
 20
-115.2807588837
 10
-18.5845145169
 20
-115.2809963076
 10
-17.8800569195
 20
-115.0011310021
 10
-17.2784601851
 20
-114.8772192197
 10
-16.1596018091
 20
-114.7619319961
 10
-15.5198787884
 20
-114.7091013303
 10
-14.863252477
 20
-114.835605765
 10
-14.2005522246
 20
-114.9498273763
 10
-13.5740807458
 20
-114.8041031993
 10
-12.2616321436
 20
-114.7091710788
 10
-10.9167751576
 20
-114.675770251
 10
-10.2416099835
 20
-114.7487972354
 10
-9.5723955925
 20
-114.9630195479
 10
-9.4037011431
 20
-115.001998097
 10
-9.2504143883
 20
-114.9775374773
 10
-8.9429073651
 20
-114.8652257438
 10
-8.3093322133
 20
-114.6692291994
 10
-7.4399421492
 20
-114.6748274461
 10
-6.7608633972
 20
-114.649857306
 10
-5.54750534
 20
-114.7040553499
 10
-4.6356584211
 20
-114.7758728775
 10
-3.7340902707
 20
-114.605683157
 10
-2.7989339177
 20
-114.6004575128
 10
-1.4017061455
 20
-114.5556246629
 10
-0.6909669253
 20
-114.544439748
 10
-0.4741097187
 20
-114.5318148708
 10
-0.4317814439
 20
-114.5288730504
 10
-0.4068014981
 20
-114.5271032179
 10
-0.400809845
 20
-114.5266980943
 10
-0.399437883
 20
-114.5266194353
 10
-0.399157828
 20
-114.5266113123
 10
-0.3991483585
 20
-114.526611524
 10
-0.399136287
 20
-114.526611961
 10
-0.3991093078
 20
-114.5266129704
 10
-0.3990640363
 20
-114.5266146641
 10
-0.3989186167
 20
-114.5266201033
 10
-0.3977255191
 20
-114.5266646564
 10
-0.3949893905
 20
-114.5267663385
 10
-0.3840446248
 20
-114.5271662328
 10
-0.3730994651
 20
-114.5275551925
 10
-0.3621539223
 20
-114.5279332173
 10
-0.3512080072
 20
-114.5283003067
 10
-0.3402617309
 20
-114.5286564605
 10
-0.3293151042
 20
-114.5290016782
 10
-0.3183681381
 20
-114.5293359596
 10
-0.3074208435
 20
-114.5296593042
 10
-0.2964732313
 20
-114.5299717119
 10
-0.2855253125
 20
-114.5302731822
 10
-0.274577098
 20
-114.530563715
 10
-0.2636285986
 20
-114.5308433099
 10
-0.2526798254
 20
-114.5311119666
 10
-0.2417307893
 20
-114.531369685
 10
-0.2307815012
 20
-114.5316164647
 10
-0.219831972
 20
-114.5318523055
 10
-0.2088822126
 20
-114.5320772073
 10
-0.197932234
 20
-114.5322911697
 10
-0.1869820471
 20
-114.5324941925
 10
-0.1760316629
 20
-114.5326862757
 10
-0.1650810922
 20
-114.532867419
 10
-0.1541303461
 20
-114.5330376222
 10
-0.1431794353
 20
-114.5331968852
 10
-0.1322283709
 20
-114.5333452078
 10
-0.1212771638
 20
-114.5334825899
 10
-0.1103258249
 20
-114.5336090314
 10
-0.0993743652
 20
-114.5337245321
 10
-0.0884227955
 20
-114.533829092
 10
-0.0774711269
 20
-114.5339227109
 10
-0.0665193701
 20
-114.5340053888
 10
-0.0555675363
 20
-114.5340771255
 10
-0.0446156362
 20
-114.5341379212
 10
-0.0336636809
 20
-114.5341877756
 10
-0.0227116812
 20
-114.5342266887
 10
-0.0117596482
 20
-114.5342546606
 10
-0.0009984619
 20
-114.534271488
 10
0.0209829866
 20
-114.5342730348
 10
0.0318761704
 20
-114.5342574685
 10
0.0427693333
 20
-114.5342310782
 10
0.0536624646
 20
-114.534193864
 10
0.0645555536
 20
-114.534145826
 10
0.0754485894
 20
-114.5340869641
 10
0.0863415614
 20
-114.5340172785
 10
0.0972344587
 20
-114.5339367693
 10
0.1081272707
 20
-114.5338454365
 10
0.1190199866
 20
-114.5337432802
 10
0.1299125955
 20
-114.5336303006
 10
0.1408050868
 20
-114.5335064978
 10
0.1516974498
 20
-114.5333718718
 10
0.1625896736
 20
-114.533226423
 10
0.1734817475
 20
-114.5330701513
 10
0.1843736607
 20
-114.5329030569
 10
0.1952654025
 20
-114.5327251402
 10
0.2061569622
 20
-114.5325364011
 10
0.217048329
 20
-114.53233684
 10
0.2279394921
 20
-114.532126457
 10
0.2388304407
 20
-114.5319052523
 10
0.2497211642
 20
-114.5316732263
 10
0.2606116518
 20
-114.531430379
 10
0.2715018927
 20
-114.5311767109
 10
0.2823918762
 20
-114.530912222
 10
0.2932815915
 20
-114.5306369128
 10
0.3041710279
 20
-114.5303507834
 10
0.3150601746
 20
-114.5300538342
 10
0.3259490208
 20
-114.5297460655
 10
0.3368375559
 20
-114.5294274776
 10
0.3477257691
 20
-114.5290980709
 10
0.3586136496
 20
-114.5287578455
 10
0.3695011866
 20
-114.528406802
 10
0.3803883695
 20
-114.5280449407
 10
0.3912751874
 20
-114.5276722618
 10
0.3967184562
 20
-114.527481866
 10
0.3980791435
 20
-114.5274338485
 10
0.3986065449
 20
-114.5274151915
 10
0.3987616206
 20
-114.5274097008
 10
0.3988442799
 20
-114.5274067732
 10
0.3988632588
 20
-114.527406121
 10
0.3988706944
 20
-114.5274059645
 10
0.3988906355
 20
-114.5274058437
 10
0.3989431916
 20
-114.527406581
 10
0.3993224037
 20
-114.527422577
 10
0.3999719996
 20
-114.527459424
 10
0.405274442
 20
-114.5278140578
 10
0.4288638323
 20
-114.5294903759
 10
0.4697844174
 20
-114.5323542492
 10
0.6854035575
 20
-114.5450517847
 10
1.3925494221
 20
-114.5568117669
 10
2.7824269284
 20
-114.6004422362
 10
4.1617743839
 20
-114.6783783948
 10
5.5176620094
 20
-114.6999289296
 10
7.0533181652
 20
-114.6649484298
 10
8.2654154914
 20
-114.6696063836
 10
8.8931333698
 20
-114.8731860612
 10
9.1977224271
 20
-114.9844999865
 10
9.2730648048
 20
-115.0006851367
 10
9.3523522898
 20
-115.0008911514
 10
9.5215608015
 20
-114.9555520803
 10
10.1864410142
 20
-114.7471358148
 10
10.8577838853
 20
-114.6781510229
 10
12.1969664594
 20
-114.7061234837
 10
13.502189349
 20
-114.8060542714
 10
14.1280447673
 20
-114.9398935366
 10
14.7879332501
 20
-114.8194171593
 10
15.4405769597
 20
-114.7024947389
 10
16.0784660798
 20
-114.7545273356
 10
17.4949598138
 20
-114.9006074387
 10
18.0625372584
 20
-115.1075139888
 10
18.4937538062
 20
-115.2647188828
 10
18.6457051108
 20
-115.2530872132
 10
18.8076175354
 20
-115.2016092804
 10
19.1217247916
 20
-115.0954904502
 10
19.7442370561
 20
-114.9119357074
 10
20.3514428082
 20
-114.9176607518
 10
20.9595605598
 20
-114.9493155138
 10
22.1237656446
 20
-115.1470120217
 10
23.268093841
 20
-115.3315792397
 10
24.5516147589
 20
-115.4025979629
 10
25.0482453397
 20
-115.422433746
 10
25.5334644106
 20
-115.4645595605
 10
26.6360643537
 20
-115.9102055677
 10
27.0609154754
 20
-116.0807040698
 10
27.5050497024
 20
-116.1579334995
 10
28.5686356097
 20
-116.0674660396
 10
29.5593751348
 20
-116.1826176589
 10
31.3722610314
 20
-116.6505118575
 10
33.0320629372
 20
-117.1444035877
 10
33.7670940652
 20
-117.4904671383
 10
34.5169131498
 20
-117.6933360306
 10
35.2763776308
 20
-117.7638762915
 10
35.9704819643
 20
-117.9099430275
 10
37.2054212161
 20
-118.2929773587
 10
38.2464184988
 20
-118.7383688387
 10
38.3301486506
 20
-118.7862480583
  0
LINE
  5
12E
330
1B
100
AcDbEntity
 67
     1
  8
0
  6
Continuous
 62
     7
370
    25
100
AcDbLine
 10
66.0
 20
0.0
 30
0.0
 11
66.0
 21
28.0
 31
0.0
  0
LINE
  5
12F
330
1B
100
AcDbEntity
 67
     1
  8
0
  6
Continuous
 62
     7
370
    25
100
AcDbLine
 10
-66.0
 20
28.0
 30
0.0
 11
-66.0
 21
0.0
 31
0.0
  0
LINE
  5
130
330
1B
100
AcDbEntity
 67
     1
  8
0
  6
Continuous
 62
     7
370
    25
100
AcDbLine
 10
-66.0
 20
0.0
 30
0.0
 11
66.0
 21
0.0
 31
0.0
  0
LINE
  5
131
330
1B
100
AcDbEntity
 67
     1
  8
0
  6
Continuous
 62
     7
370
    25
100
AcDbLine
 10
-65.0
 20
29.0
 30
0.0
 11
65.0
 21
29.0
 31
0.0
  0
LINE
  5
132
330
1B
100
AcDbEntity
 67
     1
  8
0
  6
Continuous
 62
     8
370
    25
100
AcDbLine
 10
66.0
 20
28.0
 30
0.0
 11
-66.0
 21
28.0
 31
0.0
  0
ARC
  5
133
330
1B
100
AcDbEntity
 67
     1
  8
0
  6
Continuous
 62
     7
370
    25
100
AcDbCircle
 10
-65.0
 20
28.0
 30
0.0
 40
0.9999999999999858
100
AcDbArc
 50
90.0
 51
180.0
  0
ARC
  5
134
330
1B
100
AcDbEntity
 67
     1
  8
0
  6
Continuous
 62
     7
370
    25
100
AcDbCircle
 10
65.0
 20
28.0
 30
0.0
 40
0.9999999999999858
100
AcDbArc
 50
0.0
 51
90.0
  0
VIEWPORT
  5
1E7
330
1B
100
AcDbEntity
 67
     1
  8
0
100
AcDbViewport
 10
0.0
 20
0.0
 30
0.0
 40
205.6
 41
156.0
 68
     1
 69
     1
 12
0.0
 22
-114.0
 13
0.0
 23
0.0
 14
10.0
 24
10.0
 15
10.0
 25
10.0
 16
0.0
 26
0.0
 36
1.0
 17
0.0
 27
0.0
 37
0.0
 42
50.0
 43
0.0
 44
0.0
 45
367.2
 50
0.0
 51
0.0
 72
   100
 90
   557152
  1

281
     0
 71
     1
 74
     0
110
0.0
120
0.0
130
0.0
111
1.0
121
0.0
131
0.0
112
0.0
122
1.0
132
0.0
 79
     0
146
0.0
  0
ENDSEC
  0
SECTION
  2
OBJECTS
  0
DICTIONARY
  5
C
330
0
100
AcDbDictionary
281
     1
  3
ACAD_GROUP
350
D
  3
ACAD_LAYOUT
350
1A
  3
ACAD_MLINESTYLE
350
17
  3
ACAD_PLOTSETTINGS
350
19
  3
ACAD_PLOTSTYLENAME
350
E
  3
ACAD_SCALELIST
350
47
  0
DICTIONARY
  5
D
102
{ACAD_REACTORS
330
C
102
}
330
C
100
AcDbDictionary
281
     1
  0
DICTIONARY
  5
1A
102
{ACAD_REACTORS
330
C
102
}
330
C
100
AcDbDictionary
281
     1
  3
_Front
350
1E
  3
_Right
350
26
  3
Model
350
22
  0
DICTIONARY
  5
17
102
{ACAD_REACTORS
330
C
102
}
330
C
100
AcDbDictionary
281
     1
  3
Standard
350
18
  0
DICTIONARY
  5
19
102
{ACAD_REACTORS
330
C
102
}
330
C
100
AcDbDictionary
281
     1
  0
ACDBDICTIONARYWDFLT
  5
E
102
{ACAD_REACTORS
330
C
102
}
330
C
100
AcDbDictionary
281
     1
  3
Normal
350
F
100
AcDbDictionaryWithDefault
340
F
  0
DICTIONARY
  5
47
102
{ACAD_REACTORS
330
C
102
}
330
C
100
AcDbDictionary
281
     1
  3
A0
350
48
  3
A1
350
49
  3
A2
350
4A
  3
A3
350
4B
  3
A4
350
4C
  3
A5
350
4D
  3
A6
350
4E
  3
A7
350
4F
  3
A8
350
50
  3
A9
350
51
  3
B0
350
52
  3
B1
350
53
  3
B2
350
54
  3
B3
350
55
  3
B4
350
56
  3
B5
350
57
  3
B6
350
58
  3
B7
350
59
  3
B8
350
5A
  3
B9
350
5B
  3
C0
350
5C
  3
C1
350
5D
  3
C2
350
5E
  3
C3
350
5F
  3
C4
350
60
  3
C5
350
61
  3
C6
350
62
  3
C7
350
63
  3
C8
350
64
  3
C9
350
65
  3
D0
350
66
  3
D1
350
67
  3
D2
350
68
  0
LAYOUT
  5
1E
102
{ACAD_REACTORS
330
1A
102
}
330
1A
100
AcDbPlotSettings
  1

  2
none_device
  4
ISO_A4_(210.00_x_297.00_MM)
  6

 40
7.5
 41
20.0
 42
7.5
 43
20.0
 44
210.0
 45
297.0
 46
0.0
 47
0.0
 48
0.0
 49
0.0
140
0.0
141
0.0
142
1.0
143
0.9743589744
 70
   688
 72
     1
 73
     1
 74
     1
  7

 75
     0
147
1.0263157895
148
66.0
149
161.0
100
AcDbLayout
  1
_Front
 70
     1
 71
     1
 10
-85.4871794872
 20
-168.3076923077
 11
203.8974358974
 21
36.3076923077
 12
0.0
 22
0.0
 32
0.0
 14
-66.0
 24
-161.0
 34
0.0
 15
66.0
 25
29.0
 35
0.0
146
0.0
 13
0.0
 23
0.0
 33
0.0
 16
1.0
 26
0.0
 36
0.0
 17
0.0
 27
1.0
 37
0.0
 76
     0
330
1B
331
1E7
  0
LAYOUT
  5
26
102
{ACAD_REACTORS
330
1A
102
}
330
1A
100
AcDbPlotSettings
  1

  2
none_device
  4
ISO_A4_(210.00_x_297.00_MM)
  6

 40
7.5
 41
20.0
 42
7.5
 43
20.0
 44
210.0
 45
297.0
 46
0.0
 47
0.0
 48
0.0
 49
0.0
140
0.0
141
0.0
142
1.0
143
0.9743589744
 70
   688
 72
     1
 73
     1
 74
     1
  7

 75
     0
147
1.0263157895
148
66.0
149
161.0
100
AcDbLayout
  1
_Right
 70
     1
 71
     2
 10
0.0
 20
0.0
 11
0.0
 21
0.0
 12
0.0
 22
0.0
 32
0.0
 14
0.0
 24
0.0
 34
0.0
 15
0.0
 25
0.0
 35
0.0
146
0.0
 13
0.0
 23
0.0
 33
0.0
 16
1.0
 26
0.0
 36
0.0
 17
0.0
 27
1.0
 37
0.0
 76
     0
330
23
331
1E9
  0
LAYOUT
  5
22
102
{ACAD_REACTORS
330
1A
102
}
330
1A
100
AcDbPlotSettings
  1

  2
none_device
  4
ANSI_A_(11.00_x_8.50_Inches)
  6

 40
6.35
 41
19.05
 42
6.35000508
 43
19.05000254
 44
279.4
 45
215.9
 46
133.34999746
 47
156.58464873
 48
0.0
 49
0.0
140
0.0
141
0.0
142
0.023375
143
1.0
 70
  1696
 72
     0
 73
     0
 74
     0
  7

 75
     0
147
0.0179189148
148
-1300.4909072572
149
0.0
100
AcDbLayout
  1
Model
 70
     1
 71
     0
 10
0.0
 20
0.0
 11
420.0
 21
297.0
 12
0.0
 22
0.0
 32
0.0
 14
-66.0
 24
-294.0
 34
0.0
 15
66.0
 25
66.0
 35
0.0
146
0.0
 13
0.0
 23
0.0
 33
0.0
 16
1.0
 26
0.0
 36
0.0
 17
0.0
 27
1.0
 37
0.0
 76
     0
330
1F
331
29
  0
MLINESTYLE
  5
18
102
{ACAD_REACTORS
330
17
102
}
330
17
100
AcDbMlineStyle
  2
Standard
 70
     0
  3

 62
   256
 51
90.0
 52
90.0
 71
     2
 49
0.5
 62
   256
  6
BYLAYER
 49
-0.5
 62
   256
  6
BYLAYER
  0
ACDBPLACEHOLDER
  5
F
102
{ACAD_REACTORS
330
E
102
}
330
E
  0
SCALE
  5
48
102
{ACAD_REACTORS
330
47
102
}
330
47
100
AcDbScale
 70
     0
300
1:1
140
1.0
141
1.0
290
     1
  0
SCALE
  5
49
102
{ACAD_REACTORS
330
47
102
}
330
47
100
AcDbScale
 70
     0
300
1:2
140
1.0
141
2.0
290
     0
  0
SCALE
  5
4A
102
{ACAD_REACTORS
330
47
102
}
330
47
100
AcDbScale
 70
     0
300
1:4
140
1.0
141
4.0
290
     0
  0
SCALE
  5
4B
102
{ACAD_REACTORS
330
47
102
}
330
47
100
AcDbScale
 70
     0
300
1:5
140
1.0
141
5.0
290
     0
  0
SCALE
  5
4C
102
{ACAD_REACTORS
330
47
102
}
330
47
100
AcDbScale
 70
     0
300
1:8
140
1.0
141
8.0
290
     0
  0
SCALE
  5
4D
102
{ACAD_REACTORS
330
47
102
}
330
47
100
AcDbScale
 70
     0
300
1:10
140
1.0
141
10.0
290
     0
  0
SCALE
  5
4E
102
{ACAD_REACTORS
330
47
102
}
330
47
100
AcDbScale
 70
     0
300
1:16
140
1.0
141
16.0
290
     0
  0
SCALE
  5
4F
102
{ACAD_REACTORS
330
47
102
}
330
47
100
AcDbScale
 70
     0
300
1:20
140
1.0
141
20.0
290
     0
  0
SCALE
  5
50
102
{ACAD_REACTORS
330
47
102
}
330
47
100
AcDbScale
 70
     0
300
1:30
140
1.0
141
30.0
290
     0
  0
SCALE
  5
51
102
{ACAD_REACTORS
330
47
102
}
330
47
100
AcDbScale
 70
     0
300
1:40
140
1.0
141
40.0
290
     0
  0
SCALE
  5
52
102
{ACAD_REACTORS
330
47
102
}
330
47
100
AcDbScale
 70
     0
300
1:50
140
1.0
141
50.0
290
     0
  0
SCALE
  5
53
102
{ACAD_REACTORS
330
47
102
}
330
47
100
AcDbScale
 70
     0
300
1:100
140
1.0
141
100.0
290
     0
  0
SCALE
  5
54
102
{ACAD_REACTORS
330
47
102
}
330
47
100
AcDbScale
 70
     0
300
2:1
140
2.0
141
1.0
290
     0
  0
SCALE
  5
55
102
{ACAD_REACTORS
330
47
102
}
330
47
100
AcDbScale
 70
     0
300
4:1
140
4.0
141
1.0
290
     0
  0
SCALE
  5
56
102
{ACAD_REACTORS
330
47
102
}
330
47
100
AcDbScale
 70
     0
300
8:1
140
8.0
141
1.0
290
     0
  0
SCALE
  5
57
102
{ACAD_REACTORS
330
47
102
}
330
47
100
AcDbScale
 70
     0
300
10:1
140
10.0
141
1.0
290
     0
  0
SCALE
  5
58
102
{ACAD_REACTORS
330
47
102
}
330
47
100
AcDbScale
 70
     0
300
100:1
140
100.0
141
1.0
290
     0
  0
SCALE
  5
59
102
{ACAD_REACTORS
330
47
102
}
330
47
100
AcDbScale
 70
     0
300
1/128" = 1'-0"
140
0.0078125
141
12.0
290
     0
  0
SCALE
  5
5A
102
{ACAD_REACTORS
330
47
102
}
330
47
100
AcDbScale
 70
     0
300
1/64" = 1'-0"
140
0.015625
141
12.0
290
     0
  0
SCALE
  5
5B
102
{ACAD_REACTORS
330
47
102
}
330
47
100
AcDbScale
 70
     0
300
1/32" = 1'-0"
140
0.03125
141
12.0
290
     0
  0
SCALE
  5
5C
102
{ACAD_REACTORS
330
47
102
}
330
47
100
AcDbScale
 70
     0
300
1/16" = 1'-0"
140
0.0625
141
12.0
290
     0
  0
SCALE
  5
5D
102
{ACAD_REACTORS
330
47
102
}
330
47
100
AcDbScale
 70
     0
300
3/32" = 1'-0"
140
0.09375
141
12.0
290
     0
  0
SCALE
  5
5E
102
{ACAD_REACTORS
330
47
102
}
330
47
100
AcDbScale
 70
     0
300
1/8" = 1'-0"
140
0.125
141
12.0
290
     0
  0
SCALE
  5
5F
102
{ACAD_REACTORS
330
47
102
}
330
47
100
AcDbScale
 70
     0
300
3/16" = 1'-0"
140
0.1875
141
12.0
290
     0
  0
SCALE
  5
60
102
{ACAD_REACTORS
330
47
102
}
330
47
100
AcDbScale
 70
     0
300
1/4" = 1'-0"
140
0.25
141
12.0
290
     0
  0
SCALE
  5
61
102
{ACAD_REACTORS
330
47
102
}
330
47
100
AcDbScale
 70
     0
300
3/8" = 1'-0"
140
0.375
141
12.0
290
     0
  0
SCALE
  5
62
102
{ACAD_REACTORS
330
47
102
}
330
47
100
AcDbScale
 70
     0
300
1/2" = 1'-0"
140
0.5
141
12.0
290
     0
  0
SCALE
  5
63
102
{ACAD_REACTORS
330
47
102
}
330
47
100
AcDbScale
 70
     0
300
3/4" = 1'-0"
140
0.75
141
12.0
290
     0
  0
SCALE
  5
64
102
{ACAD_REACTORS
330
47
102
}
330
47
100
AcDbScale
 70
     0
300
1" = 1'-0"
140
1.0
141
12.0
290
     0
  0
SCALE
  5
65
102
{ACAD_REACTORS
330
47
102
}
330
47
100
AcDbScale
 70
     0
300
1-1/2" = 1'-0"
140
1.5
141
12.0
290
     0
  0
SCALE
  5
66
102
{ACAD_REACTORS
330
47
102
}
330
47
100
AcDbScale
 70
     0
300
3" = 1'-0"
140
3.0
141
12.0
290
     0
  0
SCALE
  5
67
102
{ACAD_REACTORS
330
47
102
}
330
47
100
AcDbScale
 70
     0
300
6" = 1'-0"
140
6.0
141
12.0
290
     0
  0
SCALE
  5
68
102
{ACAD_REACTORS
330
47
102
}
330
47
100
AcDbScale
 70
     0
300
1'-0" = 1'-0"
140
12.0
141
12.0
290
     0
  0
ENDSEC
  0
EOF
