  0
SECTION
  2
HEADER
  9
$ACADVER
  1
AC1015
  9
$ACADMAINTVER
 70
     6
  9
$DWGCODEPAGE
  3
ANSI_1252
  9
$INSBASE
 10
0.0
 20
0.0
 30
0.0
  9
$EXTMIN
 10
-174.0
 20
-41.5
 30
0.0
  9
$EXTMAX
 10
174.0
 20
21.0
 30
0.0
  9
$LIMMIN
 10
0.0
 20
0.0
  9
$LIMMAX
 10
420.0
 20
297.0
  9
$ORTHOMODE
 70
     0
  9
$REGENMODE
 70
     1
  9
$FILLMODE
 70
     1
  9
$QTEXTMODE
 70
     0
  9
$MIRRTEXT
 70
     1
  9
$LTSCALE
 40
1.0
  9
$ATTMODE
 70
     1
  9
$TEXTSIZE
 40
3.5
  9
$TRACEWID
 40
1.0
  9
$TEXTSTYLE
  7
Standard
  9
$CLAYER
  8
0
  9
$CELTYPE
  6
ByLayer
  9
$CECOLOR
 62
   256
  9
$CELTSCALE
 40
1.0
  9
$DISPSILH
 70
     0
  9
$DIMSCALE
 40
1.0
  9
$DIMASZ
 40
3.302
  9
$DIMEXO
 40
1.0
  9
$DIMDLI
 40
3.75
  9
$DIMRND
 40
0.0
  9
$DIMDLE
 40
0.0
  9
$DIMEXE
 40
1.0
  9
$DIMTP
 40
0.0
  9
$DIMTM
 40
0.0
  9
$DIMTXT
 40
3.5
  9
$DIMCEN
 40
2.5
  9
$DIMTSZ
 40
0.0
  9
$DIMTOL
 70
     0
  9
$DIMLIM
 70
     0
  9
$DIMTIH
 70
     1
  9
$DIMTOH
 70
     1
  9
$DIMSE1
 70
     0
  9
$DIMSE2
 70
     0
  9
$DIMTAD
 70
     1
  9
$DIMZIN
 70
     1
  9
$DIMBLK
  1

  9
$DIMASO
 70
     1
  9
$DIMSHO
 70
     1
  9
$DIMPOST
  1

  9
$DIMAPOST
  1

  9
$DIMALT
 70
     0
  9
$DIMALTD
 70
     3
  9
$DIMALTF
 40
0.0393700787
  9
$DIMLFAC
 40
1.0
  9
$DIMTOFL
 70
     1
  9
$DIMTVP
 40
0.0
  9
$DIMTIX
 70
     0
  9
$DIMSOXD
 70
     0
  9
$DIMSAH
 70
     0
  9
$DIMBLK1
  1

  9
$DIMBLK2
  1

  9
$DIMSTYLE
  2
ISO-25
  9
$DIMCLRD
 70
     0
  9
$DIMCLRE
 70
     0
  9
$DIMCLRT
 70
     0
  9
$DIMTFAC
 40
1.0
  9
$DIMGAP
 40
1.524
  9
$DIMJUST
 70
     0
  9
$DIMSD1
 70
     0
  9
$DIMSD2
 70
     0
  9
$DIMTOLJ
 70
     0
  9
$DIMTZIN
 70
     1
  9
$DIMALTZ
 70
     0
  9
$DIMALTTZ
 70
     0
  9
$DIMUPT
 70
     0
  9
$DIMDEC
 70
     2
  9
$DIMTDEC
 70
     2
  9
$DIMALTU
 70
     2
  9
$DIMALTTD
 70
     3
  9
$DIMTXSTY
  7
Standard
  9
$DIMAUNIT
 70
     0
  9
$DIMADEC
 70
     2
  9
$DIMALTRND
 40
0.0
  9
$DIMAZIN
 70
     0
  9
$DIMDSEP
 70
    44
  9
$DIMATFIT
 70
     3
  9
$DIMFRAC
 70
     0
  9
$DIMLDRBLK
  1

  9
$DIMLUNIT
 70
     2
  9
$DIMLWD
 70
    -2
  9
$DIMLWE
 70
    -2
  9
$DIMTMOVE
 70
     0
  9
$LUNITS
 70
     2
  9
$LUPREC
 70
     2
  9
$SKETCHINC
 40
1.0
  9
$FILLETRAD
 40
10.0
  9
$AUNITS
 70
     0
  9
$AUPREC
 70
     2
  9
$MENU
  1
.
  9
$ELEVATION
 40
0.0
  9
$PELEVATION
 40
0.0
  9
$THICKNESS
 40
0.0
  9
$LIMCHECK
 70
     0
  9
$CHAMFERA
 40
0.0
  9
$CHAMFERB
 40
0.0
  9
$CHAMFERC
 40
0.0
  9
$CHAMFERD
 40
0.0
  9
$SKPOLY
 70
     0
  9
$TDCREATE
 40
2458862.41985309
  9
$TDUCREATE
 40
2458862.41985309
  9
$TDUPDATE
 40
2458862.419887952
  9
$TDUUPDATE
 40
2458862.419887952
  9
$TDINDWG
 40
0.0000000116
  9
$TDUSRTIMER
 40
0.0000000116
  9
$USRTIMER
 70
     1
  9
$ANGBASE
 50
0.0
  9
$ANGDIR
 70
     0
  9
$PDMODE
 70
     0
  9
$PDSIZE
 40
-1.0
  9
$PLINEWID
 40
0.0
  9
$SPLFRAME
 70
     0
  9
$SPLINETYPE
 70
     6
  9
$SPLINESEGS
 70
     8
  9
$HANDSEED
  5
83A
  9
$SURFTAB1
 70
     6
  9
$SURFTAB2
 70
     6
  9
$SURFTYPE
 70
     6
  9
$SURFU
 70
     6
  9
$SURFV
 70
     6
  9
$UCSBASE
  2

  9
$UCSNAME
  2

  9
$UCSORG
 10
0.0
 20
0.0
 30
0.0
  9
$UCSXDIR
 10
1.0
 20
0.0
 30
0.0
  9
$UCSYDIR
 10
0.0
 20
1.0
 30
0.0
  9
$UCSORTHOREF
  2

  9
$UCSORTHOVIEW
 70
     0
  9
$UCSORGTOP
 10
0.0
 20
0.0
 30
0.0
  9
$UCSORGBOTTOM
 10
0.0
 20
0.0
 30
0.0
  9
$UCSORGLEFT
 10
0.0
 20
0.0
 30
0.0
  9
$UCSORGRIGHT
 10
0.0
 20
0.0
 30
0.0
  9
$UCSORGFRONT
 10
0.0
 20
0.0
 30
0.0
  9
$UCSORGBACK
 10
0.0
 20
0.0
 30
0.0
  9
$PUCSBASE
  2

  9
$PUCSNAME
  2

  9
$PUCSORG
 10
0.0
 20
0.0
 30
0.0
  9
$PUCSXDIR
 10
1.0
 20
0.0
 30
0.0
  9
$PUCSYDIR
 10
0.0
 20
1.0
 30
0.0
  9
$PUCSORTHOREF
  2

  9
$PUCSORTHOVIEW
 70
     0
  9
$PUCSORGTOP
 10
0.0
 20
0.0
 30
0.0
  9
$PUCSORGBOTTOM
 10
0.0
 20
0.0
 30
0.0
  9
$PUCSORGLEFT
 10
0.0
 20
0.0
 30
0.0
  9
$PUCSORGRIGHT
 10
0.0
 20
0.0
 30
0.0
  9
$PUCSORGFRONT
 10
0.0
 20
0.0
 30
0.0
  9
$PUCSORGBACK
 10
0.0
 20
0.0
 30
0.0
  9
$USERI1
 70
     0
  9
$USERI2
 70
     0
  9
$USERI3
 70
     0
  9
$USERI4
 70
     0
  9
$USERI5
 70
     0
  9
$USERR1
 40
0.0
  9
$USERR2
 40
0.0
  9
$USERR3
 40
0.0
  9
$USERR4
 40
0.0
  9
$USERR5
 40
0.0
  9
$WORLDVIEW
 70
     1
  9
$SHADEDGE
 70
     3
  9
$SHADEDIF
 70
    70
  9
$TILEMODE
 70
     1
  9
$MAXACTVP
 70
    64
  9
$PINSBASE
 10
0.0
 20
0.0
 30
0.0
  9
$PLIMCHECK
 70
     0
  9
$PEXTMIN
 10
-174.0
 20
-41.5
 30
0.0
  9
$PEXTMAX
 10
174.0
 20
21.0
 30
0.0
  9
$PLIMMIN
 10
-201.0817120623
 20
-51.6556420233
  9
$PLIMMAX
 10
201.0817120623
 20
232.7023346304
  9
$UNITMODE
 70
     0
  9
$VISRETAIN
 70
     1
  9
$PLINEGEN
 70
     0
  9
$PSLTSCALE
 70
     1
  9
$TREEDEPTH
 70
  3020
  9
$CMLSTYLE
  2
Standard
  9
$CMLJUST
 70
     0
  9
$CMLSCALE
 40
20.0
  9
$PROXYGRAPHICS
 70
     1
  9
$MEASUREMENT
 70
     1
  9
$CELWEIGHT
370
    -1
  9
$ENDCAPS
280
     0
  9
$JOINSTYLE
280
     0
  9
$LWDISPLAY
290
     1
  9
$INSUNITS
 70
     4
  9
$HYPERLINKBASE
  1

  9
$STYLESHEET
  1

  9
$XEDIT
290
     1
  9
$CEPSNTYPE
380
     0
  9
$PSTYLEMODE
290
     1
  9
$FINGERPRINTGUID
  2
{f85dcc67-a4a6-479c-bb9c-bbc71c784159}
  9
$VERSIONGUID
  2
{FAEB1C32-E019-11D5-929B-00C0DF256EC4}
  9
$EXTNAMES
290
     1
  9
$PSVPSCALE
 40
0.0
  9
$OLESTARTUP
290
     0
  0
ENDSEC
  0
SECTION
  2
CLASSES
  0
CLASS
  1
ACDBDICTIONARYWDFLT
  2
AcDbDictionaryWithDefault
  3
ObjectDBX Classes
 90
        0
280
     0
281
     0
  0
CLASS
  1
VISUALSTYLE
  2
AcDbVisualStyle
  3
ObjectDBX Classes
 90
     4095
280
     0
281
     0
  0
CLASS
  1
MATERIAL
  2
AcDbMaterial
  3
ObjectDBX Classes
 90
     1153
280
     0
281
     0
  0
CLASS
  1
SCALE
  2
AcDbScale
  3
ObjectDBX Classes
 90
     1153
280
     0
281
     0
  0
CLASS
  1
TABLESTYLE
  2
AcDbTableStyle
  3
ObjectDBX Classes
 90
     4095
280
     0
281
     0
  0
CLASS
  1
MLEADERSTYLE
  2
AcDbMLeaderStyle
  3
ACDB_MLEADERSTYLE_CLASS
 90
     4095
280
     0
281
     0
  0
CLASS
  1
SUN
  2
AcDbSun
  3
SCENEOE
 90
     1153
280
     0
281
     0
  0
CLASS
  1
ACDBPLACEHOLDER
  2
AcDbPlaceHolder
  3
ObjectDBX Classes
 90
        0
280
     0
281
     0
  0
CLASS
  1
LAYOUT
  2
AcDbLayout
  3
ObjectDBX Classes
 90
        0
280
     0
281
     0
  0
ENDSEC
  0
SECTION
  2
TABLES
  0
TABLE
  2
VPORT
  5
8
330
0
100
AcDbSymbolTable
 70
     1
  0
VPORT
  5
29
330
8
100
AcDbSymbolTableRecord
100
AcDbViewportTableRecord
  2
*Active
 70
     0
 10
0.0
 20
0.0
 11
1.0
 21
1.0
 12
0.0
 22
-10.25
 13
0.0
 23
0.0
 14
10.0
 24
10.0
 15
10.0
 25
10.0
 16
0.0
 26
0.0
 36
1.0
 17
0.0
 27
0.0
 37
0.0
 40
63.75
 41
5.568
 42
50.0
 43
0.0
 44
0.0
 50
0.0
 51
0.0
 71
     0
 72
   100
 73
     1
 74
     3
 75
     0
 76
     0
 77
     0
 78
     0
281
     0
 65
     1
110
0.0
120
0.0
130
0.0
111
1.0
121
0.0
131
0.0
112
0.0
122
1.0
132
0.0
 79
     0
146
0.0
  0
ENDTAB
  0
TABLE
  2
LTYPE
  5
5
330
0
100
AcDbSymbolTable
 70
     6
  0
LTYPE
  5
14
330
5
100
AcDbSymbolTableRecord
100
AcDbLinetypeTableRecord
  2
ByBlock
 70
     0
  3

 72
    65
 73
     0
 40
0.0
  0
LTYPE
  5
15
330
5
100
AcDbSymbolTableRecord
100
AcDbLinetypeTableRecord
  2
ByLayer
 70
     0
  3

 72
    65
 73
     0
 40
0.0
  0
LTYPE
  5
16
330
5
100
AcDbSymbolTableRecord
100
AcDbLinetypeTableRecord
  2
Continuous
 70
     0
  3
Solid line
 72
    65
 73
     0
 40
0.0
  0
LTYPE
  5
6E
330
5
100
AcDbSymbolTableRecord
100
AcDbLinetypeTableRecord
  2
HIDDEN
 70
     0
  3
Hidden __ __ __ __ __ __ __ __ __ __ __ __ __ __
 72
    65
 73
     2
 40
1.905
 49
1.27
 74
     0
 49
-0.635
 74
     0
  0
LTYPE
  5
6F
330
5
100
AcDbSymbolTableRecord
100
AcDbLinetypeTableRecord
  2
PHANTOM
 70
     0
  3
Phantom ______  __  __  ______  __  __  ______
 72
    65
 73
     6
 40
12.7
 49
6.35
 74
     0
 49
-1.27
 74
     0
 49
1.27
 74
     0
 49
-1.27
 74
     0
 49
1.27
 74
     0
 49
-1.27
 74
     0
  0
LTYPE
  5
70
330
5
100
AcDbSymbolTableRecord
100
AcDbLinetypeTableRecord
  2
CENTER
 70
     0
  3
Center ____ _ ____ _ ____ _ ____ _ ____ _ ____
 72
    65
 73
     4
 40
10.16
 49
6.35
 74
     0
 49
-1.27
 74
     0
 49
1.27
 74
     0
 49
-1.27
 74
     0
  0
LTYPE
  5
71
330
5
100
AcDbSymbolTableRecord
100
AcDbLinetypeTableRecord
  2
CENTERX2
 70
     0
  3
Center (2x) ________  __  ________  __  _____
 72
    65
 73
     4
 40
20.32
 49
12.7
 74
     0
 49
-2.54
 74
     0
 49
2.54
 74
     0
 49
-2.54
 74
     0
  0
LTYPE
  5
72
330
5
100
AcDbSymbolTableRecord
100
AcDbLinetypeTableRecord
  2
DOT2
 70
     0
  3
Dot (.5x) ........................................
 72
    65
 73
     2
 40
0.635
 49
0.0
 74
     0
 49
-0.635
 74
     0
  0
ENDTAB
  0
TABLE
  2
LAYER
  5
2
330
0
100
AcDbSymbolTable
 70
     1
  0
LAYER
  5
10
330
2
100
AcDbSymbolTableRecord
100
AcDbLayerTableRecord
  2
0
 70
     0
 62
     7
  6
Continuous
370
    -3
390
F
  0
ENDTAB
  0
TABLE
  2
STYLE
  5
3
330
0
100
AcDbSymbolTable
 70
     1
  0
STYLE
  5
11
330
3
100
AcDbSymbolTableRecord
100
AcDbTextStyleTableRecord
  2
Standard
 70
     0
 40
0.0
 41
1.0
 50
0.0
 71
     0
 42
3.5
  3
txt
  4

  0
ENDTAB
  0
TABLE
  2
VIEW
  5
6
330
0
100
AcDbSymbolTable
 70
     0
  0
ENDTAB
  0
TABLE
  2
UCS
  5
7
330
0
100
AcDbSymbolTable
 70
     0
  0
ENDTAB
  0
TABLE
  2
APPID
  5
9
330
0
100
AcDbSymbolTable
 70
     1
  0
APPID
  5
12
330
9
100
AcDbSymbolTableRecord
100
AcDbRegAppTableRecord
  2
ACAD
 70
     0
  0
ENDTAB
  0
TABLE
  2
DIMSTYLE
  5
A
330
0
100
AcDbSymbolTable
 70
     1
100
AcDbDimStyleTable
  0
DIMSTYLE
105
27
330
A
100
AcDbSymbolTableRecord
100
AcDbDimStyleTableRecord
  2
ISO-25
 70
     0
 41
2.5
 42
0.625
 43
3.75
 44
1.25
 73
     0
 74
     0
 77
     1
 78
     8
140
2.5
141
2.5
143
0.0393700787
147
0.625
171
     3
172
     1
178
     0
271
     2
272
     2
274
     3
278
    44
283
     0
284
     8
340
11
  0
ENDTAB
  0
TABLE
  2
BLOCK_RECORD
  5
1
330
0
100
AcDbSymbolTable
 70
     7
  0
BLOCK_RECORD
  5
1F
330
1
100
AcDbSymbolTableRecord
100
AcDbBlockTableRecord
  2
*Model_Space
340
22
  0
BLOCK_RECORD
  5
1B
330
1
100
AcDbSymbolTableRecord
100
AcDbBlockTableRecord
  2
*Paper_Space
340
1E
  0
BLOCK_RECORD
  5
23
330
1
100
AcDbSymbolTableRecord
100
AcDbBlockTableRecord
  2
*Paper_Space0
340
26
  0
BLOCK_RECORD
  5
3A6
330
1
100
AcDbSymbolTableRecord
100
AcDbBlockTableRecord
  2
*Paper_Space1
340
3A7
  0
BLOCK_RECORD
  5
48D
330
1
100
AcDbSymbolTableRecord
100
AcDbBlockTableRecord
  2
*Paper_Space2
340
48E
  0
BLOCK_RECORD
  5
519
330
1
100
AcDbSymbolTableRecord
100
AcDbBlockTableRecord
  2
*Paper_Space3
340
51A
  0
BLOCK_RECORD
  5
64F
330
1
100
AcDbSymbolTableRecord
100
AcDbBlockTableRecord
  2
*Paper_Space4
340
650
  0
BLOCK_RECORD
  5
721
330
1
100
AcDbSymbolTableRecord
100
AcDbBlockTableRecord
  2
*Paper_Space5
340
722
  0
BLOCK_RECORD
  5
7AB
330
1
100
AcDbSymbolTableRecord
100
AcDbBlockTableRecord
  2
*Paper_Space6
340
7AC
  0
ENDTAB
  0
ENDSEC
  0
SECTION
  2
BLOCKS
  0
BLOCK
  5
20
330
1F
100
AcDbEntity
  8
0
100
AcDbBlockBegin
  2
*Model_Space
 70
     0
 10
0.0
 20
0.0
 30
0.0
  3
*Model_Space
  1

  0
ENDBLK
  5
21
330
1F
100
AcDbEntity
  8
0
100
AcDbBlockEnd
  0
BLOCK
  5
1C
330
1B
100
AcDbEntity
 67
     1
  8
0
100
AcDbBlockBegin
  2
*Paper_Space
 70
     0
 10
0.0
 20
0.0
 30
0.0
  3
*Paper_Space
  1

  0
ENDBLK
  5
1D
330
1B
100
AcDbEntity
 67
     1
  8
0
100
AcDbBlockEnd
  0
BLOCK
  5
24
330
23
100
AcDbEntity
  8
0
100
AcDbBlockBegin
  2
*Paper_Space0
 70
     0
 10
0.0
 20
0.0
 30
0.0
  3
*Paper_Space0
  1

  0
SPLINE
  5
2C0
330
23
100
AcDbEntity
  8
0
  6
Continuous
 62
     7
370
    25
100
AcDbSpline
210
0.0
220
0.0
230
1.0
 70
     8
 71
     3
 72
    22
 73
    18
 74
     0
 42
0.000000001
 43
0.00000001
 40
0.0
 40
0.0
 40
0.0
 40
0.0
 40
0.0604325077819316
 40
0.1437119280567455
 40
0.2138251488494271
 40
0.2708664656452945
 40
0.3140149340454882
 40
0.3423730761115787
 40
0.3521026299646219
 40
0.3568211679301943
 40
0.3603993585586291
 40
0.3653406157030566
 40
0.3746813710698605
 40
0.3997322248752017
 40
0.5063593419343247
 40
0.8622563416771443
 40
0.9999999999999999
 40
0.9999999999999999
 40
0.9999999999999999
 40
0.9999999999999999
 10
169.9979638183536
 20
-24.52862145719664
 30
0.0
 10
169.9975258796839
 20
-24.47027262926644
 30
0.0
 10
169.9964844367106
 20
-24.33151580997378
 30
0.0
 10
170.0659424013882
 20
-24.13393130008777
 30
0.0
 10
170.1664960327378
 20
-23.95792238156204
 30
0.0
 10
170.2738716982995
 20
-23.83335010827789
 30
0.0
 10
170.3673291788032
 20
-23.75197251647679
 30
0.0
 10
170.4308717123957
 20
-23.70720273611974
 30
0.0
 10
170.4658018596479
 20
-23.68540596474257
 30
0.0
 10
170.4774902336797
 20
-23.67841543078737
 30
0.0
 10
170.4828676614796
 20
-23.67525117430426
 30
0.0
 10
170.4870282560331
 20
-23.67283052283722
 30
0.0
 10
170.4907970482273
 20
-23.67066294150836
 30
0.0
 10
170.4920843073212
 20
-23.66993961335683
 30
0.0
 10
170.4676090290462
 20
-23.68377907742562
 30
0.0
 10
170.4038846455519
 20
-23.72026733476236
 30
0.0
 10
170.2386446147554
 20
-23.81286808108307
 30
0.0
 10
170.192536649434
 20
-23.83870704988199
 30
0.0
  0
LWPOLYLINE
  5
305
330
23
100
AcDbEntity
  8
0
  6
Continuous
 62
     7
370
    25
100
AcDbPolyline
 90
        9
 70
   128
 43
0.0
 10
247.5468951967
 20
21.0
 10
246.5541578132
 20
20.807852804
 10
245.5995707706
 20
20.2387953251
 10
244.7198183136
 20
19.314696123
 10
243.9487088358
 20
18.0710678119
 10
243.315875642
 20
16.5557023302
 10
242.8456381569
 20
14.8268343237
 10
242.5560673433
 20
12.9509032202
 10
242.4582912452
 20
11.0
  0
LWPOLYLINE
  5
308
330
23
100
AcDbEntity
  8
0
  6
Continuous
 62
     7
370
    25
100
AcDbPolyline
 90
        9
 70
   128
 43
0.0
 10
242.4582912452
 20
7.0
 10
242.5071792943
 20
6.0245483899
 10
242.6519647011
 20
5.0865828382
 10
242.8870834436
 20
4.2221488349
 10
243.2035000405
 20
3.4644660941
 10
243.5890547794
 20
2.8426519385
 10
244.0289310079
 20
2.3806023374
 10
244.5062245292
 20
2.096073598
 10
245.0025932209
 20
2.0
  0
LWPOLYLINE
  5
30B
330
23
100
AcDbEntity
  8
0
  6
Continuous
 62
     7
370
    25
100
AcDbPolyline
 90
        9
 70
   128
 43
0.0
 10
194.7817064178
 20
21.0
 10
193.466908616
 20
20.807852804
 10
192.2026377563
 20
20.2387953251
 10
191.0374790589
 20
19.314696123
 10
190.0162089192
 20
18.0710678119
 10
189.1780741757
 20
16.5557023302
 10
188.5552838769
 20
14.8268343237
 10
188.1717715044
 20
12.9509032202
 10
188.0422752238
 20
11.0
  0
LWPOLYLINE
  5
30F
330
23
100
AcDbEntity
  8
0
  6
Continuous
 62
     7
370
    25
100
AcDbPolyline
 90
        9
 70
   128
 43
0.0
 10
188.0422752238
 20
7.0
 10
188.1070233641
 20
6.0245483899
 10
188.2987795503
 20
5.0865828382
 10
188.6101746997
 20
4.2221488349
 10
189.0292420715
 20
3.4644660941
 10
189.5398771413
 20
2.8426519385
 10
190.12245649
 20
2.3806023374
 10
190.7545919199
 20
2.096073598
 10
191.4119908208
 20
2.0
  0
LWPOLYLINE
  5
32F
330
23
100
AcDbEntity
  8
0
  6
Continuous
 62
     7
370
    25
100
AcDbPolyline
 90
        9
 70
   128
 43
0.0
 10
242.4582912452
 20
-22.1
 10
242.5071792943
 20
-23.0754516101
 10
242.6519647011
 20
-24.0134171618
 10
242.8870834436
 20
-24.8778511651
 10
243.2035000405
 20
-25.6355339059
 10
243.5890547794
 20
-26.2573480615
 10
244.0289310079
 20
-26.7193976626
 10
244.5062245292
 20
-27.003926402
 10
245.0025932209
 20
-27.1
  0
LWPOLYLINE
  5
333
330
23
100
AcDbEntity
  8
0
  6
Continuous
 62
     7
370
    25
100
AcDbPolyline
 90
        9
 70
   128
 43
0.0
 10
247.5468951967
 20
-8.1
 10
246.5541578132
 20
-8.292147196
 10
245.5995707706
 20
-8.8612046749
 10
244.7198183136
 20
-9.785303877
 10
243.9487088358
 20
-11.0289321881
 10
243.315875642
 20
-12.5442976698
 10
242.8456381569
 20
-14.2731656763
 10
242.5560673433
 20
-16.1490967798
 10
242.4582912452
 20
-18.1
  0
LWPOLYLINE
  5
33C
330
23
100
AcDbEntity
  8
0
  6
Continuous
 62
     7
370
    25
100
AcDbPolyline
 90
        9
 70
   128
 43
0.0
 10
194.7817064178
 20
-8.1
 10
193.466908616
 20
-8.292147196
 10
192.2026377563
 20
-8.8612046749
 10
191.0374790589
 20
-9.785303877
 10
190.0162089192
 20
-11.0289321881
 10
189.1780741757
 20
-12.5442976698
 10
188.5552838769
 20
-14.2731656763
 10
188.1717715044
 20
-16.1490967798
 10
188.0422752238
 20
-18.1
  0
LWPOLYLINE
  5
33F
330
23
100
AcDbEntity
  8
0
  6
Continuous
 62
     7
370
    25
100
AcDbPolyline
 90
        9
 70
   128
 43
0.0
 10
188.0422752238
 20
-22.1
 10
188.1070233641
 20
-23.0754516101
 10
188.2987795503
 20
-24.0134171618
 10
188.6101746997
 20
-24.8778511651
 10
189.0292420715
 20
-25.6355339059
 10
189.5398771413
 20
-26.2573480615
 10
190.12245649
 20
-26.7193976626
 10
190.7545919199
 20
-27.003926402
 10
191.4119908208
 20
-27.1
  0
SPLINE
  5
34A
330
23
100
AcDbEntity
  8
0
  6
Continuous
 62
     8
370
    25
100
AcDbSpline
210
0.0
220
0.0
230
1.0
 70
     8
 71
     3
 72
    29
 73
    25
 74
     0
 42
0.000000001
 43
0.00000001
 40
0.0
 40
0.0
 40
0.0
 40
0.0
 40
0.023849021028426
 40
0.0731954602106225
 40
0.1243623028350737
 40
0.1353129407592663
 40
0.1900898049037353
 40
0.2464296398396802
 40
0.2957922385150137
 40
0.3462621607583689
 40
0.393085170610009
 40
0.4411782254091092
 40
0.4876842334222697
 40
0.5357310501060425
 40
0.5671834059898755
 40
0.5990709083960029
 40
0.6549918016839835
 40
0.7128929994266265
 40
0.7647126407356142
 40
0.8177487643617419
 40
0.8630319449304642
 40
0.9093023575310689
 40
0.9548751038925626
 40
1.0
 40
1.0
 40
1.0
 40
1.0
 10
169.9845815328745
 20
-24.5280734198965
 30
0.0
 10
169.987608862932
 20
-24.52579282595859
 30
0.0
 10
169.9969000961656
 20
-24.51879341400622
 30
0.0
 10
169.8751919664584
 20
-24.61048046163411
 30
0.0
 10
169.695483606519
 20
-24.73860102425497
 30
0.0
 10
169.4504235658281
 20
-24.90320042381827
 30
0.0
 10
169.1387635167339
 20
-25.10123869384564
 30
0.0
 10
168.6186926709742
 20
-25.38684932670624
 30
0.0
 10
168.0198841106504
 20
-25.6598165690171
 30
0.0
 10
167.3812694726115
 20
-25.89165155155494
 30
0.0
 10
166.6835391367491
 20
-26.07841072168495
 30
0.0
 10
165.955335924379
 20
-26.20359201766921
 30
0.0
 10
165.1905858876893
 20
-26.26025610558901
 30
0.0
 10
164.5087686550706
 20
-26.24340226134242
 30
0.0
 10
163.9193975267288
 20
-26.18036049787557
 30
0.0
 10
163.3072995716772
 20
-26.07525360491377
 30
0.0
 10
162.6027452400675
 20
-25.89049509254579
 30
0.0
 10
161.8894618983516
 20
-25.62374157986778
 30
0.0
 10
161.2831743833769
 20
-25.33611323999099
 30
0.0
 10
160.8141630224688
 20
-25.07142938127813
 30
0.0
 10
160.4513092123839
 20
-24.83993913185998
 30
0.0
 10
160.1964035184675
 20
-24.66252508674965
 30
0.0
 10
160.0302600229062
 20
-24.53950611364762
 30
0.0
 10
160.0115720204955
 20
-24.52523967867236
 30
0.0
 10
160.0022741584532
 20
-24.5181416838562
 30
0.0
  0
LINE
  5
357
330
23
100
AcDbEntity
  8
0
  6
Continuous
 62
     7
370
    25
100
AcDbLine
 10
160.0
 20
-24.5182147227
 30
0.0
 11
160.0
 21
-33.3
 31
0.0
  0
LINE
  5
358
330
23
100
AcDbEntity
  8
0
  6
Continuous
 62
     7
370
    25
100
AcDbLine
 10
170.0
 20
-33.3
 30
0.0
 11
170.0
 21
-24.528074236
 31
0.0
  0
LINE
  5
359
330
23
100
AcDbEntity
  8
0
  6
Continuous
 62
     7
370
    25
100
AcDbLine
 10
174.5
 20
-41.5
 30
0.0
 11
174.5
 21
-33.8
 31
0.0
  0
LINE
  5
35A
330
23
100
AcDbEntity
  8
0
  6
Continuous
 62
     7
370
    25
100
AcDbLine
 10
127.7
 20
-33.8
 30
0.0
 11
127.7
 21
-41.5
 31
0.0
  0
LINE
  5
35B
330
23
100
AcDbEntity
  8
0
  6
Continuous
 62
     7
370
    25
100
AcDbLine
 10
460.0
 20
2.0
 30
0.0
 11
460.0
 21
-4.3
 31
0.0
  0
LINE
  5
35C
330
23
100
AcDbEntity
  8
0
  6
Continuous
 62
     7
370
    25
100
AcDbLine
 10
480.0
 20
-4.3
 30
0.0
 11
480.0
 21
2.0
 31
0.0
  0
LINE
  5
35D
330
23
100
AcDbEntity
  8
0
  6
Continuous
 62
     7
370
    25
100
AcDbLine
 10
565.0
 20
7.0
 30
0.0
 11
565.0
 21
11.0
 31
0.0
  0
LINE
  5
35E
330
23
100
AcDbEntity
  8
0
  6
Continuous
 62
     7
370
    25
100
AcDbLine
 10
503.6066017178
 20
-35.1
 30
0.0
 11
503.6066017178
 21
-27.1
 31
0.0
  0
LINE
  5
35F
330
23
100
AcDbEntity
  8
0
  6
Continuous
 62
     7
370
    25
100
AcDbLine
 10
466.3933982822
 20
-27.1
 30
0.0
 11
466.3933982822
 21
-35.1
 31
0.0
  0
LINE
  5
360
330
23
100
AcDbEntity
  8
0
  6
Continuous
 62
     7
370
    25
100
AcDbLine
 10
232.3933982822
 20
-27.1
 30
0.0
 11
232.3933982822
 21
-35.1
 31
0.0
  0
LINE
  5
361
330
23
100
AcDbEntity
  8
0
  6
Continuous
 62
     7
370
    25
100
AcDbLine
 10
269.6066017178
 20
-35.1
 30
0.0
 11
269.6066017178
 21
-27.1
 31
0.0
  0
LINE
  5
362
330
23
100
AcDbEntity
  8
0
  6
Continuous
 62
     7
370
    25
100
AcDbLine
 10
565.0
 20
-22.1
 30
0.0
 11
565.0
 21
-18.1
 31
0.0
  0
LINE
  5
363
330
23
100
AcDbEntity
  8
0
  6
Continuous
 62
     7
370
    25
100
AcDbLine
 10
175.0
 20
-15.0
 30
0.0
 11
175.0
 21
-10.9
 31
0.0
  0
LINE
  5
364
330
23
100
AcDbEntity
  8
0
  6
Continuous
 62
     7
370
    25
100
AcDbLine
 10
220.0
 20
-2.9
 30
0.0
 11
220.0
 21
2.0
 31
0.0
  0
LINE
  5
365
330
23
100
AcDbEntity
  8
0
  6
Continuous
 62
     7
370
    25
100
AcDbLine
 10
183.0
 20
-2.9
 30
0.0
 11
228.0
 21
-2.9
 31
0.0
  0
LINE
  5
366
330
23
100
AcDbEntity
  8
0
  6
Continuous
 62
     7
370
    25
100
AcDbLine
 10
176.4066499188
 20
1.2658784815
 30
0.0
 11
160.8153909436
 21
-5.9176518981
 31
0.0
  0
LINE
  5
367
330
23
100
AcDbEntity
  8
0
  6
Continuous
 62
     7
370
    25
100
AcDbLine
 10
228.0
 20
2.0
 30
0.0
 11
228.0
 21
-2.9
 31
0.0
  0
LINE
  5
368
330
23
100
AcDbEntity
  8
0
  6
Continuous
 62
     7
370
    25
100
AcDbLine
 10
211.0
 20
-32.0
 30
0.0
 11
211.0
 21
-27.1
 31
0.0
  0
LINE
  5
369
330
23
100
AcDbEntity
  8
0
  6
Continuous
 62
     7
370
    25
100
AcDbLine
 10
219.0
 20
-32.0
 30
0.0
 11
170.0
 21
-32.0
 31
0.0
  0
LINE
  5
36A
330
23
100
AcDbEntity
  8
0
  6
Continuous
 62
     7
370
    25
100
AcDbLine
 10
175.0
 20
-26.1
 30
0.0
 11
175.0
 21
-17.25
 31
0.0
  0
LINE
  5
36B
330
23
100
AcDbEntity
  8
0
  6
Continuous
 62
     7
370
    25
100
AcDbLine
 10
219.0
 20
-27.1
 30
0.0
 11
219.0
 21
-32.0
 31
0.0
  0
LINE
  5
36C
330
23
100
AcDbEntity
  8
0
  6
Continuous
 62
     7
370
    25
100
AcDbLine
 10
127.7
 20
-41.5
 30
0.0
 11
174.5
 21
-41.5
 31
0.0
  0
LINE
  5
36D
330
23
100
AcDbEntity
  8
0
  6
Continuous
 62
     7
370
    25
100
AcDbLine
 10
127.7
 20
-39.5
 30
0.0
 11
174.5
 21
-39.5
 31
0.0
  0
LINE
  5
36E
330
23
100
AcDbEntity
  8
0
  6
Continuous
 62
     7
370
    25
100
AcDbLine
 10
128.2
 20
-33.3
 30
0.0
 11
174.0
 21
-33.3
 31
0.0
  0
LINE
  5
36F
330
23
100
AcDbEntity
  8
0
  6
Continuous
 62
     7
370
    25
100
AcDbLine
 10
478.0
 20
-6.3
 30
0.0
 11
462.0
 21
-6.3
 31
0.0
  0
LINE
  5
370
330
23
100
AcDbEntity
  8
0
  6
Continuous
 62
     7
370
    25
100
AcDbLine
 10
391.0
 20
2.0
 30
0.0
 11
391.0
 21
21.0
 31
0.0
  0
LINE
  5
371
330
23
100
AcDbEntity
  8
0
  6
Continuous
 62
     7
370
    25
100
AcDbLine
 10
185.0
 20
21.0
 30
0.0
 11
555.0
 21
21.0
 31
0.0
  0
LINE
  5
372
330
23
100
AcDbEntity
  8
0
  6
Continuous
 62
     7
370
    25
100
AcDbLine
 10
175.0
 20
7.0
 30
0.0
 11
565.0
 21
7.0
 31
0.0
  0
LINE
  5
373
330
23
100
AcDbEntity
  8
0
  6
Continuous
 62
     7
370
    25
100
AcDbLine
 10
331.0
 20
21.0
 30
0.0
 11
331.0
 21
2.0
 31
0.0
  0
LINE
  5
374
330
23
100
AcDbEntity
  8
0
  6
Continuous
 62
     7
370
    25
100
AcDbLine
 10
565.0
 20
11.0
 30
0.0
 11
175.0
 21
11.0
 31
0.0
  0
LINE
  5
375
330
23
100
AcDbEntity
  8
0
  6
Continuous
 62
     7
370
    25
100
AcDbLine
 10
560.0
 20
2.0
 30
0.0
 11
179.754337164
 21
2.0
 31
0.0
  0
LINE
  5
376
330
23
100
AcDbEntity
  8
0
  6
Continuous
 62
     7
370
    25
100
AcDbLine
 10
242.4582912452
 20
11.0
 30
0.0
 11
242.4582912452
 21
7.0
 31
0.0
  0
LINE
  5
377
330
23
100
AcDbEntity
  8
0
  6
Continuous
 62
     7
370
    25
100
AcDbLine
 10
188.0422752238
 20
11.0
 30
0.0
 11
188.0422752238
 21
7.0
 31
0.0
  0
LINE
  5
378
330
23
100
AcDbEntity
  8
0
  6
Continuous
 62
     7
370
    25
100
AcDbLine
 10
175.0
 20
11.0
 30
0.0
 11
175.0
 21
7.0
 31
0.0
  0
LINE
  5
379
330
23
100
AcDbEntity
  8
0
  6
Continuous
 62
     7
370
    25
100
AcDbLine
 10
501.6066017178
 20
-37.1
 30
0.0
 11
468.3933982822
 21
-37.1
 31
0.0
  0
LINE
  5
37A
330
23
100
AcDbEntity
  8
0
  6
Continuous
 62
     7
370
    25
100
AcDbLine
 10
489.9497474683
 20
-35.1
 30
0.0
 11
489.9497474683
 21
-27.1
 31
0.0
  0
LINE
  5
37B
330
23
100
AcDbEntity
  8
0
  6
Continuous
 62
     7
370
    25
100
AcDbLine
 10
466.3933982822
 20
-35.1
 30
0.0
 11
503.6066017178
 21
-35.1
 31
0.0
  0
LINE
  5
37C
330
23
100
AcDbEntity
  8
0
  6
Continuous
 62
     7
370
    25
100
AcDbLine
 10
468.7365440327
 20
-35.1
 30
0.0
 11
468.7365440327
 21
-27.1
 31
0.0
  0
LINE
  5
37D
330
23
100
AcDbEntity
  8
0
  6
Continuous
 62
     7
370
    25
100
AcDbLine
 10
267.6066017178
 20
-37.1
 30
0.0
 11
234.3933982822
 21
-37.1
 31
0.0
  0
LINE
  5
37E
330
23
100
AcDbEntity
  8
0
  6
Continuous
 62
     7
370
    25
100
AcDbLine
 10
246.0502525317
 20
-35.1
 30
0.0
 11
246.0502525317
 21
-27.1
 31
0.0
  0
LINE
  5
37F
330
23
100
AcDbEntity
  8
0
  6
Continuous
 62
     7
370
    25
100
AcDbLine
 10
267.2634559673
 20
-35.1
 30
0.0
 11
267.2634559673
 21
-27.1
 31
0.0
  0
LINE
  5
380
330
23
100
AcDbEntity
  8
0
  6
Continuous
 62
     7
370
    25
100
AcDbLine
 10
232.3933982822
 20
-35.1
 30
0.0
 11
269.6066017178
 21
-35.1
 31
0.0
  0
LINE
  5
381
330
23
100
AcDbEntity
  8
0
  6
Continuous
 62
     7
370
    25
100
AcDbLine
 10
175.0
 20
-22.1
 30
0.0
 11
565.0
 21
-22.1
 31
0.0
  0
LINE
  5
382
330
23
100
AcDbEntity
  8
0
  6
Continuous
 62
     7
370
    25
100
AcDbLine
 10
391.0
 20
-27.1
 30
0.0
 11
391.0
 21
-8.1
 31
0.0
  0
LINE
  5
383
330
23
100
AcDbEntity
  8
0
  6
Continuous
 62
     7
370
    25
100
AcDbLine
 10
560.0
 20
-27.1
 30
0.0
 11
176.0
 21
-27.1
 31
0.0
  0
LINE
  5
384
330
23
100
AcDbEntity
  8
0
  6
Continuous
 62
     7
370
    25
100
AcDbLine
 10
331.0
 20
-8.1
 30
0.0
 11
331.0
 21
-27.1
 31
0.0
  0
LINE
  5
385
330
23
100
AcDbEntity
  8
0
  6
Continuous
 62
     7
370
    25
100
AcDbLine
 10
565.0
 20
-18.1
 30
0.0
 11
175.0
 21
-18.1
 31
0.0
  0
LINE
  5
386
330
23
100
AcDbEntity
  8
0
  6
Continuous
 62
     7
370
    25
100
AcDbLine
 10
185.0
 20
-8.1
 30
0.0
 11
555.0
 21
-8.1
 31
0.0
  0
LINE
  5
387
330
23
100
AcDbEntity
  8
0
  6
Continuous
 62
     7
370
    25
100
AcDbLine
 10
242.4582912452
 20
-18.1
 30
0.0
 11
242.4582912452
 21
-22.1
 31
0.0
  0
LINE
  5
388
330
23
100
AcDbEntity
  8
0
  6
Continuous
 62
     7
370
    25
100
AcDbLine
 10
188.0422752238
 20
-22.1
 30
0.0
 11
188.0422752238
 21
-18.1
 31
0.0
  0
LINE
  5
389
330
23
100
AcDbEntity
  8
0
  6
Continuous
 62
     7
370
    25
100
AcDbLine
 10
175.0720794936
 20
-16.9015032668
 30
0.0
 11
175.0
 21
-18.1
 31
0.0
  0
LINE
  5
38A
330
23
100
AcDbEntity
  8
0
  6
Continuous
 62
     8
370
    25
100
AcDbLine
 10
174.5
 20
-33.8
 30
0.0
 11
127.7
 21
-33.8
 31
0.0
  0
LINE
  5
38B
330
23
100
AcDbEntity
  8
0
  6
Continuous
 62
     8
370
    25
100
AcDbLine
 10
460.0
 20
-4.3
 30
0.0
 11
480.0
 21
-4.3
 31
0.0
  0
ARC
  5
38C
330
23
100
AcDbEntity
  8
0
  6
Continuous
 62
     7
370
    25
100
AcDbCircle
 10
159.0
 20
-24.5164331553
 30
0.0
 40
0.9999999999995763
100
AcDbArc
 50
359.907546958
 51
56.7140825699
  0
ARC
  5
38D
330
23
100
AcDbEntity
  8
0
  6
Continuous
 62
     7
370
    25
100
AcDbCircle
 10
128.2
 20
-33.8
 30
0.0
 40
0.5000000000000284
100
AcDbArc
 50
90.0
 51
180.0
  0
ARC
  5
38E
330
23
100
AcDbEntity
  8
0
  6
Continuous
 62
     7
370
    25
100
AcDbCircle
 10
174.0
 20
-33.8
 30
0.0
 40
0.5000000000000284
100
AcDbArc
 50
0.0
 51
90.0
  0
ARC
  5
38F
330
23
100
AcDbEntity
  8
0
  6
Continuous
 62
     7
370
    25
100
AcDbCircle
 10
478.0
 20
-4.3
 30
0.0
 40
2.000000000000114
100
AcDbArc
 50
270.0
 51
360.0
  0
ARC
  5
390
330
23
100
AcDbEntity
  8
0
  6
Continuous
 62
     7
370
    25
100
AcDbCircle
 10
462.0
 20
-4.3
 30
0.0
 40
2.0
100
AcDbArc
 50
180.0
 51
270.0
  0
ARC
  5
391
330
23
100
AcDbEntity
  8
0
  6
Continuous
 62
     7
370
    25
100
AcDbCircle
 10
555.0
 20
11.0
 30
0.0
 40
9.999999999999924
100
AcDbArc
 50
0.0
 51
90.0
  0
ARC
  5
392
330
23
100
AcDbEntity
  8
0
  6
Continuous
 62
     7
370
    25
100
AcDbCircle
 10
560.0
 20
7.0
 30
0.0
 40
4.999999999999932
100
AcDbArc
 50
270.0
 51
0.0
  0
ARC
  5
393
330
23
100
AcDbEntity
  8
0
  6
Continuous
 62
     7
370
    25
100
AcDbCircle
 10
501.6066017178
 20
-35.1
 30
0.0
 40
1.999999999999979
100
AcDbArc
 50
270.0
 51
0.0
  0
ARC
  5
394
330
23
100
AcDbEntity
  8
0
  6
Continuous
 62
     7
370
    25
100
AcDbCircle
 10
468.3933982822
 20
-35.1
 30
0.0
 40
2.000000000000121
100
AcDbArc
 50
180.0
 51
270.0
  0
ARC
  5
395
330
23
100
AcDbEntity
  8
0
  6
Continuous
 62
     7
370
    25
100
AcDbCircle
 10
234.3933982822
 20
-35.1
 30
0.0
 40
2.000000000000057
100
AcDbArc
 50
180.0
 51
270.0
  0
ARC
  5
396
330
23
100
AcDbEntity
  8
0
  6
Continuous
 62
     7
370
    25
100
AcDbCircle
 10
267.6066017178
 20
-35.1
 30
0.0
 40
2.000000000000121
100
AcDbArc
 50
270.0
 51
360.0
  0
ARC
  5
397
330
23
100
AcDbEntity
  8
0
  6
Continuous
 62
     7
370
    25
100
AcDbCircle
 10
555.0
 20
-18.1
 30
0.0
 40
10.00000000000023
100
AcDbArc
 50
0.0
 51
90.0
  0
ARC
  5
398
330
23
100
AcDbEntity
  8
0
  6
Continuous
 62
     7
370
    25
100
AcDbCircle
 10
560.0
 20
-22.1
 30
0.0
 40
5.000000000000114
100
AcDbArc
 50
270.0
 51
0.0
  0
ARC
  5
399
330
23
100
AcDbEntity
  8
0
  6
Continuous
 62
     7
370
    25
100
AcDbCircle
 10
165.0
 20
-15.0
 30
0.0
 40
10.25000000000006
100
AcDbArc
 50
102.0570726117
 51
12.6803834922
  0
ARC
  5
39A
330
23
100
AcDbEntity
  8
0
  6
Continuous
 62
     7
370
    25
100
AcDbCircle
 10
183.0
 20
-10.9
 30
0.0
 40
8.00000000000001
100
AcDbArc
 50
90.0
 51
180.0
  0
ARC
  5
39B
330
23
100
AcDbEntity
  8
0
  6
Continuous
 62
     7
370
    25
100
AcDbCircle
 10
179.754337164
 20
-6.0
 30
0.0
 40
8.000000000000247
100
AcDbArc
 50
90.0
 51
114.7374561037
  0
ARC
  5
39C
330
23
100
AcDbEntity
  8
0
  6
Continuous
 62
     7
370
    25
100
AcDbCircle
 10
165.0
 20
-15.0
 30
0.0
 40
10.00000000000001
100
AcDbArc
 50
114.7374561037
 51
0.0
  0
ARC
  5
39D
330
23
100
AcDbEntity
  8
0
  6
Continuous
 62
     7
370
    25
100
AcDbCircle
 10
176.0
 20
-26.1
 30
0.0
 40
1.000000000000028
100
AcDbArc
 50
180.0
 51
270.0
  0
ARC
  5
39E
330
23
100
AcDbEntity
  8
0
  6
Continuous
 62
     7
370
    25
100
AcDbCircle
 10
180.0
 20
7.0
 30
0.0
 40
5.000000000000057
100
AcDbArc
 50
180.0
 51
270.0
  0
ARC
  5
39F
330
23
100
AcDbEntity
  8
0
  6
Continuous
 62
     7
370
    25
100
AcDbCircle
 10
185.0
 20
11.0
 30
0.0
 40
10.0
100
AcDbArc
 50
90.0
 51
180.0
  0
ARC
  5
3A0
330
23
100
AcDbEntity
  8
0
  6
Continuous
 62
     7
370
    25
100
AcDbCircle
 10
491.7175144213
 20
-35.35
 30
0.0
 40
1.785357107135882
100
AcDbArc
 50
171.9505330245
 51
258.578246341
  0
ARC
  5
3A1
330
23
100
AcDbEntity
  8
0
  6
Continuous
 62
     7
370
    25
100
AcDbCircle
 10
470.5043109857
 20
-35.35
 30
0.0
 40
1.785357107135784
100
AcDbArc
 50
171.9505330245
 51
258.578246341
  0
ARC
  5
3A2
330
23
100
AcDbEntity
  8
0
  6
Continuous
 62
     7
370
    25
100
AcDbCircle
 10
244.2824855787
 20
-35.35
 30
0.0
 40
1.785357107135702
100
AcDbArc
 50
281.421753659
 51
8.0494669755
  0
ARC
  5
3A3
330
23
100
AcDbEntity
  8
0
  6
Continuous
 62
     7
370
    25
100
AcDbCircle
 10
265.4956890143
 20
-35.35
 30
0.0
 40
1.785357107135749
100
AcDbArc
 50
281.421753659
 51
8.0494669755
  0
ARC
  5
3A4
330
23
100
AcDbEntity
  8
0
  6
Continuous
 62
     7
370
    25
100
AcDbCircle
 10
185.0
 20
-18.1
 30
0.0
 40
9.999999999999977
100
AcDbArc
 50
90.0
 51
169.2619609102
  0
ARC
  5
3A5
330
23
100
AcDbEntity
  8
0
  6
Continuous
 62
     7
370
    25
100
AcDbCircle
 10
180.0
 20
-22.1
 30
0.0
 40
5.0
100
AcDbArc
 50
180.0
 51
270.0
  0
VIEWPORT
  5
82C
330
23
100
AcDbEntity
  8
0
100
AcDbViewport
 10
0.0
 20
0.0
 30
0.0
 40
205.6
 41
156.0
 68
     1
 69
     1
 12
0.0
 22
-10.25
 13
0.0
 23
0.0
 14
10.0
 24
10.0
 15
10.0
 25
10.0
 16
0.0
 26
0.0
 36
1.0
 17
0.0
 27
0.0
 37
0.0
 42
50.0
 43
0.0
 44
0.0
 45
269.3276264591
 50
0.0
 51
0.0
 72
   100
 90
   557152
  1

281
     0
 71
     1
 74
     0
110
0.0
120
0.0
130
0.0
111
1.0
121
0.0
131
0.0
112
0.0
122
1.0
132
0.0
 79
     0
146
0.0
  0
ENDBLK
  5
25
330
23
100
AcDbEntity
  8
0
100
AcDbBlockEnd
  0
BLOCK
  5
3A8
330
3A6
100
AcDbEntity
  8
0
100
AcDbBlockBegin
  2
*Paper_Space1
 70
     0
 10
0.0
 20
0.0
 30
0.0
  3
*Paper_Space1
  1

  0
SPLINE
  5
3AB
330
3A6
100
AcDbEntity
  8
0
  6
Continuous
 62
     7
370
    25
100
AcDbSpline
210
0.0
220
0.0
230
1.0
 70
     8
 71
     3
 72
    19
 73
    15
 74
     0
 42
0.000000001
 43
0.00000001
 40
0.0
 40
0.0
 40
0.0
 40
0.0
 40
0.0973927366187698
 40
0.3655649670275587
 40
0.5013756926177726
 40
0.5608572920273965
 40
0.5680415928157915
 40
0.5733988095060265
 40
0.5799994811493582
 40
0.5994486323506473
 40
0.700490795394173
 40
0.8305060850257451
 40
0.9594452368783584
 40
1.0
 40
1.0
 40
1.0
 40
1.0
 10
-170.3247102342956
 20
-23.76455160356509
 30
0.0
 10
-170.3478269478927
 20
-23.75150277606238
 30
0.0
 10
-170.4345958480929
 20
-23.70252382381828
 30
0.0
 10
-170.4715483241819
 20
-23.6815071748964
 30
0.0
 10
-170.4872635771215
 20
-23.6727666987001
 30
0.0
 10
-170.4959093772924
 20
-23.66767028015627
 30
0.0
 10
-170.4821559566553
 20
-23.67566390302716
 30
0.0
 10
-170.4742972693761
 20
-23.68030723269643
 30
0.0
 10
-170.4549763581242
 20
-23.69201178928049
 30
0.0
 10
-170.3689324831476
 20
-23.74778363531393
 30
0.0
 10
-170.2172551850689
 20
-23.88004817259779
 30
0.0
 10
-170.0644116435712
 20
-24.12519090314432
 30
0.0
 10
-169.9835917479921
 20
-24.35978760275345
 30
0.0
 10
-169.9969304318883
 20
-24.49477949014002
 30
0.0
 10
-170.0001219751709
 20
-24.52707896246702
 30
0.0
  0
LWPOLYLINE
  5
3E6
330
3A6
100
AcDbEntity
  8
0
  6
Continuous
 62
     7
370
    25
100
AcDbPolyline
 90
        9
 70
   128
 43
0.0
 10
-245.0025932209
 20
2.0
 10
-244.5062245292
 20
2.096073598
 10
-244.0289310079
 20
2.3806023374
 10
-243.5890547794
 20
2.8426519385
 10
-243.2035000405
 20
3.4644660941
 10
-242.8870834436
 20
4.2221488349
 10
-242.6519647011
 20
5.0865828382
 10
-242.5071792943
 20
6.0245483899
 10
-242.4582912452
 20
7.0
  0
LWPOLYLINE
  5
3EF
330
3A6
100
AcDbEntity
  8
0
  6
Continuous
 62
     7
370
    25
100
AcDbPolyline
 90
        9
 70
   128
 43
0.0
 10
-242.4582912452
 20
11.0
 10
-242.5560673433
 20
12.9509032202
 10
-242.8456381569
 20
14.8268343237
 10
-243.315875642
 20
16.5557023302
 10
-243.9487088358
 20
18.0710678119
 10
-244.7198183136
 20
19.314696123
 10
-245.5995707706
 20
20.2387953251
 10
-246.5541578132
 20
20.807852804
 10
-247.5468951967
 20
21.0
  0
LWPOLYLINE
  5
3F3
330
3A6
100
AcDbEntity
  8
0
  6
Continuous
 62
     7
370
    25
100
AcDbPolyline
 90
        9
 70
   128
 43
0.0
 10
-188.0422752238
 20
11.0
 10
-188.1717715044
 20
12.9509032202
 10
-188.5552838769
 20
14.8268343237
 10
-189.1780741757
 20
16.5557023302
 10
-190.0162089192
 20
18.0710678119
 10
-191.0374790589
 20
19.314696123
 10
-192.2026377563
 20
20.2387953251
 10
-193.466908616
 20
20.807852804
 10
-194.7817064178
 20
21.0
  0
LWPOLYLINE
  5
3F6
330
3A6
100
AcDbEntity
  8
0
  6
Continuous
 62
     7
370
    25
100
AcDbPolyline
 90
        9
 70
   128
 43
0.0
 10
-191.4119908208
 20
2.0
 10
-190.7545919199
 20
2.096073598
 10
-190.12245649
 20
2.3806023374
 10
-189.5398771413
 20
2.8426519385
 10
-189.0292420715
 20
3.4644660941
 10
-188.6101746997
 20
4.2221488349
 10
-188.2987795503
 20
5.0865828382
 10
-188.1070233641
 20
6.0245483899
 10
-188.0422752238
 20
7.0
  0
LWPOLYLINE
  5
413
330
3A6
100
AcDbEntity
  8
0
  6
Continuous
 62
     7
370
    25
100
AcDbPolyline
 90
        9
 70
   128
 43
0.0
 10
-242.4582912452
 20
-18.1
 10
-242.5560673433
 20
-16.1490967798
 10
-242.8456381569
 20
-14.2731656763
 10
-243.315875642
 20
-12.5442976698
 10
-243.9487088358
 20
-11.0289321881
 10
-244.7198183136
 20
-9.785303877
 10
-245.5995707706
 20
-8.8612046749
 10
-246.5541578132
 20
-8.292147196
 10
-247.5468951967
 20
-8.1
  0
LWPOLYLINE
  5
41B
330
3A6
100
AcDbEntity
  8
0
  6
Continuous
 62
     7
370
    25
100
AcDbPolyline
 90
        9
 70
   128
 43
0.0
 10
-245.0025932209
 20
-27.1
 10
-244.5062245292
 20
-27.003926402
 10
-244.0289310079
 20
-26.7193976626
 10
-243.5890547794
 20
-26.2573480615
 10
-243.2035000405
 20
-25.6355339059
 10
-242.8870834436
 20
-24.8778511651
 10
-242.6519647011
 20
-24.0134171618
 10
-242.5071792943
 20
-23.0754516101
 10
-242.4582912452
 20
-22.1
  0
LWPOLYLINE
  5
426
330
3A6
100
AcDbEntity
  8
0
  6
Continuous
 62
     7
370
    25
100
AcDbPolyline
 90
        9
 70
   128
 43
0.0
 10
-191.4119908208
 20
-27.1
 10
-190.7545919199
 20
-27.003926402
 10
-190.12245649
 20
-26.7193976626
 10
-189.5398771413
 20
-26.2573480615
 10
-189.0292420715
 20
-25.6355339059
 10
-188.6101746997
 20
-24.8778511651
 10
-188.2987795503
 20
-24.0134171618
 10
-188.1070233641
 20
-23.0754516101
 10
-188.0422752238
 20
-22.1
  0
LWPOLYLINE
  5
428
330
3A6
100
AcDbEntity
  8
0
  6
Continuous
 62
     7
370
    25
100
AcDbPolyline
 90
        9
 70
   128
 43
0.0
 10
-188.0422752238
 20
-18.1
 10
-188.1717715044
 20
-16.1490967798
 10
-188.5552838769
 20
-14.2731656763
 10
-189.1780741757
 20
-12.5442976698
 10
-190.0162089192
 20
-11.0289321881
 10
-191.0374790589
 20
-9.785303877
 10
-192.2026377563
 20
-8.8612046749
 10
-193.466908616
 20
-8.292147196
 10
-194.7817064178
 20
-8.1
  0
SPLINE
  5
432
330
3A6
100
AcDbEntity
  8
0
  6
Continuous
 62
     8
370
    25
100
AcDbSpline
210
0.0
220
0.0
230
1.0
 70
     8
 71
     3
 72
    19
 73
    15
 74
     0
 42
0.000000001
 43
0.00000001
 40
0.0
 40
0.0
 40
0.0
 40
0.0
 40
0.0305626956464989
 40
0.136432725653389
 40
0.2466441294549801
 40
0.3570694401613257
 40
0.471013915693426
 40
0.4732911028471944
 40
0.5738054583511816
 40
0.6765450760211912
 40
0.765628582803736
 40
0.8567581660431536
 40
0.9505134526545908
 40
1.0
 40
1.0
 40
1.0
 40
1.0
 10
-164.9999999999999
 20
-26.24999999999937
 30
0.0
 10
-165.0822719230885
 20
-26.24919131191363
 30
0.0
 10
-165.4495360820339
 20
-26.24558130574738
 30
0.0
 10
-166.109925536777
 20
-26.18608916364807
 30
0.0
 10
-166.9377141630907
 20
-26.02195825461364
 30
0.0
 10
-167.710971885442
 20
-25.78243582160836
 30
0.0
 10
-168.1725273630707
 20
-25.58990099331036
 30
0.0
 10
-168.5785013014988
 20
-25.40107670759991
 30
0.0
 10
-168.93518140704
 20
-25.21760798816719
 30
0.0
 10
-169.3534102070182
 20
-24.9675805079282
 30
0.0
 10
-169.6709192167549
 20
-24.75637464463619
 30
0.0
 10
-169.8830025300452
 20
-24.60453712768417
 30
0.0
 10
-169.9959189526041
 20
-24.51953964843528
 30
0.0
 10
-169.9874926271293
 20
-24.52588221469325
 30
0.0
 10
-169.9845815379381
 20
-24.52807341608147
 30
0.0
  0
SPLINE
  5
433
330
3A6
100
AcDbEntity
  8
0
  6
Continuous
 62
     8
370
    25
100
AcDbSpline
210
0.0
220
0.0
230
1.0
 70
     8
 71
     3
 72
    19
 73
    15
 74
     0
 42
0.000000001
 43
0.00000001
 40
0.0
 40
0.0
 40
0.0
 40
0.0
 40
0.003894270065875
 40
0.0989291017976893
 40
0.1974560173148905
 40
0.2214596288946349
 40
0.3324631384157001
 40
0.4469904728672189
 40
0.548191679793606
 40
0.6516938039317365
 40
0.7442529290879284
 40
0.8390946692237069
 40
0.9186295322510335
 40
1.0
 40
1.0
 40
1.0
 40
1.0
 10
-160.0022858444184
 20
-24.51815046022168
 30
0.0
 10
-160.0015309941587
 20
-24.51758342132014
 30
0.0
 10
-159.9823549593889
 20
-24.50317850120284
 30
0.0
 10
-160.0545716178992
 20
-24.55792133146353
 30
0.0
 10
-160.1829499019321
 20
-24.65224743856026
 30
0.0
 10
-160.3856047973332
 20
-24.79412380508376
 30
0.0
 10
-160.6634114744715
 20
-24.97992471763299
 30
0.0
 10
-161.1470823417617
 20
-25.26407012376199
 30
0.0
 10
-161.7196949162037
 20
-25.54801126363344
 30
0.0
 10
-162.3352327036436
 20
-25.79605341495823
 30
0.0
 10
-163.006669899119
 20
-26.00347498962919
 30
0.0
 10
-163.6747321052475
 20
-26.14629292138007
 30
0.0
 10
-164.3472337056577
 20
-26.23403025984652
 30
0.0
 10
-164.7807626720261
 20
-26.2446364216561
 30
0.0
 10
-164.9999999999998
 20
-26.24999999999936
 30
0.0
  0
LINE
  5
43E
330
3A6
100
AcDbEntity
  8
0
  6
Continuous
 62
     7
370
    25
100
AcDbLine
 10
-170.0
 20
-24.528074236
 30
0.0
 11
-170.0
 21
-33.3
 31
0.0
  0
LINE
  5
43F
330
3A6
100
AcDbEntity
  8
0
  6
Continuous
 62
     7
370
    25
100
AcDbLine
 10
-160.0
 20
-33.3
 30
0.0
 11
-160.0
 21
-24.5182147227
 31
0.0
  0
LINE
  5
440
330
3A6
100
AcDbEntity
  8
0
  6
Continuous
 62
     7
370
    25
100
AcDbLine
 10
-127.7
 20
-41.5
 30
0.0
 11
-127.7
 21
-33.8
 31
0.0
  0
LINE
  5
441
330
3A6
100
AcDbEntity
  8
0
  6
Continuous
 62
     7
370
    25
100
AcDbLine
 10
-174.5
 20
-33.8
 30
0.0
 11
-174.5
 21
-41.5
 31
0.0
  0
LINE
  5
442
330
3A6
100
AcDbEntity
  8
0
  6
Continuous
 62
     7
370
    25
100
AcDbLine
 10
-480.0
 20
2.0
 30
0.0
 11
-480.0
 21
-4.3
 31
0.0
  0
LINE
  5
443
330
3A6
100
AcDbEntity
  8
0
  6
Continuous
 62
     7
370
    25
100
AcDbLine
 10
-460.0
 20
-4.3
 30
0.0
 11
-460.0
 21
2.0
 31
0.0
  0
LINE
  5
444
330
3A6
100
AcDbEntity
  8
0
  6
Continuous
 62
     7
370
    25
100
AcDbLine
 10
-565.0
 20
11.0
 30
0.0
 11
-565.0
 21
7.0
 31
0.0
  0
LINE
  5
445
330
3A6
100
AcDbEntity
  8
0
  6
Continuous
 62
     7
370
    25
100
AcDbLine
 10
-503.6066017178
 20
-27.1
 30
0.0
 11
-503.6066017178
 21
-35.1
 31
0.0
  0
LINE
  5
446
330
3A6
100
AcDbEntity
  8
0
  6
Continuous
 62
     7
370
    25
100
AcDbLine
 10
-466.3933982822
 20
-35.1
 30
0.0
 11
-466.3933982822
 21
-27.1
 31
0.0
  0
LINE
  5
447
330
3A6
100
AcDbEntity
  8
0
  6
Continuous
 62
     7
370
    25
100
AcDbLine
 10
-232.3933982822
 20
-35.1
 30
0.0
 11
-232.3933982822
 21
-27.1
 31
0.0
  0
LINE
  5
448
330
3A6
100
AcDbEntity
  8
0
  6
Continuous
 62
     7
370
    25
100
AcDbLine
 10
-269.6066017178
 20
-27.1
 30
0.0
 11
-269.6066017178
 21
-35.1
 31
0.0
  0
LINE
  5
449
330
3A6
100
AcDbEntity
  8
0
  6
Continuous
 62
     7
370
    25
100
AcDbLine
 10
-565.0
 20
-18.1
 30
0.0
 11
-565.0
 21
-22.1
 31
0.0
  0
LINE
  5
44A
330
3A6
100
AcDbEntity
  8
0
  6
Continuous
 62
     7
370
    25
100
AcDbLine
 10
-176.4066499189
 20
1.2658784816
 30
0.0
 11
-160.8153909436
 21
-5.917651898
 31
0.0
  0
LINE
  5
44B
330
3A6
100
AcDbEntity
  8
0
  6
Continuous
 62
     7
370
    25
100
AcDbLine
 10
-175.0
 20
-15.0
 30
0.0
 11
-175.0
 21
-10.9
 31
0.0
  0
LINE
  5
44C
330
3A6
100
AcDbEntity
  8
0
  6
Continuous
 62
     7
370
    25
100
AcDbLine
 10
-183.0
 20
-2.9
 30
0.0
 11
-228.0
 21
-2.9
 31
0.0
  0
LINE
  5
44D
330
3A6
100
AcDbEntity
  8
0
  6
Continuous
 62
     7
370
    25
100
AcDbLine
 10
-220.0
 20
2.0
 30
0.0
 11
-220.0
 21
-2.9
 31
0.0
  0
LINE
  5
44E
330
3A6
100
AcDbEntity
  8
0
  6
Continuous
 62
     7
370
    25
100
AcDbLine
 10
-228.0
 20
-2.9
 30
0.0
 11
-228.0
 21
2.0
 31
0.0
  0
LINE
  5
44F
330
3A6
100
AcDbEntity
  8
0
  6
Continuous
 62
     7
370
    25
100
AcDbLine
 10
-211.0
 20
-32.0
 30
0.0
 11
-211.0
 21
-27.1
 31
0.0
  0
LINE
  5
450
330
3A6
100
AcDbEntity
  8
0
  6
Continuous
 62
     7
370
    25
100
AcDbLine
 10
-219.0
 20
-32.0
 30
0.0
 11
-170.0
 21
-32.0
 31
0.0
  0
LINE
  5
451
330
3A6
100
AcDbEntity
  8
0
  6
Continuous
 62
     7
370
    25
100
AcDbLine
 10
-219.0
 20
-27.1
 30
0.0
 11
-219.0
 21
-32.0
 31
0.0
  0
LINE
  5
452
330
3A6
100
AcDbEntity
  8
0
  6
Continuous
 62
     7
370
    25
100
AcDbLine
 10
-175.0
 20
-26.1
 30
0.0
 11
-175.0
 21
-17.25
 31
0.0
  0
LINE
  5
453
330
3A6
100
AcDbEntity
  8
0
  6
Continuous
 62
     7
370
    25
100
AcDbLine
 10
-174.5
 20
-39.5
 30
0.0
 11
-127.7
 21
-39.5
 31
0.0
  0
LINE
  5
454
330
3A6
100
AcDbEntity
  8
0
  6
Continuous
 62
     7
370
    25
100
AcDbLine
 10
-174.5
 20
-41.5
 30
0.0
 11
-127.7
 21
-41.5
 31
0.0
  0
LINE
  5
455
330
3A6
100
AcDbEntity
  8
0
  6
Continuous
 62
     7
370
    25
100
AcDbLine
 10
-174.0
 20
-33.3
 30
0.0
 11
-128.2
 21
-33.3
 31
0.0
  0
LINE
  5
456
330
3A6
100
AcDbEntity
  8
0
  6
Continuous
 62
     7
370
    25
100
AcDbLine
 10
-462.0
 20
-6.3
 30
0.0
 11
-478.0
 21
-6.3
 31
0.0
  0
LINE
  5
457
330
3A6
100
AcDbEntity
  8
0
  6
Continuous
 62
     7
370
    25
100
AcDbLine
 10
-175.0
 20
11.0
 30
0.0
 11
-565.0
 21
11.0
 31
0.0
  0
LINE
  5
458
330
3A6
100
AcDbEntity
  8
0
  6
Continuous
 62
     7
370
    25
100
AcDbLine
 10
-391.0
 20
2.0
 30
0.0
 11
-391.0
 21
21.0
 31
0.0
  0
LINE
  5
459
330
3A6
100
AcDbEntity
  8
0
  6
Continuous
 62
     7
370
    25
100
AcDbLine
 10
-555.0
 20
21.0
 30
0.0
 11
-185.0
 21
21.0
 31
0.0
  0
LINE
  5
45A
330
3A6
100
AcDbEntity
  8
0
  6
Continuous
 62
     7
370
    25
100
AcDbLine
 10
-179.754337164
 20
2.0
 30
0.0
 11
-560.0
 21
2.0
 31
0.0
  0
LINE
  5
45B
330
3A6
100
AcDbEntity
  8
0
  6
Continuous
 62
     7
370
    25
100
AcDbLine
 10
-331.0
 20
2.0
 30
0.0
 11
-331.0
 21
21.0
 31
0.0
  0
LINE
  5
45C
330
3A6
100
AcDbEntity
  8
0
  6
Continuous
 62
     7
370
    25
100
AcDbLine
 10
-565.0
 20
7.0
 30
0.0
 11
-175.0
 21
7.0
 31
0.0
  0
LINE
  5
45D
330
3A6
100
AcDbEntity
  8
0
  6
Continuous
 62
     7
370
    25
100
AcDbLine
 10
-242.4582912452
 20
11.0
 30
0.0
 11
-242.4582912452
 21
7.0
 31
0.0
  0
LINE
  5
45E
330
3A6
100
AcDbEntity
  8
0
  6
Continuous
 62
     7
370
    25
100
AcDbLine
 10
-188.0422752238
 20
11.0
 30
0.0
 11
-188.0422752238
 21
7.0
 31
0.0
  0
LINE
  5
45F
330
3A6
100
AcDbEntity
  8
0
  6
Continuous
 62
     7
370
    25
100
AcDbLine
 10
-175.0
 20
11.0
 30
0.0
 11
-175.0
 21
7.0
 31
0.0
  0
LINE
  5
460
330
3A6
100
AcDbEntity
  8
0
  6
Continuous
 62
     7
370
    25
100
AcDbLine
 10
-468.3933982822
 20
-37.1
 30
0.0
 11
-501.6066017178
 21
-37.1
 31
0.0
  0
LINE
  5
461
330
3A6
100
AcDbEntity
  8
0
  6
Continuous
 62
     7
370
    25
100
AcDbLine
 10
-489.9497474683
 20
-35.1
 30
0.0
 11
-489.9497474683
 21
-27.1
 31
0.0
  0
LINE
  5
462
330
3A6
100
AcDbEntity
  8
0
  6
Continuous
 62
     7
370
    25
100
AcDbLine
 10
-503.6066017178
 20
-35.1
 30
0.0
 11
-466.3933982822
 21
-35.1
 31
0.0
  0
LINE
  5
463
330
3A6
100
AcDbEntity
  8
0
  6
Continuous
 62
     7
370
    25
100
AcDbLine
 10
-468.7365440327
 20
-35.1
 30
0.0
 11
-468.7365440327
 21
-27.1
 31
0.0
  0
LINE
  5
464
330
3A6
100
AcDbEntity
  8
0
  6
Continuous
 62
     7
370
    25
100
AcDbLine
 10
-234.3933982822
 20
-37.1
 30
0.0
 11
-267.6066017178
 21
-37.1
 31
0.0
  0
LINE
  5
465
330
3A6
100
AcDbEntity
  8
0
  6
Continuous
 62
     7
370
    25
100
AcDbLine
 10
-246.0502525317
 20
-35.1
 30
0.0
 11
-246.0502525317
 21
-27.1
 31
0.0
  0
LINE
  5
466
330
3A6
100
AcDbEntity
  8
0
  6
Continuous
 62
     7
370
    25
100
AcDbLine
 10
-269.6066017178
 20
-35.1
 30
0.0
 11
-232.3933982822
 21
-35.1
 31
0.0
  0
LINE
  5
467
330
3A6
100
AcDbEntity
  8
0
  6
Continuous
 62
     7
370
    25
100
AcDbLine
 10
-267.2634559673
 20
-35.1
 30
0.0
 11
-267.2634559673
 21
-27.1
 31
0.0
  0
LINE
  5
468
330
3A6
100
AcDbEntity
  8
0
  6
Continuous
 62
     7
370
    25
100
AcDbLine
 10
-175.0
 20
-18.1
 30
0.0
 11
-565.0
 21
-18.1
 31
0.0
  0
LINE
  5
469
330
3A6
100
AcDbEntity
  8
0
  6
Continuous
 62
     7
370
    25
100
AcDbLine
 10
-331.0
 20
-27.1
 30
0.0
 11
-331.0
 21
-8.1
 31
0.0
  0
LINE
  5
46A
330
3A6
100
AcDbEntity
  8
0
  6
Continuous
 62
     7
370
    25
100
AcDbLine
 10
-555.0
 20
-8.1
 30
0.0
 11
-185.0
 21
-8.1
 31
0.0
  0
LINE
  5
46B
330
3A6
100
AcDbEntity
  8
0
  6
Continuous
 62
     7
370
    25
100
AcDbLine
 10
-565.0
 20
-22.1
 30
0.0
 11
-175.0
 21
-22.1
 31
0.0
  0
LINE
  5
46C
330
3A6
100
AcDbEntity
  8
0
  6
Continuous
 62
     7
370
    25
100
AcDbLine
 10
-391.0
 20
-27.1
 30
0.0
 11
-391.0
 21
-8.1
 31
0.0
  0
LINE
  5
46D
330
3A6
100
AcDbEntity
  8
0
  6
Continuous
 62
     7
370
    25
100
AcDbLine
 10
-176.0
 20
-27.1
 30
0.0
 11
-560.0
 21
-27.1
 31
0.0
  0
LINE
  5
46E
330
3A6
100
AcDbEntity
  8
0
  6
Continuous
 62
     7
370
    25
100
AcDbLine
 10
-242.4582912452
 20
-18.1
 30
0.0
 11
-242.4582912452
 21
-22.1
 31
0.0
  0
LINE
  5
46F
330
3A6
100
AcDbEntity
  8
0
  6
Continuous
 62
     7
370
    25
100
AcDbLine
 10
-188.0422752238
 20
-22.1
 30
0.0
 11
-188.0422752238
 21
-18.1
 31
0.0
  0
LINE
  5
470
330
3A6
100
AcDbEntity
  8
0
  6
Continuous
 62
     7
370
    25
100
AcDbLine
 10
-175.0720794936
 20
-16.9015032668
 30
0.0
 11
-175.0
 21
-18.1
 31
0.0
  0
LINE
  5
471
330
3A6
100
AcDbEntity
  8
0
  6
Continuous
 62
     8
370
    25
100
AcDbLine
 10
-127.7
 20
-33.8
 30
0.0
 11
-174.5
 21
-33.8
 31
0.0
  0
LINE
  5
472
330
3A6
100
AcDbEntity
  8
0
  6
Continuous
 62
     8
370
    25
100
AcDbLine
 10
-480.0
 20
-4.3
 30
0.0
 11
-460.0
 21
-4.3
 31
0.0
  0
ARC
  5
473
330
3A6
100
AcDbEntity
  8
0
  6
Continuous
 62
     7
370
    25
100
AcDbCircle
 10
-159.0
 20
-24.5164331553
 30
0.0
 40
0.9999999999994879
100
AcDbArc
 50
123.28591743
 51
180.1244191321
  0
ARC
  5
474
330
3A6
100
AcDbEntity
  8
0
  6
Continuous
 62
     7
370
    25
100
AcDbCircle
 10
-174.0
 20
-33.8
 30
0.0
 40
0.5000000000000284
100
AcDbArc
 50
90.0
 51
180.0
  0
ARC
  5
475
330
3A6
100
AcDbEntity
  8
0
  6
Continuous
 62
     7
370
    25
100
AcDbCircle
 10
-128.2
 20
-33.8
 30
0.0
 40
0.5
100
AcDbArc
 50
0.0
 51
90.0
  0
ARC
  5
476
330
3A6
100
AcDbEntity
  8
0
  6
Continuous
 62
     7
370
    25
100
AcDbCircle
 10
-462.0
 20
-4.3
 30
0.0
 40
2.000000000000057
100
AcDbArc
 50
270.0
 51
0.0
  0
ARC
  5
477
330
3A6
100
AcDbEntity
  8
0
  6
Continuous
 62
     7
370
    25
100
AcDbCircle
 10
-478.0
 20
-4.3
 30
0.0
 40
2.000000000000057
100
AcDbArc
 50
180.0
 51
270.0
  0
ARC
  5
478
330
3A6
100
AcDbEntity
  8
0
  6
Continuous
 62
     7
370
    25
100
AcDbCircle
 10
-555.0
 20
11.0
 30
0.0
 40
10.0
100
AcDbArc
 50
90.0
 51
180.0
  0
ARC
  5
479
330
3A6
100
AcDbEntity
  8
0
  6
Continuous
 62
     7
370
    25
100
AcDbCircle
 10
-560.0
 20
7.0
 30
0.0
 40
4.999999999999926
100
AcDbArc
 50
180.0
 51
270.0
  0
ARC
  5
47A
330
3A6
100
AcDbEntity
  8
0
  6
Continuous
 62
     7
370
    25
100
AcDbCircle
 10
-501.6066017178
 20
-35.1
 30
0.0
 40
1.999999999999957
100
AcDbArc
 50
180.0
 51
270.0
  0
ARC
  5
47B
330
3A6
100
AcDbEntity
  8
0
  6
Continuous
 62
     7
370
    25
100
AcDbCircle
 10
-468.3933982822
 20
-35.1
 30
0.0
 40
2.000000000000121
100
AcDbArc
 50
270.0
 51
360.0
  0
ARC
  5
47C
330
3A6
100
AcDbEntity
  8
0
  6
Continuous
 62
     7
370
    25
100
AcDbCircle
 10
-234.3933982822
 20
-35.1
 30
0.0
 40
2.000000000000036
100
AcDbArc
 50
270.0
 51
0.0
  0
ARC
  5
47D
330
3A6
100
AcDbEntity
  8
0
  6
Continuous
 62
     7
370
    25
100
AcDbCircle
 10
-267.6066017178
 20
-35.1
 30
0.0
 40
2.000000000000064
100
AcDbArc
 50
180.0
 51
270.0
  0
ARC
  5
47E
330
3A6
100
AcDbEntity
  8
0
  6
Continuous
 62
     7
370
    25
100
AcDbCircle
 10
-555.0
 20
-18.1
 30
0.0
 40
10.00000000000023
100
AcDbArc
 50
90.0
 51
180.0
  0
ARC
  5
47F
330
3A6
100
AcDbEntity
  8
0
  6
Continuous
 62
     7
370
    25
100
AcDbCircle
 10
-560.0
 20
-22.1
 30
0.0
 40
5.000000000000114
100
AcDbArc
 50
180.0
 51
270.0
  0
ARC
  5
480
330
3A6
100
AcDbEntity
  8
0
  6
Continuous
 62
     7
370
    25
100
AcDbCircle
 10
-165.0
 20
-15.0
 30
0.0
 40
10.25000000000005
100
AcDbArc
 50
167.3196165082
 51
77.9429273881
  0
ARC
  5
481
330
3A6
100
AcDbEntity
  8
0
  6
Continuous
 62
     7
370
    25
100
AcDbCircle
 10
-179.754337164
 20
-6.0
 30
0.0
 40
7.999999999999885
100
AcDbArc
 50
65.2625438963
 51
90.0
  0
ARC
  5
482
330
3A6
100
AcDbEntity
  8
0
  6
Continuous
 62
     7
370
    25
100
AcDbCircle
 10
-165.0
 20
-15.0
 30
0.0
 40
10.00000000000006
100
AcDbArc
 50
180.0
 51
65.2625438963
  0
ARC
  5
483
330
3A6
100
AcDbEntity
  8
0
  6
Continuous
 62
     7
370
    25
100
AcDbCircle
 10
-183.0
 20
-10.9
 30
0.0
 40
7.999999999999972
100
AcDbArc
 50
0.0
 51
90.0
  0
ARC
  5
484
330
3A6
100
AcDbEntity
  8
0
  6
Continuous
 62
     7
370
    25
100
AcDbCircle
 10
-176.0
 20
-26.1
 30
0.0
 40
1.000000000000007
100
AcDbArc
 50
270.0
 51
0.0
  0
ARC
  5
485
330
3A6
100
AcDbEntity
  8
0
  6
Continuous
 62
     7
370
    25
100
AcDbCircle
 10
-185.0
 20
11.0
 30
0.0
 40
10.00000000000009
100
AcDbArc
 50
0.0
 51
90.0
  0
ARC
  5
486
330
3A6
100
AcDbEntity
  8
0
  6
Continuous
 62
     7
370
    25
100
AcDbCircle
 10
-180.0
 20
7.0
 30
0.0
 40
5.000000000000057
100
AcDbArc
 50
270.0
 51
0.0
  0
ARC
  5
487
330
3A6
100
AcDbEntity
  8
0
  6
Continuous
 62
     7
370
    25
100
AcDbCircle
 10
-491.7175144213
 20
-35.35
 30
0.0
 40
1.785357107135674
100
AcDbArc
 50
281.421753659
 51
8.0494669755
  0
ARC
  5
488
330
3A6
100
AcDbEntity
  8
0
  6
Continuous
 62
     7
370
    25
100
AcDbCircle
 10
-470.5043109857
 20
-35.35
 30
0.0
 40
1.785357107135819
100
AcDbArc
 50
281.421753659
 51
8.0494669755
  0
ARC
  5
489
330
3A6
100
AcDbEntity
  8
0
  6
Continuous
 62
     7
370
    25
100
AcDbCircle
 10
-244.2824855787
 20
-35.35
 30
0.0
 40
1.785357107135858
100
AcDbArc
 50
171.9505330245
 51
258.578246341
  0
ARC
  5
48A
330
3A6
100
AcDbEntity
  8
0
  6
Continuous
 62
     7
370
    25
100
AcDbCircle
 10
-265.4956890143
 20
-35.35
 30
0.0
 40
1.785357107135639
100
AcDbArc
 50
171.9505330245
 51
258.578246341
  0
ARC
  5
48B
330
3A6
100
AcDbEntity
  8
0
  6
Continuous
 62
     7
370
    25
100
AcDbCircle
 10
-185.0
 20
-18.1
 30
0.0
 40
9.999999999999995
100
AcDbArc
 50
10.7380390898
 51
90.0
  0
ARC
  5
48C
330
3A6
100
AcDbEntity
  8
0
  6
Continuous
 62
     7
370
    25
100
AcDbCircle
 10
-180.0
 20
-22.1
 30
0.0
 40
5.0
100
AcDbArc
 50
270.0
 51
0.0
  0
VIEWPORT
  5
82E
330
3A6
100
AcDbEntity
  8
0
100
AcDbViewport
 10
0.0
 20
0.0
 30
0.0
 40
205.6
 41
156.0
 68
     1
 69
     1
 12
0.0
 22
-10.25
 13
0.0
 23
0.0
 14
10.0
 24
10.0
 15
10.0
 25
10.0
 16
0.0
 26
0.0
 36
1.0
 17
0.0
 27
0.0
 37
0.0
 42
50.0
 43
0.0
 44
0.0
 45
269.3276264591
 50
0.0
 51
0.0
 72
   100
 90
   557152
  1

281
     0
 71
     1
 74
     0
110
0.0
120
0.0
130
0.0
111
1.0
121
0.0
131
0.0
112
0.0
122
1.0
132
0.0
 79
     0
146
0.0
  0
ENDBLK
  5
3A9
330
3A6
100
AcDbEntity
  8
0
100
AcDbBlockEnd
  0
BLOCK
  5
48F
330
48D
100
AcDbEntity
  8
0
100
AcDbBlockBegin
  2
*Paper_Space2
 70
     0
 10
0.0
 20
0.0
 30
0.0
  3
*Paper_Space2
  1

  0
LWPOLYLINE
  5
4B2
330
48D
100
AcDbEntity
  8
0
  6
Continuous
 62
     7
370
    25
100
AcDbPolyline
 90
        3
 70
   128
 43
0.0
 10
54.5
 20
-167.1798009938
 10
54.207191337
 20
-166.8644780613
 10
52.5
 20
-164.7586968632
  0
LWPOLYLINE
  5
4B3
330
48D
100
AcDbEntity
  8
0
  6
Continuous
 62
     7
370
    25
100
AcDbPolyline
 90
        3
 70
   128
 43
0.0
 10
48.4272888459
 20
-155.0
 10
48.2773600737
 20
-153.9755860016
 10
48.1
 20
-151.1
  0
LWPOLYLINE
  5
4B5
330
48D
100
AcDbEntity
  8
0
  6
Continuous
 62
     7
370
    25
100
AcDbPolyline
 90
        3
 70
   128
 43
0.0
 10
-86.5
 20
-167.1798009938
 10
-86.792808663
 20
-166.8644780613
 10
-88.5
 20
-164.7586968632
  0
LWPOLYLINE
  5
4B6
330
48D
100
AcDbEntity
  8
0
  6
Continuous
 62
     7
370
    25
100
AcDbPolyline
 90
        3
 70
   128
 43
0.0
 10
-92.5727111541
 20
-155.0
 10
-92.7226399263
 20
-153.9755860016
 10
-92.9
 20
-151.1
  0
LWPOLYLINE
  5
4D9
330
48D
100
AcDbEntity
  8
0
  6
Continuous
 62
     8
370
    25
100
AcDbPolyline
 90
        3
 70
   128
 43
0.0
 10
48.6
 20
-151.1
 10
48.7805733399
 20
-153.9701310486
 10
48.9345396679
 20
-155.0
  0
LWPOLYLINE
  5
4DA
330
48D
100
AcDbEntity
  8
0
  6
Continuous
 62
     8
370
    25
100
AcDbPolyline
 90
        3
 70
   128
 43
0.0
 10
52.5
 20
-163.8831920896
 10
52.9735108288
 20
-164.5602822775
 10
54.5
 20
-166.4430766146
  0
LWPOLYLINE
  5
4DC
330
48D
100
AcDbEntity
  8
0
  6
Continuous
 62
     8
370
    25
100
AcDbPolyline
 90
        3
 70
   128
 43
0.0
 10
-92.4
 20
-151.1
 10
-92.2194266601
 20
-153.9701310486
 10
-92.0654603321
 20
-155.0
  0
LWPOLYLINE
  5
4DD
330
48D
100
AcDbEntity
  8
0
  6
Continuous
 62
     8
370
    25
100
AcDbPolyline
 90
        3
 70
   128
 43
0.0
 10
-88.5
 20
-163.8831920896
 10
-88.0264891712
 20
-164.5602822775
 10
-86.5
 20
-166.4430766146
  0
LINE
  5
4DF
330
48D
100
AcDbEntity
  8
0
  6
Continuous
 62
     7
370
    25
100
AcDbLine
 10
88.5
 20
-154.75
 30
0.0
 11
54.5
 21
-154.75
 31
0.0
  0
LINE
  5
4E0
330
48D
100
AcDbEntity
  8
0
  6
Continuous
 62
     7
370
    25
100
AcDbLine
 10
84.4651427749
 20
-175.25
 30
0.0
 11
88.5
 21
-175.25
 31
0.0
  0
LINE
  5
4E1
330
48D
100
AcDbEntity
  8
0
  6
Continuous
 62
     7
370
    25
100
AcDbLine
 10
105.5
 20
-155.0
 30
0.0
 11
88.5
 21
-155.0
 31
0.0
  0
LINE
  5
4E2
330
48D
100
AcDbEntity
  8
0
  6
Continuous
 62
     7
370
    25
100
AcDbLine
 10
52.5
 20
-155.0
 30
0.0
 11
35.5
 21
-155.0
 31
0.0
  0
LINE
  5
4E3
330
48D
100
AcDbEntity
  8
0
  6
Continuous
 62
     7
370
    25
100
AcDbLine
 10
-52.5
 20
-154.75
 30
0.0
 11
-86.5
 21
-154.75
 31
0.0
  0
LINE
  5
4E4
330
48D
100
AcDbEntity
  8
0
  6
Continuous
 62
     7
370
    25
100
AcDbLine
 10
-86.5
 20
-175.25
 30
0.0
 11
-84.4651427749
 21
-175.25
 31
0.0
  0
LINE
  5
4E5
330
48D
100
AcDbEntity
  8
0
  6
Continuous
 62
     7
370
    25
100
AcDbLine
 10
-88.5
 20
-155.0
 30
0.0
 11
-105.5
 21
-155.0
 31
0.0
  0
LINE
  5
4E6
330
48D
100
AcDbEntity
  8
0
  6
Continuous
 62
     7
370
    25
100
AcDbLine
 10
-35.5
 20
-155.0
 30
0.0
 11
-52.5
 21
-155.0
 31
0.0
  0
LINE
  5
4E7
330
48D
100
AcDbEntity
  8
0
  6
Continuous
 62
     7
370
    25
100
AcDbLine
 10
88.5
 20
-175.9135573376
 30
0.0
 11
88.5
 21
-154.75
 31
0.0
  0
LINE
  5
4E8
330
48D
100
AcDbEntity
  8
0
  6
Continuous
 62
     7
370
    25
100
AcDbLine
 10
54.5
 20
-175.0
 30
0.0
 11
54.5
 21
-154.75
 31
0.0
  0
LINE
  5
4E9
330
48D
100
AcDbEntity
  8
0
  6
Continuous
 62
     7
370
    25
100
AcDbLine
 10
105.5
 20
-184.1819857875
 30
0.0
 11
105.5
 21
-155.0
 31
0.0
  0
LINE
  5
4EA
330
48D
100
AcDbEntity
  8
0
  6
Continuous
 62
     7
370
    25
100
AcDbLine
 10
105.5
 20
-160.8153909436
 30
0.0
 11
88.5
 21
-160.8153909436
 31
0.0
  0
LINE
  5
4EB
330
48D
100
AcDbEntity
  8
0
  6
Continuous
 62
     7
370
    25
100
AcDbLine
 10
52.5
 20
-175.0
 30
0.0
 11
52.5
 21
-155.0
 31
0.0
  0
LINE
  5
4EC
330
48D
100
AcDbEntity
  8
0
  6
Continuous
 62
     7
370
    25
100
AcDbLine
 10
35.5
 20
-175.0
 30
0.0
 11
35.5
 21
-155.0
 31
0.0
  0
LINE
  5
4ED
330
48D
100
AcDbEntity
  8
0
  6
Continuous
 62
     7
370
    25
100
AcDbLine
 10
-86.5
 20
-175.25
 30
0.0
 11
-86.5
 21
-154.75
 31
0.0
  0
LINE
  5
4EE
330
48D
100
AcDbEntity
  8
0
  6
Continuous
 62
     7
370
    25
100
AcDbLine
 10
-52.5
 20
-175.0
 30
0.0
 11
-52.5
 21
-154.75
 31
0.0
  0
LINE
  5
4EF
330
48D
100
AcDbEntity
  8
0
  6
Continuous
 62
     7
370
    25
100
AcDbLine
 10
-105.5
 20
-184.1819857875
 30
0.0
 11
-105.5
 21
-155.0
 31
0.0
  0
LINE
  5
4F0
330
48D
100
AcDbEntity
  8
0
  6
Continuous
 62
     7
370
    25
100
AcDbLine
 10
-88.5
 20
-160.8153909436
 30
0.0
 11
-105.5
 21
-160.8153909436
 31
0.0
  0
LINE
  5
4F1
330
48D
100
AcDbEntity
  8
0
  6
Continuous
 62
     7
370
    25
100
AcDbLine
 10
-88.5
 20
-175.9135573376
 30
0.0
 11
-88.5
 21
-155.0
 31
0.0
  0
LINE
  5
4F2
330
48D
100
AcDbEntity
  8
0
  6
Continuous
 62
     7
370
    25
100
AcDbLine
 10
-35.5
 20
-175.0
 30
0.0
 11
-35.5
 21
-155.0
 31
0.0
  0
LINE
  5
4F3
330
48D
100
AcDbEntity
  8
0
  6
Continuous
 62
     7
370
    25
100
AcDbLine
 10
149.7877358491
 20
-242.4582912452
 30
0.0
 11
141.179245283
 21
-247.5468951967
 31
0.0
  0
LINE
  5
4F4
330
48D
100
AcDbEntity
  8
0
  6
Continuous
 62
     7
370
    25
100
AcDbLine
 10
109.5513294944
 20
-188.0422752238
 30
0.0
 11
102.1634971208
 21
-194.7817064178
 31
0.0
  0
LINE
  5
4F5
330
48D
100
AcDbEntity
  8
0
  6
Continuous
 62
     7
370
    25
100
AcDbLine
 10
-102.1634971208
 20
-194.7817064178
 30
0.0
 11
-109.5513294944
 21
-188.0422752238
 31
0.0
  0
LINE
  5
4F6
330
48D
100
AcDbEntity
  8
0
  6
Continuous
 62
     7
370
    25
100
AcDbLine
 10
-80.0
 20
-185.0
 30
0.0
 11
-80.0
 21
-175.0
 31
0.0
  0
LINE
  5
4F7
330
48D
100
AcDbEntity
  8
0
  6
Continuous
 62
     7
370
    25
100
AcDbLine
 10
174.0
 20
-331.0
 30
0.0
 11
164.0
 21
-331.0
 31
0.0
  0
LINE
  5
4F8
330
48D
100
AcDbEntity
  8
0
  6
Continuous
 62
     7
370
    25
100
AcDbLine
 10
80.0
 20
-185.0
 30
0.0
 11
-80.0
 21
-185.0
 31
0.0
  0
LINE
  5
4F9
330
48D
100
AcDbEntity
  8
0
  6
Continuous
 62
     7
370
    25
100
AcDbLine
 10
164.0
 20
-391.0
 30
0.0
 11
164.0
 21
-331.0
 31
0.0
  0
LINE
  5
4FA
330
48D
100
AcDbEntity
  8
0
  6
Continuous
 62
     7
370
    25
100
AcDbLine
 10
-164.0
 20
-331.0
 30
0.0
 11
-164.0
 21
-391.0
 31
0.0
  0
LINE
  5
4FB
330
48D
100
AcDbEntity
  8
0
  6
Continuous
 62
     7
370
    25
100
AcDbLine
 10
174.0
 20
-331.0
 30
0.0
 11
174.0
 21
-391.0
 31
0.0
  0
LINE
  5
4FC
330
48D
100
AcDbEntity
  8
0
  6
Continuous
 62
     7
370
    25
100
AcDbLine
 10
174.0
 20
-391.0
 30
0.0
 11
164.0
 21
-391.0
 31
0.0
  0
LINE
  5
4FD
330
48D
100
AcDbEntity
  8
0
  6
Continuous
 62
     7
370
    25
100
AcDbLine
 10
-164.0
 20
-331.0
 30
0.0
 11
-174.0
 21
-331.0
 31
0.0
  0
LINE
  5
4FE
330
48D
100
AcDbEntity
  8
0
  6
Continuous
 62
     7
370
    25
100
AcDbLine
 10
-141.179245283
 20
-247.5468951967
 30
0.0
 11
-149.7877358491
 21
-242.4582912452
 31
0.0
  0
LINE
  5
4FF
330
48D
100
AcDbEntity
  8
0
  6
Continuous
 62
     7
370
    25
100
AcDbLine
 10
80.0
 20
-185.0
 30
0.0
 11
80.0
 21
-175.0
 31
0.0
  0
LINE
  5
500
330
48D
100
AcDbEntity
  8
0
  6
Continuous
 62
     7
370
    25
100
AcDbLine
 10
-80.0
 20
-175.0
 30
0.0
 11
80.0
 21
-175.0
 31
0.0
  0
LINE
  5
501
330
48D
100
AcDbEntity
  8
0
  6
Continuous
 62
     7
370
    25
100
AcDbLine
 10
-174.0
 20
-391.0
 30
0.0
 11
-164.0
 21
-391.0
 31
0.0
  0
LINE
  5
502
330
48D
100
AcDbEntity
  8
0
  6
Continuous
 62
     7
370
    25
100
AcDbLine
 10
-174.0
 20
-391.0
 30
0.0
 11
-174.0
 21
-331.0
 31
0.0
  0
LINE
  5
503
330
48D
100
AcDbEntity
  8
0
  6
Continuous
 62
     8
370
    25
100
AcDbLine
 10
105.5
 20
-179.754337164
 30
0.0
 11
98.914101915
 21
-179.754337164
 31
0.0
  0
LINE
  5
504
330
48D
100
AcDbEntity
  8
0
  6
Continuous
 62
     8
370
    25
100
AcDbLine
 10
90.5144343411
 20
-176.4066499189
 30
0.0
 11
105.5
 21
-176.4066499189
 31
0.0
  0
LINE
  5
505
330
48D
100
AcDbEntity
  8
0
  6
Continuous
 62
     8
370
    25
100
AcDbLine
 10
-98.9141019149
 20
-179.754337164
 30
0.0
 11
-105.5
 21
-179.754337164
 31
0.0
  0
LINE
  5
506
330
48D
100
AcDbEntity
  8
0
  6
Continuous
 62
     8
370
    25
100
AcDbLine
 10
-105.5
 20
-176.4066499188
 30
0.0
 11
-90.5144343411
 21
-176.4066499188
 31
0.0
  0
ARC
  5
507
330
48D
100
AcDbEntity
  8
0
  6
Continuous
 62
     7
370
    25
100
AcDbCircle
 10
71.5
 20
-151.1
 30
0.0
 40
23.39999999999998
100
AcDbArc
 50
350.4059317731
 51
180.0
  0
ARC
  5
508
330
48D
100
AcDbEntity
  8
0
  6
Continuous
 62
     7
370
    25
100
AcDbCircle
 10
-69.5
 20
-151.1
 30
0.0
 40
23.40000000000002
100
AcDbArc
 50
350.4059317731
 51
180.0
  0
ARC
  5
509
330
48D
100
AcDbEntity
  8
0
  6
Continuous
 62
     7
370
    25
100
AcDbCircle
 10
-133.9728833502
 20
-410.1933194757
 30
0.0
 40
329.6287740835576
100
AcDbArc
 50
30.5879510101
 51
42.3721310421
  0
ARC
  5
50A
330
48D
100
AcDbEntity
  8
0
  6
Continuous
 62
     7
370
    25
100
AcDbCircle
 10
-133.9728833502
 20
-410.1933194757
 30
0.0
 40
319.6287740835544
100
AcDbArc
 50
30.5879510101
 51
42.3721310421
  0
ARC
  5
50B
330
48D
100
AcDbEntity
  8
0
  6
Continuous
 62
     7
370
    25
100
AcDbCircle
 10
-80.0
 20
-215.0
 30
0.0
 40
29.99999999999974
100
AcDbArc
 50
90.0
 51
137.6278689579
  0
ARC
  5
50C
330
48D
100
AcDbEntity
  8
0
  6
Continuous
 62
     7
370
    25
100
AcDbCircle
 10
-80.0
 20
-215.0
 30
0.0
 40
39.99999999999983
100
AcDbArc
 50
90.0
 51
137.6278689579
  0
ARC
  5
50D
330
48D
100
AcDbEntity
  8
0
  6
Continuous
 62
     7
370
    25
100
AcDbCircle
 10
0.0
 20
-331.0
 30
0.0
 40
174.0000000000003
100
AcDbArc
 50
0.0
 51
30.5879510101
  0
ARC
  5
50E
330
48D
100
AcDbEntity
  8
0
  6
Continuous
 62
     7
370
    25
100
AcDbCircle
 10
0.0
 20
-331.0
 30
0.0
 40
163.999999999999
100
AcDbArc
 50
0.0
 51
30.5879510101
  0
ARC
  5
50F
330
48D
100
AcDbEntity
  8
0
  6
Continuous
 62
     7
370
    25
100
AcDbCircle
 10
133.9728833502
 20
-410.1933194757
 30
0.0
 40
319.6287740835642
100
AcDbArc
 50
137.6278689579
 51
149.4120489899
  0
ARC
  5
510
330
48D
100
AcDbEntity
  8
0
  6
Continuous
 62
     7
370
    25
100
AcDbCircle
 10
80.0
 20
-215.0
 30
0.0
 40
29.99999999999986
100
AcDbArc
 50
42.3721310421
 51
90.0
  0
ARC
  5
511
330
48D
100
AcDbEntity
  8
0
  6
Continuous
 62
     7
370
    25
100
AcDbCircle
 10
0.0
 20
-391.0
 30
0.0
 40
164.0
100
AcDbArc
 50
180.0
 51
0.0
  0
ARC
  5
512
330
48D
100
AcDbEntity
  8
0
  6
Continuous
 62
     7
370
    25
100
AcDbCircle
 10
0.0
 20
-331.0
 30
0.0
 40
163.9999999999988
100
AcDbArc
 50
149.4120489899
 51
180.0
  0
ARC
  5
513
330
48D
100
AcDbEntity
  8
0
  6
Continuous
 62
     7
370
    25
100
AcDbCircle
 10
0.0
 20
-331.0
 30
0.0
 40
173.9999999999989
100
AcDbArc
 50
149.4120489899
 51
180.0
  0
ARC
  5
514
330
48D
100
AcDbEntity
  8
0
  6
Continuous
 62
     7
370
    25
100
AcDbCircle
 10
80.0
 20
-215.0
 30
0.0
 40
39.99999999999991
100
AcDbArc
 50
42.3721310421
 51
90.0
  0
ARC
  5
515
330
48D
100
AcDbEntity
  8
0
  6
Continuous
 62
     7
370
    25
100
AcDbCircle
 10
0.0
 20
-391.0
 30
0.0
 40
174.0
100
AcDbArc
 50
180.0
 51
0.0
  0
ARC
  5
516
330
48D
100
AcDbEntity
  8
0
  6
Continuous
 62
     7
370
    25
100
AcDbCircle
 10
133.9728833502
 20
-410.1933194757
 30
0.0
 40
329.6287740835597
100
AcDbArc
 50
137.6278689579
 51
149.4120489899
  0
ARC
  5
517
330
48D
100
AcDbEntity
  8
0
  6
Continuous
 62
     8
370
    25
100
AcDbCircle
 10
71.5
 20
-151.1
 30
0.0
 40
22.9
100
AcDbArc
 50
350.1944077755
 51
180.0
  0
ARC
  5
518
330
48D
100
AcDbEntity
  8
0
  6
Continuous
 62
     8
370
    25
100
AcDbCircle
 10
-69.5
 20
-151.1
 30
0.0
 40
22.90000000000001
100
AcDbArc
 50
350.1944077755
 51
180.0
  0
VIEWPORT
  5
830
330
48D
100
AcDbEntity
  8
0
100
AcDbViewport
 10
0.0
 20
0.0
 30
0.0
 40
205.6
 41
156.0
 68
     1
 69
     1
 12
0.0
 22
-10.25
 13
0.0
 23
0.0
 14
10.0
 24
10.0
 15
10.0
 25
10.0
 16
0.0
 26
0.0
 36
1.0
 17
0.0
 27
0.0
 37
0.0
 42
50.0
 43
0.0
 44
0.0
 45
269.3276264591
 50
0.0
 51
0.0
 72
   100
 90
   557152
  1

281
     0
 71
     1
 74
     0
110
0.0
120
0.0
130
0.0
111
1.0
121
0.0
131
0.0
112
0.0
122
1.0
132
0.0
 79
     0
146
0.0
  0
ENDBLK
  5
490
330
48D
100
AcDbEntity
  8
0
100
AcDbBlockEnd
  0
BLOCK
  5
51B
330
519
100
AcDbEntity
  8
0
100
AcDbBlockBegin
  2
*Paper_Space3
 70
     0
 10
0.0
 20
0.0
 30
0.0
  3
*Paper_Space3
  1

  0
CIRCLE
  5
528
330
519
100
AcDbEntity
  8
0
  6
Continuous
 62
     7
370
    25
100
AcDbCircle
 10
71.5
 20
165.0
 30
0.0
 40
2.09999999999998
  0
CIRCLE
  5
537
330
519
100
AcDbEntity
  8
0
  6
Continuous
 62
     7
370
    25
100
AcDbCircle
 10
44.0
 20
189.0
 30
0.0
 40
2.25
  0
CIRCLE
  5
538
330
519
100
AcDbEntity
  8
0
  6
Continuous
 62
     7
370
    25
100
AcDbCircle
 10
44.0
 20
211.0
 30
0.0
 40
2.249999999999972
  0
CIRCLE
  5
53F
330
519
100
AcDbEntity
  8
0
  6
Continuous
 62
     7
370
    25
100
AcDbCircle
 10
71.5
 20
151.1
 30
0.0
 40
23.39999999999995
  0
CIRCLE
  5
540
330
519
100
AcDbEntity
  8
0
  6
Continuous
 62
     7
370
    25
100
AcDbCircle
 10
71.5
 20
165.0
 30
0.0
 40
4.0
  0
CIRCLE
  5
549
330
519
100
AcDbEntity
  8
0
  6
Continuous
 62
     7
370
    25
100
AcDbCircle
 10
-69.5
 20
165.0
 30
0.0
 40
2.100000000000023
  0
CIRCLE
  5
55C
330
519
100
AcDbEntity
  8
0
  6
Continuous
 62
     7
370
    25
100
AcDbCircle
 10
-44.0
 20
189.0
 30
0.0
 40
2.25
  0
CIRCLE
  5
55D
330
519
100
AcDbEntity
  8
0
  6
Continuous
 62
     7
370
    25
100
AcDbCircle
 10
-44.0
 20
211.0
 30
0.0
 40
2.25
  0
CIRCLE
  5
561
330
519
100
AcDbEntity
  8
0
  6
Continuous
 62
     7
370
    25
100
AcDbCircle
 10
-69.5
 20
151.1
 30
0.0
 40
23.40000000000011
  0
CIRCLE
  5
562
330
519
100
AcDbEntity
  8
0
  6
Continuous
 62
     7
370
    25
100
AcDbCircle
 10
-69.5
 20
165.0
 30
0.0
 40
4.000000000000028
  0
CIRCLE
  5
5AD
330
519
100
AcDbEntity
  8
0
  6
Continuous
 62
     7
370
    25
100
AcDbCircle
 10
44.0
 20
211.0
 30
0.0
 40
1.249999999999979
  0
CIRCLE
  5
5AE
330
519
100
AcDbEntity
  8
0
  6
Continuous
 62
     7
370
    25
100
AcDbCircle
 10
44.0
 20
189.0
 30
0.0
 40
1.249999999999979
  0
CIRCLE
  5
5AF
330
519
100
AcDbEntity
  8
0
  6
Continuous
 62
     7
370
    25
100
AcDbCircle
 10
-44.0
 20
189.0
 30
0.0
 40
1.249999999999979
  0
CIRCLE
  5
5B0
330
519
100
AcDbEntity
  8
0
  6
Continuous
 62
     7
370
    25
100
AcDbCircle
 10
-44.0
 20
211.0
 30
0.0
 40
1.249999999999979
  0
LINE
  5
5C5
330
519
100
AcDbEntity
  8
0
  6
Continuous
 62
     7
370
    25
100
AcDbLine
 10
88.5
 20
175.25
 30
0.0
 11
84.4651427749
 21
175.25
 31
0.0
  0
LINE
  5
5C6
330
519
100
AcDbEntity
  8
0
  6
Continuous
 62
     7
370
    25
100
AcDbLine
 10
94.5727111541
 20
155.0
 30
0.0
 11
105.5
 21
155.0
 31
0.0
  0
LINE
  5
5C7
330
519
100
AcDbEntity
  8
0
  6
Continuous
 62
     7
370
    25
100
AcDbLine
 10
35.5
 20
155.0
 30
0.0
 11
48.4272888459
 21
155.0
 31
0.0
  0
LINE
  5
5C8
330
519
100
AcDbEntity
  8
0
  6
Continuous
 62
     7
370
    25
100
AcDbLine
 10
-84.4651427749
 20
175.25
 30
0.0
 11
-86.5
 21
175.25
 31
0.0
  0
LINE
  5
5C9
330
519
100
AcDbEntity
  8
0
  6
Continuous
 62
     7
370
    25
100
AcDbLine
 10
-105.5
 20
155.0
 30
0.0
 11
-92.5727111541
 21
155.0
 31
0.0
  0
LINE
  5
5CA
330
519
100
AcDbEntity
  8
0
  6
Continuous
 62
     7
370
    25
100
AcDbLine
 10
-46.4272888459
 20
155.0
 30
0.0
 11
-35.5
 21
155.0
 31
0.0
  0
LINE
  5
5CB
330
519
100
AcDbEntity
  8
0
  6
Continuous
 62
     7
370
    25
100
AcDbLine
 10
73.7459116649
 20
161.6900331129
 30
0.0
 11
75.4894712423
 21
164.7099668871
 31
0.0
  0
LINE
  5
5CC
330
519
100
AcDbEntity
  8
0
  6
Continuous
 62
     7
370
    25
100
AcDbLine
 10
69.7564404226
 20
161.4
 30
0.0
 11
73.2435595774
 21
161.4
 31
0.0
  0
LINE
  5
5CD
330
519
100
AcDbEntity
  8
0
  6
Continuous
 62
     7
370
    25
100
AcDbLine
 10
67.5105287577
 20
164.7099668871
 30
0.0
 11
69.2540883351
 21
161.6900331129
 31
0.0
  0
LINE
  5
5CE
330
519
100
AcDbEntity
  8
0
  6
Continuous
 62
     7
370
    25
100
AcDbLine
 10
69.2540883351
 20
168.3099668871
 30
0.0
 11
67.5105287577
 21
165.2900331129
 31
0.0
  0
LINE
  5
5CF
330
519
100
AcDbEntity
  8
0
  6
Continuous
 62
     7
370
    25
100
AcDbLine
 10
73.2435595774
 20
168.6
 30
0.0
 11
69.7564404226
 21
168.6
 31
0.0
  0
LINE
  5
5D0
330
519
100
AcDbEntity
  8
0
  6
Continuous
 62
     7
370
    25
100
AcDbLine
 10
75.4894712423
 20
165.2900331129
 30
0.0
 11
73.7459116649
 21
168.3099668871
 31
0.0
  0
LINE
  5
5D1
330
519
100
AcDbEntity
  8
0
  6
Continuous
 62
     7
370
    25
100
AcDbLine
 10
88.5
 20
167.1798009938
 30
0.0
 11
88.5
 21
175.9135573376
 31
0.0
  0
LINE
  5
5D2
330
519
100
AcDbEntity
  8
0
  6
Continuous
 62
     7
370
    25
100
AcDbLine
 10
54.5
 20
167.1798009938
 30
0.0
 11
54.5
 21
175.0
 31
0.0
  0
LINE
  5
5D3
330
519
100
AcDbEntity
  8
0
  6
Continuous
 62
     7
370
    25
100
AcDbLine
 10
105.5
 20
175.0
 30
0.0
 11
88.5
 21
175.0
 31
0.0
  0
LINE
  5
5D4
330
519
100
AcDbEntity
  8
0
  6
Continuous
 62
     7
370
    25
100
AcDbLine
 10
105.5
 20
184.1819857875
 30
0.0
 11
105.5
 21
155.0
 31
0.0
  0
LINE
  5
5D5
330
519
100
AcDbEntity
  8
0
  6
Continuous
 62
     7
370
    25
100
AcDbLine
 10
44.5
 20
219.0
 30
0.0
 11
43.5
 21
219.0
 31
0.0
  0
LINE
  5
5D6
330
519
100
AcDbEntity
  8
0
  6
Continuous
 62
     7
370
    25
100
AcDbLine
 10
52.5
 20
211.0
 30
0.0
 11
52.5
 21
164.7586968632
 31
0.0
  0
LINE
  5
5D7
330
519
100
AcDbEntity
  8
0
  6
Continuous
 62
     7
370
    25
100
AcDbLine
 10
52.5
 20
169.3821415209
 30
0.0
 11
35.5
 21
169.3821415209
 31
0.0
  0
LINE
  5
5D8
330
519
100
AcDbEntity
  8
0
  6
Continuous
 62
     7
370
    25
100
AcDbLine
 10
35.5
 20
211.0
 30
0.0
 11
35.5
 21
155.0
 31
0.0
  0
LINE
  5
5D9
330
519
100
AcDbEntity
  8
0
  6
Continuous
 62
     7
370
    25
100
AcDbLine
 10
35.5
 20
168.7152465764
 30
0.0
 11
52.5
 21
168.7152465764
 31
0.0
  0
LINE
  5
5DA
330
519
100
AcDbEntity
  8
0
  6
Continuous
 62
     7
370
    25
100
AcDbLine
 10
79.0
 20
155.2
 30
0.0
 11
79.0
 21
140.2
 31
0.0
  0
LINE
  5
5DB
330
519
100
AcDbEntity
  8
0
  6
Continuous
 62
     7
370
    25
100
AcDbLine
 10
64.0
 20
155.2
 30
0.0
 11
79.0
 21
155.2
 31
0.0
  0
LINE
  5
5DC
330
519
100
AcDbEntity
  8
0
  6
Continuous
 62
     7
370
    25
100
AcDbLine
 10
64.0
 20
140.2
 30
0.0
 11
64.0
 21
155.2
 31
0.0
  0
LINE
  5
5DD
330
519
100
AcDbEntity
  8
0
  6
Continuous
 62
     7
370
    25
100
AcDbLine
 10
79.0
 20
140.2
 30
0.0
 11
64.0
 21
140.2
 31
0.0
  0
LINE
  5
5DE
330
519
100
AcDbEntity
  8
0
  6
Continuous
 62
     7
370
    25
100
AcDbLine
 10
-67.2540883351
 20
161.6900331129
 30
0.0
 11
-65.5105287577
 21
164.7099668871
 31
0.0
  0
LINE
  5
5DF
330
519
100
AcDbEntity
  8
0
  6
Continuous
 62
     7
370
    25
100
AcDbLine
 10
-71.2435595774
 20
161.4
 30
0.0
 11
-67.7564404226
 21
161.4
 31
0.0
  0
LINE
  5
5E0
330
519
100
AcDbEntity
  8
0
  6
Continuous
 62
     7
370
    25
100
AcDbLine
 10
-67.7564404226
 20
168.6
 30
0.0
 11
-71.2435595774
 21
168.6
 31
0.0
  0
LINE
  5
5E1
330
519
100
AcDbEntity
  8
0
  6
Continuous
 62
     7
370
    25
100
AcDbLine
 10
-65.5105287577
 20
165.2900331129
 30
0.0
 11
-67.2540883351
 21
168.3099668871
 31
0.0
  0
LINE
  5
5E2
330
519
100
AcDbEntity
  8
0
  6
Continuous
 62
     7
370
    25
100
AcDbLine
 10
-73.4894712423
 20
164.7099668871
 30
0.0
 11
-71.7459116649
 21
161.6900331129
 31
0.0
  0
LINE
  5
5E3
330
519
100
AcDbEntity
  8
0
  6
Continuous
 62
     7
370
    25
100
AcDbLine
 10
-71.7459116649
 20
168.3099668871
 30
0.0
 11
-73.4894712423
 21
165.2900331129
 31
0.0
  0
LINE
  5
5E4
330
519
100
AcDbEntity
  8
0
  6
Continuous
 62
     7
370
    25
100
AcDbLine
 10
-86.5
 20
167.1798009938
 30
0.0
 11
-86.5
 21
175.25
 31
0.0
  0
LINE
  5
5E5
330
519
100
AcDbEntity
  8
0
  6
Continuous
 62
     7
370
    25
100
AcDbLine
 10
-88.5
 20
175.0
 30
0.0
 11
-105.5
 21
175.0
 31
0.0
  0
LINE
  5
5E6
330
519
100
AcDbEntity
  8
0
  6
Continuous
 62
     7
370
    25
100
AcDbLine
 10
-88.5
 20
175.9135573376
 30
0.0
 11
-88.5
 21
164.7586968632
 31
0.0
  0
LINE
  5
5E7
330
519
100
AcDbEntity
  8
0
  6
Continuous
 62
     7
370
    25
100
AcDbLine
 10
-105.5
 20
184.1819857875
 30
0.0
 11
-105.5
 21
155.0
 31
0.0
  0
LINE
  5
5E8
330
519
100
AcDbEntity
  8
0
  6
Continuous
 62
     7
370
    25
100
AcDbLine
 10
-52.5
 20
169.3821415209
 30
0.0
 11
-35.5
 21
169.3821415209
 31
0.0
  0
LINE
  5
5E9
330
519
100
AcDbEntity
  8
0
  6
Continuous
 62
     7
370
    25
100
AcDbLine
 10
-35.5
 20
211.0
 30
0.0
 11
-35.5
 21
155.0
 31
0.0
  0
LINE
  5
5EA
330
519
100
AcDbEntity
  8
0
  6
Continuous
 62
     7
370
    25
100
AcDbLine
 10
-35.5
 20
168.7152465764
 30
0.0
 11
-52.5
 21
168.7152465764
 31
0.0
  0
LINE
  5
5EB
330
519
100
AcDbEntity
  8
0
  6
Continuous
 62
     7
370
    25
100
AcDbLine
 10
-52.5
 20
211.0
 30
0.0
 11
-52.5
 21
167.1798009938
 31
0.0
  0
LINE
  5
5EC
330
519
100
AcDbEntity
  8
0
  6
Continuous
 62
     7
370
    25
100
AcDbLine
 10
-44.5
 20
219.0
 30
0.0
 11
-43.5
 21
219.0
 31
0.0
  0
LINE
  5
5ED
330
519
100
AcDbEntity
  8
0
  6
Continuous
 62
     7
370
    25
100
AcDbLine
 10
-62.0
 20
155.2
 30
0.0
 11
-62.0
 21
140.2
 31
0.0
  0
LINE
  5
5EE
330
519
100
AcDbEntity
  8
0
  6
Continuous
 62
     7
370
    25
100
AcDbLine
 10
-77.0
 20
155.2
 30
0.0
 11
-62.0
 21
155.2
 31
0.0
  0
LINE
  5
5EF
330
519
100
AcDbEntity
  8
0
  6
Continuous
 62
     7
370
    25
100
AcDbLine
 10
-77.0
 20
140.2
 30
0.0
 11
-77.0
 21
155.2
 31
0.0
  0
LINE
  5
5F0
330
519
100
AcDbEntity
  8
0
  6
Continuous
 62
     7
370
    25
100
AcDbLine
 10
-62.0
 20
140.2
 30
0.0
 11
-77.0
 21
140.2
 31
0.0
  0
LINE
  5
5F1
330
519
100
AcDbEntity
  8
0
  6
Continuous
 62
     7
370
    25
100
AcDbLine
 10
-124.8492424049
 20
491.3639610307
 30
0.0
 11
-126.2634559673
 21
489.9497474683
 31
0.0
  0
LINE
  5
5F2
330
519
100
AcDbEntity
  8
0
  6
Continuous
 62
     7
370
    25
100
AcDbLine
 10
-114.9497474683
 20
501.2634559673
 30
0.0
 11
-116.3639610307
 21
499.8492424049
 31
0.0
  0
LINE
  5
5F3
330
519
100
AcDbEntity
  8
0
  6
Continuous
 62
     7
370
    25
100
AcDbLine
 10
-93.7365440327
 20
480.0502525317
 30
0.0
 11
-95.1507575951
 21
478.6360389693
 31
0.0
  0
LINE
  5
5F4
330
519
100
AcDbEntity
  8
0
  6
Continuous
 62
     7
370
    25
100
AcDbLine
 10
-103.6360389693
 20
470.1507575951
 30
0.0
 11
-105.0502525317
 21
468.7365440327
 31
0.0
  0
LINE
  5
5F5
330
519
100
AcDbEntity
  8
0
  6
Continuous
 62
     7
370
    25
100
AcDbLine
 10
-95.1507575951
 20
478.6360389693
 30
0.0
 11
-116.3639610307
 21
499.8492424049
 31
0.0
  0
LINE
  5
5F6
330
519
100
AcDbEntity
  8
0
  6
Continuous
 62
     7
370
    25
100
AcDbLine
 10
-124.8492424049
 20
491.3639610307
 30
0.0
 11
-103.6360389693
 21
470.1507575951
 31
0.0
  0
LINE
  5
5F7
330
519
100
AcDbEntity
  8
0
  6
Continuous
 62
     7
370
    25
100
AcDbLine
 10
-105.0502525317
 20
468.7365440327
 30
0.0
 11
-126.2634559673
 21
489.9497474683
 31
0.0
  0
LINE
  5
5F8
330
519
100
AcDbEntity
  8
0
  6
Continuous
 62
     7
370
    25
100
AcDbLine
 10
-114.9497474683
 20
501.2634559673
 30
0.0
 11
-93.7365440327
 21
480.0502525317
 31
0.0
  0
LINE
  5
5F9
330
519
100
AcDbEntity
  8
0
  6
Continuous
 62
     7
370
    25
100
AcDbLine
 10
103.6360389693
 20
470.1507575951
 30
0.0
 11
124.8492424049
 21
491.3639610307
 31
0.0
  0
LINE
  5
5FA
330
519
100
AcDbEntity
  8
0
  6
Continuous
 62
     7
370
    25
100
AcDbLine
 10
124.8492424049
 20
491.3639610307
 30
0.0
 11
126.2634559673
 21
489.9497474683
 31
0.0
  0
LINE
  5
5FB
330
519
100
AcDbEntity
  8
0
  6
Continuous
 62
     7
370
    25
100
AcDbLine
 10
126.2634559673
 20
489.9497474683
 30
0.0
 11
105.0502525317
 21
468.7365440327
 31
0.0
  0
LINE
  5
5FC
330
519
100
AcDbEntity
  8
0
  6
Continuous
 62
     7
370
    25
100
AcDbLine
 10
103.6360389693
 20
470.1507575951
 30
0.0
 11
105.0502525317
 21
468.7365440327
 31
0.0
  0
LINE
  5
5FD
330
519
100
AcDbEntity
  8
0
  6
Continuous
 62
     7
370
    25
100
AcDbLine
 10
114.9497474683
 20
501.2634559673
 30
0.0
 11
116.3639610307
 21
499.8492424049
 31
0.0
  0
LINE
  5
5FE
330
519
100
AcDbEntity
  8
0
  6
Continuous
 62
     7
370
    25
100
AcDbLine
 10
93.7365440327
 20
480.0502525317
 30
0.0
 11
114.9497474683
 21
501.2634559673
 31
0.0
  0
LINE
  5
5FF
330
519
100
AcDbEntity
  8
0
  6
Continuous
 62
     7
370
    25
100
AcDbLine
 10
116.3639610307
 20
499.8492424049
 30
0.0
 11
95.1507575951
 21
478.6360389693
 31
0.0
  0
LINE
  5
600
330
519
100
AcDbEntity
  8
0
  6
Continuous
 62
     7
370
    25
100
AcDbLine
 10
93.7365440327
 20
480.0502525317
 30
0.0
 11
95.1507575951
 21
478.6360389693
 31
0.0
  0
LINE
  5
601
330
519
100
AcDbEntity
  8
0
  6
Continuous
 62
     7
370
    25
100
AcDbLine
 10
124.8492424049
 20
244.6360389693
 30
0.0
 11
103.6360389693
 21
265.8492424049
 31
0.0
  0
LINE
  5
602
330
519
100
AcDbEntity
  8
0
  6
Continuous
 62
     7
370
    25
100
AcDbLine
 10
105.0502525317
 20
267.2634559673
 30
0.0
 11
103.6360389693
 21
265.8492424049
 31
0.0
  0
LINE
  5
603
330
519
100
AcDbEntity
  8
0
  6
Continuous
 62
     7
370
    25
100
AcDbLine
 10
105.0502525317
 20
267.2634559673
 30
0.0
 11
126.2634559673
 21
246.0502525317
 31
0.0
  0
LINE
  5
604
330
519
100
AcDbEntity
  8
0
  6
Continuous
 62
     7
370
    25
100
AcDbLine
 10
124.8492424049
 20
244.6360389693
 30
0.0
 11
126.2634559673
 21
246.0502525317
 31
0.0
  0
LINE
  5
605
330
519
100
AcDbEntity
  8
0
  6
Continuous
 62
     7
370
    25
100
AcDbLine
 10
93.7365440327
 20
255.9497474683
 30
0.0
 11
95.1507575951
 21
257.3639610307
 31
0.0
  0
LINE
  5
606
330
519
100
AcDbEntity
  8
0
  6
Continuous
 62
     7
370
    25
100
AcDbLine
 10
95.1507575951
 20
257.3639610307
 30
0.0
 11
116.3639610307
 21
236.1507575951
 31
0.0
  0
LINE
  5
607
330
519
100
AcDbEntity
  8
0
  6
Continuous
 62
     7
370
    25
100
AcDbLine
 10
116.3639610307
 20
236.1507575951
 30
0.0
 11
114.9497474683
 21
234.7365440327
 31
0.0
  0
LINE
  5
608
330
519
100
AcDbEntity
  8
0
  6
Continuous
 62
     7
370
    25
100
AcDbLine
 10
114.9497474683
 20
234.7365440327
 30
0.0
 11
93.7365440327
 21
255.9497474683
 31
0.0
  0
LINE
  5
609
330
519
100
AcDbEntity
  8
0
  6
Continuous
 62
     7
370
    25
100
AcDbLine
 10
-93.7365440327
 20
255.9497474683
 30
0.0
 11
-95.1507575951
 21
257.3639610307
 31
0.0
  0
LINE
  5
60A
330
519
100
AcDbEntity
  8
0
  6
Continuous
 62
     7
370
    25
100
AcDbLine
 10
-105.0502525317
 20
267.2634559673
 30
0.0
 11
-103.6360389693
 21
265.8492424049
 31
0.0
  0
LINE
  5
60B
330
519
100
AcDbEntity
  8
0
  6
Continuous
 62
     7
370
    25
100
AcDbLine
 10
-103.6360389693
 20
265.8492424049
 30
0.0
 11
-124.8492424049
 21
244.6360389693
 31
0.0
  0
LINE
  5
60C
330
519
100
AcDbEntity
  8
0
  6
Continuous
 62
     7
370
    25
100
AcDbLine
 10
-124.8492424049
 20
244.6360389693
 30
0.0
 11
-126.2634559673
 21
246.0502525317
 31
0.0
  0
LINE
  5
60D
330
519
100
AcDbEntity
  8
0
  6
Continuous
 62
     7
370
    25
100
AcDbLine
 10
-126.2634559673
 20
246.0502525317
 30
0.0
 11
-105.0502525317
 21
267.2634559673
 31
0.0
  0
LINE
  5
60E
330
519
100
AcDbEntity
  8
0
  6
Continuous
 62
     7
370
    25
100
AcDbLine
 10
-116.3639610307
 20
236.1507575951
 30
0.0
 11
-95.1507575951
 21
257.3639610307
 31
0.0
  0
LINE
  5
60F
330
519
100
AcDbEntity
  8
0
  6
Continuous
 62
     7
370
    25
100
AcDbLine
 10
-116.3639610307
 20
236.1507575951
 30
0.0
 11
-114.9497474683
 21
234.7365440327
 31
0.0
  0
LINE
  5
610
330
519
100
AcDbEntity
  8
0
  6
Continuous
 62
     7
370
    25
100
AcDbLine
 10
-93.7365440327
 20
255.9497474683
 30
0.0
 11
-114.9497474683
 21
234.7365440327
 31
0.0
  0
LINE
  5
611
330
519
100
AcDbEntity
  8
0
  6
Continuous
 62
     7
370
    25
100
AcDbLine
 10
-174.0
 20
331.0
 30
0.0
 11
-174.0
 21
391.0
 31
0.0
  0
LINE
  5
612
330
519
100
AcDbEntity
  8
0
  6
Continuous
 62
     7
370
    25
100
AcDbLine
 10
-169.0
 20
391.0
 30
0.0
 11
-174.0
 21
391.0
 31
0.0
  0
LINE
  5
613
330
519
100
AcDbEntity
  8
0
  6
Continuous
 62
     7
370
    25
100
AcDbLine
 10
-169.0
 20
391.0
 30
0.0
 11
-169.0
 21
331.0
 31
0.0
  0
LINE
  5
614
330
519
100
AcDbEntity
  8
0
  6
Continuous
 62
     7
370
    25
100
AcDbLine
 10
-174.0
 20
331.0
 30
0.0
 11
-169.0
 21
331.0
 31
0.0
  0
LINE
  5
615
330
519
100
AcDbEntity
  8
0
  6
Continuous
 62
     7
370
    25
100
AcDbLine
 10
169.0
 20
331.0
 30
0.0
 11
174.0
 21
331.0
 31
0.0
  0
LINE
  5
616
330
519
100
AcDbEntity
  8
0
  6
Continuous
 62
     7
370
    25
100
AcDbLine
 10
145.483490566
 20
245.0025932209
 30
0.0
 11
149.7877358491
 21
242.4582912452
 31
0.0
  0
LINE
  5
617
330
519
100
AcDbEntity
  8
0
  6
Continuous
 62
     7
370
    25
100
AcDbLine
 10
80.0
 20
175.0
 30
0.0
 11
52.5
 21
175.0
 31
0.0
  0
LINE
  5
618
330
519
100
AcDbEntity
  8
0
  6
Continuous
 62
     7
370
    25
100
AcDbLine
 10
35.5
 20
175.0
 30
0.0
 11
-35.5
 21
175.0
 31
0.0
  0
LINE
  5
619
330
519
100
AcDbEntity
  8
0
  6
Continuous
 62
     7
370
    25
100
AcDbLine
 10
-52.5
 20
175.0
 30
0.0
 11
-80.0
 21
175.0
 31
0.0
  0
LINE
  5
61A
330
519
100
AcDbEntity
  8
0
  6
Continuous
 62
     7
370
    25
100
AcDbLine
 10
-80.0
 20
175.0
 30
0.0
 11
-80.0
 21
180.0
 31
0.0
  0
LINE
  5
61B
330
519
100
AcDbEntity
  8
0
  6
Continuous
 62
     7
370
    25
100
AcDbLine
 10
80.0
 20
175.0
 30
0.0
 11
80.0
 21
180.0
 31
0.0
  0
LINE
  5
61C
330
519
100
AcDbEntity
  8
0
  6
Continuous
 62
     7
370
    25
100
AcDbLine
 10
105.8574133076
 20
191.4119908208
 30
0.0
 11
109.5513294944
 21
188.0422752238
 31
0.0
  0
LINE
  5
61D
330
519
100
AcDbEntity
  8
0
  6
Continuous
 62
     7
370
    25
100
AcDbLine
 10
169.0
 20
331.0
 30
0.0
 11
169.0
 21
391.0
 31
0.0
  0
LINE
  5
61E
330
519
100
AcDbEntity
  8
0
  6
Continuous
 62
     7
370
    25
100
AcDbLine
 10
104.0
 20
354.0
 30
0.0
 11
104.0
 21
391.0
 31
0.0
  0
LINE
  5
61F
330
519
100
AcDbEntity
  8
0
  6
Continuous
 62
     7
370
    25
100
AcDbLine
 10
-104.0
 20
391.0
 30
0.0
 11
-104.0
 21
354.0
 31
0.0
  0
LINE
  5
620
330
519
100
AcDbEntity
  8
0
  6
Continuous
 62
     7
370
    25
100
AcDbLine
 10
169.0
 20
391.0
 30
0.0
 11
174.0
 21
391.0
 31
0.0
  0
LINE
  5
621
330
519
100
AcDbEntity
  8
0
  6
Continuous
 62
     7
370
    25
100
AcDbLine
 10
174.0
 20
391.0
 30
0.0
 11
174.0
 21
331.0
 31
0.0
  0
LINE
  5
622
330
519
100
AcDbEntity
  8
0
  6
Continuous
 62
     7
370
    25
100
AcDbLine
 10
-149.7877358491
 20
242.4582912452
 30
0.0
 11
-145.483490566
 21
245.0025932209
 31
0.0
  0
LINE
  5
623
330
519
100
AcDbEntity
  8
0
  6
Continuous
 62
     7
370
    25
100
AcDbLine
 10
-109.5513294944
 20
188.0422752238
 30
0.0
 11
-105.8574133076
 21
191.4119908208
 31
0.0
  0
LINE
  5
624
330
519
100
AcDbEntity
  8
0
  6
Continuous
 62
     8
370
    25
100
AcDbLine
 10
104.0
 20
183.0
 30
0.0
 11
105.5
 21
183.0
 31
0.0
  0
LINE
  5
625
330
519
100
AcDbEntity
  8
0
  6
Continuous
 62
     8
370
    25
100
AcDbLine
 10
49.2452947026
 20
158.3310505549
 30
0.0
 11
35.5
 21
158.3310505549
 31
0.0
  0
LINE
  5
626
330
519
100
AcDbEntity
  8
0
  6
Continuous
 62
     8
370
    25
100
AcDbLine
 10
-105.5
 20
183.0
 30
0.0
 11
-104.0
 21
183.0
 31
0.0
  0
LINE
  5
627
330
519
100
AcDbEntity
  8
0
  6
Continuous
 62
     8
370
    25
100
AcDbLine
 10
-47.2452947026
 20
158.3310505549
 30
0.0
 11
-35.5
 21
158.3310505549
 31
0.0
  0
LINE
  5
628
330
519
100
AcDbEntity
  8
0
  6
Continuous
 62
     8
370
    25
100
AcDbLine
 10
-80.0
 20
180.0
 30
0.0
 11
-52.5
 21
180.0
 31
0.0
  0
LINE
  5
629
330
519
100
AcDbEntity
  8
0
  6
Continuous
 62
     8
370
    25
100
AcDbLine
 10
-35.5
 20
180.0
 30
0.0
 11
35.5
 21
180.0
 31
0.0
  0
LINE
  5
62A
330
519
100
AcDbEntity
  8
0
  6
Continuous
 62
     8
370
    25
100
AcDbLine
 10
52.5
 20
180.0
 30
0.0
 11
80.0
 21
180.0
 31
0.0
  0
ARC
  5
62B
330
519
100
AcDbEntity
  8
0
  6
Continuous
 62
     7
370
    25
100
AcDbCircle
 10
43.5
 20
211.0
 30
0.0
 40
8.0
100
AcDbArc
 50
90.0
 51
180.0
  0
ARC
  5
62C
330
519
100
AcDbEntity
  8
0
  6
Continuous
 62
     7
370
    25
100
AcDbCircle
 10
44.5
 20
211.0
 30
0.0
 40
7.999999999999979
100
AcDbArc
 50
0.0
 51
90.0
  0
ARC
  5
62D
330
519
100
AcDbEntity
  8
0
  6
Continuous
 62
     7
370
    25
100
AcDbCircle
 10
-44.5
 20
211.0
 30
0.0
 40
7.999999999999943
100
AcDbArc
 50
90.0
 51
180.0
  0
ARC
  5
62E
330
519
100
AcDbEntity
  8
0
  6
Continuous
 62
     7
370
    25
100
AcDbCircle
 10
-43.5
 20
211.0
 30
0.0
 40
8.0
100
AcDbArc
 50
0.0
 51
90.0
  0
ARC
  5
62F
330
519
100
AcDbEntity
  8
0
  6
Continuous
 62
     7
370
    25
100
AcDbCircle
 10
-120.6066017178
 20
495.6066017178
 30
0.0
 40
6.000000000000019
100
AcDbArc
 50
45.0
 51
225.0
  0
ARC
  5
630
330
519
100
AcDbEntity
  8
0
  6
Continuous
 62
     7
370
    25
100
AcDbCircle
 10
-120.6066017178
 20
495.6066017178
 30
0.0
 40
8.000000000000185
100
AcDbArc
 50
45.0
 51
225.0
  0
ARC
  5
631
330
519
100
AcDbEntity
  8
0
  6
Continuous
 62
     7
370
    25
100
AcDbCircle
 10
-99.3933982822
 20
474.3933982822
 30
0.0
 40
6.000000000000149
100
AcDbArc
 50
225.0
 51
45.0
  0
ARC
  5
632
330
519
100
AcDbEntity
  8
0
  6
Continuous
 62
     7
370
    25
100
AcDbCircle
 10
-99.3933982822
 20
474.3933982822
 30
0.0
 40
8.000000000000064
100
AcDbArc
 50
225.0
 51
45.0
  0
ARC
  5
633
330
519
100
AcDbEntity
  8
0
  6
Continuous
 62
     7
370
    25
100
AcDbCircle
 10
120.6066017178
 20
495.6066017178
 30
0.0
 40
6.000000000000068
100
AcDbArc
 50
315.0
 51
135.0
  0
ARC
  5
634
330
519
100
AcDbEntity
  8
0
  6
Continuous
 62
     7
370
    25
100
AcDbCircle
 10
120.6066017178
 20
495.6066017178
 30
0.0
 40
8.000000000000146
100
AcDbArc
 50
315.0
 51
135.0
  0
ARC
  5
635
330
519
100
AcDbEntity
  8
0
  6
Continuous
 62
     7
370
    25
100
AcDbCircle
 10
99.3933982822
 20
474.3933982822
 30
0.0
 40
6.000000000000038
100
AcDbArc
 50
135.0
 51
315.0
  0
ARC
  5
636
330
519
100
AcDbEntity
  8
0
  6
Continuous
 62
     7
370
    25
100
AcDbCircle
 10
99.3933982822
 20
474.3933982822
 30
0.0
 40
8.000000000000055
100
AcDbArc
 50
135.0
 51
315.0
  0
ARC
  5
637
330
519
100
AcDbEntity
  8
0
  6
Continuous
 62
     7
370
    25
100
AcDbCircle
 10
99.3933982822
 20
261.6066017178
 30
0.0
 40
8.000000000000075
100
AcDbArc
 50
45.0
 51
225.0
  0
ARC
  5
638
330
519
100
AcDbEntity
  8
0
  6
Continuous
 62
     7
370
    25
100
AcDbCircle
 10
99.3933982822
 20
261.6066017178
 30
0.0
 40
6.000000000000089
100
AcDbArc
 50
45.0
 51
225.0
  0
ARC
  5
639
330
519
100
AcDbEntity
  8
0
  6
Continuous
 62
     7
370
    25
100
AcDbCircle
 10
120.6066017178
 20
240.3933982822
 30
0.0
 40
6.000000000000028
100
AcDbArc
 50
225.0
 51
45.0
  0
ARC
  5
63A
330
519
100
AcDbEntity
  8
0
  6
Continuous
 62
     7
370
    25
100
AcDbCircle
 10
120.6066017178
 20
240.3933982822
 30
0.0
 40
8.000000000000105
100
AcDbArc
 50
225.0
 51
45.0
  0
ARC
  5
63B
330
519
100
AcDbEntity
  8
0
  6
Continuous
 62
     7
370
    25
100
AcDbCircle
 10
-99.3933982822
 20
261.6066017178
 30
0.0
 40
8.000000000000094
100
AcDbArc
 50
315.0
 51
135.0
  0
ARC
  5
63C
330
519
100
AcDbEntity
  8
0
  6
Continuous
 62
     7
370
    25
100
AcDbCircle
 10
-99.3933982822
 20
261.6066017178
 30
0.0
 40
6.000000000000119
100
AcDbArc
 50
315.0
 51
135.0
  0
ARC
  5
63D
330
519
100
AcDbEntity
  8
0
  6
Continuous
 62
     7
370
    25
100
AcDbCircle
 10
-120.6066017178
 20
240.3933982822
 30
0.0
 40
6.00000000000017
100
AcDbArc
 50
135.0
 51
315.0
  0
ARC
  5
63E
330
519
100
AcDbEntity
  8
0
  6
Continuous
 62
     7
370
    25
100
AcDbCircle
 10
-120.6066017178
 20
240.3933982822
 30
0.0
 40
8.000000000000105
100
AcDbArc
 50
135.0
 51
315.0
  0
ARC
  5
63F
330
519
100
AcDbEntity
  8
0
  6
Continuous
 62
     7
370
    25
100
AcDbCircle
 10
0.0
 20
331.0
 30
0.0
 40
168.9999999999997
100
AcDbArc
 50
329.4120489899
 51
0.0
  0
ARC
  5
640
330
519
100
AcDbEntity
  8
0
  6
Continuous
 62
     7
370
    25
100
AcDbCircle
 10
0.0
 20
331.0
 30
0.0
 40
173.9999999999985
100
AcDbArc
 50
329.4120489899
 51
0.0
  0
ARC
  5
641
330
519
100
AcDbEntity
  8
0
  6
Continuous
 62
     7
370
    25
100
AcDbCircle
 10
80.0
 20
215.0
 30
0.0
 40
39.9999999999998
100
AcDbArc
 50
270.0
 51
317.6278689579
  0
ARC
  5
642
330
519
100
AcDbEntity
  8
0
  6
Continuous
 62
     7
370
    25
100
AcDbCircle
 10
80.0
 20
215.0
 30
0.0
 40
34.99999999999997
100
AcDbArc
 50
270.0
 51
317.6278689579
  0
ARC
  5
643
330
519
100
AcDbEntity
  8
0
  6
Continuous
 62
     7
370
    25
100
AcDbCircle
 10
-133.9728833502
 20
410.1933194757
 30
0.0
 40
324.6287740835614
100
AcDbArc
 50
317.6278689579
 51
329.4120489899
  0
ARC
  5
644
330
519
100
AcDbEntity
  8
0
  6
Continuous
 62
     7
370
    25
100
AcDbCircle
 10
-80.0
 20
215.0
 30
0.0
 40
34.99999999999986
100
AcDbArc
 50
222.3721310421
 51
270.0
  0
ARC
  5
645
330
519
100
AcDbEntity
  8
0
  6
Continuous
 62
     7
370
    25
100
AcDbCircle
 10
133.9728833502
 20
410.1933194757
 30
0.0
 40
324.6287740835612
100
AcDbArc
 50
210.5879510101
 51
222.3721310421
  0
ARC
  5
646
330
519
100
AcDbEntity
  8
0
  6
Continuous
 62
     7
370
    25
100
AcDbCircle
 10
0.0
 20
331.0
 30
0.0
 40
168.9999999999993
100
AcDbArc
 50
180.0
 51
210.5879510101
  0
ARC
  5
647
330
519
100
AcDbEntity
  8
0
  6
Continuous
 62
     7
370
    25
100
AcDbCircle
 10
0.0
 20
391.0
 30
0.0
 40
169.0
100
AcDbArc
 50
0.0
 51
180.0
  0
ARC
  5
648
330
519
100
AcDbEntity
  8
0
  6
Continuous
 62
     7
370
    25
100
AcDbCircle
 10
0.0
 20
391.0
 30
0.0
 40
104.0000000000001
100
AcDbArc
 50
0.0
 51
180.0
  0
ARC
  5
649
330
519
100
AcDbEntity
  8
0
  6
Continuous
 62
     7
370
    25
100
AcDbCircle
 10
0.0
 20
354.0
 30
0.0
 40
104.0000000000002
100
AcDbArc
 50
180.0
 51
0.0
  0
ARC
  5
64A
330
519
100
AcDbEntity
  8
0
  6
Continuous
 62
     7
370
    25
100
AcDbCircle
 10
0.0
 20
391.0
 30
0.0
 40
174.0
100
AcDbArc
 50
0.0
 51
180.0
  0
ARC
  5
64B
330
519
100
AcDbEntity
  8
0
  6
Continuous
 62
     7
370
    25
100
AcDbCircle
 10
-133.9728833502
 20
410.1933194757
 30
0.0
 40
329.6287740835724
100
AcDbArc
 50
317.6278689579
 51
329.4120489899
  0
ARC
  5
64C
330
519
100
AcDbEntity
  8
0
  6
Continuous
 62
     7
370
    25
100
AcDbCircle
 10
133.9728833502
 20
410.1933194757
 30
0.0
 40
329.6287740835639
100
AcDbArc
 50
210.5879510101
 51
222.3721310421
  0
ARC
  5
64D
330
519
100
AcDbEntity
  8
0
  6
Continuous
 62
     7
370
    25
100
AcDbCircle
 10
0.0
 20
331.0
 30
0.0
 40
174.0
100
AcDbArc
 50
180.0
 51
210.5879510101
  0
ARC
  5
64E
330
519
100
AcDbEntity
  8
0
  6
Continuous
 62
     7
370
    25
100
AcDbCircle
 10
-80.0
 20
215.0
 30
0.0
 40
39.99999999999957
100
AcDbArc
 50
222.3721310421
 51
270.0
  0
VIEWPORT
  5
832
330
519
100
AcDbEntity
  8
0
100
AcDbViewport
 10
0.0
 20
0.0
 30
0.0
 40
205.6
 41
156.0
 68
     1
 69
     1
 12
0.0
 22
-10.25
 13
0.0
 23
0.0
 14
10.0
 24
10.0
 15
10.0
 25
10.0
 16
0.0
 26
0.0
 36
1.0
 17
0.0
 27
0.0
 37
0.0
 42
50.0
 43
0.0
 44
0.0
 45
269.3276264591
 50
0.0
 51
0.0
 72
   100
 90
   557152
  1

281
     0
 71
     1
 74
     0
110
0.0
120
0.0
130
0.0
111
1.0
121
0.0
131
0.0
112
0.0
122
1.0
132
0.0
 79
     0
146
0.0
  0
ENDBLK
  5
51C
330
519
100
AcDbEntity
  8
0
100
AcDbBlockEnd
  0
BLOCK
  5
651
330
64F
100
AcDbEntity
  8
0
100
AcDbBlockBegin
  2
*Paper_Space4
 70
     0
 10
0.0
 20
0.0
 30
0.0
  3
*Paper_Space4
  1

  0
SPLINE
  5
657
330
64F
100
AcDbEntity
  8
0
  6
Continuous
 62
     7
370
    25
100
AcDbSpline
210
0.0
220
0.0
230
1.0
 70
     8
 71
     3
 72
    10
 73
     6
 74
     0
 42
0.000000001
 43
0.00000001
 40
0.0
 40
0.0
 40
0.0
 40
0.0
 40
0.0739093955251402
 40
0.5610182998706401
 40
1.0
 40
1.0
 40
1.0
 40
1.0
 10
-39.55559745449685
 20
-108.8704437969079
 30
0.0
 10
-39.64726358018242
 20
-108.8100845891709
 30
0.0
 10
-40.34306651054673
 20
-108.3519206457968
 30
0.0
 10
-41.78059370058496
 20
-107.6461685002186
 30
0.0
 10
-43.21709368669826
 20
-107.0881431401506
 30
0.0
 10
-43.89801756508852
 20
-106.8236302295409
 30
0.0
  0
SPLINE
  5
659
330
64F
100
AcDbEntity
  8
0
  6
Continuous
 62
     7
370
    25
100
AcDbSpline
210
0.0
220
0.0
230
1.0
 70
     8
 71
     3
 72
    27
 73
    23
 74
     0
 42
0.000000001
 43
0.00000001
 40
0.0
 40
0.0
 40
0.0
 40
0.0
 40
0.0289484443204002
 40
0.0836434494792938
 40
0.138360271256252
 40
0.1930670576622298
 40
0.2477427303444837
 40
0.3023611563581038
 40
0.3568911010547913
 40
0.4112967147955813
 40
0.4655387256068116
 40
0.5195764651407877
 40
0.5733707326157905
 40
0.626887319455834
 40
0.6801008169136042
 40
0.7329981772500047
 40
0.7855814620341639
 40
0.8378693166290918
 40
0.8898969271403071
 40
0.9417144697301869
 40
0.9933842727886929
 40
1.0
 40
1.0
 40
1.0
 40
1.0
 10
-397.443857221714
 20
-75.0198831373272
 30
0.0
 10
-398.3882907700728
 20
-75.57274168441847
 30
0.0
 10
-401.1171310115167
 20
-77.17016762693238
 30
0.0
 10
-405.460269209386
 20
-79.922693676423
 30
0.0
 10
-410.3895901805868
 20
-83.31895206032384
 30
0.0
 10
-415.0731105793533
 20
-86.85133633995581
 30
0.0
 10
-419.5038515418473
 20
-90.51116683980356
 30
0.0
 10
-423.6707938535853
 20
-94.29269275416537
 30
0.0
 10
-427.5644927609983
 20
-98.18861160679748
 30
0.0
 10
-431.175606135477
 20
-102.1911014567647
 30
0.0
 10
-434.4954954055581
 20
-106.2915059186937
 30
0.0
 10
-437.5163092992541
 20
-110.4804451899469
 30
0.0
 10
-440.2312285866149
 20
-114.7478968703094
 30
0.0
 10
-442.63461624303
 20
-119.0833742102649
 30
0.0
 10
-444.7222371405353
 20
-123.4761585737495
 30
0.0
 10
-446.4909505580018
 20
-127.9155610852859
 30
0.0
 10
-447.9399133548907
 20
-132.3912029538355
 30
0.0
 10
-449.0657127809591
 20
-136.8931738109597
 30
0.0
 10
-449.8795240777447
 20
-141.4124222165615
 30
0.0
 10
-450.3423350107286
 20
-145.9399386492295
 30
0.0
 10
-450.5281336804704
 20
-149.15617739729
 30
0.0
 10
-450.4666737739128
 20
-150.8575939406501
 30
0.0
 10
-450.4596977375907
 20
-151.0507140456156
 30
0.0
  0
SPLINE
  5
65B
330
64F
100
AcDbEntity
  8
0
  6
Continuous
 62
     7
370
    25
100
AcDbSpline
210
0.0
220
0.0
230
1.0
 70
     8
 71
     3
 72
    61
 73
    57
 74
     0
 42
0.000000001
 43
0.00000001
 40
0.0
 40
0.0
 40
0.0
 40
0.0
 40
0.0164274518905139
 40
0.0345509263521612
 40
0.0527012052898227
 40
0.0708909877249422
 40
0.0891299229829664
 40
0.1074241428666809
 40
0.1257761912129167
 40
0.1441853172128972
 40
0.1626480468951512
 40
0.1811589156215978
 40
0.1997112394645118
 40
0.2182978228808384
 40
0.2369115350405004
 40
0.2555457255993755
 40
0.2741944828149721
 40
0.2928527576776125
 40
0.3115163869316614
 40
0.3301819280899054
 40
0.3488462317673842
 40
0.3675075832563281
 40
0.3861647821996214
 40
0.4048170464205443
 40
0.4234639273024358
 40
0.4421052379545037
 40
0.4607409938268353
 40
0.4793713646380691
 40
0.4979966361353216
 40
0.5166171801397837
 40
0.5352334314176187
 40
0.5538458700757556
 40
0.5724550083660588
 40
0.5910613809619469
 40
0.6096655379351879
 40
0.6282680397996999
 40
0.6468694541040925
 40
0.6654703531446042
 40
0.6840713124375987
 40
0.7026727643445707
 40
0.7212752408458214
 40
0.7398793215500598
 40
0.7584855853238736
 40
0.7770946083963736
 40
0.7957069615210343
 40
0.814323205787163
 40
0.8329438865983104
 40
0.8515695252284227
 40
0.8702006072336061
 40
0.8888375668379
 40
0.9074807662282549
 40
0.9261304684956294
 40
0.9447868027650607
 40
0.9634497199034765
 40
0.9821189371416102
 40
1.0
 40
1.0
 40
1.0
 40
1.0
 10
-450.2637279106498
 20
-158.8640494434026
 30
0.0
 10
-450.1362741331796
 20
-160.1919656014211
 30
0.0
 10
-449.8682078434084
 20
-162.9848962204439
 30
0.0
 10
-449.0717719953608
 20
-167.2210360931378
 30
0.0
 10
-447.9651410343759
 20
-171.5681560408403
 30
0.0
 10
-446.5392619774702
 20
-175.8826578151108
 30
0.0
 10
-444.8053976712074
 20
-180.1579189156323
 30
0.0
 10
-442.7630140575056
 20
-184.3865001303499
 30
0.0
 10
-440.4154710691614
 20
-188.5607656458168
 30
0.0
 10
-437.7659979465204
 20
-192.6727694768003
 30
0.0
 10
-434.8189141408008
 20
-196.7144061651653
 30
0.0
 10
-431.5793650975048
 20
-200.6775303182093
 30
0.0
 10
-428.0533849782432
 20
-204.5540947445206
 30
0.0
 10
-424.2478123805586
 20
-208.3362681295708
 30
0.0
 10
-420.1702076854966
 20
-212.0165257131701
 30
0.0
 10
-415.8287540105535
 20
-215.5877076155556
 30
0.0
 10
-411.2321647339527
 20
-219.0430476325102
 30
0.0
 10
-406.3896033729959
 20
-222.3761786398861
 30
0.0
 10
-401.3106308734919
 20
-225.5811153164854
 30
0.0
 10
-396.0052047376151
 20
-228.652211160037
 30
0.0
 10
-390.4835806945164
 20
-231.584185123553
 30
0.0
 10
-384.7562745999522
 20
-234.3721018344764
 30
0.0
 10
-378.8339924277811
 20
-237.0113676031478
 30
0.0
 10
-372.7276980726149
 20
-239.4976722578021
 30
0.0
 10
-366.4486052824885
 20
-241.8269800216191
 30
0.0
 10
-360.0081696054411
 20
-243.9955242014703
 30
0.0
 10
-353.4180794384318
 20
-245.9998050208598
 30
0.0
 10
-346.6902456477755
 20
-247.8365898962057
 30
0.0
 10
-339.8367895102135
 20
-249.5029154958473
 30
0.0
 10
-332.8700289106262
 20
-250.9960910023775
 30
0.0
 10
-325.8024628525811
 20
-252.3137020920348
 30
0.0
 10
-318.6467544093773
 20
-253.4536152361722
 30
0.0
 10
-311.4157122816044
 20
-254.4139820116308
 30
0.0
 10
-304.1222711441444
 20
-255.1932431765234
 30
0.0
 10
-296.7794709692873
 20
-255.7901323251488
 30
0.0
 10
-289.400435509308
 20
-256.2036789817527
 30
0.0
 10
-281.9983501140737
 20
-256.4332110291634
 30
0.0
 10
-274.5864390546494
 20
-256.4783563971437
 30
0.0
 10
-267.1779617937931
 20
-256.3390443201316
 30
0.0
 10
-259.7861765404513
 20
-256.0155074740784
 30
0.0
 10
-252.4243101294253
 20
-255.508281595845
 30
0.0
 10
-245.1055154811087
 20
-254.8182012792363
 30
0.0
 10
-237.8428618462315
 20
-253.9463968427179
 30
0.0
 10
-230.6493186154043
 20
-252.8942912402847
 30
0.0
 10
-223.5377333945984
 20
-251.6635959578015
 30
0.0
 10
-216.5208111217571
 20
-250.2563060051428
 30
0.0
 10
-209.6110930656971
 20
-248.6746949283915
 30
0.0
 10
-202.8209409481469
 20
-246.9213068564095
 30
0.0
 10
-196.1625075921433
 20
-244.9989573840527
 30
0.0
 10
-189.6477645520851
 20
-242.9107001292985
 30
0.0
 10
-183.2883247084685
 20
-240.6599213459449
 30
0.0
 10
-177.0960391942576
 20
-238.2499579012708
 30
0.0
 10
-171.0807126409874
 20
-235.685498637505
 30
0.0
 10
-165.258588973101
 20
-232.9673329144169
 30
0.0
 10
-159.7005456839181
 20
-230.1524239444176
 30
0.0
 10
-156.1935800608823
 20
-228.1757532511492
 30
0.0
 10
-154.4779085918236
 20
-227.2087299390617
 30
0.0
  0
SPLINE
  5
65D
330
64F
100
AcDbEntity
  8
0
  6
Continuous
 62
     7
370
    25
100
AcDbSpline
210
0.0
220
0.0
230
1.0
 70
     8
 71
     3
 72
    20
 73
    16
 74
     0
 42
0.000000001
 43
0.00000001
 40
0.0
 40
0.0
 40
0.0
 40
0.0
 40
0.0424688720349452
 40
0.1229694029079445
 40
0.2034898382618285
 40
0.2840069410354212
 40
0.3645056185391234
 40
0.4449675091306428
 40
0.5253701996948431
 40
0.6056872697500237
 40
0.6858887816007099
 40
0.7659423749347521
 40
0.8458150885178872
 40
0.9254759393100236
 40
1.0
 40
1.0
 40
1.0
 40
1.0
 10
-112.0515017206306
 20
-202.7164865843804
 30
0.0
 10
-111.1230076989231
 20
-202.1730692948082
 30
0.0
 10
-108.4345361200446
 20
-200.5995945019396
 30
0.0
 10
-104.1577871629924
 20
-197.8923880148921
 30
0.0
 10
-99.30576237363644
 20
-194.5565465041999
 30
0.0
 10
-94.70099384626616
 20
-191.0944403726512
 30
0.0
 10
-90.34916921684588
 20
-187.514544644245
 30
0.0
 10
-86.2601513508313
 20
-183.8225214265391
 30
0.0
 10
-82.44219482593438
 20
-180.0252521203118
 30
0.0
 10
-78.90328351260905
 20
-176.1298945678622
 30
0.0
 10
-75.6514705407495
 20
-172.1440150061991
 30
0.0
 10
-72.69171130991344
 20
-168.076136748375
 30
0.0
 10
-70.0375585322476
 20
-163.9334140741875
 30
0.0
 10
-67.7156237459233
 20
-159.8163351183732
 30
0.0
 10
-66.42606986981694
 20
-157.0518154820127
 30
0.0
 10
-65.80277417633992
 20
-155.715606723462
 30
0.0
  0
SPLINE
  5
65E
330
64F
100
AcDbEntity
  8
0
  6
Continuous
 62
     7
370
    25
100
AcDbSpline
210
0.0
220
0.0
230
1.0
 70
     8
 71
     3
 72
    15
 73
    11
 74
     0
 42
0.000000001
 43
0.00000001
 40
0.0
 40
0.0
 40
0.0
 40
0.0
 40
0.0797772116596224
 40
0.2291232983857268
 40
0.378315310754016
 40
0.5273171090612544
 40
0.6761408712450978
 40
0.8248058258714905
 40
0.9654111041114158
 40
1.0
 40
1.0
 40
1.0
 40
1.0
 10
-65.80277417633998
 20
-155.715606723462
 30
0.0
 10
-65.35224527732167
 20
-154.6823414563404
 30
0.0
 10
-64.05830850999536
 20
-151.7147628560702
 30
0.0
 10
-62.15825493094959
 20
-146.7756059623237
 30
0.0
 10
-60.20439162809346
 20
-140.8913547963396
 30
0.0
 10
-58.56856214104283
 20
-134.9752926627487
 30
0.0
 10
-57.24589137155253
 20
-129.0348903557548
 30
0.0
 10
-56.25945333695656
 20
-123.1815598842997
 30
0.0
 10
-55.74667081963378
 20
-118.8417093120033
 30
0.0
 10
-55.55065056299743
 20
-116.4911412239178
 30
0.0
 10
-55.51194993677752
 20
-116.0270644058258
 30
0.0
  0
SPLINE
  5
65F
330
64F
100
AcDbEntity
  8
0
  6
Continuous
 62
     7
370
    25
100
AcDbSpline
210
0.0
220
0.0
230
1.0
 70
     8
 71
     3
 72
    18
 73
    14
 74
     0
 42
0.000000001
 43
0.00000001
 40
0.0
 40
0.0
 40
0.0
 40
0.0
 40
0.0110292618267175
 40
0.1087489255907583
 40
0.2061087879265352
 40
0.3037546385294131
 40
0.4024905225718423
 40
0.503056105049659
 40
0.6060614513699193
 40
0.711889212863114
 40
0.820587703240795
 40
0.9318159659241374
 40
1.0
 40
1.0
 40
1.0
 40
1.0
 10
-55.47063380577602
 20
-111.4422127738056
 30
0.0
 10
-55.46709207342865
 20
-111.3478012015556
 30
0.0
 10
-55.43217046275714
 20
-110.4168996410677
 30
0.0
 10
-55.6160278234388
 20
-108.6511537359435
 30
0.0
 10
-56.10009387956922
 20
-106.1889254508842
 30
0.0
 10
-56.90442682781513
 20
-103.7956287587568
 30
0.0
 10
-57.9906888921308
 20
-101.4838385616854
 30
0.0
 10
-59.36162312406073
 20
-99.26164517607954
 30
0.0
 10
-61.01302384952281
 20
-97.13770717451958
 30
0.0
 10
-62.9429978634439
 20
-95.12166835630963
 30
0.0
 10
-65.1498854533461
 20
-93.23099115451771
 30
0.0
 10
-67.27776175320157
 20
-91.70768878857908
 30
0.0
 10
-68.70442702274057
 20
-90.8555028745696
 30
0.0
 10
-69.24661836140703
 20
-90.53163726195898
 30
0.0
  0
SPLINE
  5
664
330
64F
100
AcDbEntity
  8
0
  6
Continuous
 62
     7
370
    25
100
AcDbSpline
210
0.0
220
0.0
230
1.0
 70
     8
 71
     3
 72
    20
 73
    16
 74
     0
 42
0.000000001
 43
0.00000001
 40
0.0
 40
0.0
 40
0.0
 40
0.0
 40
0.0431342028098551
 40
0.1246689559880156
 40
0.2062393340515466
 40
0.2878498870242155
 40
0.369505219891275
 40
0.4512095646556893
 40
0.5329666194859733
 40
0.6147793357793959
 40
0.6966496405412784
 40
0.7785780799970718
 40
0.8605633696978735
 40
0.9426018374580215
 40
1.0
 40
1.0
 40
1.0
 40
1.0
 10
-276.3383468033182
 20
-24.54601464537976
 30
0.0
 10
-277.6047600251458
 20
-24.73932893631542
 30
0.0
 10
-281.2650204201422
 20
-25.29805702814426
 30
0.0
 10
-287.2573223049579
 20
-26.36128600602454
 30
0.0
 10
-294.2745932013459
 20
-27.79256788751029
 30
0.0
 10
-301.1849783944741
 20
-29.40383913566666
 30
0.0
 10
-307.9775460480687
 20
-31.18970264080496
 30
0.0
 10
-314.6399681555159
 20
-33.14853324840142
 30
0.0
 10
-321.1604955196291
 20
-35.27743555220398
 30
0.0
 10
-327.527560502151
 20
-37.57351856062531
 30
0.0
 10
-333.7294069894334
 20
-40.03386974785478
 30
0.0
 10
-339.7559736251708
 20
-42.65439462609917
 30
0.0
 10
-345.5917029156258
 20
-45.43447864662117
 30
0.0
 10
-350.6755895580409
 20
-48.06604186772294
 30
0.0
 10
-353.7513386641648
 20
-49.80982361207878
 30
0.0
 10
-355.0174503505211
 20
-50.52763978264601
 30
0.0
  0
SPLINE
  5
665
330
64F
100
AcDbEntity
  8
0
  6
Continuous
 62
     7
370
    25
100
AcDbSpline
210
0.0
220
0.0
230
1.0
 70
     8
 71
     3
 72
    14
 73
    10
 74
     0
 42
0.000000001
 43
0.00000001
 40
0.0
 40
0.0
 40
0.0
 40
0.0
 40
0.0804260701580123
 40
0.2327970340504154
 40
0.3851784721975345
 40
0.537569183606754
 40
0.6899718091484265
 40
0.8423889821059828
 40
1.0
 40
1.0
 40
1.0
 40
1.0
 10
-210.2368327327042
 20
-18.82868806209748
 30
0.0
 10
-212.0290140640943
 20
-18.88135180415571
 30
0.0
 10
-217.2165670255712
 20
-19.03378947677942
 30
0.0
 10
-225.7858778154755
 20
-19.42701722366494
 30
0.0
 10
-235.9274522652308
 20
-20.06842817444626
 30
0.0
 10
-246.0310335542708
 20
-20.89469916823386
 30
0.0
 10
-256.0852896981906
 20
-21.90637679225144
 30
0.0
 10
-266.2011067703332
 20
-23.10024050167353
 30
0.0
 10
-272.9217369674566
 20
-24.05873742359665
 30
0.0
 10
-276.3383468033182
 20
-24.54601464537976
 30
0.0
  0
SPLINE
  5
666
330
64F
100
AcDbEntity
  8
0
  6
Continuous
 62
     7
370
    25
100
AcDbSpline
210
0.0
220
0.0
230
1.0
 70
     8
 71
     3
 72
    16
 73
    12
 74
     0
 42
0.000000001
 43
0.00000001
 40
0.0
 40
0.0
 40
0.0
 40
0.0
 40
0.0667232206592403
 40
0.1864950685146345
 40
0.3060906855743571
 40
0.4254339880702601
 40
0.5443648136034628
 40
0.6628728867694527
 40
0.7810373286617512
 40
0.8989865717506388
 40
1.0
 40
1.0
 40
1.0
 40
1.0
 10
-182.3837033512544
 20
-25.21898831614217
 30
0.0
 10
-182.9042125068378
 20
-24.9281003550159
 30
0.0
 10
-184.359064201254
 20
-24.11505251793114
 30
0.0
 10
-186.8967406461892
 20
-22.93465691597141
 30
0.0
 10
-190.0254113685292
 20
-21.73693708886712
 30
0.0
 10
-193.2927873128459
 20
-20.74180225259162
 30
0.0
 10
-196.6686092794672
 20
-19.94826338498881
 30
0.0
 10
-200.1270637758126
 20
-19.35727744512811
 30
0.0
 10
-203.642360499854
 20
-18.97369128611856
 30
0.0
 10
-207.0224925620638
 20
-18.78967075962742
 30
0.0
 10
-209.2220959426299
 20
-18.8163706687402
 30
0.0
 10
-210.2368327327042
 20
-18.82868806209745
 30
0.0
  0
SPLINE
  5
667
330
64F
100
AcDbEntity
  8
0
  6
Continuous
 62
     7
370
    25
100
AcDbSpline
210
0.0
220
0.0
230
1.0
 70
     8
 71
     3
 72
    24
 73
    20
 74
     0
 42
0.000000001
 43
0.00000001
 40
0.0
 40
0.0
 40
0.0
 40
0.0
 40
0.0423191116663291
 40
0.0989077242140789
 40
0.155849696615983
 40
0.2154638301588667
 40
0.2787221305121655
 40
0.3446682182152328
 40
0.4112843571140278
 40
0.4776712454093257
 40
0.543970448077775
 40
0.6105822029198472
 40
0.6778961390289727
 40
0.7464403613948286
 40
0.816407452091866
 40
0.8759305373513789
 40
0.9323342382824167
 40
0.987036764932769
 40
1.0
 40
1.0
 40
1.0
 40
1.0
 10
-273.1650429449559
 20
-280.2013114457283
 30
0.0
 10
-273.148089627432
 20
-280.4774651588087
 30
0.0
 10
-273.1084665354495
 20
-281.1228883309539
 30
0.0
 10
-272.7502337847184
 20
-282.0906946594759
 30
0.0
 10
-272.1158254542837
 20
-283.0420043882587
 30
0.0
 10
-271.2339695224215
 20
-283.8782188566254
 30
0.0
 10
-270.1141318170264
 20
-284.5885252784653
 30
0.0
 10
-268.7784302446697
 20
-285.1443323753168
 30
0.0
 10
-267.2847419098948
 20
-285.5160768344418
 30
0.0
 10
-265.7052337495755
 20
-285.6874992032929
 30
0.0
 10
-264.104292987518
 20
-285.6540807396437
 30
0.0
 10
-262.5381545906234
 20
-285.4152776435
 30
0.0
 10
-261.0587158342994
 20
-284.9704454546423
 30
0.0
 10
-259.7167869563799
 20
-284.3159306430023
 30
0.0
 10
-258.6300461417716
 20
-283.4895129534149
 30
0.0
 10
-257.835275679936
 20
-282.5384297339788
 30
0.0
 10
-257.3409723382901
 20
-281.5291174525771
 30
0.0
 10
-257.1754935636336
 20
-280.7268978785068
 30
0.0
 10
-257.1667231571862
 20
-280.2858133091763
 30
0.0
 10
-257.1650429449559
 20
-280.2013114457283
 30
0.0
  0
SPLINE
  5
668
330
64F
100
AcDbEntity
  8
0
  6
Continuous
 62
     7
370
    25
100
AcDbSpline
210
0.0
220
0.0
230
1.0
 70
     8
 71
     3
 72
    11
 73
     7
 74
     0
 42
0.000000001
 43
0.00000001
 40
0.0
 40
0.0
 40
0.0
 40
0.0
 40
0.1098646564779267
 40
0.5287868979352138
 40
0.9465147296898953
 40
1.0
 40
1.0
 40
1.0
 40
1.0
 10
-449.6117509405227
 20
-164.0047502581971
 30
0.0
 10
-449.6846638132749
 20
-164.3976763051824
 30
0.0
 10
-450.0355989824026
 20
-166.2888590764594
 30
0.0
 10
-450.3252754960913
 20
-169.7028943968722
 30
0.0
 10
-450.5285384907908
 20
-172.9174766262704
 30
0.0
 10
-450.4667150383625
 20
-174.6189276525276
 30
0.0
 10
-450.4596977375911
 20
-174.8120516714907
 30
0.0
  0
SPLINE
  5
66A
330
64F
100
AcDbEntity
  8
0
  6
Continuous
 62
     7
370
    25
100
AcDbSpline
210
0.0
220
0.0
230
1.0
 70
     8
 71
     3
 72
    61
 73
    57
 74
     0
 42
0.000000001
 43
0.00000001
 40
0.0
 40
0.0
 40
0.0
 40
0.0
 40
0.016427451890513
 40
0.0345509263521603
 40
0.0527012052898218
 40
0.0708909877249413
 40
0.0891299229829656
 40
0.1074241428666801
 40
0.1257761912129158
 40
0.1441853172128965
 40
0.1626480468951573
 40
0.1811589156215967
 40
0.1997112394645173
 40
0.2182978228808432
 40
0.2369115350405048
 40
0.2555457255993729
 40
0.2741944828149691
 40
0.2928527576776092
 40
0.3115163869316577
 40
0.3301819280899013
 40
0.3488462317673867
 40
0.3675075832563168
 40
0.3861647821996161
 40
0.4048170464205322
 40
0.4234639273024367
 40
0.4421052379545038
 40
0.4607409938268351
 40
0.479371364638069
 40
0.4979966361353211
 40
0.5166171801397693
 40
0.535233431417599
 40
0.5538458700757393
 40
0.5724550083660335
 40
0.5910613809619291
 40
0.6096655379351759
 40
0.6282680397996786
 40
0.6468694541040727
 40
0.6654703531445849
 40
0.6840713124375799
 40
0.7026727643445545
 40
0.7212752408457976
 40
0.7398793215500383
 40
0.7584855853238511
 40
0.7770946083963477
 40
0.7957069615210116
 40
0.8143232057871405
 40
0.8329438865982862
 40
0.8515695252284001
 40
0.8702006072335852
 40
0.8888375668378793
 40
0.9074807662282339
 40
0.9261304684956062
 40
0.9447868027650407
 40
0.9634497199034542
 40
0.9821189371415906
 40
1.0
 40
1.0
 40
1.0
 40
1.0
 10
-450.2637279106501
 20
-182.6253870692777
 30
0.0
 10
-450.1362741331797
 20
-183.9533032272961
 30
0.0
 10
-449.8682078434085
 20
-186.7462338463187
 30
0.0
 10
-449.0717719953612
 20
-190.9823737190126
 30
0.0
 10
-447.965141034376
 20
-195.3294936667151
 30
0.0
 10
-446.5392619774705
 20
-199.6439954409856
 30
0.0
 10
-444.8053976712077
 20
-203.9192565415073
 30
0.0
 10
-442.7630140575058
 20
-208.1478377562246
 30
0.0
 10
-440.4154710691618
 20
-212.3221032716917
 30
0.0
 10
-437.7659979465206
 20
-216.4341071026757
 30
0.0
 10
-434.8189141408006
 20
-220.4757437910407
 30
0.0
 10
-431.5793650975041
 20
-224.4388679440849
 30
0.0
 10
-428.0533849782428
 20
-228.3154323703963
 30
0.0
 10
-424.2478123805579
 20
-232.0976057554468
 30
0.0
 10
-420.1702076854961
 20
-235.7778633390454
 30
0.0
 10
-415.8287540105537
 20
-239.3490452414306
 30
0.0
 10
-411.2321647339536
 20
-242.8043852583846
 30
0.0
 10
-406.3896033729969
 20
-246.1375162657604
 30
0.0
 10
-401.3106308734929
 20
-249.3424529423598
 30
0.0
 10
-396.0052047376155
 20
-252.4135487859115
 30
0.0
 10
-390.4835806945181
 20
-255.3455227494274
 30
0.0
 10
-384.7562745999536
 20
-258.1334394603505
 30
0.0
 10
-378.8339924277844
 20
-260.7727052290214
 30
0.0
 10
-372.727698072617
 20
-263.2590098836764
 30
0.0
 10
-366.4486052824898
 20
-265.5883176474936
 30
0.0
 10
-360.008169605441
 20
-267.7568618273452
 30
0.0
 10
-353.4180794384318
 20
-269.7611426467347
 30
0.0
 10
-346.6902456477756
 20
-271.5979275220804
 30
0.0
 10
-339.8367895102156
 20
-273.2642531217219
 30
0.0
 10
-332.8700289106306
 20
-274.7574286282515
 30
0.0
 10
-325.8024628525876
 20
-276.0750397179086
 30
0.0
 10
-318.6467544093853
 20
-277.2149528620459
 30
0.0
 10
-311.4157122816122
 20
-278.1753196375048
 30
0.0
 10
-304.1222711441518
 20
-278.9545808023975
 30
0.0
 10
-296.7794709692941
 20
-279.5514699510232
 30
0.0
 10
-289.4004355093152
 20
-279.9650166076272
 30
0.0
 10
-281.9983501140817
 20
-280.194548655038
 30
0.0
 10
-274.5864390546574
 20
-280.2396940230186
 30
0.0
 10
-267.1779617938006
 20
-280.1003819460068
 30
0.0
 10
-259.7861765404594
 20
-279.7768450999537
 30
0.0
 10
-252.4243101294334
 20
-279.2696192217204
 30
0.0
 10
-245.1055154811177
 20
-278.5795389051123
 30
0.0
 10
-237.8428618462407
 20
-277.7077344685937
 30
0.0
 10
-230.6493186154135
 20
-276.6556288661611
 30
0.0
 10
-223.5377333946075
 20
-275.4249335836779
 30
0.0
 10
-216.520811121766
 20
-274.0176436310196
 30
0.0
 10
-209.6110930657059
 20
-272.4360325542683
 30
0.0
 10
-202.8209409481552
 20
-270.6826444822864
 30
0.0
 10
-196.162507592151
 20
-268.7602950099297
 30
0.0
 10
-189.6477645520926
 20
-266.6720377551759
 30
0.0
 10
-183.2883247084761
 20
-264.4212589718222
 30
0.0
 10
-177.0960391942648
 20
-262.0112955271485
 30
0.0
 10
-171.0807126409944
 20
-259.4468362633828
 30
0.0
 10
-165.2585889731076
 20
-256.7286705402949
 30
0.0
 10
-159.7005456839225
 20
-253.9137615702947
 30
0.0
 10
-156.1935800608846
 20
-251.9370908770252
 30
0.0
 10
-154.4779085918239
 20
-250.9700675649365
 30
0.0
  0
SPLINE
  5
66C
330
64F
100
AcDbEntity
  8
0
  6
Continuous
 62
     7
370
    25
100
AcDbSpline
210
0.0
220
0.0
230
1.0
 70
     8
 71
     3
 72
    20
 73
    16
 74
     0
 42
0.000000001
 43
0.00000001
 40
0.0
 40
0.0
 40
0.0
 40
0.0
 40
0.0424688720349451
 40
0.1229694029079444
 40
0.2034898382618283
 40
0.2840069410354208
 40
0.3645056185391162
 40
0.4449675091306282
 40
0.5253701996948383
 40
0.6056872697500225
 40
0.6858887816006934
 40
0.7659423749347347
 40
0.8458150885178677
 40
0.9254759393099967
 40
1.0
 40
1.0
 40
1.0
 40
1.0
 10
-112.0515017206309
 20
-226.4778242102553
 30
0.0
 10
-111.1230076989233
 20
-225.934406920683
 30
0.0
 10
-108.4345361200449
 20
-224.3609321278144
 30
0.0
 10
-104.1577871629927
 20
-221.6537256407669
 30
0.0
 10
-99.30576237363672
 20
-218.3178841300748
 30
0.0
 10
-94.70099384626648
 20
-214.8557779985261
 30
0.0
 10
-90.34916921684652
 20
-211.2758822701202
 30
0.0
 10
-86.26015135083195
 20
-207.5838590524143
 30
0.0
 10
-82.44219482593493
 20
-203.786589746187
 30
0.0
 10
-78.90328351260959
 20
-199.8912321937372
 30
0.0
 10
-75.65147054075031
 20
-195.9053526320746
 30
0.0
 10
-72.69171130991431
 20
-191.8374743742506
 30
0.0
 10
-70.0375585322485
 20
-187.6947517000635
 30
0.0
 10
-67.71562374592385
 20
-183.5776727442488
 30
0.0
 10
-66.42606986981738
 20
-180.813153107888
 30
0.0
 10
-65.80277417634015
 20
-179.4769443493368
 30
0.0
  0
SPLINE
  5
66D
330
64F
100
AcDbEntity
  8
0
  6
Continuous
 62
     7
370
    25
100
AcDbSpline
210
0.0
220
0.0
230
1.0
 70
     8
 71
     3
 72
    15
 73
    11
 74
     0
 42
0.000000001
 43
0.00000001
 40
0.0
 40
0.0
 40
0.0
 40
0.0
 40
0.0797772116596221
 40
0.2291232983856637
 40
0.3783153107539841
 40
0.5273171090612357
 40
0.6761408712450518
 40
0.8248058258714474
 40
0.9654111041113681
 40
1.0
 40
1.0
 40
1.0
 40
1.0
 10
-65.80277417634015
 20
-179.4769443493368
 30
0.0
 10
-65.35224527732184
 20
-178.4436790822152
 30
0.0
 10
-64.0583085099958
 20
-175.4761004819458
 30
0.0
 10
-62.15825493095023
 20
-170.5369435881997
 30
0.0
 10
-60.20439162809416
 20
-164.6526924222159
 30
0.0
 10
-58.56856214104331
 20
-158.7366302886248
 30
0.0
 10
-57.245891371553
 20
-152.796227981631
 30
0.0
 10
-56.25945333695695
 20
-146.9428975101763
 30
0.0
 10
-55.74667081963416
 20
-142.6030469378794
 30
0.0
 10
-55.55065056299765
 20
-140.2524788497933
 30
0.0
 10
-55.51194993677769
 20
-139.7884020317006
 30
0.0
  0
SPLINE
  5
66E
330
64F
100
AcDbEntity
  8
0
  6
Continuous
 62
     7
370
    25
100
AcDbSpline
210
0.0
220
0.0
230
1.0
 70
     8
 71
     3
 72
    12
 73
     8
 74
     0
 42
0.000000001
 43
0.00000001
 40
0.0
 40
0.0
 40
0.0
 40
0.0
 40
0.0354609838261147
 40
0.3496465993888752
 40
0.6626753911470389
 40
0.9766236846337383
 40
1.0
 40
1.0
 40
1.0
 40
1.0
 10
-55.47063380577622
 20
-135.2035503996804
 30
0.0
 10
-55.4671017772305
 20
-135.1091429819267
 30
0.0
 10
-55.43227584639867
 20
-134.1782823849248
 30
0.0
 10
-55.61095050950374
 20
-132.4103176073662
 30
0.0
 10
-56.11807278282225
 20
-129.9579603989039
 30
0.0
 10
-56.61316215100401
 20
-128.2847184645156
 30
0.0
 10
-56.99895380834588
 20
-127.4703126419425
 30
0.0
 10
-57.02568884993791
 20
-127.4138749945105
 30
0.0
  0
LWPOLYLINE
  5
675
330
64F
100
AcDbEntity
  8
0
  6
Continuous
 62
     7
370
    25
100
AcDbPolyline
 90
       23
 70
   128
 43
0.0
 10
-49.1439212925
 20
-126.7493498614
 10
-49.0104904485
 20
-128.2510960077
 10
-48.6152335887
 20
-129.5421103685
 10
-47.9730676842
 20
-130.5736701368
 10
-47.1082280387
 20
-131.306844307
 10
-46.0533536502
 20
-131.7139629286
 10
-44.8482554168
 20
-131.7796613684
 10
-43.5384136758
 20
-131.5014601711
 10
-42.1732617782
 20
-130.8898586338
 10
-40.8043204772
 20
-129.9679385629
 10
-39.4832535381
 20
-128.7704931682
 10
-38.2599179502
 20
-127.3427139694
 10
-37.1804823275
 20
-125.7384852703
 10
-36.2856845076
 20
-124.0183505687
 10
-35.6092941081
 20
-122.2472276484
 10
-35.1768380636
 20
-120.4919585852
 10
-35.0046372398
 20
-118.8187871316
 10
-35.0991904859
 20
-117.290858681
 10
-35.4569293679
 20
-115.9658371641
 10
-36.0643528412
 20
-114.893728816
 10
-36.8985367792
 20
-114.1149949434
 10
-37.9279991286
 20
-113.6590249173
 10
-39.1138880402
 20
-113.5430270201
  0
LWPOLYLINE
  5
67B
330
64F
100
AcDbEntity
  8
0
  6
Continuous
 62
     7
370
    25
100
AcDbPolyline
 90
        3
 70
   128
 43
0.0
 10
-49.0940750976
 20
-107.067351728
 10
-49.9488144088
 20
-106.7195559668
 10
-51.1347033204
 20
-106.6035580696
  0
LWPOLYLINE
  5
67C
330
64F
100
AcDbEntity
  8
0
  6
Continuous
 62
     7
370
    25
100
AcDbPolyline
 90
       14
 70
   128
 43
0.0
 10
-55.4594154602
 20
-138.2527745641
 10
-53.0528410766
 20
-138.1316579961
 10
-50.229334127
 20
-137.8009069202
 10
-47.4976355073
 20
-137.2723578208
 10
-44.899154984
 20
-136.5540229634
 10
-42.473282873
 20
-135.6567915723
 10
-40.2567929227
 20
-134.5942647607
 10
-38.2832848614
 20
-133.382549352
 10
-36.5826750598
 20
-132.0400137168
 10
-35.1807430287
 20
-130.5870093266
 10
-34.0987406288
 20
-129.0455622469
 10
-33.3530699136
 20
-127.4390392443
 10
-32.9550344909
 20
-125.7917935698
 10
-32.8856997824
 20
-124.7526665391
  0
LWPOLYLINE
  5
67D
330
64F
100
AcDbEntity
  8
0
  6
Continuous
 62
     7
370
    25
100
AcDbPolyline
 90
       14
 70
   128
 43
0.0
 10
-55.4594154602
 20
-136.6196929404
 10
-53.0528410766
 20
-136.4985763723
 10
-50.229334127
 20
-136.1678252964
 10
-47.4976355073
 20
-135.639276197
 10
-44.899154984
 20
-134.9209413396
 10
-42.473282873
 20
-134.0237099485
 10
-40.2567929227
 20
-132.9611831369
 10
-38.2832848614
 20
-131.7494677283
 10
-36.5826750598
 20
-130.406932093
 10
-35.1807430287
 20
-128.9539277028
 10
-34.0987406288
 20
-127.4124806232
 10
-33.3530699136
 20
-125.8059576205
 10
-32.9550344909
 20
-124.1587119461
 10
-32.8856997824
 20
-123.1195849154
  0
LWPOLYLINE
  5
681
330
64F
100
AcDbEntity
  8
0
  6
Continuous
 62
     7
370
    25
100
AcDbPolyline
 90
       14
 70
   128
 43
0.0
 10
-39.437788957
 20
-109.0906777207
 10
-39.2377044492
 20
-109.2120113193
 10
-37.3971545998
 20
-110.4915637316
 10
-35.8429358413
 20
-111.8919898923
 10
-34.598608546
 20
-113.3920607686
 10
-33.6830354473
 20
-114.9690368148
 10
-33.1100957
 20
-116.5990126818
 10
-32.8884744866
 20
-118.2572795968
 10
-33.021531359
 20
-119.9186999237
 10
-33.5072493104
 20
-121.558088224
 10
-34.3382653519
 20
-123.1505930421
 10
-35.5019821274
 20
-124.6720736283
 10
-36.9807588768
 20
-126.0994658877
 10
-37.8583812633
 20
-126.790942633
  0
LWPOLYLINE
  5
683
330
64F
100
AcDbEntity
  8
0
  6
Continuous
 62
     7
370
    25
100
AcDbPolyline
 90
       14
 70
   128
 43
0.0
 10
-55.4594154602
 20
-136.6196929404
 10
-53.7680684425
 20
-136.5497034781
 10
-50.9282569136
 20
-136.2693044732
 10
-48.1696587575
 20
-135.7895691239
 10
-45.5340915103
 20
-135.117769729
 10
-43.061507685
 20
-134.2640900827
 10
-40.7893891318
 20
-133.2414710981
 10
-38.752178852
 20
-132.0654146366
 10
-36.9807588768
 20
-130.7537485155
 10
-35.5019821274
 20
-129.326356256
 10
-34.3382653519
 20
-127.8048756698
 10
-33.5072493104
 20
-126.2123708517
 10
-33.021531359
 20
-124.5729825515
 10
-32.8856997824
 20
-123.1195849154
  0
LWPOLYLINE
  5
685
330
64F
100
AcDbEntity
  8
0
  6
Continuous
 62
     7
370
    25
100
AcDbPolyline
 90
       68
 70
   128
 43
0.0
 10
-392.4442635585
 20
-75.5149636423
 10
-397.7523707981
 20
-78.7264293876
 10
-402.7938923025
 20
-82.0779962958
 10
-407.5577457133
 20
-85.5622968954
 10
-412.0334590468
 20
-89.1716719374
 10
-416.2111937137
 20
-92.8981872323
 10
-420.0817661466
 20
-96.7336510905
 10
-423.6366679872
 20
-100.6696323302
 10
-426.8680847898
 20
-104.6974788104
 10
-429.7689131989
 20
-108.8083364503
 10
-432.3327765641
 20
-112.9931686927
 10
-434.5540389574
 20
-117.2427763681
 10
-436.4278175618
 20
-121.5478179164
 10
-437.9499934054
 20
-125.8988299222
 10
-439.1172204152
 20
-130.2862479167
 10
-439.9269327731
 20
-134.7004274029
 10
-440.3773505555
 20
-139.1316650563
 10
-440.4674836464
 20
-143.570220055
 10
-440.1971339136
 20
-148.0063354916
 10
-439.5668956446
 20
-152.4302598217
 10
-438.5781542399
 20
-156.8322682995
 10
-437.2330831676
 20
-161.2026843551
 10
-435.5346391859
 20
-165.5319008653
 10
-433.4865558433
 20
-169.8104012728
 10
-431.0933352714
 20
-174.0287805051
 10
-428.3602382885
 20
-178.1777656491
 10
-425.2932728349
 20
-182.2482363351
 10
-421.8991807662
 20
-186.2312447851
 10
-418.1854230335
 20
-190.118035482
 10
-414.1601632823
 20
-193.9000644164
 10
-409.8322499071
 20
-197.5690178679
 10
-405.2111966007
 20
-201.1168306805
 10
-400.3071614412
 20
-204.5357039917
 10
-395.1309245622
 20
-207.8181223759
 10
-389.6938644559
 20
-210.9568703652
 10
-384.0079329602
 20
-213.9450483102
 10
-378.0856289866
 20
-216.7760875474
 10
-371.9399710446
 20
-219.4437648381
 10
-365.5844686241
 20
-221.9422160486
 10
-359.0330924988
 20
-224.265949041
 10
-352.3002440151
 20
-226.4098557457
 10
-345.4007234354
 20
-228.3692233906
 10
-338.3496974032
 20
-230.1397448604
 10
-331.162665604
 20
-231.7175281645
 10
-323.8554266935
 20
-233.099104993
 10
-316.4440435687
 20
-234.28143834
 10
-308.9448080583
 20
-235.2619291803
 10
-301.3742051093
 20
-236.0384221822
 10
-293.7488765501
 20
-236.6092104456
 10
-286.0855845079
 20
-236.973039254
 10
-278.4011745616
 20
-237.1291088327
 10
-270.712538712
 20
-237.0770761069
 10
-263.0365782495
 20
-236.8170554558
 10
-255.3901666011
 20
-236.3496184613
 10
-247.7901122389
 20
-235.6757926513
 10
-240.2531217319
 20
-234.7970592411
 10
-232.7957630211
 20
-233.7153498776
 10
-225.4344289993
 20
-232.4330423927
 10
-218.1853014762
 20
-230.9529555765
 10
-211.0643156076
 20
-229.278342981
 10
-204.0871248657
 20
-227.4128857683
 10
-197.2690666301
 20
-225.360684618
 10
-190.6251284725
 20
-223.1262507138
 10
-184.1699152108
 20
-220.7144958262
 10
-177.9176168049
 20
-218.130721516
 10
-171.8819771634
 20
-215.3806074797
 10
-166.0762639324
 20
-212.470199065
 10
-160.5132393293
 20
-209.4058939812
  0
LWPOLYLINE
  5
687
330
64F
100
AcDbEntity
  8
0
  6
Continuous
 62
     7
370
    25
100
AcDbPolyline
 90
        3
 70
   128
 43
0.0
 10
-450.4787514439
 20
-153.8920001781
 10
-450.4349443239
 20
-156.1458602495
 10
-450.2879463176
 20
-158.5948148262
  0
LWPOLYLINE
  5
68C
330
64F
100
AcDbEntity
  8
0
  6
Continuous
 62
     7
370
    25
100
AcDbPolyline
 90
        9
 70
   128
 43
0.0
 10
-65.4909638553
 20
-104.0668794183
 10
-65.5099359922
 20
-102.2681797494
 10
-65.8519773273
 20
-100.4803174842
 10
-66.5133982131
 20
-98.7225785416
 10
-67.4870638105
 20
-97.0139238959
 10
-68.7624710534
 20
-95.3727850422
 10
-70.3258619466
 20
-93.8168651734
 10
-72.1603719753
 20
-92.3629482136
 10
-74.2462120246
 20
-91.0267177669
  0
LWPOLYLINE
  5
68E
330
64F
100
AcDbEntity
  8
0
  6
Continuous
 62
     7
370
    25
100
AcDbPolyline
 90
       12
 70
   128
 43
0.0
 10
-118.0868324582
 20
-184.9136506265
 10
-112.5974617523
 20
-181.5870499866
 10
-107.3941133292
 20
-178.1106289983
 10
-102.4890409046
 20
-174.4925745194
 10
-97.8937957639
 20
-170.7414069501
 10
-93.6191995592
 20
-166.8659601675
 10
-89.6753188251
 20
-162.8753607223
 10
-86.0714412718
 20
-158.7790063459
 10
-82.8160539134
 20
-154.5865438189
 10
-79.9168230808
 20
-150.3078462538
 10
-77.3805763679
 20
-145.9529898436
 10
-75.2132865528
 20
-141.532230133
  0
LWPOLYLINE
  5
691
330
64F
100
AcDbEntity
  8
0
  6
Continuous
 62
     7
370
    25
100
AcDbPolyline
 90
       12
 70
   128
 43
0.0
 10
-274.8708899577
 20
-26.2723490629
 10
-282.5287001242
 20
-27.5234988417
 10
-290.0723500565
 20
-28.9876429039
 10
-297.4840747053
 20
-30.661333238
 10
-304.746419701
 20
-32.5406283581
 10
-311.8422824584
 20
-34.6211025855
 10
-318.7549524523
 20
-36.8978564712
 10
-325.4681505707
 20
-39.3655283343
 10
-331.9660674513
 20
-42.0183068881
 10
-338.2334007119
 20
-44.8499449257
 10
-344.2553909874
 20
-47.853774032
 10
-350.0178566873
 20
-51.0227202876
  0
LWPOLYLINE
  5
696
330
64F
100
AcDbEntity
  8
0
  6
Continuous
 62
     7
370
    25
100
AcDbPolyline
 90
       12
 70
   128
 43
0.0
 10
-65.527978137
 20
-151.1344702443
 10
-67.82741977
 20
-155.8247884739
 10
-70.5183156728
 20
-160.4451849091
 10
-73.5943288732
 20
-164.9847786672
 10
-77.0482154608
 20
-169.4328791531
 10
-80.8718416453
 20
-173.7790112354
 10
-85.056202912
 20
-178.0129399151
 10
-89.5914452267
 20
-182.1246944283
 10
-94.4668882419
 20
-186.1045917274
 10
-99.6710504485
 20
-189.9432592843
 10
-105.1916762144
 20
-193.6316571621
 10
-111.0157646463
 20
-197.1610993045
  0
LWPOLYLINE
  5
697
330
64F
100
AcDbEntity
  8
0
  6
Continuous
 62
     7
370
    25
100
AcDbPolyline
 90
        9
 70
   128
 43
0.0
 10
-65.527978137
 20
-151.1344702443
 10
-65.7140786224
 20
-149.5138698211
 10
-66.2652283413
 20
-147.9003315157
 10
-67.1602469193
 20
-146.3558627002
 10
-68.3647392941
 20
-144.9398164451
 10
-69.8324174994
 20
-143.7066106138
 10
-71.5068794847
 20
-142.7036366148
 10
-73.3237766151
 20
-141.9694381765
 10
-75.2132865528
 20
-141.532230133
  0
LWPOLYLINE
  5
698
330
64F
100
AcDbEntity
  8
0
  6
Continuous
 62
     7
370
    25
100
AcDbPolyline
 90
       12
 70
   128
 43
0.0
 10
-111.0157646463
 20
-200.427262552
 10
-105.1916762144
 20
-196.8978204097
 10
-99.6710504485
 20
-193.2094225318
 10
-94.4668882419
 20
-189.3707549749
 10
-89.5914452267
 20
-185.3908576758
 10
-85.056202912
 20
-181.2791031626
 10
-80.8718416453
 20
-177.045174483
 10
-77.0482154608
 20
-172.6990424006
 10
-73.5943288732
 20
-168.2509419147
 10
-70.5183156728
 20
-163.7113481566
 10
-67.82741977
 20
-159.0909517214
 10
-65.527978137
 20
-154.4006334918
  0
LWPOLYLINE
  5
69B
330
64F
100
AcDbEntity
  8
0
  6
Continuous
 62
     7
370
    25
100
AcDbPolyline
 90
        9
 70
   128
 43
0.0
 10
-55.501479987
 20
-112.4969675285
 10
-55.6934251184
 20
-110.8988896774
 10
-56.261884169
 20
-109.3520535582
 10
-57.1850115762
 20
-107.9159032156
 10
-58.4273320714
 20
-106.6456291019
 10
-59.9411039748
 20
-105.5900471387
 10
-61.668153881
 20
-104.7897227491
 10
-63.5421122306
 20
-104.2754119504
 10
-65.4909638553
 20
-104.0668794183
  0
LWPOLYLINE
  5
6A0
330
64F
100
AcDbEntity
  8
0
  6
Continuous
 62
     7
370
    25
100
AcDbPolyline
 90
       15
 70
   128
 43
0.0
 10
-273.165042945
 20
-280.2013114457
 10
-272.9644662424
 20
-281.2289802526
 10
-272.3727938882
 20
-282.2051174543
 10
-271.4196948047
 20
-283.0807754555
 10
-270.1529613598
 20
-283.8120451077
 10
-268.6361128579
 20
-284.362257497
 10
-266.9452104166
 20
-284.7038226767
 10
-265.165042945
 20
-284.8196131424
 10
-263.3848754733
 20
-284.7038226767
 10
-261.693973032
 20
-284.362257497
 10
-260.1771245301
 20
-283.8120451077
 10
-258.9103910852
 20
-283.0807754555
 10
-257.9572920017
 20
-282.2051174543
 10
-257.3656196475
 20
-281.2289802526
 10
-257.165042945
 20
-280.2013114457
  0
LWPOLYLINE
  5
6A3
330
64F
100
AcDbEntity
  8
0
  6
Continuous
 62
     7
370
    25
100
AcDbPolyline
 90
        3
 70
   128
 43
0.0
 10
-450.4787514439
 20
-177.653337804
 10
-450.4349443239
 20
-179.9071978754
 10
-450.2879463176
 20
-182.356152452
  0
LWPOLYLINE
  5
6AA
330
64F
100
AcDbEntity
  8
0
  6
Continuous
 62
     7
370
    25
100
AcDbPolyline
 90
       12
 70
   128
 43
0.0
 10
-65.527978137
 20
-174.8958078701
 10
-67.82741977
 20
-179.5861260997
 10
-70.5183156728
 20
-184.2065225349
 10
-73.5943288732
 20
-188.746116293
 10
-77.0482154608
 20
-193.1942167789
 10
-80.8718416453
 20
-197.5403488613
 10
-85.056202912
 20
-201.774277541
 10
-89.5914452267
 20
-205.8860320541
 10
-94.4668882419
 20
-209.8659293533
 10
-99.6710504485
 20
-213.7045969101
 10
-105.1916762144
 20
-217.392994788
 10
-111.0157646463
 20
-220.9224369304
  0
LWPOLYLINE
  5
6AB
330
64F
100
AcDbEntity
  8
0
  6
Continuous
 62
     7
370
    25
100
AcDbPolyline
 90
       12
 70
   128
 43
0.0
 10
-111.0157646463
 20
-224.1886001779
 10
-105.1916762144
 20
-220.6591580356
 10
-99.6710504485
 20
-216.9707601577
 10
-94.4668882419
 20
-213.1320926008
 10
-89.5914452267
 20
-209.1521953017
 10
-85.056202912
 20
-205.0404407885
 10
-80.8718416453
 20
-200.8065121088
 10
-77.0482154608
 20
-196.4603800265
 10
-73.5943288732
 20
-192.0122795406
 10
-70.5183156728
 20
-187.4726857825
 10
-67.82741977
 20
-182.8522893473
 10
-65.527978137
 20
-178.1619711177
  0
LWPOLYLINE
  5
6B5
330
64F
100
AcDbEntity
  8
0
  6
Continuous
 62
     8
370
    25
100
AcDbPolyline
 90
       15
 70
   128
 43
0.0
 10
-36.5772806436
 20
-124.7890139433
 10
-36.5747073641
 20
-124.7865026941
 10
-35.2691188543
 20
-123.3072827563
 10
-34.2949743804
 20
-121.7452632258
 10
-33.6676367828
 20
-120.1250780838
 10
-33.3969995501
 20
-118.4722786177
 10
-33.487330793
 20
-116.8129304626
 10
-33.9372059341
 20
-115.1732025301
 10
-34.7395301734
 20
-113.5789543091
 10
-35.8816503785
 20
-112.0553280466
 10
-37.3455546316
 20
-110.6263522387
 10
-39.1081562879
 20
-109.3145626878
 10
-41.1416580665
 20
-108.1406470985
 10
-43.4139904296
 20
-107.1231188209
 10
-44.2244605757
 20
-106.819380939
  0
LWPOLYLINE
  5
6B6
330
64F
100
AcDbEntity
  8
0
  6
Continuous
 62
     8
370
    25
100
AcDbPolyline
 90
       54
 70
   128
 43
0.0
 10
-153.4421715175
 20
-221.6533426592
 10
-159.0860764518
 20
-224.7684596819
 10
-164.9663946105
 20
-227.7342633295
 10
-171.0712838156
 20
-230.5447808681
 10
-177.3884496326
 20
-233.1943522895
 10
-183.9051701303
 20
-235.6776417093
 10
-190.6083215007
 20
-237.9896481133
 10
-197.4844044893
 20
-240.1257154281
 10
-204.5195715798
 20
-242.0815418986
 10
-211.699654882
 20
-243.8531887504
 10
-219.0101946637
 20
-245.4370881225
 10
-226.4364684708
 20
-246.8300502525
 10
-233.9635207759
 20
-248.0292699
 10
-241.5761930977
 20
-249.0323319961
 10
-249.2591545269
 20
-249.8372165075
 10
-256.996932602
 20
-250.4423025036
 10
-264.7739444674
 20
-250.8463714219
 10
-272.5745282565
 20
-251.0486095214
 10
-280.3829746314
 20
-251.0486095214
 10
-288.1835584204
 20
-250.8463714219
 10
-295.9605702859
 20
-250.4423025036
 10
-303.6983483609
 20
-249.8372165075
 10
-311.3813097902
 20
-249.0323319961
 10
-318.9939821119
 20
-248.0292699
 10
-326.5210344171
 20
-246.8300502525
 10
-333.9473082241
 20
-245.4370881225
 10
-341.2578480059
 20
-243.8531887504
 10
-348.4379313081
 20
-242.0815418986
 10
-355.4730983986
 20
-240.1257154281
 10
-362.3491813871
 20
-237.9896481133
 10
-369.0523327576
 20
-235.6776417093
 10
-375.5690532553
 20
-233.1943522895
 10
-381.8862190722
 20
-230.5447808681
 10
-387.9911082773
 20
-227.7342633295
 10
-393.8714264361
 20
-224.7684596819
 10
-399.5153313704
 20
-221.6533426592
 10
-404.9114570067
 20
-218.3951856924
 10
-410.0489362662
 20
-215.0005502762
 10
-414.9174229494
 20
-211.4762727545
 10
-419.5071125719
 20
-207.8294505531
 10
-423.8087621097
 20
-204.0674278867
 10
-427.813708613
 20
-200.1977809683
 10
-431.5138866527
 20
-196.2283027518
 10
-434.9018445626
 20
-192.1669872379
 10
-437.9707594463
 20
-188.0220133758
 10
-440.7144509176
 20
-183.8017285911
 10
-443.1273935471
 20
-179.5146319757
 10
-445.2047279895
 20
-175.1693571717
 10
-446.9422707696
 20
-170.7746549843
 10
-448.3365227075
 20
-166.3393757587
 10
-449.3846759654
 20
-161.8724515571
 10
-450.084619702
 20
-157.3828781705
 10
-450.4349443239
 20
-152.879697002
 10
-450.4774964903
 20
-151.007337327
  0
LWPOLYLINE
  5
6B8
330
64F
100
AcDbEntity
  8
0
  6
Continuous
 62
     8
370
    25
100
AcDbPolyline
 90
       53
 70
   128
 43
0.0
 10
-450.2879463176
 20
-158.5948148262
 10
-450.084619702
 20
-160.649041418
 10
-449.3846759654
 20
-165.1386148047
 10
-448.3365227075
 20
-169.6055390062
 10
-446.9422707696
 20
-174.0408182318
 10
-445.2047279895
 20
-178.4355204193
 10
-443.1273935471
 20
-182.7807952233
 10
-440.7144509176
 20
-187.0678918386
 10
-437.9707594463
 20
-191.2881766233
 10
-434.9018445626
 20
-195.4331504855
 10
-431.5138866527
 20
-199.4944659993
 10
-427.813708613
 20
-203.4639442158
 10
-423.8087621097
 20
-207.3335911343
 10
-419.5071125719
 20
-211.0956138007
 10
-414.9174229494
 20
-214.742436002
 10
-410.0489362662
 20
-218.2667135238
 10
-404.9114570067
 20
-221.66134894
 10
-399.5153313704
 20
-224.9195059067
 10
-393.8714264361
 20
-228.0346229294
 10
-387.9911082773
 20
-231.000426577
 10
-381.8862190722
 20
-233.8109441157
 10
-375.5690532553
 20
-236.460515537
 10
-369.0523327576
 20
-238.9438049569
 10
-362.3491813871
 20
-241.2558113608
 10
-355.4730983986
 20
-243.3918786757
 10
-348.4379313081
 20
-245.3477051461
 10
-341.2578480059
 20
-247.1193519979
 10
-333.9473082241
 20
-248.7032513701
 10
-326.5210344171
 20
-250.0962135
 10
-318.9939821119
 20
-251.2954331475
 10
-311.3813097902
 20
-252.2984952437
 10
-303.6983483609
 20
-253.103379755
 10
-295.9605702859
 20
-253.7084657511
 10
-288.1835584204
 20
-254.1125346695
 10
-280.3829746314
 20
-254.3147727689
 10
-272.5745282565
 20
-254.3147727689
 10
-264.7739444674
 20
-254.1125346695
 10
-256.996932602
 20
-253.7084657511
 10
-249.2591545269
 20
-253.103379755
 10
-241.5761930977
 20
-252.2984952437
 10
-233.9635207759
 20
-251.2954331475
 10
-226.4364684708
 20
-250.0962135
 10
-219.0101946637
 20
-248.7032513701
 10
-211.699654882
 20
-247.1193519979
 10
-204.5195715798
 20
-245.3477051461
 10
-197.4844044893
 20
-243.3918786757
 10
-190.6083215007
 20
-241.2558113608
 10
-183.9051701303
 20
-238.9438049569
 10
-177.3884496326
 20
-236.460515537
 10
-171.0712838156
 20
-233.8109441157
 10
-164.9663946105
 20
-231.000426577
 10
-159.0860764518
 20
-228.0346229294
 10
-153.4421715175
 20
-224.9195059067
  0
LWPOLYLINE
  5
6BB
330
64F
100
AcDbEntity
  8
0
  6
Continuous
 62
     8
370
    25
100
AcDbPolyline
 90
        3
 70
   128
 43
0.0
 10
-65.8032068896
 20
-155.716578337
 10
-65.6210283797
 20
-155.1833253795
 10
-65.527978137
 20
-154.4006334918
  0
LWPOLYLINE
  5
6C2
330
64F
100
AcDbEntity
  8
0
  6
Continuous
 62
     8
370
    25
100
AcDbPolyline
 90
        5
 70
   128
 43
0.0
 10
-274.8708899577
 20
-26.2723490629
 10
-275.3564572237
 20
-25.3384542214
 10
-275.823364412
 20
-24.7542404898
 10
-276.2536685413
 20
-24.542158874
 10
-276.3390467947
 20
-24.5461191033
  0
LWPOLYLINE
  5
6C4
330
64F
100
AcDbEntity
  8
0
  6
Continuous
 62
     8
370
    25
100
AcDbPolyline
 90
       54
 70
   128
 43
0.0
 10
-153.4421715175
 20
-245.414680285
 10
-159.0860764518
 20
-248.5297973078
 10
-164.9663946105
 20
-251.4956009554
 10
-171.0712838156
 20
-254.306118494
 10
-177.3884496326
 20
-256.9556899154
 10
-183.9051701303
 20
-259.4389793352
 10
-190.6083215007
 20
-261.7509857392
 10
-197.4844044893
 20
-263.887053054
 10
-204.5195715798
 20
-265.8428795244
 10
-211.699654882
 20
-267.6145263762
 10
-219.0101946637
 20
-269.1984257484
 10
-226.4364684708
 20
-270.5913878784
 10
-233.9635207759
 20
-271.7906075258
 10
-241.5761930977
 20
-272.793669622
 10
-249.2591545269
 20
-273.5985541333
 10
-256.996932602
 20
-274.2036401295
 10
-264.7739444674
 20
-274.6077090478
 10
-272.5745282565
 20
-274.8099471473
 10
-280.3829746314
 20
-274.8099471473
 10
-288.1835584204
 20
-274.6077090478
 10
-295.9605702859
 20
-274.2036401295
 10
-303.6983483609
 20
-273.5985541333
 10
-311.3813097902
 20
-272.793669622
 10
-318.9939821119
 20
-271.7906075258
 10
-326.5210344171
 20
-270.5913878784
 10
-333.9473082241
 20
-269.1984257484
 10
-341.2578480059
 20
-267.6145263762
 10
-348.4379313081
 20
-265.8428795244
 10
-355.4730983986
 20
-263.887053054
 10
-362.3491813871
 20
-261.7509857392
 10
-369.0523327576
 20
-259.4389793352
 10
-375.5690532553
 20
-256.9556899154
 10
-381.8862190722
 20
-254.306118494
 10
-387.9911082773
 20
-251.4956009554
 10
-393.8714264361
 20
-248.5297973078
 10
-399.5153313704
 20
-245.414680285
 10
-404.9114570067
 20
-242.1565233183
 10
-410.0489362662
 20
-238.7618879021
 10
-414.9174229494
 20
-235.2376103803
 10
-419.5071125719
 20
-231.590788179
 10
-423.8087621097
 20
-227.8287655126
 10
-427.813708613
 20
-223.9591185942
 10
-431.5138866527
 20
-219.9896403776
 10
-434.9018445626
 20
-215.9283248638
 10
-437.9707594463
 20
-211.7833510017
 10
-440.7144509176
 20
-207.563066217
 10
-443.1273935471
 20
-203.2759696016
 10
-445.2047279895
 20
-198.9306947976
 10
-446.9422707696
 20
-194.5359926101
 10
-448.3365227075
 20
-190.1007133846
 10
-449.3846759654
 20
-185.633789183
 10
-450.084619702
 20
-181.1442157963
 10
-450.4349443239
 20
-176.6410346278
 10
-450.4774964903
 20
-174.7686749529
  0
LWPOLYLINE
  5
6C5
330
64F
100
AcDbEntity
  8
0
  6
Continuous
 62
     8
370
    25
100
AcDbPolyline
 90
       41
 70
   128
 43
0.0
 10
-419.6340197947
 20
-212.4140520677
 10
-418.1854230335
 20
-213.8793731079
 10
-414.1601632823
 20
-217.6614020423
 10
-409.8322499071
 20
-221.3303554938
 10
-405.2111966007
 20
-224.8781683064
 10
-400.3071614412
 20
-228.2970416176
 10
-395.1309245622
 20
-231.5794600018
 10
-389.6938644559
 20
-234.7182079911
 10
-384.0079329602
 20
-237.7063859361
 10
-378.0856289866
 20
-240.5374251733
 10
-371.9399710446
 20
-243.205102464
 10
-365.5844686241
 20
-245.7035536745
 10
-359.0330924988
 20
-248.0272866668
 10
-352.3002440151
 20
-250.1711933716
 10
-345.4007234354
 20
-252.1305610165
 10
-338.3496974032
 20
-253.9010824862
 10
-331.162665604
 20
-255.4788657904
 10
-323.8554266935
 20
-256.8604426189
 10
-316.4440435687
 20
-258.0427759659
 10
-308.9448080583
 20
-259.0232668062
 10
-301.3742051093
 20
-259.7997598081
 10
-293.7488765501
 20
-260.3705480715
 10
-286.0855845079
 20
-260.7343768799
 10
-278.4011745616
 20
-260.8904464586
 10
-270.712538712
 20
-260.8384137327
 10
-263.0365782495
 20
-260.5783930817
 10
-255.3901666011
 20
-260.1109560871
 10
-247.7901122389
 20
-259.4371302771
 10
-240.2531217319
 20
-258.558396867
 10
-232.7957630211
 20
-257.4766875035
 10
-225.4344289993
 20
-256.1943800186
 10
-218.1853014762
 20
-254.7142932024
 10
-211.0643156076
 20
-253.0396806069
 10
-204.0871248657
 20
-251.1742233942
 10
-197.2690666301
 20
-249.1220222439
 10
-190.6251284725
 20
-246.8875883396
 10
-184.1699152108
 20
-244.4758334521
 10
-177.9176168049
 20
-241.8920591418
 10
-171.8819771634
 20
-239.1419451056
 10
-166.0762639324
 20
-236.2315366909
 10
-160.5132393293
 20
-233.1672316071
  0
LWPOLYLINE
  5
6C6
330
64F
100
AcDbEntity
  8
0
  6
Continuous
 62
     8
370
    25
100
AcDbPolyline
 90
       53
 70
   128
 43
0.0
 10
-450.2879463176
 20
-182.356152452
 10
-450.084619702
 20
-184.4103790439
 10
-449.3846759654
 20
-188.8999524306
 10
-448.3365227075
 20
-193.3668766321
 10
-446.9422707696
 20
-197.8021558577
 10
-445.2047279895
 20
-202.1968580451
 10
-443.1273935471
 20
-206.5421328491
 10
-440.7144509176
 20
-210.8292294645
 10
-437.9707594463
 20
-215.0495142492
 10
-434.9018445626
 20
-219.1944881114
 10
-431.5138866527
 20
-223.2558036252
 10
-427.813708613
 20
-227.2252818417
 10
-423.8087621097
 20
-231.0949287601
 10
-419.5071125719
 20
-234.8569514265
 10
-414.9174229494
 20
-238.5037736279
 10
-410.0489362662
 20
-242.0280511496
 10
-404.9114570067
 20
-245.4226865659
 10
-399.5153313704
 20
-248.6808435326
 10
-393.8714264361
 20
-251.7959605553
 10
-387.9911082773
 20
-254.7617642029
 10
-381.8862190722
 20
-257.5722817415
 10
-375.5690532553
 20
-260.2218531629
 10
-369.0523327576
 20
-262.7051425828
 10
-362.3491813871
 20
-265.0171489867
 10
-355.4730983986
 20
-267.1532163016
 10
-348.4379313081
 20
-269.109042772
 10
-341.2578480059
 20
-270.8806896238
 10
-333.9473082241
 20
-272.4645889959
 10
-326.5210344171
 20
-273.8575511259
 10
-318.9939821119
 20
-275.0567707734
 10
-311.3813097902
 20
-276.0598328696
 10
-303.6983483609
 20
-276.8647173809
 10
-295.9605702859
 20
-277.469803377
 10
-288.1835584204
 20
-277.8738722953
 10
-280.3829746314
 20
-278.0761103948
 10
-272.5745282565
 20
-278.0761103948
 10
-264.7739444674
 20
-277.8738722953
 10
-256.996932602
 20
-277.469803377
 10
-249.2591545269
 20
-276.8647173809
 10
-241.5761930977
 20
-276.0598328696
 10
-233.9635207759
 20
-275.0567707734
 10
-226.4364684708
 20
-273.8575511259
 10
-219.0101946637
 20
-272.4645889959
 10
-211.699654882
 20
-270.8806896238
 10
-204.5195715798
 20
-269.109042772
 10
-197.4844044893
 20
-267.1532163016
 10
-190.6083215007
 20
-265.0171489867
 10
-183.9051701303
 20
-262.7051425828
 10
-177.3884496326
 20
-260.2218531629
 10
-171.0712838156
 20
-257.5722817415
 10
-164.9663946105
 20
-254.7617642029
 10
-159.0860764518
 20
-251.7959605553
 10
-153.4421715175
 20
-248.6808435326
  0
LWPOLYLINE
  5
6CB
330
64F
100
AcDbEntity
  8
0
  6
Continuous
 62
     8
370
    25
100
AcDbPolyline
 90
        3
 70
   128
 43
0.0
 10
-65.8032068896
 20
-179.4779159629
 10
-65.6210283797
 20
-178.9446630054
 10
-65.527978137
 20
-178.1619711177
  0
LINE
  5
6D0
330
64F
100
AcDbEntity
  8
0
  6
Continuous
 62
     7
370
    25
100
AcDbLine
 10
-48.969085256
 20
-106.8508395124
 30
0.0
 11
-57.9608659624
 21
-101.6599950009
 31
0.0
  0
LINE
  5
6D1
330
64F
100
AcDbEntity
  8
0
  6
Continuous
 62
     7
370
    25
100
AcDbLine
 10
-56.7438347087
 20
-125.7446247261
 30
0.0
 11
-47.0724471438
 21
-131.3277979261
 31
0.0
  0
LINE
  5
6D2
330
64F
100
AcDbEntity
  8
0
  6
Continuous
 62
     7
370
    25
100
AcDbLine
 10
-37.0732598174
 20
-114.0068206785
 30
0.0
 11
-49.0940750976
 21
-107.067351728
 31
0.0
  0
LINE
  5
6D3
330
64F
100
AcDbEntity
  8
0
  6
Continuous
 62
     7
370
    25
100
AcDbLine
 10
-32.8856997824
 20
-124.7526665391
 30
0.0
 11
-32.8856997824
 21
-118.4653022876
 31
0.0
  0
LINE
  5
6D4
330
64F
100
AcDbEntity
  8
0
  6
Continuous
 62
     7
370
    25
100
AcDbLine
 10
-450.4787514439
 20
-150.6258369306
 30
0.0
 11
-450.4787514439
 21
-153.8920001781
 31
0.0
  0
LINE
  5
6D5
330
64F
100
AcDbEntity
  8
0
  6
Continuous
 62
     7
370
    25
100
AcDbLine
 10
-154.4779085918
 20
-227.2087299391
 30
0.0
 11
-112.0515017206
 21
-202.7164865844
 31
0.0
  0
LINE
  5
6D6
330
64F
100
AcDbEntity
  8
0
  6
Continuous
 62
     7
370
    25
100
AcDbLine
 10
-55.4594154602
 20
-114.7044108106
 30
0.0
 11
-55.4594154602
 21
-111.4382475631
 31
0.0
  0
LINE
  5
6D7
330
64F
100
AcDbEntity
  8
0
  6
Continuous
 62
     7
370
    25
100
AcDbLine
 10
-55.5119499368
 20
-116.0270644058
 30
0.0
 11
-55.4706577742
 21
-114.8860512792
 31
0.0
  0
LINE
  5
6D8
330
64F
100
AcDbEntity
  8
0
  6
Continuous
 62
     7
370
    25
100
AcDbLine
 10
-69.2466183614
 20
-90.531637262
 30
0.0
 11
-182.3837033513
 21
-25.2189883161
 31
0.0
  0
LINE
  5
6D9
330
64F
100
AcDbEntity
  8
0
  6
Continuous
 62
     7
370
    25
100
AcDbLine
 10
-355.0174503505
 20
-50.5276397826
 30
0.0
 11
-397.4438572217
 21
-75.0198831373
 31
0.0
  0
LINE
  5
6DA
330
64F
100
AcDbEntity
  8
0
  6
Continuous
 62
     7
370
    25
100
AcDbLine
 10
-450.4787514439
 20
-174.3871745565
 30
0.0
 11
-450.4787514439
 21
-177.653337804
 31
0.0
  0
LINE
  5
6DB
330
64F
100
AcDbEntity
  8
0
  6
Continuous
 62
     7
370
    25
100
AcDbLine
 10
-154.4779085918
 20
-250.9700675649
 30
0.0
 11
-112.0515017206
 21
-226.4778242103
 31
0.0
  0
LINE
  5
6DC
330
64F
100
AcDbEntity
  8
0
  6
Continuous
 62
     7
370
    25
100
AcDbLine
 10
-55.4594154602
 20
-138.4657484365
 30
0.0
 11
-55.4594154602
 21
-135.199585189
 31
0.0
  0
LINE
  5
6DD
330
64F
100
AcDbEntity
  8
0
  6
Continuous
 62
     7
370
    25
100
AcDbLine
 10
-55.5119499368
 20
-139.7884020317
 30
0.0
 11
-55.4706577742
 21
-138.6473889051
 31
0.0
  0
LINE
  5
6DE
330
64F
100
AcDbEntity
  8
0
  6
Continuous
 62
     7
370
    25
100
AcDbLine
 10
-52.5057453412
 20
-114.8088957729
 30
0.0
 11
-55.5585752257
 21
-116.5712569523
 31
0.0
  0
LINE
  5
6DF
330
64F
100
AcDbEntity
  8
0
  6
Continuous
 62
     7
370
    25
100
AcDbLine
 10
-50.1385729888
 20
-114.0417964422
 30
0.0
 11
-39.1138880402
 21
-113.5430270201
 31
0.0
  0
LINE
  5
6E0
330
64F
100
AcDbEntity
  8
0
  6
Continuous
 62
     7
370
    25
100
AcDbLine
 10
-49.1439212925
 20
-126.7493498614
 30
0.0
 11
-49.1439212925
 21
-123.4015325327
 31
0.0
  0
LINE
  5
6E1
330
64F
100
AcDbEntity
  8
0
  6
Continuous
 62
     7
370
    25
100
AcDbLine
 10
-54.800775542
 20
-120.1348384849
 30
0.0
 11
-56.0320572809
 21
-120.8456423029
 31
0.0
  0
LINE
  5
6E2
330
64F
100
AcDbEntity
  8
0
  6
Continuous
 62
     7
370
    25
100
AcDbLine
 10
-39.1138880402
 20
-113.5430270201
 30
0.0
 11
-51.1347033204
 21
-106.6035580696
 31
0.0
  0
LINE
  5
6E3
330
64F
100
AcDbEntity
  8
0
  6
Continuous
 62
     7
370
    25
100
AcDbLine
 10
-56.0260738042
 20
-106.8248492939
 30
0.0
 11
-51.1347033204
 21
-106.6035580696
 31
0.0
  0
LINE
  5
6E4
330
64F
100
AcDbEntity
  8
0
  6
Continuous
 62
     7
370
    25
100
AcDbLine
 10
-36.7343866791
 20
-124.9399903486
 30
0.0
 11
-36.5772806436
 21
-124.7890139433
 31
0.0
  0
LINE
  5
6E5
330
64F
100
AcDbEntity
  8
0
  6
Continuous
 62
     7
370
    25
100
AcDbLine
 10
-450.4774964903
 20
-151.007337327
 30
0.0
 11
-450.4787514439
 21
-150.6258369306
 31
0.0
  0
LINE
  5
6E6
330
64F
100
AcDbEntity
  8
0
  6
Continuous
 62
     7
370
    25
100
AcDbLine
 10
-153.4421715175
 20
-221.6533426592
 30
0.0
 11
-153.4421715175
 21
-224.9195059067
 31
0.0
  0
LINE
  5
6E7
330
64F
100
AcDbEntity
  8
0
  6
Continuous
 62
     7
370
    25
100
AcDbLine
 10
-74.2462120246
 20
-91.0267177669
 30
0.0
 11
-187.3832970144
 21
-25.7140688211
 31
0.0
  0
LINE
  5
6E8
330
64F
100
AcDbEntity
  8
0
  6
Continuous
 62
     7
370
    25
100
AcDbLine
 10
-160.5132393293
 20
-209.4058939812
 30
0.0
 11
-118.0868324582
 21
-184.9136506265
 31
0.0
  0
LINE
  5
6E9
330
64F
100
AcDbEntity
  8
0
  6
Continuous
 62
     7
370
    25
100
AcDbLine
 10
-350.0178566873
 20
-51.0227202876
 30
0.0
 11
-392.4442635585
 21
-75.5149636423
 31
0.0
  0
LINE
  5
6EA
330
64F
100
AcDbEntity
  8
0
  6
Continuous
 62
     7
370
    25
100
AcDbLine
 10
-111.0157646463
 20
-197.1610993045
 30
0.0
 11
-153.4421715175
 21
-221.6533426592
 31
0.0
  0
LINE
  5
6EB
330
64F
100
AcDbEntity
  8
0
  6
Continuous
 62
     7
370
    25
100
AcDbLine
 10
-153.4421715175
 20
-224.9195059067
 30
0.0
 11
-111.0157646463
 21
-200.427262552
 31
0.0
  0
LINE
  5
6EC
330
64F
100
AcDbEntity
  8
0
  6
Continuous
 62
     7
370
    25
100
AcDbLine
 10
-111.0157646463
 20
-197.1610993045
 30
0.0
 11
-111.0157646463
 21
-200.427262552
 31
0.0
  0
LINE
  5
6ED
330
64F
100
AcDbEntity
  8
0
  6
Continuous
 62
     7
370
    25
100
AcDbLine
 10
-65.527978137
 20
-151.1344702443
 30
0.0
 11
-65.527978137
 21
-154.4006334918
 31
0.0
  0
LINE
  5
6EE
330
64F
100
AcDbEntity
  8
0
  6
Continuous
 62
     7
370
    25
100
AcDbLine
 10
-55.501479987
 20
-112.4969675285
 30
0.0
 11
-55.501479987
 21
-115.763130776
 31
0.0
  0
LINE
  5
6EF
330
64F
100
AcDbEntity
  8
0
  6
Continuous
 62
     7
370
    25
100
AcDbLine
 10
-55.4602183916
 20
-114.8507209215
 30
0.0
 11
-55.4594154602
 21
-114.7044108106
 31
0.0
  0
LINE
  5
6F0
330
64F
100
AcDbEntity
  8
0
  6
Continuous
 62
     7
370
    25
100
AcDbLine
 10
-257.165042945
 20
-280.2013114457
 30
0.0
 11
-257.165042945
 21
-279.5652888133
 31
0.0
  0
LINE
  5
6F1
330
64F
100
AcDbEntity
  8
0
  6
Continuous
 62
     7
370
    25
100
AcDbLine
 10
-450.4774964903
 20
-174.7686749529
 30
0.0
 11
-450.4787514439
 21
-174.3871745565
 31
0.0
  0
LINE
  5
6F2
330
64F
100
AcDbEntity
  8
0
  6
Continuous
 62
     7
370
    25
100
AcDbLine
 10
-153.4421715175
 20
-245.414680285
 30
0.0
 11
-153.4421715175
 21
-248.6808435326
 31
0.0
  0
LINE
  5
6F3
330
64F
100
AcDbEntity
  8
0
  6
Continuous
 62
     7
370
    25
100
AcDbLine
 10
-160.5132393293
 20
-233.1672316071
 30
0.0
 11
-118.0868324582
 21
-208.6749882524
 31
0.0
  0
LINE
  5
6F4
330
64F
100
AcDbEntity
  8
0
  6
Continuous
 62
     7
370
    25
100
AcDbLine
 10
-111.0157646463
 20
-220.9224369304
 30
0.0
 11
-153.4421715175
 21
-245.414680285
 31
0.0
  0
LINE
  5
6F5
330
64F
100
AcDbEntity
  8
0
  6
Continuous
 62
     7
370
    25
100
AcDbLine
 10
-153.4421715175
 20
-248.6808435326
 30
0.0
 11
-111.0157646463
 21
-224.1886001779
 31
0.0
  0
LINE
  5
6F6
330
64F
100
AcDbEntity
  8
0
  6
Continuous
 62
     7
370
    25
100
AcDbLine
 10
-111.0157646463
 20
-220.9224369304
 30
0.0
 11
-111.0157646463
 21
-224.1886001779
 31
0.0
  0
LINE
  5
6F7
330
64F
100
AcDbEntity
  8
0
  6
Continuous
 62
     7
370
    25
100
AcDbLine
 10
-65.527978137
 20
-174.8958078701
 30
0.0
 11
-65.527978137
 21
-178.1619711177
 31
0.0
  0
LINE
  5
6F8
330
64F
100
AcDbEntity
  8
0
  6
Continuous
 62
     7
370
    25
100
AcDbLine
 10
-55.501479987
 20
-139.5244684019
 30
0.0
 11
-55.501479987
 21
-136.2583051544
 31
0.0
  0
LINE
  5
6F9
330
64F
100
AcDbEntity
  8
0
  6
Continuous
 62
     7
370
    25
100
AcDbLine
 10
-55.4602183916
 20
-138.6120585474
 30
0.0
 11
-55.4594154602
 21
-138.4657484365
 31
0.0
  0
LINE
  5
6FA
330
64F
100
AcDbEntity
  8
0
  6
Continuous
 62
     8
370
    25
100
AcDbLine
 10
-52.5057453412
 20
-114.8088957729
 30
0.0
 11
-55.4594154602
 21
-113.1037783076
 31
0.0
  0
LINE
  5
6FB
330
64F
100
AcDbEntity
  8
0
  6
Continuous
 62
     8
370
    25
100
AcDbLine
 10
-55.4766321157
 20
-110.9602005018
 30
0.0
 11
-50.1385729888
 21
-114.0417964422
 31
0.0
  0
LINE
  5
6FC
330
64F
100
AcDbEntity
  8
0
  6
Continuous
 62
     8
370
    25
100
AcDbLine
 10
-49.1439212925
 20
-123.4015325327
 30
0.0
 11
-54.8016950146
 21
-120.1353692851
 31
0.0
  0
LINE
  5
6FD
330
64F
100
AcDbEntity
  8
0
  6
Continuous
 62
     8
370
    25
100
AcDbLine
 10
-49.1439212925
 20
-126.7493498614
 30
0.0
 11
-56.243250658
 21
-122.6509942547
 31
0.0
  0
LINE
  5
6FE
330
64F
100
AcDbEntity
  8
0
  6
Continuous
 62
     8
370
    25
100
AcDbLine
 10
-55.5118230895
 20
-116.025464052
 30
0.0
 11
-55.501479987
 21
-115.763130776
 31
0.0
  0
LINE
  5
6FF
330
64F
100
AcDbEntity
  8
0
  6
Continuous
 62
     8
370
    25
100
AcDbLine
 10
-55.4594157388
 20
-111.4409730913
 30
0.0
 11
-55.501479987
 21
-112.4969675285
 31
0.0
  0
LINE
  5
700
330
64F
100
AcDbEntity
  8
0
  6
Continuous
 62
     8
370
    25
100
AcDbLine
 10
-55.501479987
 20
-115.763130776
 30
0.0
 11
-55.4602183916
 21
-114.8507209215
 31
0.0
  0
LINE
  5
701
330
64F
100
AcDbEntity
  8
0
  6
Continuous
 62
     8
370
    25
100
AcDbLine
 10
-55.5118230895
 20
-139.7868016778
 30
0.0
 11
-55.501479987
 21
-139.5244684019
 31
0.0
  0
LINE
  5
702
330
64F
100
AcDbEntity
  8
0
  6
Continuous
 62
     8
370
    25
100
AcDbLine
 10
-55.4594157388
 20
-135.2023107172
 30
0.0
 11
-55.501479987
 21
-136.2583051544
 31
0.0
  0
LINE
  5
703
330
64F
100
AcDbEntity
  8
0
  6
Continuous
 62
     8
370
    25
100
AcDbLine
 10
-55.501479987
 20
-139.5244684019
 30
0.0
 11
-55.4602183916
 21
-138.6120585474
 31
0.0
  0
ARC
  5
704
330
64F
100
AcDbEntity
  8
0
  6
Continuous
 62
     7
370
    25
100
AcDbCircle
 10
-51.0132912425
 20
-110.4441764727
 30
0.0
 40
4.087309737383627
100
AcDbArc
 50
41.8564113797
 51
112.5342813342
  0
ARC
  5
705
330
64F
100
AcDbEntity
  8
0
  6
Continuous
 62
     7
370
    25
100
AcDbCircle
 10
-49.7336343207
 20
-119.327334601
 30
0.0
 40
5.301027160171131
100
AcDbArc
 50
94.381018915
 51
121.5295653114
  0
ARC
  5
706
330
64F
100
AcDbEntity
  8
0
  6
Continuous
 62
     7
370
    25
100
AcDbCircle
 10
-52.5925162319
 20
-122.8421149575
 30
0.0
 40
3.493673579427869
100
AcDbArc
 50
350.7859630095
 51
129.2032852357
  0
ARC
  5
707
330
64F
100
AcDbEntity
  8
0
  6
Continuous
 62
     7
370
    25
100
AcDbCircle
 10
-56.2194263616
 20
-93.0206057668
 30
0.0
 40
38.2557806770606
100
AcDbArc
 50
270.470139943
 51
281.6135545146
  0
ARC
  5
708
330
64F
100
AcDbEntity
  8
0
  6
Continuous
 62
     7
370
    25
100
AcDbCircle
 10
-55.6444156463
 20
-139.4322408257
 30
0.0
 40
34.55450772049178
100
AcDbArc
 50
70.7014178937
 51
84.054141227
  0
ARC
  5
709
330
64F
100
AcDbEntity
  8
0
  6
Continuous
 62
     7
370
    25
100
AcDbCircle
 10
-56.159775274
 20
-93.4733464008
 30
0.0
 40
38.49911648080588
100
AcDbArc
 50
270.61700292
 51
282.8189858284
  0
ARC
  5
70A
330
64F
100
AcDbEntity
  8
0
  6
Continuous
 62
     7
370
    25
100
AcDbCircle
 10
-168.7943325312
 20
-222.3519511818
 30
0.0
 40
15.3680480757207
100
AcDbArc
 50
2.6054784857
 51
57.39452166
  0
ARC
  5
70B
330
64F
100
AcDbEntity
  8
0
  6
Continuous
 62
     7
370
    25
100
AcDbCircle
 10
-195.9402547912
 20
-560.9335873291
 30
0.0
 40
540.4559971654348
100
AcDbArc
 50
91.4877219309
 51
98.3977695394
  0
ARC
  5
70C
330
64F
100
AcDbEntity
  8
0
  6
Continuous
 62
     7
370
    25
100
AcDbCircle
 10
-207.921786484
 20
-64.5009045522
 30
0.0
 40
43.88904391439604
100
AcDbArc
 50
62.0977882124
 51
92.6774212049
  0
ARC
  5
70D
330
64F
100
AcDbEntity
  8
0
  6
Continuous
 62
     7
370
    25
100
AcDbCircle
 10
-179.2979971357
 20
-94.5279143591
 30
0.0
 40
114.2060973787955
100
AcDbArc
 50
335.6962200369
 51
355.2088379966
  0
ARC
  5
70E
330
64F
100
AcDbEntity
  8
0
  6
Continuous
 62
     7
370
    25
100
AcDbCircle
 10
-126.36792566
 20
-197.8597078271
 30
0.0
 40
15.36804807572057
100
AcDbArc
 50
2.6054784857
 51
57.39452166
  0
ARC
  5
70F
330
64F
100
AcDbEntity
  8
0
  6
Continuous
 62
     7
370
    25
100
AcDbCircle
 10
-172.8691136422
 20
-102.6595635979
 30
0.0
 40
117.7791829905724
100
AcDbArc
 50
335.6962200369
 51
355.2088379966
  0
ARC
  5
710
330
64F
100
AcDbEntity
  8
0
  6
Continuous
 62
     7
370
    25
100
AcDbCircle
 10
-172.8691136422
 20
-105.9257268455
 30
0.0
 40
117.779182990572
100
AcDbArc
 50
335.6962200369
 51
355.2088379966
  0
ARC
  5
711
330
64F
100
AcDbEntity
  8
0
  6
Continuous
 62
     7
370
    25
100
AcDbCircle
 10
-168.7943325312
 20
-246.1132888077
 30
0.0
 40
15.36804807572091
100
AcDbArc
 50
2.6054784857
 51
57.39452166
  0
ARC
  5
712
330
64F
100
AcDbEntity
  8
0
  6
Continuous
 62
     7
370
    25
100
AcDbCircle
 10
-126.36792566
 20
-221.621045453
 30
0.0
 40
15.36804807572072
100
AcDbArc
 50
2.6054784857
 51
57.39452166
  0
ARC
  5
713
330
64F
100
AcDbEntity
  8
0
  6
Continuous
 62
     7
370
    25
100
AcDbCircle
 10
-172.8691136422
 20
-126.4209012238
 30
0.0
 40
117.7791829905735
100
AcDbArc
 50
335.6962200369
 51
355.2088379966
  0
ARC
  5
714
330
64F
100
AcDbEntity
  8
0
  6
Continuous
 62
     7
370
    25
100
AcDbCircle
 10
-172.8691136422
 20
-129.6870644713
 30
0.0
 40
117.7791829905793
100
AcDbArc
 50
335.6962200369
 51
355.2088379966
  0
ARC
  5
715
330
64F
100
AcDbEntity
  8
0
  6
Continuous
 62
     8
370
    25
100
AcDbCircle
 10
-395.3617448214
 20
-79.4869870251
 30
0.0
 40
4.928353342917528
100
AcDbArc
 50
53.7024359013
 51
115.0109206491
  0
ARC
  5
716
330
64F
100
AcDbEntity
  8
0
  6
Continuous
 62
     8
370
    25
100
AcDbCircle
 10
-155.9455941658
 20
-225.1658328313
 30
0.0
 40
2.515512255985634
100
AcDbArc
 50
305.7070969481
 51
5.6195896479
  0
ARC
  5
717
330
64F
100
AcDbEntity
  8
0
  6
Continuous
 62
     8
370
    25
100
AcDbCircle
 10
-113.4657741582
 20
-200.6976962387
 30
0.0
 40
2.464889650164505
100
AcDbArc
 50
305.0133328771
 51
6.2988475163
  0
ARC
  5
718
330
64F
100
AcDbEntity
  8
0
  6
Continuous
 62
     8
370
    25
100
AcDbCircle
 10
-71.3167688298
 20
-95.1162066738
 30
0.0
 40
5.030462896278978
100
AcDbArc
 50
65.7185319623
 51
125.6153427193
  0
ARC
  5
719
330
64F
100
AcDbEntity
  8
0
  6
Continuous
 62
     8
370
    25
100
AcDbCircle
 10
-184.4540964659
 20
-29.8028821123
 30
0.0
 40
5.029772359017972
100
AcDbArc
 50
65.6928809539
 51
125.6175774752
  0
ARC
  5
71A
330
64F
100
AcDbEntity
  8
0
  6
Continuous
 62
     8
370
    25
100
AcDbCircle
 10
-352.9470572358
 20
-55.1115335788
 30
0.0
 40
5.029772359017949
100
AcDbArc
 50
54.3824225248
 51
114.3071190461
  0
ARC
  5
71B
330
64F
100
AcDbEntity
  8
0
  6
Continuous
 62
     8
370
    25
100
AcDbCircle
 10
-214.3056365062
 20
-20.3521809804
 30
0.0
 40
4.344571653796715
100
AcDbArc
 50
355.9401284741
 51
20.5280006206
  0
ARC
  5
71C
330
64F
100
AcDbEntity
  8
0
  6
Continuous
 62
     8
370
    25
100
AcDbCircle
 10
-155.9455941658
 20
-248.9271704571
 30
0.0
 40
2.515512255985827
100
AcDbArc
 50
305.7070969481
 51
5.6195896479
  0
ARC
  5
71D
330
64F
100
AcDbEntity
  8
0
  6
Continuous
 62
     8
370
    25
100
AcDbCircle
 10
-178.7034970547
 20
-101.0703010239
 30
0.0
 40
123.503638571309
100
AcDbArc
 50
299.3937512389
 51
315.3138126982
  0
ARC
  5
71E
330
64F
100
AcDbEntity
  8
0
  6
Continuous
 62
     8
370
    25
100
AcDbCircle
 10
-113.4657741582
 20
-224.4590338646
 30
0.0
 40
2.464889650149678
100
AcDbArc
 50
305.0133328769
 51
6.2988475165
  0
ARC
  5
71F
330
64F
100
AcDbEntity
  8
0
  6
Continuous
 62
     8
370
    25
100
AcDbCircle
 10
-75.8176937049
 20
-175.8496744932
 30
0.0
 40
10.33383317083725
100
AcDbArc
 50
5.2962379766
 51
66.4111717242
  0
ARC
  5
720
330
64F
100
AcDbEntity
  8
0
  6
Continuous
 62
     8
370
    25
100
AcDbCircle
 10
-63.0698914189
 20
-136.426301572
 30
0.0
 40
7.570275714882849
100
AcDbArc
 50
1.2715885499
 51
44.5936979379
  0
VIEWPORT
  5
834
330
64F
100
AcDbEntity
  8
0
100
AcDbViewport
 10
0.0
 20
0.0
 30
0.0
 40
205.6
 41
156.0
 68
     1
 69
     1
 12
0.0
 22
-10.25
 13
0.0
 23
0.0
 14
10.0
 24
10.0
 15
10.0
 25
10.0
 16
0.0
 26
0.0
 36
1.0
 17
0.0
 27
0.0
 37
0.0
 42
50.0
 43
0.0
 44
0.0
 45
269.3276264591
 50
0.0
 51
0.0
 72
   100
 90
   557152
  1

281
     0
 71
     1
 74
     0
110
0.0
120
0.0
130
0.0
111
1.0
121
0.0
131
0.0
112
0.0
122
1.0
132
0.0
 79
     0
146
0.0
  0
ENDBLK
  5
652
330
64F
100
AcDbEntity
  8
0
100
AcDbBlockEnd
  0
BLOCK
  5
723
330
721
100
AcDbEntity
  8
0
100
AcDbBlockBegin
  2
*Paper_Space5
 70
     0
 10
0.0
 20
0.0
 30
0.0
  3
*Paper_Space5
  1

  0
SPLINE
  5
726
330
721
100
AcDbEntity
  8
0
  6
Continuous
 62
     7
370
    25
100
AcDbSpline
210
0.0
220
0.0
230
1.0
 70
     8
 71
     3
 72
    20
 73
    16
 74
     0
 42
0.000000001
 43
0.00000001
 40
0.0
 40
0.0
 40
0.0
 40
0.0
 40
0.0471006222717212
 40
0.1352629361329717
 40
0.2231402891029558
 40
0.3105302834900119
 40
0.3973229748721853
 40
0.4834251858725384
 40
0.568773460066541
 40
0.6533452395289561
 40
0.737165724168617
 40
0.820309164357799
 40
0.9028946972528478
 40
0.9850778773238346
 40
1.0
 40
1.0
 40
1.0
 40
1.0
 10
-334.507250613257
 20
-122.0988608955194
 30
0.0
 10
-335.1555483483999
 20
-122.7424271228956
 30
0.0
 10
-337.0173211003161
 20
-124.5906119941852
 30
0.0
 10
-339.8753732506204
 20
-127.7235696026971
 30
0.0
 10
-342.9785092566833
 20
-131.5213257939327
 30
0.0
 10
-345.7709110564723
 20
-135.4012081374438
 30
0.0
 10
-348.2489506826806
 20
-139.3492440087043
 30
0.0
 10
-350.4059103902994
 20
-143.3545398450762
 30
0.0
 10
-352.2383094732939
 20
-147.4053436660351
 30
0.0
 10
-353.7451080640339
 20
-151.490349592458
 30
0.0
 10
-354.9236649079195
 20
-155.5988645513932
 30
0.0
 10
-355.7852737140029
 20
-159.7213339243335
 30
0.0
 10
-356.2954356059598
 20
-163.848885435215
 30
0.0
 10
-356.5118167647737
 20
-166.8542621573486
 30
0.0
 10
-356.4619923699817
 20
-168.4780467464034
 30
0.0
 10
-356.4543358804768
 20
-168.7275729015365
 30
0.0
  0
SPLINE
  5
728
330
721
100
AcDbEntity
  8
0
  6
Continuous
 62
     7
370
    25
100
AcDbSpline
210
0.0
220
0.0
230
1.0
 70
     8
 71
     3
 72
    68
 73
    64
 74
     0
 42
0.000000001
 43
0.00000001
 40
0.0
 40
0.0
 40
0.0
 40
0.0
 40
0.0154856454506058
 40
0.0313611042857004
 40
0.0472762216895759
 40
0.0632493726569817
 40
0.0792935982871527
 40
0.0954159169816855
 40
0.111617422582387
 40
0.1278940794989965
 40
0.1442380013232774
 40
0.1606389314148255
 40
0.1770856536732862
 40
0.1935671380046049
 40
0.210073330688711
 40
0.2265955946942648
 40
0.2431268650390974
 40
0.2596615504416961
 40
0.2761944299895825
 40
0.2927228467082402
 40
0.3092450191059185
 40
0.3257598481667931
 40
0.3422667534351057
 40
0.3587655396376666
 40
0.3752562914263476
 40
0.3917392922724428
 40
0.4082149632033481
 40
0.4246838173528442
 40
0.4411464268425862
 40
0.4576033991245644
 40
0.4740553604920384
 40
0.4905029449673933
 40
0.5069467871886387
 40
0.523387518245731
 40
0.5398257636749138
 40
0.55626214301543
 40
0.5726972704805395
 40
0.589131756402595
 40
0.6055662091890709
 40
0.6220010925607315
 40
0.6384369596582018
 40
0.6548744255806211
 40
0.6713141118670801
 40
0.6877566483078151
 40
0.7042026741639782
 40
0.720652838490731
 40
0.7371077991755463
 40
0.7535682201769374
 40
0.770034766278238
 40
0.7865080944447476
 40
0.8029888405784561
 40
0.8194776000889353
 40
0.8359749002317836
 40
0.8524811616047355
 40
0.8689966455544823
 40
0.8855213835908257
 40
0.9020550843569074
 40
0.9185970135127973
 40
0.9351458424905653
 40
0.9516994641774983
 40
0.9682542305010405
 40
0.9848046185773467
 40
0.9999999999999999
 40
0.9999999999999999
 40
0.9999999999999999
 40
0.9999999999999999
 10
-356.3122577262927
 20
-176.1210492287508
 30
0.0
 10
-356.1807255690037
 20
-177.4095751382079
 30
0.0
 10
-355.9143502529204
 20
-180.0190624566541
 30
0.0
 10
-355.1174786282844
 20
-183.9272675884539
 30
0.0
 10
-354.0254692064909
 20
-187.8434959628717
 30
0.0
 10
-352.614975337565
 20
-191.7303959031203
 30
0.0
 10
-350.8951848925502
 20
-195.5824074526496
 30
0.0
 10
-348.8652800531355
 20
-199.3929661002938
 30
0.0
 10
-346.5280056353814
 20
-203.1550009518034
 30
0.0
 10
-343.8863587073215
 20
-206.8609222081616
 30
0.0
 10
-340.9446900224556
 20
-210.5028672632024
 30
0.0
 10
-337.7084544460905
 20
-214.0729333896795
 30
0.0
 10
-334.1841852834232
 20
-217.5634047413763
 30
0.0
 10
-330.3793149319135
 20
-220.9669224995397
 30
0.0
 10
-326.3019989300684
 20
-224.276588330464
 30
0.0
 10
-321.9609474099763
 20
-227.4860042861639
 30
0.0
 10
-317.3652969849619
 20
-230.5892612642735
 30
0.0
 10
-312.5246155668856
 20
-233.5808418737808
 30
0.0
 10
-307.4487281576718
 20
-236.4556649650084
 30
0.0
 10
-302.1476756560251
 20
-239.209030073465
 30
0.0
 10
-296.6315824464905
 20
-241.8366139905042
 30
0.0
 10
-290.9108025546295
 20
-244.3343486104751
 30
0.0
 10
-284.99592510341
 20
-246.6983976598315
 30
0.0
 10
-278.8977795126153
 20
-248.9251421226922
 30
0.0
 10
-272.6274384731067
 20
-251.0111726535768
 30
0.0
 10
-266.1962177248809
 20
-252.9532872742668
 30
0.0
 10
-259.6156723193396
 20
-254.7484928458321
 30
0.0
 10
-252.8975894291768
 20
-256.3940090746846
 30
0.0
 10
-246.053977976303
 20
-257.8872740780542
 30
0.0
 10
-239.097055440986
 20
-259.2259507696076
 30
0.0
 10
-232.039232240374
 20
-260.407933518991
 30
0.0
 10
-224.8930940520542
 20
-261.4313546903679
 30
0.0
 10
-217.6713824276294
 20
-262.294590779657
 30
0.0
 10
-210.3869740039949
 20
-262.9962679548473
 30
0.0
 10
-203.0528585825887
 20
-263.535266864902
 30
0.0
 10
-195.6821163131468
 20
-263.9107266260791
 30
0.0
 10
-188.287894188577
 20
-264.1220479244502
 30
0.0
 10
-180.8833820377253
 20
-264.1688951939484
 30
0.0
 10
-173.4818099417613
 20
-264.0511981883845
 30
0.0
 10
-166.0964104727086
 20
-263.7691544009439
 30
0.0
 10
-158.7403848693065
 20
-263.323228867516
 30
0.0
 10
-151.4268567365355
 20
-262.714149919375
 30
0.0
 10
-144.16886103331
 20
-261.942905619272
 30
0.0
 10
-136.9793288314004
 20
-261.010740372325
 30
0.0
 10
-129.8710639755193
 20
-259.9191502059803
 30
0.0
 10
-122.856720470334
 20
-258.6698770623281
 30
0.0
 10
-115.9487808063731
 20
-257.2649021327164
 30
0.0
 10
-109.1595354661934
 20
-255.7064382899891
 30
0.0
 10
-102.5010638944341
 20
-253.9969217107108
 30
0.0
 10
-95.98521725046629
 20
-252.1390028393697
 30
0.0
 10
-89.62360335404979
 20
-250.1355369138357
 30
0.0
 10
-83.427574135583
 20
-247.9895744366249
 30
0.0
 10
-77.40821651359691
 20
-245.7043519459365
 30
0.0
 10
-71.57634553789902
 20
-243.283284363784
 30
0.0
 10
-65.94250649992092
 20
-240.7299578389004
 30
0.0
 10
-60.51696317563066
 20
-238.048132237393
 30
0.0
 10
-55.30975907816929
 20
-235.2417259846477
 30
0.0
 10
-50.33052747070951
 20
-232.3148942001389
 30
0.0
 10
-45.58925887686369
 20
-229.2717970054418
 30
0.0
 10
-41.09355544001198
 20
-226.1176113307051
 30
0.0
 10
-36.85917630158567
 20
-222.8551101022535
 30
0.0
 10
-32.97879273680645
 20
-219.5887445176701
 30
0.0
 10
-30.63886834273913
 20
-217.3672031914795
 30
0.0
 10
-29.51884371491625
 20
-216.303843621671
 30
0.0
  0
SPLINE
  5
72A
330
721
100
AcDbEntity
  8
0
  6
Continuous
 62
     7
370
    25
100
AcDbSpline
210
0.0
220
0.0
230
1.0
 70
     8
 71
     3
 72
     9
 73
     5
 74
     0
 42
0.000000001
 43
0.00000001
 40
0.0
 40
0.0
 40
0.0
 40
0.0
 40
0.6733872340780391
 40
1.0
 40
1.0
 40
1.0
 40
1.0
 10
19.49866725506669
 20
-141.2294010948758
 30
0.0
 10
19.49044825231158
 20
-140.1286966357278
 30
0.0
 10
19.47824278963098
 20
-138.4941178919609
 30
0.0
 10
19.3353791234426
 20
-136.8636119653538
 30
0.0
 10
19.2887180262791
 20
-136.3310679148126
 30
0.0
  0
SPLINE
  5
72C
330
721
100
AcDbEntity
  8
0
  6
Continuous
 62
     7
370
    25
100
AcDbSpline
210
0.0
220
0.0
230
1.0
 70
     8
 71
     3
 72
    18
 73
    14
 74
     0
 42
0.000000001
 43
0.00000001
 40
0.0
 40
0.0
 40
0.0
 40
0.0
 40
0.0511127076171532
 40
0.1476267327820419
 40
0.2439953573904621
 40
0.3401033924760174
 40
0.4358808819594382
 40
0.5312621493907835
 40
0.6261944566472771
 40
0.7206474571343242
 40
0.8146215721878481
 40
0.9081533212026046
 40
1.0
 40
1.0
 40
1.0
 40
1.0
 10
-1.517120379112447
 20
-188.9733032134146
 30
0.0
 10
-0.8938810300177513
 20
-188.3547594678282
 30
0.0
 10
0.9061955680996769
 20
-186.5682449883438
 30
0.0
 10
3.66698655292566
 20
-183.545333832582
 30
0.0
 10
6.663903756700313
 20
-179.8838168145635
 30
0.0
 10
9.356791175043538
 20
-176.149612258091
 30
0.0
 10
11.74357926487393
 20
-172.3536028323271
 30
0.0
 10
13.81798989012836
 20
-168.5045426740194
 30
0.0
 10
15.57584302601145
 20
-164.612043846389
 30
0.0
 10
17.01668498554995
 20
-160.6857206645581
 30
0.0
 10
18.13112871644701
 20
-156.7345515602019
 30
0.0
 10
18.94547245453423
 20
-152.7869927310155
 30
0.0
 10
19.21951645462436
 20
-150.1499332444008
 30
0.0
 10
19.3552929392439
 20
-148.8433887964018
 30
0.0
  0
SPLINE
  5
72D
330
721
100
AcDbEntity
  8
0
  6
Continuous
 62
     7
370
    25
100
AcDbSpline
210
0.0
220
0.0
230
1.0
 70
     8
 71
     3
 72
    15
 73
    11
 74
     0
 42
0.000000001
 43
0.00000001
 40
0.0
 40
0.0
 40
0.0
 40
0.0
 40
0.0805205102730319
 40
0.2254312441051783
 40
0.3705108214054531
 40
0.5159196203194584
 40
0.6617447764279158
 40
0.8080537418509727
 40
0.9548921776767437
 40
0.9999999999999999
 40
0.9999999999999999
 40
0.9999999999999999
 40
0.9999999999999999
 10
19.28871802627905
 20
-136.3310679148126
 30
0.0
 10
19.18389979720184
 20
-135.3189006781382
 30
0.0
 10
18.89044284187871
 20
-132.4851615645595
 30
0.0
 10
18.15867395048068
 20
-127.8415735196702
 30
0.0
 10
17.00236856397788
 20
-122.410703361173
 30
0.0
 10
15.52782720891263
 20
-117.0029491309704
 30
0.0
 10
13.74184986349261
 20
-111.6213279868563
 30
0.0
 10
11.6398640072016
 20
-106.2711168146592
 30
0.0
 10
9.79423991756842
 20
-102.1886627363523
 30
0.0
 10
8.650239976615376
 20
-99.89159907083916
 30
0.0
 10
8.381397298607762
 20
-99.35178370434873
 30
0.0
  0
SPLINE
  5
72F
330
721
100
AcDbEntity
  8
0
  6
Continuous
 62
     7
370
    25
100
AcDbSpline
210
0.0
220
0.0
230
1.0
 70
     8
 71
     3
 72
    20
 73
    16
 74
     0
 42
0.000000001
 43
0.00000001
 40
0.0
 40
0.0
 40
0.0
 40
0.0
 40
0.0430138570983446
 40
0.1246595719545013
 40
0.2063834591346283
 40
0.2881972590665757
 40
0.3701028305269307
 40
0.4520992982986839
 40
0.5341819636131173
 40
0.6163409169357439
 40
0.6985593294282378
 40
0.7808114465243452
 40
0.8630463879558786
 40
0.9452081862823413
 40
1.0
 40
1.0
 40
1.0
 40
1.0
 10
-243.4101600520028
 20
-59.8631446587782
 30
0.0
 10
-244.5284514982902
 20
-60.22292466723836
 30
0.0
 10
-247.7694008671376
 20
-61.26561241667422
 30
0.0
 10
-253.0078571107206
 20
-63.10394966402216
 30
0.0
 10
-259.0602132633986
 20
-65.42348166003573
 30
0.0
 10
-264.9270491397855
 20
-67.88768271115964
 30
0.0
 10
-270.6006750431192
 20
-70.4912495784562
 30
0.0
 10
-276.0699026112262
 20
-73.23193458532404
 30
0.0
 10
-281.324540161723
 20
-76.10648155916941
 30
0.0
 10
-286.3543387610108
 20
-79.11162392958519
 30
0.0
 10
-291.1486212148002
 20
-82.24396874638789
 30
0.0
 10
-295.6982684550367
 20
-85.49885180269025
 30
0.0
 10
-299.9870665533529
 20
-88.87376041420012
 30
0.0
 10
-303.5786971783086
 20
-91.9704367737435
 30
0.0
 10
-305.6691770545552
 20
-93.96881706951116
 30
0.0
 10
-306.5055272774533
 20
-94.76832048726303
 30
0.0
  0
SPLINE
  5
730
330
721
100
AcDbEntity
  8
0
  6
Continuous
 62
     7
370
    25
100
AcDbSpline
210
0.0
220
0.0
230
1.0
 70
     8
 71
     3
 72
    17
 73
    13
 74
     0
 42
0.000000001
 43
0.00000001
 40
0.0
 40
0.0
 40
0.0
 40
0.0
 40
0.0706156929155317
 40
0.1695739484193062
 40
0.2711427543390025
 40
0.3766509607188259
 40
0.4860396245089176
 40
0.5986143351419162
 40
0.7131839733223152
 40
0.8284322083213796
 40
0.943324826192647
 40
1.0
 40
1.0
 40
1.0
 40
1.0
 10
8.38139729860779
 20
-99.35178370434873
 30
0.0
 10
8.10037778221262
 20
-98.82874537421615
 30
0.0
 10
7.425547769073532
 20
-97.57274021228545
 30
0.0
 10
6.100318839323521
 20
-95.7080259692149
 30
0.0
 10
4.390137476569661
 20
-93.76025443211395
 30
0.0
 10
2.397441143504181
 20
-91.92306439947535
 30
0.0
 10
0.1250081657933888
 20
-90.20167663475483
 30
0.0
 10
-2.416025354451484
 20
-88.61599513402763
 30
0.0
 10
-5.197237077586542
 20
-87.18542809891387
 30
0.0
 10
-8.182142930908242
 20
-85.93027923401472
 30
0.0
 10
-10.79822949680473
 20
-85.02957317187406
 30
0.0
 10
-12.42512249766067
 20
-84.57109229219314
 30
0.0
 10
-12.96254530113297
 20
-84.41963913604401
 30
0.0
  0
SPLINE
  5
732
330
721
100
AcDbEntity
  8
0
  6
Continuous
 62
     7
370
    25
100
AcDbSpline
210
0.0
220
0.0
230
1.0
 70
     8
 71
     3
 72
    14
 73
    10
 74
     0
 42
0.000000001
 43
0.00000001
 40
0.0
 40
0.0
 40
0.0
 40
0.0
 40
0.0803960864462967
 40
0.2329408190409836
 40
0.3855227388992332
 40
0.5381471842326477
 40
0.6908175401820983
 40
0.8435371295731864
 40
1.0
 40
1.0
 40
1.0
 40
1.0
 10
-183.0829054434429
 20
-44.9071044066712
 30
0.0
 10
-184.768783711565
 20
-45.2247508296916
 30
0.0
 10
-189.6534725308654
 20
-46.14510430974858
 30
0.0
 10
-197.6541442825822
 20
-47.7870786063494
 30
0.0
 10
-207.038995292703
 20
-49.88235243024342
 30
0.0
 10
-216.2971610413001
 20
-52.13118515782013
 30
0.0
 10
-225.4177343309069
 20
-54.53258686487381
 30
0.0
 10
-234.4791091719618
 20
-57.09263171795651
 30
0.0
 10
-240.4092111197225
 20
-58.93221637684356
 30
0.0
 10
-243.4101600520027
 20
-59.8631446587782
 30
0.0
  0
SPLINE
  5
733
330
721
100
AcDbEntity
  8
0
  6
Continuous
 62
     7
370
    25
100
AcDbSpline
210
0.0
220
0.0
230
1.0
 70
     8
 71
     3
 72
    16
 73
    12
 74
     0
 42
0.000000001
 43
0.00000001
 40
0.0
 40
0.0
 40
0.0
 40
0.0
 40
0.0655294826471688
 40
0.1873220943179426
 40
0.3083965185125891
 40
0.4289438509675859
 40
0.5491710567325514
 40
0.6692958566848081
 40
0.7895263111698256
 40
0.910031964485175
 40
1.0
 40
1.0
 40
1.0
 40
1.0
 10
-154.4694447695204
 20
-45.96109598661661
 30
0.0
 10
-155.0554611878344
 20
-45.80804758993145
 30
0.0
 10
-156.7306433859655
 20
-45.3705445753962
 30
0.0
 10
-159.5820420818194
 20
-44.78897824380979
 30
0.0
 10
-163.0269823598234
 20
-44.275529459192
 30
0.0
 10
-166.5236702678983
 20
-43.94804542562463
 30
0.0
 10
-170.0473125414803
 20
-43.80291186253692
 30
0.0
 10
-173.5768465764295
 20
-43.83949008897359
 30
0.0
 10
-177.0874416395281
 20
-44.06113664742979
 30
0.0
 10
-180.2661866878253
 20
-44.42035776623329
 30
0.0
 10
-182.2394318760043
 20
-44.76134689203466
 30
0.0
 10
-183.0829054434429
 20
-44.90710440667119
 30
0.0
  0
SPLINE
  5
735
330
721
100
AcDbEntity
  8
0
  6
Continuous
 62
     7
370
    25
100
AcDbSpline
210
0.0
220
0.0
230
1.0
 70
     8
 71
     3
 72
    22
 73
    18
 74
     0
 42
0.000000001
 43
0.00000001
 40
0.0
 40
0.0
 40
0.0
 40
0.0
 40
0.0455449095191392
 40
0.1119425649618865
 40
0.1827174337210064
 40
0.2576371715559854
 40
0.3329833338950791
 40
0.4076195118937756
 40
0.4818956672100114
 40
0.5564438793909439
 40
0.6318014805702701
 40
0.7088361064576112
 40
0.7883255988631346
 40
0.8554025865677362
 40
0.9175999525288416
 40
0.9772693290679226
 40
1.0
 40
1.0
 40
1.0
 40
1.0
 10
-132.0777115305289
 20
-286.7716816853901
 30
0.0
 10
-131.9327215502165
 20
-286.9857590860109
 30
0.0
 10
-131.5763578981355
 20
-287.5119292679012
 30
0.0
 10
-130.7843912233166
 20
-288.2188679646331
 30
0.0
 10
-129.6943146269242
 20
-288.8836766068182
 30
0.0
 10
-128.3783637612371
 20
-289.4051113022795
 30
0.0
 10
-126.8968340609269
 20
-289.7600637097555
 30
0.0
 10
-125.3285032883789
 20
-289.9326981552399
 30
0.0
 10
-123.7376207412486
 20
-289.9213341792826
 30
0.0
 10
-122.1777881912653
 20
-289.7263173752726
 30
0.0
 10
-120.6976835312659
 20
-289.346451856654
 30
0.0
 10
-119.3411070000634
 20
-288.7744234552273
 30
0.0
 10
-118.2298237157134
 20
-288.0378264226686
 30
0.0
 10
-117.3947717223367
 20
-287.1713066583798
 30
0.0
 10
-116.8755778640091
 20
-286.2354054212233
 30
0.0
 10
-116.6212725477929
 20
-285.4293153506279
 30
0.0
 10
-116.6583805899502
 20
-284.9607334664676
 30
0.0
 10
-116.6686171216161
 20
-284.8314716402859
 30
0.0
  0
SPLINE
  5
737
330
721
100
AcDbEntity
  8
0
  6
Continuous
 62
     7
370
    25
100
AcDbSpline
210
0.0
220
0.0
230
1.0
 70
     8
 71
     3
 72
    11
 73
     7
 74
     0
 42
0.000000001
 43
0.00000001
 40
0.0
 40
0.0
 40
0.0
 40
0.0
 40
0.1829587639683888
 40
0.558469210195311
 40
0.9321501872257797
 40
1.0
 40
1.0
 40
1.0
 40
1.0
 10
-355.315691645499
 20
-182.6864866204517
 30
0.0
 10
-355.4612505892607
 20
-183.3500232726239
 30
0.0
 10
-355.9055593864793
 20
-185.375423871298
 30
0.0
 10
-356.2840461404872
 20
-188.7938151436583
 30
0.0
 10
-356.5122134752594
 20
-191.7977831933223
 30
0.0
 10
-356.4620452120653
 20
-193.4216088811996
 30
0.0
 10
-356.4543358804772
 20
-193.6711413519684
 30
0.0
  0
SPLINE
  5
739
330
721
100
AcDbEntity
  8
0
  6
Continuous
 62
     7
370
    25
100
AcDbSpline
210
0.0
220
0.0
230
1.0
 70
     8
 71
     3
 72
    68
 73
    64
 74
     0
 42
0.000000001
 43
0.00000001
 40
0.0
 40
0.0
 40
0.0
 40
0.0
 40
0.0154856454506012
 40
0.0313611042856959
 40
0.0472762216895714
 40
0.0632493726569787
 40
0.079293598287149
 40
0.0954159169816812
 40
0.1116174225823827
 40
0.1278940794989907
 40
0.1442380013232717
 40
0.160638931414815
 40
0.1770856536732787
 40
0.193567138004594
 40
0.210073330688697
 40
0.2265955946942486
 40
0.2431268650390851
 40
0.2596615504416883
 40
0.2761944299895723
 40
0.2927228467082338
 40
0.3092450191059158
 40
0.3257598481667883
 40
0.3422667534351043
 40
0.3587655396376687
 40
0.3752562914263415
 40
0.3917392922724346
 40
0.4082149632033376
 40
0.4246838173528313
 40
0.4411464268425771
 40
0.457603399124559
 40
0.4740553604920249
 40
0.4905029449673778
 40
0.5069467871886216
 40
0.5233875182457182
 40
0.5398257636748931
 40
0.5562621430154135
 40
0.5726972704805221
 40
0.5891317564025773
 40
0.6055662091890531
 40
0.6220010925607141
 40
0.6384369596581853
 40
0.6548744255806116
 40
0.6713141118670655
 40
0.6877566483077959
 40
0.7042026741639628
 40
0.7206528384907162
 40
0.7371077991755318
 40
0.7535682201769186
 40
0.7700347662782187
 40
0.7865080944447321
 40
0.8029888405784348
 40
0.8194776000889147
 40
0.8359749002317655
 40
0.852481161604717
 40
0.8689966455544647
 40
0.8855213835908052
 40
0.9020550843568866
 40
0.9185970135127773
 40
0.9351458424905454
 40
0.9516994641774799
 40
0.9682542305010232
 40
0.9848046185773321
 40
0.9999999999999999
 40
0.9999999999999999
 40
0.9999999999999999
 40
0.9999999999999999
 10
-356.3122577262932
 20
-201.0646176791824
 30
0.0
 10
-356.1807255690043
 20
-202.3531435886391
 30
0.0
 10
-355.9143502529208
 20
-204.9626309070848
 30
0.0
 10
-355.1174786282853
 20
-208.8708360388844
 30
0.0
 10
-354.0254692064917
 20
-212.7870644133023
 30
0.0
 10
-352.6149753375658
 20
-216.6739643535509
 30
0.0
 10
-350.8951848925512
 20
-220.5259759030804
 30
0.0
 10
-348.8652800531364
 20
-224.3365345507245
 30
0.0
 10
-346.5280056353826
 20
-228.0985694022339
 30
0.0
 10
-343.8863587073231
 20
-231.8044906585921
 30
0.0
 10
-340.9446900224574
 20
-235.4464357136324
 30
0.0
 10
-337.7084544460927
 20
-239.0165018401095
 30
0.0
 10
-334.1841852834259
 20
-242.506973191806
 30
0.0
 10
-330.3793149319167
 20
-245.9104909499693
 30
0.0
 10
-326.3019989300723
 20
-249.2201567808929
 30
0.0
 10
-321.9609474099809
 20
-252.4295727365929
 30
0.0
 10
-317.3652969849658
 20
-255.5328297147028
 30
0.0
 10
-312.5246155668893
 20
-258.5244103242107
 30
0.0
 10
-307.448728157675
 20
-261.3992334154387
 30
0.0
 10
-302.1476756560277
 20
-264.1525985238956
 30
0.0
 10
-296.6315824464928
 20
-266.7801824409352
 30
0.0
 10
-290.910802554631
 20
-269.2779170609061
 30
0.0
 10
-284.995925103411
 20
-271.641966110263
 30
0.0
 10
-278.8977795126166
 20
-273.8687105731236
 30
0.0
 10
-272.627438473109
 20
-275.954741104008
 30
0.0
 10
-266.1962177248847
 20
-277.8968557246974
 30
0.0
 10
-259.6156723193444
 20
-279.6920612962627
 30
0.0
 10
-252.8975894291819
 20
-281.3375775251154
 30
0.0
 10
-246.0539779763074
 20
-282.8308425284851
 30
0.0
 10
-239.0970554409905
 20
-284.1695192200385
 30
0.0
 10
-232.0392322403796
 20
-285.3515019694219
 30
0.0
 10
-224.8930940520615
 20
-286.3749231407986
 30
0.0
 10
-217.6713824276367
 20
-287.2381592300879
 30
0.0
 10
-210.3869740040029
 20
-287.9398364052783
 30
0.0
 10
-203.0528585825969
 20
-288.4788353153332
 30
0.0
 10
-195.6821163131555
 20
-288.8542950765105
 30
0.0
 10
-188.2878941885852
 20
-289.0656163748816
 30
0.0
 10
-180.8833820377339
 20
-289.1124636443803
 30
0.0
 10
-173.4818099417697
 20
-288.9947666388164
 30
0.0
 10
-166.096410472717
 20
-288.7127228513761
 30
0.0
 10
-158.7403848693134
 20
-288.2667973179482
 30
0.0
 10
-151.4268567365422
 20
-287.6577183698074
 30
0.0
 10
-144.1688610333169
 20
-286.8864740697045
 30
0.0
 10
-136.9793288314082
 20
-285.9543088227579
 30
0.0
 10
-129.8710639755269
 20
-284.8627186564132
 30
0.0
 10
-122.8567204703408
 20
-283.6134455127611
 30
0.0
 10
-115.9487808063803
 20
-282.2084705831494
 30
0.0
 10
-109.159535466201
 20
-280.6500067404225
 30
0.0
 10
-102.5010638944417
 20
-278.9404901611445
 30
0.0
 10
-95.98521725047412
 20
-277.0825712898036
 30
0.0
 10
-89.62360335405758
 20
-275.0791053642697
 30
0.0
 10
-83.4275741355909
 20
-272.9331428870594
 30
0.0
 10
-77.4082165136043
 20
-270.6479203963709
 30
0.0
 10
-71.5763455379058
 20
-268.2268528142184
 30
0.0
 10
-65.94250649992772
 20
-265.6735262893351
 30
0.0
 10
-60.51696317563749
 20
-262.991700687828
 30
0.0
 10
-55.30975907817606
 20
-260.1852944350831
 30
0.0
 10
-50.33052747071584
 20
-257.2584626505742
 30
0.0
 10
-45.58925887686946
 20
-254.2153654558771
 30
0.0
 10
-41.09355544001725
 20
-251.0611797811404
 30
0.0
 10
-36.85917630159027
 20
-247.7986785526885
 30
0.0
 10
-32.9787927368094
 20
-244.5323129681041
 30
0.0
 10
-30.63886834274071
 20
-242.3107716419122
 30
0.0
 10
-29.5188437149167
 20
-241.2474120721027
 30
0.0
  0
SPLINE
  5
73B
330
721
100
AcDbEntity
  8
0
  6
Continuous
 62
     7
370
    25
100
AcDbSpline
210
0.0
220
0.0
230
1.0
 70
     8
 71
     3
 72
     9
 73
     5
 74
     0
 42
0.000000001
 43
0.00000001
 40
0.0
 40
0.0
 40
0.0
 40
0.0
 40
0.6733872340779874
 40
1.0
 40
1.0
 40
1.0
 40
1.0
 10
19.49866725506624
 20
-166.1729695453073
 30
0.0
 10
19.49044825231108
 20
-165.0722650861595
 30
0.0
 10
19.47824278963048
 20
-163.4376863423926
 30
0.0
 10
19.33537912344216
 20
-161.8071804157856
 30
0.0
 10
19.28871802627866
 20
-161.2746363652442
 30
0.0
  0
SPLINE
  5
73D
330
721
100
AcDbEntity
  8
0
  6
Continuous
 62
     7
370
    25
100
AcDbSpline
210
0.0
220
0.0
230
1.0
 70
     8
 71
     3
 72
    18
 73
    14
 74
     0
 42
0.000000001
 43
0.00000001
 40
0.0
 40
0.0
 40
0.0
 40
0.0
 40
0.0511127076171533
 40
0.1476267327820422
 40
0.2439953573904626
 40
0.340103392476018
 40
0.4358808819594389
 40
0.5312621493907764
 40
0.6261944566472812
 40
0.7206474571343247
 40
0.8146215721878358
 40
0.9081533212026094
 40
1.0
 40
1.0
 40
1.0
 40
1.0
 10
-1.517120379112946
 20
-213.9168716638463
 30
0.0
 10
-0.8938810300182509
 20
-213.2983279182598
 30
0.0
 10
0.9061955680992051
 20
-211.5118134387755
 30
0.0
 10
3.666986552925133
 20
-208.4889022830137
 30
0.0
 10
6.66390375669984
 20
-204.8273852649953
 30
0.0
 10
9.356791175043039
 20
-201.0931807085227
 30
0.0
 10
11.74357926487343
 20
-197.2971712827589
 30
0.0
 10
13.81798989012781
 20
-193.4481111244512
 30
0.0
 10
15.57584302601095
 20
-189.5556122968208
 30
0.0
 10
17.01668498554945
 20
-185.62928911499
 30
0.0
 10
18.13112871644643
 20
-181.6781200106337
 30
0.0
 10
18.94547245453376
 20
-177.7305611814475
 30
0.0
 10
19.21951645462391
 20
-175.0935016948324
 30
0.0
 10
19.35529293924348
 20
-173.7869572468336
 30
0.0
  0
SPLINE
  5
73E
330
721
100
AcDbEntity
  8
0
  6
Continuous
 62
     7
370
    25
100
AcDbSpline
210
0.0
220
0.0
230
1.0
 70
     8
 71
     3
 72
     9
 73
     5
 74
     0
 42
0.000000001
 43
0.00000001
 40
0.0
 40
0.0
 40
0.0
 40
0.0
 40
0.4785134026790132
 40
1.0
 40
1.0
 40
1.0
 40
1.0
 10
19.28871802627868
 20
-161.2746363652442
 30
0.0
 10
19.18827667321929
 20
-160.2621561191342
 30
0.0
 10
18.97837376872999
 20
-158.1462692067896
 30
0.0
 10
18.6265589569076
 20
-156.039176987228
 30
0.0
 10
18.44309224780319
 20
-154.9403566354072
 30
0.0
  0
LWPOLYLINE
  5
740
330
721
100
AcDbEntity
  8
0
  6
Continuous
 62
     7
370
    25
100
AcDbPolyline
 90
       15
 70
   128
 43
0.0
 10
16.6833965056
 20
-121.5451375889
 10
17.1386132602
 20
-120.9905367163
 10
18.0105266194
 20
-119.6830791741
 10
18.8179366078
 20
-118.1375587711
 10
19.5303716193
 20
-116.4123033576
 10
20.120944398
 20
-114.5724239725
 10
20.5673667615
 20
-112.6873575568
 10
20.8527907559
 20
-110.8282464074
 10
20.9664444961
 20
-109.065253271
 10
20.9040386966
 20
-107.464913406
 10
20.6679285488
 20
-106.0876235459
 10
20.2670248357
 20
-104.9853625298
 10
19.7164576403
 20
-104.1997296245
 10
19.0370053364
 20
-103.76037457
 10
18.2543104146
 20
-103.6838786007
  0
LWPOLYLINE
  5
741
330
721
100
AcDbEntity
  8
0
  6
Continuous
 62
     7
370
    25
100
AcDbPolyline
 90
       68
 70
   128
 43
0.0
 10
-327.5224690268
 20
-120.6835016176
 10
-330.95056058
 20
-124.2283494694
 10
-334.052276996
 20
-127.8520587064
 10
-336.820800029
 20
-131.5466636291
 10
-339.2500438644
 20
-135.3040426942
 10
-341.3346684972
 20
-139.115936367
 10
-343.0700914699
 20
-142.9739652779
 10
-344.4524979462
 20
-146.8696486421
 10
-345.4788490967
 20
-150.794422902
 10
-346.1468887788
 20
-154.7396605521
 10
-346.4551484962
 20
-158.6966891037
 10
-346.4029506273
 20
-162.6568101493
 10
-345.9904099142
 20
-166.6113184835
 10
-345.218433211
 20
-170.5515212385
 10
-344.0887174901
 20
-174.4687569938
 10
-342.6037461117
 20
-178.3544148148
 10
-340.7667833652
 20
-182.1999531824
 10
-338.5818672934
 20
-185.9969187687
 10
-336.0538008161
 20
-189.7369650193
 10
-333.1881411719
 20
-193.4118705009
 10
-329.9911877028
 20
-197.0135569735
 10
-326.4699680063
 20
-200.5341071487
 10
-322.6322224875
 20
-203.9657820932
 10
-318.486387344
 20
-207.3010382406
 10
-314.0415760211
 20
-210.532543974
 10
-309.3075591787
 20
-213.6531957427
 10
-304.2947432134
 20
-216.6561336766
 10
-299.0141473826
 20
-219.5347566665
 10
-293.4773795819
 20
-222.2827368743
 10
-287.6966108285
 20
-224.8940336431
 10
-281.6845485069
 20
-227.3629067759
 10
-275.4544084347
 20
-229.6839291538
 10
-269.019885812
 20
-231.8519986658
 10
-262.3951251159
 20
-233.8623494246
 10
-255.5946890083
 20
-235.7105622429
 10
-248.6335263235
 20
-237.3925743479
 10
-241.5269392081
 20
-238.9046883119
 10
-234.2905494826
 20
-240.2435801802
 10
-226.9402643024
 20
-241.4063067779
 10
-219.4922411893
 20
-242.3903121796
 10
-211.9628525147
 20
-243.1934333279
 10
-204.368649509
 20
-243.8139047882
 10
-196.7263258785
 20
-244.2503626296
 10
-189.0526811092
 20
-244.501847423
 10
-181.3645835376
 20
-244.5678063503
 10
-173.6789332708
 20
-244.4480944194
 10
-166.0126250361
 20
-244.1429747831
 10
-158.3825110427
 20
-243.6531181606
 10
-150.8053639373
 20
-242.979601363
 10
-143.2978399335
 20
-242.1239049266
 10
-135.8764421984
 20
-241.0879098577
 10
-128.5574845751
 20
-239.8738934983
 10
-121.3570557206
 20
-238.4845245199
 10
-114.2909837405
 20
-236.9228570571
 10
-107.3748013943
 20
-235.1923239938
 10
-100.6237119519
 20
-233.2967294172
 10
-94.0525557732
 20
-231.2402402558
 10
-87.6757776854
 20
-229.0273771189
 10
-81.5073952309
 20
-226.66300436
 10
-75.5609678528
 20
-224.1523193835
 10
-69.8495670892
 20
-221.5008412199
 10
-64.3857478385
 20
-218.7143983938
 10
-59.1815207612
 20
-215.799116111
 10
-54.2483258778
 20
-212.7614027949
 10
-49.5970074214
 20
-209.6079359984
 10
-45.2377899994
 20
-206.3456477262
 10
-41.1802561177
 20
-202.9817091957
 10
-37.4333251166
 20
-199.5235150739
  0
LWPOLYLINE
  5
743
330
721
100
AcDbEntity
  8
0
  6
Continuous
 62
     7
370
    25
100
AcDbPolyline
 90
        3
 70
   128
 43
0.0
 10
-356.4778970717
 20
-172.1038505556
 10
-356.4721491516
 20
-172.8322686573
 10
-356.3277438958
 20
-175.8260745596
  0
LWPOLYLINE
  5
748
330
721
100
AcDbEntity
  8
0
  6
Continuous
 62
     7
370
    25
100
AcDbPolyline
 90
        9
 70
   128
 43
0.0
 10
-0.5484760055
 20
-95.2809287088
 10
-1.4869228934
 20
-93.7506724467
 10
-2.7284790671
 20
-92.2788018149
 10
-4.2597516877
 20
-90.8811940863
 10
-6.0642227044
 20
-89.5729254498
 10
-8.1224270376
 20
-88.368108381
 10
-10.4121625511
 20
-87.2797394091
 10
-12.9087295496
 20
-86.3195589216
 10
-15.5851972179
 20
-85.4979245188
  0
LWPOLYLINE
  5
74A
330
721
100
AcDbEntity
  8
0
  6
Continuous
 62
     7
370
    25
100
AcDbPolyline
 90
       12
 70
   128
 43
0.0
 10
-9.4316017808
 20
-172.1929746656
 10
-5.8892442902
 20
-168.5224147964
 10
-2.6968041663
 20
-164.7676661473
 10
0.1382004988
 20
-160.9375710287
 10
2.6090933616
 20
-157.0411491895
 10
4.7100555501
 20
-153.087576576
 10
6.436139367
 20
-149.0861637225
 10
7.7832799413
 20
-145.0463338257
 10
8.7483048008
 20
-140.977600553
 10
9.3289413437
 20
-136.8895456385
 10
9.5238221897
 20
-132.7917963179
 10
9.3324884008
 20
-128.694002657
  0
LWPOLYLINE
  5
74D
330
721
100
AcDbEntity
  8
0
  6
Continuous
 62
     7
370
    25
100
AcDbPolyline
 90
       12
 70
   128
 43
0.0
 10
-240.3904774653
 20
-60.8246514505
 10
-247.0664455119
 20
-63.0560596209
 10
-253.5243664922
 20
-65.4516488338
 10
-259.749032213
 20
-68.0057775547
 10
-265.7257837898
 20
-70.712430894
 10
-271.4405461679
 20
-73.5652347713
 10
-276.8798612685
 20
-76.5574709268
 10
-282.0309196821
 20
-79.6820927419
 10
-286.8815908345
 20
-82.9317418345
 10
-291.4204515534
 20
-86.2987653869
 10
-295.63681297
 20
-89.7752341686
 10
-299.5207456909
 20
-93.3529612093
  0
LWPOLYLINE
  5
753
330
721
100
AcDbEntity
  8
0
  6
Continuous
 62
     7
370
    25
100
AcDbPolyline
 90
        3
 70
   128
 43
0.0
 10
19.3697054429
 20
-148.544369994
 10
19.5238219412
 20
-144.7932865997
 10
19.5238262642
 20
-144.7733101473
  0
LWPOLYLINE
  5
755
330
721
100
AcDbEntity
  8
0
  6
Continuous
 62
     7
370
    25
100
AcDbPolyline
 90
        3
 70
   128
 43
0.0
 10
-356.4778970717
 20
-197.047419006
 10
-356.4721491516
 20
-197.7758371077
 10
-356.3277438958
 20
-200.76964301
  0
LWPOLYLINE
  5
75D
330
721
100
AcDbEntity
  8
0
  6
Continuous
 62
     7
370
    25
100
AcDbPolyline
 90
        3
 70
   128
 43
0.0
 10
19.3697054429
 20
-173.4879384445
 10
19.5238219412
 20
-169.7368550501
 10
19.5238262641
 20
-169.7168785977
  0
LWPOLYLINE
  5
75F
330
721
100
AcDbEntity
  8
0
  6
Continuous
 62
     8
370
    25
100
AcDbPolyline
 90
       61
 70
   128
 43
0.0
 10
-28.5891438998
 20
-210.4988470277
 10
-32.3873480785
 20
-214.0126555499
 10
-36.4878146485
 20
-217.4351604327
 10
-40.8822858157
 20
-220.7594692068
 10
-45.5619117001
 20
-223.9788871566
 10
-50.5172681578
 20
-227.0869308029
 10
-55.7383757606
 20
-230.0773409594
 10
-61.2147198924
 20
-232.944095338
 10
-66.935271925
 20
-235.6814206769
 10
-72.888511428
 20
-238.2838043671
 10
-79.0624493692
 20
-240.7460055544
 10
-85.4446522593
 20
-243.063065693
 10
-92.022267191
 20
-245.2303185323
 10
-98.7820477232
 20
-247.2433995135
 10
-105.7103805576
 20
-249.0982545594
 10
-112.7933129537
 20
-250.7911482388
 10
-120.0165808285
 20
-252.3186712891
 10
-127.3656374817
 20
-253.6777474821
 10
-134.8256828912
 20
-254.8656398193
 10
-142.3816935184
 20
-255.8799560436
 10
-150.0184525634
 20
-256.7186534572
 10
-157.7205806099
 20
-257.3800430349
 10
-165.4725665969
 20
-257.8627928264
 10
-173.2587990564
 20
-258.1659306376
 10
-181.0635975525
 20
-258.2888459894
 10
-188.8712442595
 20
-258.2312913467
 10
-196.6660156162
 20
-257.9933826168
 10
-204.4322139902
 20
-257.5755989163
 10
-212.1541992918
 20
-256.9787816059
 10
-219.8164204701
 20
-256.2041325962
 10
-227.4034468314
 20
-255.2532119274
 10
-234.8999991142
 20
-254.127934627
 10
-242.29098026
 20
-252.8305668538
 10
-249.5615058164
 20
-251.3637213338
 10
-256.6969339124
 20
-249.7303520987
 10
-263.6828947455
 20
-247.9337485367
 10
-270.5053195202
 20
-245.9775287684
 10
-277.1504687811
 20
-243.8656323599
 10
-283.6049600818
 20
-241.6023123897
 10
-289.8557949358
 20
-239.1921268829
 10
-295.8903849937
 20
-236.6399296324
 10
-301.6965773942
 20
-233.9508604238
 10
-307.2626792384
 20
-231.1303346846
 10
-312.577481138
 20
-228.1840325783
 10
-317.6302797893
 20
-225.1178875652
 10
-322.4108995282
 20
-221.9380744534
 10
-326.9097128229
 20
-218.6509969632
 10
-331.1176596619
 20
-215.2632748312
 10
-335.0262658005
 20
-211.7817304791
 10
-338.6276598261
 20
-208.2133752738
 10
-341.9145890102
 20
-204.5653954077
 10
-344.8804339151
 20
-200.845137427
 10
-347.5192217237
 20
-197.0600934359
 10
-349.8256382685
 20
-193.2178860095
 10
-351.7950387337
 20
-189.326252842
 10
-353.4234570088
 20
-185.3930311649
 10
-354.707613676
 20
-181.4261419632
 10
-355.6449226148
 20
-177.4335740237
 10
-356.2334962096
 20
-173.4233678469
 10
-356.4721491516
 20
-169.4035994545
 10
-356.4778749889
 20
-168.7203311232
  0
LWPOLYLINE
  5
761
330
721
100
AcDbEntity
  8
0
  6
Continuous
 62
     8
370
    25
100
AcDbPolyline
 90
       60
 70
   128
 43
0.0
 10
-356.3277438958
 20
-175.8260745596
 10
-356.2334962096
 20
-176.8520370497
 10
-355.6449226148
 20
-180.8622432265
 10
-354.707613676
 20
-184.854811166
 10
-353.4234570088
 20
-188.8217003677
 10
-351.7950387337
 20
-192.7549220448
 10
-349.8256382685
 20
-196.6465552123
 10
-347.5192217237
 20
-200.4887626387
 10
-344.8804339151
 20
-204.2738066298
 10
-341.9145890102
 20
-207.9940646106
 10
-338.6276598261
 20
-211.6420444766
 10
-335.0262658005
 20
-215.2103996819
 10
-331.1176596619
 20
-218.691944034
 10
-326.9097128229
 20
-222.079666166
 10
-322.4108995282
 20
-225.3667436562
 10
-317.6302797893
 20
-228.546556768
 10
-312.577481138
 20
-231.6127017811
 10
-307.2626792384
 20
-234.5590038874
 10
-301.6965773942
 20
-237.3795296266
 10
-295.8903849937
 20
-240.0685988352
 10
-289.8557949358
 20
-242.6207960857
 10
-283.6049600818
 20
-245.0309815925
 10
-277.1504687811
 20
-247.2943015627
 10
-270.5053195202
 20
-249.4061979712
 10
-263.6828947455
 20
-251.3624177395
 10
-256.6969339124
 20
-253.1590213015
 10
-249.5615058164
 20
-254.7923905366
 10
-242.29098026
 20
-256.2592360566
 10
-234.8999991142
 20
-257.5566038298
 10
-227.4034468314
 20
-258.6818811302
 10
-219.8164204701
 20
-259.6328017991
 10
-212.1541992918
 20
-260.4074508087
 10
-204.4322139902
 20
-261.0042681191
 10
-196.6660156162
 20
-261.4220518196
 10
-188.8712442595
 20
-261.6599605495
 10
-181.0635975525
 20
-261.7175151922
 10
-173.2587990564
 20
-261.5945998404
 10
-165.4725665969
 20
-261.2914620292
 10
-157.7205806099
 20
-260.8087122378
 10
-150.0184525634
 20
-260.14732266
 10
-142.3816935184
 20
-259.3086252465
 10
-134.8256828912
 20
-258.2943090221
 10
-127.3656374817
 20
-257.1064166849
 10
-120.0165808285
 20
-255.7473404919
 10
-112.7933129537
 20
-254.2198174416
 10
-105.7103805576
 20
-252.5269237622
 10
-98.7820477232
 20
-250.6720687163
 10
-92.022267191
 20
-248.6589877351
 10
-85.4446522593
 20
-246.4917348958
 10
-79.0624493692
 20
-244.1746747572
 10
-72.888511428
 20
-241.7124735699
 10
-66.935271925
 20
-239.1100898797
 10
-61.2147198924
 20
-236.3727645408
 10
-55.7383757606
 20
-233.5060101622
 10
-50.5172681578
 20
-230.5156000057
 10
-45.5619117001
 20
-227.4075563594
 10
-40.8822858157
 20
-224.1881384096
 10
-36.4878146485
 20
-220.8638296356
 10
-32.3873480785
 20
-217.4413247528
 10
-28.5891438998
 20
-213.9275162306
  0
LWPOLYLINE
  5
764
330
721
100
AcDbEntity
  8
0
  6
Continuous
 62
     8
370
    25
100
AcDbPolyline
 90
       12
 70
   128
 43
0.0
 10
19.5238262642
 20
-141.3446409445
 10
19.5238219412
 20
-141.3646173969
 10
19.3170581168
 20
-145.7122294809
 10
18.7010169067
 20
-150.0495560366
 10
17.6771490679
 20
-154.3663828016
 10
16.2478657757
 20
-158.6525437896
 10
14.4165329456
 20
-162.8979452317
 10
12.1874633065
 20
-167.0925893461
 10
9.5659062448
 20
-171.2265978827
 10
6.5580354416
 20
-175.2902353866
 10
3.1709343345
 20
-179.2739321241
 10
-0.587420564
 20
-183.1683066195
  0
LWPOLYLINE
  5
765
330
721
100
AcDbEntity
  8
0
  6
Continuous
 62
     8
370
    25
100
AcDbPolyline
 90
        9
 70
   128
 43
0.0
 10
19.2890724742
 20
-136.3348543479
 10
19.128898439
 20
-135.3494868567
 10
18.5605048762
 20
-133.7556535058
 10
17.6374838154
 20
-132.296708338
 10
16.3953064382
 20
-131.028717798
 10
14.8817089248
 20
-130.0004100509
 10
13.1548579787
 20
-129.251302387
 10
11.2811155133
 20
-128.8101825936
 10
9.3324884008
 20
-128.694002657
  0
LWPOLYLINE
  5
766
330
721
100
AcDbEntity
  8
0
  6
Continuous
 62
     8
370
    25
100
AcDbPolyline
 90
       11
 70
   128
 43
0.0
 10
-0.587420564
 20
-186.5969758223
 10
3.1709343345
 20
-182.7026013269
 10
6.5580354416
 20
-178.7189045894
 10
9.5659062448
 20
-174.6552670855
 10
12.1874633065
 20
-170.5212585489
 10
14.4165329456
 20
-166.3266144345
 10
16.2478657757
 20
-162.0812129924
 10
17.6771490679
 20
-157.7950520044
 10
18.7010169067
 20
-153.4782252394
 10
19.3170581168
 20
-149.1408986837
 10
19.3697054429
 20
-148.544369994
  0
LWPOLYLINE
  5
76D
330
721
100
AcDbEntity
  8
0
  6
Continuous
 62
     8
370
    25
100
AcDbPolyline
 90
       14
 70
   128
 43
0.0
 10
-132.2737037959
 20
-286.0465901235
 10
-131.5562603059
 20
-286.8920219591
 10
-130.4915378762
 20
-287.6340331843
 10
-129.1329261353
 20
-288.2354162579
 10
-127.5485515489
 20
-288.6660153214
 10
-125.8178612746
 20
-288.9042383398
 10
-124.0276393494
 20
-288.9381398162
 10
-122.267654976
 20
-288.766019789
 10
-120.6261611199
 20
-288.3965090751
 10
-119.1854691374
 20
-287.8481364846
 10
-118.0178213403
 20
-287.148399709
 10
-117.1817684648
 20
-286.3323864721
 10
-116.7192336931
 20
-285.4410150849
 10
-116.6306515918
 20
-284.8295568954
  0
LWPOLYLINE
  5
771
330
721
100
AcDbEntity
  8
0
  6
Continuous
 62
     8
370
    25
100
AcDbPolyline
 90
       61
 70
   128
 43
0.0
 10
-28.5891438998
 20
-235.4424154782
 10
-32.3873480785
 20
-238.9562240004
 10
-36.4878146485
 20
-242.3787288832
 10
-40.8822858157
 20
-245.7030376572
 10
-45.5619117001
 20
-248.922455607
 10
-50.5172681578
 20
-252.0304992533
 10
-55.7383757606
 20
-255.0209094098
 10
-61.2147198924
 20
-257.8876637884
 10
-66.935271925
 20
-260.6249891273
 10
-72.888511428
 20
-263.2273728176
 10
-79.0624493692
 20
-265.6895740048
 10
-85.4446522593
 20
-268.0066341434
 10
-92.022267191
 20
-270.1738869828
 10
-98.7820477232
 20
-272.186967964
 10
-105.7103805576
 20
-274.0418230099
 10
-112.7933129537
 20
-275.7347166892
 10
-120.0165808285
 20
-277.2622397395
 10
-127.3656374817
 20
-278.6213159325
 10
-134.8256828912
 20
-279.8092082698
 10
-142.3816935184
 20
-280.8235244941
 10
-150.0184525634
 20
-281.6622219076
 10
-157.7205806099
 20
-282.3236114854
 10
-165.4725665969
 20
-282.8063612768
 10
-173.2587990564
 20
-283.109499088
 10
-181.0635975525
 20
-283.2324144399
 10
-188.8712442595
 20
-283.1748597971
 10
-196.6660156162
 20
-282.9369510673
 10
-204.4322139903
 20
-282.5191673667
 10
-212.1541992918
 20
-281.9223500563
 10
-219.8164204701
 20
-281.1477010467
 10
-227.4034468314
 20
-280.1967803778
 10
-234.8999991142
 20
-279.0715030774
 10
-242.29098026
 20
-277.7741353042
 10
-249.5615058164
 20
-276.3072897842
 10
-256.6969339124
 20
-274.6739205491
 10
-263.6828947455
 20
-272.8773169871
 10
-270.5053195202
 20
-270.9210972188
 10
-277.1504687811
 20
-268.8092008104
 10
-283.6049600818
 20
-266.5458808402
 10
-289.8557949358
 20
-264.1356953334
 10
-295.8903849937
 20
-261.5834980829
 10
-301.6965773942
 20
-258.8944288743
 10
-307.2626792384
 20
-256.0739031351
 10
-312.577481138
 20
-253.1276010287
 10
-317.6302797893
 20
-250.0614560156
 10
-322.4108995282
 20
-246.8816429038
 10
-326.9097128229
 20
-243.5945654136
 10
-331.1176596619
 20
-240.2068432817
 10
-335.0262658005
 20
-236.7252989296
 10
-338.6276598261
 20
-233.1569437242
 10
-341.9145890102
 20
-229.5089638582
 10
-344.8804339151
 20
-225.7887058774
 10
-347.5192217237
 20
-222.0036618863
 10
-349.8256382685
 20
-218.1614544599
 10
-351.7950387337
 20
-214.2698212925
 10
-353.4234570088
 20
-210.3365996154
 10
-354.707613676
 20
-206.3697104136
 10
-355.6449226148
 20
-202.3771424741
 10
-356.2334962096
 20
-198.3669362973
 10
-356.4721491516
 20
-194.3471679049
 10
-356.4778749889
 20
-193.6638995736
  0
LWPOLYLINE
  5
772
330
721
100
AcDbEntity
  8
0
  6
Continuous
 62
     8
370
    25
100
AcDbPolyline
 90
       49
 70
   128
 43
0.0
 10
-332.5705887335
 20
-219.0870957671
 10
-329.9911877028
 20
-221.9571254239
 10
-326.4699680063
 20
-225.4776755991
 10
-322.6322224875
 20
-228.9093505436
 10
-318.486387344
 20
-232.244606691
 10
-314.0415760211
 20
-235.4761124245
 10
-309.3075591787
 20
-238.5967641931
 10
-304.2947432134
 20
-241.599702127
 10
-299.0141473826
 20
-244.4783251169
 10
-293.4773795819
 20
-247.2263053247
 10
-287.6966108285
 20
-249.8376020935
 10
-281.6845485069
 20
-252.3064752264
 10
-275.4544084347
 20
-254.6274976042
 10
-269.019885812
 20
-256.7955671162
 10
-262.3951251159
 20
-258.805917875
 10
-255.5946890083
 20
-260.6541306934
 10
-248.6335263235
 20
-262.3361427983
 10
-241.5269392081
 20
-263.8482567623
 10
-234.2905494826
 20
-265.1871486306
 10
-226.9402643024
 20
-266.3498752283
 10
-219.4922411893
 20
-267.33388063
 10
-211.9628525147
 20
-268.1370017784
 10
-204.368649509
 20
-268.7574732387
 10
-196.7263258785
 20
-269.1939310801
 10
-189.0526811092
 20
-269.4454158735
 10
-181.3645835376
 20
-269.5113748007
 10
-173.6789332708
 20
-269.3916628698
 10
-166.0126250361
 20
-269.0865432335
 10
-158.3825110427
 20
-268.596686611
 10
-150.8053639373
 20
-267.9231698135
 10
-143.2978399335
 20
-267.067473377
 10
-135.8764421984
 20
-266.0314783081
 10
-128.5574845751
 20
-264.8174619487
 10
-121.3570557206
 20
-263.4280929704
 10
-114.2909837405
 20
-261.8664255075
 10
-107.3748013943
 20
-260.1358924442
 10
-100.6237119519
 20
-258.2402978677
 10
-94.0525557732
 20
-256.1838087062
 10
-87.6757776854
 20
-253.9709455693
 10
-81.5073952309
 20
-251.6065728104
 10
-75.5609678528
 20
-249.0958878339
 10
-69.8495670892
 20
-246.4444096704
 10
-64.3857478385
 20
-243.6579668442
 10
-59.1815207612
 20
-240.7426845614
 10
-54.2483258778
 20
-237.7049712453
 10
-49.5970074214
 20
-234.5515044489
 10
-45.2377899994
 20
-231.2892161766
 10
-41.1802561177
 20
-227.9252776461
 10
-37.4333251166
 20
-224.4670835243
  0
LWPOLYLINE
  5
773
330
721
100
AcDbEntity
  8
0
  6
Continuous
 62
     8
370
    25
100
AcDbPolyline
 90
       60
 70
   128
 43
0.0
 10
-356.3277438958
 20
-200.76964301
 10
-356.2334962096
 20
-201.7956055001
 10
-355.6449226148
 20
-205.8058116769
 10
-354.707613676
 20
-209.7983796164
 10
-353.4234570088
 20
-213.7652688182
 10
-351.7950387337
 20
-217.6984904953
 10
-349.8256382685
 20
-221.5901236627
 10
-347.5192217237
 20
-225.4323310892
 10
-344.8804339151
 20
-229.2173750802
 10
-341.9145890102
 20
-232.937633061
 10
-338.6276598261
 20
-236.585612927
 10
-335.0262658005
 20
-240.1539681324
 10
-331.1176596619
 20
-243.6355124845
 10
-326.9097128229
 20
-247.0232346164
 10
-322.4108995282
 20
-250.3103121066
 10
-317.6302797893
 20
-253.4901252185
 10
-312.577481138
 20
-256.5562702315
 10
-307.2626792384
 20
-259.5025723379
 10
-301.6965773942
 20
-262.3230980771
 10
-295.8903849937
 20
-265.0121672857
 10
-289.8557949358
 20
-267.5643645362
 10
-283.6049600818
 20
-269.974550043
 10
-277.1504687811
 20
-272.2378700132
 10
-270.5053195202
 20
-274.3497664216
 10
-263.6828947455
 20
-276.3059861899
 10
-256.6969339124
 20
-278.1025897519
 10
-249.5615058164
 20
-279.735958987
 10
-242.29098026
 20
-281.202804507
 10
-234.8999991142
 20
-282.5001722802
 10
-227.4034468314
 20
-283.6254495806
 10
-219.8164204701
 20
-284.5763702495
 10
-212.1541992918
 20
-285.3510192591
 10
-204.4322139902
 20
-285.9478365695
 10
-196.6660156162
 20
-286.3656202701
 10
-188.8712442595
 20
-286.6035289999
 10
-181.0635975525
 20
-286.6610836427
 10
-173.2587990564
 20
-286.5381682908
 10
-165.4725665969
 20
-286.2350304796
 10
-157.7205806099
 20
-285.7522806882
 10
-150.0184525634
 20
-285.0908911104
 10
-142.3816935184
 20
-284.2521936969
 10
-134.8256828912
 20
-283.2378774726
 10
-127.3656374817
 20
-282.0499851354
 10
-120.0165808285
 20
-280.6909089423
 10
-112.7933129537
 20
-279.163385892
 10
-105.7103805576
 20
-277.4704922127
 10
-98.7820477232
 20
-275.6156371668
 10
-92.022267191
 20
-273.6025561856
 10
-85.4446522593
 20
-271.4353033462
 10
-79.0624493692
 20
-269.1182432076
 10
-72.888511428
 20
-266.6560420204
 10
-66.935271925
 20
-264.0536583301
 10
-61.2147198924
 20
-261.3163329912
 10
-55.7383757606
 20
-258.4495786126
 10
-50.5172681578
 20
-255.4591684561
 10
-45.5619117001
 20
-252.3511248098
 10
-40.8822858157
 20
-249.13170686
 10
-36.4878146485
 20
-245.807398086
 10
-32.3873480785
 20
-242.3848932032
 10
-28.5891438998
 20
-238.871084681
  0
LWPOLYLINE
  5
775
330
721
100
AcDbEntity
  8
0
  6
Continuous
 62
     8
370
    25
100
AcDbPolyline
 90
        3
 70
   128
 43
0.0
 10
-9.4316017808
 20
-197.1365431161
 10
-5.8892442902
 20
-193.4659832469
 10
-4.4585842118
 20
-191.8442620888
  0
LWPOLYLINE
  5
777
330
721
100
AcDbEntity
  8
0
  6
Continuous
 62
     8
370
    25
100
AcDbPolyline
 90
       12
 70
   128
 43
0.0
 10
19.5238262641
 20
-166.2882093949
 10
19.5238219412
 20
-166.3081858473
 10
19.3170581168
 20
-170.6557979314
 10
18.7010169067
 20
-174.9931244871
 10
17.6771490679
 20
-179.309951252
 10
16.2478657757
 20
-183.5961122401
 10
14.4165329456
 20
-187.8415136822
 10
12.1874633065
 20
-192.0361577965
 10
9.5659062448
 20
-196.1701663331
 10
6.5580354416
 20
-200.233803837
 10
3.1709343345
 20
-204.2175005745
 10
-0.587420564
 20
-208.1118750699
  0
LWPOLYLINE
  5
779
330
721
100
AcDbEntity
  8
0
  6
Continuous
 62
     8
370
    25
100
AcDbPolyline
 90
       11
 70
   128
 43
0.0
 10
-0.587420564
 20
-211.5405442727
 10
3.1709343345
 20
-207.6461697773
 10
6.5580354416
 20
-203.6624730398
 10
9.5659062448
 20
-199.598835536
 10
12.1874633065
 20
-195.4648269993
 10
14.4165329456
 20
-191.270182885
 10
16.2478657757
 20
-187.0247814429
 10
17.6771490679
 20
-182.7386204548
 10
18.7010169067
 20
-178.4217936899
 10
19.3170581168
 20
-174.0844671342
 10
19.3697054429
 20
-173.4879384445
  0
LINE
  5
77A
330
721
100
AcDbEntity
  8
0
  6
Continuous
 62
     7
370
    25
100
AcDbLine
 10
18.9240245802
 20
-103.7251391327
 30
0.0
 11
9.2370903022
 21
-101.0924379618
 31
0.0
  0
LINE
  5
77B
330
721
100
AcDbEntity
  8
0
  6
Continuous
 62
     7
370
    25
100
AcDbLine
 10
-356.4778970717
 20
-168.6751813527
 30
0.0
 11
-356.4778970717
 21
-172.1038505556
 31
0.0
  0
LINE
  5
77C
330
721
100
AcDbEntity
  8
0
  6
Continuous
 62
     7
370
    25
100
AcDbLine
 10
-29.5188437149
 20
-216.3038436217
 30
0.0
 11
-1.5171203791
 21
-188.9733032134
 31
0.0
  0
LINE
  5
77D
330
721
100
AcDbEntity
  8
0
  6
Continuous
 62
     7
370
    25
100
AcDbLine
 10
19.5238262642
 20
-144.7733101473
 30
0.0
 11
19.5238262642
 21
-141.3446409445
 31
0.0
  0
LINE
  5
77E
330
721
100
AcDbEntity
  8
0
  6
Continuous
 62
     7
370
    25
100
AcDbLine
 10
-306.5055272775
 20
-94.7683204873
 30
0.0
 11
-334.5072506133
 21
-122.0988608955
 31
0.0
  0
LINE
  5
77F
330
721
100
AcDbEntity
  8
0
  6
Continuous
 62
     7
370
    25
100
AcDbLine
 10
-12.9625453011
 20
-84.419639136
 30
0.0
 11
-154.4694447695
 21
-45.9610959866
 31
0.0
  0
LINE
  5
780
330
721
100
AcDbEntity
  8
0
  6
Continuous
 62
     7
370
    25
100
AcDbLine
 10
-116.6306515918
 20
-284.8295568954
 30
0.0
 11
-116.6306515918
 21
-282.31756535
 31
0.0
  0
LINE
  5
781
330
721
100
AcDbEntity
  8
0
  6
Continuous
 62
     7
370
    25
100
AcDbLine
 10
-132.9564215558
 20
-285.3078584258
 30
0.0
 11
-132.0777115305
 21
-286.7716816854
 31
0.0
  0
LINE
  5
782
330
721
100
AcDbEntity
  8
0
  6
Continuous
 62
     7
370
    25
100
AcDbLine
 10
-356.4778970717
 20
-193.6187498032
 30
0.0
 11
-356.4778970717
 21
-197.047419006
 31
0.0
  0
LINE
  5
783
330
721
100
AcDbEntity
  8
0
  6
Continuous
 62
     7
370
    25
100
AcDbLine
 10
-29.5188437149
 20
-241.2474120721
 30
0.0
 11
-1.5171203791
 21
-213.9168716638
 31
0.0
  0
LINE
  5
784
330
721
100
AcDbEntity
  8
0
  6
Continuous
 62
     7
370
    25
100
AcDbLine
 10
19.5238262641
 20
-169.7168785977
 30
0.0
 11
19.5238262641
 21
-166.2882093949
 31
0.0
  0
LINE
  5
785
330
721
100
AcDbEntity
  8
0
  6
Continuous
 62
     7
370
    25
100
AcDbLine
 10
10.9779417432
 20
-104.6283501463
 30
0.0
 11
18.2543104146
 21
-103.6838786007
 31
0.0
  0
LINE
  5
786
330
721
100
AcDbEntity
  8
0
  6
Continuous
 62
     7
370
    25
100
AcDbLine
 10
-28.5891438998
 20
-210.4988470277
 30
0.0
 11
-28.5891438998
 21
-213.9275162306
 31
0.0
  0
LINE
  5
787
330
721
100
AcDbEntity
  8
0
  6
Continuous
 62
     7
370
    25
100
AcDbLine
 10
-15.5851972179
 20
-85.4979245188
 30
0.0
 11
-157.0920966863
 21
-47.0393813693
 31
0.0
  0
LINE
  5
788
330
721
100
AcDbEntity
  8
0
  6
Continuous
 62
     7
370
    25
100
AcDbLine
 10
-37.4333251166
 20
-199.5235150739
 30
0.0
 11
-9.4316017808
 21
-172.1929746656
 31
0.0
  0
LINE
  5
789
330
721
100
AcDbEntity
  8
0
  6
Continuous
 62
     7
370
    25
100
AcDbLine
 10
-299.5207456909
 20
-93.3529612093
 30
0.0
 11
-327.5224690268
 21
-120.6835016176
 31
0.0
  0
LINE
  5
78A
330
721
100
AcDbEntity
  8
0
  6
Continuous
 62
     7
370
    25
100
AcDbLine
 10
-0.587420564
 20
-183.1683066195
 30
0.0
 11
-28.5891438998
 21
-210.4988470277
 31
0.0
  0
LINE
  5
78B
330
721
100
AcDbEntity
  8
0
  6
Continuous
 62
     7
370
    25
100
AcDbLine
 10
-28.5891438998
 20
-213.9275162306
 30
0.0
 11
-0.587420564
 21
-186.5969758223
 31
0.0
  0
LINE
  5
78C
330
721
100
AcDbEntity
  8
0
  6
Continuous
 62
     7
370
    25
100
AcDbLine
 10
-0.587420564
 20
-183.1683066195
 30
0.0
 11
-0.587420564
 21
-186.5969758223
 31
0.0
  0
LINE
  5
78D
330
721
100
AcDbEntity
  8
0
  6
Continuous
 62
     7
370
    25
100
AcDbLine
 10
19.5237190219
 20
-141.2451435015
 30
0.0
 11
19.5238262642
 21
-141.3446409445
 31
0.0
  0
LINE
  5
78E
330
721
100
AcDbEntity
  8
0
  6
Continuous
 62
     7
370
    25
100
AcDbLine
 10
-28.5891438998
 20
-235.4424154782
 30
0.0
 11
-28.5891438998
 21
-238.871084681
 31
0.0
  0
LINE
  5
78F
330
721
100
AcDbEntity
  8
0
  6
Continuous
 62
     7
370
    25
100
AcDbLine
 10
-37.4333251166
 20
-224.4670835243
 30
0.0
 11
-9.4316017808
 21
-197.1365431161
 31
0.0
  0
LINE
  5
790
330
721
100
AcDbEntity
  8
0
  6
Continuous
 62
     7
370
    25
100
AcDbLine
 10
-0.587420564
 20
-208.1118750699
 30
0.0
 11
-28.5891438998
 21
-235.4424154782
 31
0.0
  0
LINE
  5
791
330
721
100
AcDbEntity
  8
0
  6
Continuous
 62
     7
370
    25
100
AcDbLine
 10
-28.5891438998
 20
-238.871084681
 30
0.0
 11
-0.587420564
 21
-211.5405442727
 31
0.0
  0
LINE
  5
792
330
721
100
AcDbEntity
  8
0
  6
Continuous
 62
     7
370
    25
100
AcDbLine
 10
-0.587420564
 20
-208.1118750699
 30
0.0
 11
-0.587420564
 21
-211.5405442727
 31
0.0
  0
LINE
  5
793
330
721
100
AcDbEntity
  8
0
  6
Continuous
 62
     7
370
    25
100
AcDbLine
 10
19.5237190219
 20
-166.1887119519
 30
0.0
 11
19.5238262641
 21
-166.2882093949
 31
0.0
  0
LINE
  5
794
330
721
100
AcDbEntity
  8
0
  6
Continuous
 62
     8
370
    25
100
AcDbLine
 10
18.2543104146
 20
-103.6838786007
 30
0.0
 11
9.3099356652
 21
-101.2529891985
 31
0.0
  0
LINE
  5
795
330
721
100
AcDbEntity
  8
0
  6
Continuous
 62
     8
370
    25
100
AcDbLine
 10
-132.2737037959
 20
-286.0465901235
 30
0.0
 11
-132.2737037959
 21
-285.2030146572
 31
0.0
  0
LINE
  5
796
330
721
100
AcDbEntity
  8
0
  6
Continuous
 62
     8
370
    25
100
AcDbLine
 10
-132.7373479956
 20
-285.2742156835
 30
0.0
 11
-132.2737037959
 21
-286.0465901235
 31
0.0
  0
ARC
  5
797
330
721
100
AcDbEntity
  8
0
  6
Continuous
 62
     7
370
    25
100
AcDbCircle
 10
-40.7128658481
 20
-211.2173371399
 30
0.0
 40
12.14499328616502
100
AcDbArc
 50
3.391562315
 51
74.3338098233
  0
ARC
  5
798
330
721
100
AcDbEntity
  8
0
  6
Continuous
 62
     7
370
    25
100
AcDbCircle
 10
-91.8585404647
 20
-533.4488914177
 30
0.0
 40
495.4143806085094
100
AcDbArc
 50
100.3963139366
 51
107.4464039832
  0
ARC
  5
799
330
721
100
AcDbEntity
  8
0
  6
Continuous
 62
     7
370
    25
100
AcDbCircle
 10
-171.1400586885
 20
-101.0681068151
 30
0.0
 40
55.82515928960041
100
AcDbArc
 50
75.4252937123
 51
100.4432072218
  0
ARC
  5
79A
330
721
100
AcDbEntity
  8
0
  6
Continuous
 62
     7
370
    25
100
AcDbCircle
 10
-83.7325862043
 20
-138.0478024898
 30
0.0
 40
93.53396004963093
100
AcDbArc
 50
5.739419095
 51
27.2087434322
  0
ARC
  5
79B
330
721
100
AcDbEntity
  8
0
  6
Continuous
 62
     7
370
    25
100
AcDbCircle
 10
-12.7111425123
 20
-183.8867967316
 30
0.0
 40
12.14499328616512
100
AcDbArc
 50
3.391562315
 51
74.3338098233
  0
ARC
  5
79C
330
721
100
AcDbEntity
  8
0
  6
Continuous
 62
     7
370
    25
100
AcDbCircle
 10
-40.7128658481
 20
-236.1609055903
 30
0.0
 40
12.14499328616512
100
AcDbArc
 50
3.391562315
 51
74.3338098233
  0
ARC
  5
79D
330
721
100
AcDbEntity
  8
0
  6
Continuous
 62
     7
370
    25
100
AcDbCircle
 10
-12.7111425123
 20
-208.8303651821
 30
0.0
 40
12.14499328616509
100
AcDbArc
 50
3.391562315
 51
74.3338098233
  0
ARC
  5
79E
330
721
100
AcDbEntity
  8
0
  6
Continuous
 62
     8
370
    25
100
AcDbCircle
 10
-329.7827743278
 20
-127.4723359434
 30
0.0
 40
7.155225472195122
100
AcDbArc
 50
71.5851022678
 51
131.2974658227
  0
ARC
  5
79F
330
721
100
AcDbEntity
  8
0
  6
Continuous
 62
     8
370
    25
100
AcDbCircle
 10
-31.8154960035
 20
-214.035239818
 30
0.0
 40
3.228149976099101
100
AcDbArc
 50
315.3185842024
 51
1.9123191412
  0
ARC
  5
7A0
330
721
100
AcDbEntity
  8
0
  6
Continuous
 62
     8
370
    25
100
AcDbCircle
 10
-3.8140202118
 20
-186.7046494168
 30
0.0
 40
3.228395714670044
100
AcDbArc
 50
315.3544713609
 51
1.9112857848
  0
ARC
  5
7A1
330
721
100
AcDbEntity
  8
0
  6
Continuous
 62
     8
370
    25
100
AcDbCircle
 10
1.0593087977
 20
-103.5836286683
 30
0.0
 40
8.456937896916704
100
AcDbArc
 50
30.0141823647
 51
100.9594545154
  0
ARC
  5
7A2
330
721
100
AcDbEntity
  8
0
  6
Continuous
 62
     8
370
    25
100
AcDbCircle
 10
-301.8036508362
 20
-100.0294384638
 30
0.0
 40
7.055990676827252
100
AcDbArc
 50
71.12277008
 51
131.7872519911
  0
ARC
  5
7A3
330
721
100
AcDbEntity
  8
0
  6
Continuous
 62
     8
370
    25
100
AcDbCircle
 10
-242.7231295542
 20
-62.9283551488
 30
0.0
 40
3.141151861698802
100
AcDbArc
 50
42.0457397641
 51
102.6565483487
  0
ARC
  5
7A4
330
721
100
AcDbEntity
  8
0
  6
Continuous
 62
     8
370
    25
100
AcDbCircle
 10
-13.3983708976
 20
-87.0884304559
 30
0.0
 40
2.704055933438663
100
AcDbArc
 50
80.7074048094
 51
143.9711392792
  0
ARC
  5
7A5
330
721
100
AcDbEntity
  8
0
  6
Continuous
 62
     8
370
    25
100
AcDbCircle
 10
-154.9050182007
 20
-48.6302815043
 30
0.0
 40
2.704491734411418
100
AcDbArc
 50
80.7318299956
 51
143.9675277132
  0
ARC
  5
7A6
330
721
100
AcDbEntity
  8
0
  6
Continuous
 62
     8
370
    25
100
AcDbCircle
 10
-183.2074951473
 20
-47.0372281988
 30
0.0
 40
2.133738723397651
100
AcDbArc
 50
24.0491124886
 51
86.6553973884
  0
ARC
  5
7A7
330
721
100
AcDbEntity
  8
0
  6
Continuous
 62
     8
370
    25
100
AcDbCircle
 10
-130.8813817381
 20
-286.0592837828
 30
0.0
 40
1.392379919961975
100
AcDbArc
 50
179.4776546468
 51
210.7476617324
  0
ARC
  5
7A8
330
721
100
AcDbEntity
  8
0
  6
Continuous
 62
     8
370
    25
100
AcDbCircle
 10
-31.8154960035
 20
-238.9788082684
 30
0.0
 40
3.228149976099094
100
AcDbArc
 50
315.3185842024
 51
1.9123191412
  0
ARC
  5
7A9
330
721
100
AcDbEntity
  8
0
  6
Continuous
 62
     8
370
    25
100
AcDbCircle
 10
-3.8140202118
 20
-211.6482178672
 30
0.0
 40
3.228395714669564
100
AcDbArc
 50
315.3544713609
 51
1.9112857848
  0
ARC
  5
7AA
330
721
100
AcDbEntity
  8
0
  6
Continuous
 62
     8
370
    25
100
AcDbCircle
 10
11.7639863337
 20
-162.006926933
 30
0.0
 40
7.560267170891743
100
AcDbArc
 50
5.529576782
 51
35.180934237
  0
VIEWPORT
  5
836
330
721
100
AcDbEntity
  8
0
100
AcDbViewport
 10
0.0
 20
0.0
 30
0.0
 40
205.6
 41
156.0
 68
     1
 69
     1
 12
0.0
 22
-10.25
 13
0.0
 23
0.0
 14
10.0
 24
10.0
 15
10.0
 25
10.0
 16
0.0
 26
0.0
 36
1.0
 17
0.0
 27
0.0
 37
0.0
 42
50.0
 43
0.0
 44
0.0
 45
269.3276264591
 50
0.0
 51
0.0
 72
   100
 90
   557152
  1

281
     0
 71
     1
 74
     0
110
0.0
120
0.0
130
0.0
111
1.0
121
0.0
131
0.0
112
0.0
122
1.0
132
0.0
 79
     0
146
0.0
  0
ENDBLK
  5
724
330
721
100
AcDbEntity
  8
0
100
AcDbBlockEnd
  0
BLOCK
  5
7AD
330
7AB
100
AcDbEntity
  8
0
100
AcDbBlockBegin
  2
*Paper_Space6
 70
     0
 10
0.0
 20
0.0
 30
0.0
  3
*Paper_Space6
  1

  0
SPLINE
  5
7AF
330
7AB
100
AcDbEntity
  8
0
  6
Continuous
 62
     7
370
    25
100
AcDbSpline
210
0.0
220
0.0
230
1.0
 70
     8
 71
     3
 72
    17
 73
    13
 74
     0
 42
0.000000001
 43
0.00000001
 40
0.0
 40
0.0
 40
0.0
 40
0.0
 40
0.062938072416559
 40
0.1833763522595153
 40
0.3023133449787594
 40
0.4185350482524631
 40
0.5313490441148846
 40
0.6404697394860662
 40
0.7460696303505162
 40
0.8486900619724908
 40
0.9491002243399861
 40
1.0
 40
1.0
 40
1.0
 40
1.0
 10
-298.2617068307669
 20
-84.71718502634052
 30
0.0
 10
-298.7873523736434
 20
-85.19068584329597
 30
0.0
 10
-300.3188730976369
 20
-86.57027770671544
 30
0.0
 10
-302.6286041471145
 20
-88.93421007370212
 30
0.0
 10
-305.0686125578007
 20
-91.8362122386198
 30
0.0
 10
-307.156569889598
 20
-94.80940089250828
 30
0.0
 10
-308.8854668064766
 20
-97.82882298690464
 30
0.0
 10
-310.2507770757117
 20
-100.8747829434486
 30
0.0
 10
-311.264488475853
 20
-103.9297527330517
 30
0.0
 10
-311.9140340066539
 20
-106.9800081329977
 30
0.0
 10
-312.2301717636253
 20
-109.5310383399321
 30
0.0
 10
-312.2072906210276
 20
-111.0575034724266
 30
0.0
 10
-312.1995935388645
 20
-111.5709973896779
 30
0.0
  0
SPLINE
  5
7B1
330
7AB
100
AcDbEntity
  8
0
  6
Continuous
 62
     7
370
    25
100
AcDbSpline
210
0.0
220
0.0
230
1.0
 70
     8
 71
     3
 72
    72
 73
    68
 74
     0
 42
0.000000001
 43
0.00000001
 40
0.0
 40
0.0
 40
0.0
 40
0.0
 40
0.0113421048205655
 40
0.0254079491336311
 40
0.0395387055939305
 40
0.0538358793459319
 40
0.0683767793764171
 40
0.0832043175023853
 40
0.0983218433904441
 40
0.113696334165527
 40
0.1292704887724328
 40
0.1449792613191869
 40
0.1607639283044723
 40
0.1765794519358456
 40
0.1923905290366031
 40
0.2081800829093803
 40
0.2239408154289056
 40
0.239670177310635
 40
0.2553683829347649
 40
0.2710371286776817
 40
0.2866788108144667
 40
0.3022960697890667
 40
0.3178915374499996
 40
0.3334677063441751
 40
0.3490268703921134
 40
0.3645711060765562
 40
0.3801022757088114
 40
0.3956220419507966
 40
0.4111318873637138
 40
0.4266331354948769
 40
0.4421269716335395
 40
0.4576144623128749
 40
0.473096573178578
 40
0.4885741851505497
 40
0.5040481089686636
 40
0.519519098297617
 40
0.5349878616032123
 40
0.5504550730250378
 40
0.5659213824703909
 40
0.5813874251488753
 40
0.5968537245161358
 40
0.6123208089648586
 40
0.627789319792137
 40
0.643259917196389
 40
0.6587332899731779
 40
0.6742101658621933
 40
0.6896913227559772
 40
0.7051776010037191
 40
0.7206699170456683
 40
0.7361692786038886
 40
0.7516768016199
 40
0.7671937290496392
 40
0.7827214514642814
 40
0.7982615291051397
 40
0.8138157145031101
 40
0.8293859738374995
 40
0.8449745036071867
 40
0.8605837364781976
 40
0.8762163256368986
 40
0.89187508946427
 40
0.9075628860676768
 40
0.923282367563719
 40
0.939035533709702
 40
0.9548229608001171
 40
0.9706425270339261
 40
0.9864874097679953
 40
1.0
 40
1.0
 40
1.0
 40
1.0
 10
-312.2145398432781
 20
-115.3251644529257
 30
0.0
 10
-312.2044244279891
 20
-116.0619835538067
 30
0.0
 10
-312.1817644401656
 20
-117.7125645114018
 30
0.0
 10
-311.7694224451902
 20
-120.2646569249847
 30
0.0
 10
-311.053052057491
 20
-122.9684453222089
 30
0.0
 10
-310.0173545388351
 20
-125.6467911849598
 30
0.0
 10
-308.6715764357166
 20
-128.301435990498
 30
0.0
 10
-307.0078122367885
 20
-130.9318560692828
 30
0.0
 10
-305.0232451523083
 20
-133.5343563884652
 30
0.0
 10
-302.7171015552275
 20
-136.1021384309398
 30
0.0
 10
-300.0933250013557
 20
-138.6264843874144
 30
0.0
 10
-297.1598185777317
 20
-141.0984179409301
 30
0.0
 10
-293.9271128260894
 20
-143.5100964127958
 30
0.0
 10
-290.4070501673767
 20
-145.8552262164297
 30
0.0
 10
-286.6112907772499
 20
-148.1293515891917
 30
0.0
 10
-282.5506552264242
 20
-150.3294676080506
 30
0.0
 10
-278.2346044466827
 20
-152.453673474593
 30
0.0
 10
-273.6719474977154
 20
-154.5004398946001
 30
0.0
 10
-268.8712767001977
 20
-156.468286779111
 30
0.0
 10
-263.8411803434487
 20
-158.355674902483
 30
0.0
 10
-258.5903969591778
 20
-160.1609668501792
 30
0.0
 10
-253.1279179218866
 20
-161.8824273464849
 30
0.0
 10
-247.4630501812364
 20
-163.5182434674914
 30
0.0
 10
-241.6054502173251
 20
-165.0665532010855
 30
0.0
 10
-235.5651379586602
 20
-166.5254760168854
 30
0.0
 10
-229.3524970215047
 20
-167.8931422332145
 30
0.0
 10
-222.9782657096649
 20
-169.1677197394398
 30
0.0
 10
-216.4535218040104
 20
-170.3474375862729
 30
0.0
 10
-209.7896631832518
 20
-171.4306064403642
 30
0.0
 10
-202.9983856427624
 20
-172.415636122043
 30
0.0
 10
-196.0916588237829
 20
-173.3010505276841
 30
0.0
 10
-189.0817008618646
 20
-174.0855002493934
 30
0.0
 10
-181.9809521615152
 20
-174.7677731820584
 30
0.0
 10
-174.8020485703323
 20
-175.3468033714257
 30
0.0
 10
-167.5577941373974
 20
-175.8216783170043
 30
0.0
 10
-160.2611335823894
 20
-176.1916449051594
 30
0.0
 10
-152.9251245636545
 20
-176.4561141127928
 30
0.0
 10
-145.5629098077377
 20
-176.614664590926
 30
0.0
 10
-138.1876891488786
 20
-176.6670452101733
 30
0.0
 10
-130.8127083952031
 20
-176.6131767488611
 30
0.0
 10
-123.4512309089535
 20
-176.4531538451772
 30
0.0
 10
-116.1164929507711
 20
-176.187245419042
 30
0.0
 10
-108.8216588307939
 20
-175.8158922612316
 30
0.0
 10
-101.5797938103563
 20
-175.3397036110711
 30
0.0
 10
-94.40385257329221
 20
-174.7594543782297
 30
0.0
 10
-87.30665140931296
 20
-174.076080930375
 30
0.0
 10
-80.30084052087452
 20
-173.2906757027836
 30
0.0
 10
-73.39887649928696
 20
-172.4044804965655
 30
0.0
 10
-66.61299502699136
 20
-171.4188782917148
 30
0.0
 10
-59.9551838887168
 20
-170.3353833525174
 30
0.0
 10
-53.43715641370358
 20
-169.1556293440024
 30
0.0
 10
-47.07032553168969
 20
-167.8813551079981
 30
0.0
 10
-40.86577872228484
 20
-166.5143876642127
 30
0.0
 10
-34.8342542707582
 20
-165.0566219117443
 30
0.0
 10
-28.98611950298902
 20
-163.509996399212
 30
0.0
 10
-23.3313518558908
 20
-161.8764644853401
 30
0.0
 10
-17.87952470427057
 20
-160.1579600276086
 30
0.0
 10
-12.63979852585301
 20
-158.3563573518036
 30
0.0
 10
-7.620926945480805
 20
-156.4734235500812
 30
0.0
 10
-2.831259524557289
 20
-154.5107695256959
 30
0.0
 10
1.721164887834997
 20
-152.4697796155252
 30
0.0
 10
6.028747690617175
 20
-150.3516089381923
 30
0.0
 10
10.08345710892211
 20
-148.1569473564588
 30
0.0
 10
13.87947225178005
 20
-145.8867440230271
 30
0.0
 10
17.40234315356515
 20
-143.5395467445598
 30
0.0
 10
20.50719990366723
 20
-141.2411414706996
 30
0.0
 10
22.3189362160984
 20
-139.6946589520691
 30
0.0
 10
23.15283804499954
 20
-138.9828475301745
 30
0.0
  0
SPLINE
  5
7B3
330
7AB
100
AcDbEntity
  8
0
  6
Continuous
 62
     7
370
    25
100
AcDbSpline
210
0.0
220
0.0
230
1.0
 70
     8
 71
     3
 72
    13
 73
     9
 74
     0
 42
0.000000001
 43
0.00000001
 40
0.0
 40
0.0
 40
0.0
 40
0.0
 40
0.1024369715563454
 40
0.3075683071783139
 40
0.5131057208867972
 40
0.7208935437221706
 40
0.9326420226028025
 40
1.0
 40
1.0
 40
1.0
 40
1.0
 10
56.93402813960585
 20
-92.84322318002636
 30
0.0
 10
56.94188899562319
 20
-92.346196518166
 30
0.0
 10
56.96549131558154
 20
-90.85386765790871
 30
0.0
 10
56.66205940243729
 20
-88.37427785614823
 30
0.0
 10
56.05099906337257
 20
-85.43169646682125
 30
0.0
 10
55.1159667681973
 20
-82.53079055418887
 30
0.0
 10
54.17874644640263
 20
-80.33893884288493
 30
0.0
 10
53.55341012258541
 20
-79.1164064015197
 30
0.0
 10
53.40249498243765
 20
-78.82136731983375
 30
0.0
  0
SPLINE
  5
7B5
330
7AB
100
AcDbEntity
  8
0
  6
Continuous
 62
     7
370
    25
100
AcDbSpline
210
0.0
220
0.0
230
1.0
 70
     8
 71
     3
 72
    17
 73
    13
 74
     0
 42
0.000000001
 43
0.00000001
 40
0.0
 40
0.0
 40
0.0
 40
0.0
 40
0.0625582223067181
 40
0.1824241561440008
 40
0.3016944628002335
 40
0.41973193747129
 40
0.5359957088524682
 40
0.6500594794049664
 40
0.761762557767639
 40
0.8712918067789437
 40
0.9791593105981945
 40
1.0
 40
1.0
 40
1.0
 40
1.0
 10
44.36604147572956
 20
-120.2745606001429
 30
0.0
 10
44.8539837912465
 20
-119.8351487703684
 30
0.0
 10
46.27685774566787
 20
-118.5537931101436
 30
0.0
 10
48.40782667504504
 20
-116.3762772575055
 30
0.0
 10
50.64622555190712
 20
-113.7223793546728
 30
0.0
 10
52.55417250595007
 20
-111.0125663075267
 30
0.0
 10
54.12706262664923
 20
-108.261993543854
 30
0.0
 10
55.35569402335022
 20
-105.4854986302509
 30
0.0
 10
56.25083682775164
 20
-102.6983003848876
 30
0.0
 10
56.78027279286324
 20
-99.91411260922777
 30
0.0
 10
57.00516730007804
 20
-97.87704755412544
 30
0.0
 10
56.95682033179678
 20
-96.77672769321146
 30
0.0
 10
56.94899189349575
 20
-96.59856168924492
 30
0.0
  0
SPLINE
  5
7B7
330
7AB
100
AcDbEntity
  8
0
  6
Continuous
 62
     7
370
    25
100
AcDbSpline
210
0.0
220
0.0
230
1.0
 70
     8
 71
     3
 72
    15
 73
    11
 74
     0
 42
0.000000001
 43
0.00000001
 40
0.0
 40
0.0
 40
0.0
 40
0.0
 40
0.0807435173384351
 40
0.2259754357902134
 40
0.372690347481888
 40
0.5213942237051834
 40
0.671803691046469
 40
0.823577688855027
 40
0.9691514089791506
 40
1.0
 40
1.0
 40
1.0
 40
1.0
 10
53.40249498243762
 20
-78.8213673198338
 30
0.0
 10
53.02861489744554
 20
-78.1265547127333
 30
0.0
 10
51.98224340008755
 20
-76.18199511392409
 30
0.0
 10
50.01772274056584
 20
-73.03730129121715
 30
0.0
 10
47.41777238059214
 20
-69.39562761738615
 30
0.0
 10
44.49145133489912
 20
-65.79335738047443
 30
0.0
 10
41.24318292733198
 20
-62.2304236919706
 30
0.0
 10
37.73030193374394
 20
-58.77101080495684
 30
0.0
 10
34.95887114543811
 20
-56.2883825539504
 30
0.0
 10
33.39963885646024
 20
-54.97242034735878
 30
0.0
 10
33.12699692768714
 20
-54.74231577812047
 30
0.0
  0
SPLINE
  5
7B8
330
7AB
100
AcDbEntity
  8
0
  6
Continuous
 62
     7
370
    25
100
AcDbSpline
210
0.0
220
0.0
230
1.0
 70
     8
 71
     3
 72
    20
 73
    16
 74
     0
 42
0.000000001
 43
0.00000001
 40
0.0
 40
0.0
 40
0.0
 40
0.0
 40
0.0429323984319563
 40
0.1252080882591085
 40
0.2076483130952686
 40
0.2903205287330528
 40
0.3732545870490613
 40
0.4564816143262518
 40
0.5400317564558565
 40
0.6239299058667755
 40
0.7081879575607976
 40
0.7927915047483877
 40
0.8776783434993766
 40
0.9626935332224041
 40
1.0
 40
1.0
 40
1.0
 40
1.0
 10
-222.1628463640738
 20
-40.51601332890024
 30
0.0
 10
-223.1808229137289
 20
-40.79184168370967
 30
0.0
 10
-226.1496507064956
 20
-41.59626776412249
 30
0.0
 10
-230.9230140541901
 20
-42.99883182598405
 30
0.0
 10
-236.4107960597247
 20
-44.7533143461872
 30
0.0
 10
-241.6923267164928
 20
-46.60054840113092
 30
0.0
 10
-246.7638246395178
 20
-48.53920106760749
 30
0.0
 10
-251.6168184973874
 20
-50.57017670308748
 30
0.0
 10
-256.2441170808054
 20
-52.69448015606402
 30
0.0
 10
-260.6382857215287
 20
-54.91392970437349
 30
0.0
 10
-264.7911414064282
 20
-57.23118039000205
 30
0.0
 10
-268.6949808690663
 20
-59.64887376232281
 30
0.0
 10
-272.3345275419119
 20
-62.17184044762088
 30
0.0
 10
-275.0821102211247
 20
-64.30580431383983
 30
0.0
 10
-276.5889403838576
 20
-65.61087041603565
 30
0.0
 10
-277.048503400037
 20
-66.00889809630901
 30
0.0
  0
SPLINE
  5
7B9
330
7AB
100
AcDbEntity
  8
0
  6
Continuous
 62
     7
370
    25
100
AcDbSpline
210
0.0
220
0.0
230
1.0
 70
     8
 71
     3
 72
    16
 73
    12
 74
     0
 42
0.000000001
 43
0.00000001
 40
0.0
 40
0.0
 40
0.0
 40
0.0
 40
0.0710219287711685
 40
0.186191301285335
 40
0.309318422462642
 40
0.4393396799118801
 40
0.5686521247085403
 40
0.6946540765960146
 40
0.8175536734175446
 40
0.9380839436833733
 40
1.0
 40
1.0
 40
1.0
 40
1.0
 10
33.12699692768719
 20
-54.74231577812047
 30
0.0
 10
32.72887072822292
 20
-54.42347329114591
 30
0.0
 10
31.68514189071314
 20
-53.58759487187455
 30
0.0
 10
29.80697085014622
 20
-52.39543798168905
 30
0.0
 10
27.41023065006778
 20
-51.15360412705321
 30
0.0
 10
24.72526355003263
 20
-50.039985474713
 30
0.0
 10
21.81870407740483
 20
-49.06876143879998
 30
0.0
 10
18.77550718527232
 20
-48.25033549338953
 30
0.0
 10
15.63283785056091
 20
-47.57708498215651
 30
0.0
 10
12.91821287759903
 20
-47.11601597774713
 30
0.0
 10
11.24395610015125
 20
-46.89463678154406
 30
0.0
 10
10.67577049256599
 20
-46.81950823806395
 30
0.0
  0
SPLINE
  5
7BB
330
7AB
100
AcDbEntity
  8
0
  6
Continuous
 62
     7
370
    25
100
AcDbSpline
210
0.0
220
0.0
230
1.0
 70
     8
 71
     3
 72
    14
 73
    10
 74
     0
 42
0.000000001
 43
0.00000001
 40
0.0
 40
0.0
 40
0.0
 40
0.0
 40
0.0803895544097117
 40
0.233361999094245
 40
0.3863964744676973
 40
0.5395119789549472
 40
0.6927169264569568
 40
0.8460204742531955
 40
1.0
 40
1.0
 40
1.0
 40
1.0
 10
-166.099972820617
 20
-28.46315283819136
 30
0.0
 10
-167.6897907944439
 20
-28.73561265833251
 30
0.0
 10
-172.3048568100779
 20
-29.52653342867222
 30
0.0
 10
-179.8357420527837
 20
-30.90907986612595
 30
0.0
 10
-188.63603225781
 20
-32.64107180028504
 30
0.0
 10
-197.2766956829713
 20
-34.46737481058183
 30
0.0
 10
-205.74768524903
 20
-36.38714638472179
 30
0.0
 10
-214.0686760373634
 20
-38.39408975116919
 30
0.0
 10
-219.4608356002712
 20
-39.80766891365169
 30
0.0
 10
-222.1628463640737
 20
-40.51601332890024
 30
0.0
  0
SPLINE
  5
7BC
330
7AB
100
AcDbEntity
  8
0
  6
Continuous
 62
     7
370
    25
100
AcDbSpline
210
0.0
220
0.0
230
1.0
 70
     8
 71
     3
 72
    16
 73
    12
 74
     0
 42
0.000000001
 43
0.00000001
 40
0.0
 40
0.0
 40
0.0
 40
0.0
 40
0.065059561191519
 40
0.1886168780516385
 40
0.3114936369156203
 40
0.4339441222761547
 40
0.5562757824856382
 40
0.6787331707444689
 40
0.8015673368992549
 40
0.9251081105396678
 40
1.0
 40
1.0
 40
1.0
 40
1.0
 10
-138.9905249832966
 20
-27.96332741523493
 30
0.0
 10
-139.5640464001653
 20
-27.89460461193998
 30
0.0
 10
-141.2267661782327
 20
-27.69536747644352
 30
0.0
 10
-144.0417542846484
 20
-27.45384294216996
 30
0.0
 10
-147.4287010853307
 20
-27.27785626809865
 30
0.0
 10
-150.8354977426688
 20
-27.21978765761211
 30
0.0
 10
-154.2379685208462
 20
-27.27731380129006
 30
0.0
 10
-157.6152877231609
 20
-27.45015918645962
 30
0.0
 10
-160.943494654873
 20
-27.74036434223
 30
0.0
 10
-163.7739858039278
 20
-28.08727212533087
 30
0.0
 10
-165.4626441909428
 20
-28.36016019982775
 30
0.0
 10
-166.099972820617
 20
-28.46315283819134
 30
0.0
  0
SPLINE
  5
7BF
330
7AB
100
AcDbEntity
  8
0
  6
Continuous
 62
     7
370
    25
100
AcDbSpline
210
0.0
220
0.0
230
1.0
 70
     8
 71
     3
 72
    19
 73
    15
 74
     0
 42
0.000000001
 43
0.00000001
 40
0.0
 40
0.0
 40
0.0
 40
0.0
 40
0.0042718918809091
 40
0.0821324874070908
 40
0.1551367323793675
 40
0.2307175963665656
 40
0.3172038639974344
 40
0.4223077544157549
 40
0.5375929397015186
 40
0.6477379463836911
 40
0.7545258033366239
 40
0.8600541916726533
 40
0.9657407111523454
 40
1.0
 40
1.0
 40
1.0
 40
1.0
 10
-296.0328956256134
 20
-173.4115166205227
 30
0.0
 10
-296.0354229158862
 20
-173.4280032114753
 30
0.0
 10
-296.0840132459539
 20
-173.7449786316283
 30
0.0
 10
-295.898353288107
 20
-174.3608825974698
 30
0.0
 10
-295.4994540068208
 20
-175.1114130913044
 30
0.0
 10
-294.9005529790932
 20
-175.7222971886207
 30
0.0
 10
-294.1163895382129
 20
-176.246102417841
 30
0.0
 10
-293.0731207132173
 20
-176.7011093417359
 30
0.0
 10
-291.7673645958719
 20
-177.0625951538505
 30
0.0
 10
-290.2926889277631
 20
-177.3030438715517
 30
0.0
 10
-288.7621867347624
 20
-177.4183873872425
 30
0.0
 10
-287.2228048971115
 20
-177.4136469584871
 30
0.0
 10
-286.0579105283669
 20
-177.3229005975426
 30
0.0
 10
-285.4284206366381
 20
-177.2338842699562
 30
0.0
 10
-285.2743190148377
 20
-177.2120927199599
 30
0.0
  0
SPLINE
  5
7C1
330
7AB
100
AcDbEntity
  8
0
  6
Continuous
 62
     7
370
    25
100
AcDbSpline
210
0.0
220
0.0
230
1.0
 70
     8
 71
     3
 72
    21
 73
    17
 74
     0
 42
0.000000001
 43
0.00000001
 40
0.0
 40
0.0
 40
0.0
 40
0.0
 40
0.0457739488096465
 40
0.12692605825884
 40
0.2120994579364017
 40
0.2934574877932671
 40
0.3724255124465334
 40
0.4505223635723836
 40
0.5287697348838739
 40
0.6079132340669164
 40
0.689396620016724
 40
0.775969320587826
 40
0.8455046114495127
 40
0.9041816964509661
 40
0.9597394748308928
 40
1.0
 40
1.0
 40
1.0
 40
1.0
 10
-69.06291529623364
 20
-204.2705067412033
 30
0.0
 10
-68.88091113636875
 20
-204.3927850673957
 30
0.0
 10
-68.37623388655514
 20
-204.7318492372498
 30
0.0
 10
-67.39072011466733
 20
-205.1431122497247
 30
0.0
 10
-66.06154668440082
 20
-205.5056919613808
 30
0.0
 10
-64.58206828946302
 20
-205.7389052502992
 30
0.0
 10
-63.05049643846607
 20
-205.8481184652949
 30
0.0
 10
-61.51063795605189
 20
-205.8382402194453
 30
0.0
 10
-60.00882207761873
 20
-205.7117528561563
 30
0.0
 10
-58.58862672230435
 20
-205.4679203598112
 30
0.0
 10
-57.27826866276524
 20
-205.0965085565142
 30
0.0
 10
-56.20262598976056
 20
-204.6108476748637
 30
0.0
 10
-55.36979344777316
 20
-204.0085885821774
 30
0.0
 10
-54.79335963529569
 20
-203.3069976750011
 30
0.0
 10
-54.44696057656455
 20
-202.560589967359
 30
0.0
 10
-54.43795195647213
 20
-202.0488399244353
 30
0.0
 10
-54.43416675299289
 20
-201.833814979093
 30
0.0
  0
SPLINE
  5
7C3
330
7AB
100
AcDbEntity
  8
0
  6
Continuous
 62
     7
370
    25
100
AcDbSpline
210
0.0
220
0.0
230
1.0
 70
     8
 71
     3
 72
    12
 73
     8
 74
     0
 42
0.000000001
 43
0.00000001
 40
0.0
 40
0.0
 40
0.0
 40
0.0
 40
0.1451638355411445
 40
0.396243134248312
 40
0.6402383296386314
 40
0.8789782842344221
 40
1.0
 40
1.0
 40
1.0
 40
1.0
 10
-309.449818289941
 20
-126.6590516774037
 30
0.0
 10
-309.7130007893741
 20
-127.2232702629974
 30
0.0
 10
-310.4313908626722
 20
-128.7633765844059
 30
0.0
 10
-311.2559153399358
 20
-131.3686252987009
 30
0.0
 10
-311.9162879632928
 20
-134.4149284812728
 30
0.0
 10
-312.2299197385725
 20
-136.9668734475787
 30
0.0
 10
-312.2072271818469
 20
-138.4932697405066
 30
0.0
 10
-312.1995935388651
 20
-139.0067405005317
 30
0.0
  0
SPLINE
  5
7C5
330
7AB
100
AcDbEntity
  8
0
  6
Continuous
 62
     7
370
    25
100
AcDbSpline
210
0.0
220
0.0
230
1.0
 70
     8
 71
     3
 72
    72
 73
    68
 74
     0
 42
0.000000001
 43
0.00000001
 40
0.0
 40
0.0
 40
0.0
 40
0.0
 40
0.0113421048205655
 40
0.0254079491336311
 40
0.0395387055939305
 40
0.0538358793459319
 40
0.0683767793764171
 40
0.0832043175023853
 40
0.098321843390444
 40
0.113696334165527
 40
0.1292704887724327
 40
0.144979261319187
 40
0.1607639283044739
 40
0.1765794519358428
 40
0.1923905290366035
 40
0.2081800829093773
 40
0.2239408154289069
 40
0.2396701773106336
 40
0.255368382934762
 40
0.2710371286776827
 40
0.2866788108144655
 40
0.3022960697890635
 40
0.3178915374499949
 40
0.3334677063441688
 40
0.3490268703921054
 40
0.3645711060765576
 40
0.3801022757088107
 40
0.3956220419507995
 40
0.411131887363715
 40
0.4266331354948708
 40
0.4421269716335427
 40
0.4576144623128763
 40
0.4730965731785827
 40
0.4885741851505526
 40
0.5040481089686699
 40
0.5195190982976214
 40
0.5349878616032202
 40
0.5504550730250436
 40
0.5659213824703999
 40
0.5813874251488765
 40
0.5968537245161292
 40
0.6123208089648566
 40
0.6277893197921327
 40
0.6432599171963885
 40
0.658733289973181
 40
0.6742101658621938
 40
0.6896913227559756
 40
0.7051776010037162
 40
0.7206699170456686
 40
0.7361692786038906
 40
0.7516768016199039
 40
0.7671937290496428
 40
0.782721451464285
 40
0.7982615291051443
 40
0.8138157145031117
 40
0.8293859738375019
 40
0.84497450360719
 40
0.8605837364782029
 40
0.8762163256369021
 40
0.8918750894642734
 40
0.9075628860676798
 40
0.9232823675637228
 40
0.9390355337097039
 40
0.95482296080012
 40
0.9706425270339287
 40
0.9864874097679989
 40
1.0
 40
1.0
 40
1.0
 40
1.0
 10
-312.2145398432786
 20
-142.7609075637795
 30
0.0
 10
-312.2044244279896
 20
-143.4977266646604
 30
0.0
 10
-312.1817644401662
 20
-145.1483076222555
 30
0.0
 10
-311.7694224451907
 20
-147.7004000358385
 30
0.0
 10
-311.0530520574916
 20
-150.4041884330627
 30
0.0
 10
-310.0173545388356
 20
-153.0825342958135
 30
0.0
 10
-308.6715764357173
 20
-155.7371791013518
 30
0.0
 10
-307.0078122367891
 20
-158.3675991801366
 30
0.0
 10
-305.0232451523088
 20
-160.970099499319
 30
0.0
 10
-302.717101555228
 20
-163.5378815417935
 30
0.0
 10
-300.0933250013562
 20
-166.0622274982682
 30
0.0
 10
-297.1598185777322
 20
-168.5341610517839
 30
0.0
 10
-293.92711282609
 20
-170.9458395236495
 30
0.0
 10
-290.4070501673773
 20
-173.2909693272834
 30
0.0
 10
-286.6112907772509
 20
-175.5650947000453
 30
0.0
 10
-282.5506552264247
 20
-177.7652107189043
 30
0.0
 10
-278.2346044466836
 20
-179.8894165854466
 30
0.0
 10
-273.6719474977162
 20
-181.9361830054538
 30
0.0
 10
-268.8712767001985
 20
-183.9040298899646
 30
0.0
 10
-263.8411803434495
 20
-185.7914180133366
 30
0.0
 10
-258.5903969591787
 20
-187.5967099610328
 30
0.0
 10
-253.1279179218882
 20
-189.3181704573383
 30
0.0
 10
-247.4630501812388
 20
-190.9539865783447
 30
0.0
 10
-241.6054502173282
 20
-192.5022963119387
 30
0.0
 10
-235.5651379586624
 20
-193.9612191277388
 30
0.0
 10
-229.3524970215062
 20
-195.3288853440679
 30
0.0
 10
-222.978265709665
 20
-196.6034628502937
 30
0.0
 10
-216.4535218040103
 20
-197.7831806971266
 30
0.0
 10
-209.7896631832528
 20
-198.866349551218
 30
0.0
 10
-202.9983856427631
 20
-199.8513792328966
 30
0.0
 10
-196.0916588237838
 20
-200.7367936385379
 30
0.0
 10
-189.0817008618638
 20
-201.5212433602472
 30
0.0
 10
-181.9809521615144
 20
-202.2035162929122
 30
0.0
 10
-174.8020485703307
 20
-202.7825464822796
 30
0.0
 10
-167.5577941373959
 20
-203.2574214278582
 30
0.0
 10
-160.2611335823869
 20
-203.6273880160132
 30
0.0
 10
-152.9251245636522
 20
-203.8918572236467
 30
0.0
 10
-145.5629098077346
 20
-204.0504077017798
 30
0.0
 10
-138.1876891488766
 20
-204.1027883210271
 30
0.0
 10
-130.8127083952032
 20
-204.0489198597147
 30
0.0
 10
-123.4512309089553
 20
-203.8888969560312
 30
0.0
 10
-116.1164929507738
 20
-203.6229885298957
 30
0.0
 10
-108.8216588307956
 20
-203.2516353720854
 30
0.0
 10
-101.5797938103572
 20
-202.7754467219249
 30
0.0
 10
-94.40385257329241
 20
-202.1951974890834
 30
0.0
 10
-87.30665140931335
 20
-201.5118240412287
 30
0.0
 10
-80.30084052087572
 20
-200.7264188136374
 30
0.0
 10
-73.39887649928826
 20
-199.8402236074194
 30
0.0
 10
-66.612995026992
 20
-198.8546214025686
 30
0.0
 10
-59.95518388871653
 20
-197.7711264633711
 30
0.0
 10
-53.43715641370285
 20
-196.591372454856
 30
0.0
 10
-47.0703255316888
 20
-195.3170982188516
 30
0.0
 10
-40.86577872228389
 20
-193.9501307750662
 30
0.0
 10
-34.83425427075756
 20
-192.4923650225977
 30
0.0
 10
-28.98611950298863
 20
-190.9457395100656
 30
0.0
 10
-23.33135185589047
 20
-189.3122075961936
 30
0.0
 10
-17.87952470426993
 20
-187.5937031384619
 30
0.0
 10
-12.63979852585234
 20
-185.7921004626569
 30
0.0
 10
-7.620926945480138
 20
-183.9091666609345
 30
0.0
 10
-2.831259524556956
 20
-181.9465126365493
 30
0.0
 10
1.721164887835497
 20
-179.9055227263785
 30
0.0
 10
6.028747690617259
 20
-177.7873520490457
 30
0.0
 10
10.08345710892233
 20
-175.5926904673122
 30
0.0
 10
13.87947225177996
 20
-173.3224871338804
 30
0.0
 10
17.40234315356534
 20
-170.9752898554131
 30
0.0
 10
20.50719990366709
 20
-168.6768845815531
 30
0.0
 10
22.31893621609804
 20
-167.1304020629226
 30
0.0
 10
23.15283804499899
 20
-166.4185906410282
 30
0.0
  0
SPLINE
  5
7C7
330
7AB
100
AcDbEntity
  8
0
  6
Continuous
 62
     7
370
    25
100
AcDbSpline
210
0.0
220
0.0
230
1.0
 70
     8
 71
     3
 72
    12
 73
     8
 74
     0
 42
0.000000001
 43
0.00000001
 40
0.0
 40
0.0
 40
0.0
 40
0.0
 40
0.1174789489118837
 40
0.3527320350937684
 40
0.5884508283934857
 40
0.8267504838059988
 40
1.0
 40
1.0
 40
1.0
 40
1.0
 10
56.93402813960524
 20
-120.27896629088
 30
0.0
 10
56.94184181978967
 20
-119.7819568196241
 30
0.0
 10
56.96530249371093
 20
-118.2896795743752
 30
0.0
 10
56.66376278787466
 20
-115.809400263056
 30
0.0
 10
56.04471086144111
 20
-112.8697309626166
 30
0.0
 10
55.22772042077651
 20
-110.2405064603917
 30
0.0
 10
54.50581696777118
 20
-108.637289923677
 30
0.0
 10
54.20191786506196
 20
-107.9623851771657
 30
0.0
  0
SPLINE
  5
7C9
330
7AB
100
AcDbEntity
  8
0
  6
Continuous
 62
     7
370
    25
100
AcDbSpline
210
0.0
220
0.0
230
1.0
 70
     8
 71
     3
 72
    17
 73
    13
 74
     0
 42
0.000000001
 43
0.00000001
 40
0.0
 40
0.0
 40
0.0
 40
0.0
 40
0.062558222306718
 40
0.1824241561440006
 40
0.3016944628002332
 40
0.4197319374712895
 40
0.5359957088524676
 40
0.6500594794049657
 40
0.761762557767639
 40
0.8712918067789427
 40
0.979159310598202
 40
1.0
 40
1.0
 40
1.0
 40
1.0
 10
44.36604147572901
 20
-147.7103037109967
 30
0.0
 10
44.853983791246
 20
-147.2708918812221
 30
0.0
 10
46.27685774566731
 20
-145.9895362209973
 30
0.0
 10
48.4078266750445
 20
-143.8120203683592
 30
0.0
 10
50.64622555190657
 20
-141.1581224655266
 30
0.0
 10
52.55417250594957
 20
-138.4483094183804
 30
0.0
 10
54.12706262664862
 20
-135.6977366547077
 30
0.0
 10
55.35569402334972
 20
-132.9212417411046
 30
0.0
 10
56.25083682775112
 20
-130.1340434957414
 30
0.0
 10
56.78027279286282
 20
-127.3498557200814
 30
0.0
 10
57.00516730007737
 20
-125.3127906649791
 30
0.0
 10
56.95682033179625
 20
-124.2124708040651
 30
0.0
 10
56.9489918934952
 20
-124.0343048000986
 30
0.0
  0
LWPOLYLINE
  5
7CA
330
7AB
100
AcDbEntity
  8
0
  6
Continuous
 62
     7
370
    25
100
AcDbPolyline
 90
       68
 70
   128
 43
0.0
 10
-291.647328553
 20
-82.7890946102
 10
-294.1964995259
 20
-85.2071970004
 10
-296.4028428934
 20
-87.662470104
 10
-298.261508634
 20
-90.1495166978
 10
-299.7684109971
 20
-92.6628697137
 10
-300.9202374841
 20
-95.1970042562
 10
-301.7144561305
 20
-97.7463497477
 10
-302.1493210713
 20
-100.3053021735
 10
-302.2238763791
 20
-102.8682364007
 10
-301.937958165
 20
-105.4295185438
 10
-301.2921949393
 20
-107.9835183486
 10
-300.2880062298
 20
-110.5246215694
 10
-298.9275994612
 20
-113.0472423098
 10
-297.2139651029
 20
-115.5458353019
 10
-295.1508700949
 20
-118.0149080959
 10
-292.742849568
 20
-120.4490331342
 10
-289.9951968739
 20
-122.8428596815
 10
-286.9139519494
 20
-125.1911255877
 10
-283.5058880397
 20
-127.4886688545
 10
-279.7784968088
 20
-129.7304389832
 10
-275.7399718717
 20
-131.9115080766
 10
-271.3991907826
 20
-134.0270816715
 10
-266.7656955205
 20
-136.0725092779
 10
-261.8496715135
 20
-138.0432946021
 10
-256.6619252493
 20
-139.9351054302
 10
-251.2138605201
 20
-141.7437831514
 10
-245.5174533546
 20
-143.4653518996
 10
-239.5852256919
 20
-145.096027293
 10
-233.430217856
 20
-146.6322247532
 10
-227.0659598899
 20
-148.0705673848
 10
-220.5064418138
 20
-149.4078933985
 10
-213.766082872
 20
-150.6412630615
 10
-206.8596998365
 20
-151.7679651596
 10
-199.8024744358
 20
-152.7855229571
 10
-192.6099199832
 20
-153.6916996411
 10
-185.2978472743
 20
-154.4845032385
 10
-177.8823298318
 20
-155.1621909951
 10
-170.3796685724
 20
-155.7232732059
 10
-162.8063559739
 20
-156.1665164907
 10
-155.179039821
 20
-156.4909465044
 10
-147.51448661
 20
-156.6958500794
 10
-139.8295446922
 20
-156.7807767933
 10
-132.1411072378
 20
-156.7455399586
 10
-124.466075101
 20
-156.5902170337
 10
-116.821319668
 20
-156.3151494519
 10
-109.2236457706
 20
-155.9209418715
 10
-101.6897547447
 20
-155.4084608464
 10
-94.236207718
 20
-154.778832921
 10
-86.8793892044
 20
-154.0334421543
 10
-79.6354710878
 20
-153.1739270767
 10
-72.5203770721
 20
-152.2021770892
 10
-65.5497476783
 20
-151.1203283089
 10
-58.7389058627
 20
-149.9307588744
 10
-52.1028233335
 20
-148.6360837173
 10
-45.6560876406
 20
-147.2391488148
 10
-39.412870108
 20
-145.7430249328
 10
-33.3868946828
 20
-144.1510008764
 10
-27.5914077669
 20
-142.46657626
 10
-22.0391490983
 20
-140.6934538144
 10
-16.7423237464
 20
-138.8355312476
 10
-11.7125752831
 20
-136.8968926766
 10
-6.960960187
 20
-134.8817996498
 10
-2.4979235394
 20
-132.7946817789
 10
1.6667239367
 20
-130.6401270019
 10
5.5238274421
 20
-128.422871498
 10
9.0649082264
 20
-126.1477892758
 10
12.2821822253
 20
-123.81988146
 10
15.1685771725
 20
-121.444265297
  0
LWPOLYLINE
  5
7D0
330
7AB
100
AcDbEntity
  8
0
  6
Continuous
 62
     7
370
    25
100
AcDbPolyline
 90
        9
 70
   128
 43
0.0
 10
26.6994682046
 20
-52.974961261
 10
25.4002278364
 20
-52.0309509288
 10
23.8142538893
 20
-51.1369516907
 10
21.9586544847
 20
-50.3026072408
 10
19.8534462313
 20
-49.5369177686
 10
17.5213383032
 20
-48.8481428729
 10
14.9874874728
 20
-48.2437124642
 10
12.2792267411
 20
-47.7301466173
 10
9.4257704932
 20
-47.3129852385
  0
LWPOLYLINE
  5
7D2
330
7AB
100
AcDbEntity
  8
0
  6
Continuous
 62
     7
370
    25
100
AcDbPolyline
 90
       12
 70
   128
 43
0.0
 10
36.3817806032
 20
-102.7359783669
 10
39.0141043444
 20
-100.2324237077
 10
41.2789583298
 20
-97.6892490056
 10
43.1710089022
 20
-95.1124433541
 10
44.6858003443
 20
-92.5080750462
 10
45.8197653718
 20
-89.8822772843
 10
46.570233534
 20
-87.2412337364
 10
46.935437503
 20
-84.5911639738
 10
46.9145172352
 20
-81.9383088242
 10
46.5075219973
 20
-79.2889156749
 10
45.7154102498
 20
-76.6492237602
 10
44.5400473899
 20
-74.0254494684
  0
LWPOLYLINE
  5
7D5
330
7AB
100
AcDbEntity
  8
0
  6
Continuous
 62
     7
370
    25
100
AcDbPolyline
 90
       12
 70
   128
 43
0.0
 10
-219.582135605
 20
-40.7491822499
 10
-225.6700484546
 20
-42.4578698168
 10
-231.5021085236
 20
-44.2629945286
 10
-237.064581501
 20
-46.1603053756
 10
-242.3443679446
 20
-48.1453342526
 10
-247.3290341297
 20
-50.2134064815
 10
-252.0068413302
 20
-52.3596518197
 10
-256.366773463
 20
-54.5790159295
 10
-260.3985630303
 20
-56.8662722809
 10
-264.0927152992
 20
-59.2160344599
 10
-267.4405306618
 20
-61.6227688532
 10
-270.4341251223
 20
-64.0808076801
  0
LWPOLYLINE
  5
7E1
330
7AB
100
AcDbEntity
  8
0
  6
Continuous
 62
     8
370
    25
100
AcDbPolyline
 90
       63
 70
   128
 43
0.0
 10
24.5227206397
 20
-132.0508670145
 10
21.5988223971
 20
-134.4643166855
 10
18.3530312952
 20
-136.8316094405
 10
14.7918839254
 20
-139.1479778668
 10
10.9225519645
 20
-141.4087571067
 10
6.7528277322
 20
-143.6093942517
 10
2.2911084981
 20
-145.7454575115
 10
-2.4536204289
 20
-147.8126451389
 10
-7.4718037963
 20
-149.8067940931
 10
-12.7533356507
 20
-151.7238884235
 10
-18.2875796896
 20
-153.5600673573
 10
-24.0633906822
 20
-155.3116330745
 10
-30.0691369138
 20
-156.9750581549
 10
-36.2927236107
 20
-158.5469926816
 10
-42.7216172975
 20
-160.0242709877
 10
-49.342871038
 20
-161.4039180314
 10
-56.1431505083
 20
-162.683155387
 10
-63.1087608505
 20
-163.8594068409
 10
-70.2256742525
 20
-164.9303035791
 10
-77.4795581976
 20
-165.8936889581
 10
-84.8558043292
 20
-166.747622848
 10
-92.339557869
 20
-167.4903855395
 10
-99.9157475334
 20
-168.1204812074
 10
-107.5691158848
 20
-168.636640923
 10
-115.2842500577
 20
-169.0378252092
 10
-123.0456127987
 20
-169.3232261343
 10
-130.8375737562
 20
-169.4922689388
 10
-138.6444409577
 20
-169.5446131929
 10
-146.4504924116
 20
-169.4801534824
 10
-154.2400077693
 20
-169.2990196205
 10
-161.9972999833
 20
-169.0015763867
 10
-169.7067468996
 20
-168.5884227921
 10
-177.352822718
 20
-168.060390873
 10
-184.9201292594
 20
-167.4185440155
 10
-192.3934269756
 20
-166.6641748137
 10
-199.7576656394
 20
-165.7988024668
 10
-206.9980146542
 20
-164.8241697194
 10
-214.0998929208
 20
-163.7422393524
 10
-221.0489982014
 20
-162.5551902294
 10
-227.8313359228
 20
-161.2654129094
 10
-234.4332473594
 20
-159.8755048323
 10
-240.8414371402
 20
-158.388265088
 10
-247.0430000238
 20
-156.8066887793
 10
-253.0254468878
 20
-155.1339609906
 10
-258.7767298805
 20
-153.3734503729
 10
-264.2852666833
 20
-151.5287023604
 10
-269.5399638361
 20
-149.6034320299
 10
-274.5302390783
 20
-147.6015166199
 10
-279.2460426595
 20
-145.5269877214
 10
-283.677877579
 20
-143.3840231597
 10
-287.816818711
 20
-141.17693858
 10
-291.6545307789
 20
-138.9101787571
 10
-295.1832851414
 20
-136.5883086436
 10
-298.3959753567
 20
-134.2160041769
 10
-301.2861314944
 20
-131.7980428624
 10
-303.8479331646
 20
-129.3392941525
 10
-306.0762212397
 20
-126.8447096398
 10
-307.9665082439
 20
-124.3193130856
 10
-309.514987391
 20
-121.7681903024
 10
-310.7185402499
 20
-119.196478912
 10
-311.5747430254
 20
-116.609357999
 10
-312.0818714389
 20
-114.0120376804
 10
-312.2393668259
 20
-111.5632840109
  0
LWPOLYLINE
  5
7E3
330
7AB
100
AcDbEntity
  8
0
  6
Continuous
 62
     8
370
    25
100
AcDbPolyline
 90
       63
 70
   128
 43
0.0
 10
-312.2393756903
 20
-115.3160065361
 10
-312.0818714389
 20
-117.7832738469
 10
-311.5747430254
 20
-120.3805941654
 10
-310.7185402499
 20
-122.9677150785
 10
-309.514987391
 20
-125.5394264688
 10
-307.9665082439
 20
-128.090549252
 10
-306.0762212397
 20
-130.6159458062
 10
-303.8479331646
 20
-133.1105303189
 10
-301.2861314944
 20
-135.5692790288
 10
-298.3959753567
 20
-137.9872403433
 10
-295.1832851414
 20
-140.3595448101
 10
-291.6545307789
 20
-142.6814149236
 10
-287.816818711
 20
-144.9481747465
 10
-283.677877579
 20
-147.1552593261
 10
-279.2460426595
 20
-149.2982238879
 10
-274.5302390783
 20
-151.3727527863
 10
-269.5399638361
 20
-153.3746681964
 10
-264.2852666833
 20
-155.2999385268
 10
-258.7767298805
 20
-157.1446865393
 10
-253.0254468878
 20
-158.905197157
 10
-247.0430000238
 20
-160.5779249458
 10
-240.8414371402
 20
-162.1595012544
 10
-234.4332473594
 20
-163.6467409988
 10
-227.8313359228
 20
-165.0366490759
 10
-221.0489982014
 20
-166.3264263959
 10
-214.0998929208
 20
-167.5134755188
 10
-206.9980146542
 20
-168.5954058859
 10
-199.7576656394
 20
-169.5700386332
 10
-192.3934269756
 20
-170.4354109801
 10
-184.9201292594
 20
-171.1897801819
 10
-177.352822718
 20
-171.8316270395
 10
-169.7067468996
 20
-172.3596589585
 10
-161.9972999833
 20
-172.7728125532
 10
-154.2400077693
 20
-173.070255787
 10
-146.4504924116
 20
-173.2513896489
 10
-138.6444409577
 20
-173.3158493594
 10
-130.8375737562
 20
-173.2635051052
 10
-123.0456127987
 20
-173.0944623007
 10
-115.2842500577
 20
-172.8090613756
 10
-107.5691158848
 20
-172.4078770894
 10
-99.9157475334
 20
-171.8917173739
 10
-92.339557869
 20
-171.2616217059
 10
-84.8558043292
 20
-170.5188590144
 10
-77.4795581976
 20
-169.6649251246
 10
-70.2256742525
 20
-168.7015397456
 10
-63.1087608505
 20
-167.6306430074
 10
-56.1431505083
 20
-166.4543915535
 10
-49.342871038
 20
-165.1751541978
 10
-42.7216172975
 20
-163.7955071541
 10
-36.2927236107
 20
-162.318228848
 10
-30.0691369138
 20
-160.7462943213
 10
-24.0633906822
 20
-159.082869241
 10
-18.2875796896
 20
-157.3313035238
 10
-12.7533356507
 20
-155.49512459
 10
-7.4718037963
 20
-153.5780302595
 10
-2.4536204289
 20
-151.5838813053
 10
2.2911084981
 20
-149.5166936779
 10
6.7528277322
 20
-147.3806304182
 10
10.9225519645
 20
-145.1799932732
 10
14.7918839254
 20
-142.9192140333
 10
18.3530312952
 20
-140.6028456069
 10
21.5988223971
 20
-138.235552852
 10
24.5227206397
 20
-135.8221031809
  0
LWPOLYLINE
  5
7E6
330
7AB
100
AcDbEntity
  8
0
  6
Continuous
 62
     8
370
    25
100
AcDbPolyline
 90
        9
 70
   128
 43
0.0
 10
56.9738272553
 20
-92.8408147949
 10
56.9330966348
 20
-94.0913745698
 10
56.5456241312
 20
-96.9030339521
 10
55.7493957152
 20
-99.7051167407
 10
54.5462864787
 20
-102.4910241222
 10
52.9391297047
 20
-105.2541953757
 10
50.931710195
 20
-107.9881233231
 10
48.5287553568
 20
-110.6863696533
 10
45.7359240705
 20
-113.3425800845
  0
LWPOLYLINE
  5
7E8
330
7AB
100
AcDbEntity
  8
0
  6
Continuous
 62
     8
370
    25
100
AcDbPolyline
 90
        9
 70
   128
 43
0.0
 10
45.7359240705
 20
-117.1138162509
 10
48.5287553568
 20
-114.4576058198
 10
50.931710195
 20
-111.7593594895
 10
52.9391297047
 20
-109.0254315422
 10
54.5462864787
 20
-106.2622602887
 10
55.7493957152
 20
-103.4763529072
 10
56.5456241312
 20
-100.6742701185
 10
56.9330966348
 20
-97.8626107362
 10
56.9738277405
 20
-96.6077196061
  0
LWPOLYLINE
  5
7EC
330
7AB
100
AcDbEntity
  8
0
  6
Continuous
 62
     8
370
    25
100
AcDbPolyline
 90
        3
 70
   128
 43
0.0
 10
9.4257704932
 20
-47.3129852385
 10
10.1155189412
 20
-46.8858423986
 10
10.6762355848
 20
-46.8195669339
  0
LWPOLYLINE
  5
7ED
330
7AB
100
AcDbEntity
  8
0
  6
Continuous
 62
     8
370
    25
100
AcDbPolyline
 90
        3
 70
   128
 43
0.0
 10
-140.2405249827
 20
-28.4568044157
 10
-139.5507765346
 20
-28.0296615758
 10
-138.9905249833
 20
-27.9633274152
  0
LWPOLYLINE
  5
7EE
330
7AB
100
AcDbEntity
  8
0
  6
Continuous
 62
     8
370
    25
100
AcDbPolyline
 90
        3
 70
   128
 43
0.0
 10
-164.4309336321
 20
-28.8947940709
 10
-165.3142900551
 20
-28.4961337453
 10
-166.0998377085
 20
-28.4631299719
  0
LWPOLYLINE
  5
7F0
330
7AB
100
AcDbEntity
  8
0
  6
Continuous
 62
     8
370
    25
100
AcDbPolyline
 90
       10
 70
   128
 43
0.0
 10
-296.040539954
 20
-173.4114815346
 10
-295.8816576195
 20
-173.94030347
 10
-295.3320425759
 20
-174.5086490753
 10
-294.4168011441
 20
-175.0219781187
 10
-293.1818273512
 20
-175.4545501385
 10
-291.6890479402
 20
-175.7846741674
 10
-290.0133171039
 20
-175.9957964081
 10
-288.2386629836
 20
-176.0773303099
 10
-286.4540741474
 20
-176.0251874225
 10
-285.8267897495
 20
-175.9740173881
  0
LWPOLYLINE
  5
7F1
330
7AB
100
AcDbEntity
  8
0
  6
Continuous
 62
     8
370
    25
100
AcDbPolyline
 90
       14
 70
   128
 43
0.0
 10
-69.6977514629
 20
-202.9358977055
 10
-68.7825100311
 20
-203.4492267489
 10
-67.5475362383
 20
-203.8817987687
 10
-66.0547568272
 20
-204.2119227976
 10
-64.3790259909
 20
-204.4230450384
 10
-62.6043718707
 20
-204.5045789402
 10
-60.8197830345
 20
-204.4524360527
 10
-59.1147462183
 20
-204.2692310382
 10
-57.5747590878
 20
-203.964150561
 10
-56.277043028
 20
-203.5524926302
 10
-55.286670941
 20
-203.0548994933
 10
-54.6533042187
 20
-202.496322548
 10
-54.4087025133
 20
-201.9047711747
 10
-54.4062488411
 20
-201.8387301649
  0
LWPOLYLINE
  5
7F5
330
7AB
100
AcDbEntity
  8
0
  6
Continuous
 62
     8
370
    25
100
AcDbPolyline
 90
       63
 70
   128
 43
0.0
 10
24.5227206397
 20
-159.4866101253
 10
21.5988223971
 20
-161.9000597964
 10
18.3530312952
 20
-164.2673525514
 10
14.7918839254
 20
-166.5837209777
 10
10.9225519645
 20
-168.8445002176
 10
6.7528277322
 20
-171.0451373626
 10
2.2911084981
 20
-173.1812006224
 10
-2.4536204289
 20
-175.2483882497
 10
-7.4718037963
 20
-177.2425372039
 10
-12.7533356507
 20
-179.1596315344
 10
-18.2875796896
 20
-180.9958104682
 10
-24.0633906822
 20
-182.7473761854
 10
-30.0691369138
 20
-184.4108012657
 10
-36.2927236107
 20
-185.9827357924
 10
-42.7216172975
 20
-187.4600140985
 10
-49.342871038
 20
-188.8396611422
 10
-56.1431505083
 20
-190.1188984979
 10
-63.1087608505
 20
-191.2951499518
 10
-70.2256742525
 20
-192.36604669
 10
-77.4795581976
 20
-193.329432069
 10
-84.8558043292
 20
-194.1833659588
 10
-92.339557869
 20
-194.9261286503
 10
-99.9157475334
 20
-195.5562243183
 10
-107.5691158848
 20
-196.0723840338
 10
-115.2842500577
 20
-196.4735683201
 10
-123.0456127987
 20
-196.7589692451
 10
-130.8375737562
 20
-196.9280120496
 10
-138.6444409577
 20
-196.9803563038
 10
-146.4504924116
 20
-196.9158965933
 10
-154.2400077693
 20
-196.7347627314
 10
-161.9972999833
 20
-196.4373194976
 10
-169.7067468996
 20
-196.024165903
 10
-177.352822718
 20
-195.4961339839
 10
-184.9201292594
 20
-194.8542871264
 10
-192.3934269756
 20
-194.0999179245
 10
-199.7576656394
 20
-193.2345455776
 10
-206.9980146542
 20
-192.2599128303
 10
-214.0998929208
 20
-191.1779824633
 10
-221.0489982014
 20
-189.9909333403
 10
-227.8313359228
 20
-188.7011560203
 10
-234.4332473594
 20
-187.3112479432
 10
-240.8414371402
 20
-185.8240081988
 10
-247.0430000238
 20
-184.2424318902
 10
-253.0254468878
 20
-182.5697041014
 10
-258.7767298805
 20
-180.8091934838
 10
-264.2852666833
 20
-178.9644454712
 10
-269.5399638361
 20
-177.0391751408
 10
-274.5302390783
 20
-175.0372597308
 10
-279.2460426595
 20
-172.9627308323
 10
-283.677877579
 20
-170.8197662705
 10
-287.816818711
 20
-168.6126816909
 10
-291.6545307789
 20
-166.345921868
 10
-295.1832851414
 20
-164.0240517545
 10
-298.3959753567
 20
-161.6517472877
 10
-301.2861314944
 20
-159.2337859732
 10
-303.8479331646
 20
-156.7750372633
 10
-306.0762212397
 20
-154.2804527506
 10
-307.9665082439
 20
-151.7550561964
 10
-309.514987391
 20
-149.2039334132
 10
-310.7185402499
 20
-146.6322220229
 10
-311.5747430254
 20
-144.0451011098
 10
-312.0818714389
 20
-141.4477807913
 10
-312.2393668259
 20
-138.9990271218
  0
LWPOLYLINE
  5
7F6
330
7AB
100
AcDbEntity
  8
0
  6
Continuous
 62
     8
370
    25
100
AcDbPolyline
 90
       57
 70
   128
 43
0.0
 10
-299.8157594244
 20
-138.9158995022
 10
-298.9275994612
 20
-140.4829854206
 10
-297.2139651029
 20
-142.9815784127
 10
-295.1508700949
 20
-145.4506512068
 10
-292.742849568
 20
-147.8847762451
 10
-289.9951968739
 20
-150.2786027924
 10
-286.9139519494
 20
-152.6268686985
 10
-283.5058880397
 20
-154.9244119653
 10
-279.7784968088
 20
-157.1661820941
 10
-275.7399718717
 20
-159.3472511875
 10
-271.3991907826
 20
-161.4628247824
 10
-266.7656955205
 20
-163.5082523888
 10
-261.8496715135
 20
-165.479037713
 10
-256.6619252493
 20
-167.3708485411
 10
-251.2138605201
 20
-169.1795262623
 10
-245.5174533546
 20
-170.9010950105
 10
-239.5852256919
 20
-172.5317704039
 10
-233.430217856
 20
-174.0679678641
 10
-227.0659598899
 20
-175.5063104956
 10
-220.5064418138
 20
-176.8436365093
 10
-213.766082872
 20
-178.0770061724
 10
-206.8596998365
 20
-179.2037082705
 10
-199.8024744358
 20
-180.2212660679
 10
-192.6099199832
 20
-181.1274427519
 10
-185.2978472743
 20
-181.9202463494
 10
-177.8823298318
 20
-182.5979341059
 10
-170.3796685724
 20
-183.1590163168
 10
-162.8063559739
 20
-183.6022596016
 10
-155.179039821
 20
-183.9266896153
 10
-147.51448661
 20
-184.1315931903
 10
-139.8295446922
 20
-184.2165199042
 10
-132.1411072378
 20
-184.1812830695
 10
-124.466075101
 20
-184.0259601445
 10
-116.821319668
 20
-183.7508925627
 10
-109.2236457706
 20
-183.3566849824
 10
-101.6897547447
 20
-182.8442039573
 10
-94.236207718
 20
-182.2145760319
 10
-86.8793892044
 20
-181.4691852651
 10
-79.6354710878
 20
-180.6096701876
 10
-72.5203770721
 20
-179.6379202
 10
-65.5497476783
 20
-178.5560714198
 10
-58.7389058627
 20
-177.3665019852
 10
-52.1028233335
 20
-176.0718268282
 10
-45.6560876406
 20
-174.6748919256
 10
-39.412870108
 20
-173.1787680437
 10
-33.3868946828
 20
-171.5867439873
 10
-27.5914077669
 20
-169.9023193709
 10
-22.0391490983
 20
-168.1291969253
 10
-16.7423237464
 20
-166.2712743585
 10
-11.7125752831
 20
-164.3326357875
 10
-6.960960187
 20
-162.3175427606
 10
-2.4979235394
 20
-160.2304248897
 10
1.6667239367
 20
-158.0758701128
 10
5.5238274421
 20
-155.8586146088
 10
9.0649082264
 20
-153.5835323867
 10
12.2821822253
 20
-151.2556245708
 10
15.1685771725
 20
-148.8800084078
  0
LWPOLYLINE
  5
7F7
330
7AB
100
AcDbEntity
  8
0
  6
Continuous
 62
     8
370
    25
100
AcDbPolyline
 90
       63
 70
   128
 43
0.0
 10
-312.2393756903
 20
-142.751749647
 10
-312.0818714389
 20
-145.2190169577
 10
-311.5747430254
 20
-147.8163372763
 10
-310.7185402499
 20
-150.4034581893
 10
-309.514987391
 20
-152.9751695797
 10
-307.9665082439
 20
-155.5262923629
 10
-306.0762212397
 20
-158.0516889171
 10
-303.8479331646
 20
-160.5462734298
 10
-301.2861314944
 20
-163.0050221397
 10
-298.3959753567
 20
-165.4229834542
 10
-295.1832851414
 20
-167.7952879209
 10
-291.6545307789
 20
-170.1171580344
 10
-287.816818711
 20
-172.3839178573
 10
-283.677877579
 20
-174.591002437
 10
-279.2460426595
 20
-176.7339669987
 10
-274.5302390783
 20
-178.8084958972
 10
-269.5399638361
 20
-180.8104113072
 10
-264.2852666833
 20
-182.7356816376
 10
-258.7767298805
 20
-184.5804296502
 10
-253.0254468878
 20
-186.3409402679
 10
-247.0430000238
 20
-188.0136680566
 10
-240.8414371402
 20
-189.5952443653
 10
-234.4332473594
 20
-191.0824841096
 10
-227.8313359228
 20
-192.4723921867
 10
-221.0489982014
 20
-193.7621695067
 10
-214.0998929208
 20
-194.9492186297
 10
-206.9980146542
 20
-196.0311489967
 10
-199.7576656394
 20
-197.005781744
 10
-192.3934269756
 20
-197.871154091
 10
-184.9201292594
 20
-198.6255232928
 10
-177.352822718
 20
-199.2673701503
 10
-169.7067468996
 20
-199.7954020694
 10
-161.9972999833
 20
-200.208555664
 10
-154.2400077693
 20
-200.5059988978
 10
-146.4504924116
 20
-200.6871327597
 10
-138.6444409577
 20
-200.7515924702
 10
-130.8375737562
 20
-200.6992482161
 10
-123.0456127987
 20
-200.5302054116
 10
-115.2842500577
 20
-200.2448044865
 10
-107.5691158848
 20
-199.8436202003
 10
-99.9157475334
 20
-199.3274604847
 10
-92.339557869
 20
-198.6973648168
 10
-84.8558043292
 20
-197.9546021253
 10
-77.4795581976
 20
-197.1006682354
 10
-70.2256742525
 20
-196.1372828564
 10
-63.1087608505
 20
-195.0663861182
 10
-56.1431505083
 20
-193.8901346643
 10
-49.342871038
 20
-192.6108973087
 10
-42.7216172975
 20
-191.231250265
 10
-36.2927236107
 20
-189.7539719588
 10
-30.0691369138
 20
-188.1820374321
 10
-24.0633906822
 20
-186.5186123518
 10
-18.2875796896
 20
-184.7670466346
 10
-12.7533356507
 20
-182.9308677008
 10
-7.4718037963
 20
-181.0137733704
 10
-2.4536204289
 20
-179.0196244162
 10
2.2911084981
 20
-176.9524367888
 10
6.7528277322
 20
-174.816373529
 10
10.9225519645
 20
-172.615736384
 10
14.7918839254
 20
-170.3549571441
 10
18.3530312952
 20
-168.0385887178
 10
21.5988223971
 20
-165.6712959628
 10
24.5227206397
 20
-163.2578462918
  0
LWPOLYLINE
  5
7FB
330
7AB
100
AcDbEntity
  8
0
  6
Continuous
 62
     8
370
    25
100
AcDbPolyline
 90
        9
 70
   128
 43
0.0
 10
56.9738272553
 20
-120.2765579057
 10
56.9330966348
 20
-121.5271176806
 10
56.5456241312
 20
-124.3387770629
 10
55.7493957152
 20
-127.1408598516
 10
54.5462864787
 20
-129.9267672331
 10
52.9391297047
 20
-132.6899384866
 10
50.931710195
 20
-135.423866434
 10
48.5287553568
 20
-138.1221127642
 10
45.7359240705
 20
-140.7783231953
  0
LWPOLYLINE
  5
7FC
330
7AB
100
AcDbEntity
  8
0
  6
Continuous
 62
     8
370
    25
100
AcDbPolyline
 90
        9
 70
   128
 43
0.0
 10
45.7359240705
 20
-144.5495593617
 10
48.5287553568
 20
-141.8933489306
 10
50.931710195
 20
-139.1951026004
 10
52.9391297047
 20
-136.461174653
 10
54.5462864787
 20
-133.6980033995
 10
55.7493957152
 20
-130.912096018
 10
56.5456241312
 20
-128.1100132294
 10
56.9330966348
 20
-125.2983538471
 10
56.9738277405
 20
-124.0434627169
  0
LINE
  5
7FD
330
7AB
100
AcDbEntity
  8
0
  6
Continuous
 62
     7
370
    25
100
AcDbLine
 10
-312.2393756903
 20
-111.5447703697
 30
0.0
 11
-312.2393756903
 21
-115.3160065361
 31
0.0
  0
LINE
  5
7FE
330
7AB
100
AcDbEntity
  8
0
  6
Continuous
 62
     7
370
    25
100
AcDbLine
 10
23.152838045
 20
-138.9828475302
 30
0.0
 11
44.3660414757
 21
-120.2745606001
 31
0.0
  0
LINE
  5
7FF
330
7AB
100
AcDbEntity
  8
0
  6
Continuous
 62
     7
370
    25
100
AcDbLine
 10
56.9738277405
 20
-96.6077196061
 30
0.0
 11
56.9738277405
 21
-92.8364834396
 31
0.0
  0
LINE
  5
800
330
7AB
100
AcDbEntity
  8
0
  6
Continuous
 62
     7
370
    25
100
AcDbLine
 10
-277.0485034
 20
-66.0088980963
 30
0.0
 11
-298.2617068308
 21
-84.7171850263
 31
0.0
  0
LINE
  5
801
330
7AB
100
AcDbEntity
  8
0
  6
Continuous
 62
     7
370
    25
100
AcDbLine
 10
10.6757704926
 20
-46.8195082381
 30
0.0
 11
-138.9905249833
 21
-27.9633274152
 31
0.0
  0
LINE
  5
802
330
7AB
100
AcDbEntity
  8
0
  6
Continuous
 62
     7
370
    25
100
AcDbLine
 10
-285.2743190148
 20
-177.21209272
 30
0.0
 11
-283.8897061313
 21
-177.0037471442
 31
0.0
  0
LINE
  5
803
330
7AB
100
AcDbEntity
  8
0
  6
Continuous
 62
     7
370
    25
100
AcDbLine
 10
-296.040539954
 20
-169.3218332433
 30
0.0
 11
-296.040539954
 21
-173.4114815346
 31
0.0
  0
LINE
  5
804
330
7AB
100
AcDbEntity
  8
0
  6
Continuous
 62
     7
370
    25
100
AcDbLine
 10
-54.4062488411
 20
-201.8387301649
 30
0.0
 11
-54.4062488411
 21
-196.7464843655
 31
0.0
  0
LINE
  5
805
330
7AB
100
AcDbEntity
  8
0
  6
Continuous
 62
     7
370
    25
100
AcDbLine
 10
-74.8381404944
 20
-200.0059833619
 30
0.0
 11
-69.0629152962
 21
-204.2705067412
 31
0.0
  0
LINE
  5
806
330
7AB
100
AcDbEntity
  8
0
  6
Continuous
 62
     7
370
    25
100
AcDbLine
 10
-312.2393756903
 20
-138.9805134805
 30
0.0
 11
-312.2393756903
 21
-142.751749647
 31
0.0
  0
LINE
  5
807
330
7AB
100
AcDbEntity
  8
0
  6
Continuous
 62
     7
370
    25
100
AcDbLine
 10
23.152838045
 20
-166.418590641
 30
0.0
 11
44.3660414757
 21
-147.710303711
 31
0.0
  0
LINE
  5
808
330
7AB
100
AcDbEntity
  8
0
  6
Continuous
 62
     7
370
    25
100
AcDbLine
 10
56.9738277405
 20
-124.0434627169
 30
0.0
 11
56.9738277405
 21
-120.2722265505
 31
0.0
  0
LINE
  5
809
330
7AB
100
AcDbEntity
  8
0
  6
Continuous
 62
     7
370
    25
100
AcDbLine
 10
24.5227206397
 20
-132.0508670145
 30
0.0
 11
24.5227206397
 21
-135.8221031809
 31
0.0
  0
LINE
  5
80A
330
7AB
100
AcDbEntity
  8
0
  6
Continuous
 62
     7
370
    25
100
AcDbLine
 10
9.4257704932
 20
-47.3129852385
 30
0.0
 11
-140.2405249827
 21
-28.4568044157
 31
0.0
  0
LINE
  5
80B
330
7AB
100
AcDbEntity
  8
0
  6
Continuous
 62
     7
370
    25
100
AcDbLine
 10
15.1685771725
 20
-121.444265297
 30
0.0
 11
36.3817806032
 21
-102.7359783669
 31
0.0
  0
LINE
  5
80C
330
7AB
100
AcDbEntity
  8
0
  6
Continuous
 62
     7
370
    25
100
AcDbLine
 10
-270.4341251223
 20
-64.0808076801
 30
0.0
 11
-291.647328553
 21
-82.7890946102
 31
0.0
  0
LINE
  5
80D
330
7AB
100
AcDbEntity
  8
0
  6
Continuous
 62
     7
370
    25
100
AcDbLine
 10
45.7359240705
 20
-113.3425800845
 30
0.0
 11
24.5227206397
 21
-132.0508670145
 31
0.0
  0
LINE
  5
80E
330
7AB
100
AcDbEntity
  8
0
  6
Continuous
 62
     7
370
    25
100
AcDbLine
 10
24.5227206397
 20
-135.8221031809
 30
0.0
 11
45.7359240705
 21
-117.1138162509
 31
0.0
  0
LINE
  5
80F
330
7AB
100
AcDbEntity
  8
0
  6
Continuous
 62
     7
370
    25
100
AcDbLine
 10
45.7359240705
 20
-113.3425800845
 30
0.0
 11
45.7359240705
 21
-117.1138162509
 31
0.0
  0
LINE
  5
810
330
7AB
100
AcDbEntity
  8
0
  6
Continuous
 62
     7
370
    25
100
AcDbLine
 10
24.5227206397
 20
-159.4866101253
 30
0.0
 11
24.5227206397
 21
-163.2578462918
 31
0.0
  0
LINE
  5
811
330
7AB
100
AcDbEntity
  8
0
  6
Continuous
 62
     7
370
    25
100
AcDbLine
 10
15.1685771725
 20
-148.8800084078
 30
0.0
 11
36.3817806032
 21
-130.1717214778
 31
0.0
  0
LINE
  5
812
330
7AB
100
AcDbEntity
  8
0
  6
Continuous
 62
     7
370
    25
100
AcDbLine
 10
45.7359240705
 20
-140.7783231953
 30
0.0
 11
24.5227206397
 21
-159.4866101253
 31
0.0
  0
LINE
  5
813
330
7AB
100
AcDbEntity
  8
0
  6
Continuous
 62
     7
370
    25
100
AcDbLine
 10
24.5227206397
 20
-163.2578462918
 30
0.0
 11
45.7359240705
 21
-144.5495593617
 31
0.0
  0
LINE
  5
814
330
7AB
100
AcDbEntity
  8
0
  6
Continuous
 62
     7
370
    25
100
AcDbLine
 10
45.7359240705
 20
-140.7783231953
 30
0.0
 11
45.7359240705
 21
-144.5495593617
 31
0.0
  0
LINE
  5
815
330
7AB
100
AcDbEntity
  8
0
  6
Continuous
 62
     8
370
    25
100
AcDbLine
 10
-69.6977514629
 20
-202.9358977055
 30
0.0
 11
-69.6977514629
 21
-199.2832648392
 31
0.0
  0
LINE
  5
816
330
7AB
100
AcDbEntity
  8
0
  6
Continuous
 62
     8
370
    25
100
AcDbLine
 10
-73.8392717216
 20
-199.8777295193
 30
0.0
 11
-69.6977514629
 21
-202.9358977055
 31
0.0
  0
ARC
  5
817
330
7AB
100
AcDbEntity
  8
0
  6
Continuous
 62
     7
370
    25
100
AcDbCircle
 10
13.6034642733
 20
-132.2526555481
 30
0.0
 40
10.92112073957701
100
AcDbArc
 50
1.0587090425
 51
81.7605351794
  0
ARC
  5
818
330
7AB
100
AcDbEntity
  8
0
  6
Continuous
 62
     7
370
    25
100
AcDbCircle
 10
-64.5456682845
 20
-627.819271253
 30
0.0
 40
607.1965049317474
100
AcDbArc
 50
99.4683274761
 51
104.7932360815
  0
ARC
  5
819
330
7AB
100
AcDbEntity
  8
0
  6
Continuous
 62
     7
370
    25
100
AcDbCircle
 10
-150.8001239559
 20
-113.4881242214
 30
0.0
 40
85.68448213282437
100
AcDbArc
 50
82.9209761832
 51
99.1535829837
  0
ARC
  5
81A
330
7AB
100
AcDbEntity
  8
0
  6
Continuous
 62
     7
370
    25
100
AcDbCircle
 10
-17.9648276753
 20
-108.9138808488
 30
0.0
 40
71.58255409729297
100
AcDbArc
 50
29.1690038711
 51
51.3944683103
  0
ARC
  5
81B
330
7AB
100
AcDbEntity
  8
0
  6
Continuous
 62
     7
370
    25
100
AcDbCircle
 10
34.816667704
 20
-113.5443686181
 30
0.0
 40
10.921120739577
100
AcDbArc
 50
1.0587090425
 51
81.7605351794
  0
ARC
  5
81C
330
7AB
100
AcDbEntity
  8
0
  6
Continuous
 62
     7
370
    25
100
AcDbCircle
 10
13.6034642733
 20
-159.688398659
 30
0.0
 40
10.9211207395769
100
AcDbArc
 50
1.0587090425
 51
81.7605351794
  0
ARC
  5
81D
330
7AB
100
AcDbEntity
  8
0
  6
Continuous
 62
     7
370
    25
100
AcDbCircle
 10
34.816667704
 20
-140.9801117289
 30
0.0
 40
10.92112073957692
100
AcDbArc
 50
1.0587090425
 51
81.7605351794
  0
ARC
  5
81E
330
7AB
100
AcDbEntity
  8
0
  6
Continuous
 62
     8
370
    25
100
AcDbCircle
 10
-292.8400509792
 20
-91.0067519114
 30
0.0
 40
8.303762900425976
100
AcDbArc
 50
81.7416771753
 51
130.7808778435
  0
ARC
  5
81F
330
7AB
100
AcDbEntity
  8
0
  6
Continuous
 62
     8
370
    25
100
AcDbCircle
 10
20.3553939402
 20
-135.8932062044
 30
0.0
 40
4.167933236097371
100
AcDbArc
 50
312.1699496552
 51
0.9774870553
  0
ARC
  5
820
330
7AB
100
AcDbEntity
  8
0
  6
Continuous
 62
     8
370
    25
100
AcDbCircle
 10
41.568656611
 20
-117.1849306458
 30
0.0
 40
4.167874198663309
100
AcDbArc
 50
312.158037431
 51
0.9776572489
  0
ARC
  5
821
330
7AB
100
AcDbEntity
  8
0
  6
Continuous
 62
     8
370
    25
100
AcDbCircle
 10
45.2779755975
 20
-83.2481632192
 30
0.0
 40
9.252188225883058
100
AcDbArc
 50
28.5584494838
 51
94.5746071215
  0
ARC
  5
822
330
7AB
100
AcDbEntity
  8
0
  6
Continuous
 62
     8
370
    25
100
AcDbCircle
 10
-271.6170552394
 20
-72.3321940897
 30
0.0
 40
8.335748397239966
100
AcDbArc
 50
81.8415869733
 51
130.6612067915
  0
ARC
  5
823
330
7AB
100
AcDbEntity
  8
0
  6
Continuous
 62
     8
370
    25
100
AcDbCircle
 10
27.9199124541
 20
-61.1077580232
 30
0.0
 40
8.2238596378226
100
AcDbArc
 50
50.6916717074
 51
98.5343810025
  0
ARC
  5
824
330
7AB
100
AcDbEntity
  8
0
  6
Continuous
 62
     8
370
    25
100
AcDbCircle
 10
-221.2031875594
 20
-44.2922952096
 30
0.0
 40
3.896339164440171
100
AcDbArc
 50
65.4148652888
 51
104.2261149649
  0
ARC
  5
825
330
7AB
100
AcDbEntity
  8
0
  6
Continuous
 62
     8
370
    25
100
AcDbCircle
 10
-285.6242229991
 20
-176.4757373617
 30
0.0
 40
0.8152619283724928
100
AcDbArc
 50
295.4163001041
 51
357.7957586148
  0
ARC
  5
826
330
7AB
100
AcDbEntity
  8
0
  6
Continuous
 62
     8
370
    25
100
AcDbCircle
 10
-68.0803304452
 20
-202.9848425566
 30
0.0
 40
1.618161409460575
100
AcDbArc
 50
178.2666987572
 51
232.5835159634
  0
ARC
  5
827
330
7AB
100
AcDbEntity
  8
0
  6
Continuous
 62
     8
370
    25
100
AcDbCircle
 10
20.3553939402
 20
-163.3289493153
 30
0.0
 40
4.16793323609708
100
AcDbArc
 50
312.1699496552
 51
0.9774870553
  0
ARC
  5
828
330
7AB
100
AcDbEntity
  8
0
  6
Continuous
 62
     8
370
    25
100
AcDbCircle
 10
13.615981016
 20
-103.1884851489
 30
0.0
 40
35.30406029946874
100
AcDbArc
 50
310.1543795993
 51
331.3824810963
  0
ARC
  5
829
330
7AB
100
AcDbEntity
  8
0
  6
Continuous
 62
     8
370
    25
100
AcDbCircle
 10
41.568656611
 20
-144.6206737567
 30
0.0
 40
4.167874198663171
100
AcDbArc
 50
312.158037431
 51
0.9776572489
  0
VIEWPORT
  5
838
330
7AB
100
AcDbEntity
  8
0
100
AcDbViewport
 10
0.0
 20
0.0
 30
0.0
 40
205.6
 41
156.0
 68
     1
 69
     1
 12
0.0
 22
-10.25
 13
0.0
 23
0.0
 14
10.0
 24
10.0
 15
10.0
 25
10.0
 16
0.0
 26
0.0
 36
1.0
 17
0.0
 27
0.0
 37
0.0
 42
50.0
 43
0.0
 44
0.0
 45
269.3276264591
 50
0.0
 51
0.0
 72
   100
 90
   557152
  1

281
     0
 71
     1
 74
     0
110
0.0
120
0.0
130
0.0
111
1.0
121
0.0
131
0.0
112
0.0
122
1.0
132
0.0
 79
     0
146
0.0
  0
ENDBLK
  5
7AE
330
7AB
100
AcDbEntity
  8
0
100
AcDbBlockEnd
  0
ENDSEC
  0
SECTION
  2
ENTITIES
  0
LINE
  5
EF
330
1F
100
AcDbEntity
  8
0
  6
Continuous
 62
     7
370
    25
100
AcDbLine
 10
88.5
 20
-4.75
 30
0.0
 11
54.5
 21
-4.75
 31
0.0
  0
LINE
  5
F0
330
1F
100
AcDbEntity
  8
0
  6
Continuous
 62
     7
370
    25
100
AcDbLine
 10
66.5
 20
-27.1
 30
0.0
 11
66.5
 21
-33.3
 31
0.0
  0
LINE
  5
F1
330
1F
100
AcDbEntity
  8
0
  6
Continuous
 62
     7
370
    25
100
AcDbLine
 10
76.5
 20
-33.3
 30
0.0
 11
76.5
 21
-27.1
 31
0.0
  0
LINE
  5
F2
330
1F
100
AcDbEntity
  8
0
  6
Continuous
 62
     7
370
    25
100
AcDbLine
 10
52.5
 20
-5.0
 30
0.0
 11
35.5
 21
-5.0
 31
0.0
  0
LINE
  5
F3
330
1F
100
AcDbEntity
  8
0
  6
Continuous
 62
     7
370
    25
100
AcDbLine
 10
94.9
 20
-41.5
 30
0.0
 11
94.9
 21
-37.1
 31
0.0
  0
LINE
  5
F4
330
1F
100
AcDbEntity
  8
0
  6
Continuous
 62
     7
370
    25
100
AcDbLine
 10
48.1
 20
-33.8
 30
0.0
 11
48.1
 21
-41.5
 31
0.0
  0
LINE
  5
F5
330
1F
100
AcDbEntity
  8
0
  6
Continuous
 62
     7
370
    25
100
AcDbLine
 10
-52.5
 20
-4.75
 30
0.0
 11
-86.5
 21
-4.75
 31
0.0
  0
LINE
  5
F6
330
1F
100
AcDbEntity
  8
0
  6
Continuous
 62
     7
370
    25
100
AcDbLine
 10
-74.5
 20
-27.1
 30
0.0
 11
-74.5
 21
-33.3
 31
0.0
  0
LINE
  5
F7
330
1F
100
AcDbEntity
  8
0
  6
Continuous
 62
     7
370
    25
100
AcDbLine
 10
-64.5
 20
-33.3
 30
0.0
 11
-64.5
 21
-27.1
 31
0.0
  0
LINE
  5
F8
330
1F
100
AcDbEntity
  8
0
  6
Continuous
 62
     7
370
    25
100
AcDbLine
 10
-35.5
 20
-5.0
 30
0.0
 11
-52.5
 21
-5.0
 31
0.0
  0
LINE
  5
F9
330
1F
100
AcDbEntity
  8
0
  6
Continuous
 62
     7
370
    25
100
AcDbLine
 10
-46.1
 20
-41.5
 30
0.0
 11
-46.1
 21
-33.8
 31
0.0
  0
LINE
  5
FA
330
1F
100
AcDbEntity
  8
0
  6
Continuous
 62
     7
370
    25
100
AcDbLine
 10
-92.9
 20
-37.0381842366
 30
0.0
 11
-92.9
 21
-41.5
 31
0.0
  0
LINE
  5
FB
330
1F
100
AcDbEntity
  8
0
  6
Continuous
 62
     7
370
    25
100
AcDbLine
 10
100.0
 20
2.0
 30
0.0
 11
100.0
 21
-4.3
 31
0.0
  0
LINE
  5
FC
330
1F
100
AcDbEntity
  8
0
  6
Continuous
 62
     7
370
    25
100
AcDbLine
 10
120.0
 20
-4.3
 30
0.0
 11
120.0
 21
2.0
 31
0.0
  0
LINE
  5
FD
330
1F
100
AcDbEntity
  8
0
  6
Continuous
 62
     7
370
    25
100
AcDbLine
 10
-120.0
 20
2.0
 30
0.0
 11
-120.0
 21
-4.3
 31
0.0
  0
LINE
  5
FE
330
1F
100
AcDbEntity
  8
0
  6
Continuous
 62
     7
370
    25
100
AcDbLine
 10
-100.0
 20
-4.3
 30
0.0
 11
-100.0
 21
2.0
 31
0.0
  0
LINE
  5
FF
330
1F
100
AcDbEntity
  8
0
  6
Continuous
 62
     7
370
    25
100
AcDbLine
 10
-128.6066017178
 20
-27.1
 30
0.0
 11
-128.6066017178
 21
-35.1
 31
0.0
  0
LINE
  5
100
330
1F
100
AcDbEntity
  8
0
  6
Continuous
 62
     7
370
    25
100
AcDbLine
 10
-91.3933982822
 20
-35.1
 30
0.0
 11
-91.3933982822
 21
-27.1
 31
0.0
  0
LINE
  5
101
330
1F
100
AcDbEntity
  8
0
  6
Continuous
 62
     7
370
    25
100
AcDbLine
 10
128.6066017178
 20
-35.1
 30
0.0
 11
128.6066017178
 21
-27.1
 31
0.0
  0
LINE
  5
102
330
1F
100
AcDbEntity
  8
0
  6
Continuous
 62
     7
370
    25
100
AcDbLine
 10
91.3933982822
 20
-27.1
 30
0.0
 11
91.3933982822
 21
-35.1
 31
0.0
  0
LINE
  5
103
330
1F
100
AcDbEntity
  8
0
  6
Continuous
 62
     7
370
    25
100
AcDbLine
 10
54.5
 20
-8.1
 30
0.0
 11
54.5
 21
-4.75
 31
0.0
  0
LINE
  5
104
330
1F
100
AcDbEntity
  8
0
  6
Continuous
 62
     7
370
    25
100
AcDbLine
 10
97.5
 20
-2.9
 30
0.0
 11
97.5
 21
2.0
 31
0.0
  0
LINE
  5
105
330
1F
100
AcDbEntity
  8
0
  6
Continuous
 62
     7
370
    25
100
AcDbLine
 10
100.0
 20
-2.9
 30
0.0
 11
88.5
 21
-2.9
 31
0.0
  0
LINE
  5
106
330
1F
100
AcDbEntity
  8
0
  6
Continuous
 62
     7
370
    25
100
AcDbLine
 10
96.5
 20
2.0
 30
0.0
 11
96.5
 21
-2.9
 31
0.0
  0
LINE
  5
107
330
1F
100
AcDbEntity
  8
0
  6
Continuous
 62
     7
370
    25
100
AcDbLine
 10
88.5
 20
-8.1
 30
0.0
 11
88.5
 21
2.0
 31
0.0
  0
LINE
  5
108
330
1F
100
AcDbEntity
  8
0
  6
Continuous
 62
     7
370
    25
100
AcDbLine
 10
105.5
 20
-6.3
 30
0.0
 11
105.5
 21
-8.1
 31
0.0
  0
LINE
  5
109
330
1F
100
AcDbEntity
  8
0
  6
Continuous
 62
     7
370
    25
100
AcDbLine
 10
43.5
 20
-32.0
 30
0.0
 11
43.5
 21
-27.1
 31
0.0
  0
LINE
  5
10A
330
1F
100
AcDbEntity
  8
0
  6
Continuous
 62
     7
370
    25
100
AcDbLine
 10
44.5
 20
-27.1
 30
0.0
 11
44.5
 21
-32.0
 31
0.0
  0
LINE
  5
10B
330
1F
100
AcDbEntity
  8
0
  6
Continuous
 62
     7
370
    25
100
AcDbLine
 10
35.5
 20
-32.0
 30
0.0
 11
52.5
 21
-32.0
 31
0.0
  0
LINE
  5
10C
330
1F
100
AcDbEntity
  8
0
  6
Continuous
 62
     7
370
    25
100
AcDbLine
 10
52.5
 20
-32.0
 30
0.0
 11
52.5
 21
-27.1
 31
0.0
  0
LINE
  5
10D
330
1F
100
AcDbEntity
  8
0
  6
Continuous
 62
     7
370
    25
100
AcDbLine
 10
35.5
 20
-27.1
 30
0.0
 11
35.5
 21
-32.0
 31
0.0
  0
LINE
  5
10E
330
1F
100
AcDbEntity
  8
0
  6
Continuous
 62
     7
370
    25
100
AcDbLine
 10
35.5
 20
-8.1
 30
0.0
 11
35.5
 21
-5.0
 31
0.0
  0
LINE
  5
10F
330
1F
100
AcDbEntity
  8
0
  6
Continuous
 62
     7
370
    25
100
AcDbLine
 10
52.5
 20
-8.1
 30
0.0
 11
52.5
 21
-5.0
 31
0.0
  0
LINE
  5
110
330
1F
100
AcDbEntity
  8
0
  6
Continuous
 62
     7
370
    25
100
AcDbLine
 10
48.1
 20
-39.5
 30
0.0
 11
94.9
 21
-39.5
 31
0.0
  0
LINE
  5
111
330
1F
100
AcDbEntity
  8
0
  6
Continuous
 62
     7
370
    25
100
AcDbLine
 10
48.1
 20
-41.5
 30
0.0
 11
94.9
 21
-41.5
 31
0.0
  0
LINE
  5
112
330
1F
100
AcDbEntity
  8
0
  6
Continuous
 62
     7
370
    25
100
AcDbLine
 10
-52.5
 20
-8.1
 30
0.0
 11
-52.5
 21
-4.75
 31
0.0
  0
LINE
  5
113
330
1F
100
AcDbEntity
  8
0
  6
Continuous
 62
     7
370
    25
100
AcDbLine
 10
-86.5
 20
-8.1
 30
0.0
 11
-86.5
 21
-4.75
 31
0.0
  0
LINE
  5
114
330
1F
100
AcDbEntity
  8
0
  6
Continuous
 62
     7
370
    25
100
AcDbLine
 10
-97.5
 20
2.0
 30
0.0
 11
-97.5
 21
-2.9
 31
0.0
  0
LINE
  5
115
330
1F
100
AcDbEntity
  8
0
  6
Continuous
 62
     7
370
    25
100
AcDbLine
 10
-96.5
 20
-2.9
 30
0.0
 11
-96.5
 21
2.0
 31
0.0
  0
LINE
  5
116
330
1F
100
AcDbEntity
  8
0
  6
Continuous
 62
     7
370
    25
100
AcDbLine
 10
-88.5
 20
2.0
 30
0.0
 11
-88.5
 21
-8.1
 31
0.0
  0
LINE
  5
117
330
1F
100
AcDbEntity
  8
0
  6
Continuous
 62
     7
370
    25
100
AcDbLine
 10
-88.5
 20
-2.9
 30
0.0
 11
-100.0
 21
-2.9
 31
0.0
  0
LINE
  5
118
330
1F
100
AcDbEntity
  8
0
  6
Continuous
 62
     7
370
    25
100
AcDbLine
 10
-105.5
 20
-8.1
 30
0.0
 11
-105.5
 21
-6.3
 31
0.0
  0
LINE
  5
119
330
1F
100
AcDbEntity
  8
0
  6
Continuous
 62
     7
370
    25
100
AcDbLine
 10
-44.5
 20
-27.1
 30
0.0
 11
-44.5
 21
-32.0
 31
0.0
  0
LINE
  5
11A
330
1F
100
AcDbEntity
  8
0
  6
Continuous
 62
     7
370
    25
100
AcDbLine
 10
-43.5
 20
-32.0
 30
0.0
 11
-43.5
 21
-27.1
 31
0.0
  0
LINE
  5
11B
330
1F
100
AcDbEntity
  8
0
  6
Continuous
 62
     7
370
    25
100
AcDbLine
 10
-35.5
 20
-32.0
 30
0.0
 11
-52.5
 21
-32.0
 31
0.0
  0
LINE
  5
11C
330
1F
100
AcDbEntity
  8
0
  6
Continuous
 62
     7
370
    25
100
AcDbLine
 10
-52.5
 20
-32.0
 30
0.0
 11
-52.5
 21
-27.1
 31
0.0
  0
LINE
  5
11D
330
1F
100
AcDbEntity
  8
0
  6
Continuous
 62
     7
370
    25
100
AcDbLine
 10
-35.5
 20
-27.1
 30
0.0
 11
-35.5
 21
-32.0
 31
0.0
  0
LINE
  5
11E
330
1F
100
AcDbEntity
  8
0
  6
Continuous
 62
     7
370
    25
100
AcDbLine
 10
-35.5
 20
-8.1
 30
0.0
 11
-35.5
 21
-5.0
 31
0.0
  0
LINE
  5
11F
330
1F
100
AcDbEntity
  8
0
  6
Continuous
 62
     7
370
    25
100
AcDbLine
 10
-92.9
 20
-41.5
 30
0.0
 11
-46.1
 21
-41.5
 31
0.0
  0
LINE
  5
120
330
1F
100
AcDbEntity
  8
0
  6
Continuous
 62
     7
370
    25
100
AcDbLine
 10
-92.9
 20
-39.5
 30
0.0
 11
-46.1
 21
-39.5
 31
0.0
  0
LINE
  5
121
330
1F
100
AcDbEntity
  8
0
  6
Continuous
 62
     7
370
    25
100
AcDbLine
 10
48.6
 20
-33.3
 30
0.0
 11
91.3933982822
 21
-33.3
 31
0.0
  0
LINE
  5
122
330
1F
100
AcDbEntity
  8
0
  6
Continuous
 62
     7
370
    25
100
AcDbLine
 10
-91.3933982822
 20
-33.3
 30
0.0
 11
-46.6
 21
-33.3
 31
0.0
  0
LINE
  5
123
330
1F
100
AcDbEntity
  8
0
  6
Continuous
 62
     7
370
    25
100
AcDbLine
 10
117.9999990364
 20
-6.3
 30
0.0
 11
102.0
 21
-6.3
 31
0.0
  0
LINE
  5
124
330
1F
100
AcDbEntity
  8
0
  6
Continuous
 62
     7
370
    25
100
AcDbLine
 10
-102.0000009636
 20
-6.3
 30
0.0
 11
-118.0
 21
-6.3
 31
0.0
  0
LINE
  5
125
330
1F
100
AcDbEntity
  8
0
  6
Continuous
 62
     7
370
    25
100
AcDbLine
 10
174.0
 20
11.0
 30
0.0
 11
-174.0
 21
11.0
 31
0.0
  0
LINE
  5
126
330
1F
100
AcDbEntity
  8
0
  6
Continuous
 62
     7
370
    25
100
AcDbLine
 10
-164.0
 20
21.0
 30
0.0
 11
164.0
 21
21.0
 31
0.0
  0
LINE
  5
127
330
1F
100
AcDbEntity
  8
0
  6
Continuous
 62
     7
370
    25
100
AcDbLine
 10
-174.0
 20
7.0
 30
0.0
 11
174.0
 21
7.0
 31
0.0
  0
LINE
  5
128
330
1F
100
AcDbEntity
  8
0
  6
Continuous
 62
     7
370
    25
100
AcDbLine
 10
-174.0
 20
11.0
 30
0.0
 11
-174.0
 21
7.0
 31
0.0
  0
LINE
  5
129
330
1F
100
AcDbEntity
  8
0
  6
Continuous
 62
     7
370
    25
100
AcDbLine
 10
174.0
 20
11.0
 30
0.0
 11
174.0
 21
7.0
 31
0.0
  0
LINE
  5
12A
330
1F
100
AcDbEntity
  8
0
  6
Continuous
 62
     7
370
    25
100
AcDbLine
 10
169.0
 20
2.0
 30
0.0
 11
-169.0
 21
2.0
 31
0.0
  0
LINE
  5
12B
330
1F
100
AcDbEntity
  8
0
  6
Continuous
 62
     7
370
    25
100
AcDbLine
 10
-114.9497474683
 20
-35.1
 30
0.0
 11
-114.9497474683
 21
-27.1
 31
0.0
  0
LINE
  5
12C
330
1F
100
AcDbEntity
  8
0
  6
Continuous
 62
     7
370
    25
100
AcDbLine
 10
-93.3933982822
 20
-37.1
 30
0.0
 11
-126.6066017178
 21
-37.1
 31
0.0
  0
LINE
  5
12D
330
1F
100
AcDbEntity
  8
0
  6
Continuous
 62
     7
370
    25
100
AcDbLine
 10
-93.7365440327
 20
-35.1
 30
0.0
 11
-93.7365440327
 21
-27.1
 31
0.0
  0
LINE
  5
12E
330
1F
100
AcDbEntity
  8
0
  6
Continuous
 62
     7
370
    25
100
AcDbLine
 10
-128.6066017178
 20
-35.1
 30
0.0
 11
-91.3933982822
 21
-35.1
 31
0.0
  0
LINE
  5
12F
330
1F
100
AcDbEntity
  8
0
  6
Continuous
 62
     7
370
    25
100
AcDbLine
 10
126.6066017178
 20
-37.1
 30
0.0
 11
93.3933982822
 21
-37.1
 31
0.0
  0
LINE
  5
130
330
1F
100
AcDbEntity
  8
0
  6
Continuous
 62
     7
370
    25
100
AcDbLine
 10
114.9497474683
 20
-35.1
 30
0.0
 11
114.9497474683
 21
-27.1
 31
0.0
  0
LINE
  5
131
330
1F
100
AcDbEntity
  8
0
  6
Continuous
 62
     7
370
    25
100
AcDbLine
 10
91.3933982822
 20
-35.1
 30
0.0
 11
128.6066017178
 21
-35.1
 31
0.0
  0
LINE
  5
132
330
1F
100
AcDbEntity
  8
0
  6
Continuous
 62
     7
370
    25
100
AcDbLine
 10
93.7365440327
 20
-35.1
 30
0.0
 11
93.7365440327
 21
-27.1
 31
0.0
  0
LINE
  5
133
330
1F
100
AcDbEntity
  8
0
  6
Continuous
 62
     7
370
    25
100
AcDbLine
 10
174.0
 20
-18.1
 30
0.0
 11
-174.0
 21
-18.1
 31
0.0
  0
LINE
  5
134
330
1F
100
AcDbEntity
  8
0
  6
Continuous
 62
     7
370
    25
100
AcDbLine
 10
-164.0
 20
-8.1
 30
0.0
 11
164.0
 21
-8.1
 31
0.0
  0
LINE
  5
135
330
1F
100
AcDbEntity
  8
0
  6
Continuous
 62
     7
370
    25
100
AcDbLine
 10
169.0
 20
-27.1
 30
0.0
 11
-169.0
 21
-27.1
 31
0.0
  0
LINE
  5
136
330
1F
100
AcDbEntity
  8
0
  6
Continuous
 62
     7
370
    25
100
AcDbLine
 10
-174.0
 20
-22.1
 30
0.0
 11
174.0
 21
-22.1
 31
0.0
  0
LINE
  5
137
330
1F
100
AcDbEntity
  8
0
  6
Continuous
 62
     7
370
    25
100
AcDbLine
 10
-174.0
 20
-18.1
 30
0.0
 11
-174.0
 21
-22.1
 31
0.0
  0
LINE
  5
138
330
1F
100
AcDbEntity
  8
0
  6
Continuous
 62
     7
370
    25
100
AcDbLine
 10
174.0
 20
-18.1
 30
0.0
 11
174.0
 21
-22.1
 31
0.0
  0
LINE
  5
139
330
1F
100
AcDbEntity
  8
0
  6
Continuous
 62
     8
370
    25
100
AcDbLine
 10
91.3933982822
 20
-33.8
 30
0.0
 11
48.1
 21
-33.8
 31
0.0
  0
LINE
  5
13A
330
1F
100
AcDbEntity
  8
0
  6
Continuous
 62
     8
370
    25
100
AcDbLine
 10
-46.1
 20
-33.8
 30
0.0
 11
-91.3933982822
 21
-33.8
 31
0.0
  0
LINE
  5
13B
330
1F
100
AcDbEntity
  8
0
  6
Continuous
 62
     8
370
    25
100
AcDbLine
 10
100.0
 20
-4.3
 30
0.0
 11
120.0
 21
-4.3
 31
0.0
  0
LINE
  5
13C
330
1F
100
AcDbEntity
  8
0
  6
Continuous
 62
     8
370
    25
100
AcDbLine
 10
-120.0
 20
-4.3
 30
0.0
 11
-100.0
 21
-4.3
 31
0.0
  0
ARC
  5
13D
330
1F
100
AcDbEntity
  8
0
  6
Continuous
 62
     7
370
    25
100
AcDbCircle
 10
48.6
 20
-33.8
 30
0.0
 40
0.5
100
AcDbArc
 50
90.0
 51
180.0
  0
ARC
  5
13E
330
1F
100
AcDbEntity
  8
0
  6
Continuous
 62
     7
370
    25
100
AcDbCircle
 10
-46.6
 20
-33.8
 30
0.0
 40
0.5
100
AcDbArc
 50
0.0
 51
90.0
  0
ARC
  5
13F
330
1F
100
AcDbEntity
  8
0
  6
Continuous
 62
     7
370
    25
100
AcDbCircle
 10
118.0
 20
-4.3
 30
0.0
 40
2.000000000000014
100
AcDbArc
 50
270.0
 51
0.0
  0
ARC
  5
140
330
1F
100
AcDbEntity
  8
0
  6
Continuous
 62
     7
370
    25
100
AcDbCircle
 10
102.0
 20
-4.3
 30
0.0
 40
2.0
100
AcDbArc
 50
180.0
 51
270.0
  0
ARC
  5
141
330
1F
100
AcDbEntity
  8
0
  6
Continuous
 62
     7
370
    25
100
AcDbCircle
 10
-102.0
 20
-4.3
 30
0.0
 40
2.000000000000014
100
AcDbArc
 50
270.0
 51
0.0
  0
ARC
  5
142
330
1F
100
AcDbEntity
  8
0
  6
Continuous
 62
     7
370
    25
100
AcDbCircle
 10
-118.0
 20
-4.3
 30
0.0
 40
2.0
100
AcDbArc
 50
180.0
 51
270.0
  0
ARC
  5
143
330
1F
100
AcDbEntity
  8
0
  6
Continuous
 62
     7
370
    25
100
AcDbCircle
 10
-126.6066017178
 20
-35.1
 30
0.0
 40
2.000000000000043
100
AcDbArc
 50
180.0
 51
270.0
  0
ARC
  5
144
330
1F
100
AcDbEntity
  8
0
  6
Continuous
 62
     7
370
    25
100
AcDbCircle
 10
-93.3933982822
 20
-35.1
 30
0.0
 40
2.0
100
AcDbArc
 50
270.0
 51
0.0
  0
ARC
  5
145
330
1F
100
AcDbEntity
  8
0
  6
Continuous
 62
     7
370
    25
100
AcDbCircle
 10
126.6066017178
 20
-35.1
 30
0.0
 40
1.999999999999972
100
AcDbArc
 50
270.0
 51
0.0
  0
ARC
  5
146
330
1F
100
AcDbEntity
  8
0
  6
Continuous
 62
     7
370
    25
100
AcDbCircle
 10
93.3933982822
 20
-35.1
 30
0.0
 40
2.000000000000007
100
AcDbArc
 50
180.0
 51
270.0
  0
ARC
  5
147
330
1F
100
AcDbEntity
  8
0
  6
Continuous
 62
     7
370
    25
100
AcDbCircle
 10
-164.0
 20
11.0
 30
0.0
 40
9.999999999999975
100
AcDbArc
 50
90.0
 51
180.0
  0
ARC
  5
148
330
1F
100
AcDbEntity
  8
0
  6
Continuous
 62
     7
370
    25
100
AcDbCircle
 10
164.0
 20
11.0
 30
0.0
 40
10.00000000000001
100
AcDbArc
 50
0.0
 51
90.0
  0
ARC
  5
149
330
1F
100
AcDbEntity
  8
0
  6
Continuous
 62
     7
370
    25
100
AcDbCircle
 10
-169.0
 20
7.0
 30
0.0
 40
5.000000000000029
100
AcDbArc
 50
180.0
 51
270.0
  0
ARC
  5
14A
330
1F
100
AcDbEntity
  8
0
  6
Continuous
 62
     7
370
    25
100
AcDbCircle
 10
169.0
 20
7.0
 30
0.0
 40
5.000000000000032
100
AcDbArc
 50
270.0
 51
0.0
  0
ARC
  5
14B
330
1F
100
AcDbEntity
  8
0
  6
Continuous
 62
     7
370
    25
100
AcDbCircle
 10
-116.7175144213
 20
-35.35
 30
0.0
 40
1.785357107135727
100
AcDbArc
 50
281.421753659
 51
8.0494669755
  0
ARC
  5
14C
330
1F
100
AcDbEntity
  8
0
  6
Continuous
 62
     7
370
    25
100
AcDbCircle
 10
-95.5043109857
 20
-35.35
 30
0.0
 40
1.78535710713572
100
AcDbArc
 50
281.421753659
 51
8.0494669755
  0
ARC
  5
14D
330
1F
100
AcDbEntity
  8
0
  6
Continuous
 62
     7
370
    25
100
AcDbCircle
 10
116.7175144213
 20
-35.35
 30
0.0
 40
1.785357107135535
100
AcDbArc
 50
171.9505330245
 51
258.578246341
  0
ARC
  5
14E
330
1F
100
AcDbEntity
  8
0
  6
Continuous
 62
     7
370
    25
100
AcDbCircle
 10
95.5043109857
 20
-35.35
 30
0.0
 40
1.785357107135777
100
AcDbArc
 50
171.9505330245
 51
258.578246341
  0
ARC
  5
14F
330
1F
100
AcDbEntity
  8
0
  6
Continuous
 62
     7
370
    25
100
AcDbCircle
 10
-164.0
 20
-18.1
 30
0.0
 40
10.00000000000003
100
AcDbArc
 50
90.0
 51
180.0
  0
ARC
  5
150
330
1F
100
AcDbEntity
  8
0
  6
Continuous
 62
     7
370
    25
100
AcDbCircle
 10
164.0
 20
-18.1
 30
0.0
 40
9.999999999999972
100
AcDbArc
 50
0.0
 51
90.0
  0
ARC
  5
151
330
1F
100
AcDbEntity
  8
0
  6
Continuous
 62
     7
370
    25
100
AcDbCircle
 10
-169.0
 20
-22.1
 30
0.0
 40
5.000000000000028
100
AcDbArc
 50
180.0
 51
270.0
  0
ARC
  5
152
330
1F
100
AcDbEntity
  8
0
  6
Continuous
 62
     7
370
    25
100
AcDbCircle
 10
169.0
 20
-22.1
 30
0.0
 40
5.000000000000028
100
AcDbArc
 50
270.0
 51
0.0
  0
SPLINE
  5
156
330
1B
100
AcDbEntity
 67
     1
  8
0
  6
Continuous
 62
     7
370
    25
100
AcDbSpline
210
0.0
220
0.0
230
1.0
 70
     8
 71
     3
 72
    12
 73
     8
 74
     0
 42
0.000000001
 43
0.00000001
 40
0.0
 40
0.0
 40
0.0
 40
0.0
 40
0.1368861133068101
 40
0.3511583461766944
 40
0.5704401703972388
 40
0.7956019952374885
 40
1.0
 40
1.0
 40
1.0
 40
1.0
 10
-77.47712767664528
 20
-25.24331128290718
 30
0.0
 10
-77.40360835884728
 20
-25.24694983103146
 30
0.0
 10
-77.21500688988655
 20
-25.25628391548267
 30
0.0
 10
-76.92859379764613
 20
-25.38737271651461
 30
0.0
 10
-76.66869850738514
 20
-25.63185031976841
 30
0.0
 10
-76.50552138593562
 20
-25.95181056169471
 30
0.0
 10
-76.4964066626961
 20
-26.18350616669821
 30
0.0
 10
-76.4920695922446
 20
-26.29375418364791
 30
0.0
  0
SPLINE
  5
157
330
1B
100
AcDbEntity
 67
     1
  8
0
  6
Continuous
 62
     7
370
    25
100
AcDbSpline
210
0.0
220
0.0
230
1.0
 70
     8
 71
     3
 72
    13
 73
     9
 74
     0
 42
0.000000001
 43
0.00000001
 40
0.0
 40
0.0
 40
0.0
 40
0.0
 40
0.0891109742214661
 40
0.318392829842114
 40
0.5516518691817947
 40
0.735292850792252
 40
0.8888919738031549
 40
1.0
 40
1.0
 40
1.0
 40
1.0
 10
-66.49952808419133
 20
-26.24226881547035
 30
0.0
 10
-66.50317793631503
 20
-26.19548095399538
 30
0.0
 10
-66.51621883005818
 20
-26.02830828253236
 30
0.0
 10
-66.40682021780897
 20
-25.74709695445456
 30
0.0
 10
-66.19446041469595
 20
-25.47746282579762
 30
0.0
 10
-65.93654338857877
 20
-25.31785066250984
 30
0.0
 10
-65.70984278925238
 20
-25.24492734341933
 30
0.0
 10
-65.5707780293286
 20
-25.2403101799217
 30
0.0
 10
-65.51240706717317
 20
-25.23837217437713
 30
0.0
  0
SPLINE
  5
161
330
1B
100
AcDbEntity
 67
     1
  8
0
  6
Continuous
 62
     7
370
    25
100
AcDbSpline
210
0.0
220
0.0
230
1.0
 70
     8
 71
     3
 72
    12
 73
     8
 74
     0
 42
0.000000001
 43
0.00000001
 40
0.0
 40
0.0
 40
0.0
 40
0.0
 40
0.1368861130972689
 40
0.3511583457313863
 40
0.5704401697713487
 40
0.7956019945729988
 40
0.9999999999999999
 40
0.9999999999999999
 40
0.9999999999999999
 40
0.9999999999999999
 10
63.52287232296643
 20
-25.24331128293214
 30
0.0
 10
63.59639164066559
 20
-25.24694983100186
 30
0.0
 10
63.78499310942229
 20
-25.25628391531554
 30
0.0
 10
64.07140620148373
 20
-25.38737271598933
 30
0.0
 10
64.33130149189846
 20
-25.63185031879862
 30
0.0
 10
64.49447861382347
 20
-25.95181056080142
 30
0.0
 10
64.50359333736719
 20
-26.18350616616914
 30
0.0
 10
64.50793040797122
 20
-26.29375418348992
 30
0.0
  0
SPLINE
  5
162
330
1B
100
AcDbEntity
 67
     1
  8
0
  6
Continuous
 62
     7
370
    25
100
AcDbSpline
210
0.0
220
0.0
230
1.0
 70
     8
 71
     3
 72
    13
 73
     9
 74
     0
 42
0.000000001
 43
0.00000001
 40
0.0
 40
0.0
 40
0.0
 40
0.0
 40
0.0891109949527146
 40
0.3183928508830877
 40
0.5516518845565509
 40
0.7352928634772437
 40
0.8888919844232541
 40
0.9999999999999999
 40
0.9999999999999999
 40
0.9999999999999999
 40
0.9999999999999999
 10
74.50047191703837
 20
-26.2422688157763
 30
0.0
 10
74.49682206516822
 20
-26.19548094327271
 30
0.0
 10
74.48378117450304
 20
-26.02830826024883
 30
0.0
 10
74.59317979661522
 20
-25.74709692766863
 30
0.0
 10
74.80553960552355
 20
-25.47746280876055
 30
0.0
 10
75.06345663026583
 20
-25.31785065431261
 30
0.0
 10
75.29015722308426
 20
-25.24492734139547
 30
0.0
 10
75.42922197638718
 20
-25.24031017993616
 30
0.0
 10
75.48759293298143
 20
-25.23837217533952
 30
0.0
  0
LWPOLYLINE
  5
17A
330
1B
100
AcDbEntity
 67
     1
  8
0
  6
Continuous
 62
     7
370
    25
100
AcDbPolyline
 90
        3
 70
   128
 43
0.0
 10
92.9
 20
-37.0381842366
 10
93.0032176382
 20
-37.0615705608
 10
93.3933982822
 20
-37.1
  0
LWPOLYLINE
  5
1B5
330
1B
100
AcDbEntity
 67
     1
  8
0
  6
Continuous
 62
     7
370
    25
100
AcDbPolyline
 90
        9
 70
   128
 43
0.0
 10
102.1634971208
 20
21.0
 10
103.6047917176
 20
20.807852804
 10
104.9906981713
 20
20.2387953251
 10
106.2679568741
 20
19.314696123
 10
107.3874834905
 20
18.0710678119
 10
108.3062552403
 20
16.5557023302
 10
108.9889642404
 20
14.8268343237
 10
109.4093743669
 20
12.9509032202
 10
109.5513294944
 20
11.0
  0
LWPOLYLINE
  5
1BD
330
1B
100
AcDbEntity
 67
     1
  8
0
  6
Continuous
 62
     7
370
    25
100
AcDbPolyline
 90
        9
 70
   128
 43
0.0
 10
109.5513294944
 20
7.0
 10
109.4803519307
 20
6.0245483899
 10
109.2701468674
 20
5.0865828382
 10
108.9287923673
 20
4.2221488349
 10
108.4694064924
 20
3.4644660941
 10
107.9096431843
 20
2.8426519385
 10
107.2710138329
 20
2.3806023374
 10
106.578060606
 20
2.096073598
 10
105.8574133076
 20
2.0
  0
LWPOLYLINE
  5
1C8
330
1B
100
AcDbEntity
 67
     1
  8
0
  6
Continuous
 62
     7
370
    25
100
AcDbPolyline
 90
        9
 70
   128
 43
0.0
 10
-109.5513294944
 20
11.0
 10
-109.4093743669
 20
12.9509032202
 10
-108.9889642404
 20
14.8268343237
 10
-108.3062552403
 20
16.5557023302
 10
-107.3874834905
 20
18.0710678119
 10
-106.2679568741
 20
19.314696123
 10
-104.9906981713
 20
20.2387953251
 10
-103.6047917176
 20
20.807852804
 10
-102.1634971208
 20
21.0
  0
LWPOLYLINE
  5
1CB
330
1B
100
AcDbEntity
 67
     1
  8
0
  6
Continuous
 62
     7
370
    25
100
AcDbPolyline
 90
        9
 70
   128
 43
0.0
 10
-105.8574133076
 20
2.0
 10
-106.578060606
 20
2.096073598
 10
-107.2710138329
 20
2.3806023374
 10
-107.9096431843
 20
2.8426519385
 10
-108.4694064924
 20
3.4644660941
 10
-108.9287923673
 20
4.2221488349
 10
-109.2701468674
 20
5.0865828382
 10
-109.4803519307
 20
6.0245483899
 10
-109.5513294944
 20
7.0
  0
LWPOLYLINE
  5
1D3
330
1B
100
AcDbEntity
 67
     1
  8
0
  6
Continuous
 62
     7
370
    25
100
AcDbPolyline
 90
        9
 70
   128
 43
0.0
 10
-149.7877358491
 20
11.0
 10
-149.6223261167
 20
12.9509032202
 10
-149.1324535228
 20
14.8268343237
 10
-148.3369435965
 20
16.5557023302
 10
-147.266367338
 20
18.0710678119
 10
-145.9618663927
 20
19.314696123
 10
-144.4735720003
 20
20.2387953251
 10
-142.8586784796
 20
20.807852804
 10
-141.179245283
 20
21.0
  0
LWPOLYLINE
  5
1D8
330
1B
100
AcDbEntity
 67
     1
  8
0
  6
Continuous
 62
     7
370
    25
100
AcDbPolyline
 90
        9
 70
   128
 43
0.0
 10
141.179245283
 20
21.0
 10
142.8586784796
 20
20.807852804
 10
144.4735720003
 20
20.2387953251
 10
145.9618663927
 20
19.314696123
 10
147.266367338
 20
18.0710678119
 10
148.3369435965
 20
16.5557023302
 10
149.1324535228
 20
14.8268343237
 10
149.6223261167
 20
12.9509032202
 10
149.7877358491
 20
11.0
  0
LWPOLYLINE
  5
1F8
330
1B
100
AcDbEntity
 67
     1
  8
0
  6
Continuous
 62
     7
370
    25
100
AcDbPolyline
 90
        9
 70
   128
 43
0.0
 10
-105.8574133076
 20
-27.1
 10
-106.578060606
 20
-27.003926402
 10
-107.2710138329
 20
-26.7193976626
 10
-107.9096431843
 20
-26.2573480615
 10
-108.4694064924
 20
-25.6355339059
 10
-108.9287923673
 20
-24.8778511651
 10
-109.2701468674
 20
-24.0134171618
 10
-109.4803519307
 20
-23.0754516101
 10
-109.5513294944
 20
-22.1
  0
LWPOLYLINE
  5
201
330
1B
100
AcDbEntity
 67
     1
  8
0
  6
Continuous
 62
     7
370
    25
100
AcDbPolyline
 90
        9
 70
   128
 43
0.0
 10
109.5513294944
 20
-22.1
 10
109.4803519307
 20
-23.0754516101
 10
109.2701468674
 20
-24.0134171618
 10
108.9287923673
 20
-24.8778511651
 10
108.4694064924
 20
-25.6355339059
 10
107.9096431843
 20
-26.2573480615
 10
107.2710138329
 20
-26.7193976626
 10
106.578060606
 20
-27.003926402
 10
105.8574133076
 20
-27.1
  0
LWPOLYLINE
  5
20D
330
1B
100
AcDbEntity
 67
     1
  8
0
  6
Continuous
 62
     7
370
    25
100
AcDbPolyline
 90
        9
 70
   128
 43
0.0
 10
-149.7877358491
 20
-18.1
 10
-149.6223261167
 20
-16.1490967798
 10
-149.1324535228
 20
-14.2731656763
 10
-148.3369435965
 20
-12.5442976698
 10
-147.266367338
 20
-11.0289321881
 10
-145.9618663927
 20
-9.785303877
 10
-144.4735720003
 20
-8.8612046749
 10
-142.8586784796
 20
-8.292147196
 10
-141.179245283
 20
-8.1
  0
LWPOLYLINE
  5
20F
330
1B
100
AcDbEntity
 67
     1
  8
0
  6
Continuous
 62
     7
370
    25
100
AcDbPolyline
 90
        9
 70
   128
 43
0.0
 10
141.179245283
 20
-8.1
 10
142.8586784796
 20
-8.292147196
 10
144.4735720003
 20
-8.8612046749
 10
145.9618663927
 20
-9.785303877
 10
147.266367338
 20
-11.0289321881
 10
148.3369435965
 20
-12.5442976698
 10
149.1324535228
 20
-14.2731656763
 10
149.6223261167
 20
-16.1490967798
 10
149.7877358491
 20
-18.1
  0
SPLINE
  5
221
330
1B
100
AcDbEntity
 67
     1
  8
0
  6
Continuous
 62
     8
370
    25
100
AcDbSpline
210
0.0
220
0.0
230
1.0
 70
     8
 71
     3
 72
    30
 73
    26
 74
     0
 42
0.000000001
 43
0.00000001
 40
0.0
 40
0.0
 40
0.0
 40
0.0
 40
0.0382832586126043
 40
0.0775213139105942
 40
0.1223338989363639
 40
0.1683876545439102
 40
0.2182123681199098
 40
0.2692644471104489
 40
0.325713252899449
 40
0.383750755092498
 40
0.4398245509775416
 40
0.4687044081911417
 40
0.4978436114715111
 40
0.5459383071640619
 40
0.5952570804737274
 40
0.6417384736019505
 40
0.6891475425971516
 40
0.7407247516626427
 40
0.7935158891050917
 40
0.8479670959347257
 40
0.8760457438907036
 40
0.9044070338690136
 40
0.9347468400491389
 40
0.9655202726231129
 40
1.0
 40
1.0
 40
1.0
 40
1.0
 10
-77.50000000000026
 20
-25.24999999999936
 30
0.0
 10
-77.49039291670113
 20
-25.24531783595655
 30
0.0
 10
-77.47093914637993
 20
-25.23583673320568
 30
0.0
 10
-77.30716398726305
 20
-25.15693684636985
 30
0.0
 10
-77.02858882087651
 20
-25.02628155908486
 30
0.0
 10
-76.60873149847299
 20
-24.83840719569526
 30
0.0
 10
-76.06108700957708
 20
-24.61056782061093
 30
0.0
 10
-75.37037282622425
 20
-24.35301495087328
 30
0.0
 10
-74.54492885393195
 20
-24.09235599844406
 30
0.0
 10
-73.60593361334867
 20
-23.86597100878823
 30
0.0
 10
-72.76271599421898
 20
-23.73696064964478
 30
0.0
 10
-72.07216102545782
 20
-23.68173526232952
 30
0.0
 10
-71.42352739163779
 20
-23.6625777877753
 30
0.0
 10
-70.64847360018209
 20
-23.69270338843347
 30
0.0
 10
-69.7886190304919
 20
-23.79887462613642
 30
0.0
 10
-68.97275408673576
 20
-23.96233408746784
 30
0.0
 10
-68.19759892099658
 20
-24.16997667230443
 30
0.0
 10
-67.46065057260694
 20
-24.41290646802849
 30
0.0
 10
-66.78444356830303
 20
-24.67209560748736
 30
0.0
 10
-66.30700106425614
 20
-24.8759289379749
 30
0.0
 10
-65.99196404825413
 20
-25.0176199782458
 30
0.0
 10
-65.78896224105492
 20
-25.11171583960488
 30
0.0
 10
-65.6335318319612
 20
-25.18545418718697
 30
0.0
 10
-65.51953954661472
 20
-25.24047551516643
 30
0.0
 10
-65.51457620678035
 20
-25.24291398440511
 30
0.0
 10
-65.51195358123242
 20
-25.24420246996858
 30
0.0
  0
LWPOLYLINE
  5
222
330
1B
100
AcDbEntity
 67
     1
  8
0
  6
Continuous
 62
     8
370
    25
100
AcDbPolyline
 90
       24
 70
   128
 43
0.0
 10
-66.5114389653
 20
-26.2426926747
 10
-66.5334678804
 20
-26.2286319498
 10
-66.6171103765
 20
-26.1756816324
 10
-66.7515344402
 20
-26.0919570973
 10
-67.0990683139
 20
-25.8835980988
 10
-67.5920572875
 20
-25.6091565825
 10
-68.1335540959
 20
-25.3383731581
 10
-68.7754630593
 20
-25.0623936625
 10
-69.3871272556
 20
-24.8484005289
 10
-70.0656138849
 20
-24.6708452308
 10
-70.7754548887
 20
-24.556068778
 10
-71.5327218626
 20
-24.5165141642
 10
-72.2959601611
 20
-24.5642467405
 10
-73.0579756448
 20
-24.6983398001
 10
-73.236302127
 20
-24.7418546956
 10
-74.0166709903
 20
-24.9841339804
 10
-74.7330123483
 20
-25.2768629034
 10
-75.2819752009
 20
-25.5432112966
 10
-75.7529577372
 20
-25.7985515371
 10
-76.0870560936
 20
-25.9937100377
 10
-76.3332737431
 20
-26.14458032
 10
-76.4569055744
 20
-26.2225048246
 10
-76.5
 20
-26.25
 10
-76.5
 20
-26.25
  0
SPLINE
  5
223
330
1B
100
AcDbEntity
 67
     1
  8
0
  6
Continuous
 62
     8
370
    25
100
AcDbSpline
210
0.0
220
0.0
230
1.0
 70
     8
 71
     3
 72
    30
 73
    26
 74
     0
 42
0.000000001
 43
0.00000001
 40
0.0
 40
0.0
 40
0.0
 40
0.0
 40
0.0382832586126044
 40
0.0775213139105928
 40
0.1223338989363623
 40
0.1683876545439107
 40
0.2182123681199106
 40
0.2692644471104485
 40
0.3257132528994474
 40
0.3837507550924979
 40
0.4398245509775409
 40
0.4687044081911411
 40
0.4978436114715112
 40
0.5459383071640629
 40
0.5952570804737289
 40
0.6417384736019522
 40
0.689147542597153
 40
0.7407247516626444
 40
0.7935158891050931
 40
0.8479670959347275
 40
0.8760457438907053
 40
0.9044070338690162
 40
0.934746840049142
 40
0.9655202726231159
 40
1.0
 40
1.0
 40
1.0
 40
1.0
 10
63.49999999999972
 20
-25.25000000000089
 30
0.0
 10
63.50960708329885
 20
-25.24531783595807
 30
0.0
 10
63.52906085362003
 20
-25.2358367332072
 30
0.0
 10
63.69283601273688
 20
-25.15693684637137
 30
0.0
 10
63.97141117912347
 20
-25.02628155908641
 30
0.0
 10
64.39126850152701
 20
-24.83840719569681
 30
0.0
 10
64.93891299042288
 20
-24.61056782061245
 30
0.0
 10
65.62962717377575
 20
-24.35301495087484
 30
0.0
 10
66.45507114606806
 20
-24.0923559984456
 30
0.0
 10
67.39406638665132
 20
-23.86597100878979
 30
0.0
 10
68.237284005781
 20
-23.73696064964633
 30
0.0
 10
68.92783897454217
 20
-23.68173526233107
 30
0.0
 10
69.5764726083622
 20
-23.66257778777687
 30
0.0
 10
70.35152639981791
 20
-23.692703388435
 30
0.0
 10
71.2113809695081
 20
-23.79887462613801
 30
0.0
 10
72.02724591326427
 20
-23.96233408746938
 30
0.0
 10
72.80240107900339
 20
-24.16997667230603
 30
0.0
 10
73.53934942739312
 20
-24.41290646803001
 30
0.0
 10
74.21555643169688
 20
-24.67209560748895
 30
0.0
 10
74.69299893574387
 20
-24.87592893797645
 30
0.0
 10
75.00803595174585
 20
-25.01761997824736
 30
0.0
 10
75.211037758945
 20
-25.11171583960644
 30
0.0
 10
75.36646816803881
 20
-25.18545418718852
 30
0.0
 10
75.4804604533852
 20
-25.24047551516798
 30
0.0
 10
75.48542379321961
 20
-25.24291398440666
 30
0.0
 10
75.48804641876752
 20
-25.24420246997013
 30
0.0
  0
LWPOLYLINE
  5
224
330
1B
100
AcDbEntity
 67
     1
  8
0
  6
Continuous
 62
     8
370
    25
100
AcDbPolyline
 90
       24
 70
   128
 43
0.0
 10
74.4885610347
 20
-26.2426926747
 10
74.4665321196
 20
-26.2286319498
 10
74.3828896235
 20
-26.1756816324
 10
74.2484655598
 20
-26.0919570973
 10
73.9009316861
 20
-25.8835980988
 10
73.4079427125
 20
-25.6091565825
 10
72.8664459041
 20
-25.3383731581
 10
72.2245369407
 20
-25.0623936625
 10
71.6128727444
 20
-24.8484005289
 10
70.9343861151
 20
-24.6708452308
 10
70.2245451113
 20
-24.556068778
 10
69.4672781374
 20
-24.5165141642
 10
68.7040398389
 20
-24.5642467405
 10
67.9420243552
 20
-24.6983398001
 10
67.763697873
 20
-24.7418546956
 10
66.9833290097
 20
-24.9841339804
 10
66.2669876517
 20
-25.2768629034
 10
65.7180247991
 20
-25.5432112966
 10
65.2470422628
 20
-25.7985515372
 10
64.9129439064
 20
-25.9937100377
 10
64.6667262569
 20
-26.14458032
 10
64.5430944256
 20
-26.2225048246
 10
64.5
 20
-26.25
 10
64.5
 20
-26.25
  0
LINE
  5
23D
330
1B
100
AcDbEntity
 67
     1
  8
0
  6
Continuous
 62
     7
370
    25
100
AcDbLine
 10
-65.5119535812
 20
-25.25
 30
0.0
 11
-54.5
 21
-25.25
 31
0.0
  0
LINE
  5
23E
330
1B
100
AcDbEntity
 67
     1
  8
0
  6
Continuous
 62
     7
370
    25
100
AcDbLine
 10
-88.5
 20
-25.25
 30
0.0
 11
-77.5
 21
-25.25
 31
0.0
  0
LINE
  5
23F
330
1B
100
AcDbEntity
 67
     1
  8
0
  6
Continuous
 62
     7
370
    25
100
AcDbLine
 10
-54.5
 20
-4.75
 30
0.0
 11
-88.5
 21
-4.75
 31
0.0
  0
LINE
  5
240
330
1B
100
AcDbEntity
 67
     1
  8
0
  6
Continuous
 62
     7
370
    25
100
AcDbLine
 10
-76.5
 20
-26.25
 30
0.0
 11
-76.5
 21
-33.3
 31
0.0
  0
LINE
  5
241
330
1B
100
AcDbEntity
 67
     1
  8
0
  6
Continuous
 62
     7
370
    25
100
AcDbLine
 10
-66.5
 20
-33.3
 30
0.0
 11
-66.5
 21
-26.2426974268
 31
0.0
  0
LINE
  5
242
330
1B
100
AcDbEntity
 67
     1
  8
0
  6
Continuous
 62
     7
370
    25
100
AcDbLine
 10
-105.5
 20
-25.0
 30
0.0
 11
-88.5
 21
-25.0
 31
0.0
  0
LINE
  5
243
330
1B
100
AcDbEntity
 67
     1
  8
0
  6
Continuous
 62
     7
370
    25
100
AcDbLine
 10
-35.5
 20
-5.0
 30
0.0
 11
-52.5
 21
-5.0
 31
0.0
  0
LINE
  5
244
330
1B
100
AcDbEntity
 67
     1
  8
0
  6
Continuous
 62
     7
370
    25
100
AcDbLine
 10
-48.1
 20
-41.5
 30
0.0
 11
-48.1
 21
-33.8
 31
0.0
  0
LINE
  5
245
330
1B
100
AcDbEntity
 67
     1
  8
0
  6
Continuous
 62
     7
370
    25
100
AcDbLine
 10
-94.9
 20
-33.8
 30
0.0
 11
-94.9
 21
-41.5
 31
0.0
  0
LINE
  5
246
330
1B
100
AcDbEntity
 67
     1
  8
0
  6
Continuous
 62
     7
370
    25
100
AcDbLine
 10
75.4880464188
 20
-25.25
 30
0.0
 11
86.5
 21
-25.25
 31
0.0
  0
LINE
  5
247
330
1B
100
AcDbEntity
 67
     1
  8
0
  6
Continuous
 62
     7
370
    25
100
AcDbLine
 10
52.5
 20
-25.25
 30
0.0
 11
63.5
 21
-25.25
 31
0.0
  0
LINE
  5
248
330
1B
100
AcDbEntity
 67
     1
  8
0
  6
Continuous
 62
     7
370
    25
100
AcDbLine
 10
86.5
 20
-4.75
 30
0.0
 11
52.5
 21
-4.75
 31
0.0
  0
LINE
  5
249
330
1B
100
AcDbEntity
 67
     1
  8
0
  6
Continuous
 62
     7
370
    25
100
AcDbLine
 10
64.5
 20
-26.25
 30
0.0
 11
64.5
 21
-33.3
 31
0.0
  0
LINE
  5
24A
330
1B
100
AcDbEntity
 67
     1
  8
0
  6
Continuous
 62
     7
370
    25
100
AcDbLine
 10
74.5
 20
-33.3
 30
0.0
 11
74.5
 21
-26.2426974268
 31
0.0
  0
LINE
  5
24B
330
1B
100
AcDbEntity
 67
     1
  8
0
  6
Continuous
 62
     7
370
    25
100
AcDbLine
 10
88.5
 20
-25.0
 30
0.0
 11
105.5
 21
-25.0
 31
0.0
  0
LINE
  5
24C
330
1B
100
AcDbEntity
 67
     1
  8
0
  6
Continuous
 62
     7
370
    25
100
AcDbLine
 10
52.5
 20
-5.0
 30
0.0
 11
35.5
 21
-5.0
 31
0.0
  0
LINE
  5
24D
330
1B
100
AcDbEntity
 67
     1
  8
0
  6
Continuous
 62
     7
370
    25
100
AcDbLine
 10
92.9
 20
-41.5
 30
0.0
 11
92.9
 21
-33.8
 31
0.0
  0
LINE
  5
24E
330
1B
100
AcDbEntity
 67
     1
  8
0
  6
Continuous
 62
     7
370
    25
100
AcDbLine
 10
46.1
 20
-33.8
 30
0.0
 11
46.1
 21
-41.5
 31
0.0
  0
LINE
  5
24F
330
1B
100
AcDbEntity
 67
     1
  8
0
  6
Continuous
 62
     7
370
    25
100
AcDbLine
 10
-120.0
 20
2.0
 30
0.0
 11
-120.0
 21
-4.3
 31
0.0
  0
LINE
  5
250
330
1B
100
AcDbEntity
 67
     1
  8
0
  6
Continuous
 62
     7
370
    25
100
AcDbLine
 10
120.0
 20
-4.3
 30
0.0
 11
120.0
 21
2.0
 31
0.0
  0
LINE
  5
251
330
1B
100
AcDbEntity
 67
     1
  8
0
  6
Continuous
 62
     7
370
    25
100
AcDbLine
 10
-128.6066017178
 20
-27.1
 30
0.0
 11
-128.6066017178
 21
-35.1
 31
0.0
  0
LINE
  5
252
330
1B
100
AcDbEntity
 67
     1
  8
0
  6
Continuous
 62
     7
370
    25
100
AcDbLine
 10
-91.3933982822
 20
-33.3
 30
0.0
 11
-91.3933982822
 21
-27.1
 31
0.0
  0
LINE
  5
253
330
1B
100
AcDbEntity
 67
     1
  8
0
  6
Continuous
 62
     7
370
    25
100
AcDbLine
 10
128.6066017178
 20
-35.1
 30
0.0
 11
128.6066017178
 21
-27.1
 31
0.0
  0
LINE
  5
254
330
1B
100
AcDbEntity
 67
     1
  8
0
  6
Continuous
 62
     7
370
    25
100
AcDbLine
 10
91.3933982822
 20
-27.1
 30
0.0
 11
91.3933982822
 21
-33.3
 31
0.0
  0
LINE
  5
255
330
1B
100
AcDbEntity
 67
     1
  8
0
  6
Continuous
 62
     7
370
    25
100
AcDbLine
 10
-54.5
 20
-4.75
 30
0.0
 11
-54.5
 21
-25.25
 31
0.0
  0
LINE
  5
256
330
1B
100
AcDbEntity
 67
     1
  8
0
  6
Continuous
 62
     7
370
    25
100
AcDbLine
 10
-88.5
 20
2.0
 30
0.0
 11
-88.5
 21
-25.25
 31
0.0
  0
LINE
  5
257
330
1B
100
AcDbEntity
 67
     1
  8
0
  6
Continuous
 62
     7
370
    25
100
AcDbLine
 10
-105.5
 20
-5.917651898
 30
0.0
 11
-88.5
 21
-5.917651898
 31
0.0
  0
LINE
  5
258
330
1B
100
AcDbEntity
 67
     1
  8
0
  6
Continuous
 62
     7
370
    25
100
AcDbLine
 10
-105.5
 20
-25.0
 30
0.0
 11
-105.5
 21
2.0
 31
0.0
  0
LINE
  5
259
330
1B
100
AcDbEntity
 67
     1
  8
0
  6
Continuous
 62
     7
370
    25
100
AcDbLine
 10
-88.5
 20
1.2658784816
 30
0.0
 11
-105.5
 21
1.2658784816
 31
0.0
  0
LINE
  5
25A
330
1B
100
AcDbEntity
 67
     1
  8
0
  6
Continuous
 62
     7
370
    25
100
AcDbLine
 10
-52.5
 20
-22.4515175165
 30
0.0
 11
-35.5
 21
-22.4515175165
 31
0.0
  0
LINE
  5
25B
330
1B
100
AcDbEntity
 67
     1
  8
0
  6
Continuous
 62
     7
370
    25
100
AcDbLine
 10
-52.5
 20
-5.0
 30
0.0
 11
-52.5
 21
-32.0
 31
0.0
  0
LINE
  5
25C
330
1B
100
AcDbEntity
 67
     1
  8
0
  6
Continuous
 62
     7
370
    25
100
AcDbLine
 10
-35.5
 20
-5.0
 30
0.0
 11
-35.5
 21
-32.0
 31
0.0
  0
LINE
  5
25D
330
1B
100
AcDbEntity
 67
     1
  8
0
  6
Continuous
 62
     7
370
    25
100
AcDbLine
 10
-35.5
 20
-31.7451517516
 30
0.0
 11
-52.5
 21
-31.7451517516
 31
0.0
  0
LINE
  5
25E
330
1B
100
AcDbEntity
 67
     1
  8
0
  6
Continuous
 62
     7
370
    25
100
AcDbLine
 10
-52.5
 20
-32.0
 30
0.0
 11
-35.5
 21
-32.0
 31
0.0
  0
LINE
  5
25F
330
1B
100
AcDbEntity
 67
     1
  8
0
  6
Continuous
 62
     7
370
    25
100
AcDbLine
 10
-94.9
 20
-39.5
 30
0.0
 11
-48.1
 21
-39.5
 31
0.0
  0
LINE
  5
260
330
1B
100
AcDbEntity
 67
     1
  8
0
  6
Continuous
 62
     7
370
    25
100
AcDbLine
 10
-94.9
 20
-41.5
 30
0.0
 11
-48.1
 21
-41.5
 31
0.0
  0
LINE
  5
261
330
1B
100
AcDbEntity
 67
     1
  8
0
  6
Continuous
 62
     7
370
    25
100
AcDbLine
 10
52.5
 20
-4.75
 30
0.0
 11
52.5
 21
-32.0
 31
0.0
  0
LINE
  5
262
330
1B
100
AcDbEntity
 67
     1
  8
0
  6
Continuous
 62
     7
370
    25
100
AcDbLine
 10
86.5
 20
-4.75
 30
0.0
 11
86.5
 21
-25.25
 31
0.0
  0
LINE
  5
263
330
1B
100
AcDbEntity
 67
     1
  8
0
  6
Continuous
 62
     7
370
    25
100
AcDbLine
 10
88.5
 20
-5.9176518981
 30
0.0
 11
105.5
 21
-5.9176518981
 31
0.0
  0
LINE
  5
264
330
1B
100
AcDbEntity
 67
     1
  8
0
  6
Continuous
 62
     7
370
    25
100
AcDbLine
 10
105.5
 20
-25.0
 30
0.0
 11
105.5
 21
2.0
 31
0.0
  0
LINE
  5
265
330
1B
100
AcDbEntity
 67
     1
  8
0
  6
Continuous
 62
     7
370
    25
100
AcDbLine
 10
88.5
 20
-25.0
 30
0.0
 11
88.5
 21
2.0
 31
0.0
  0
LINE
  5
266
330
1B
100
AcDbEntity
 67
     1
  8
0
  6
Continuous
 62
     7
370
    25
100
AcDbLine
 10
105.5
 20
1.2658784815
 30
0.0
 11
88.5
 21
1.2658784815
 31
0.0
  0
LINE
  5
267
330
1B
100
AcDbEntity
 67
     1
  8
0
  6
Continuous
 62
     7
370
    25
100
AcDbLine
 10
169.0
 20
2.0
 30
0.0
 11
-169.0
 21
2.0
 31
0.0
  0
LINE
  5
268
330
1B
100
AcDbEntity
 67
     1
  8
0
  6
Continuous
 62
     7
370
    25
100
AcDbLine
 10
52.5
 20
-22.4515175165
 30
0.0
 11
35.5
 21
-22.4515175165
 31
0.0
  0
LINE
  5
269
330
1B
100
AcDbEntity
 67
     1
  8
0
  6
Continuous
 62
     7
370
    25
100
AcDbLine
 10
35.5
 20
-5.0
 30
0.0
 11
35.5
 21
-32.0
 31
0.0
  0
LINE
  5
26A
330
1B
100
AcDbEntity
 67
     1
  8
0
  6
Continuous
 62
     7
370
    25
100
AcDbLine
 10
35.5
 20
-31.7451517516
 30
0.0
 11
52.5
 21
-31.7451517516
 31
0.0
  0
LINE
  5
26B
330
1B
100
AcDbEntity
 67
     1
  8
0
  6
Continuous
 62
     7
370
    25
100
AcDbLine
 10
52.5
 20
-32.0
 30
0.0
 11
35.5
 21
-32.0
 31
0.0
  0
LINE
  5
26C
330
1B
100
AcDbEntity
 67
     1
  8
0
  6
Continuous
 62
     7
370
    25
100
AcDbLine
 10
46.1
 20
-41.5
 30
0.0
 11
92.9
 21
-41.5
 31
0.0
  0
LINE
  5
26D
330
1B
100
AcDbEntity
 67
     1
  8
0
  6
Continuous
 62
     7
370
    25
100
AcDbLine
 10
46.1
 20
-39.5
 30
0.0
 11
92.9
 21
-39.5
 31
0.0
  0
LINE
  5
26E
330
1B
100
AcDbEntity
 67
     1
  8
0
  6
Continuous
 62
     7
370
    25
100
AcDbLine
 10
-94.3999998727
 20
-33.3
 30
0.0
 11
-48.6
 21
-33.3
 31
0.0
  0
LINE
  5
26F
330
1B
100
AcDbEntity
 67
     1
  8
0
  6
Continuous
 62
     7
370
    25
100
AcDbLine
 10
46.6000001273
 20
-33.3
 30
0.0
 11
92.4
 21
-33.3
 31
0.0
  0
LINE
  5
270
330
1B
100
AcDbEntity
 67
     1
  8
0
  6
Continuous
 62
     7
370
    25
100
AcDbLine
 10
-105.5
 20
-6.3
 30
0.0
 11
-117.9999990364
 21
-6.3
 31
0.0
  0
LINE
  5
271
330
1B
100
AcDbEntity
 67
     1
  8
0
  6
Continuous
 62
     7
370
    25
100
AcDbLine
 10
118.0
 20
-6.3
 30
0.0
 11
105.5
 21
-6.3
 31
0.0
  0
LINE
  5
272
330
1B
100
AcDbEntity
 67
     1
  8
0
  6
Continuous
 62
     7
370
    25
100
AcDbLine
 10
-164.0
 20
21.0
 30
0.0
 11
164.0
 21
21.0
 31
0.0
  0
LINE
  5
273
330
1B
100
AcDbEntity
 67
     1
  8
0
  6
Continuous
 62
     7
370
    25
100
AcDbLine
 10
-109.5513294944
 20
11.0
 30
0.0
 11
-109.5513294944
 21
7.0
 31
0.0
  0
LINE
  5
274
330
1B
100
AcDbEntity
 67
     1
  8
0
  6
Continuous
 62
     7
370
    25
100
AcDbLine
 10
174.0
 20
11.0
 30
0.0
 11
-174.0
 21
11.0
 31
0.0
  0
LINE
  5
275
330
1B
100
AcDbEntity
 67
     1
  8
0
  6
Continuous
 62
     7
370
    25
100
AcDbLine
 10
-80.0
 20
21.0
 30
0.0
 11
-80.0
 21
2.0
 31
0.0
  0
LINE
  5
276
330
1B
100
AcDbEntity
 67
     1
  8
0
  6
Continuous
 62
     7
370
    25
100
AcDbLine
 10
-174.0
 20
7.0
 30
0.0
 11
174.0
 21
7.0
 31
0.0
  0
LINE
  5
277
330
1B
100
AcDbEntity
 67
     1
  8
0
  6
Continuous
 62
     7
370
    25
100
AcDbLine
 10
80.0
 20
21.0
 30
0.0
 11
80.0
 21
2.0
 31
0.0
  0
LINE
  5
278
330
1B
100
AcDbEntity
 67
     1
  8
0
  6
Continuous
 62
     7
370
    25
100
AcDbLine
 10
109.5513294944
 20
11.0
 30
0.0
 11
109.5513294944
 21
7.0
 31
0.0
  0
LINE
  5
279
330
1B
100
AcDbEntity
 67
     1
  8
0
  6
Continuous
 62
     7
370
    25
100
AcDbLine
 10
-149.7877358491
 20
11.0
 30
0.0
 11
-149.7877358491
 21
7.0
 31
0.0
  0
LINE
  5
27A
330
1B
100
AcDbEntity
 67
     1
  8
0
  6
Continuous
 62
     7
370
    25
100
AcDbLine
 10
149.7877358491
 20
11.0
 30
0.0
 11
149.7877358491
 21
7.0
 31
0.0
  0
LINE
  5
27B
330
1B
100
AcDbEntity
 67
     1
  8
0
  6
Continuous
 62
     7
370
    25
100
AcDbLine
 10
-174.0
 20
11.0
 30
0.0
 11
-174.0
 21
7.0
 31
0.0
  0
LINE
  5
27C
330
1B
100
AcDbEntity
 67
     1
  8
0
  6
Continuous
 62
     7
370
    25
100
AcDbLine
 10
174.0
 20
11.0
 30
0.0
 11
174.0
 21
7.0
 31
0.0
  0
LINE
  5
27D
330
1B
100
AcDbEntity
 67
     1
  8
0
  6
Continuous
 62
     7
370
    25
100
AcDbLine
 10
-114.9497474683
 20
-35.1
 30
0.0
 11
-114.9497474683
 21
-27.1
 31
0.0
  0
LINE
  5
27E
330
1B
100
AcDbEntity
 67
     1
  8
0
  6
Continuous
 62
     7
370
    25
100
AcDbLine
 10
-94.9
 20
-37.1
 30
0.0
 11
-126.6066017178
 21
-37.1
 31
0.0
  0
LINE
  5
27F
330
1B
100
AcDbEntity
 67
     1
  8
0
  6
Continuous
 62
     7
370
    25
100
AcDbLine
 10
126.6066017178
 20
-37.1
 30
0.0
 11
93.3933982822
 21
-37.1
 31
0.0
  0
LINE
  5
280
330
1B
100
AcDbEntity
 67
     1
  8
0
  6
Continuous
 62
     7
370
    25
100
AcDbLine
 10
114.9497474683
 20
-35.1
 30
0.0
 11
114.9497474683
 21
-27.1
 31
0.0
  0
LINE
  5
281
330
1B
100
AcDbEntity
 67
     1
  8
0
  6
Continuous
 62
     7
370
    25
100
AcDbLine
 10
92.9
 20
-35.1
 30
0.0
 11
128.6066017178
 21
-35.1
 31
0.0
  0
LINE
  5
282
330
1B
100
AcDbEntity
 67
     1
  8
0
  6
Continuous
 62
     7
370
    25
100
AcDbLine
 10
93.7365440327
 20
-35.1
 30
0.0
 11
93.7365440327
 21
-27.1
 31
0.0
  0
LINE
  5
283
330
1B
100
AcDbEntity
 67
     1
  8
0
  6
Continuous
 62
     7
370
    25
100
AcDbLine
 10
-76.5
 20
-27.1
 30
0.0
 11
-169.0
 21
-27.1
 31
0.0
  0
LINE
  5
284
330
1B
100
AcDbEntity
 67
     1
  8
0
  6
Continuous
 62
     7
370
    25
100
AcDbLine
 10
86.5
 20
-8.1
 30
0.0
 11
88.5
 21
-8.1
 31
0.0
  0
LINE
  5
285
330
1B
100
AcDbEntity
 67
     1
  8
0
  6
Continuous
 62
     7
370
    25
100
AcDbLine
 10
169.0
 20
-27.1
 30
0.0
 11
74.5
 21
-27.1
 31
0.0
  0
LINE
  5
286
330
1B
100
AcDbEntity
 67
     1
  8
0
  6
Continuous
 62
     7
370
    25
100
AcDbLine
 10
64.5
 20
-27.1
 30
0.0
 11
52.5
 21
-27.1
 31
0.0
  0
LINE
  5
287
330
1B
100
AcDbEntity
 67
     1
  8
0
  6
Continuous
 62
     7
370
    25
100
AcDbLine
 10
35.5
 20
-27.1
 30
0.0
 11
-35.5
 21
-27.1
 31
0.0
  0
LINE
  5
288
330
1B
100
AcDbEntity
 67
     1
  8
0
  6
Continuous
 62
     7
370
    25
100
AcDbLine
 10
-52.5
 20
-27.1
 30
0.0
 11
-66.5
 21
-27.1
 31
0.0
  0
LINE
  5
289
330
1B
100
AcDbEntity
 67
     1
  8
0
  6
Continuous
 62
     7
370
    25
100
AcDbLine
 10
109.5513294944
 20
-22.1
 30
0.0
 11
109.5513294944
 21
-18.1
 31
0.0
  0
LINE
  5
28A
330
1B
100
AcDbEntity
 67
     1
  8
0
  6
Continuous
 62
     7
370
    25
100
AcDbLine
 10
-109.5513294944
 20
-22.1
 30
0.0
 11
-109.5513294944
 21
-18.1
 31
0.0
  0
LINE
  5
28B
330
1B
100
AcDbEntity
 67
     1
  8
0
  6
Continuous
 62
     7
370
    25
100
AcDbLine
 10
-54.5
 20
-8.1
 30
0.0
 11
-52.5
 21
-8.1
 31
0.0
  0
LINE
  5
28C
330
1B
100
AcDbEntity
 67
     1
  8
0
  6
Continuous
 62
     7
370
    25
100
AcDbLine
 10
-35.5
 20
-8.1
 30
0.0
 11
35.5
 21
-8.1
 31
0.0
  0
LINE
  5
28D
330
1B
100
AcDbEntity
 67
     1
  8
0
  6
Continuous
 62
     7
370
    25
100
AcDbLine
 10
-174.0
 20
-22.1
 30
0.0
 11
-105.5
 21
-22.1
 31
0.0
  0
LINE
  5
28E
330
1B
100
AcDbEntity
 67
     1
  8
0
  6
Continuous
 62
     7
370
    25
100
AcDbLine
 10
105.5
 20
-22.1
 30
0.0
 11
174.0
 21
-22.1
 31
0.0
  0
LINE
  5
28F
330
1B
100
AcDbEntity
 67
     1
  8
0
  6
Continuous
 62
     7
370
    25
100
AcDbLine
 10
-149.7877358491
 20
-18.1
 30
0.0
 11
-149.7877358491
 21
-22.1
 31
0.0
  0
LINE
  5
290
330
1B
100
AcDbEntity
 67
     1
  8
0
  6
Continuous
 62
     7
370
    25
100
AcDbLine
 10
-105.5
 20
-18.1
 30
0.0
 11
-174.0
 21
-18.1
 31
0.0
  0
LINE
  5
291
330
1B
100
AcDbEntity
 67
     1
  8
0
  6
Continuous
 62
     7
370
    25
100
AcDbLine
 10
-164.0
 20
-8.1
 30
0.0
 11
-105.5
 21
-8.1
 31
0.0
  0
LINE
  5
292
330
1B
100
AcDbEntity
 67
     1
  8
0
  6
Continuous
 62
     7
370
    25
100
AcDbLine
 10
174.0
 20
-18.1
 30
0.0
 11
105.5
 21
-18.1
 31
0.0
  0
LINE
  5
293
330
1B
100
AcDbEntity
 67
     1
  8
0
  6
Continuous
 62
     7
370
    25
100
AcDbLine
 10
105.5
 20
-8.1
 30
0.0
 11
164.0
 21
-8.1
 31
0.0
  0
LINE
  5
294
330
1B
100
AcDbEntity
 67
     1
  8
0
  6
Continuous
 62
     7
370
    25
100
AcDbLine
 10
149.7877358491
 20
-18.1
 30
0.0
 11
149.7877358491
 21
-22.1
 31
0.0
  0
LINE
  5
295
330
1B
100
AcDbEntity
 67
     1
  8
0
  6
Continuous
 62
     7
370
    25
100
AcDbLine
 10
-174.0
 20
-18.1
 30
0.0
 11
-174.0
 21
-22.1
 31
0.0
  0
LINE
  5
296
330
1B
100
AcDbEntity
 67
     1
  8
0
  6
Continuous
 62
     7
370
    25
100
AcDbLine
 10
174.0
 20
-18.1
 30
0.0
 11
174.0
 21
-22.1
 31
0.0
  0
LINE
  5
297
330
1B
100
AcDbEntity
 67
     1
  8
0
  6
Continuous
 62
     8
370
    25
100
AcDbLine
 10
-48.1
 20
-33.8
 30
0.0
 11
-94.9
 21
-33.8
 31
0.0
  0
LINE
  5
298
330
1B
100
AcDbEntity
 67
     1
  8
0
  6
Continuous
 62
     8
370
    25
100
AcDbLine
 10
92.9
 20
-33.8
 30
0.0
 11
46.1
 21
-33.8
 31
0.0
  0
LINE
  5
299
330
1B
100
AcDbEntity
 67
     1
  8
0
  6
Continuous
 62
     8
370
    25
100
AcDbLine
 10
-120.0
 20
-4.3
 30
0.0
 11
-105.5
 21
-4.3
 31
0.0
  0
LINE
  5
29A
330
1B
100
AcDbEntity
 67
     1
  8
0
  6
Continuous
 62
     8
370
    25
100
AcDbLine
 10
105.5
 20
-4.3
 30
0.0
 11
120.0
 21
-4.3
 31
0.0
  0
LINE
  5
29B
330
1B
100
AcDbEntity
 67
     1
  8
0
  6
Continuous
 62
     8
370
    25
100
AcDbLine
 10
-128.6066017178
 20
-35.1
 30
0.0
 11
-94.9
 21
-35.1
 31
0.0
  0
LINE
  5
29C
330
1B
100
AcDbEntity
 67
     1
  8
0
  6
Continuous
 62
     8
370
    25
100
AcDbLine
 10
-93.7365440327
 20
-33.3
 30
0.0
 11
-93.7365440327
 21
-27.1
 31
0.0
  0
LINE
  5
29D
330
1B
100
AcDbEntity
 67
     1
  8
0
  6
Continuous
 62
     8
370
    25
100
AcDbLine
 10
-94.9
 20
-37.0683092382
 30
0.0
 11
-95.1507575951
 21
-37.1
 31
0.0
  0
LINE
  5
29E
330
1B
100
AcDbEntity
 67
     1
  8
0
  6
Continuous
 62
     8
370
    25
100
AcDbLine
 10
-80.0
 20
-25.25
 30
0.0
 11
-80.0
 21
-27.1
 31
0.0
  0
LINE
  5
29F
330
1B
100
AcDbEntity
 67
     1
  8
0
  6
Continuous
 62
     8
370
    25
100
AcDbLine
 10
-54.5
 20
-22.1
 30
0.0
 11
-52.5
 21
-22.1
 31
0.0
  0
LINE
  5
2A0
330
1B
100
AcDbEntity
 67
     1
  8
0
  6
Continuous
 62
     8
370
    25
100
AcDbLine
 10
-35.5
 20
-22.1
 30
0.0
 11
35.5
 21
-22.1
 31
0.0
  0
LINE
  5
2A1
330
1B
100
AcDbEntity
 67
     1
  8
0
  6
Continuous
 62
     8
370
    25
100
AcDbLine
 10
35.5
 20
-18.1
 30
0.0
 11
-35.5
 21
-18.1
 31
0.0
  0
LINE
  5
2A2
330
1B
100
AcDbEntity
 67
     1
  8
0
  6
Continuous
 62
     8
370
    25
100
AcDbLine
 10
-52.5
 20
-18.1
 30
0.0
 11
-54.5
 21
-18.1
 31
0.0
  0
LINE
  5
2A3
330
1B
100
AcDbEntity
 67
     1
  8
0
  6
Continuous
 62
     8
370
    25
100
AcDbLine
 10
88.5
 20
-18.1
 30
0.0
 11
86.5
 21
-18.1
 31
0.0
  0
LINE
  5
2A4
330
1B
100
AcDbEntity
 67
     1
  8
0
  6
Continuous
 62
     8
370
    25
100
AcDbLine
 10
80.0
 20
-25.25
 30
0.0
 11
80.0
 21
-27.1
 31
0.0
  0
LINE
  5
2A5
330
1B
100
AcDbEntity
 67
     1
  8
0
  6
Continuous
 62
     8
370
    25
100
AcDbLine
 10
86.5
 20
-22.1
 30
0.0
 11
88.5
 21
-22.1
 31
0.0
  0
ARC
  5
2A6
330
1B
100
AcDbEntity
 67
     1
  8
0
  6
Continuous
 62
     7
370
    25
100
AcDbCircle
 10
-94.4
 20
-33.8
 30
0.0
 40
0.5000000000000142
100
AcDbArc
 50
90.0
 51
180.0
  0
ARC
  5
2A7
330
1B
100
AcDbEntity
 67
     1
  8
0
  6
Continuous
 62
     7
370
    25
100
AcDbCircle
 10
-48.6
 20
-33.8
 30
0.0
 40
0.5
100
AcDbArc
 50
0.0
 51
90.0
  0
ARC
  5
2A8
330
1B
100
AcDbEntity
 67
     1
  8
0
  6
Continuous
 62
     7
370
    25
100
AcDbCircle
 10
46.6
 20
-33.8
 30
0.0
 40
0.5
100
AcDbArc
 50
90.0
 51
180.0
  0
ARC
  5
2A9
330
1B
100
AcDbEntity
 67
     1
  8
0
  6
Continuous
 62
     7
370
    25
100
AcDbCircle
 10
92.4
 20
-33.8
 30
0.0
 40
0.5
100
AcDbArc
 50
0.0
 51
90.0
  0
ARC
  5
2AA
330
1B
100
AcDbEntity
 67
     1
  8
0
  6
Continuous
 62
     7
370
    25
100
AcDbCircle
 10
-118.0
 20
-4.3
 30
0.0
 40
2.000000000000014
100
AcDbArc
 50
180.0
 51
270.0
  0
ARC
  5
2AB
330
1B
100
AcDbEntity
 67
     1
  8
0
  6
Continuous
 62
     7
370
    25
100
AcDbCircle
 10
118.0
 20
-4.3
 30
0.0
 40
2.000000000000014
100
AcDbArc
 50
270.0
 51
0.0
  0
ARC
  5
2AC
330
1B
100
AcDbEntity
 67
     1
  8
0
  6
Continuous
 62
     7
370
    25
100
AcDbCircle
 10
-126.6066017178
 20
-35.1
 30
0.0
 40
1.999999999999979
100
AcDbArc
 50
180.0
 51
270.0
  0
ARC
  5
2AD
330
1B
100
AcDbEntity
 67
     1
  8
0
  6
Continuous
 62
     7
370
    25
100
AcDbCircle
 10
126.6066017178
 20
-35.1
 30
0.0
 40
2.000000000000071
100
AcDbArc
 50
270.0
 51
0.0
  0
ARC
  5
2AE
330
1B
100
AcDbEntity
 67
     1
  8
0
  6
Continuous
 62
     7
370
    25
100
AcDbCircle
 10
-145.1074970923
 20
6.6763263728
 30
0.0
 40
4.691417636220611
100
AcDbArc
 50
176.0438659965
 51
265.4031019749
  0
ARC
  5
2AF
330
1B
100
AcDbEntity
 67
     1
  8
0
  6
Continuous
 62
     7
370
    25
100
AcDbCircle
 10
145.1074970923
 20
6.6763263728
 30
0.0
 40
4.691417636220601
100
AcDbArc
 50
274.5968980251
 51
3.9561340035
  0
ARC
  5
2B0
330
1B
100
AcDbEntity
 67
     1
  8
0
  6
Continuous
 62
     7
370
    25
100
AcDbCircle
 10
-164.0
 20
11.0
 30
0.0
 40
10.00000000000003
100
AcDbArc
 50
90.0
 51
180.0
  0
ARC
  5
2B1
330
1B
100
AcDbEntity
 67
     1
  8
0
  6
Continuous
 62
     7
370
    25
100
AcDbCircle
 10
169.0
 20
7.0
 30
0.0
 40
5.0
100
AcDbArc
 50
270.0
 51
0.0
  0
ARC
  5
2B2
330
1B
100
AcDbEntity
 67
     1
  8
0
  6
Continuous
 62
     7
370
    25
100
AcDbCircle
 10
164.0
 20
11.0
 30
0.0
 40
10.0
100
AcDbArc
 50
0.0
 51
90.0
  0
ARC
  5
2B3
330
1B
100
AcDbEntity
 67
     1
  8
0
  6
Continuous
 62
     7
370
    25
100
AcDbCircle
 10
-169.0
 20
7.0
 30
0.0
 40
5.000000000000032
100
AcDbArc
 50
180.0
 51
270.0
  0
ARC
  5
2B4
330
1B
100
AcDbEntity
 67
     1
  8
0
  6
Continuous
 62
     7
370
    25
100
AcDbCircle
 10
-116.7175144213
 20
-35.35
 30
0.0
 40
1.785357107135854
100
AcDbArc
 50
281.421753659
 51
8.0494669755
  0
ARC
  5
2B5
330
1B
100
AcDbEntity
 67
     1
  8
0
  6
Continuous
 62
     7
370
    25
100
AcDbCircle
 10
116.7175144213
 20
-35.35
 30
0.0
 40
1.785357107135738
100
AcDbArc
 50
171.9505330245
 51
258.578246341
  0
ARC
  5
2B6
330
1B
100
AcDbEntity
 67
     1
  8
0
  6
Continuous
 62
     7
370
    25
100
AcDbCircle
 10
95.5043109857
 20
-35.35
 30
0.0
 40
1.78535710713583
100
AcDbArc
 50
171.9505330245
 51
258.578246341
  0
ARC
  5
2B7
330
1B
100
AcDbEntity
 67
     1
  8
0
  6
Continuous
 62
     7
370
    25
100
AcDbCircle
 10
-145.1074970923
 20
-22.4236736272
 30
0.0
 40
4.69141763622068
100
AcDbArc
 50
176.0438659965
 51
265.4031019749
  0
ARC
  5
2B8
330
1B
100
AcDbEntity
 67
     1
  8
0
  6
Continuous
 62
     7
370
    25
100
AcDbCircle
 10
145.1074970923
 20
-22.4236736272
 30
0.0
 40
4.691417636220599
100
AcDbArc
 50
274.5968980251
 51
3.9561340035
  0
ARC
  5
2B9
330
1B
100
AcDbEntity
 67
     1
  8
0
  6
Continuous
 62
     7
370
    25
100
AcDbCircle
 10
-169.0
 20
-22.1
 30
0.0
 40
5.000000000000057
100
AcDbArc
 50
180.0
 51
270.0
  0
ARC
  5
2BA
330
1B
100
AcDbEntity
 67
     1
  8
0
  6
Continuous
 62
     7
370
    25
100
AcDbCircle
 10
-164.0
 20
-18.1
 30
0.0
 40
9.999999999999956
100
AcDbArc
 50
90.0
 51
180.0
  0
ARC
  5
2BB
330
1B
100
AcDbEntity
 67
     1
  8
0
  6
Continuous
 62
     7
370
    25
100
AcDbCircle
 10
164.0
 20
-18.1
 30
0.0
 40
10.00000000000009
100
AcDbArc
 50
0.0
 51
90.0
  0
ARC
  5
2BC
330
1B
100
AcDbEntity
 67
     1
  8
0
  6
Continuous
 62
     7
370
    25
100
AcDbCircle
 10
169.0
 20
-22.1
 30
0.0
 40
5.0
100
AcDbArc
 50
270.0
 51
0.0
  0
ARC
  5
2BD
330
1B
100
AcDbEntity
 67
     1
  8
0
  6
Continuous
 62
     8
370
    25
100
AcDbCircle
 10
-98.8946091056
 20
-17.5581254588
 30
0.0
 40
10.67048815488747
100
AcDbArc
 50
128.2455984747
 51
182.9108775244
  0
ARC
  5
2BE
330
1B
100
AcDbEntity
 67
     1
  8
0
  6
Continuous
 62
     8
370
    25
100
AcDbCircle
 10
98.8946091056
 20
-17.5581254588
 30
0.0
 40
10.67048815488569
100
AcDbArc
 50
357.0891224756
 51
51.7544015253
  0
VIEWPORT
  5
82A
330
1B
100
AcDbEntity
 67
     1
  8
0
100
AcDbViewport
 10
0.0
 20
0.0
 30
0.0
 40
205.6
 41
156.0
 68
     1
 69
     1
 12
0.0
 22
-10.25
 13
0.0
 23
0.0
 14
10.0
 24
10.0
 15
10.0
 25
10.0
 16
0.0
 26
0.0
 36
1.0
 17
0.0
 27
0.0
 37
0.0
 42
50.0
 43
0.0
 44
0.0
 45
269.3276264591
 50
0.0
 51
0.0
 72
   100
 90
   557152
  1

281
     0
 71
     1
 74
     0
110
0.0
120
0.0
130
0.0
111
1.0
121
0.0
131
0.0
112
0.0
122
1.0
132
0.0
 79
     0
146
0.0
  0
ENDSEC
  0
SECTION
  2
OBJECTS
  0
DICTIONARY
  5
C
330
0
100
AcDbDictionary
281
     1
  3
ACAD_GROUP
350
D
  3
ACAD_LAYOUT
350
1A
  3
ACAD_MLINESTYLE
350
17
  3
ACAD_PLOTSETTINGS
350
19
  3
ACAD_PLOTSTYLENAME
350
E
  3
ACAD_SCALELIST
350
47
  0
DICTIONARY
  5
D
102
{ACAD_REACTORS
330
C
102
}
330
C
100
AcDbDictionary
281
     1
  0
DICTIONARY
  5
1A
102
{ACAD_REACTORS
330
C
102
}
330
C
100
AcDbDictionary
281
     1
  3
_Back
350
1E
  3
_Bottom
350
51A
  3
_Dimetric
350
7AC
  3
_Isometric
350
650
  3
_Left
350
26
  3
_Right
350
3A7
  3
_Top
350
48E
  3
_Trimetric
350
722
  3
Model
350
22
  0
DICTIONARY
  5
17
102
{ACAD_REACTORS
330
C
102
}
330
C
100
AcDbDictionary
281
     1
  3
Standard
350
18
  0
DICTIONARY
  5
19
102
{ACAD_REACTORS
330
C
102
}
330
C
100
AcDbDictionary
281
     1
  0
ACDBDICTIONARYWDFLT
  5
E
102
{ACAD_REACTORS
330
C
102
}
330
C
100
AcDbDictionary
281
     1
  3
Normal
350
F
100
AcDbDictionaryWithDefault
340
F
  0
DICTIONARY
  5
47
102
{ACAD_REACTORS
330
C
102
}
330
C
100
AcDbDictionary
281
     1
  3
A0
350
48
  3
A1
350
49
  3
A2
350
4A
  3
A3
350
4B
  3
A4
350
4C
  3
A5
350
4D
  3
A6
350
4E
  3
A7
350
4F
  3
A8
350
50
  3
A9
350
51
  3
B0
350
52
  3
B1
350
53
  3
B2
350
54
  3
B3
350
55
  3
B4
350
56
  3
B5
350
57
  3
B6
350
58
  3
B7
350
59
  3
B8
350
5A
  3
B9
350
5B
  3
C0
350
5C
  3
C1
350
5D
  3
C2
350
5E
  3
C3
350
5F
  3
C4
350
60
  3
C5
350
61
  3
C6
350
62
  3
C7
350
63
  3
C8
350
64
  3
C9
350
65
  3
D0
350
66
  3
D1
350
67
  3
D2
350
68
  0
LAYOUT
  5
1E
102
{ACAD_REACTORS
330
1A
102
}
330
1A
100
AcDbPlotSettings
  1

  2
none_device
  4
ISO_A4_(210.00_x_297.00_MM)
  6

 40
7.5
 41
20.0
 42
7.5
 43
20.0
 44
210.0
 45
297.0
 46
0.0
 47
0.0
 48
0.0
 49
0.0
140
0.0
141
0.0
142
1.0
143
1.3540856031
 70
   688
 72
     1
 73
     1
 74
     1
  7

 75
     0
147
0.7385057471
148
174.0
149
41.5
100
AcDbLayout
  1
_Back
 70
     1
 71
     1
 10
-201.0817120623
 20
-51.6556420233
 11
201.0817120623
 21
232.7023346304
 12
0.0
 22
0.0
 32
0.0
 14
-174.0
 24
-41.5
 34
0.0
 15
174.0
 25
21.0
 35
0.0
146
0.0
 13
0.0
 23
0.0
 33
0.0
 16
1.0
 26
0.0
 36
0.0
 17
0.0
 27
1.0
 37
0.0
 76
     0
330
1B
331
82A
  0
LAYOUT
  5
51A
102
{ACAD_REACTORS
330
1A
102
}
330
1A
100
AcDbPlotSettings
  1

  2
none_device
  4
ISO_A4_(210.00_x_297.00_MM)
  6

 40
7.5
 41
20.0
 42
7.5
 43
20.0
 44
210.0
 45
297.0
 46
0.0
 47
0.0
 48
0.0
 49
0.0
140
0.0
141
0.0
142
1.0
143
1.3540856031
 70
   688
 72
     1
 73
     1
 74
     1
  7

 75
     0
147
0.7385057471
148
174.0
149
41.5
100
AcDbLayout
  1
_Bottom
 70
     1
 71
     5
 10
0.0
 20
0.0
 11
0.0
 21
0.0
 12
0.0
 22
0.0
 32
0.0
 14
0.0
 24
0.0
 34
0.0
 15
0.0
 25
0.0
 35
0.0
146
0.0
 13
0.0
 23
0.0
 33
0.0
 16
1.0
 26
0.0
 36
0.0
 17
0.0
 27
1.0
 37
0.0
 76
     0
330
519
331
832
  0
LAYOUT
  5
7AC
102
{ACAD_REACTORS
330
1A
102
}
330
1A
100
AcDbPlotSettings
  1

  2
none_device
  4
ISO_A4_(210.00_x_297.00_MM)
  6

 40
7.5
 41
20.0
 42
7.5
 43
20.0
 44
210.0
 45
297.0
 46
0.0
 47
0.0
 48
0.0
 49
0.0
140
0.0
141
0.0
142
1.0
143
1.3540856031
 70
   688
 72
     1
 73
     1
 74
     1
  7

 75
     0
147
0.7385057471
148
174.0
149
41.5
100
AcDbLayout
  1
_Dimetric
 70
     1
 71
     8
 10
0.0
 20
0.0
 11
0.0
 21
0.0
 12
0.0
 22
0.0
 32
0.0
 14
0.0
 24
0.0
 34
0.0
 15
0.0
 25
0.0
 35
0.0
146
0.0
 13
0.0
 23
0.0
 33
0.0
 16
1.0
 26
0.0
 36
0.0
 17
0.0
 27
1.0
 37
0.0
 76
     0
330
7AB
331
838
  0
LAYOUT
  5
650
102
{ACAD_REACTORS
330
1A
102
}
330
1A
100
AcDbPlotSettings
  1

  2
none_device
  4
ISO_A4_(210.00_x_297.00_MM)
  6

 40
7.5
 41
20.0
 42
7.5
 43
20.0
 44
210.0
 45
297.0
 46
0.0
 47
0.0
 48
0.0
 49
0.0
140
0.0
141
0.0
142
1.0
143
1.3540856031
 70
   688
 72
     1
 73
     1
 74
     1
  7

 75
     0
147
0.7385057471
148
174.0
149
41.5
100
AcDbLayout
  1
_Isometric
 70
     1
 71
     6
 10
0.0
 20
0.0
 11
0.0
 21
0.0
 12
0.0
 22
0.0
 32
0.0
 14
0.0
 24
0.0
 34
0.0
 15
0.0
 25
0.0
 35
0.0
146
0.0
 13
0.0
 23
0.0
 33
0.0
 16
1.0
 26
0.0
 36
0.0
 17
0.0
 27
1.0
 37
0.0
 76
     0
330
64F
331
834
  0
LAYOUT
  5
26
102
{ACAD_REACTORS
330
1A
102
}
330
1A
100
AcDbPlotSettings
  1

  2
none_device
  4
ISO_A4_(210.00_x_297.00_MM)
  6

 40
7.5
 41
20.0
 42
7.5
 43
20.0
 44
210.0
 45
297.0
 46
0.0
 47
0.0
 48
0.0
 49
0.0
140
0.0
141
0.0
142
1.0
143
1.3540856031
 70
   688
 72
     1
 73
     1
 74
     1
  7

 75
     0
147
0.7385057471
148
174.0
149
41.5
100
AcDbLayout
  1
_Left
 70
     1
 71
     2
 10
0.0
 20
0.0
 11
0.0
 21
0.0
 12
0.0
 22
0.0
 32
0.0
 14
0.0
 24
0.0
 34
0.0
 15
0.0
 25
0.0
 35
0.0
146
0.0
 13
0.0
 23
0.0
 33
0.0
 16
1.0
 26
0.0
 36
0.0
 17
0.0
 27
1.0
 37
0.0
 76
     0
330
23
331
82C
  0
LAYOUT
  5
3A7
102
{ACAD_REACTORS
330
1A
102
}
330
1A
100
AcDbPlotSettings
  1

  2
none_device
  4
ISO_A4_(210.00_x_297.00_MM)
  6

 40
7.5
 41
20.0
 42
7.5
 43
20.0
 44
210.0
 45
297.0
 46
0.0
 47
0.0
 48
0.0
 49
0.0
140
0.0
141
0.0
142
1.0
143
1.3540856031
 70
   688
 72
     1
 73
     1
 74
     1
  7

 75
     0
147
0.7385057471
148
174.0
149
41.5
100
AcDbLayout
  1
_Right
 70
     1
 71
     3
 10
0.0
 20
0.0
 11
0.0
 21
0.0
 12
0.0
 22
0.0
 32
0.0
 14
0.0
 24
0.0
 34
0.0
 15
0.0
 25
0.0
 35
0.0
146
0.0
 13
0.0
 23
0.0
 33
0.0
 16
1.0
 26
0.0
 36
0.0
 17
0.0
 27
1.0
 37
0.0
 76
     0
330
3A6
331
82E
  0
LAYOUT
  5
48E
102
{ACAD_REACTORS
330
1A
102
}
330
1A
100
AcDbPlotSettings
  1

  2
none_device
  4
ISO_A4_(210.00_x_297.00_MM)
  6

 40
7.5
 41
20.0
 42
7.5
 43
20.0
 44
210.0
 45
297.0
 46
0.0
 47
0.0
 48
0.0
 49
0.0
140
0.0
141
0.0
142
1.0
143
1.3540856031
 70
   688
 72
     1
 73
     1
 74
     1
  7

 75
     0
147
0.7385057471
148
174.0
149
41.5
100
AcDbLayout
  1
_Top
 70
     1
 71
     4
 10
0.0
 20
0.0
 11
0.0
 21
0.0
 12
0.0
 22
0.0
 32
0.0
 14
0.0
 24
0.0
 34
0.0
 15
0.0
 25
0.0
 35
0.0
146
0.0
 13
0.0
 23
0.0
 33
0.0
 16
1.0
 26
0.0
 36
0.0
 17
0.0
 27
1.0
 37
0.0
 76
     0
330
48D
331
830
  0
LAYOUT
  5
722
102
{ACAD_REACTORS
330
1A
102
}
330
1A
100
AcDbPlotSettings
  1

  2
none_device
  4
ISO_A4_(210.00_x_297.00_MM)
  6

 40
7.5
 41
20.0
 42
7.5
 43
20.0
 44
210.0
 45
297.0
 46
0.0
 47
0.0
 48
0.0
 49
0.0
140
0.0
141
0.0
142
1.0
143
1.3540856031
 70
   688
 72
     1
 73
     1
 74
     1
  7

 75
     0
147
0.7385057471
148
174.0
149
41.5
100
AcDbLayout
  1
_Trimetric
 70
     1
 71
     7
 10
0.0
 20
0.0
 11
0.0
 21
0.0
 12
0.0
 22
0.0
 32
0.0
 14
0.0
 24
0.0
 34
0.0
 15
0.0
 25
0.0
 35
0.0
146
0.0
 13
0.0
 23
0.0
 33
0.0
 16
1.0
 26
0.0
 36
0.0
 17
0.0
 27
1.0
 37
0.0
 76
     0
330
721
331
836
  0
LAYOUT
  5
22
102
{ACAD_REACTORS
330
1A
102
}
330
1A
100
AcDbPlotSettings
  1

  2
none_device
  4
ANSI_A_(11.00_x_8.50_Inches)
  6

 40
6.35
 41
19.05
 42
6.35000508
 43
19.05000254
 44
279.4
 45
215.9
 46
133.34999746
 47
97.0471582128
 48
0.0
 49
0.0
140
0.0
141
0.0
142
0.0312931034
143
1.0
 70
  1696
 72
     0
 73
     0
 74
     0
  7

 75
     0
147
0.0179189148
148
-1300.4909072572
149
0.0
100
AcDbLayout
  1
Model
 70
     1
 71
     0
 10
0.0
 20
0.0
 11
420.0
 21
297.0
 12
0.0
 22
0.0
 32
0.0
 14
-174.0
 24
-41.5
 34
0.0
 15
174.0
 25
21.0
 35
0.0
146
0.0
 13
0.0
 23
0.0
 33
0.0
 16
1.0
 26
0.0
 36
0.0
 17
0.0
 27
1.0
 37
0.0
 76
     0
330
1F
331
29
  0
MLINESTYLE
  5
18
102
{ACAD_REACTORS
330
17
102
}
330
17
100
AcDbMlineStyle
  2
Standard
 70
     0
  3

 62
   256
 51
90.0
 52
90.0
 71
     2
 49
0.5
 62
   256
  6
BYLAYER
 49
-0.5
 62
   256
  6
BYLAYER
  0
ACDBPLACEHOLDER
  5
F
102
{ACAD_REACTORS
330
E
102
}
330
E
  0
SCALE
  5
48
102
{ACAD_REACTORS
330
47
102
}
330
47
100
AcDbScale
 70
     0
300
1:1
140
1.0
141
1.0
290
     1
  0
SCALE
  5
49
102
{ACAD_REACTORS
330
47
102
}
330
47
100
AcDbScale
 70
     0
300
1:2
140
1.0
141
2.0
290
     0
  0
SCALE
  5
4A
102
{ACAD_REACTORS
330
47
102
}
330
47
100
AcDbScale
 70
     0
300
1:4
140
1.0
141
4.0
290
     0
  0
SCALE
  5
4B
102
{ACAD_REACTORS
330
47
102
}
330
47
100
AcDbScale
 70
     0
300
1:5
140
1.0
141
5.0
290
     0
  0
SCALE
  5
4C
102
{ACAD_REACTORS
330
47
102
}
330
47
100
AcDbScale
 70
     0
300
1:8
140
1.0
141
8.0
290
     0
  0
SCALE
  5
4D
102
{ACAD_REACTORS
330
47
102
}
330
47
100
AcDbScale
 70
     0
300
1:10
140
1.0
141
10.0
290
     0
  0
SCALE
  5
4E
102
{ACAD_REACTORS
330
47
102
}
330
47
100
AcDbScale
 70
     0
300
1:16
140
1.0
141
16.0
290
     0
  0
SCALE
  5
4F
102
{ACAD_REACTORS
330
47
102
}
330
47
100
AcDbScale
 70
     0
300
1:20
140
1.0
141
20.0
290
     0
  0
SCALE
  5
50
102
{ACAD_REACTORS
330
47
102
}
330
47
100
AcDbScale
 70
     0
300
1:30
140
1.0
141
30.0
290
     0
  0
SCALE
  5
51
102
{ACAD_REACTORS
330
47
102
}
330
47
100
AcDbScale
 70
     0
300
1:40
140
1.0
141
40.0
290
     0
  0
SCALE
  5
52
102
{ACAD_REACTORS
330
47
102
}
330
47
100
AcDbScale
 70
     0
300
1:50
140
1.0
141
50.0
290
     0
  0
SCALE
  5
53
102
{ACAD_REACTORS
330
47
102
}
330
47
100
AcDbScale
 70
     0
300
1:100
140
1.0
141
100.0
290
     0
  0
SCALE
  5
54
102
{ACAD_REACTORS
330
47
102
}
330
47
100
AcDbScale
 70
     0
300
2:1
140
2.0
141
1.0
290
     0
  0
SCALE
  5
55
102
{ACAD_REACTORS
330
47
102
}
330
47
100
AcDbScale
 70
     0
300
4:1
140
4.0
141
1.0
290
     0
  0
SCALE
  5
56
102
{ACAD_REACTORS
330
47
102
}
330
47
100
AcDbScale
 70
     0
300
8:1
140
8.0
141
1.0
290
     0
  0
SCALE
  5
57
102
{ACAD_REACTORS
330
47
102
}
330
47
100
AcDbScale
 70
     0
300
10:1
140
10.0
141
1.0
290
     0
  0
SCALE
  5
58
102
{ACAD_REACTORS
330
47
102
}
330
47
100
AcDbScale
 70
     0
300
100:1
140
100.0
141
1.0
290
     0
  0
SCALE
  5
59
102
{ACAD_REACTORS
330
47
102
}
330
47
100
AcDbScale
 70
     0
300
1/128" = 1'-0"
140
0.0078125
141
12.0
290
     0
  0
SCALE
  5
5A
102
{ACAD_REACTORS
330
47
102
}
330
47
100
AcDbScale
 70
     0
300
1/64" = 1'-0"
140
0.015625
141
12.0
290
     0
  0
SCALE
  5
5B
102
{ACAD_REACTORS
330
47
102
}
330
47
100
AcDbScale
 70
     0
300
1/32" = 1'-0"
140
0.03125
141
12.0
290
     0
  0
SCALE
  5
5C
102
{ACAD_REACTORS
330
47
102
}
330
47
100
AcDbScale
 70
     0
300
1/16" = 1'-0"
140
0.0625
141
12.0
290
     0
  0
SCALE
  5
5D
102
{ACAD_REACTORS
330
47
102
}
330
47
100
AcDbScale
 70
     0
300
3/32" = 1'-0"
140
0.09375
141
12.0
290
     0
  0
SCALE
  5
5E
102
{ACAD_REACTORS
330
47
102
}
330
47
100
AcDbScale
 70
     0
300
1/8" = 1'-0"
140
0.125
141
12.0
290
     0
  0
SCALE
  5
5F
102
{ACAD_REACTORS
330
47
102
}
330
47
100
AcDbScale
 70
     0
300
3/16" = 1'-0"
140
0.1875
141
12.0
290
     0
  0
SCALE
  5
60
102
{ACAD_REACTORS
330
47
102
}
330
47
100
AcDbScale
 70
     0
300
1/4" = 1'-0"
140
0.25
141
12.0
290
     0
  0
SCALE
  5
61
102
{ACAD_REACTORS
330
47
102
}
330
47
100
AcDbScale
 70
     0
300
3/8" = 1'-0"
140
0.375
141
12.0
290
     0
  0
SCALE
  5
62
102
{ACAD_REACTORS
330
47
102
}
330
47
100
AcDbScale
 70
     0
300
1/2" = 1'-0"
140
0.5
141
12.0
290
     0
  0
SCALE
  5
63
102
{ACAD_REACTORS
330
47
102
}
330
47
100
AcDbScale
 70
     0
300
3/4" = 1'-0"
140
0.75
141
12.0
290
     0
  0
SCALE
  5
64
102
{ACAD_REACTORS
330
47
102
}
330
47
100
AcDbScale
 70
     0
300
1" = 1'-0"
140
1.0
141
12.0
290
     0
  0
SCALE
  5
65
102
{ACAD_REACTORS
330
47
102
}
330
47
100
AcDbScale
 70
     0
300
1-1/2" = 1'-0"
140
1.5
141
12.0
290
     0
  0
SCALE
  5
66
102
{ACAD_REACTORS
330
47
102
}
330
47
100
AcDbScale
 70
     0
300
3" = 1'-0"
140
3.0
141
12.0
290
     0
  0
SCALE
  5
67
102
{ACAD_REACTORS
330
47
102
}
330
47
100
AcDbScale
 70
     0
300
6" = 1'-0"
140
6.0
141
12.0
290
     0
  0
SCALE
  5
68
102
{ACAD_REACTORS
330
47
102
}
330
47
100
AcDbScale
 70
     0
300
1'-0" = 1'-0"
140
12.0
141
12.0
290
     0
  0
ENDSEC
  0
EOF
