  0
SECTION
  2
HEADER
  9
$ACADVER
  1
AC1015
  9
$ACADMAINTVER
 70
     6
  9
$DWGCODEPAGE
  3
ANSI_1252
  9
$INSBASE
 10
0.0
 20
0.0
 30
0.0
  9
$EXTMIN
 10
-302.4697107826
 20
0.0
 30
0.0
  9
$EXTMAX
 10
302.4697107826
 20
119.9999999443
 30
0.0
  9
$LIMMIN
 10
0.0
 20
0.0
  9
$LIMMAX
 10
420.0
 20
297.0
  9
$ORTHOMODE
 70
     0
  9
$REGENMODE
 70
     1
  9
$FILLMODE
 70
     1
  9
$QTEXTMODE
 70
     0
  9
$MIRRTEXT
 70
     1
  9
$LTSCALE
 40
1.0
  9
$ATTMODE
 70
     1
  9
$TEXTSIZE
 40
3.5
  9
$TRACEWID
 40
1.0
  9
$TEXTSTYLE
  7
Standard
  9
$CLAYER
  8
0
  9
$CELTYPE
  6
ByLayer
  9
$CECOLOR
 62
   256
  9
$CELTSCALE
 40
1.0
  9
$DISPSILH
 70
     0
  9
$DIMSCALE
 40
1.0
  9
$DIMASZ
 40
3.302
  9
$DIMEXO
 40
1.0
  9
$DIMDLI
 40
3.75
  9
$DIMRND
 40
0.0
  9
$DIMDLE
 40
0.0
  9
$DIMEXE
 40
1.0
  9
$DIMTP
 40
0.0
  9
$DIMTM
 40
0.0
  9
$DIMTXT
 40
3.5
  9
$DIMCEN
 40
2.5
  9
$DIMTSZ
 40
0.0
  9
$DIMTOL
 70
     0
  9
$DIMLIM
 70
     0
  9
$DIMTIH
 70
     1
  9
$DIMTOH
 70
     1
  9
$DIMSE1
 70
     0
  9
$DIMSE2
 70
     0
  9
$DIMTAD
 70
     1
  9
$DIMZIN
 70
     1
  9
$DIMBLK
  1

  9
$DIMASO
 70
     1
  9
$DIMSHO
 70
     1
  9
$DIMPOST
  1

  9
$DIMAPOST
  1

  9
$DIMALT
 70
     0
  9
$DIMALTD
 70
     3
  9
$DIMALTF
 40
0.0393700787
  9
$DIMLFAC
 40
1.0
  9
$DIMTOFL
 70
     1
  9
$DIMTVP
 40
0.0
  9
$DIMTIX
 70
     0
  9
$DIMSOXD
 70
     0
  9
$DIMSAH
 70
     0
  9
$DIMBLK1
  1

  9
$DIMBLK2
  1

  9
$DIMSTYLE
  2
ISO-25
  9
$DIMCLRD
 70
     0
  9
$DIMCLRE
 70
     0
  9
$DIMCLRT
 70
     0
  9
$DIMTFAC
 40
1.0
  9
$DIMGAP
 40
1.524
  9
$DIMJUST
 70
     0
  9
$DIMSD1
 70
     0
  9
$DIMSD2
 70
     0
  9
$DIMTOLJ
 70
     0
  9
$DIMTZIN
 70
     1
  9
$DIMALTZ
 70
     0
  9
$DIMALTTZ
 70
     0
  9
$DIMUPT
 70
     0
  9
$DIMDEC
 70
     2
  9
$DIMTDEC
 70
     2
  9
$DIMALTU
 70
     2
  9
$DIMALTTD
 70
     3
  9
$DIMTXSTY
  7
Standard
  9
$DIMAUNIT
 70
     0
  9
$DIMADEC
 70
     2
  9
$DIMALTRND
 40
0.0
  9
$DIMAZIN
 70
     0
  9
$DIMDSEP
 70
    44
  9
$DIMATFIT
 70
     3
  9
$DIMFRAC
 70
     0
  9
$DIMLDRBLK
  1

  9
$DIMLUNIT
 70
     2
  9
$DIMLWD
 70
    -2
  9
$DIMLWE
 70
    -2
  9
$DIMTMOVE
 70
     0
  9
$LUNITS
 70
     2
  9
$LUPREC
 70
     2
  9
$SKETCHINC
 40
1.0
  9
$FILLETRAD
 40
10.0
  9
$AUNITS
 70
     0
  9
$AUPREC
 70
     2
  9
$MENU
  1
.
  9
$ELEVATION
 40
0.0
  9
$PELEVATION
 40
0.0
  9
$THICKNESS
 40
0.0
  9
$LIMCHECK
 70
     0
  9
$CHAMFERA
 40
0.0
  9
$CHAMFERB
 40
0.0
  9
$CHAMFERC
 40
0.0
  9
$CHAMFERD
 40
0.0
  9
$SKPOLY
 70
     0
  9
$TDCREATE
 40
2460292.41957794
  9
$TDUCREATE
 40
2460292.41957794
  9
$TDUPDATE
 40
2460292.419636424
  9
$TDUUPDATE
 40
2460292.419636424
  9
$TDINDWG
 40
0.0000000116
  9
$TDUSRTIMER
 40
0.0000000116
  9
$USRTIMER
 70
     1
  9
$ANGBASE
 50
0.0
  9
$ANGDIR
 70
     0
  9
$PDMODE
 70
     0
  9
$PDSIZE
 40
-1.0
  9
$PLINEWID
 40
0.0
  9
$SPLFRAME
 70
     0
  9
$SPLINETYPE
 70
     6
  9
$SPLINESEGS
 70
     8
  9
$HANDSEED
  5
257
  9
$SURFTAB1
 70
     6
  9
$SURFTAB2
 70
     6
  9
$SURFTYPE
 70
     6
  9
$SURFU
 70
     6
  9
$SURFV
 70
     6
  9
$UCSBASE
  2

  9
$UCSNAME
  2

  9
$UCSORG
 10
0.0
 20
0.0
 30
0.0
  9
$UCSXDIR
 10
1.0
 20
0.0
 30
0.0
  9
$UCSYDIR
 10
0.0
 20
1.0
 30
0.0
  9
$UCSORTHOREF
  2

  9
$UCSORTHOVIEW
 70
     0
  9
$UCSORGTOP
 10
0.0
 20
0.0
 30
0.0
  9
$UCSORGBOTTOM
 10
0.0
 20
0.0
 30
0.0
  9
$UCSORGLEFT
 10
0.0
 20
0.0
 30
0.0
  9
$UCSORGRIGHT
 10
0.0
 20
0.0
 30
0.0
  9
$UCSORGFRONT
 10
0.0
 20
0.0
 30
0.0
  9
$UCSORGBACK
 10
0.0
 20
0.0
 30
0.0
  9
$PUCSBASE
  2

  9
$PUCSNAME
  2

  9
$PUCSORG
 10
0.0
 20
0.0
 30
0.0
  9
$PUCSXDIR
 10
1.0
 20
0.0
 30
0.0
  9
$PUCSYDIR
 10
0.0
 20
1.0
 30
0.0
  9
$PUCSORTHOREF
  2

  9
$PUCSORTHOVIEW
 70
     0
  9
$PUCSORGTOP
 10
0.0
 20
0.0
 30
0.0
  9
$PUCSORGBOTTOM
 10
0.0
 20
0.0
 30
0.0
  9
$PUCSORGLEFT
 10
0.0
 20
0.0
 30
0.0
  9
$PUCSORGRIGHT
 10
0.0
 20
0.0
 30
0.0
  9
$PUCSORGFRONT
 10
0.0
 20
0.0
 30
0.0
  9
$PUCSORGBACK
 10
0.0
 20
0.0
 30
0.0
  9
$USERI1
 70
     0
  9
$USERI2
 70
     0
  9
$USERI3
 70
     0
  9
$USERI4
 70
     0
  9
$USERI5
 70
     0
  9
$USERR1
 40
0.0
  9
$USERR2
 40
0.0
  9
$USERR3
 40
0.0
  9
$USERR4
 40
0.0
  9
$USERR5
 40
0.0
  9
$WORLDVIEW
 70
     1
  9
$SHADEDGE
 70
     3
  9
$SHADEDIF
 70
    70
  9
$TILEMODE
 70
     1
  9
$MAXACTVP
 70
    64
  9
$PINSBASE
 10
0.0
 20
0.0
 30
0.0
  9
$PLIMCHECK
 70
     0
  9
$PEXTMIN
 10
-302.4697103266
 20
-199.3869248914
 30
0.0
  9
$PEXTMAX
 10
302.4697103231
 20
199.3869248926
 30
0.0
  9
$PLIMMIN
 10
-349.5467080425
 20
-217.0407990349
  9
$PLIMMAX
 10
349.546708039
 20
277.2676769823
  9
$UNITMODE
 70
     0
  9
$VISRETAIN
 70
     1
  9
$PLINEGEN
 70
     0
  9
$PSLTSCALE
 70
     1
  9
$TREEDEPTH
 70
  3020
  9
$CMLSTYLE
  2
Standard
  9
$CMLJUST
 70
     0
  9
$CMLSCALE
 40
20.0
  9
$PROXYGRAPHICS
 70
     1
  9
$MEASUREMENT
 70
     1
  9
$CELWEIGHT
370
    -1
  9
$ENDCAPS
280
     0
  9
$JOINSTYLE
280
     0
  9
$LWDISPLAY
290
     1
  9
$INSUNITS
 70
     4
  9
$HYPERLINKBASE
  1

  9
$STYLESHEET
  1

  9
$XEDIT
290
     1
  9
$CEPSNTYPE
380
     0
  9
$PSTYLEMODE
290
     1
  9
$FINGERPRINTGUID
  2
{93c24c43-eeb1-462a-8950-fb9104771f88}
  9
$VERSIONGUID
  2
{FAEB1C32-E019-11D5-929B-00C0DF256EC4}
  9
$EXTNAMES
290
     1
  9
$PSVPSCALE
 40
0.0
  9
$OLESTARTUP
290
     0
  0
ENDSEC
  0
SECTION
  2
CLASSES
  0
CLASS
  1
ACDBDICTIONARYWDFLT
  2
AcDbDictionaryWithDefault
  3
ObjectDBX Classes
 90
        0
280
     0
281
     0
  0
CLASS
  1
VISUALSTYLE
  2
AcDbVisualStyle
  3
ObjectDBX Classes
 90
     4095
280
     0
281
     0
  0
CLASS
  1
MATERIAL
  2
AcDbMaterial
  3
ObjectDBX Classes
 90
     1153
280
     0
281
     0
  0
CLASS
  1
SCALE
  2
AcDbScale
  3
ObjectDBX Classes
 90
     1153
280
     0
281
     0
  0
CLASS
  1
TABLESTYLE
  2
AcDbTableStyle
  3
ObjectDBX Classes
 90
     4095
280
     0
281
     0
  0
CLASS
  1
MLEADERSTYLE
  2
AcDbMLeaderStyle
  3
ACDB_MLEADERSTYLE_CLASS
 90
     4095
280
     0
281
     0
  0
CLASS
  1
SUN
  2
AcDbSun
  3
SCENEOE
 90
     1153
280
     0
281
     0
  0
CLASS
  1
ACDBPLACEHOLDER
  2
AcDbPlaceHolder
  3
ObjectDBX Classes
 90
        0
280
     0
281
     0
  0
CLASS
  1
LAYOUT
  2
AcDbLayout
  3
ObjectDBX Classes
 90
        0
280
     0
281
     0
  0
ENDSEC
  0
SECTION
  2
TABLES
  0
TABLE
  2
VPORT
  5
8
330
0
100
AcDbSymbolTable
 70
     1
  0
VPORT
  5
29
330
8
100
AcDbSymbolTableRecord
100
AcDbViewportTableRecord
  2
*Active
 70
     0
 10
0.0
 20
0.0
 11
1.0
 21
1.0
 12
0.0
 22
59.9999999721
 13
0.0
 23
0.0
 14
10.0
 24
10.0
 15
10.0
 25
10.0
 16
0.0
 26
0.0
 36
1.0
 17
0.0
 27
0.0
 37
0.0
 40
122.3999999432
 41
5.0411618487
 42
50.0
 43
0.0
 44
0.0
 50
0.0
 51
0.0
 71
     0
 72
   100
 73
     1
 74
     3
 75
     0
 76
     0
 77
     0
 78
     0
281
     0
 65
     1
110
0.0
120
0.0
130
0.0
111
1.0
121
0.0
131
0.0
112
0.0
122
1.0
132
0.0
 79
     0
146
0.0
  0
ENDTAB
  0
TABLE
  2
LTYPE
  5
5
330
0
100
AcDbSymbolTable
 70
     6
  0
LTYPE
  5
14
330
5
100
AcDbSymbolTableRecord
100
AcDbLinetypeTableRecord
  2
ByBlock
 70
     0
  3

 72
    65
 73
     0
 40
0.0
  0
LTYPE
  5
15
330
5
100
AcDbSymbolTableRecord
100
AcDbLinetypeTableRecord
  2
ByLayer
 70
     0
  3

 72
    65
 73
     0
 40
0.0
  0
LTYPE
  5
16
330
5
100
AcDbSymbolTableRecord
100
AcDbLinetypeTableRecord
  2
Continuous
 70
     0
  3
Solid line
 72
    65
 73
     0
 40
0.0
  0
LTYPE
  5
6E
330
5
100
AcDbSymbolTableRecord
100
AcDbLinetypeTableRecord
  2
HIDDEN
 70
     0
  3
Hidden __ __ __ __ __ __ __ __ __ __ __ __ __ __
 72
    65
 73
     2
 40
1.905
 49
1.27
 74
     0
 49
-0.635
 74
     0
  0
LTYPE
  5
6F
330
5
100
AcDbSymbolTableRecord
100
AcDbLinetypeTableRecord
  2
PHANTOM
 70
     0
  3
Phantom ______  __  __  ______  __  __  ______
 72
    65
 73
     6
 40
12.7
 49
6.35
 74
     0
 49
-1.27
 74
     0
 49
1.27
 74
     0
 49
-1.27
 74
     0
 49
1.27
 74
     0
 49
-1.27
 74
     0
  0
LTYPE
  5
70
330
5
100
AcDbSymbolTableRecord
100
AcDbLinetypeTableRecord
  2
CENTER
 70
     0
  3
Center ____ _ ____ _ ____ _ ____ _ ____ _ ____
 72
    65
 73
     4
 40
10.16
 49
6.35
 74
     0
 49
-1.27
 74
     0
 49
1.27
 74
     0
 49
-1.27
 74
     0
  0
LTYPE
  5
71
330
5
100
AcDbSymbolTableRecord
100
AcDbLinetypeTableRecord
  2
CENTERX2
 70
     0
  3
Center (2x) ________  __  ________  __  _____
 72
    65
 73
     4
 40
20.32
 49
12.7
 74
     0
 49
-2.54
 74
     0
 49
2.54
 74
     0
 49
-2.54
 74
     0
  0
LTYPE
  5
72
330
5
100
AcDbSymbolTableRecord
100
AcDbLinetypeTableRecord
  2
DOT2
 70
     0
  3
Dot (.5x) ........................................
 72
    65
 73
     2
 40
0.635
 49
0.0
 74
     0
 49
-0.635
 74
     0
  0
ENDTAB
  0
TABLE
  2
LAYER
  5
2
330
0
100
AcDbSymbolTable
 70
     1
  0
LAYER
  5
10
330
2
100
AcDbSymbolTableRecord
100
AcDbLayerTableRecord
  2
0
 70
     0
 62
     7
  6
Continuous
370
    -3
390
F
  0
ENDTAB
  0
TABLE
  2
STYLE
  5
3
330
0
100
AcDbSymbolTable
 70
     1
  0
STYLE
  5
11
330
3
100
AcDbSymbolTableRecord
100
AcDbTextStyleTableRecord
  2
Standard
 70
     0
 40
0.0
 41
1.0
 50
0.0
 71
     0
 42
3.5
  3
txt
  4

  0
ENDTAB
  0
TABLE
  2
VIEW
  5
6
330
0
100
AcDbSymbolTable
 70
     0
  0
ENDTAB
  0
TABLE
  2
UCS
  5
7
330
0
100
AcDbSymbolTable
 70
     0
  0
ENDTAB
  0
TABLE
  2
APPID
  5
9
330
0
100
AcDbSymbolTable
 70
     1
  0
APPID
  5
12
330
9
100
AcDbSymbolTableRecord
100
AcDbRegAppTableRecord
  2
ACAD
 70
     0
  0
ENDTAB
  0
TABLE
  2
DIMSTYLE
  5
A
330
0
100
AcDbSymbolTable
 70
     1
100
AcDbDimStyleTable
  0
DIMSTYLE
105
27
330
A
100
AcDbSymbolTableRecord
100
AcDbDimStyleTableRecord
  2
ISO-25
 70
     0
 41
2.5
 42
0.625
 43
3.75
 44
1.25
 73
     0
 74
     0
 77
     1
 78
     8
140
2.5
141
2.5
143
0.0393700787
147
0.625
171
     3
172
     1
178
     0
271
     2
272
     2
274
     3
278
    44
283
     0
284
     8
340
11
  0
ENDTAB
  0
TABLE
  2
BLOCK_RECORD
  5
1
330
0
100
AcDbSymbolTable
 70
     3
  0
BLOCK_RECORD
  5
1F
330
1
100
AcDbSymbolTableRecord
100
AcDbBlockTableRecord
  2
*Model_Space
340
22
  0
BLOCK_RECORD
  5
1B
330
1
100
AcDbSymbolTableRecord
100
AcDbBlockTableRecord
  2
*Paper_Space
340
1E
  0
BLOCK_RECORD
  5
23
330
1
100
AcDbSymbolTableRecord
100
AcDbBlockTableRecord
  2
*Paper_Space0
340
26
  0
BLOCK_RECORD
  5
ED
330
1
100
AcDbSymbolTableRecord
100
AcDbBlockTableRecord
  2
*Paper_Space1
340
EE
  0
BLOCK_RECORD
  5
1DB
330
1
100
AcDbSymbolTableRecord
100
AcDbBlockTableRecord
  2
*Paper_Space2
340
1DC
  0
ENDTAB
  0
ENDSEC
  0
SECTION
  2
BLOCKS
  0
BLOCK
  5
20
330
1F
100
AcDbEntity
  8
0
100
AcDbBlockBegin
  2
*Model_Space
 70
     0
 10
0.0
 20
0.0
 30
0.0
  3
*Model_Space
  1

  0
ENDBLK
  5
21
330
1F
100
AcDbEntity
  8
0
100
AcDbBlockEnd
  0
BLOCK
  5
1C
330
1B
100
AcDbEntity
 67
     1
  8
0
100
AcDbBlockBegin
  2
*Paper_Space
 70
     0
 10
0.0
 20
0.0
 30
0.0
  3
*Paper_Space
  1

  0
ENDBLK
  5
1D
330
1B
100
AcDbEntity
 67
     1
  8
0
100
AcDbBlockEnd
  0
BLOCK
  5
24
330
23
100
AcDbEntity
  8
0
100
AcDbBlockBegin
  2
*Paper_Space0
 70
     0
 10
0.0
 20
0.0
 30
0.0
  3
*Paper_Space0
  1

  0
SPLINE
  5
CF
330
23
100
AcDbEntity
  8
0
  6
Continuous
 62
     7
370
    25
100
AcDbSpline
210
0.0
220
0.0
230
1.0
 70
     8
 71
     3
 72
    52
 73
    48
 74
     0
 42
0.000000001
 43
0.00000001
 40
0.0
 40
0.0
 40
0.0
 40
0.0
 40
0.0062033825661029
 40
0.0183959281472748
 40
0.0312456940445276
 40
0.0509324226550183
 40
0.0697599376873297
 40
0.0876973741856319
 40
0.1047437042197292
 40
0.130912554249461
 40
0.1570390138341611
 40
0.1831687898449133
 40
0.2093042981451831
 40
0.2354516043609165
 40
0.2615965214198404
 40
0.2877354429373084
 40
0.3138767425036487
 40
0.3400232327456997
 40
0.3661806541638747
 40
0.3923376029931483
 40
0.4184870744000002
 40
0.4446361791694993
 40
0.4707887689046364
 40
0.4969504701351903
 40
0.5231120201031633
 40
0.5492639548153609
 40
0.5754123020126165
 40
0.6015615104717826
 40
0.6277196902830479
 40
0.6538789390621681
 40
0.6800250656147637
 40
0.7061650046899651
 40
0.7323027334928268
 40
0.7584481835376421
 40
0.7845978051788692
 40
0.810733391420923
 40
0.8368619082686295
 40
0.8630567136098948
 40
0.8898345115139957
 40
0.9069233958399825
 40
0.9242905768603867
 40
0.9425368681166156
 40
0.9619495633672503
 40
0.972092244127551
 40
0.982523559350543
 40
0.9932227646683934
 40
1.0
 40
1.0
 40
1.0
 40
1.0
 10
192.1145578754906
 20
119.8508088591399
 30
0.0
 10
192.1159720554179
 20
119.886260299916
 30
0.0
 10
192.1201657597482
 20
119.9913903882644
 30
0.0
 10
191.543291435051
 20
119.9940013650042
 30
0.0
 10
190.1481862153724
 20
120.0026052444745
 30
0.0
 10
187.7429819685885
 20
119.9992160659263
 30
0.0
 10
184.6355439931621
 20
120.0001921299043
 30
0.0
 10
181.1291962811008
 20
119.9999496230665
 30
0.0
 10
176.6047934963618
 20
120.0000172047758
 30
0.0
 10
170.7193478311582
 20
119.9999908546361
 30
0.0
 10
163.0748593780217
 20
119.9999993691642
 30
0.0
 10
154.4865072701007
 20
119.9999968808851
 30
0.0
 10
145.0007813488655
 20
119.9999977501961
 30
0.0
 10
134.6713586020497
 20
119.9999979691748
 30
0.0
 10
123.5581123238555
 20
119.9999974754512
 30
0.0
 10
111.7295331493693
 20
119.9999983629225
 30
0.0
 10
99.24999592449245
 20
119.9999980548413
 30
0.0
 10
86.19087936525727
 20
119.9999978794806
 30
0.0
 10
72.6280912693756
 20
119.9999978552824
 30
0.0
 10
58.64072114532753
 20
119.9999984434311
 30
0.0
 10
44.31451910932858
 20
119.9999984117515
 30
0.0
 10
29.73043395269524
 20
119.9999985594169
 30
0.0
 10
14.97101333244863
 20
119.9999991097649
 30
0.0
 10
0.1221032546577718
 20
119.9999980342389
 30
0.0
 10
-14.72739503047374
 20
119.999999185895
 30
0.0
 10
-29.48865162572918
 20
119.9999986209453
 30
0.0
 10
-44.07599491556557
 20
119.9999984493796
 30
0.0
 10
-58.40710283978924
 20
119.9999983247447
 30
0.0
 10
-72.40136622337316
 20
119.9999980104972
 30
0.0
 10
-85.97212899690622
 20
119.9999977924859
 30
0.0
 10
-99.0400828630542
 20
119.99999799495
 30
0.0
 10
-111.5293852107987
 20
119.9999985436394
 30
0.0
 10
-123.3686829733355
 20
119.9999972614588
 30
0.0
 10
-134.4947495571485
 20
119.9999981527459
 30
0.0
 10
-144.8378482969943
 20
119.9999975959607
 30
0.0
 10
-154.3378191831544
 20
119.9999973586374
 30
0.0
 10
-162.9489810122159
 20
119.9999972454273
 30
0.0
 10
-170.6737055121303
 20
119.9999994097633
 30
0.0
 10
-176.6233782331844
 20
119.9999893399268
 30
0.0
 10
-181.14381873546
 20
120.0000152304949
 30
0.0
 10
-184.5825876007789
 20
119.9999263343705
 30
0.0
 10
-187.5961260138999
 20
120.0002691237466
 30
0.0
 10
-189.6603167458165
 20
119.9965866908452
 30
0.0
 10
-191.0503359609777
 20
119.9914984915596
 30
0.0
 10
-191.8936286926598
 20
119.9739947312686
 30
0.0
 10
-192.6460309924508
 20
119.9860696794627
 30
0.0
 10
-192.6666032649289
 20
119.9251179950506
 30
0.0
 10
-192.6745810411069
 20
119.9014813794831
 30
0.0
  0
SPLINE
  5
D0
330
23
100
AcDbEntity
  8
0
  6
Continuous
 62
     7
370
    25
100
AcDbSpline
210
0.0
220
0.0
230
1.0
 70
     8
 71
     3
 72
    11
 73
     7
 74
     0
 42
0.000000001
 43
0.00000001
 40
0.0
 40
0.0
 40
0.0
 40
0.0
 40
0.2337634182526095
 40
0.4898889716197282
 40
0.7482796056303805
 40
0.9999999999999999
 40
0.9999999999999999
 40
0.9999999999999999
 40
0.9999999999999999
 10
186.1162846212586
 20
8.732476031107439
 30
0.0
 10
187.1655793659664
 20
16.97929288676964
 30
0.0
 10
189.3645458563324
 20
34.26182861779178
 30
0.0
 10
192.6716467621937
 20
60.7072719932893
 30
0.0
 10
196.0336035052815
 20
87.80061467351841
 30
0.0
 10
198.2553506554588
 20
105.8349912566299
 30
0.0
 10
199.3516983870653
 20
114.7342703020673
 30
0.0
  0
SPLINE
  5
D1
330
23
100
AcDbEntity
  8
0
  6
Continuous
 62
     7
370
    25
100
AcDbSpline
210
0.0
220
0.0
230
1.0
 70
     8
 71
     3
 72
    11
 73
     7
 74
     0
 42
0.000000001
 43
0.00000001
 40
0.0
 40
0.0
 40
0.0
 40
0.0
 40
0.2517108268363341
 40
0.5101031635836287
 40
0.7662304047610138
 40
1.0
 40
1.0
 40
1.0
 40
1.0
 10
-199.3515515237298
 20
114.7330796018565
 30
0.0
 10
-198.2552526570828
 20
105.8341974443641
 30
0.0
 10
-196.0335543410491
 20
87.80021774651696
 30
0.0
 10
-192.6716467611966
 20
60.70727196587593
 30
0.0
 10
-189.3645252800563
 20
34.26166483976872
 30
0.0
 10
-187.1655379217604
 20
16.97896558678633
 30
0.0
 10
-186.1162223384127
 20
8.731985184624646
 30
0.0
  0
SPLINE
  5
D2
330
23
100
AcDbEntity
  8
0
  6
Continuous
 62
     7
370
    25
100
AcDbSpline
210
0.0
220
0.0
230
1.0
 70
     8
 71
     3
 72
    11
 73
     7
 74
     0
 42
0.000000001
 43
0.00000001
 40
0.0
 40
0.0
 40
0.0
 40
0.0
 40
0.2499999999999978
 40
0.5000000000000002
 40
0.7500000000000019
 40
0.9999999999999999
 40
0.9999999999999999
 40
0.9999999999999999
 40
0.9999999999999999
 10
176.1987612298038
 20
0.0
 30
0.0
 10
177.403099888466
 20
0.1265730066377993
 30
0.0
 10
179.8117772057904
 20
0.3797190199134118
 30
0.0
 10
182.9363390611365
 20
2.347363284428611
 30
0.0
 10
185.2839098327871
 20
5.19752507135502
 30
0.0
 10
185.8401138004565
 20
7.55473665909577
 30
0.0
 10
186.1182157842913
 20
8.733342452966134
 30
0.0
  0
SPLINE
  5
D3
330
23
100
AcDbEntity
  8
0
  6
Continuous
 62
     7
370
    25
100
AcDbSpline
210
0.0
220
0.0
230
1.0
 70
     8
 71
     3
 72
     9
 73
     5
 74
     0
 42
0.000000001
 43
0.00000001
 40
0.0
 40
0.0
 40
0.0
 40
0.0
 40
0.3758449430387388
 40
1.0
 40
1.0
 40
1.0
 40
1.0
 10
175.5933568036594
 20
119.9999971612321
 30
0.0
 10
175.3227751587113
 20
119.9999971574056
 30
0.0
 10
174.6028462360005
 20
119.9999971472248
 30
0.0
 10
173.7168999102721
 20
119.9999971781504
 30
0.0
 10
173.1639320308724
 20
119.9999971974527
 30
0.0
  0
SPLINE
  5
D4
330
23
100
AcDbEntity
  8
0
  6
Continuous
 62
     7
370
    25
100
AcDbSpline
210
0.0
220
0.0
230
1.0
 70
     8
 71
     3
 72
     9
 73
     5
 74
     0
 42
0.000000001
 43
0.00000001
 40
0.0
 40
0.0
 40
0.0
 40
0.0
 40
0.1614469652838132
 40
1.0
 40
1.0
 40
1.0
 40
1.0
 10
161.289368194765
 20
119.9999975178968
 30
0.0
 10
160.9071589693698
 20
119.999997529848
 30
0.0
 10
158.5397609527928
 20
119.9999976038738
 30
0.0
 10
155.7647260536793
 20
119.9999975254348
 30
0.0
 10
153.4377121175843
 20
119.9999974596595
 30
0.0
  0
SPLINE
  5
D5
330
23
100
AcDbEntity
  8
0
  6
Continuous
 62
     7
370
    25
100
AcDbSpline
210
0.0
220
0.0
230
1.0
 70
     8
 71
     3
 72
     9
 73
     5
 74
     0
 42
0.000000001
 43
0.00000001
 40
0.0
 40
0.0
 40
0.0
 40
0.0
 40
0.6773965071993688
 40
1.0
 40
1.0
 40
1.0
 40
1.0
 10
137.9831190113703
 20
119.9999977807734
 30
0.0
 10
135.9315919533895
 20
119.9999977760611
 30
0.0
 10
132.9030451035354
 20
119.9999977691045
 30
0.0
 10
129.5448852686772
 20
119.9999977706438
 30
0.0
 10
128.4615311765692
 20
119.9999977711404
 30
0.0
  0
SPLINE
  5
D6
330
23
100
AcDbEntity
  8
0
  6
Continuous
 62
     7
370
    25
100
AcDbSpline
210
0.0
220
0.0
230
1.0
 70
     8
 71
     3
 72
     9
 73
     5
 74
     0
 42
0.000000001
 43
0.00000001
 40
0.0
 40
0.0
 40
0.0
 40
0.0
 40
0.4574376330987189
 40
1.0
 40
1.0
 40
1.0
 40
1.0
 10
100.3027017189936
 20
119.9999980849675
 30
0.0
 10
99.11101164445904
 20
119.9999980631219
 30
0.0
 10
96.50586946045912
 20
119.9999980153654
 30
0.0
 10
93.72887935047463
 20
119.999997995957
 30
0.0
 10
92.22218902354001
 20
119.9999979854268
 30
0.0
  0
SPLINE
  5
D7
330
23
100
AcDbEntity
  8
0
  6
Continuous
 62
     7
370
    25
100
AcDbSpline
210
0.0
220
0.0
230
1.0
 70
     8
 71
     3
 72
     9
 73
     5
 74
     0
 42
0.000000001
 43
0.00000001
 40
0.0
 40
0.0
 40
0.0
 40
0.0
 40
0.1356405816485972
 40
1.0
 40
1.0
 40
1.0
 40
1.0
 10
58.12015379804072
 20
119.9999983434375
 30
0.0
 10
57.70838557953742
 20
119.9999983560082
 30
0.0
 10
54.67265531726187
 20
119.9999984486846
 30
0.0
 10
51.53192850416333
 20
119.9999984276163
 30
0.0
 10
48.81721170279283
 20
119.9999984094058
 30
0.0
  0
SPLINE
  5
D8
330
23
100
AcDbEntity
  8
0
  6
Continuous
 62
     7
370
    25
100
AcDbSpline
210
0.0
220
0.0
230
1.0
 70
     8
 71
     3
 72
    10
 73
     6
 74
     0
 42
0.000000001
 43
0.00000001
 40
0.0
 40
0.0
 40
0.0
 40
0.0
 40
0.2588763774497828
 40
0.6317569802917061
 40
1.0
 40
1.0
 40
1.0
 40
1.0
 10
38.53469719696552
 20
119.9999985144309
 30
0.0
 10
35.24703825906068
 20
119.9999985700018
 30
0.0
 10
27.22389801235083
 20
119.9999987056161
 30
0.0
 10
14.32283230588272
 20
119.9999991199234
 30
0.0
 10
4.727063070667604
 20
119.9999986462553
 30
0.0
 10
-0.0407987705735056
 20
119.9999984109032
 30
0.0
  0
SPLINE
  5
D9
330
23
100
AcDbEntity
  8
0
  6
Continuous
 62
     7
370
    25
100
AcDbSpline
210
0.0
220
0.0
230
1.0
 70
     8
 71
     3
 72
    10
 73
     6
 74
     0
 42
0.000000001
 43
0.00000001
 40
0.0
 40
0.0
 40
0.0
 40
0.0
 40
0.3744163763535374
 40
0.7765421647959458
 40
1.0
 40
1.0
 40
1.0
 40
1.0
 10
-58.25728719339374
 20
119.9999982942238
 30
0.0
 10
-62.52189485499385
 20
119.9999982058828
 30
0.0
 10
-71.36672076190702
 20
119.999998022663
 30
0.0
 10
-82.42566069996624
 20
119.9999978429054
 30
0.0
 10
-89.03422625984359
 20
119.9999979164551
 30
0.0
 10
-91.3947991680769
 20
119.999997942727
 30
0.0
  0
SPLINE
  5
DA
330
23
100
AcDbEntity
  8
0
  6
Continuous
 62
     7
370
    25
100
AcDbSpline
210
0.0
220
0.0
230
1.0
 70
     8
 71
     3
 72
    10
 73
     6
 74
     0
 42
0.000000001
 43
0.00000001
 40
0.0
 40
0.0
 40
0.0
 40
0.0
 40
0.3977452402407222
 40
0.9556554955651018
 40
1.0
 40
1.0
 40
1.0
 40
1.0
 10
-100.6068674502313
 20
119.9999980774443
 30
0.0
 10
-103.5392510848189
 20
119.9999982253896
 30
0.0
 10
-110.5848376864405
 20
119.999998580855
 30
0.0
 10
-117.6503028338259
 20
119.9999976319461
 30
0.0
 10
-121.5985027141526
 20
119.9999976900875
 30
0.0
 10
-121.8892118605162
 20
119.9999976943685
 30
0.0
  0
SPLINE
  5
DB
330
23
100
AcDbEntity
  8
0
  6
Continuous
 62
     7
370
    25
100
AcDbSpline
210
0.0
220
0.0
230
1.0
 70
     8
 71
     3
 72
    10
 73
     6
 74
     0
 42
0.000000001
 43
0.00000001
 40
0.0
 40
0.0
 40
0.0
 40
0.0
 40
0.1580579884845051
 40
0.7175738135980848
 40
1.0
 40
1.0
 40
1.0
 40
1.0
 10
-128.9039289074314
 20
119.9999977700676
 30
0.0
 10
-129.9450969595235
 20
119.999997780404
 30
0.0
 10
-134.6719376393251
 20
119.999997827331
 30
0.0
 10
-140.7777256075894
 20
119.9999979650198
 30
0.0
 10
-145.4839309943445
 20
119.9999976781628
 30
0.0
 10
-147.0626093612939
 20
119.9999975819378
 30
0.0
  0
SPLINE
  5
DC
330
23
100
AcDbEntity
  8
0
  6
Continuous
 62
     7
370
    25
100
AcDbSpline
210
0.0
220
0.0
230
1.0
 70
     8
 71
     3
 72
     9
 73
     5
 74
     0
 42
0.000000001
 43
0.00000001
 40
0.0
 40
0.0
 40
0.0
 40
0.0
 40
0.9583904171794329
 40
1.0
 40
1.0
 40
1.0
 40
1.0
 10
-161.4172782061044
 20
119.9999975828683
 30
0.0
 10
-163.7873328825096
 20
119.9999974658019
 30
0.0
 10
-166.2602861110908
 20
119.999997343653
 30
0.0
 10
-168.3098261010092
 20
119.9999972985285
 30
0.0
 10
-168.3951066049637
 20
119.9999972966509
 30
0.0
  0
SPLINE
  5
DD
330
23
100
AcDbEntity
  8
0
  6
Continuous
 62
     7
370
    25
100
AcDbSpline
210
0.0
220
0.0
230
1.0
 70
     8
 71
     3
 72
     9
 73
     5
 74
     0
 42
0.000000001
 43
0.00000001
 40
0.0
 40
0.0
 40
0.0
 40
0.0
 40
0.2451470784755103
 40
1.0
 40
1.0
 40
1.0
 40
1.0
 10
-177.2777983145046
 20
119.9999972082267
 30
0.0
 10
-177.5912435796976
 20
119.9999972179086
 30
0.0
 10
-178.8698444389943
 20
119.9999972574028
 30
0.0
 10
-179.9882580386642
 20
119.9999972428378
 30
0.0
 10
-180.8324958118478
 20
119.9999972318432
 30
0.0
  0
SPLINE
  5
DE
330
23
100
AcDbEntity
  8
0
  6
Continuous
 62
     7
370
    25
100
AcDbSpline
210
0.0
220
0.0
230
1.0
 70
     8
 71
     3
 72
    10
 73
     6
 74
     0
 42
0.000000001
 43
0.00000001
 40
0.0
 40
0.0
 40
0.0
 40
0.0
 40
0.3183298898676716
 40
0.916253042927051
 40
1.0
 40
1.0
 40
1.0
 40
1.0
 10
-192.4332906282729
 20
119.965775083907
 30
0.0
 10
-192.5046725053139
 20
119.963649084333
 30
0.0
 10
-192.7101318860709
 20
119.9575297922375
 30
0.0
 10
-192.9284158515427
 20
119.9697119665851
 30
0.0
 10
-192.8715140429894
 20
119.9331348074531
 30
0.0
 10
-192.864523339939
 20
119.928641100409
 30
0.0
  0
SPLINE
  5
DF
330
23
100
AcDbEntity
  8
0
  6
Continuous
 62
     7
370
    25
100
AcDbSpline
210
0.0
220
0.0
230
1.0
 70
     8
 71
     3
 72
    16
 73
    12
 74
     0
 42
0.000000001
 43
0.00000001
 40
0.0
 40
0.0
 40
0.0
 40
0.0
 40
0.1317938491028911
 40
0.3016495100026105
 40
0.4025485457575345
 40
0.5129840797633998
 40
0.6308373431278794
 40
0.7527827247962593
 40
0.8747281064646368
 40
0.9925813698291128
 40
1.0
 40
1.0
 40
1.0
 40
1.0
 10
199.3517568402813
 20
114.7330542777042
 30
0.0
 10
199.369188511654
 20
115.1810073682422
 30
0.0
 10
199.4090860877843
 20
116.2062815459428
 30
0.0
 10
198.9063980345476
 20
117.5212888557041
 30
0.0
 10
198.1341026056031
 20
118.5595227490065
 30
0.0
 10
197.2738047173657
 20
119.2846320860778
 30
0.0
 10
196.1990383356583
 20
119.8070068946769
 30
0.0
 10
194.9812121621914
 20
120.0508191130367
 30
0.0
 10
193.7606009365183
 20
119.9409163660206
 30
0.0
 10
192.9280379588693
 20
119.7220830118249
 30
0.0
 10
192.574701995125
 20
119.4883230779415
 30
0.0
 10
192.5537773585835
 20
119.4744797612221
 30
0.0
  0
SPLINE
  5
E0
330
23
100
AcDbEntity
  8
0
  6
Continuous
 62
     7
370
    25
100
AcDbSpline
210
0.0
220
0.0
230
1.0
 70
     8
 71
     3
 72
    63
 73
    59
 74
     0
 42
0.000000001
 43
0.00000001
 40
0.0
 40
0.0
 40
0.0
 40
0.0
 40
0.0020856827732747
 40
0.0050241979146245
 40
0.0088160919445936
 40
0.0134620600853711
 40
0.0189629268206208
 40
0.0253196295822542
 40
0.0325332017697657
 40
0.0406047591999231
 40
0.0495354969500102
 40
0.059326707386373
 40
0.0699798139602463
 40
0.081496176953143
 40
0.0962592850486031
 40
0.1113752576762458
 40
0.1268439718133561
 40
0.1426654897886472
 40
0.1655163076478604
 40
0.1909794393912684
 40
0.2190571657857668
 40
0.2497485187514954
 40
0.2858369709744089
 40
0.319867344961887
 40
0.3518306246350487
 40
0.3817200310575004
 40
0.409532172609026
 40
0.4352650415048263
 40
0.458918439678862
 40
0.4804943131455727
 40
0.4999945569148887
 40
0.5194970824698125
 40
0.5410747162334931
 40
0.5647293520584177
 40
0.5904629348858514
 40
0.6182752657368803
 40
0.6481643360796145
 40
0.6801267541243594
 40
0.7141557413672308
 40
0.7502422834110767
 40
0.7789935742283925
 40
0.8052357842232732
 40
0.8289682289295297
 40
0.8501931499812417
 40
0.8659455808689975
 40
0.881189192686058
 40
0.8959242499152689
 40
0.9101511316319119
 40
0.9251673309330957
 40
0.938836792772494
 40
0.9511620276948147
 40
0.9621457711856557
 40
0.971790491304973
 40
0.9800984380882461
 40
0.987071669797772
 40
0.9927120212710154
 40
0.9970210535470863
 40
0.9999999999999999
 40
0.9999999999999999
 40
0.9999999999999999
 40
0.9999999999999999
 10
199.3517568402813
 20
114.7330542777042
 30
0.0
 10
199.3511949990485
 20
114.7327585194651
 30
0.0
 10
199.3498415805964
 20
114.7320460679137
 30
0.0
 10
199.3299726256346
 20
114.7318949624568
 30
0.0
 10
199.2805289405277
 20
114.7320184012699
 30
0.0
 10
199.1810352739811
 20
114.7326344273934
 30
0.0
 10
199.0086856573872
 20
114.7336715099721
 30
0.0
 10
198.735691614425
 20
114.7351601021588
 30
0.0
 10
198.3302640781831
 20
114.7370926957541
 30
0.0
 10
197.7562920949165
 20
114.7394732746698
 30
0.0
 10
196.973455455617
 20
114.7423021369613
 30
0.0
 10
195.9372601410087
 20
114.7455775396032
 30
0.0
 10
194.5988350023051
 20
114.7493104068599
 30
0.0
 10
192.7899926625999
 20
114.7537416082197
 30
0.0
 10
190.417940270237
 20
114.7590639144836
 30
0.0
 10
187.3961871045632
 20
114.7655227744265
 30
0.0
 10
183.8664947082078
 20
114.7726904064649
 30
0.0
 10
179.2347461023351
 20
114.781673886907
 30
0.0
 10
173.0141673936481
 20
114.7932663440115
 30
0.0
 10
164.5531690341056
 20
114.8081777391478
 30
0.0
 10
153.9951612175566
 20
114.8255180033193
 30
0.0
 10
140.6907398831399
 20
114.8461928508876
 30
0.0
 10
124.9723799826409
 20
114.86795611706
 30
0.0
 10
107.5875849103828
 20
114.8883360803429
 30
0.0
 10
90.13570558746274
 20
114.9060717873428
 30
0.0
 10
72.99510640664913
 20
114.9210803702648
 30
0.0
 10
56.46665424703927
 20
114.9333832708468
 30
0.0
 10
40.79183825127851
 20
114.9429777848847
 30
0.0
 10
26.14876434609633
 20
114.9498681721365
 30
0.0
 10
12.66791565333414
 20
114.9540573041248
 30
0.0
 10
0.0016282568301159
 20
114.9556060028124
 30
0.0
 10
-12.66503631344513
 20
114.9540574408957
 30
0.0
 10
-26.14700054258299
 20
114.9498685835746
 30
0.0
 10
-40.79085784504142
 20
114.9429784515392
 30
0.0
 10
-56.46612240382958
 20
114.9333842560399
 30
0.0
 10
-72.99469930846973
 20
114.921081771389
 30
0.0
 10
-90.13511703773483
 20
114.9060734593998
 30
0.0
 10
-107.5865844483521
 20
114.8883389218253
 30
0.0
 10
-124.9706819532144
 20
114.8679567303289
 30
0.0
 10
-140.3865087423188
 20
114.8466227749264
 30
0.0
 10
-153.2018795451221
 20
114.8267452852821
 30
0.0
 10
-163.1862504033683
 20
114.8104324104494
 30
0.0
 10
-171.2553469914895
 20
114.7963621267202
 30
0.0
 10
-177.3646431746278
 20
114.7851746208774
 30
0.0
 10
-182.0552327505999
 20
114.7762578127297
 30
0.0
 10
-185.7379159684543
 20
114.7689274033242
 30
0.0
 10
-188.8919243939926
 20
114.762341317487
 30
0.0
 10
-191.6347433279895
 20
114.7563872125548
 30
0.0
 10
-193.9167815695031
 20
114.7509661114533
 30
0.0
 10
-195.7226578575534
 20
114.7459665807579
 30
0.0
 10
-197.0407610351633
 20
114.7417269904654
 30
0.0
 10
-197.9667977797936
 20
114.7382319995282
 30
0.0
 10
-198.586212172959
 20
114.7354782156307
 30
0.0
 10
-198.9740420428323
 20
114.7334781794228
 30
0.0
 10
-199.1955942586782
 20
114.7321797407325
 30
0.0
 10
-199.3042331716601
 20
114.7317053226862
 30
0.0
 10
-199.3472454268804
 20
114.7316881107097
 30
0.0
 10
-199.3504478545129
 20
114.732657884602
 30
0.0
 10
-199.3517568402812
 20
114.7330542777042
 30
0.0
  0
SPLINE
  5
E1
330
23
100
AcDbEntity
  8
0
  6
Continuous
 62
     7
370
    25
100
AcDbSpline
210
0.0
220
0.0
230
1.0
 70
     8
 71
     3
 72
    15
 73
    11
 74
     0
 42
0.000000001
 43
0.00000001
 40
0.0
 40
0.0
 40
0.0
 40
0.0
 40
0.1328735956679388
 40
0.3041208318775808
 40
0.4058465024717999
 40
0.5171868009208804
 40
0.6360055999090884
 40
0.7589500426708066
 40
0.881894485432525
 40
1.0
 40
1.0
 40
1.0
 40
1.0
 10
-199.3517568402812
 20
114.7330542777042
 30
0.0
 10
-199.369186371363
 20
115.1810112187076
 30
0.0
 10
-199.4090790487998
 20
116.2062942093459
 30
0.0
 10
-198.9064293457207
 20
117.5212325257003
 30
0.0
 10
-198.1340347212986
 20
118.5596448754792
 30
0.0
 10
-197.2740980960426
 20
119.2841042865623
 30
0.0
 10
-196.1978461109042
 20
119.8091517528298
 30
0.0
 10
-194.9858231046681
 20
120.0425238503097
 30
0.0
 10
-193.7460882377737
 20
119.971534940964
 30
0.0
 10
-192.9927066088451
 20
119.6670799060968
 30
0.0
 10
-192.623577628545
 20
119.5179082615379
 30
0.0
  0
LWPOLYLINE
  5
E2
330
23
100
AcDbEntity
  8
0
  6
Continuous
 62
     7
370
    25
100
AcDbPolyline
 90
        2
 70
   128
 43
0.0
 10
186.1182157843
 20
8.733342453
 10
186.1182157843
 20
8.733342453
  0
LWPOLYLINE
  5
E7
330
23
100
AcDbEntity
  8
0
  6
Continuous
 62
     7
370
    25
100
AcDbPolyline
 90
        2
 70
   128
 43
0.0
 10
176.1987612298
 20
0.0
 10
176.1987612298
 20
0.0
  0
SPLINE
  5
E8
330
23
100
AcDbEntity
  8
0
  6
Continuous
 62
     8
370
    25
100
AcDbSpline
210
0.0
220
0.0
230
1.0
 70
     8
 71
     3
 72
    49
 73
    45
 74
     0
 42
0.000000001
 43
0.00000001
 40
0.0
 40
0.0
 40
0.0
 40
0.0
 40
0.0232238716088667
 40
0.0496186121253081
 40
0.0761955671877697
 40
0.1033480805327304
 40
0.1306995322055514
 40
0.1569897923071035
 40
0.1834610853657762
 40
0.2105047319318124
 40
0.2377464452483204
 40
0.2639691687348144
 40
0.2903729094530996
 40
0.3173472757822491
 40
0.3445191754709576
 40
0.3707257727233317
 40
0.3971134045453928
 40
0.4240714551554554
 40
0.4512265996467344
 40
0.4774500722328077
 40
0.5038546490092262
 40
0.530831061316145
 40
0.5580048070537262
 40
0.5842888399230077
 40
0.6107555133091828
 40
0.6377982042231517
 40
0.665040011402575
 40
0.6914267269653626
 40
0.7179982594063029
 40
0.7451516981595936
 40
0.7725062495326427
 40
0.7992553887771091
 40
0.8261960890856973
 40
0.8537411482952295
 40
0.8676212181978745
 40
0.8815012768666222
 40
0.8960944756652381
 40
0.9106876907976486
 40
0.9254046893479481
 40
0.940121667399309
 40
0.9552333918957749
 40
0.9703451419034014
 40
0.985593211851974
 40
1.0
 40
1.0
 40
1.0
 40
1.0
 10
-186.1182157842912
 20
8.733342452966141
 30
0.0
 10
-186.0347933962809
 20
8.717581224966283
 30
0.0
 10
-185.8565585531434
 20
8.683906811332125
 30
0.0
 10
-184.141542647213
 20
8.616499946525545
 30
0.0
 10
-181.1407837995423
 20
8.537515682538466
 30
0.0
 10
-176.7821032402523
 20
8.448856541331061
 30
0.0
 10
-171.1665162309985
 20
8.353081076742908
 30
0.0
 10
-164.3833262217518
 20
8.252982489702077
 30
0.0
 10
-156.488453654119
 20
8.149755345683602
 30
0.0
 10
-147.3805273490838
 20
8.043446848156034
 30
0.0
 10
-137.2382499241653
 20
7.938201736773606
 30
0.0
 10
-126.2091334766599
 20
7.835816552252233
 30
0.0
 10
-114.3419223350248
 20
7.738540898201661
 30
0.0
 10
-101.5204385849356
 20
7.646110708192766
 30
0.0
 10
-87.9972691386089
 20
7.562516007336831
 30
0.0
 10
-73.95590234057407
 20
7.489330870181998
 30
0.0
 10
-59.43833173957697
 20
7.427473791711964
 30
0.0
 10
-44.32476783640271
 20
7.37779047608992
 30
0.0
 10
-28.92213310133696
 20
7.342119947102891
 30
0.0
 10
-13.42345253391406
 20
7.321505308874592
 30
0.0
 10
2.13399968753005
 20
7.31578845523597
 30
0.0
 10
17.86288657258
 20
7.325761323244688
 30
0.0
 10
33.44017758561093
 20
7.35100697010694
 30
0.0
 10
48.6798946575641
 20
7.390743943619029
 30
0.0
 10
63.55605860917716
 20
7.443519862724749
 30
0.0
 10
78.1569909293124
 20
7.509732381673087
 30
0.0
 10
92.17677919106072
 20
7.586889227774194
 30
0.0
 10
105.4581228385387
 20
7.673247958308135
 30
0.0
 10
117.9830681326646
 20
7.767048435085106
 30
0.0
 10
129.8121939784268
 20
7.867788173440922
 30
0.0
 10
140.7148936761162
 20
7.972973602084835
 30
0.0
 10
150.5706206412979
 20
8.07925804050985
 30
0.0
 10
159.3646045322044
 20
8.185962162990862
 30
0.0
 10
165.787329915997
 20
8.27341431070628
 30
0.0
 10
170.3513930632436
 20
8.34201558982614
 30
0.0
 10
173.5169574207821
 20
8.393209004057981
 30
0.0
 10
176.3846237595691
 20
8.443460767791136
 30
0.0
 10
178.9371066285969
 20
8.492542867892041
 30
0.0
 10
181.1172845823871
 20
8.539552217185248
 30
0.0
 10
182.9327687369556
 20
8.584264374993891
 30
0.0
 10
184.3612795708528
 20
8.627765769627441
 30
0.0
 10
185.3865246162021
 20
8.663537195768733
 30
0.0
 10
186.0009871439234
 20
8.713850666807515
 30
0.0
 10
186.0726614997676
 20
8.726072417291771
 30
0.0
 10
186.1074820090052
 20
8.732009932468927
 30
0.0
  0
LINE
  5
E9
330
23
100
AcDbEntity
  8
0
  6
Continuous
 62
     7
370
    25
100
AcDbLine
 10
186.107482009
 20
8.7320099325
 30
0.0
 11
186.1182157843
 21
8.733342453
 31
0.0
  0
LINE
  5
EA
330
23
100
AcDbEntity
  8
0
  6
Continuous
 62
     7
370
    25
100
AcDbLine
 10
176.1845978802
 20
0.0
 30
0.0
 11
-176.1987612298
 21
0.0
 31
0.0
  0
ARC
  5
EB
330
23
100
AcDbEntity
  8
0
  6
Continuous
 62
     7
370
    25
100
AcDbCircle
 10
-176.1987612298
 20
10.0
 30
0.0
 40
9.999999999999988
100
AcDbArc
 50
187.2769612006
 51
270.0
  0
ARC
  5
EC
330
23
100
AcDbEntity
  8
0
  6
Continuous
 62
     7
370
    25
100
AcDbCircle
 10
176.1987612298
 20
10.0
 30
0.0
 40
10.00000000000004
100
AcDbArc
 50
270.0
 51
352.7230387994
  0
VIEWPORT
  5
251
330
23
100
AcDbEntity
  8
0
100
AcDbViewport
 10
0.0
 20
0.0
 30
0.0
 40
205.6
 41
156.0
 68
     1
 69
     1
 12
0.0
 22
59.9999999721
 13
0.0
 23
0.0
 14
10.0
 24
10.0
 15
10.0
 25
10.0
 16
0.0
 26
0.0
 36
1.0
 17
0.0
 27
0.0
 37
0.0
 42
50.0
 43
0.0
 44
0.0
 45
468.1807429934
 50
0.0
 51
0.0
 72
   100
 90
   557152
  1

281
     0
 71
     1
 74
     0
110
0.0
120
0.0
130
0.0
111
1.0
121
0.0
131
0.0
112
0.0
122
1.0
132
0.0
 79
     0
146
0.0
  0
ENDBLK
  5
25
330
23
100
AcDbEntity
  8
0
100
AcDbBlockEnd
  0
BLOCK
  5
EF
330
ED
100
AcDbEntity
  8
0
100
AcDbBlockBegin
  2
*Paper_Space1
 70
     0
 10
0.0
 20
0.0
 30
0.0
  3
*Paper_Space1
  1

  0
SPLINE
  5
F1
330
ED
100
AcDbEntity
  8
0
  6
Continuous
 62
     7
370
    25
100
AcDbSpline
210
0.0
220
0.0
230
1.0
 70
     8
 71
     3
 72
    16
 73
    12
 74
     0
 42
0.000000001
 43
0.00000001
 40
0.0
 40
0.0
 40
0.0
 40
0.0
 40
0.0543380166825898
 40
0.1693946491624851
 40
0.2851573640391866
 40
0.4018998788183454
 40
0.5196993766497212
 40
0.6385202996730165
 40
0.7583711666763391
 40
0.8789722974352825
 40
1.0
 40
1.0
 40
1.0
 40
1.0
 10
-225.6764669644919
 20
-156.9322304083573
 30
0.0
 10
-223.7997324216317
 20
-158.4356380661907
 30
0.0
 10
-217.9491547070285
 20
-163.1223975081946
 30
0.0
 10
-207.3495294202749
 20
-170.0095234647621
 30
0.0
 10
-193.9611589951511
 20
-177.5867839003323
 30
0.0
 10
-179.8821575890763
 20
-184.1095341831841
 30
0.0
 10
-165.2206758954948
 20
-189.5760514281889
 30
0.0
 10
-150.0407666520892
 20
-193.9179913342377
 30
0.0
 10
-134.4441724982076
 20
-197.0472504145503
 30
0.0
 10
-118.5487140946357
 20
-199.025488675445
 30
0.0
 10
-107.8558637560572
 20
-199.2663044413842
 30
0.0
 10
-102.5000000019453
 20
-199.3869248925616
 30
0.0
  0
SPLINE
  5
F2
330
ED
100
AcDbEntity
  8
0
  6
Continuous
 62
     7
370
    25
100
AcDbSpline
210
0.0
220
0.0
230
1.0
 70
     8
 71
     3
 72
    16
 73
    12
 74
     0
 42
0.000000001
 43
0.00000001
 40
0.0
 40
0.0
 40
0.0
 40
0.0
 40
0.1208778593426098
 40
0.2413854420997683
 40
0.3612586627651869
 40
0.4802275714382262
 40
0.5980632394832881
 40
0.7147408904015459
 40
0.8304514046138985
 40
0.9454795985274269
 40
1.0
 40
1.0
 40
1.0
 40
1.0
 10
-102.5000000019685
 20
199.3869248914252
 30
0.0
 10
-107.8503236664643
 20
199.2665508060347
 30
0.0
 10
-118.5345817279065
 20
199.0261713686641
 30
0.0
 10
-134.4237516024253
 20
197.0504927688181
 30
0.0
 10
-150.0272396556587
 20
193.9216811706079
 30
0.0
 10
-165.2192717452669
 20
189.5769248663116
 30
0.0
 10
-179.8885324890006
 20
184.1069284484838
 30
0.0
 10
-193.9668223940039
 20
177.5836690366187
 30
0.0
 10
-207.3522686326224
 20
170.0079112593948
 30
0.0
 10
-217.957536518776
 20
163.116491381428
 30
0.0
 10
-223.8144417722195
 20
158.424268336434
 30
0.0
 10
-225.6978004935194
 20
156.9154272656521
 30
0.0
  0
SPLINE
  5
F3
330
ED
100
AcDbEntity
  8
0
  6
Continuous
 62
     7
370
    25
100
AcDbSpline
210
0.0
220
0.0
230
1.0
 70
     8
 71
     3
 72
    16
 73
    12
 74
     0
 42
0.000000001
 43
0.00000001
 40
0.0
 40
0.0
 40
0.0
 40
0.0
 40
0.0543378673711619
 40
0.1693943827660652
 40
0.2851569599242409
 40
0.4018994222683308
 40
0.5196990084616301
 40
0.6385200861063038
 40
0.7583711193683769
 40
0.878972349389463
 40
1.0
 40
1.0
 40
1.0
 40
1.0
 10
225.6764674589149
 20
156.9322305336255
 30
0.0
 10
223.7997381736334
 20
158.435634195271
 30
0.0
 10
217.9491699736017
 20
163.1223866872881
 30
0.0
 10
207.3495604168144
 20
170.009503967618
 30
0.0
 10
193.9612039574255
 20
177.586761512485
 30
0.0
 10
179.8822080300269
 20
184.1095130209281
 30
0.0
 10
165.2207198479614
 20
189.5760371203614
 30
0.0
 10
150.0407939771814
 20
193.9179851312464
 30
0.0
 10
134.444181796612
 20
197.0472493838502
 30
0.0
 10
118.5487139211997
 20
199.0254887907807
 30
0.0
 10
107.8558614651254
 20
199.2663045293515
 30
0.0
 10
102.499999998148
 20
199.3869248914252
 30
0.0
  0
SPLINE
  5
F4
330
ED
100
AcDbEntity
  8
0
  6
Continuous
 62
     7
370
    25
100
AcDbSpline
210
0.0
220
0.0
230
1.0
 70
     8
 71
     3
 72
    16
 73
    12
 74
     0
 42
0.000000001
 43
0.00000001
 40
0.0
 40
0.0
 40
0.0
 40
0.0
 40
0.120877727672836
 40
0.2413852320004941
 40
0.3612584993346397
 40
0.4802276463587719
 40
0.5980638055324334
 40
0.7147417197138692
 40
0.8304521003296469
 40
0.9454800581591183
 40
1.0
 40
1.0
 40
1.0
 40
1.0
 10
102.4999999980547
 20
-199.3869248925616
 30
0.0
 10
107.850317293004
 20
-199.2665510967428
 30
0.0
 10
118.5345649735452
 20
-199.0261721850118
 30
0.0
 10
134.4237262766839
 20
-197.0504967381073
 30
0.0
 10
150.027222193596
 20
-193.9216859976841
 30
0.0
 10
165.219286297385
 20
-189.576921978271
 30
0.0
 10
179.8885854511056
 20
-184.1069070115781
 30
0.0
 10
193.9668973338939
 20
-177.5836330868388
 30
0.0
 10
207.3523336801944
 20
-170.0078705283767
 30
0.0
 10
217.957567909629
 20
-163.1164688380959
 30
0.0
 10
223.8144480374037
 20
-158.4242649104864
 30
0.0
 10
225.6977905297385
 20
-156.9154365160551
 30
0.0
  0
SPLINE
  5
FB
330
ED
100
AcDbEntity
  8
0
  6
Continuous
 62
     7
370
    25
100
AcDbSpline
210
0.0
220
0.0
230
1.0
 70
     8
 71
     3
 72
   107
 73
   103
 74
     0
 42
0.000000001
 43
0.00000001
 40
0.0
 40
0.0
 40
0.0
 40
0.0
 40
0.0039062499999999
 40
0.0039062499999999
 40
0.0078124999999999
 40
0.0156249999999997
 40
0.0156249999999997
 40
0.0312499999999994
 40
0.0312499999999994
 40
0.0624999999999987
 40
0.0624999999999987
 40
0.093749999999998
 40
0.093749999999998
 40
0.1249999999999973
 40
0.1249999999999973
 40
0.1328124999999972
 40
0.1328124999999972
 40
0.140624999999997
 40
0.140624999999997
 40
0.1562499999999969
 40
0.1562499999999969
 40
0.1874999999999964
 40
0.1874999999999964
 40
0.2187499999999959
 40
0.2187499999999959
 40
0.2343749999999957
 40
0.2343749999999957
 40
0.2421874999999955
 40
0.2421874999999955
 40
0.2499999999999954
 40
0.2499999999999954
 40
0.2812499999999951
 40
0.2812499999999951
 40
0.3124999999999948
 40
0.3124999999999948
 40
0.3437499999999947
 40
0.3437499999999947
 40
0.3749999999999946
 40
0.3749999999999946
 40
0.4062499999999946
 40
0.4062499999999946
 40
0.4374999999999945
 40
0.4374999999999945
 40
0.4453124999999945
 40
0.4453124999999945
 40
0.4531249999999944
 40
0.4531249999999944
 40
0.4687499999999943
 40
0.4687499999999943
 40
0.499999999999994
 40
0.499999999999994
 40
0.5312499999999937
 40
0.5312499999999937
 40
0.5468749999999936
 40
0.5468749999999936
 40
0.5546874999999934
 40
0.5546874999999934
 40
0.5624999999999934
 40
0.5624999999999934
 40
0.5937499999999933
 40
0.5937499999999933
 40
0.6249999999999932
 40
0.6249999999999932
 40
0.6562499999999932
 40
0.6562499999999932
 40
0.6718749999999932
 40
0.6718749999999932
 40
0.6874999999999933
 40
0.6874999999999933
 40
0.7187499999999933
 40
0.7187499999999933
 40
0.7499999999999933
 40
0.7499999999999933
 40
0.7656249999999934
 40
0.7656249999999934
 40
0.7734374999999934
 40
0.7734374999999934
 40
0.7812499999999936
 40
0.7812499999999936
 40
0.8124999999999943
 40
0.8124999999999943
 40
0.8437499999999951
 40
0.8437499999999951
 40
0.8749999999999959
 40
0.8749999999999959
 40
0.8828124999999961
 40
0.8828124999999961
 40
0.8906249999999963
 40
0.8906249999999963
 40
0.9062499999999969
 40
0.9062499999999969
 40
0.9374999999999979
 40
0.9374999999999979
 40
0.9687499999999989
 40
0.9687499999999989
 40
0.9843749999999993
 40
0.9843749999999993
 40
0.9921874999999997
 40
0.9921874999999997
 40
0.9960937499999999
 40
0.9960937499999999
 40
1.0
 40
1.0
 40
1.0
 40
1.0
 10
-100.0000000020791
 20
-186.1182157848594
 30
0.0
 10
-100.7710046718237
 20
-186.1182157848593
 30
0.0
 10
-101.5419619457793
 20
-186.117153120056
 30
0.0
 10
-103.0834619004555
 20
-186.1025611398145
 30
0.0
 10
-105.3952323537406
 20
-186.0663827895969
 30
0.0
 10
-107.7055668094841
 20
-185.9874060808258
 30
0.0
 10
-112.3243233268298
 20
-185.7724559489394
 30
0.0
 10
-115.404315115359
 20
-185.5526659195943
 30
0.0
 10
-124.577273143779
 20
-184.6713534422603
 30
0.0
 10
-130.6209080454838
 20
-183.7884561742732
 30
0.0
 10
-142.568006052903
 20
-181.4450066551455
 30
0.0
 10
-148.4714199370351
 20
-179.9842474283801
 30
0.0
 10
-160.1383366158902
 20
-176.4861347109274
 30
0.0
 10
-165.9018573007056
 20
-174.4488553336618
 30
0.0
 10
-173.0157111644764
 20
-171.5290942146008
 30
0.0
 10
-174.4359080768537
 20
-170.9255328000553
 30
0.0
 10
-177.2557565781184
 20
-169.685611122599
 30
0.0
 10
-178.6551770690079
 20
-169.0494303032348
 30
0.0
 10
-182.8223112256226
 20
-167.092820748085
 30
0.0
 10
-185.5589227773428
 20
-165.7243638366429
 30
0.0
 10
-193.6464500177706
 20
-161.4301240960675
 30
0.0
 10
-198.8754334164235
 20
-158.3160516053123
 30
0.0
 10
-209.0099654061945
 20
-151.5884480560218
 30
0.0
 10
-213.9154145419426
 20
-147.9747610073105
 30
0.0
 10
-221.0274556250564
 20
-142.1741362878174
 30
0.0
 10
-223.3570209218827
 20
-140.1771021823375
 30
0.0
 10
-226.7883705292759
 20
-137.0842643557942
 30
0.0
 10
-227.9219934275172
 20
-136.0366794613946
 30
0.0
 10
-230.1555380367901
 20
-133.9206697428536
 30
0.0
 10
-231.2570581498596
 20
-132.8508349559074
 30
0.0
 10
-236.6890431149315
 20
-127.4430117546642
 30
0.0
 10
-240.7932827227367
 20
-122.9295561739115
 30
0.0
 10
-248.5320803070101
 20
-113.5383423997682
 30
0.0
 10
-252.1666174285121
 20
-108.6605681649232
 30
0.0
 10
-258.961092899431
 20
-98.53689943115721
 30
0.0
 10
-262.1209824653389
 20
-93.29096577288925
 30
0.0
 10
-267.9511870140225
 20
-82.41935655590258
 30
0.0
 10
-270.573851868287
 20
-76.88220388607883
 30
0.0
 10
-275.2478233886116
 20
-65.61978828088345
 30
0.0
 10
-277.2998220762101
 20
-59.8930869086962
 30
0.0
 10
-280.8397173893042
 20
-48.25066374746338
 30
0.0
 10
-282.3276417663915
 20
-42.33495127771912
 30
0.0
 10
-283.8251948133841
 20
-34.81889208707731
 30
0.0
 10
-284.1065325704701
 20
-33.30959079314962
 30
0.0
 10
-284.6325532740278
 20
-30.27870570889576
 30
0.0
 10
-284.8775376590758
 20
-28.7549708402432
 30
0.0
 10
-285.5541987957008
 20
-24.18411064114843
 30
0.0
 10
-285.9278361214047
 20
-21.1378982672401
 30
0.0
 10
-286.8212532203368
 20
-12.00227921553388
 30
0.0
 10
-287.1142341393816
 20
-5.915881373251974
 30
0.0
 10
-287.1033043006462
 20
6.24899558817923
 30
0.0
 10
-286.7994300902092
 20
12.327475192632
 30
0.0
 10
-285.8929880693196
 20
21.43921629020699
 30
0.0
 10
-285.5155629384747
 20
24.47546464693539
 30
0.0
 10
-284.8344996479203
 20
29.02831251908909
 30
0.0
 10
-284.5883125112701
 20
30.54567420977359
 30
0.0
 10
-284.0571234690186
 20
33.57988265436192
 30
0.0
 10
-283.7720539210897
 20
35.09669442387672
 30
0.0
 10
-282.2575251976883
 20
42.63674942674115
 30
0.0
 10
-280.7557637851588
 20
48.56275984033789
 30
0.0
 10
-277.1919155684761
 20
60.21000639551613
 30
0.0
 10
-275.1297719646456
 20
65.9312217378123
 30
0.0
 10
-270.4433479573111
 20
77.16821716204026
 30
0.0
 10
-267.819197828948
 20
82.68404536599448
 30
0.0
 10
-263.4514654273029
 20
90.8000937484354
 30
0.0
 10
-261.9196801578664
 20
93.48476723663323
 30
0.0
 10
-258.7427322662525
 20
98.7450416278488
 30
0.0
 10
-257.0948804965299
 20
101.3263355727877
 30
0.0
 10
-251.9758009201155
 20
108.9258349681118
 30
0.0
 10
-248.3297343177815
 20
113.8002229181297
 30
0.0
 10
-240.5792909081699
 20
123.172009069912
 30
0.0
 10
-236.4749072133688
 20
127.6694014147055
 30
0.0
 10
-229.9678627199336
 20
134.127209285165
 30
0.0
 10
-227.7403395700955
 20
136.2316858483453
 30
0.0
 10
-224.3099369639333
 20
139.3150971529972
 30
0.0
 10
-223.1500776923203
 20
140.3319722645843
 30
0.0
 10
-220.8080828903452
 20
142.3343851245464
 30
0.0
 10
-219.6271032704091
 20
143.3190119395716
 30
0.0
 10
-213.6728780867239
 20
148.1602181669735
 30
0.0
 10
-208.7521136089589
 20
151.7717816726426
 30
0.0
 10
-198.6030170615907
 20
158.4840727614654
 30
0.0
 10
-193.3748069112603
 20
161.5850051910834
 30
0.0
 10
-182.6119591343204
 20
167.2779382983479
 30
0.0
 10
-177.0773414720903
 20
169.8699717878399
 30
0.0
 10
-169.9608241385832
 20
172.7807600519339
 30
0.0
 10
-168.5254574709865
 20
173.3472124390802
 30
0.0
 10
-165.6464943003319
 20
174.4423295315579
 30
0.0
 10
-164.2034723672796
 20
174.970851848557
 30
0.0
 10
-159.8639328342459
 20
176.5001024135045
 30
0.0
 10
-156.9569501411585
 20
177.4445607471308
 30
0.0
 10
-148.1949835541326
 20
180.057384153583
 30
0.0
 10
-142.299102407281
 20
181.505849191048
 30
0.0
 10
-130.3995908713424
 20
183.8234309095845
 30
0.0
 10
-124.3960027846207
 20
184.6927796556155
 30
0.0
 10
-115.3093294324375
 20
185.5597246744388
 30
0.0
 10
-112.2668586959299
 20
185.7756928443727
 30
0.0
 10
-107.6824245930965
 20
185.9881969942797
 30
0.0
 10
-106.1508231434917
 20
186.0404458282629
 30
0.0
 10
-103.8481715148073
 20
186.0905943495326
 30
0.0
 10
-103.079745923146
 20
186.1026056502581
 30
0.0
 10
-101.5411322014186
 20
186.117151609936
 30
0.0
 10
-100.7706731064053
 20
186.1182157837231
 30
0.0
 10
-100.000000002039
 20
186.118215783723
 30
0.0
  0
SPLINE
  5
FD
330
ED
100
AcDbEntity
  8
0
  6
Continuous
 62
     7
370
    25
100
AcDbSpline
210
0.0
220
0.0
230
1.0
 70
     8
 71
     3
 72
   107
 73
   103
 74
     0
 42
0.000000001
 43
0.00000001
 40
0.0
 40
0.0
 40
0.0
 40
0.0
 40
0.0039062499999999
 40
0.0039062499999999
 40
0.0078124999999999
 40
0.0156249999999998
 40
0.0156249999999998
 40
0.0312499999999997
 40
0.0312499999999997
 40
0.0624999999999994
 40
0.0624999999999994
 40
0.0937499999999991
 40
0.0937499999999991
 40
0.109374999999999
 40
0.109374999999999
 40
0.117187499999999
 40
0.117187499999999
 40
0.1249999999999989
 40
0.1249999999999989
 40
0.1562499999999989
 40
0.1562499999999989
 40
0.1874999999999988
 40
0.1874999999999988
 40
0.2187499999999988
 40
0.2187499999999988
 40
0.2265624999999987
 40
0.2265624999999987
 40
0.2343749999999986
 40
0.2343749999999986
 40
0.2499999999999984
 40
0.2499999999999984
 40
0.2812499999999981
 40
0.2812499999999981
 40
0.3124999999999977
 40
0.3124999999999977
 40
0.3281249999999975
 40
0.3281249999999975
 40
0.3437499999999973
 40
0.3437499999999973
 40
0.3749999999999972
 40
0.3749999999999972
 40
0.4062499999999971
 40
0.4062499999999971
 40
0.437499999999997
 40
0.437499999999997
 40
0.4453124999999969
 40
0.4453124999999969
 40
0.4531249999999969
 40
0.4531249999999969
 40
0.4687499999999969
 40
0.4687499999999969
 40
0.4999999999999968
 40
0.4999999999999968
 40
0.5312499999999967
 40
0.5312499999999967
 40
0.5468749999999967
 40
0.5468749999999967
 40
0.5546874999999966
 40
0.5546874999999966
 40
0.5624999999999966
 40
0.5624999999999966
 40
0.5937499999999966
 40
0.5937499999999966
 40
0.6249999999999966
 40
0.6249999999999966
 40
0.6562499999999967
 40
0.6562499999999967
 40
0.6874999999999968
 40
0.6874999999999968
 40
0.7187499999999969
 40
0.7187499999999969
 40
0.749999999999997
 40
0.749999999999997
 40
0.7578124999999972
 40
0.7578124999999972
 40
0.7656249999999974
 40
0.7656249999999974
 40
0.7812499999999977
 40
0.7812499999999977
 40
0.812499999999998
 40
0.812499999999998
 40
0.8437499999999983
 40
0.8437499999999983
 40
0.8593749999999983
 40
0.8593749999999983
 40
0.8671874999999984
 40
0.8671874999999984
 40
0.8749999999999986
 40
0.8749999999999986
 40
0.906249999999999
 40
0.906249999999999
 40
0.9374999999999994
 40
0.9374999999999994
 40
0.9687499999999998
 40
0.9687499999999998
 40
0.9843749999999999
 40
0.9843749999999999
 40
0.9921875
 40
0.9921875
 40
0.9960937500000001
 40
0.9960937500000001
 40
1.0
 40
1.0
 40
1.0
 40
1.0
 10
-100.0000000020393
 20
176.1987612292355
 30
0.0
 10
-100.7302291007378
 20
176.1987612292355
 30
0.0
 10
-101.4603730101713
 20
176.1983010590704
 30
0.0
 10
-102.9184525728389
 20
176.1854522953612
 30
0.0
 10
-105.1030791882705
 20
176.1527140809551
 30
0.0
 10
-107.2802827256681
 20
176.0798783372915
 30
0.0
 10
-111.6249148213722
 20
175.8814049653147
 30
0.0
 10
-114.5083108627144
 20
175.6787298131238
 30
0.0
 10
-123.1201031951385
 20
174.863300316061
 30
0.0
 10
-128.8102224231559
 20
174.0437832712575
 30
0.0
 10
-140.0889772931334
 20
171.856561348732
 30
0.0
 10
-145.6775647809172
 20
170.4885963547218
 30
0.0
 10
-153.9833057222583
 20
168.0199571578649
 30
0.0
 10
-156.7390005920036
 20
167.1274736214951
 30
0.0
 10
-160.8528143378287
 20
165.6821797937777
 30
0.0
 10
-162.2207954313033
 20
165.1826426256177
 30
0.0
 10
-164.9500844803923
 20
164.1475217410375
 30
0.0
 10
-166.3108473105032
 20
163.6120728572554
 30
0.0
 10
-173.0576631796541
 20
160.8604122827869
 30
0.0
 10
-178.3052549975987
 20
158.4094997827011
 30
0.0
 10
-188.5109620245701
 20
153.0255693594719
 30
0.0
 10
-193.46906129941
 20
150.0925248989239
 30
0.0
 10
-203.0947951557054
 20
143.7426849610846
 30
0.0
 10
-207.7622901103076
 20
140.3256569438883
 30
0.0
 10
-213.4106985188146
 20
135.7446665472872
 30
0.0
 10
-214.5310546476361
 20
134.8129373353023
 30
0.0
 10
-216.7528937617219
 20
132.918046855758
 30
0.0
 10
-217.853217204478
 20
131.9558024887403
 30
0.0
 10
-221.1076974140879
 20
129.0379104645845
 30
0.0
 10
-223.2211369008223
 20
127.0462816502768
 30
0.0
 10
-229.3953177282939
 20
120.9343584776888
 30
0.0
 10
-233.2902609640818
 20
116.6773074453587
 30
0.0
 10
-240.6462229843839
 20
107.8052877509197
 30
0.0
 10
-244.1072531534078
 20
103.190328479194
 30
0.0
 10
-248.9671859203258
 20
95.99436279783896
 30
0.0
 10
-250.531723141843
 20
93.54997821655431
 30
0.0
 10
-253.5482553210568
 20
88.56837985250016
 30
0.0
 10
-255.0027679643358
 20
86.02583484613467
 30
0.0
 10
-259.1502875353083
 20
78.33935923736213
 30
0.0
 10
-261.6424831066897
 20
73.11504831691477
 30
0.0
 10
-266.0936781455283
 20
62.47099790257068
 30
0.0
 10
-268.0525238856308
 20
57.05120206408043
 30
0.0
 10
-271.4382455230316
 20
46.01663126641199
 30
0.0
 10
-272.8651794269021
 20
40.40187756796989
 30
0.0
 10
-274.3043383527116
 20
33.25716521297692
 30
0.0
 10
-274.5752269720131
 20
31.81983740290271
 30
0.0
 10
-275.0799760779459
 20
28.94469725158115
 30
0.0
 10
-275.313908091664
 20
27.50688178742916
 30
0.0
 10
-275.9610696184392
 20
23.19270845163451
 30
0.0
 10
-276.3197100699262
 20
20.31562424142868
 30
0.0
 10
-277.1810615991131
 20
11.68151663704779
 30
0.0
 10
-277.469869606311
 20
5.921647140660922
 30
0.0
 10
-277.4802694913905
 20
-5.605638985851119
 30
0.0
 10
-277.2018233784176
 20
-11.37305612146632
 30
0.0
 10
-276.3528455167472
 20
-20.02992063275156
 30
0.0
 10
-275.9978001867649
 20
-22.91650083885987
 30
0.0
 10
-275.35480859049
 20
-27.24784039694515
 30
0.0
 10
-275.1220083784137
 20
-28.69176333689305
 30
0.0
 10
-274.622160704203
 20
-31.56380540350384
 30
0.0
 10
-274.3548253213895
 20
-32.99397502978696
 30
0.0
 10
-272.9318251630798
 20
-40.11581296038517
 30
0.0
 10
-271.5180606843477
 20
-45.72074304850391
 30
0.0
 10
-268.1551287377793
 20
-56.75067314485744
 30
0.0
 10
-266.2059324147259
 20
-62.17566345587068
 30
0.0
 10
-261.7665661988266
 20
-72.84384192212197
 30
0.0
 10
-259.2759078420412
 20
-78.08813829605134
 30
0.0
 10
-253.7392984390443
 20
-88.38500317856881
 30
0.0
 10
-250.7389710356017
 20
-93.35297066628404
 30
0.0
 10
-244.2884890609094
 20
-102.9390345374617
 30
0.0
 10
-240.8384128064665
 20
-107.5571918349587
 30
0.0
 10
-233.4935237723795
 20
-116.4475947769682
 30
0.0
 10
-229.5987272822832
 20
-120.7198530913291
 30
0.0
 10
-224.4446259845955
 20
-125.8380347185524
 30
0.0
 10
-223.3994902000404
 20
-126.8505365707943
 30
0.0
 10
-221.2803490962298
 20
-128.853085837868
 30
0.0
 10
-220.2048226359835
 20
-129.8444726403169
 30
0.0
 10
-216.9492934217505
 20
-132.7714295027799
 30
0.0
 10
-214.7392293593259
 20
-134.6612426191284
 30
0.0
 10
-207.992431528468
 20
-140.150122288536
 30
0.0
 10
-203.339446697491
 20
-143.5691782180504
 30
0.0
 10
-193.7275195617564
 20
-149.9335258427719
 30
0.0
 10
-188.7686958652453
 20
-152.8790011986179
 30
0.0
 10
-181.0998685507333
 20
-156.9401511023999
 30
0.0
 10
-178.5050708401606
 20
-158.2342178884664
 30
0.0
 10
-174.5540864305146
 20
-160.0842871884895
 30
0.0
 10
-173.2272876173681
 20
-160.685795795505
 30
0.0
 10
-170.5538390109875
 20
-161.8580744749773
 30
0.0
 10
-169.2073955361636
 20
-162.4286796138998
 30
0.0
 10
-162.4630610558733
 20
-165.1888680053696
 30
0.0
 10
-156.999247405291
 20
-167.1143386828261
 30
0.0
 10
-145.9396616556128
 20
-170.419498532941
 30
0.0
 10
-140.3438716094229
 20
-171.7991134762347
 30
0.0
 10
-129.0199107432121
 20
-174.0108151161541
 30
0.0
 10
-123.2917965549533
 20
-174.8431360423332
 30
0.0
 10
-114.5981980763666
 20
-175.6721135014471
 30
0.0
 10
-111.6792823502657
 20
-175.8783791603762
 30
0.0
 10
-107.3022091012768
 20
-176.0791432339032
 30
0.0
 10
-105.842591685157
 20
-176.1280755987653
 30
0.0
 10
-103.6522749038852
 20
-176.1744555459647
 30
0.0
 10
-102.9220208451216
 20
-176.1854117561776
 30
0.0
 10
-101.4612153385211
 20
-176.198302706387
 30
0.0
 10
-100.7306152278277
 20
-176.1987612303719
 30
0.0
 10
-100.0000000020791
 20
-176.198761230372
 30
0.0
  0
SPLINE
  5
105
330
ED
100
AcDbEntity
  8
0
  6
Continuous
 62
     7
370
    25
100
AcDbSpline
210
0.0
220
0.0
230
1.0
 70
     8
 71
     3
 72
    22
 73
    18
 74
     0
 42
0.000000001
 43
0.00000001
 40
0.0
 40
0.0
 40
0.0
 40
0.0
 40
0.0625000000000002
 40
0.0625000000000002
 40
0.1250000000000003
 40
0.1250000000000003
 40
0.2500000000000006
 40
0.2500000000000006
 40
0.3750000000000009
 40
0.3750000000000009
 40
0.4375000000000011
 40
0.4375000000000011
 40
0.5000000000000012
 40
0.5000000000000012
 40
0.7500000000000004
 40
0.7500000000000004
 40
1.0
 40
1.0
 40
1.0
 40
1.0
 10
71.87910195323981
 20
-155.0000000005682
 30
0.0
 10
70.85586608390281
 20
-155.7695646000366
 30
0.0
 10
69.81766302096175
 20
-156.5178880622136
 30
0.0
 10
67.71137052183904
 20
-157.9721208524321
 30
0.0
 10
66.64234916949557
 20
-158.6785778612562
 30
0.0
 10
63.40249817348137
 20
-160.7266126422977
 30
0.0
 10
61.19617088310607
 20
-161.9990469642413
 30
0.0
 10
56.69198355004254
 20
-164.3607141724794
 30
0.0
 10
54.39415263732427
 20
-165.4500053619734
 30
0.0
 10
50.87848685384531
 20
-166.946000968401
 30
0.0
 10
49.6950962236579
 20
-167.4216450180177
 30
0.0
 10
47.30506441012242
 20
-168.326397482617
 30
0.0
 10
46.09705990959228
 20
-168.7558479505761
 30
0.0
 10
40.04525017732283
 20
-170.7702859683878
 30
0.0
 10
35.13290790143473
 20
-171.9736130659158
 30
0.0
 10
25.17091001678897
 20
-173.5895922153314
 30
0.0
 10
20.12131921889931
 20
-174.0026174599369
 30
0.0
 10
14.99999999972881
 20
-174.0026174608539
 30
0.0
  0
SPLINE
  5
107
330
ED
100
AcDbEntity
  8
0
  6
Continuous
 62
     7
370
    25
100
AcDbSpline
210
0.0
220
0.0
230
1.0
 70
     8
 71
     3
 72
    24
 73
    20
 74
     0
 42
0.000000001
 43
0.00000001
 40
0.0
 40
0.0
 40
0.0
 40
0.0
 40
0.1249999999999999
 40
0.1249999999999999
 40
0.2499999999999998
 40
0.2499999999999998
 40
0.4999999999999999
 40
0.4999999999999999
 40
0.5624999999999999
 40
0.5624999999999999
 40
0.6249999999999998
 40
0.6249999999999998
 40
0.7499999999999997
 40
0.7499999999999997
 40
0.8749999999999997
 40
0.8749999999999997
 40
0.9374999999999998
 40
0.9374999999999998
 40
1.0
 40
1.0
 40
1.0
 40
1.0
 10
14.99999999794804
 20
-164.0575629316399
 30
0.0
 10
17.29086517648527
 20
-164.0575629312293
 30
0.0
 10
19.57014983989987
 20
-163.9644783914646
 30
0.0
 10
24.09229626935009
 20
-163.5984644744036
 30
0.0
 10
26.33744798879705
 20
-163.3255243592014
 30
0.0
 10
33.02568624931229
 20
-162.2399976193966
 30
0.0
 10
37.42186893461268
 20
-161.1624728319138
 30
0.0
 10
42.83637381135208
 20
-159.3595972727475
 30
0.0
 10
43.91706058824532
 20
-158.975295291439
 30
0.0
 10
46.05518917115707
 20
-158.1656889360372
 30
0.0
 10
47.11385611554263
 20
-157.740075639458
 30
0.0
 10
50.25899714174583
 20
-156.4014703548001
 30
0.0
 10
52.31466716103529
 20
-155.4268245434386
 30
0.0
 10
56.34419430692953
 20
-153.3137857646205
 30
0.0
 10
58.3180229661502
 20
-152.1753358198388
 30
0.0
 10
61.21648029373196
 20
-150.3429971775119
 30
0.0
 10
62.172856475314
 20
-149.7109517926345
 30
0.0
 10
64.0572108328187
 20
-148.4099096448253
 30
0.0
 10
64.98602362985504
 20
-147.7404221704088
 30
0.0
 10
65.90145028088848
 20
-147.0519374080613
 30
0.0
  0
SPLINE
  5
111
330
ED
100
AcDbEntity
  8
0
  6
Continuous
 62
     7
370
    25
100
AcDbSpline
210
0.0
220
0.0
230
1.0
 70
     8
 71
     3
 72
    12
 73
     8
 74
     0
 42
0.000000001
 43
0.00000001
 40
0.0
 40
0.0
 40
0.0
 40
0.0
 40
0.2500000000000001
 40
0.2500000000000001
 40
0.5000000000000001
 40
0.5000000000000001
 40
1.0
 40
1.0
 40
1.0
 40
1.0
 10
97.26305380502755
 20
-154.5803989160663
 30
0.0
 10
95.62688602203454
 20
-154.5803989160663
 30
0.0
 10
93.99090523962414
 20
-154.6001537775665
 30
0.0
 10
90.71935659838454
 20
-154.6701236531473
 30
0.0
 10
89.08395403280389
 20
-154.720151637589
 30
0.0
 10
84.17798620086084
 20
-154.8799417064481
 30
0.0
 10
80.90767538214659
 20
-155.0000000005687
 30
0.0
 10
77.63439759291995
 20
-155.0000000005682
 30
0.0
  0
SPLINE
  5
112
330
ED
100
AcDbEntity
  8
0
  6
Continuous
 62
     7
370
    25
100
AcDbSpline
210
0.0
220
0.0
230
1.0
 70
     8
 71
     3
 72
    14
 73
    10
 74
     0
 42
0.000000001
 43
0.00000001
 40
0.0
 40
0.0
 40
0.0
 40
0.0
 40
0.25
 40
0.25
 40
0.5
 40
0.5
 40
0.75
 40
0.75
 40
1.0
 40
1.0
 40
1.0
 40
1.0
 10
77.63439759292041
 20
-145.0000000005682
 30
0.0
 10
79.26010861537243
 20
-145.0000000005685
 30
0.0
 10
80.88714754977599
 20
-144.9770373931138
 30
0.0
 10
84.1461688691319
 20
-144.9158892070306
 30
0.0
 10
85.77815915534536
 20
-144.8776956726312
 30
0.0
 10
89.04901062670633
 20
-144.8078194280815
 30
0.0
 10
90.68787762829417
 20
-144.7761247901095
 30
0.0
 10
93.9738230485087
 20
-144.7323271992879
 30
0.0
 10
95.61799828251664
 20
-144.7202659442336
 30
0.0
 10
97.26305380502755
 20
-144.7202659442336
 30
0.0
  0
SPLINE
  5
11A
330
ED
100
AcDbEntity
  8
0
  6
Continuous
 62
     7
370
    25
100
AcDbSpline
210
0.0
220
0.0
230
1.0
 70
     8
 71
     3
 72
    14
 73
    10
 74
     0
 42
0.000000001
 43
0.00000001
 40
0.0
 40
0.0
 40
0.0
 40
0.0
 40
0.25
 40
0.25
 40
0.5
 40
0.5
 40
0.75
 40
0.75
 40
1.0
 40
1.0
 40
1.0
 40
1.0
 10
-97.26305380891809
 20
-144.7202659442336
 30
0.0
 10
-95.61799828640866
 20
-144.7202659442336
 30
0.0
 10
-93.97382305240224
 20
-144.7323271992879
 30
0.0
 10
-90.68787763219076
 20
-144.7761247901094
 30
0.0
 10
-89.04901063060443
 20
-144.8078194280814
 30
0.0
 10
-85.77815915924648
 20
-144.8776956726309
 30
0.0
 10
-84.14616887303453
 20
-144.9158892070303
 30
0.0
 10
-80.88714755368156
 20
-144.9770373931136
 30
0.0
 10
-79.26010861928067
 20
-145.0000000005682
 30
0.0
 10
-77.63439759683015
 20
-145.0000000005682
 30
0.0
  0
SPLINE
  5
11C
330
ED
100
AcDbEntity
  8
0
  6
Continuous
 62
     7
370
    25
100
AcDbSpline
210
0.0
220
0.0
230
1.0
 70
     8
 71
     3
 72
    12
 73
     8
 74
     0
 42
0.000000001
 43
0.00000001
 40
0.0
 40
0.0
 40
0.0
 40
0.0
 40
0.5
 40
0.5
 40
0.75
 40
0.75
 40
1.0
 40
1.0
 40
1.0
 40
1.0
 10
-77.63439759683015
 20
-155.0000000005682
 30
0.0
 10
-80.90767538605347
 20
-155.0000000005682
 30
0.0
 10
-84.17798620476442
 20
-154.8799417064476
 30
0.0
 10
-89.08395403670256
 20
-154.7201516375887
 30
0.0
 10
-90.71935660228162
 20
-154.6701236531471
 30
0.0
 10
-93.99090524351796
 20
-154.6001537775664
 30
0.0
 10
-95.62688602592671
 20
-154.5803989160663
 30
0.0
 10
-97.2630538089181
 20
-154.5803989160663
 30
0.0
  0
SPLINE
  5
124
330
ED
100
AcDbEntity
  8
0
  6
Continuous
 62
     7
370
    25
100
AcDbSpline
210
0.0
220
0.0
230
1.0
 70
     8
 71
     3
 72
    26
 73
    22
 74
     0
 42
0.000000001
 43
0.00000001
 40
0.0
 40
0.0
 40
0.0
 40
0.0
 40
0.0625000000000001
 40
0.0625000000000001
 40
0.1250000000000002
 40
0.1250000000000002
 40
0.2500000000000003
 40
0.2500000000000003
 40
0.5000000000000009
 40
0.5000000000000009
 40
0.5625000000000011
 40
0.5625000000000011
 40
0.6250000000000013
 40
0.6250000000000013
 40
0.7500000000000008
 40
0.7500000000000008
 40
0.8750000000000002
 40
0.8750000000000002
 40
0.9375000000000001
 40
0.9375000000000001
 40
1.0
 40
1.0
 40
1.0
 40
1.0
 10
-15.00000000377581
 20
-174.0026174608539
 30
0.0
 10
-16.27994679854288
 20
-174.0026174606227
 30
0.0
 10
-17.55784505327905
 20
-173.9765800280505
 30
0.0
 10
-20.10239396694524
 20
-173.8734494489127
 30
0.0
 10
-21.37014970707007
 20
-173.7963601315109
 30
0.0
 10
-25.16005413584503
 20
-173.4896122838557
 30
0.0
 10
-27.66886446351938
 20
-173.1846118548352
 30
0.0
 10
-35.14253677650457
 20
-171.9716025603238
 30
0.0
 10
-40.05498917762625
 20
-170.7675575031643
 30
0.0
 10
-46.10534676446539
 20
-168.7529606482639
 30
0.0
 10
-47.31294441184765
 20
-168.3235295403051
 30
0.0
 10
-49.70216727354713
 20
-167.4188524834444
 30
0.0
 10
-50.88516067694277
 20
-166.9432606467148
 30
0.0
 10
-54.39965580416234
 20
-165.4474637584013
 30
0.0
 10
-56.69673423563022
 20
-164.3583610016782
 30
0.0
 10
-61.19947064836648
 20
-161.9971788235824
 30
0.0
 10
-63.40509951333123
 20
-160.7250411263633
 30
0.0
 10
-66.64394385399906
 20
-158.6775333088089
 30
0.0
 10
-67.71263431704708
 20
-157.971267077823
 30
0.0
 10
-69.81828156218006
 20
-156.5174422170367
 30
0.0
 10
-70.85617090052837
 20
-155.7693353536845
 30
0.0
 10
-71.87910195713037
 20
-155.0000000005682
 30
0.0
  0
SPLINE
  5
125
330
ED
100
AcDbEntity
  8
0
  6
Continuous
 62
     7
370
    25
100
AcDbSpline
210
0.0
220
0.0
230
1.0
 70
     8
 71
     3
 72
    22
 73
    18
 74
     0
 42
0.000000001
 43
0.00000001
 40
0.0
 40
0.0
 40
0.0
 40
0.0
 40
0.0625000000000003
 40
0.0625000000000003
 40
0.1250000000000006
 40
0.1250000000000006
 40
0.2500000000000004
 40
0.2500000000000004
 40
0.3750000000000002
 40
0.3750000000000002
 40
0.4375
 40
0.4375
 40
0.4999999999999998
 40
0.4999999999999998
 40
0.7499999999999999
 40
0.7499999999999999
 40
1.0
 40
1.0
 40
1.0
 40
1.0
 10
-65.9014502847791
 20
-147.0519374080613
 30
0.0
 10
-64.98575089276288
 20
-147.740627296631
 30
0.0
 10
-64.056657380656
 20
-148.4103085806416
 30
0.0
 10
-62.17172566214267
 20
-149.7117157389448
 30
0.0
 10
-61.21505340701351
 20
-150.3439318304044
 30
0.0
 10
-58.31569534322027
 20
-152.1767419946058
 30
0.0
 10
-56.34124174165235
 20
-153.3154573479491
 30
0.0
 10
-52.3104163354623
 20
-155.428930120922
 30
0.0
 10
-50.25407301186518
 20
-156.4037445451784
 30
0.0
 10
-47.10788450661535
 20
-157.7425276483421
 30
0.0
 10
-46.04886213161568
 20
-158.1681876665898
 30
0.0
 10
-43.91000970997398
 20
-158.9778614910711
 30
0.0
 10
-42.82895887667216
 20
-159.362180786929
 30
0.0
 10
-37.41315463839423
 20
-161.1649142034586
 30
0.0
 10
-33.01707044496303
 20
-162.2417966274242
 30
0.0
 10
-24.10201300289695
 20
-163.6879427502269
 30
0.0
 10
-19.58310166395086
 20
-164.057562930811
 30
0.0
 10
-15.00000000197853
 20
-164.0575629316399
 30
0.0
  0
SPLINE
  5
129
330
ED
100
AcDbEntity
  8
0
  6
Continuous
 62
     7
370
    25
100
AcDbSpline
210
0.0
220
0.0
230
1.0
 70
     8
 71
     3
 72
   107
 73
   103
 74
     0
 42
0.000000001
 43
0.00000001
 40
0.0
 40
0.0
 40
0.0
 40
0.0
 40
0.00390625
 40
0.00390625
 40
0.0078124999999999
 40
0.0156249999999999
 40
0.0156249999999999
 40
0.0312499999999999
 40
0.0312499999999999
 40
0.0624999999999998
 40
0.0624999999999998
 40
0.0937499999999998
 40
0.0937499999999998
 40
0.1093749999999998
 40
0.1093749999999998
 40
0.1171874999999998
 40
0.1171874999999998
 40
0.1249999999999998
 40
0.1249999999999998
 40
0.1562499999999998
 40
0.1562499999999998
 40
0.1874999999999997
 40
0.1874999999999997
 40
0.2187499999999997
 40
0.2187499999999997
 40
0.2265624999999997
 40
0.2265624999999997
 40
0.2343749999999997
 40
0.2343749999999997
 40
0.2499999999999997
 40
0.2499999999999997
 40
0.2812499999999997
 40
0.2812499999999997
 40
0.3124999999999998
 40
0.3124999999999998
 40
0.3281249999999997
 40
0.3281249999999997
 40
0.3437499999999997
 40
0.3437499999999997
 40
0.3749999999999997
 40
0.3749999999999997
 40
0.4062499999999998
 40
0.4062499999999998
 40
0.4374999999999998
 40
0.4374999999999998
 40
0.4453124999999998
 40
0.4453124999999998
 40
0.4531249999999997
 40
0.4531249999999997
 40
0.4687499999999996
 40
0.4687499999999996
 40
0.4999999999999993
 40
0.4999999999999993
 40
0.5312499999999991
 40
0.5312499999999991
 40
0.546874999999999
 40
0.546874999999999
 40
0.554687499999999
 40
0.554687499999999
 40
0.562499999999999
 40
0.562499999999999
 40
0.593749999999999
 40
0.593749999999999
 40
0.624999999999999
 40
0.624999999999999
 40
0.6562499999999989
 40
0.6562499999999989
 40
0.6874999999999989
 40
0.6874999999999989
 40
0.7187499999999988
 40
0.7187499999999988
 40
0.7499999999999986
 40
0.7499999999999986
 40
0.7578124999999987
 40
0.7578124999999987
 40
0.7656249999999987
 40
0.7656249999999987
 40
0.7812499999999988
 40
0.7812499999999988
 40
0.8124999999999991
 40
0.8124999999999991
 40
0.8437499999999994
 40
0.8437499999999994
 40
0.8593749999999996
 40
0.8593749999999996
 40
0.8671874999999996
 40
0.8671874999999996
 40
0.8749999999999996
 40
0.8749999999999996
 40
0.9062499999999997
 40
0.9062499999999997
 40
0.9374999999999998
 40
0.9374999999999998
 40
0.9687499999999998
 40
0.9687499999999998
 40
0.9843749999999999
 40
0.9843749999999999
 40
0.9921874999999999
 40
0.9921874999999999
 40
0.9960937499999999
 40
0.9960937499999999
 40
1.0
 40
1.0
 40
1.0
 40
1.0
 10
99.99999999818833
 20
-176.198761230372
 30
0.0
 10
100.7302290968873
 20
-176.198761230372
 30
0.0
 10
101.4603730063211
 20
-176.1983010602066
 30
0.0
 10
102.9184525689894
 20
-176.185452296497
 30
0.0
 10
105.1030791844224
 20
-176.1527140820902
 30
0.0
 10
107.2802827218211
 20
-176.0798783384263
 30
0.0
 10
111.6249148175275
 20
-175.8814049664482
 30
0.0
 10
114.5083108588711
 20
-175.6787298142564
 30
0.0
 10
123.1201031912997
 20
-174.8633003171908
 30
0.0
 10
128.81022241932
 20
-174.0437832723851
 30
0.0
 10
140.0889772893029
 20
-171.8565613498548
 30
0.0
 10
145.677564777089
 20
-170.4885963558419
 30
0.0
 10
153.9833057184338
 20
-168.0199571589805
 30
0.0
 10
156.7390005881803
 20
-167.1274736226091
 30
0.0
 10
160.8528143340071
 20
-165.6821797948894
 30
0.0
 10
162.2207954274826
 20
-165.1826426267285
 30
0.0
 10
164.9500844765728
 20
-164.1475217421466
 30
0.0
 10
166.3108473066841
 20
-163.6120728583637
 30
0.0
 10
173.0576631758373
 20
-160.860412283891
 30
0.0
 10
178.3052549937835
 20
-158.4094997838012
 30
0.0
 10
188.5109620207577
 20
-153.0255693605639
 30
0.0
 10
193.4690612955991
 20
-150.0925249000119
 30
0.0
 10
203.0947951518965
 20
-143.7426849621636
 30
0.0
 10
207.7622901064994
 20
-140.3256569449625
 30
0.0
 10
213.4106985150072
 20
-135.7446665483549
 30
0.0
 10
214.5310546438289
 20
-134.8129373363687
 30
0.0
 10
216.7528937579151
 20
-132.9180468568218
 30
0.0
 10
217.8532172006708
 20
-131.9558024898031
 30
0.0
 10
221.1076974102805
 20
-129.0379104656439
 30
0.0
 10
223.2211368970144
 20
-127.046281651334
 30
0.0
 10
229.3953177244848
 20
-120.9343584787391
 30
0.0
 10
233.2902609602721
 20
-116.6773074464041
 30
0.0
 10
240.6462229805722
 20
-107.8052877519553
 30
0.0
 10
244.1072531495951
 20
-103.1903284802242
 30
0.0
 10
248.9671859165105
 20
-95.9943627988611
 30
0.0
 10
250.5317231380266
 20
-93.54997821757381
 30
0.0
 10
253.5482553172385
 20
-88.5683798535139
 30
0.0
 10
255.002767960516
 20
-86.02583484714573
 30
0.0
 10
259.150287531484
 20
-78.33935923836637
 30
0.0
 10
261.6424831028621
 20
-73.11504831791461
 30
0.0
 10
266.0936781416937
 20
-62.47099790356112
 30
0.0
 10
268.0525238817922
 20
-57.05120206506608
 30
0.0
 10
271.4382455191847
 20
-46.01663126738788
 30
0.0
 10
272.8651794230511
 20
-40.40187756894083
 30
0.0
 10
274.3043383488544
 20
-33.25716521394141
 30
0.0
 10
274.5752269681546
 20
-31.81983740386575
 30
0.0
 10
275.0799760740846
 20
-28.94469725254255
 30
0.0
 10
275.3139080878012
 20
-27.50688178838972
 30
0.0
 10
275.9610696145725
 20
-23.19270845259259
 30
0.0
 10
276.3197100660565
 20
-20.31562424238547
 30
0.0
 10
277.1810615952348
 20
-11.68151663799967
 30
0.0
 10
277.4698696024269
 20
-5.921647141609402
 30
0.0
 10
277.4802694874936
 20
5.60563898490919
 30
0.0
 10
277.2018233745144
 20
11.37305612052755
 30
0.0
 10
276.3528455128334
 20
20.02992063181771
 30
0.0
 10
275.9978001828475
 20
22.91650083792772
 30
0.0
 10
275.3548085865668
 20
27.24784039601544
 30
0.0
 10
275.1220083744889
 20
28.69176333596336
 30
0.0
 10
274.6221607002745
 20
31.56380540257463
 30
0.0
 10
274.3548253174591
 20
32.99397502885812
 30
0.0
 10
272.9318251591401
 20
40.11581295945749
 30
0.0
 10
271.5180606804009
 20
45.72074304757707
 30
0.0
 10
268.1551287338169
 20
56.75067314393209
 30
0.0
 10
266.2059324107554
 20
62.17566345494593
 30
0.0
 10
261.7665661948396
 20
72.84384192119838
 30
0.0
 10
259.2759078380441
 20
78.08813829513049
 30
0.0
 10
253.7392984350314
 20
88.3850031776437
 30
0.0
 10
250.7389710315808
 20
93.35297066535676
 30
0.0
 10
244.2884890568717
 20
102.9390345365296
 30
0.0
 10
240.8384128024201
 20
107.5571918340242
 30
0.0
 10
233.4935237683155
 20
116.447594776028
 30
0.0
 10
229.5987272782101
 20
120.7198530903858
 30
0.0
 10
224.4446259805108
 20
125.8380347176051
 30
0.0
 10
223.3994901959534
 20
126.8505365698462
 30
0.0
 10
221.2803490921382
 20
128.8530858369182
 30
0.0
 10
220.2048226318893
 20
129.8444726393661
 30
0.0
 10
216.9492934176509
 20
132.771429501825
 30
0.0
 10
214.7392293552226
 20
134.6612426181709
 30
0.0
 10
207.9924315243536
 20
140.15012228757
 30
0.0
 10
203.3394466933693
 20
143.5691782170784
 30
0.0
 10
193.7275195576192
 20
149.9335258417877
 30
0.0
 10
188.7686958611001
 20
152.8790011976274
 30
0.0
 10
181.0998685465759
 20
156.9401511013994
 30
0.0
 10
178.5050708359994
 20
158.2342178874625
 30
0.0
 10
174.5540864263471
 20
160.0842871874802
 30
0.0
 10
173.2272876131983
 20
160.6857957944941
 30
0.0
 10
170.5538390068133
 20
161.8580744739626
 30
0.0
 10
169.2073955319883
 20
162.4286796128829
 30
0.0
 10
162.4630610516911
 20
165.1888680043417
 30
0.0
 10
156.9992474011034
 20
167.1143386817891
 30
0.0
 10
145.9396616514143
 20
170.4194985318858
 30
0.0
 10
140.343871605219
 20
171.7991134751702
 30
0.0
 10
129.0199107389969
 20
174.0108151150703
 30
0.0
 10
123.2917965507326
 20
174.8431360412392
 30
0.0
 10
114.5981980721371
 20
175.6721135003373
 30
0.0
 10
111.6792823460336
 20
175.878379159261
 30
0.0
 10
107.3022090970421
 20
176.0791432327795
 30
0.0
 10
105.8425916809217
 20
176.1280755976391
 30
0.0
 10
103.6522748996487
 20
176.1744555448341
 30
0.0
 10
102.9220208408843
 20
176.1854117550457
 30
0.0
 10
101.4612153342829
 20
176.1983027052522
 30
0.0
 10
100.7306152235894
 20
176.1987612292355
 30
0.0
 10
99.99999999784018
 20
176.1987612292355
 30
0.0
  0
SPLINE
  5
12A
330
ED
100
AcDbEntity
  8
0
  6
Continuous
 62
     7
370
    25
100
AcDbSpline
210
0.0
220
0.0
230
1.0
 70
     8
 71
     3
 72
   107
 73
   103
 74
     0
 42
0.000000001
 43
0.00000001
 40
0.0
 40
0.0
 40
0.0
 40
0.0
 40
0.0039062499999999
 40
0.0039062499999999
 40
0.0078124999999998
 40
0.0156249999999997
 40
0.0156249999999997
 40
0.0312499999999995
 40
0.0312499999999995
 40
0.0624999999999993
 40
0.0624999999999993
 40
0.093749999999999
 40
0.093749999999999
 40
0.1249999999999988
 40
0.1249999999999988
 40
0.1328124999999987
 40
0.1328124999999987
 40
0.1406249999999986
 40
0.1406249999999986
 40
0.1562499999999985
 40
0.1562499999999985
 40
0.1874999999999984
 40
0.1874999999999984
 40
0.2187499999999983
 40
0.2187499999999983
 40
0.2343749999999983
 40
0.2343749999999983
 40
0.2421874999999982
 40
0.2421874999999982
 40
0.2499999999999982
 40
0.2499999999999982
 40
0.2812499999999986
 40
0.2812499999999986
 40
0.312499999999999
 40
0.312499999999999
 40
0.3437499999999994
 40
0.3437499999999994
 40
0.3749999999999998
 40
0.3749999999999998
 40
0.4062500000000002
 40
0.4062500000000002
 40
0.4375000000000006
 40
0.4375000000000006
 40
0.4453125000000007
 40
0.4453125000000007
 40
0.4531250000000008
 40
0.4531250000000008
 40
0.468750000000001
 40
0.468750000000001
 40
0.5000000000000013
 40
0.5000000000000013
 40
0.5312500000000017
 40
0.5312500000000017
 40
0.5468750000000019
 40
0.5468750000000019
 40
0.5546875000000019
 40
0.5546875000000019
 40
0.5625000000000019
 40
0.5625000000000019
 40
0.593750000000002
 40
0.593750000000002
 40
0.6250000000000021
 40
0.6250000000000021
 40
0.6562500000000023
 40
0.6562500000000023
 40
0.6718750000000023
 40
0.6718750000000023
 40
0.6875000000000024
 40
0.6875000000000024
 40
0.7187500000000024
 40
0.7187500000000024
 40
0.7500000000000024
 40
0.7500000000000024
 40
0.7656250000000024
 40
0.7656250000000024
 40
0.7734375000000024
 40
0.7734375000000024
 40
0.7812500000000024
 40
0.7812500000000024
 40
0.8125000000000021
 40
0.8125000000000021
 40
0.8437500000000018
 40
0.8437500000000018
 40
0.8750000000000014
 40
0.8750000000000014
 40
0.8828125000000014
 40
0.8828125000000014
 40
0.8906250000000013
 40
0.8906250000000013
 40
0.9062500000000012
 40
0.9062500000000012
 40
0.9375000000000008
 40
0.9375000000000008
 40
0.9687500000000003
 40
0.9687500000000003
 40
0.9843750000000001
 40
0.9843750000000001
 40
0.9921875000000001
 40
0.9921875000000001
 40
0.99609375
 40
0.99609375
 40
1.0
 40
1.0
 40
1.0
 40
1.0
 10
99.99999999784038
 20
186.1182157837229
 30
0.0
 10
100.7710046675854
 20
186.118215783723
 30
0.0
 10
101.5419619415413
 20
186.1171531189214
 30
0.0
 10
103.0834618962183
 20
186.1025611386828
 30
0.0
 10
105.3952323495045
 20
186.0663827884693
 30
0.0
 10
107.7055668052493
 20
185.9874060797025
 30
0.0
 10
112.3243233225976
 20
185.7724559478243
 30
0.0
 10
115.4043151111294
 20
185.5526659184848
 30
0.0
 10
124.5772731395581
 20
184.6713534411667
 30
0.0
 10
130.6209080412685
 20
183.7884561731895
 30
0.0
 10
142.5680060486988
 20
181.4450066540812
 30
0.0
 10
148.4714199328365
 20
179.9842474273251
 30
0.0
 10
160.1383366117025
 20
176.4861347098909
 30
0.0
 10
165.9018572965234
 20
174.4488553326341
 30
0.0
 10
173.0157111603011
 20
171.5290942135843
 30
0.0
 10
174.4359080726796
 20
170.9255327990411
 30
0.0
 10
177.2557565739484
 20
169.6856111215884
 30
0.0
 10
178.6551770648399
 20
169.049430302226
 30
0.0
 10
182.822311221461
 20
167.0928207470817
 30
0.0
 10
185.5589227731853
 20
165.7243638356428
 30
0.0
 10
193.6464500136253
 20
161.4301240950778
 30
0.0
 10
198.8754334122861
 20
158.3160516043288
 30
0.0
 10
209.0099654020724
 20
151.5884480550506
 30
0.0
 10
213.9154145378281
 20
147.9747610063449
 30
0.0
 10
221.027455620953
 20
142.1741362868603
 30
0.0
 10
223.3570209177829
 20
140.1771021813833
 30
0.0
 10
226.7883705251816
 20
137.0842643548443
 30
0.0
 10
227.9219934234252
 20
136.0366794604454
 30
0.0
 10
230.1555380327028
 20
133.9206697419062
 30
0.0
 10
231.2570581457747
 20
132.8508349549609
 30
0.0
 10
236.6890431108582
 20
127.4430117537218
 30
0.0
 10
240.7932827186724
 20
122.9295561729719
 30
0.0
 10
248.5320803029635
 20
113.5383423988343
 30
0.0
 10
252.166617424474
 20
108.660568163992
 30
0.0
 10
258.9610928954096
 20
98.53689943023093
 30
0.0
 10
262.1209824613254
 20
93.29096577196528
 30
0.0
 10
267.9511870100251
 20
82.41935655498303
 30
0.0
 10
270.5738518642997
 20
76.8822038851565
 30
0.0
 10
275.2478233846412
 20
65.61978827996005
 30
0.0
 10
277.2998220722477
 20
59.89308690777209
 30
0.0
 10
280.8397173853569
 20
48.25066374653778
 30
0.0
 10
282.3276417624518
 20
42.33495127679247
 30
0.0
 10
283.8251948094534
 20
34.81889208614953
 30
0.0
 10
284.1065325665415
 20
33.30959079222177
 30
0.0
 10
284.6325532701028
 20
30.27870570796744
 30
0.0
 10
284.8775376551527
 20
28.75497083931456
 30
0.0
 10
285.5541987917835
 20
24.18411064021738
 30
0.0
 10
285.9278361174906
 20
21.13789826630752
 30
0.0
 10
286.8212532164333
 20
12.00227921459648
 30
0.0
 10
287.114234135485
 20
5.915881372311258
 30
0.0
 10
287.1033042967622
 20
-6.248995589126335
 30
0.0
 10
286.7994300863312
 20
-12.32747519358233
 30
0.0
 10
285.8929880654503
 20
-21.43921629116214
 30
0.0
 10
285.5155629346081
 20
-24.47546464789208
 30
0.0
 10
284.8344996440578
 20
-29.02831252004821
 30
0.0
 10
284.5883125074088
 20
-30.54567421073354
 30
0.0
 10
284.0571234651603
 20
-33.5798826553235
 30
0.0
 10
283.7720539172325
 20
-35.09669442483948
 30
0.0
 10
282.2575251938372
 20
-42.63674942771043
 30
0.0
 10
280.7557637813122
 20
-48.56275984131217
 30
0.0
 10
277.1919155646375
 20
-60.21000639650032
 30
0.0
 10
275.1297719608111
 20
-65.93122173880127
 30
0.0
 10
270.4433479534839
 20
-77.16821716303878
 30
0.0
 10
267.8191978251243
 20
-82.68404536699764
 30
0.0
 10
263.4514654234833
 20
-90.80009374944525
 30
0.0
 10
261.9196801540485
 20
-93.48476723764573
 30
0.0
 10
258.7427322624364
 20
-98.74504162886696
 30
0.0
 10
257.0948804927149
 20
-101.3263355738087
 30
0.0
 10
251.9758009163031
 20
-108.925834969141
 30
0.0
 10
248.3297343139702
 20
-113.8002229191642
 30
0.0
 10
240.5792909043608
 20
-123.1720090709564
 30
0.0
 10
236.4749072095604
 20
-127.6694014157548
 30
0.0
 10
229.9678627161264
 20
-134.1272092862214
 30
0.0
 10
227.7403395662886
 20
-136.2316858494041
 30
0.0
 10
224.3099369601267
 20
-139.3150971540594
 30
0.0
 10
223.1500776885139
 20
-140.3319722656475
 30
0.0
 10
220.8080828865386
 20
-142.3343851256123
 30
0.0
 10
219.6271032666025
 20
-143.3190119406386
 30
0.0
 10
213.6728780829164
 20
-148.1602181680468
 30
0.0
 10
208.7521136051506
 20
-151.7717816737209
 30
0.0
 10
198.6030170577803
 20
-158.484072762553
 30
0.0
 10
193.3748069074487
 20
-161.5850051921751
 30
0.0
 10
182.6119591305059
 20
-167.2779382994476
 30
0.0
 10
177.0773414682741
 20
-169.8699717889436
 30
0.0
 10
169.9608241347645
 20
-172.7807600530419
 30
0.0
 10
168.5254574671673
 20
-173.3472124401892
 30
0.0
 10
165.6464942965114
 20
-174.4423295326686
 30
0.0
 10
164.2034723634589
 20
-174.9708518496684
 30
0.0
 10
159.8639328304233
 20
-176.5001024146185
 30
0.0
 10
156.9569501373346
 20
-177.4445607482462
 30
0.0
 10
148.1949835503049
 20
-180.057384154703
 30
0.0
 10
142.2991024034506
 20
-181.5058491921707
 30
0.0
 10
130.3995908675065
 20
-183.8234309107121
 30
0.0
 10
124.3960027807821
 20
-184.6927796567452
 30
0.0
 10
115.3093294285943
 20
-185.5597246755715
 30
0.0
 10
112.2668586920853
 20
-185.7756928455063
 30
0.0
 10
107.6824245892495
 20
-185.9881969954145
 30
0.0
 10
106.1508231396438
 20
-186.0404458293981
 30
0.0
 10
103.8481715109582
 20
-186.0905943506683
 30
0.0
 10
103.0797459192966
 20
-186.102605651394
 30
0.0
 10
101.5411321975684
 20
-186.1171516110722
 30
0.0
 10
100.7706731025547
 20
-186.1182157848595
 30
0.0
 10
99.99999999818823
 20
-186.1182157848595
 30
0.0
  0
SPLINE
  5
12B
330
ED
100
AcDbEntity
  8
0
  6
Continuous
 62
     7
370
    25
100
AcDbSpline
210
0.0
220
0.0
230
1.0
 70
     8
 71
     3
 72
    27
 73
    23
 74
     0
 42
0.000000001
 43
0.00000001
 40
0.0
 40
0.0
 40
0.0
 40
0.0
 40
0.2499999999999997
 40
0.2499999999999997
 40
0.4999999999999994
 40
0.4999999999999994
 40
0.5624999999999994
 40
0.5624999999999994
 40
0.6249999999999996
 40
0.6249999999999996
 40
0.7499999999999996
 40
0.7499999999999996
 40
0.8749999999999997
 40
0.8749999999999997
 40
0.9374999999999993
 40
0.9374999999999993
 40
0.9687499999999991
 40
0.9843749999999996
 40
0.9921875000000001
 40
0.9960937500000001
 40
0.9960937500000001
 40
1.0
 40
1.0
 40
1.0
 40
1.0
 10
-15.00000000190245
 20
-155.9424370694967
 30
0.0
 10
-19.48444193420125
 20
-155.9424370686604
 30
0.0
 10
-23.89770359942155
 20
-155.5515700031566
 30
0.0
 10
-32.58867064739375
 20
-154.0254654370925
 30
0.0
 10
-36.86629070735216
 20
-152.8897594019549
 30
0.0
 10
-42.125020794056
 20
-150.9852789564516
 30
0.0
 10
-43.17161950916629
 20
-150.5799488163305
 30
0.0
 10
-45.23728265148393
 20
-149.7274793378723
 30
0.0
 10
-46.25869147222063
 20
-149.2795240409099
 30
0.0
 10
-49.28902715037642
 20
-147.8712142367646
 30
0.0
 10
-51.26416041950756
 20
-146.8466006355472
 30
0.0
 10
-55.12393477901091
 20
-144.6253009878199
 30
0.0
 10
-57.00904137662958
 20
-143.4281588370389
 30
0.0
 10
-59.76607587718792
 20
-141.5022345338261
 30
0.0
 10
-60.6701525059245
 20
-140.840725949022
 30
0.0
 10
-62.00390576684162
 20
-139.81921548091
 30
0.0
 10
-62.66518903040169
 20
-139.301144495499
 30
0.0
 10
-63.42687506856165
 20
-138.6838960770629
 30
0.0
 10
-63.80526006277737
 20
-138.3720569350498
 30
0.0
 10
-63.96689771790469
 20
-138.2377218597484
 30
0.0
 10
-64.0745388916033
 20
-138.1480117706186
 30
0.0
 10
-64.12916946325797
 20
-138.1023520209104
 30
0.0
 10
-64.1820033750853
 20
-138.0580722063479
 30
0.0
  0
SPLINE
  5
12D
330
ED
100
AcDbEntity
  8
0
  6
Continuous
 62
     7
370
    25
100
AcDbSpline
210
0.0
220
0.0
230
1.0
 70
     8
 71
     3
 72
    14
 73
    10
 74
     0
 42
0.000000001
 43
0.00000001
 40
0.0
 40
0.0
 40
0.0
 40
0.0
 40
0.25
 40
0.25
 40
0.5
 40
0.5
 40
0.75
 40
0.75
 40
1.0
 40
1.0
 40
1.0
 40
1.0
 10
7.511987123748114
 20
-155.9424370694966
 30
0.0
 10
6.259771746818246
 20
-155.9424370694966
 30
0.0
 10
5.007943637050198
 20
-155.9393613707948
 30
0.0
 10
2.504172098799917
 20
-155.9341258414389
 30
0.0
 10
1.252215374976745
 20
-155.9320716031687
 30
0.0
 10
-1.252215378882988
 20
-155.9320716031686
 30
0.0
 10
-2.504172102706089
 20
-155.934125841439
 30
0.0
 10
-5.007943640956372
 20
-155.9393613707948
 30
0.0
 10
-6.25977175072443
 20
-155.9424370694967
 30
0.0
 10
-7.511987127654304
 20
-155.9424370694966
 30
0.0
  0
SPLINE
  5
12F
330
ED
100
AcDbEntity
  8
0
  6
Continuous
 62
     7
370
    25
100
AcDbSpline
210
0.0
220
0.0
230
1.0
 70
     8
 71
     3
 72
    20
 73
    16
 74
     0
 42
0.000000001
 43
0.00000001
 40
0.0
 40
0.0
 40
0.0
 40
0.0
 40
0.2500000000000003
 40
0.2500000000000003
 40
0.5000000000000007
 40
0.5000000000000007
 40
0.5625000000000008
 40
0.5625000000000008
 40
0.6250000000000009
 40
0.6250000000000009
 40
0.7500000000000006
 40
0.7500000000000006
 40
0.8750000000000002
 40
0.8750000000000002
 40
1.0
 40
1.0
 40
1.0
 40
1.0
 10
64.18200337078936
 20
-138.0580722066877
 30
0.0
 10
60.74502465304477
 20
-140.9385877034235
 30
0.0
 10
57.11157476397914
 20
-143.4738661473243
 30
0.0
 10
49.4701933491326
 20
-147.8863878993832
 30
0.0
 10
45.46246107867577
 20
-149.7639813337656
 30
0.0
 10
40.20872331521121
 20
-151.6820916657003
 30
0.0
 10
39.14621612070676
 20
-152.0437039921821
 30
0.0
 10
37.01546185943975
 20
-152.7172430393142
 30
0.0
 10
35.94489228125894
 20
-153.0300466996726
 30
0.0
 10
32.71776608500279
 20
-153.8972980255065
 30
0.0
 10
30.54583471080509
 20
-154.380783144626
 30
0.0
 10
26.16073439611233
 20
-155.1574204241752
 30
0.0
 10
23.94695466227489
 20
-155.4506870640428
 30
0.0
 10
19.48007826607686
 20
-155.8438420294942
 30
0.0
 10
17.24224859593836
 20
-155.9424370690797
 30
0.0
 10
14.99999999797008
 20
-155.9424370694966
 30
0.0
  0
SPLINE
  5
130
330
ED
100
AcDbEntity
  8
0
  6
Continuous
 62
     7
370
    25
100
AcDbSpline
210
0.0
220
0.0
230
1.0
 70
     8
 71
     3
 72
    25
 73
    21
 74
     0
 42
0.000000001
 43
0.00000001
 40
0.0
 40
0.0
 40
0.0
 40
0.0
 40
0.0312500000000006
 40
0.0312500000000006
 40
0.0625000000000012
 40
0.0625000000000012
 40
0.1250000000000023
 40
0.1875000000000034
 40
0.1875000000000034
 40
0.2500000000000045
 40
0.2500000000000045
 40
0.5000000000000079
 40
0.5000000000000079
 40
0.5625000000000073
 40
0.5625000000000073
 40
0.6250000000000068
 40
0.6250000000000068
 40
0.7500000000000054
 40
0.7500000000000054
 40
1.0
 40
1.0
 40
1.0
 40
1.0
 10
73.23889021833506
 20
-118.6504575333767
 30
0.0
 10
73.23888994517233
 20
-118.8815291664393
 30
0.0
 10
73.23570315230302
 20
-119.1145707319301
 30
0.0
 10
73.22298934217996
 20
-119.5777351289078
 30
0.0
 10
73.21346259764596
 20
-119.809001533243
 30
0.0
 10
73.17540770907435
 20
-120.501856837094
 30
0.0
 10
73.09941331674862
 20
-121.4231479341937
 30
0.0
 10
72.97301343187279
 20
-122.3394174020868
 30
0.0
 10
72.8212812568691
 20
-123.2531631494604
 30
0.0
 10
72.73247878998075
 20
-123.7098642191676
 30
0.0
 10
72.2286615400761
 20
-125.9688187613519
 30
0.0
 10
71.63623960005438
 20
-127.7031243509378
 30
0.0
 10
70.6650058718923
 20
-129.7822437326361
 30
0.0
 10
70.45910713850728
 20
-130.1935845886171
 30
0.0
 10
70.0235812051289
 20
-131.0071369441267
 30
0.0
 10
69.79333398710901
 20
-131.4103521055768
 30
0.0
 10
69.07055712766729
 20
-132.5987410113079
 30
0.0
 10
68.54948426477668
 20
-133.3576595915703
 30
0.0
 10
66.87351629492375
 20
-135.5385717603933
 30
0.0
 10
65.60587958071937
 20
-136.8647283355249
 30
0.0
 10
64.18200337078935
 20
-138.0580722066877
 30
0.0
  0
SPLINE
  5
131
330
ED
100
AcDbEntity
  8
0
  6
Continuous
 62
     7
370
    25
100
AcDbSpline
210
0.0
220
0.0
230
1.0
 70
     8
 71
     3
 72
    14
 73
    10
 74
     0
 42
0.000000001
 43
0.00000001
 40
0.0
 40
0.0
 40
0.0
 40
0.0
 40
0.5000000000000002
 40
0.5000000000000002
 40
0.7500000000000024
 40
0.7500000000000024
 40
0.8750000000000013
 40
0.8750000000000013
 40
1.0
 40
1.0
 40
1.0
 40
1.0
 10
72.33990501670966
 20
-109.901227595416
 30
0.0
 10
72.63962190579657
 20
-111.3440315974253
 30
0.0
 10
72.86377814829875
 20
-112.7945995901038
 30
0.0
 10
73.08847072785917
 20
-114.9819126806902
 30
0.0
 10
73.14475601323016
 20
-115.7129294814238
 30
0.0
 10
73.20116320879387
 20
-116.8123338557131
 30
0.0
 10
73.21529276883766
 20
-117.1792821218247
 30
0.0
 10
73.23415626632874
 20
-117.9141440689645
 30
0.0
 10
73.23888996277354
 20
-118.2839869186432
 30
0.0
 10
73.23889021833506
 20
-118.6504575333767
 30
0.0
  0
SPLINE
  5
132
330
ED
100
AcDbEntity
  8
0
  6
Continuous
 62
     7
370
    25
100
AcDbSpline
210
0.0
220
0.0
230
1.0
 70
     8
 71
     3
 72
    10
 73
     6
 74
     0
 42
0.000000001
 43
0.00000001
 40
0.0
 40
0.0
 40
0.0
 40
0.0
 40
0.5000000000000002
 40
0.5000000000000002
 40
1.0
 40
1.0
 40
1.0
 40
1.0
 10
75.02127700596989
 20
-102.7159673552593
 30
0.0
 10
74.61437961294209
 20
-103.8351577137821
 30
0.0
 10
74.19396760243262
 20
-104.9889049698125
 30
0.0
 10
73.30740061153107
 20
-107.3779218558347
 30
0.0
 10
72.84169809483066
 20
-108.6140338920278
 30
0.0
 10
72.33990501670966
 20
-109.901227595416
 30
0.0
  0
SPLINE
  5
133
330
ED
100
AcDbEntity
  8
0
  6
Continuous
 62
     7
370
    25
100
AcDbSpline
210
0.0
220
0.0
230
1.0
 70
     8
 71
     3
 72
    26
 73
    22
 74
     0
 42
0.000000001
 43
0.00000001
 40
0.0
 40
0.0
 40
0.0
 40
0.0
 40
0.0625000000000004
 40
0.0625000000000004
 40
0.1250000000000008
 40
0.1250000000000008
 40
0.2499999999999997
 40
0.2499999999999997
 40
0.3124999999999992
 40
0.3124999999999992
 40
0.3749999999999987
 40
0.3749999999999987
 40
0.4999999999999973
 40
0.4999999999999973
 40
0.5624999999999973
 40
0.5624999999999973
 40
0.6249999999999972
 40
0.6249999999999972
 40
0.7499999999999982
 40
0.7499999999999982
 40
1.0
 40
1.0
 40
1.0
 40
1.0
 10
70.95267614244987
 20
-137.6531612590162
 30
0.0
 10
71.4430467351674
 20
-137.0584268138157
 30
0.0
 10
71.91439419661013
 20
-136.4392213856835
 30
0.0
 10
72.80053427765633
 20
-135.1764218430419
 30
0.0
 10
73.21689800368846
 20
-134.5313489028808
 30
0.0
 10
74.38773790631014
 20
-132.5560667869787
 30
0.0
 10
75.06409394628983
 20
-131.1858614618403
 30
0.0
 10
75.92043327477116
 20
-129.0495605290381
 30
0.0
 10
76.17956384978686
 20
-128.3239869504503
 30
0.0
 10
76.64363537866899
 20
-126.8450956470266
 30
0.0
 10
76.84609238319418
 20
-126.0993446854776
 30
0.0
 10
77.36324865974446
 20
-123.8548072661146
 30
0.0
 10
77.58978607850023
 20
-122.3439250425771
 30
0.0
 10
77.75654112363405
 20
-120.0563438915138
 30
0.0
 10
77.78193479420922
 20
-119.2901080980211
 30
0.0
 10
77.77770847430855
 20
-117.750878563527
 30
0.0
 10
77.75670692715859
 20
-116.9769898325139
 30
0.0
 10
77.63736045865122
 20
-114.6652603940519
 30
0.0
 10
77.48340786901697
 20
-113.1383844765304
 30
0.0
 10
76.80352681045845
 20
-108.5996010544783
 30
0.0
 10
76.06160420316189
 20
-105.6291484009502
 30
0.0
 10
75.02127700596982
 20
-102.715967355259
 30
0.0
  0
SPLINE
  5
134
330
ED
100
AcDbEntity
  8
0
  6
Continuous
 62
     7
370
    25
100
AcDbSpline
210
0.0
220
0.0
230
1.0
 70
     8
 71
     3
 72
    14
 73
    10
 74
     0
 42
0.000000001
 43
0.00000001
 40
0.0
 40
0.0
 40
0.0
 40
0.0
 40
0.25
 40
0.25
 40
0.5
 40
0.5
 40
0.75
 40
0.75
 40
1.0
 40
1.0
 40
1.0
 40
1.0
 10
67.45283346092091
 20
-141.9607671996855
 30
0.0
 10
67.6949028196197
 20
-141.6856431901407
 30
0.0
 10
67.95245913503922
 20
-141.3912918392799
 30
0.0
 10
68.49356697349161
 20
-140.7625735573669
 30
0.0
 10
68.77694922604167
 20
-140.4284243137219
 30
0.0
 10
69.36771473180771
 20
-139.71379213943
 30
0.0
 10
69.67428178167434
 20
-139.3342471705275
 30
0.0
 10
70.30351149806681
 20
-138.5285856744572
 30
0.0
 10
70.62691478684643
 20
-138.1015779192244
 30
0.0
 10
70.95267614244696
 20
-137.6531612590197
 30
0.0
  0
SPLINE
  5
135
330
ED
100
AcDbEntity
  8
0
  6
Continuous
 62
     7
370
    25
100
AcDbSpline
210
0.0
220
0.0
230
1.0
 70
     8
 71
     3
 72
    26
 73
    22
 74
     0
 42
0.000000001
 43
0.00000001
 40
0.0
 40
0.0
 40
0.0
 40
0.0
 40
0.2499999999999995
 40
0.2499999999999995
 40
0.499999999999999
 40
0.499999999999999
 40
0.624999999999999
 40
0.624999999999999
 40
0.7499999999999989
 40
0.7499999999999989
 40
0.8749999999999984
 40
0.8749999999999984
 40
0.9374999999999984
 40
0.9374999999999984
 40
0.9687499999999989
 40
0.9687499999999989
 40
0.9843749999999993
 40
0.9843749999999993
 40
0.9921874999999997
 40
0.9921874999999997
 40
1.0
 40
1.0
 40
1.0
 40
1.0
 10
65.18796574091918
 20
-147.0132495015465
 30
0.0
 10
64.84053354342473
 20
-146.9943926671611
 30
0.0
 10
64.61008696435916
 20
-146.8879500650764
 30
0.0
 10
64.39427201837043
 20
-146.4964327446489
 30
0.0
 10
64.40816825573732
 20
-146.2120592525904
 30
0.0
 10
64.63989614325557
 20
-145.6256027550045
 30
0.0
 10
64.75180316772014
 20
-145.4051340543471
 30
0.0
 10
65.04993785465834
 20
-144.9083551653808
 30
0.0
 10
65.23600775465395
 20
-144.6321476046691
 30
0.0
 10
65.69441475487675
 20
-144.0109090413457
 30
0.0
 10
65.96789433243502
 20
-143.6643989576273
 30
0.0
 10
66.45461416489171
 20
-143.0833710177089
 30
0.0
 10
66.62980234634549
 20
-142.8792181170431
 30
0.0
 10
66.91724420613346
 20
-142.5525094125604
 30
0.0
 10
67.0172005837402
 20
-142.4401660154581
 30
0.0
 10
67.17454487449552
 20
-142.2654432929807
 30
0.0
 10
67.22823299586251
 20
-142.2061635634144
 30
0.0
 10
67.31083702851306
 20
-142.1155030884366
 30
0.0
 10
67.33871753808079
 20
-142.0849923482898
 30
0.0
 10
67.39521287255981
 20
-142.0233531558122
 30
0.0
 10
67.42434912739675
 20
-141.9916592335346
 30
0.0
 10
67.45283346092091
 20
-141.9607671996855
 30
0.0
  0
SPLINE
  5
136
330
ED
100
AcDbEntity
  8
0
  6
Continuous
 62
     7
370
    25
100
AcDbSpline
210
0.0
220
0.0
230
1.0
 70
     8
 71
     3
 72
     8
 73
     4
 74
     0
 42
0.000000001
 43
0.00000001
 40
0.0
 40
0.0
 40
0.0
 40
0.0
 40
0.0044090364538392
 40
0.0044090364538392
 40
0.0044090364538392
 40
0.0044090364538392
 10
65.90145028088844
 20
-147.0519374080614
 30
0.0
 10
65.664502917946
 20
-147.0391018674105
 30
0.0
 10
65.42668670754816
 20
-147.0262060489381
 30
0.0
 10
65.18796574091921
 20
-147.0132495015465
 30
0.0
  0
SPLINE
  5
137
330
ED
100
AcDbEntity
  8
0
  6
Continuous
 62
     7
370
    25
100
AcDbSpline
210
0.0
220
0.0
230
1.0
 70
     8
 71
     3
 72
     8
 73
     4
 74
     0
 42
0.000000001
 43
0.00000001
 40
0.0
 40
0.0
 40
0.0
 40
0.0
 40
0.0044090364538608
 40
0.0044090364538608
 40
0.0044090364538608
 40
0.0044090364538608
 10
-65.18796574480635
 20
-147.0132495015462
 30
0.0
 10
-65.42668671143647
 20
-147.0262060489378
 30
0.0
 10
-65.66450292183549
 20
-147.0391018674103
 30
0.0
 10
-65.9014502847791
 20
-147.0519374080613
 30
0.0
  0
SPLINE
  5
138
330
ED
100
AcDbEntity
  8
0
  6
Continuous
 62
     7
370
    25
100
AcDbSpline
210
0.0
220
0.0
230
1.0
 70
     8
 71
     3
 72
    24
 73
    20
 74
     0
 42
0.000000001
 43
0.00000001
 40
0.0
 40
0.0
 40
0.0
 40
0.0
 40
0.0156249999999992
 40
0.0156249999999992
 40
0.0312499999999984
 40
0.0312499999999984
 40
0.0624999999999982
 40
0.0624999999999982
 40
0.1249999999999978
 40
0.1249999999999978
 40
0.2499999999999982
 40
0.2499999999999982
 40
0.3749999999999985
 40
0.3749999999999985
 40
0.4999999999999989
 40
0.4999999999999989
 40
0.7499999999999993
 40
0.7499999999999993
 40
1.0
 40
1.0
 40
1.0
 40
1.0
 10
-67.45283346481406
 20
-141.9607671996889
 30
0.0
 10
-67.3954563142017
 20
-142.0229942901637
 30
0.0
 10
-67.33837153035556
 20
-142.085283126468
 30
0.0
 10
-67.22823282804373
 20
-142.2061637526281
 30
0.0
 10
-67.17454471039642
 20
-142.2654434788161
 30
0.0
 10
-67.01720043026596
 20
-142.4401661916205
 30
0.0
 10
-66.91724405903568
 20
-142.5525095828863
 30
0.0
 10
-66.62980221695926
 20
-142.8792182711033
 30
0.0
 10
-66.45461404545908
 20
-143.0833711625538
 30
0.0
 10
-65.96789423989503
 20
-143.6643990774901
 30
0.0
 10
-65.69441467696247
 20
-144.0109091473308
 30
0.0
 10
-65.23600770198071
 20
-144.6321476862025
 30
0.0
 10
-65.04993781228221
 20
-144.9083552367533
 30
0.0
 10
-64.75180314288592
 20
-145.405134107932
 30
0.0
 10
-64.6398961255287
 20
-145.6256028012656
 30
0.0
 10
-64.4081682562338
 20
-146.212059278077
 30
0.0
 10
-64.3942720253631
 20
-146.4964327608091
 30
0.0
 10
-64.61008697600347
 20
-146.8879500686099
 30
0.0
 10
-64.84053355313914
 20
-146.9943926674765
 30
0.0
 10
-65.18796574480623
 20
-147.0132495015463
 30
0.0
  0
SPLINE
  5
139
330
ED
100
AcDbEntity
  8
0
  6
Continuous
 62
     7
370
    25
100
AcDbSpline
210
0.0
220
0.0
230
1.0
 70
     8
 71
     3
 72
    23
 73
    19
 74
     0
 42
0.000000001
 43
0.00000001
 40
0.0
 40
0.0
 40
0.0
 40
0.0
 40
0.0625000000000008
 40
0.0625000000000008
 40
0.1250000000000017
 40
0.1250000000000017
 40
0.2500000000000018
 40
0.2500000000000018
 40
0.5000000000000011
 40
0.5000000000000011
 40
0.7500000000000004
 40
0.7500000000000004
 40
0.8750000000000028
 40
0.8750000000000028
 40
0.9375000000000003
 40
0.9687500000000002
 40
0.9687500000000002
 40
1.0
 40
1.0
 40
1.0
 40
1.0
 10
-70.9526761463372
 20
-137.6531612590201
 30
0.0
 10
-70.87182926902626
 20
-137.7644485130074
 30
0.0
 10
-70.7887582213531
 20
-137.8775865153501
 30
0.0
 10
-70.62598564056407
 20
-138.0972436795548
 30
0.0
 10
-70.54510478887913
 20
-138.2053477034772
 30
0.0
 10
-70.30402632953746
 20
-138.5247151937346
 30
0.0
 10
-70.14539183912174
 20
-138.731039937509
 30
0.0
 10
-69.67614471544844
 20
-139.3318640659652
 30
0.0
 10
-69.3721787693471
 20
-139.7082744645726
 30
0.0
 10
-68.78436352535003
 20
-140.4195707598176
 30
0.0
 10
-68.50052529273235
 20
-140.7544250943014
 30
0.0
 10
-68.09192601512248
 20
-141.2292748453604
 30
0.0
 10
-67.9588019287079
 20
-141.3827244066737
 30
0.0
 10
-67.7649296123892
 20
-141.6049922171643
 30
0.0
 10
-67.66936557846587
 20
-141.7142428513361
 30
0.0
 10
-67.57587293976678
 20
-141.8207805902108
 30
0.0
 10
-67.51400631626889
 20
-141.8912145574902
 30
0.0
 10
-67.48287162328859
 20
-141.9266273148503
 30
0.0
 10
-67.45283346481406
 20
-141.9607671996889
 30
0.0
  0
SPLINE
  5
13A
330
ED
100
AcDbEntity
  8
0
  6
Continuous
 62
     7
370
    25
100
AcDbSpline
210
0.0
220
0.0
230
1.0
 70
     8
 71
     3
 72
    26
 73
    22
 74
     0
 42
0.000000001
 43
0.00000001
 40
0.0
 40
0.0
 40
0.0
 40
0.0
 40
0.2499999999999977
 40
0.2499999999999977
 40
0.3749999999999971
 40
0.3749999999999971
 40
0.4374999999999968
 40
0.4374999999999968
 40
0.4999999999999966
 40
0.4999999999999966
 40
0.6249999999999971
 40
0.6249999999999971
 40
0.6874999999999978
 40
0.6874999999999978
 40
0.7499999999999984
 40
0.7499999999999984
 40
0.8749999999999999
 40
0.8749999999999999
 40
0.9374999999999999
 40
0.9374999999999999
 40
1.0
 40
1.0
 40
1.0
 40
1.0
 10
-75.02127700986033
 20
-102.7159673552587
 30
0.0
 10
-76.06160196868058
 20
-105.6291421329387
 30
0.0
 10
-76.80352360884655
 20
-108.5995882744717
 30
0.0
 10
-77.48340508714881
 20
-113.1383615695449
 30
0.0
 10
-77.63735812951195
 20
-114.6652340513695
 30
0.0
 10
-77.75670578647329
 20
-116.9769582385266
 30
0.0
 10
-77.77770782170994
 20
-117.7508453759334
 30
0.0
 10
-77.7819352636028
 20
-119.2900717375593
 30
0.0
 10
-77.75654287609173
 20
-120.0563060333177
 30
0.0
 10
-77.58979119615759
 20
-122.3438826317239
 30
0.0
 10
-77.36325648773969
 20
-123.8547618775079
 30
0.0
 10
-76.84610516570106
 20
-126.0992949394468
 30
0.0
 10
-76.64365007266294
 20
-126.845044076877
 30
0.0
 10
-76.17958211391785
 20
-128.3239335149472
 30
0.0
 10
-75.9204534120831
 20
-129.0495062059703
 30
0.0
 10
-75.06412001328368
 20
-131.185804634864
 30
0.0
 10
-74.3877683493054
 20
-132.556008507237
 30
0.0
 10
-73.21693569077374
 20
-134.5312887921847
 30
0.0
 10
-72.80057449939247
 20
-135.1763611834422
 30
0.0
 10
-71.91443978049209
 20
-136.4391597782076
 30
0.0
 10
-71.44310771097831
 20
-137.0583528654558
 30
0.0
 10
-70.95267614633727
 20
-137.65316125902
 30
0.0
  0
SPLINE
  5
13B
330
ED
100
AcDbEntity
  8
0
  6
Continuous
 62
     7
370
    25
100
AcDbSpline
210
0.0
220
0.0
230
1.0
 70
     8
 71
     3
 72
    10
 73
     6
 74
     0
 42
0.000000001
 43
0.00000001
 40
0.0
 40
0.0
 40
0.0
 40
0.0
 40
0.5
 40
0.5
 40
1.0
 40
1.0
 40
1.0
 40
1.0
 10
-72.33990502060014
 20
-109.9012275954162
 30
0.0
 10
-72.84169809872115
 20
-108.6140338920282
 30
0.0
 10
-73.30740061542168
 20
-107.3779218558349
 30
0.0
 10
-74.19396760632331
 20
-104.988904969813
 30
0.0
 10
-74.6143796168326
 20
-103.8351577137819
 30
0.0
 10
-75.02127700986038
 20
-102.7159673552591
 30
0.0
  0
SPLINE
  5
13C
330
ED
100
AcDbEntity
  8
0
  6
Continuous
 62
     7
370
    25
100
AcDbSpline
210
0.0
220
0.0
230
1.0
 70
     8
 71
     3
 72
    14
 73
    10
 74
     0
 42
0.000000001
 43
0.00000001
 40
0.0
 40
0.0
 40
0.0
 40
0.0
 40
0.1250000000000024
 40
0.1250000000000024
 40
0.2500000000000047
 40
0.2500000000000047
 40
0.5000000000000047
 40
0.5000000000000047
 40
1.0
 40
1.0
 40
1.0
 40
1.0
 10
-73.23889022222562
 20
-118.6504575333767
 30
0.0
 10
-73.23888996649458
 20
-118.2839869186433
 30
0.0
 10
-73.23415627021932
 20
-117.9141440689645
 30
0.0
 10
-73.21529277272819
 20
-117.1792821218246
 30
0.0
 10
-73.2011632126844
 20
-116.8123338557131
 30
0.0
 10
-73.14475601712074
 20
-115.7129294814238
 30
0.0
 10
-73.08847073174977
 20
-114.9819126806902
 30
0.0
 10
-72.86377815218935
 20
-112.7945995901038
 30
0.0
 10
-72.6396219096865
 20
-111.3440315974216
 30
0.0
 10
-72.33990502059945
 20
-109.9012275954124
 30
0.0
  0
SPLINE
  5
13D
330
ED
100
AcDbEntity
  8
0
  6
Continuous
 62
     7
370
    25
100
AcDbSpline
210
0.0
220
0.0
230
1.0
 70
     8
 71
     3
 72
    30
 73
    26
 74
     0
 42
0.000000001
 43
0.00000001
 40
0.0
 40
0.0
 40
0.0
 40
0.0
 40
0.0312500000000001
 40
0.0312500000000001
 40
0.0625000000000001
 40
0.1249999999999989
 40
0.1874999999999976
 40
0.1874999999999976
 40
0.2499999999999964
 40
0.2499999999999964
 40
0.4999999999999902
 40
0.4999999999999902
 40
0.5624999999999912
 40
0.5624999999999912
 40
0.6249999999999922
 40
0.6249999999999922
 40
0.7499999999999942
 40
0.7499999999999942
 40
0.8749999999999962
 40
0.8749999999999962
 40
0.9374999999999982
 40
0.9374999999999982
 40
0.9687499999999991
 40
0.9687499999999991
 40
1.0
 40
1.0
 40
1.0
 40
1.0
 10
-64.18200337508533
 20
-138.0580722063479
 30
0.0
 10
-64.35909292053896
 20
-137.9096539469703
 30
0.0
 10
-64.53566155347517
 20
-137.757534802001
 30
0.0
 10
-64.88248884053957
 20
-137.4503226850175
 30
0.0
 10
-65.39590187143479
 20
-136.9828331338878
 30
0.0
 10
-66.2174979661613
 20
-136.1703731218428
 30
0.0
 10
-66.83840783936687
 20
-135.4848717753155
 30
0.0
 10
-67.4410732542115
 20
-134.7815442002425
 30
0.0
 10
-67.73394481422642
 20
-134.4200610766317
 30
0.0
 10
-69.14133549839823
 20
-132.5826209588752
 30
0.0
 10
-70.09060369285109
 20
-131.0147857329292
 30
0.0
 10
-71.06047916412831
 20
-128.9349073018848
 30
0.0
 10
-71.24354100382209
 20
-128.5128843031241
 30
0.0
 10
-71.58744058444161
 20
-127.656523366817
 30
0.0
 10
-71.74865111644527
 20
-127.2210579429139
 30
0.0
 10
-72.19537112985616
 20
-125.9038214565923
 30
0.0
 10
-72.44241836113888
 20
-125.0170155524772
 30
0.0
 10
-72.83868869314614
 20
-123.226738927297
 30
0.0
 10
-72.98791389752984
 20
-122.3232685637144
 30
0.0
 10
-73.13798766789581
 20
-120.9554969661581
 30
0.0
 10
-73.17569622709706
 20
-120.4974750060298
 30
0.0
 10
-73.21353455306863
 20
-119.8072522558239
 30
0.0
 10
-73.22302516623965
 20
-119.5766461305366
 30
0.0
 10
-73.23570299497842
 20
-119.1143600658618
 30
0.0
 10
-73.23888994913015
 20
-118.881517453799
 30
0.0
 10
-73.2388902222256
 20
-118.6504575333767
 30
0.0
  0
CIRCLE
  5
13E
330
ED
100
AcDbEntity
  8
0
  6
Continuous
 62
     7
370
    25
100
AcDbCircle
 10
-0.0000000019
 20
4.9999999994
 30
0.0
 40
32.99999999999999
  0
CIRCLE
  5
13F
330
ED
100
AcDbEntity
  8
0
  6
Continuous
 62
     7
370
    25
100
AcDbCircle
 10
-0.0000000019
 20
4.9999999994
 30
0.0
 40
35.00000000000006
  0
CIRCLE
  5
140
330
ED
100
AcDbEntity
  8
0
  6
Continuous
 62
     7
370
    25
100
AcDbCircle
 10
-0.0000000019
 20
4.9999999994
 30
0.0
 40
22.0
  0
SPLINE
  5
142
330
ED
100
AcDbEntity
  8
0
  6
Continuous
 62
     7
370
    25
100
AcDbSpline
210
0.0
220
0.0
230
1.0
 70
     8
 71
     3
 72
    31
 73
    27
 74
     0
 42
0.000000001
 43
0.00000001
 40
0.0
 40
0.0
 40
0.0
 40
0.0
 40
0.0226778061143017
 40
0.066036851708424
 40
0.1094071409583576
 40
0.1527653795153184
 40
0.1961269953682888
 40
0.2395040928824143
 40
0.2829119789255802
 40
0.3263270857995924
 40
0.3697251388227191
 40
0.4131210900867688
 40
0.4565266210575473
 40
0.4999566575201959
 40
0.5433860549447225
 40
0.5867903129417766
 40
0.630185334025042
 40
0.673583893708602
 40
0.7170020763731749
 40
0.7604124186395296
 40
0.8037888048627729
 40
0.8471486493243687
 40
0.8905063015179133
 40
0.9338794049045301
 40
0.9772413729853192
 40
1.0
 40
1.0
 40
1.0
 40
1.0
 10
225.6844373603856
 20
-156.8978268337968
 30
0.0
 10
227.8570683306402
 20
-155.2359927304587
 30
0.0
 10
234.1836816051645
 20
-150.3967992170734
 30
0.0
 10
243.8136824665298
 20
-141.3415936826782
 30
0.0
 10
254.5347214128783
 20
-129.8801354688102
 30
0.0
 10
264.282526663862
 20
-117.5662840469355
 30
0.0
 10
273.0429908865769
 20
-104.5354255908236
 30
0.0
 10
280.7504091759864
 20
-90.84688051072885
 30
0.0
 10
287.3616459781251
 20
-76.58984444972168
 30
0.0
 10
292.8270357981457
 20
-61.85261566166492
 30
0.0
 10
297.1155712572577
 20
-46.73255858588573
 30
0.0
 10
300.1978225878233
 20
-31.3223339238233
 30
0.0
 10
302.054833049138
 20
-15.71319463783747
 30
0.0
 10
302.6771182263418
 20
-0.0021833308467096
 30
0.0
 10
302.0551957446951
 20
15.70868867806555
 30
0.0
 10
300.1985790420179
 20
31.31752871083982
 30
0.0
 10
297.1167618742562
 20
46.72762959949161
 30
0.0
 10
292.8285472422114
 20
61.84811201207095
 30
0.0
 10
287.3632031382955
 20
76.5861367053846
 30
0.0
 10
280.7520178725772
 20
90.84384033404963
 30
0.0
 10
273.0447891819838
 20
104.5324882824219
 30
0.0
 10
264.2847795021635
 20
117.5632056897307
 30
0.0
 10
254.5371891255652
 20
129.8772877781309
 30
0.0
 10
243.8159925351831
 20
141.3394793023831
 30
0.0
 10
234.1782094080848
 20
150.4016297246198
 30
0.0
 10
227.8434887472967
 20
155.2468618644685
 30
0.0
 10
225.6630857343943
 20
156.9145847715467
 30
0.0
  0
SPLINE
  5
144
330
ED
100
AcDbEntity
  8
0
  6
Continuous
 62
     7
370
    25
100
AcDbSpline
210
0.0
220
0.0
230
1.0
 70
     8
 71
     3
 72
    31
 73
    27
 74
     0
 42
0.000000001
 43
0.00000001
 40
0.0
 40
0.0
 40
0.0
 40
0.0
 40
0.0226776655222262
 40
0.0660366094732152
 40
0.109406803557473
 40
0.1527651108162029
 40
0.1961268514399827
 40
0.2395040204605545
 40
0.2829118219408576
 40
0.3263268483809744
 40
0.3697249822137154
 40
0.4131210683601232
 40
0.4565266792012487
 40
0.4999566376843053
 40
0.5433858908079675
 40
0.5867900937071138
 40
0.6301851430727085
 40
0.6735838137485878
 40
0.7170021946418245
 40
0.760412733862309
 40
0.8037892260577221
 40
0.8471490882770238
 40
0.8905066695039104
 40
0.9338796088794897
 40
0.9772414421445619
 40
1.0
 40
1.0
 40
1.0
 40
1.0
 10
-225.6844472751222
 20
156.8978175136971
 30
0.0
 10
-227.8570649119361
 20
155.2359940795448
 30
0.0
 10
-234.1836553749748
 20
150.3968193846453
 30
0.0
 10
-243.8136297169168
 20
141.3416459189223
 30
0.0
 10
-254.534661081978
 20
129.8802027025443
 30
0.0
 10
-264.2824805706082
 20
117.5663482081999
 30
0.0
 10
-273.0429666090128
 20
104.5354663719161
 30
0.0
 10
-280.7503917278033
 20
90.84691038680073
 30
0.0
 10
-287.3616282539778
 20
76.589887339784
 30
0.0
 10
-292.8270162443283
 20
61.85266939068406
 30
0.0
 10
-297.1155623121669
 20
46.7325990049864
 30
0.0
 10
-300.1978223846576
 20
31.32234011754355
 30
0.0
 10
-302.054832116114
 20
15.71318472866742
 30
0.0
 10
-302.6771176379718
 20
0.0021913161732242
 30
0.0
 10
-302.0551978738554
 20
-15.70864662162497
 30
0.0
 10
-300.1985888743561
 20
-31.31746609333294
 30
0.0
 10
-297.1167751498105
 20
-46.72757744772834
 30
0.0
 10
-292.828552963148
 20
-61.84809951954686
 30
0.0
 10
-287.3631867949428
 20
-76.58618071137255
 30
0.0
 10
-280.7519704730846
 20
-90.84393611367862
 30
0.0
 10
-273.0447136327117
 20
-104.5326120341839
 30
0.0
 10
-264.2846903258008
 20
-117.5633272487675
 30
0.0
 10
-254.5371074127269
 20
-129.8773809352293
 30
0.0
 10
-243.815936024106
 20
-141.3395340091452
 30
0.0
 10
-234.1781828707054
 20
-150.4016504799147
 30
0.0
 10
-227.8434816972475
 20
-155.2468670750352
 30
0.0
 10
-225.66308529139
 20
-156.9145847084837
 30
0.0
  0
SPLINE
  5
146
330
ED
100
AcDbEntity
  8
0
  6
Continuous
 62
     7
370
    25
100
AcDbSpline
210
0.0
220
0.0
230
1.0
 70
     8
 71
     3
 72
    32
 73
    28
 74
     0
 42
0.000000001
 43
0.00000001
 40
0.0
 40
0.0
 40
0.0
 40
0.0
 40
0.2499999999999993
 40
0.2499999999999993
 40
0.3749999999999988
 40
0.3749999999999988
 40
0.4999999999999983
 40
0.4999999999999983
 40
0.5624999999999983
 40
0.5624999999999983
 40
0.6249999999999981
 40
0.6249999999999981
 40
0.687499999999998
 40
0.687499999999998
 40
0.7499999999999978
 40
0.7499999999999978
 40
0.8124999999999977
 40
0.8124999999999977
 40
0.8749999999999974
 40
0.8749999999999974
 40
0.9374999999999973
 40
0.9374999999999973
 40
0.9687499999999979
 40
0.9687499999999979
 40
0.9843749999999989
 40
0.9843749999999989
 40
1.0
 40
1.0
 40
1.0
 40
1.0
 10
71.11382641936747
 20
-145.0000000005682
 30
0.0
 10
70.19275042473126
 20
-145.0000000005682
 30
0.0
 10
69.45532764299273
 20
-144.876855353335
 30
0.0
 10
68.64205045373623
 20
-144.509509102827
 30
0.0
 10
68.4198970682206
 20
-144.3561005557179
 30
0.0
 10
68.08359121564214
 20
-143.981482237902
 30
0.0
 10
67.97089013235318
 20
-143.7624386985067
 30
0.0
 10
67.89350515403913
 20
-143.3781485991754
 30
0.0
 10
67.88303186340711
 20
-143.2406982968359
 30
0.0
 10
67.89585201009469
 20
-142.9441379711566
 30
0.0
 10
67.91921313582046
 20
-142.78458007671
 30
0.0
 10
68.00495585380526
 20
-142.4410460120877
 30
0.0
 10
68.06692374675447
 20
-142.257621710242
 30
0.0
 10
68.23981911605254
 20
-141.8582177621309
 30
0.0
 10
68.34942417807218
 20
-141.6433045570307
 30
0.0
 10
68.65160005538111
 20
-141.152992765381
 30
0.0
 10
68.82246244506953
 20
-140.8883644637295
 30
0.0
 10
69.19214846100407
 20
-140.3250905257014
 30
0.0
 10
69.39135940283309
 20
-140.0263997557124
 30
0.0
 10
69.81187067614981
 20
-139.395351254677
 30
0.0
 10
70.03274413881013
 20
-139.0635166236354
 30
0.0
 10
70.37288357561579
 20
-138.5464926572731
 30
0.0
 10
70.48775481794814
 20
-138.3709333838502
 30
0.0
 10
70.66142941809066
 20
-138.1038979177929
 30
0.0
 10
70.71953906692113
 20
-138.0142900447254
 30
0.0
 10
70.8360656380996
 20
-137.8341215986955
 30
0.0
 10
70.89494233116378
 20
-137.7428634727636
 30
0.0
 10
70.95267614244699
 20
-137.6531612590197
 30
0.0
  0
SPLINE
  5
147
330
ED
100
AcDbEntity
  8
0
  6
Continuous
 62
     7
370
    25
100
AcDbSpline
210
0.0
220
0.0
230
1.0
 70
     8
 71
     3
 72
    36
 73
    32
 74
     0
 42
0.000000001
 43
0.00000001
 40
0.0
 40
0.0
 40
0.0
 40
0.0
 40
0.0312500000000003
 40
0.0312500000000003
 40
0.0625000000000006
 40
0.0625000000000006
 40
0.1250000000000001
 40
0.1250000000000001
 40
0.1874999999999997
 40
0.1874999999999997
 40
0.2499999999999993
 40
0.2499999999999993
 40
0.3124999999999988
 40
0.3124999999999988
 40
0.3749999999999984
 40
0.3749999999999984
 40
0.499999999999999
 40
0.499999999999999
 40
0.5624999999999997
 40
0.5624999999999997
 40
0.6250000000000004
 40
0.6250000000000004
 40
0.7500000000000012
 40
0.7500000000000012
 40
0.7812500000000013
 40
0.7812500000000013
 40
0.8125000000000013
 40
0.8125000000000013
 40
0.8750000000000009
 40
0.8750000000000009
 40
1.0
 40
1.0
 40
1.0
 40
1.0
 10
70.95267614245063
 20
-137.6531612590169
 30
0.0
 10
71.09063135973835
 20
-137.5412498850864
 30
0.0
 10
71.24980635065847
 20
-137.4112718915171
 30
0.0
 10
71.59417990007728
 20
-137.1274835351101
 30
0.0
 10
71.7798920210267
 20
-136.9731805871538
 30
0.0
 10
72.35340142812073
 20
-136.4934837249041
 30
0.0
 10
72.76000943807928
 20
-136.1490871708946
 30
0.0
 10
73.59345845891278
 20
-135.4377782379945
 30
0.0
 10
74.02097432579691
 20
-135.0703658985987
 30
0.0
 10
74.88851730610492
 20
-134.3264476211464
 30
0.0
 10
75.32872783836034
 20
-133.9498118311754
 30
0.0
 10
76.22072702183374
 20
-133.1977380189565
 30
0.0
 10
76.67258118589214
 20
-132.8222655988309
 30
0.0
 10
77.59101899598241
 20
-132.0813947618121
 30
0.0
 10
78.05771704564087
 20
-131.7183234281423
 30
0.0
 10
79.48580107502235
 20
-130.6643728948684
 30
0.0
 10
80.47629132721619
 20
-130.007605211549
 30
0.0
 10
82.06022704898098
 20
-129.1105936185228
 30
0.0
 10
82.60459986426613
 20
-128.8260828183016
 30
0.0
 10
83.73296640149726
 20
-128.286830521433
 30
0.0
 10
84.31711138797486
 20
-128.0322474246642
 30
0.0
 10
86.1116618534898
 20
-127.3215581649326
 30
0.0
 10
87.37174915551788
 20
-126.9150476550313
 30
0.0
 10
89.03875798811083
 20
-126.4736032946387
 30
0.0
 10
89.37674249576803
 20
-126.3885929411583
 30
0.0
 10
90.06218292158562
 20
-126.2246006245198
 30
0.0
 10
90.41040539858847
 20
-126.1454669930626
 30
0.0
 10
91.45918644871401
 20
-125.9185618053663
 30
0.0
 10
92.16636374971564
 20
-125.7805743918721
 30
0.0
 10
94.31108817485725
 20
-125.3984462173759
 30
0.0
 10
95.7715923518755
 20
-125.1857082344729
 30
0.0
 10
97.2630538050274
 20
-125.0000000005679
 30
0.0
  0
SPLINE
  5
149
330
ED
100
AcDbEntity
  8
0
  6
Continuous
 62
     7
370
    25
100
AcDbSpline
210
0.0
220
0.0
230
1.0
 70
     8
 71
     3
 72
    34
 73
    30
 74
     0
 42
0.000000001
 43
0.00000001
 40
0.0
 40
0.0
 40
0.0
 40
0.0
 40
0.1249999999999984
 40
0.1249999999999984
 40
0.187499999999997
 40
0.187499999999997
 40
0.2187499999999966
 40
0.2187499999999966
 40
0.2499999999999962
 40
0.2499999999999962
 40
0.3749999999999982
 40
0.3749999999999982
 40
0.4374999999999987
 40
0.4374999999999987
 40
0.4999999999999992
 40
0.4999999999999992
 40
0.6249999999999996
 40
0.6249999999999996
 40
0.7499999999999999
 40
0.7499999999999999
 40
0.8125000000000003
 40
0.8125000000000003
 40
0.8750000000000008
 40
0.8750000000000008
 40
0.9375000000000011
 40
0.9375000000000011
 40
0.9687500000000007
 40
0.9687500000000007
 40
1.0
 40
1.0
 40
1.0
 40
1.0
 10
-97.26305380891807
 20
-125.0000000005683
 30
0.0
 10
-95.76249841487562
 20
-125.1868405598837
 30
0.0
 10
-94.29425380393276
 20
-125.4009211301385
 30
0.0
 10
-92.13967574774453
 20
-125.7855981294635
 30
0.0
 10
-91.42950989048835
 20
-125.9245252151386
 30
0.0
 10
-90.37667435941947
 20
-126.1530095055325
 30
0.0
 10
-90.02688076639127
 20
-126.2327573047252
 30
0.0
 10
-89.33688128096334
 20
-126.3984524867745
 30
0.0
 10
-88.99673958014226
 20
-126.4843569985158
 30
0.0
 10
-87.31951016950217
 20
-126.9305053862438
 30
0.0
 10
-86.05305994802087
 20
-127.3415646995532
 30
0.0
 10
-84.25080653457404
 20
-128.060237260352
 30
0.0
 10
-83.66397788145254
 20
-128.3179081727064
 30
0.0
 10
-82.5336610151734
 20
-128.8621266509337
 30
0.0
 10
-81.98973879145792
 20
-129.148581397823
 30
0.0
 10
-80.40993981083811
 20
-130.0494498989069
 30
0.0
 10
-79.42580624170549
 20
-130.7060609605296
 30
0.0
 10
-77.5368963063245
 20
-132.1054350926944
 30
0.0
 10
-76.63048326027696
 20
-132.8517626063932
 30
0.0
 10
-75.30063364908553
 20
-133.9737604181246
 30
0.0
 10
-74.86271211214846
 20
-134.3485431300649
 30
0.0
 10
-73.99890665940919
 20
-135.0893232589296
 30
0.0
 10
-73.57284147725916
 20
-135.4554487769553
 30
0.0
 10
-72.74108639881118
 20
-136.1651585209457
 30
0.0
 10
-72.3335312756131
 20
-136.5102072401809
 30
0.0
 10
-71.76727956001506
 20
-136.9836749737635
 30
0.0
 10
-71.58591629044464
 20
-137.1343164272062
 30
0.0
 10
-71.24741792712454
 20
-137.4132163026686
 30
0.0
 10
-71.0900428132584
 20
-137.5417273261133
 30
0.0
 10
-70.95267614633721
 20
-137.65316125902
 30
0.0
  0
SPLINE
  5
14A
330
ED
100
AcDbEntity
  8
0
  6
Continuous
 62
     7
370
    25
100
AcDbSpline
210
0.0
220
0.0
230
1.0
 70
     8
 71
     3
 72
    32
 73
    28
 74
     0
 42
0.000000001
 43
0.00000001
 40
0.0
 40
0.0
 40
0.0
 40
0.0
 40
0.2499999999999994
 40
0.2499999999999994
 40
0.3749999999999991
 40
0.3749999999999991
 40
0.4999999999999988
 40
0.4999999999999988
 40
0.5624999999999986
 40
0.5624999999999986
 40
0.6249999999999986
 40
0.6249999999999986
 40
0.6874999999999987
 40
0.6874999999999987
 40
0.7499999999999987
 40
0.7499999999999987
 40
0.8124999999999988
 40
0.8124999999999988
 40
0.8749999999999989
 40
0.8749999999999989
 40
0.9374999999999989
 40
0.9374999999999989
 40
0.9687499999999994
 40
0.9687499999999994
 40
0.9843749999999997
 40
0.9843749999999997
 40
1.0
 40
1.0
 40
1.0
 40
1.0
 10
-71.11382642324895
 20
-145.0000000005682
 30
0.0
 10
-70.19275042861328
 20
-145.0000000005682
 30
0.0
 10
-69.45532764687927
 20
-144.876855353334
 30
0.0
 10
-68.64205045762428
 20
-144.5095091028255
 30
0.0
 10
-68.41989707210921
 20
-144.3561005557162
 30
0.0
 10
-68.08359121953164
 20
-143.9814822379002
 30
0.0
 10
-67.9708901362429
 20
-143.7624386985049
 30
0.0
 10
-67.89350515792938
 20
-143.3781485991736
 30
0.0
 10
-67.88303186729762
 20
-143.2406982968341
 30
0.0
 10
-67.89585201398543
 20
-142.9441379711546
 30
0.0
 10
-67.9192131397113
 20
-142.7845800767082
 30
0.0
 10
-68.00495585769639
 20
-142.4410460120859
 30
0.0
 10
-68.06692375064557
 20
-142.2576217102403
 30
0.0
 10
-68.23981911994383
 20
-141.8582177621291
 30
0.0
 10
-68.34942418196347
 20
-141.6433045570292
 30
0.0
 10
-68.65160005927272
 20
-141.1529927653794
 30
0.0
 10
-68.82246244896102
 20
-140.8883644637279
 30
0.0
 10
-69.1921484648956
 20
-140.3250905256999
 30
0.0
 10
-69.3913594067246
 20
-140.0263997557109
 30
0.0
 10
-69.81187068004093
 20
-139.3953512546761
 30
0.0
 10
-70.03274414270103
 20
-139.0635166236347
 30
0.0
 10
-70.37288357950632
 20
-138.5464926572728
 30
0.0
 10
-70.48775482183873
 20
-138.37093338385
 30
0.0
 10
-70.66142942198093
 20
-138.103897917793
 30
0.0
 10
-70.71953907080908
 20
-138.0142900447278
 30
0.0
 10
-70.83606564198519
 20
-137.8341215987003
 30
0.0
 10
-70.89494233501742
 20
-137.7428634728008
 30
0.0
 10
-70.95267614633732
 20
-137.65316125902
 30
0.0
  0
SPLINE
  5
154
330
ED
100
AcDbEntity
  8
0
  6
Continuous
 62
     7
370
    25
100
AcDbSpline
210
0.0
220
0.0
230
1.0
 70
    24
 71
     3
 72
     8
 73
     4
 74
     0
 42
0.000000001
 43
0.00000001
 40
0.0
 40
0.0
 40
0.0
 40
0.0
 40
0.0044175484652992
 40
0.0044175484652992
 40
0.0044175484652992
 40
0.0044175484652992
 10
-71.87910195713037
 20
-145.0000000005682
 30
0.0
 10
-71.6250802445752
 20
-145.0000000005682
 30
0.0
 10
-71.37000248374699
 20
-145.0000000005682
 30
0.0
 10
-71.11382642324897
 20
-145.0000000005682
 30
0.0
  0
SPLINE
  5
156
330
ED
100
AcDbEntity
  8
0
  6
Continuous
 62
     7
370
    25
100
AcDbSpline
210
0.0
220
0.0
230
1.0
 70
    24
 71
     3
 72
     8
 73
     4
 74
     0
 42
0.000000001
 43
0.00000001
 40
0.0000000000000078
 40
0.0000000000000078
 40
0.0000000000000078
 40
0.0000000000000078
 40
0.0044175484652743
 40
0.0044175484652743
 40
0.0044175484652743
 40
0.0044175484652743
 10
71.1138264193627
 20
-145.0000000005682
 30
0.0
 10
71.37000247985925
 20
-145.0000000005682
 30
0.0
 10
71.62508024068606
 20
-145.0000000005682
 30
0.0
 10
71.87910195323981
 20
-145.0000000005682
 30
0.0
  0
CIRCLE
  5
158
330
ED
100
AcDbEntity
  8
0
  6
Continuous
 62
     7
370
    25
100
AcDbCircle
 10
-0.0000000019
 20
4.9999999994
 30
0.0
 40
40.00000000000002
  0
SPLINE
  5
15A
330
ED
100
AcDbEntity
  8
0
  6
Continuous
 62
     7
370
    25
100
AcDbSpline
210
0.0
220
0.0
230
1.0
 70
     8
 71
     3
 72
    20
 73
    16
 74
     0
 42
0.000000001
 43
0.00000001
 40
0.0
 40
0.0
 40
0.0
 40
0.0
 40
0.125
 40
0.125
 40
0.1875
 40
0.1875
 40
0.25
 40
0.25
 40
0.375
 40
0.375
 40
0.5
 40
0.5
 40
0.75
 40
0.75
 40
1.0
 40
1.0
 40
1.0
 40
1.0
 10
-97.26305380891806
 20
-125.0000000005684
 30
0.0
 10
-97.41875726988005
 20
-123.7895709279094
 30
0.0
 10
-97.53005697862386
 20
-122.5735304294658
 30
0.0
 10
-97.62983145189136
 20
-120.7409805786862
 30
0.0
 10
-97.65187872317327
 20
-120.1287138774925
 30
0.0
 10
-97.67326939626606
 20
-118.9013113239139
 30
0.0
 10
-97.67194494106063
 20
-118.2860910725787
 30
0.0
 10
-97.64498522819954
 20
-116.4375254698798
 30
0.0
 10
-97.59280227446183
 20
-115.1996322970813
 30
0.0
 10
-97.42165436844434
 20
-112.7436275574458
 30
0.0
 10
-97.30272996362535
 20
-111.5220275343678
 30
0.0
 10
-96.84732216372758
 20
-107.8761625254484
 30
0.0
 10
-96.41229119489347
 20
-105.47081589613
 30
0.0
 10
-95.28059143952655
 20
-100.7103497240317
 30
0.0
 10
-94.58409818230045
 20
-98.35519648457212
 30
0.0
 10
-93.75221567063691
 20
-96.02603416591616
 30
0.0
  0
SPLINE
  5
15C
330
ED
100
AcDbEntity
  8
0
  6
Continuous
 62
     7
370
    25
100
AcDbSpline
210
0.0
220
0.0
230
1.0
 70
     8
 71
     3
 72
    20
 73
    16
 74
     0
 42
0.000000001
 43
0.00000001
 40
0.0
 40
0.0
 40
0.0
 40
0.0
 40
0.2500000000000003
 40
0.2500000000000003
 40
0.5000000000000007
 40
0.5000000000000007
 40
0.6250000000000009
 40
0.6250000000000009
 40
0.750000000000001
 40
0.750000000000001
 40
0.8125000000000004
 40
0.8125000000000004
 40
0.8749999999999998
 40
0.8749999999999998
 40
1.0
 40
1.0
 40
1.0
 40
1.0
 10
93.75221566674651
 20
-96.02603416591666
 30
0.0
 10
94.58409817841002
 20
-98.35519648457262
 30
0.0
 10
95.28059143563604
 20
-100.710349724032
 30
0.0
 10
96.41229119100302
 20
-105.4708158961303
 30
0.0
 10
96.8473221598371
 20
-107.8761625254488
 30
0.0
 10
97.30272995973488
 20
-111.5220275343682
 30
0.0
 10
97.42165436455387
 20
-112.7436275574463
 30
0.0
 10
97.59280227057133
 20
-115.1996322970818
 30
0.0
 10
97.64498522430904
 20
-116.4375254698801
 30
0.0
 10
97.67194493717011
 20
-118.2860910725791
 30
0.0
 10
97.6732693923755
 20
-118.9013113239145
 30
0.0
 10
97.6518787192827
 20
-120.1287138774931
 30
0.0
 10
97.62983144800077
 20
-120.7409805786866
 30
0.0
 10
97.53005697473334
 20
-122.5735304294662
 30
0.0
 10
97.41875726598953
 20
-123.7895709279097
 30
0.0
 10
97.2630538050275
 20
-125.0000000005686
 30
0.0
  0
SPLINE
  5
15D
330
ED
100
AcDbEntity
  8
0
  6
Continuous
 62
     7
370
    25
100
AcDbSpline
210
0.0
220
0.0
230
1.0
 70
     8
 71
     3
 72
    30
 73
    26
 74
     0
 42
0.000000001
 43
0.00000001
 40
0.0
 40
0.0
 40
0.0
 40
0.0
 40
0.1249999999999978
 40
0.1249999999999978
 40
0.187499999999997
 40
0.187499999999997
 40
0.2499999999999963
 40
0.2499999999999963
 40
0.3749999999999949
 40
0.3749999999999949
 40
0.4374999999999942
 40
0.4374999999999942
 40
0.4687499999999945
 40
0.4687499999999945
 40
0.4999999999999948
 40
0.4999999999999948
 40
0.6249999999999959
 40
0.6249999999999959
 40
0.6874999999999966
 40
0.6874999999999966
 40
0.7499999999999971
 40
0.7499999999999971
 40
0.8749999999999986
 40
0.8749999999999986
 40
1.0
 40
1.0
 40
1.0
 40
1.0
 10
-93.75221567063689
 20
-96.02603416591616
 30
0.0
 10
-93.06177790670755
 20
-94.09289865630494
 30
0.0
 10
-92.22909164624448
 20
-92.22859444788142
 30
0.0
 10
-90.76901671791732
 20
-89.53425899640884
 30
0.0
 10
-90.24530531702003
 20
-88.65068363697955
 30
0.0
 10
-89.13390025356063
 20
-86.93084829495439
 30
0.0
 10
-88.54837783384757
 20
-86.0974497854602
 30
0.0
 10
-86.70459374381898
 20
-83.6748171648857
 30
0.0
 10
-85.3596054855425
 20
-82.1627099831675
 30
0.0
 10
-83.16812623437816
 20
-80.04928657700992
 30
0.0
 10
-82.40851135685816
 20
-79.370710446805
 30
0.0
 10
-81.2242032923273
 20
-78.39276365187156
 30
0.0
 10
-80.8216516015514
 20
-78.0732810622891
 30
0.0
 10
-80.00854747965151
 20
-77.45321931029248
 30
0.0
 10
-79.59715551683277
 20
-77.15192175892297
 30
0.0
 10
-77.5163479469804
 20
-75.68846590610092
 30
0.0
 10
-75.77580105141932
 20
-74.65465992476136
 30
0.0
 10
-73.0527715357258
 20
-73.30642595225599
 30
0.0
 10
-72.12631273617245
 20
-72.89090619821373
 30
0.0
 10
-70.2351158836721
 20
-72.12893940182869
 30
0.0
 10
-69.26619792267583
 20
-71.78134547567258
 30
0.0
 10
-66.3438889173291
 20
-70.85886911707654
 30
0.0
 10
-64.36921836147668
 20
-70.39966788135015
 30
0.0
 10
-60.36854820848005
 20
-69.78341267934236
 30
0.0
 10
-58.34255110615506
 20
-69.62634402736525
 30
0.0
 10
-56.28987104443107
 20
-69.62634402736526
 30
0.0
  0
SPLINE
  5
15F
330
ED
100
AcDbEntity
  8
0
  6
Continuous
 62
     7
370
    25
100
AcDbSpline
210
0.0
220
0.0
230
1.0
 70
     8
 71
     3
 72
    28
 73
    24
 74
     0
 42
0.000000001
 43
0.00000001
 40
0.0
 40
0.0
 40
0.0
 40
0.0
 40
0.1250000000000016
 40
0.1250000000000016
 40
0.2500000000000031
 40
0.2500000000000031
 40
0.3125000000000034
 40
0.3125000000000034
 40
0.3750000000000038
 40
0.3750000000000038
 40
0.5000000000000046
 40
0.5000000000000046
 40
0.5625000000000038
 40
0.5625000000000038
 40
0.625000000000003
 40
0.625000000000003
 40
0.7500000000000013
 40
0.7500000000000013
 40
0.812500000000001
 40
0.812500000000001
 40
0.8750000000000007
 40
0.8750000000000007
 40
1.0
 40
1.0
 40
1.0
 40
1.0
 10
-56.28987104443053
 20
-89.5164530857933
 30
0.0
 10
-57.3165597067868
 20
-89.50859184454825
 30
0.0
 10
-58.33088743205141
 20
-89.57942699486574
 30
0.0
 10
-60.33555504738908
 20
-89.87379596065195
 30
0.0
 10
-61.32589619910334
 20
-90.09732183582082
 30
0.0
 10
-62.79269917272632
 20
-90.55168699686716
 30
0.0
 10
-63.27935540200129
 20
-90.72362024683657
 30
0.0
 10
-64.22895939417093
 20
-91.10159535308775
 30
0.0
 10
-64.69407042455471
 20
-91.30821182266352
 30
0.0
 10
-66.06084361188408
 20
-91.98001445088116
 30
0.0
 10
-66.93411106252498
 20
-92.49685331545138
 30
0.0
 10
-68.18617531647217
 20
-93.37732128084497
 30
0.0
 10
-68.59535822930768
 20
-93.68969612334978
 30
0.0
 10
-69.38638230213292
 20
-94.3447788959942
 30
0.0
 10
-69.76649219747516
 20
-94.68582427181796
 30
0.0
 10
-70.86196853037167
 20
-95.74828636892197
 30
0.0
 10
-71.5327325080645
 20
-96.50880910260416
 30
0.0
 10
-72.45012388857745
 20
-97.72741131333416
 30
0.0
 10
-72.741065388015
 20
-98.14663713908351
 30
0.0
 10
-73.29254508400578
 20
-99.01174583609861
 30
0.0
 10
-73.5519029806908
 20
-99.45603168204386
 30
0.0
 10
-74.27359191814969
 20
-100.810156516808
 30
0.0
 10
-74.6832371623606
 20
-101.7463240462845
 30
0.0
 10
-75.02127700986033
 20
-102.7159673552588
 30
0.0
  0
SPLINE
  5
160
330
ED
100
AcDbEntity
  8
0
  6
Continuous
 62
     7
370
    25
100
AcDbSpline
210
0.0
220
0.0
230
1.0
 70
     8
 71
     3
 72
    30
 73
    26
 74
     0
 42
0.000000001
 43
0.00000001
 40
0.0
 40
0.0
 40
0.0
 40
0.0
 40
0.1250000000000004
 40
0.1250000000000004
 40
0.1875000000000002
 40
0.1875000000000002
 40
0.2499999999999999
 40
0.2499999999999999
 40
0.3749999999999999
 40
0.3749999999999999
 40
0.4375000000000001
 40
0.4375000000000001
 40
0.4687500000000002
 40
0.4687500000000002
 40
0.5000000000000003
 40
0.5000000000000003
 40
0.6250000000000011
 40
0.6250000000000011
 40
0.6875000000000009
 40
0.6875000000000009
 40
0.7500000000000007
 40
0.7500000000000007
 40
0.8750000000000003
 40
0.8750000000000003
 40
1.0
 40
1.0
 40
1.0
 40
1.0
 10
56.28987104054209
 20
-69.6263440273653
 30
0.0
 10
58.34260370758265
 20
-69.62634402736545
 30
0.0
 10
60.37836174313283
 20
-69.78344236797506
 30
0.0
 10
63.4068134249741
 20
-70.25217771175365
 30
0.0
 10
64.41505718236469
 20
-70.44817263266799
 30
0.0
 10
66.40852240545965
 20
-70.91633321723008
 30
0.0
 10
67.39031088994605
 20
-71.18741507099944
 30
0.0
 10
70.29196760827409
 20
-72.10888317644925
 30
0.0
 10
72.16837274373961
 20
-72.8668837772625
 30
0.0
 10
74.89578163505841
 20
-74.21978837003121
 30
0.0
 10
75.79032351194414
 20
-74.70689225724449
 30
0.0
 10
77.10964186376145
 20
-75.4932442335371
 30
0.0
 10
77.54591370139303
 20
-75.76487802692158
 30
0.0
 10
78.40334716537284
 20
-76.32203918850138
 30
0.0
 10
78.82546725456245
 20
-76.60811519913284
 30
0.0
 10
80.90356397651053
 20
-78.07542758138662
 30
0.0
 10
82.4625909913328
 20
-79.36682287496474
 30
0.0
 10
84.64819493094335
 20
-81.47768987889206
 30
0.0
 10
85.35113005895838
 20
-82.21039964495489
 30
0.0
 10
86.70482718770097
 20
-83.73510084914281
 30
0.0
 10
87.35807570088261
 20
-84.53064334005322
 30
0.0
 10
89.20976057863791
 20
-86.9723920161639
 30
0.0
 10
90.30641026704527
 20
-88.67754652123942
 30
0.0
 10
92.23242122911672
 20
-92.23782835432897
 30
0.0
 10
93.06179563794186
 20
-94.09294831233709
 30
0.0
 10
93.7522156667465
 20
-96.02603416591667
 30
0.0
  0
SPLINE
  5
161
330
ED
100
AcDbEntity
  8
0
  6
Continuous
 62
     7
370
    25
100
AcDbSpline
210
0.0
220
0.0
230
1.0
 70
     8
 71
     3
 72
    28
 73
    24
 74
     0
 42
0.000000001
 43
0.00000001
 40
0.0
 40
0.0
 40
0.0
 40
0.0
 40
0.1249999999999993
 40
0.1249999999999993
 40
0.2499999999999985
 40
0.2499999999999985
 40
0.3124999999999979
 40
0.3124999999999979
 40
0.3749999999999974
 40
0.3749999999999974
 40
0.4999999999999974
 40
0.4999999999999974
 40
0.5624999999999976
 40
0.5624999999999976
 40
0.6249999999999976
 40
0.6249999999999976
 40
0.7499999999999968
 40
0.7499999999999968
 40
0.8124999999999976
 40
0.8124999999999976
 40
0.8749999999999983
 40
0.8749999999999983
 40
1.0
 40
1.0
 40
1.0
 40
1.0
 10
75.02127700596981
 20
-102.715967355259
 30
0.0
 10
74.68327231433794
 20
-101.7464248883963
 30
0.0
 10
74.2753088278006
 20
-100.8150147416797
 30
0.0
 10
73.32366498684733
 20
-99.02616967831712
 30
0.0
 10
72.77999144220465
 20
-98.16873105142646
 30
0.0
 10
71.8586570917919
 20
-96.94025396130411
 30
0.0
 10
71.53303334012571
 20
-96.53980032433564
 30
0.0
 10
70.85764339557362
 20
-95.77268957980321
 30
0.0
 10
70.50660806310758
 20
-95.4041886160777
 30
0.0
 10
69.41418597815299
 20
-94.34305323498289
 30
0.0
 10
68.63371066377898
 20
-93.69452957981139
 30
0.0
 10
67.38337137612046
 20
-92.8116002621972
 30
0.0
 10
66.95155195420175
 20
-92.53133708578532
 30
0.0
 10
66.06856220120777
 20
-92.006775168039
 30
0.0
 10
65.61953108227826
 20
-91.7635418669492
 30
0.0
 10
64.25049045222745
 20
-91.08931403014725
 30
0.0
 10
63.30865630773147
 20
-90.71348157292083
 30
0.0
 10
61.85247586778859
 20
-90.25950469673606
 30
0.0
 10
61.35981329036619
 20
-90.12655245933153
 30
0.0
 10
60.35961168138157
 20
-89.8982504084344
 30
0.0
 10
59.85398240638858
 20
-89.80347665270565
 30
0.0
 10
58.33603941642377
 20
-89.57940925559114
 30
0.0
 10
57.31666578073566
 20
-89.50859103232222
 30
0.0
 10
56.28987104054428
 20
-89.51645308579329
 30
0.0
  0
SPLINE
  5
165
330
ED
100
AcDbEntity
  8
0
  6
Continuous
 62
     7
370
    25
100
AcDbSpline
210
0.0
220
0.0
230
1.0
 70
     8
 71
     3
 72
     8
 73
     4
 74
     0
 42
0.000000001
 43
0.00000001
 40
0.0
 40
0.0
 40
0.0
 40
0.0
 40
1.0
 40
1.0
 40
1.0
 40
1.0
 10
-56.28987104443051
 20
-89.51645308579346
 30
0.0
 10
-55.22028069017932
 20
-91.03074312762388
 30
0.0
 10
-54.09293291930369
 20
-92.54459280158702
 30
0.0
 10
-52.86550042502395
 20
-94.05756293164004
 30
0.0
  0
SPLINE
  5
166
330
ED
100
AcDbEntity
  8
0
  6
Continuous
 62
     7
370
    25
100
AcDbSpline
210
0.0
220
0.0
230
1.0
 70
     8
 71
     3
 72
    26
 73
    22
 74
     0
 42
0.000000001
 43
0.00000001
 40
0.0
 40
0.0
 40
0.0
 40
0.0
 40
0.1249999999999985
 40
0.1249999999999985
 40
0.2499999999999971
 40
0.2499999999999971
 40
0.3749999999999956
 40
0.3749999999999956
 40
0.4374999999999954
 40
0.4374999999999954
 40
0.4999999999999952
 40
0.4999999999999952
 40
0.6249999999999961
 40
0.6249999999999961
 40
0.6874999999999964
 40
0.6874999999999964
 40
0.7499999999999968
 40
0.7499999999999968
 40
0.8749999999999983
 40
0.8749999999999983
 40
1.0
 40
1.0
 40
1.0
 40
1.0
 10
-72.33990502059943
 20
-109.9012275954124
 30
0.0
 10
-72.1027924271008
 20
-108.7849239440446
 30
0.0
 10
-71.77421080616597
 20
-107.7046254333244
 30
0.0
 10
-70.94151626212262
 20
-105.6131233651783
 30
0.0
 10
-70.43661086322909
 20
-104.6006186563702
 30
0.0
 10
-69.24636906789634
 20
-102.6532045462028
 30
0.0
 10
-68.57684424937112
 20
-101.7436751264376
 30
0.0
 10
-67.46533034255208
 20
-100.4718700451089
 30
0.0
 10
-67.07685394141669
 20
-100.063436677053
 30
0.0
 10
-66.26350917146644
 20
-99.2779600361227
 30
0.0
 10
-65.8376510857396
 20
-98.9001138389091
 30
0.0
 10
-64.5099976634586
 20
-97.82047079848347
 30
0.0
 10
-63.57592790984132
 20
-97.18577792919959
 30
0.0
 10
-62.10415842766712
 20
-96.35650203035263
 30
0.0
 10
-61.60172502393917
 20
-96.10065213328082
 30
0.0
 10
-60.57285933904059
 20
-95.63064474663551
 30
0.0
 10
-60.04460405639021
 20
-95.41584759894283
 30
0.0
 10
-58.43503310367642
 20
-94.84057948584095
 30
0.0
 10
-57.34461748439062
 20
-94.55351982058203
 30
0.0
 10
-55.13044825732248
 20
-94.1645418876115
 30
0.0
 10
-54.00669571296407
 20
-94.06261769640112
 30
0.0
 10
-52.865500425024
 20
-94.05756293163984
 30
0.0
  0
SPLINE
  5
167
330
ED
100
AcDbEntity
  8
0
  6
Continuous
 62
     7
370
    25
100
AcDbSpline
210
0.0
220
0.0
230
1.0
 70
     8
 71
     3
 72
    26
 73
    22
 74
     0
 42
0.000000001
 43
0.00000001
 40
0.0
 40
0.0
 40
0.0
 40
0.0
 40
0.1250000000000014
 40
0.1250000000000014
 40
0.2500000000000027
 40
0.2500000000000027
 40
0.3750000000000041
 40
0.3750000000000041
 40
0.4375000000000044
 40
0.4375000000000044
 40
0.5000000000000048
 40
0.5000000000000048
 40
0.6250000000000054
 40
0.6250000000000054
 40
0.6875000000000047
 40
0.6875000000000047
 40
0.7500000000000039
 40
0.7500000000000039
 40
0.875000000000002
 40
0.875000000000002
 40
1.0
 40
1.0
 40
1.0
 40
1.0
 10
52.86550042113339
 20
-94.05756293163986
 30
0.0
 10
54.00669794693136
 20
-94.06261770631346
 30
0.0
 10
55.13125504592544
 20
-94.16454962047398
 30
0.0
 10
57.3484349522794
 20
-94.55432474295908
 30
0.0
 10
58.4424976743955
 20
-94.84268083300714
 30
0.0
 10
60.59134245020882
 20
-95.61182564070437
 30
0.0
 10
61.61807017122661
 20
-96.0823003885373
 30
0.0
 10
63.08942513911404
 20
-96.91181290549919
 30
0.0
 10
63.56835617336015
 20
-97.20906668272367
 30
0.0
 10
64.50288922496591
 20
-97.84559169325007
 30
0.0
 10
64.95948210300678
 20
-98.18567137718856
 30
0.0
 10
66.2866574919828
 20
-99.26588877031764
 30
0.0
 10
67.0981163721871
 20
-100.0512856283494
 30
0.0
 10
68.20948630982559
 20
-101.3235492303968
 30
0.0
 10
68.56220758182691
 20
-101.7634198960252
 30
0.0
 10
69.23171196789181
 20
-102.6751427919671
 30
0.0
 10
69.54949489422103
 20
-103.1486543008837
 30
0.0
 10
70.44018913652165
 20
-104.6075051206143
 30
0.0
 10
70.943083671034
 20
-105.6167033617218
 30
0.0
 10
71.77438271362536
 20
-107.7054148931225
 30
0.0
 10
72.10279284266942
 20
-108.7849259188176
 30
0.0
 10
72.33990501670968
 20
-109.9012275954161
 30
0.0
  0
SPLINE
  5
168
330
ED
100
AcDbEntity
  8
0
  6
Continuous
 62
     7
370
    25
100
AcDbSpline
210
0.0
220
0.0
230
1.0
 70
     8
 71
     3
 72
     8
 73
     4
 74
     0
 42
0.000000001
 43
0.00000001
 40
0.0
 40
0.0
 40
0.0
 40
0.0
 40
1.0
 40
1.0
 40
1.0
 40
1.0
 10
52.86550042113342
 20
-94.05756293163996
 30
0.0
 10
54.09293291541319
 20
-92.54459280158692
 30
0.0
 10
55.22028068628876
 20
-91.03074312762375
 30
0.0
 10
56.28987104053993
 20
-89.5164530857933
 30
0.0
  0
SPLINE
  5
16A
330
ED
100
AcDbEntity
  8
0
  6
Continuous
 62
     7
370
    25
100
AcDbSpline
210
0.0
220
0.0
230
1.0
 70
     8
 71
     3
 72
    18
 73
    14
 74
     0
 42
0.000000001
 43
0.00000001
 40
0.0
 40
0.0
 40
0.0
 40
0.0
 40
0.2499999999999989
 40
0.2499999999999989
 40
0.3749999999999984
 40
0.3749999999999984
 40
0.4374999999999985
 40
0.4374999999999985
 40
0.4999999999999986
 40
0.4999999999999986
 40
0.7499999999999993
 40
0.7499999999999993
 40
1.0
 40
1.0
 40
1.0
 40
1.0
 10
14.99999999611919
 20
-145.9973825402825
 30
0.0
 10
18.9125628195176
 20
-145.9973825395544
 30
0.0
 10
22.76690973252587
 20
-145.6554349095079
 30
0.0
 10
28.46476630098564
 20
-144.6510904455754
 30
0.0
 10
30.34996322438431
 20
-144.2335555807247
 30
0.0
 10
33.15651230671141
 20
-143.4824571097636
 30
0.0
 10
34.08848008023131
 20
-143.211247321003
 30
0.0
 10
35.94520291067918
 20
-142.6264618108174
 30
0.0
 10
36.87224773103
 20
-142.3120281802075
 30
0.0
 10
41.45826300136837
 20
-140.6426347321128
 30
0.0
 10
44.95616888183158
 20
-139.0068053337676
 30
0.0
 10
51.6247972820516
 20
-135.1602237135446
 30
0.0
 10
54.7953038740111
 20
-132.9490920658347
 30
0.0
 10
57.79393914769745
 20
-130.4359501222092
 30
0.0
  0
SPLINE
  5
16E
330
ED
100
AcDbEntity
  8
0
  6
Continuous
 62
     7
370
    25
100
AcDbSpline
210
0.0
220
0.0
230
1.0
 70
     8
 71
     3
 72
    18
 73
    14
 74
     0
 42
0.000000001
 43
0.00000001
 40
0.0
 40
0.0
 40
0.0
 40
0.0
 40
0.2500000000000006
 40
0.2500000000000006
 40
0.3750000000000014
 40
0.3750000000000014
 40
0.4375000000000016
 40
0.4375000000000016
 40
0.5000000000000016
 40
0.5000000000000016
 40
0.7500000000000008
 40
0.7500000000000008
 40
1.0
 40
1.0
 40
1.0
 40
1.0
 10
-57.79393915168985
 20
-130.4359501221238
 30
0.0
 10
-54.79526769667391
 20
-132.9491223891096
 30
0.0
 10
-51.62160317331433
 20
-135.1628661239658
 30
0.0
 10
-46.60940037970023
 20
-138.0527906058012
 30
0.0
 10
-44.89639203460119
 20
-138.9437640961926
 30
0.0
 10
-42.26301221110254
 20
-140.1709417537736
 30
0.0
 10
-41.37455070114044
 20
-140.5617466837249
 30
0.0
 10
-39.57592513830073
 20
-141.3062215837677
 30
0.0
 10
-38.66345498806275
 20
-141.6607019489344
 30
0.0
 10
-34.07624674832546
 20
-143.3269141851499
 30
0.0
 10
-30.34466243044458
 20
-144.3204299675847
 30
0.0
 10
-22.76275847288156
 20
-145.6554611556732
 30
0.0
 10
-18.91251276562061
 20
-145.9973825396476
 30
0.0
 10
-15.00000000004591
 20
-145.9973825402826
 30
0.0
  0
SPLINE
  5
171
330
ED
100
AcDbEntity
  8
0
  6
Continuous
 62
     7
370
    25
100
AcDbSpline
210
0.0
220
0.0
230
1.0
 70
     8
 71
     3
 72
     8
 73
     4
 74
     0
 42
0.000000001
 43
0.00000001
 40
0.0
 40
0.0
 40
0.0
 40
0.0
 40
1.0
 40
1.0
 40
1.0
 40
1.0
 10
-62.60260372938075
 20
-111.9245718144608
 30
0.0
 10
-63.06354494243405
 20
-114.1428416603837
 30
0.0
 10
-63.29383569301329
 20
-116.3848158894542
 30
0.0
 10
-63.29383569301156
 20
-118.6504575334023
 30
0.0
  0
SPLINE
  5
173
330
ED
100
AcDbEntity
  8
0
  6
Continuous
 62
     7
370
    25
100
AcDbSpline
210
0.0
220
0.0
230
1.0
 70
     8
 71
     3
 72
     8
 73
     4
 74
     0
 42
0.000000001
 43
0.00000001
 40
0.0
 40
0.0
 40
0.0
 40
0.0
 40
1.0
 40
1.0
 40
1.0
 40
1.0
 10
63.293835689121
 20
-118.6504575333859
 30
0.0
 10
63.29383568912235
 20
-116.3848158894444
 30
0.0
 10
63.06354493854258
 20
-114.1428416603807
 30
0.0
 10
62.60260372549091
 20
-111.9245718144642
 30
0.0
  0
SPLINE
  5
176
330
ED
100
AcDbEntity
  8
0
  6
Continuous
 62
     7
370
    25
100
AcDbSpline
210
0.0
220
0.0
230
1.0
 70
     8
 71
     3
 72
    18
 73
    14
 74
     0
 42
0.000000001
 43
0.00000001
 40
0.0
 40
0.0
 40
0.0
 40
0.0
 40
0.2499999999999963
 40
0.2499999999999963
 40
0.3749999999999974
 40
0.3749999999999974
 40
0.4999999999999986
 40
0.4999999999999986
 40
0.7500000000000008
 40
0.7500000000000008
 40
0.8750000000000003
 40
0.8750000000000003
 40
1.0
 40
1.0
 40
1.0
 40
1.0
 10
57.79393914769744
 20
-130.4359501222092
 30
0.0
 10
58.65861870935839
 20
-129.711266299113
 30
0.0
 10
59.42833080041052
 20
-128.9058681900999
 30
0.0
 10
60.44587068772069
 20
-127.5813086503661
 30
0.0
 10
60.76233048434802
 20
-127.1204785921179
 30
0.0
 10
61.34759431162509
 20
-126.1583151211991
 30
0.0
 10
61.61268101024241
 20
-125.6627022486659
 30
0.0
 10
62.320486095615
 20
-124.147664085515
 30
0.0
 10
62.68027744552915
 20
-123.094518646066
 30
0.0
 10
63.0474619866936
 20
-121.4484336734348
 30
0.0
 10
63.14003226925689
 20
-120.8913438215379
 30
0.0
 10
63.26295894630064
 20
-119.7754854914333
 30
0.0
 10
63.29383568912067
 20
-119.2145094181459
 30
0.0
 10
63.293835689121
 20
-118.6504575333859
 30
0.0
  0
SPLINE
  5
177
330
ED
100
AcDbEntity
  8
0
  6
Continuous
 62
     7
370
    25
100
AcDbSpline
210
0.0
220
0.0
230
1.0
 70
     8
 71
     3
 72
    18
 73
    14
 74
     0
 42
0.000000001
 43
0.00000001
 40
0.0
 40
0.0
 40
0.0
 40
0.0
 40
0.2499999999999974
 40
0.2499999999999974
 40
0.3749999999999977
 40
0.3749999999999977
 40
0.4999999999999984
 40
0.4999999999999984
 40
0.7499999999999992
 40
0.7499999999999992
 40
0.8749999999999996
 40
0.8749999999999996
 40
1.0
 40
1.0
 40
1.0
 40
1.0
 10
-63.29383569301159
 20
-118.6504575334023
 30
0.0
 10
-63.2938356930107
 20
-119.7786256316373
 30
0.0
 10
-63.17110201303018
 20
-120.8858853228885
 30
0.0
 10
-62.81007558706481
 20
-122.5166344871379
 30
0.0
 10
-62.66004915210446
 20
-123.055160647329
 30
0.0
 10
-62.29829378003371
 20
-124.1217015821884
 30
0.0
 10
-62.08857012851135
 20
-124.6431883580686
 30
0.0
 10
-61.38173613429734
 20
-126.1587809625574
 30
0.0
 10
-60.80510469157115
 20
-127.1107519159739
 30
0.0
 10
-59.77976857014757
 20
-128.4498107884691
 30
0.0
 10
-59.41252969533145
 20
-128.8787790902576
 30
0.0
 10
-58.63642989453217
 20
-129.6898012498465
 30
0.0
 10
-58.22621928535912
 20
-130.0736582005833
 30
0.0
 10
-57.79393915168989
 20
-130.4359501221238
 30
0.0
  0
SPLINE
  5
178
330
ED
100
AcDbEntity
  8
0
  6
Continuous
 62
     7
370
    25
100
AcDbSpline
210
0.0
220
0.0
230
1.0
 70
     8
 71
     3
 72
    22
 73
    18
 74
     0
 42
0.000000001
 43
0.00000001
 40
0.0
 40
0.0
 40
0.0
 40
0.0
 40
0.125
 40
0.125
 40
0.25
 40
0.25
 40
0.375
 40
0.375
 40
0.5
 40
0.5
 40
0.625
 40
0.625
 40
0.75
 40
0.75
 40
0.875
 40
0.875
 40
1.0
 40
1.0
 40
1.0
 40
1.0
 10
62.60260372549092
 20
-111.9245718144642
 30
0.0
 10
62.48629673034992
 20
-111.3648468584718
 30
0.0
 10
62.32418929028569
 20
-110.8234751517555
 30
0.0
 10
61.91218624528777
 20
-109.7759103938146
 30
0.0
 10
61.66229152994008
 20
-109.2697169861135
 30
0.0
 10
61.07077662190166
 20
-108.2940865942232
 30
0.0
 10
60.73516452176445
 20
-107.8353326675828
 30
0.0
 10
59.99496780020982
 20
-106.985091328994
 30
0.0
 10
59.58921412102597
 20
-106.5916539014133
 30
0.0
 10
58.70350360794948
 20
-105.87071581506
 30
0.0
 10
58.23415867063308
 20
-105.5521628336153
 30
0.0
 10
57.2514091972787
 20
-105.0002370910993
 30
0.0
 10
56.73691989282249
 20
-104.7659820401255
 30
0.0
 10
55.65987659612955
 20
-104.3841996407735
 30
0.0
 10
55.11162434246982
 20
-104.2418706612424
 30
0.0
 10
54.00062396801059
 20
-104.0511989717288
 30
0.0
 10
53.43718612549528
 20
-104.0026174608539
 30
0.0
 10
52.86550042113342
 20
-104.0026174608539
 30
0.0
  0
SPLINE
  5
17B
330
ED
100
AcDbEntity
  8
0
  6
Continuous
 62
     7
370
    25
100
AcDbSpline
210
0.0
220
0.0
230
1.0
 70
     8
 71
     3
 72
    22
 73
    18
 74
     0
 42
0.000000001
 43
0.00000001
 40
0.0
 40
0.0
 40
0.0
 40
0.0
 40
0.125
 40
0.125
 40
0.25
 40
0.25
 40
0.375
 40
0.375
 40
0.5
 40
0.5
 40
0.625
 40
0.625
 40
0.75
 40
0.75
 40
0.875
 40
0.875
 40
1.0
 40
1.0
 40
1.0
 40
1.0
 10
-52.86550042502393
 20
-104.0026174608539
 30
0.0
 10
-53.43718182739032
 20
-104.0026174608539
 30
0.0
 10
-54.00021207625248
 20
-104.051196500286
 30
0.0
 10
-55.10969008849715
 20
-104.2414706261144
 30
0.0
 10
-55.65613802420854
 20
-104.3831647448282
 30
0.0
 10
-56.73170747641271
 20
-104.7638464590188
 30
0.0
 10
-57.24912968839742
 20
-104.9991170864209
 30
0.0
 10
-58.23216160258235
 20
-105.5508817444452
 30
0.0
 10
-58.69991087025475
 20
-105.8681211825305
 30
0.0
 10
-59.58594843006223
 20
-106.5886685440508
 30
0.0
 10
-59.99330668799199
 20
-106.9833961736149
 30
0.0
 10
-60.73360137219591
 20
-107.8333251285641
 30
0.0
 10
-61.06761714674715
 20
-108.2894049590363
 30
0.0
 10
-61.6605172666066
 20
-109.2662654093616
 30
0.0
 10
-61.9113997942916
 20
-109.7740949825848
 30
0.0
 10
-62.32410296700705
 20
-110.823071804287
 30
0.0
 10
-62.48629587546026
 20
-111.3648427256111
 30
0.0
 10
-62.60260372938075
 20
-111.9245718144608
 30
0.0
  0
SPLINE
  5
183
330
ED
100
AcDbEntity
  8
0
  6
Continuous
 62
     8
370
    25
100
AcDbSpline
210
0.0
220
0.0
230
1.0
 70
     8
 71
     3
 72
    16
 73
    12
 74
     0
 42
0.000000001
 43
0.00000001
 40
0.0
 40
0.0
 40
0.0
 40
0.0
 40
0.1179316888174291
 40
0.2358183818826329
 40
0.3537060189243496
 40
0.4716327148590324
 40
0.5896467598806714
 40
0.7076909806891302
 40
0.8257039004431594
 40
0.943729534925362
 40
1.0
 40
1.0
 40
1.0
 40
1.0
 10
102.4999999980547
 20
-199.3517568408495
 30
0.0
 10
107.7192048503563
 20
-199.2375949123453
 30
0.0
 10
118.1556232153061
 20
-199.0093146127716
 30
0.0
 10
133.7153906410853
 20
-197.1230708792444
 30
0.0
 10
149.0849632819916
 20
-194.1127357635685
 30
0.0
 10
164.1769831214998
 20
-189.8865430016595
 30
0.0
 10
178.8969876960815
 20
-184.4951952796823
 30
0.0
 10
193.1636460220745
 20
-177.9769738794128
 30
0.0
 10
206.8353777682337
 20
-170.3116213536309
 30
0.0
 10
217.7215584318763
 20
-163.2792847636576
 30
0.0
 10
223.741072756084
 20
-158.4552408766414
 30
0.0
 10
225.6844373603856
 20
-156.8978268337968
 30
0.0
  0
SPLINE
  5
184
330
ED
100
AcDbEntity
  8
0
  6
Continuous
 62
     8
370
    25
100
AcDbSpline
210
0.0
220
0.0
230
1.0
 70
     8
 71
     3
 72
    16
 73
    12
 74
     0
 42
0.000000001
 43
0.00000001
 40
0.0
 40
0.0
 40
0.0
 40
0.0
 40
0.0560607555962666
 40
0.1741064851598781
 40
0.2921424989551121
 40
0.4102188202010004
 40
0.5282681458013545
 40
0.6462244786206478
 40
0.764137581990943
 40
0.8820470016465771
 40
1.0
 40
1.0
 40
1.0
 40
1.0
 10
225.6630857343943
 20
156.9145847715467
 30
0.0
 10
223.7273335176779
 20
158.4658412045295
 30
0.0
 10
217.7155163202766
 20
163.2835394723401
 30
0.0
 10
206.8375368354432
 20
170.3101459810653
 30
0.0
 10
193.1659188615436
 20
177.9759189491752
 30
0.0
 10
178.898559592386
 20
184.4945610845852
 30
0.0
 10
164.177574303502
 20
189.8863975784571
 30
0.0
 10
149.0847784563317
 20
194.1127924056603
 30
0.0
 10
133.714960390867
 20
197.1231387109684
 30
0.0
 10
118.1553133885936
 20
199.0093295602794
 30
0.0
 10
107.7190805389284
 20
199.2376003545535
 30
0.0
 10
102.499999998148
 20
199.3517568397131
 30
0.0
  0
SPLINE
  5
185
330
ED
100
AcDbEntity
  8
0
  6
Continuous
 62
     8
370
    25
100
AcDbSpline
210
0.0
220
0.0
230
1.0
 70
     8
 71
     3
 72
    16
 73
    12
 74
     0
 42
0.000000001
 43
0.00000001
 40
0.0
 40
0.0
 40
0.0
 40
0.0
 40
0.1179318224632548
 40
0.2358185999886671
 40
0.3537062014551053
 40
0.4716326658984515
 40
0.589646206521076
 40
0.7076900842861192
 40
0.8257031131924772
 40
0.9437290156479896
 40
1.0
 40
1.0
 40
1.0
 40
1.0
 10
-102.5000000019686
 20
199.3517568397131
 30
0.0
 10
-107.7192112974514
 20
199.2375946263799
 30
0.0
 10
-118.1556403717946
 20
199.0093138048212
 30
0.0
 10
-133.715417179686
 20
197.1230668253562
 30
0.0
 10
-149.0849829779461
 20
194.1127305869043
 30
0.0
 10
-164.1769708768485
 20
189.886545016292
 30
0.0
 10
-178.8969332981731
 20
184.4952167907717
 30
0.0
 10
-193.1635650123868
 20
177.9770123414616
 30
0.0
 10
-206.83530424106
 20
170.3116668737588
 30
0.0
 10
-217.7215216125994
 20
163.2793112726028
 30
0.0
 10
-223.7410643436729
 20
158.4552458476794
 30
0.0
 10
-225.6844472751222
 20
156.8978175136971
 30
0.0
  0
SPLINE
  5
186
330
ED
100
AcDbEntity
  8
0
  6
Continuous
 62
     8
370
    25
100
AcDbSpline
210
0.0
220
0.0
230
1.0
 70
     8
 71
     3
 72
    16
 73
    12
 74
     0
 42
0.000000001
 43
0.00000001
 40
0.0
 40
0.0
 40
0.0
 40
0.0
 40
0.0560609001226676
 40
0.1741067639426016
 40
0.2921429411600995
 40
0.4102193123403768
 40
0.5282685295366913
 40
0.6462246895363492
 40
0.764137622265865
 40
0.8820469470514792
 40
1.0
 40
1.0
 40
1.0
 40
1.0
 10
-225.66308529139
 20
-156.9145847084837
 30
0.0
 10
-223.727327967599
 20
-158.4658449851954
 30
0.0
 10
-217.7155007816995
 20
-163.2835504843937
 30
0.0
 10
-206.8375040631745
 20
-170.3101664478255
 30
0.0
 10
-193.1658704377279
 20
-177.9759429307491
 30
0.0
 10
-178.8985053660402
 20
-184.4945834223432
 30
0.0
 10
-164.1775282269081
 20
-189.8864122678695
 30
0.0
 10
-149.0847508375826
 20
-194.1127984532646
 30
0.0
 10
-133.71495163638
 20
-197.1231396437494
 30
0.0
 10
-118.1553139898735
 20
-199.0093294286732
 30
0.0
 10
-107.7190829463521
 20
-199.2376002632193
 30
0.0
 10
-102.5000000019453
 20
-199.3517568408495
 30
0.0
  0
LINE
  5
18B
330
ED
100
AcDbEntity
  8
0
  6
Continuous
 62
     7
370
    25
100
AcDbLine
 10
102.4999999981
 20
199.3869248914
 30
0.0
 11
-102.500000002
 21
199.3869248914
 31
0.0
  0
LINE
  5
18C
330
ED
100
AcDbEntity
  8
0
  6
Continuous
 62
     7
370
    25
100
AcDbLine
 10
-102.5000000019
 20
-199.3869248926
 30
0.0
 11
102.4999999981
 21
-199.3869248926
 31
0.0
  0
LINE
  5
18D
330
ED
100
AcDbEntity
  8
0
  6
Continuous
 62
     7
370
    25
100
AcDbLine
 10
99.9999999982
 20
-186.1182157849
 30
0.0
 11
-100.0000000021
 21
-186.1182157849
 31
0.0
  0
LINE
  5
18E
330
ED
100
AcDbEntity
  8
0
  6
Continuous
 62
     7
370
    25
100
AcDbLine
 10
-100.0000000021
 20
-186.1182157849
 30
0.0
 11
-100.0000000021
 21
-176.1987612304
 31
0.0
  0
LINE
  5
18F
330
ED
100
AcDbEntity
  8
0
  6
Continuous
 62
     7
370
    25
100
AcDbLine
 10
-100.0000000021
 20
-176.1987612304
 30
0.0
 11
99.9999999982
 21
-176.1987612304
 31
0.0
  0
LINE
  5
190
330
ED
100
AcDbEntity
  8
0
  6
Continuous
 62
     7
370
    25
100
AcDbLine
 10
99.9999999982
 20
-176.1987612304
 30
0.0
 11
99.9999999982
 21
-186.1182157849
 31
0.0
  0
LINE
  5
191
330
ED
100
AcDbEntity
  8
0
  6
Continuous
 62
     7
370
    25
100
AcDbLine
 10
-100.000000002
 20
186.1182157837
 30
0.0
 11
-100.000000002
 21
176.1987612292
 31
0.0
  0
LINE
  5
192
330
ED
100
AcDbEntity
  8
0
  6
Continuous
 62
     7
370
    25
100
AcDbLine
 10
99.9999999981
 20
144.7202659431
 30
0.0
 11
-100.0000000019
 21
144.7202659431
 31
0.0
  0
LINE
  5
193
330
ED
100
AcDbEntity
  8
0
  6
Continuous
 62
     7
370
    25
100
AcDbLine
 10
-100.0000000019
 20
154.5803989149
 30
0.0
 11
-100.0000000019
 21
124.9999999994
 31
0.0
  0
LINE
  5
194
330
ED
100
AcDbEntity
  8
0
  6
Continuous
 62
     7
370
    25
100
AcDbLine
 10
-100.0000000019
 20
154.5803989149
 30
0.0
 11
99.9999999981
 21
154.5803989149
 31
0.0
  0
LINE
  5
195
330
ED
100
AcDbEntity
  8
0
  6
Continuous
 62
     7
370
    25
100
AcDbLine
 10
99.9999999981
 20
154.5803989149
 30
0.0
 11
99.9999999981
 21
124.9999999994
 31
0.0
  0
LINE
  5
196
330
ED
100
AcDbEntity
  8
0
  6
Continuous
 62
     7
370
    25
100
AcDbLine
 10
-100.0000000019
 20
-154.5803989161
 30
0.0
 11
-100.0000000019
 21
-125.0000000006
 31
0.0
  0
LINE
  5
197
330
ED
100
AcDbEntity
  8
0
  6
Continuous
 62
     7
370
    25
100
AcDbLine
 10
14.9999999997
 20
-174.0026174609
 30
0.0
 11
14.9999999979
 21
-164.0575629316
 31
0.0
  0
LINE
  5
198
330
ED
100
AcDbEntity
  8
0
  6
Continuous
 62
     7
370
    25
100
AcDbLine
 10
71.8791019532
 20
-155.0000000006
 30
0.0
 11
65.9014502809
 21
-147.0519374081
 31
0.0
  0
LINE
  5
199
330
ED
100
AcDbEntity
  8
0
  6
Continuous
 62
     7
370
    25
100
AcDbLine
 10
71.8791019532
 20
-155.0000000006
 30
0.0
 11
71.8791019532
 21
-145.0000000006
 31
0.0
  0
LINE
  5
19A
330
ED
100
AcDbEntity
  8
0
  6
Continuous
 62
     7
370
    25
100
AcDbLine
 10
77.6343975929
 20
-155.0000000006
 30
0.0
 11
71.8791019532
 21
-155.0000000006
 31
0.0
  0
LINE
  5
19B
330
ED
100
AcDbEntity
  8
0
  6
Continuous
 62
     7
370
    25
100
AcDbLine
 10
71.8791019532
 20
-145.0000000006
 30
0.0
 11
77.6343975929
 21
-145.0000000006
 31
0.0
  0
LINE
  5
19C
330
ED
100
AcDbEntity
  8
0
  6
Continuous
 62
     7
370
    25
100
AcDbLine
 10
77.6343975929
 20
-155.0000000006
 30
0.0
 11
77.6343975929
 21
-145.0000000006
 31
0.0
  0
LINE
  5
19D
330
ED
100
AcDbEntity
  8
0
  6
Continuous
 62
     7
370
    25
100
AcDbLine
 10
14.9999999997
 20
-174.0026174609
 30
0.0
 11
-15.0000000038
 21
-174.0026174609
 31
0.0
  0
LINE
  5
19E
330
ED
100
AcDbEntity
  8
0
  6
Continuous
 62
     7
370
    25
100
AcDbLine
 10
-15.0000000038
 20
-174.0026174609
 30
0.0
 11
-15.000000002
 21
-164.0575629316
 31
0.0
  0
LINE
  5
19F
330
ED
100
AcDbEntity
  8
0
  6
Continuous
 62
     7
370
    25
100
AcDbLine
 10
-15.000000002
 20
-164.0575629316
 30
0.0
 11
14.9999999979
 21
-164.0575629316
 31
0.0
  0
LINE
  5
1A0
330
ED
100
AcDbEntity
  8
0
  6
Continuous
 62
     7
370
    25
100
AcDbLine
 10
97.263053805
 20
-154.5803989161
 30
0.0
 11
97.263053805
 21
-125.0000000006
 31
0.0
  0
LINE
  5
1A1
330
ED
100
AcDbEntity
  8
0
  6
Continuous
 62
     7
370
    25
100
AcDbLine
 10
-100.0000000019
 20
-144.7202659442
 30
0.0
 11
-97.2630538089
 21
-144.7202659442
 31
0.0
  0
LINE
  5
1A2
330
ED
100
AcDbEntity
  8
0
  6
Continuous
 62
     7
370
    25
100
AcDbLine
 10
-97.2630538089
 20
-154.5803989161
 30
0.0
 11
-97.2630538089
 21
-125.0000000006
 31
0.0
  0
LINE
  5
1A3
330
ED
100
AcDbEntity
  8
0
  6
Continuous
 62
     7
370
    25
100
AcDbLine
 10
-97.2630538089
 20
-154.5803989161
 30
0.0
 11
-100.0000000019
 21
-154.5803989161
 31
0.0
  0
LINE
  5
1A4
330
ED
100
AcDbEntity
  8
0
  6
Continuous
 62
     7
370
    25
100
AcDbLine
 10
99.9999999981
 20
-154.5803989161
 30
0.0
 11
97.263053805
 21
-154.5803989161
 31
0.0
  0
LINE
  5
1A5
330
ED
100
AcDbEntity
  8
0
  6
Continuous
 62
     7
370
    25
100
AcDbLine
 10
97.263053805
 20
-144.7202659442
 30
0.0
 11
99.9999999981
 21
-144.7202659442
 31
0.0
  0
LINE
  5
1A6
330
ED
100
AcDbEntity
  8
0
  6
Continuous
 62
     7
370
    25
100
AcDbLine
 10
99.9999999981
 20
-154.5803989161
 30
0.0
 11
99.9999999981
 21
-125.0000000006
 31
0.0
  0
LINE
  5
1A7
330
ED
100
AcDbEntity
  8
0
  6
Continuous
 62
     7
370
    25
100
AcDbLine
 10
-77.6343975968
 20
-145.0000000006
 30
0.0
 11
-77.6343975968
 21
-155.0000000006
 31
0.0
  0
LINE
  5
1A8
330
ED
100
AcDbEntity
  8
0
  6
Continuous
 62
     7
370
    25
100
AcDbLine
 10
-77.6343975968
 20
-145.0000000006
 30
0.0
 11
-71.8791019571
 21
-145.0000000006
 31
0.0
  0
LINE
  5
1A9
330
ED
100
AcDbEntity
  8
0
  6
Continuous
 62
     7
370
    25
100
AcDbLine
 10
-71.8791019571
 20
-145.0000000006
 30
0.0
 11
-71.8791019571
 21
-155.0000000006
 31
0.0
  0
LINE
  5
1AA
330
ED
100
AcDbEntity
  8
0
  6
Continuous
 62
     7
370
    25
100
AcDbLine
 10
-71.8791019571
 20
-155.0000000006
 30
0.0
 11
-77.6343975968
 21
-155.0000000006
 31
0.0
  0
LINE
  5
1AB
330
ED
100
AcDbEntity
  8
0
  6
Continuous
 62
     7
370
    25
100
AcDbLine
 10
-71.8791019571
 20
-155.0000000006
 30
0.0
 11
-65.9014502848
 21
-147.0519374081
 31
0.0
  0
LINE
  5
1AC
330
ED
100
AcDbEntity
  8
0
  6
Continuous
 62
     7
370
    25
100
AcDbLine
 10
-100.000000002
 20
186.1182157837
 30
0.0
 11
99.9999999978
 21
186.1182157837
 31
0.0
  0
LINE
  5
1AD
330
ED
100
AcDbEntity
  8
0
  6
Continuous
 62
     7
370
    25
100
AcDbLine
 10
99.9999999978
 20
176.1987612292
 30
0.0
 11
99.9999999978
 21
186.1182157837
 31
0.0
  0
LINE
  5
1AE
330
ED
100
AcDbEntity
  8
0
  6
Continuous
 62
     7
370
    25
100
AcDbLine
 10
99.9999999978
 20
176.1987612292
 30
0.0
 11
-100.000000002
 21
176.1987612292
 31
0.0
  0
LINE
  5
1AF
330
ED
100
AcDbEntity
  8
0
  6
Continuous
 62
     7
370
    25
100
AcDbLine
 10
-7.5119871277
 20
-155.9424370695
 30
0.0
 11
-15.0000000019
 21
-155.9424370695
 31
0.0
  0
LINE
  5
1B0
330
ED
100
AcDbEntity
  8
0
  6
Continuous
 62
     7
370
    25
100
AcDbLine
 10
14.999999998
 20
-155.9424370695
 30
0.0
 11
7.5119871237
 21
-155.9424370695
 31
0.0
  0
LINE
  5
1B1
330
ED
100
AcDbEntity
  8
0
  6
Continuous
 62
     7
370
    25
100
AcDbLine
 10
102.4999999981
 20
199.3517568397
 30
0.0
 11
-102.500000002
 21
199.3517568397
 31
0.0
  0
LINE
  5
1B2
330
ED
100
AcDbEntity
  8
0
  6
Continuous
 62
     7
370
    25
100
AcDbLine
 10
-102.5000000019
 20
-199.3517568408
 30
0.0
 11
102.4999999981
 21
-199.3517568408
 31
0.0
  0
LINE
  5
1B3
330
ED
100
AcDbEntity
  8
0
  6
Continuous
 62
     7
370
    25
100
AcDbLine
 10
99.9999999981
 20
124.9999999994
 30
0.0
 11
-100.0000000019
 21
124.9999999994
 31
0.0
  0
LINE
  5
1B4
330
ED
100
AcDbEntity
  8
0
  6
Continuous
 62
     7
370
    25
100
AcDbLine
 10
-100.0000000019
 20
-125.0000000006
 30
0.0
 11
-97.2630538089
 21
-125.0000000006
 31
0.0
  0
LINE
  5
1B5
330
ED
100
AcDbEntity
  8
0
  6
Continuous
 62
     7
370
    25
100
AcDbLine
 10
97.263053805
 20
-125.0000000006
 30
0.0
 11
99.9999999981
 21
-125.0000000006
 31
0.0
  0
LINE
  5
1B6
330
ED
100
AcDbEntity
  8
0
  6
Continuous
 62
     7
370
    25
100
AcDbLine
 10
-93.7522156706
 20
-96.0260341659
 30
0.0
 11
-75.0212770099
 21
-102.7159673553
 31
0.0
  0
LINE
  5
1B7
330
ED
100
AcDbEntity
  8
0
  6
Continuous
 62
     7
370
    25
100
AcDbLine
 10
93.7522156667
 20
-96.0260341659
 30
0.0
 11
75.021277006
 21
-102.7159673553
 31
0.0
  0
LINE
  5
1B8
330
ED
100
AcDbEntity
  8
0
  6
Continuous
 62
     7
370
    25
100
AcDbLine
 10
-56.2898710444
 20
-69.6263440274
 30
0.0
 11
-56.2898710444
 21
-89.5164530858
 31
0.0
  0
LINE
  5
1B9
330
ED
100
AcDbEntity
  8
0
  6
Continuous
 62
     7
370
    25
100
AcDbLine
 10
56.2898710405
 20
-69.6263440274
 30
0.0
 11
56.2898710405
 21
-89.5164530858
 31
0.0
  0
LINE
  5
1BA
330
ED
100
AcDbEntity
  8
0
  6
Continuous
 62
     7
370
    25
100
AcDbLine
 10
-56.2898710444
 20
-69.6263440274
 30
0.0
 11
56.2898710405
 21
-69.6263440274
 31
0.0
  0
LINE
  5
1BB
330
ED
100
AcDbEntity
  8
0
  6
Continuous
 62
     7
370
    25
100
AcDbLine
 10
56.2898710405
 20
-89.5164530858
 30
0.0
 11
-56.2898710444
 21
-89.5164530858
 31
0.0
  0
LINE
  5
1BC
330
ED
100
AcDbEntity
  8
0
  6
Continuous
 62
     7
370
    25
100
AcDbLine
 10
-52.865500425
 20
-94.0575629316
 30
0.0
 11
52.8655004211
 21
-94.0575629316
 31
0.0
  0
LINE
  5
1BD
330
ED
100
AcDbEntity
  8
0
  6
Continuous
 62
     7
370
    25
100
AcDbLine
 10
57.7939391477
 20
-130.4359501222
 30
0.0
 11
64.1820033708
 21
-138.0580722067
 31
0.0
  0
LINE
  5
1BE
330
ED
100
AcDbEntity
  8
0
  6
Continuous
 62
     7
370
    25
100
AcDbLine
 10
14.9999999961
 20
-145.9973825403
 30
0.0
 11
14.999999998
 21
-155.9424370695
 31
0.0
  0
LINE
  5
1BF
330
ED
100
AcDbEntity
  8
0
  6
Continuous
 62
     7
370
    25
100
AcDbLine
 10
-64.1820033747
 20
-138.0580722067
 30
0.0
 11
-57.7939391517
 21
-130.4359501221
 31
0.0
  0
LINE
  5
1C0
330
ED
100
AcDbEntity
  8
0
  6
Continuous
 62
     7
370
    25
100
AcDbLine
 10
-15.0000000019
 20
-155.9424370695
 30
0.0
 11
-15.0
 21
-145.9973825403
 31
0.0
  0
LINE
  5
1C1
330
ED
100
AcDbEntity
  8
0
  6
Continuous
 62
     7
370
    25
100
AcDbLine
 10
-72.3399050206
 20
-109.9012275954
 30
0.0
 11
-62.6026037294
 21
-111.9245718145
 31
0.0
  0
LINE
  5
1C2
330
ED
100
AcDbEntity
  8
0
  6
Continuous
 62
     7
370
    25
100
AcDbLine
 10
-73.2388902222
 20
-118.6504575334
 30
0.0
 11
-63.293835693
 21
-118.6504575334
 31
0.0
  0
LINE
  5
1C3
330
ED
100
AcDbEntity
  8
0
  6
Continuous
 62
     7
370
    25
100
AcDbLine
 10
62.6026037255
 20
-111.9245718145
 30
0.0
 11
72.3399050167
 21
-109.9012275954
 31
0.0
  0
LINE
  5
1C4
330
ED
100
AcDbEntity
  8
0
  6
Continuous
 62
     7
370
    25
100
AcDbLine
 10
63.2938356891
 20
-118.6504575334
 30
0.0
 11
73.2388902183
 21
-118.6504575334
 31
0.0
  0
LINE
  5
1C5
330
ED
100
AcDbEntity
  8
0
  6
Continuous
 62
     7
370
    25
100
AcDbLine
 10
52.8655004211
 20
-94.0575629316
 30
0.0
 11
52.8655004211
 21
-104.0026174609
 31
0.0
  0
LINE
  5
1C6
330
ED
100
AcDbEntity
  8
0
  6
Continuous
 62
     7
370
    25
100
AcDbLine
 10
-52.865500425
 20
-94.0575629316
 30
0.0
 11
-52.865500425
 21
-104.0026174609
 31
0.0
  0
LINE
  5
1C7
330
ED
100
AcDbEntity
  8
0
  6
Continuous
 62
     7
370
    25
100
AcDbLine
 10
7.5119871237
 20
-145.9973825403
 30
0.0
 11
7.5119871237
 21
-155.9424370695
 31
0.0
  0
LINE
  5
1C8
330
ED
100
AcDbEntity
  8
0
  6
Continuous
 62
     7
370
    25
100
AcDbLine
 10
-7.5119871277
 20
-145.9973825403
 30
0.0
 11
-7.5119871277
 21
-155.9424370695
 31
0.0
  0
LINE
  5
1C9
330
ED
100
AcDbEntity
  8
0
  6
Continuous
 62
     7
370
    25
100
AcDbLine
 10
-15.0
 20
-145.9973825403
 30
0.0
 11
-7.5119871277
 21
-145.9973825403
 31
0.0
  0
LINE
  5
1CA
330
ED
100
AcDbEntity
  8
0
  6
Continuous
 62
     7
370
    25
100
AcDbLine
 10
7.5119871237
 20
-145.9973825403
 30
0.0
 11
14.9999999961
 21
-145.9973825403
 31
0.0
  0
LINE
  5
1CB
330
ED
100
AcDbEntity
  8
0
  6
Continuous
 62
     7
370
    25
100
AcDbLine
 10
52.8655004211
 20
-104.0026174609
 30
0.0
 11
-52.865500425
 21
-104.0026174609
 31
0.0
  0
LINE
  5
1CC
330
ED
100
AcDbEntity
  8
0
  6
Continuous
 62
     8
370
    25
100
AcDbLine
 10
-102.500000002
 20
199.3517568397
 30
0.0
 11
-102.500000002
 21
199.340090803
 31
0.0
  0
LINE
  5
1CD
330
ED
100
AcDbEntity
  8
0
  6
Continuous
 62
     8
370
    25
100
AcDbLine
 10
-102.5000000019
 20
-199.3517568408
 30
0.0
 11
-102.5000000019
 21
-199.3400908036
 31
0.0
  0
LINE
  5
1CE
330
ED
100
AcDbEntity
  8
0
  6
Continuous
 62
     8
370
    25
100
AcDbLine
 10
102.4999999981
 20
-199.3517568408
 30
0.0
 11
102.4999999981
 21
-199.3400908041
 31
0.0
  0
LINE
  5
1CF
330
ED
100
AcDbEntity
  8
0
  6
Continuous
 62
     8
370
    25
100
AcDbLine
 10
102.4999999981
 20
199.3517568397
 30
0.0
 11
102.4999999981
 21
199.3400908025
 31
0.0
  0
ARC
  5
1D0
330
ED
100
AcDbEntity
  8
0
  6
Continuous
 62
     7
370
    25
100
AcDbCircle
 10
-100.0000000019
 20
-0.0000000006
 30
0.0
 40
144.7202659436654
100
AcDbArc
 50
90.0
 51
270.0
  0
ARC
  5
1D1
330
ED
100
AcDbEntity
  8
0
  6
Continuous
 62
     7
370
    25
100
AcDbCircle
 10
-100.0000000019
 20
-0.0000000006
 30
0.0
 40
154.5803989154981
100
AcDbArc
 50
90.0
 51
270.0
  0
ARC
  5
1D2
330
ED
100
AcDbEntity
  8
0
  6
Continuous
 62
     7
370
    25
100
AcDbCircle
 10
71.886821111
 20
-154.7554270831
 30
0.0
 40
9.755430136451917
100
AcDbArc
 50
90.0453363105
 51
127.8460906965
  0
ARC
  5
1D3
330
ED
100
AcDbEntity
  8
0
  6
Continuous
 62
     7
370
    25
100
AcDbCircle
 10
99.9999999981
 20
-0.0000000006
 30
0.0
 40
144.7202659436654
100
AcDbArc
 50
270.0
 51
90.0
  0
ARC
  5
1D4
330
ED
100
AcDbEntity
  8
0
  6
Continuous
 62
     7
370
    25
100
AcDbCircle
 10
99.9999999981
 20
-0.0000000006
 30
0.0
 40
154.5803989154981
100
AcDbArc
 50
270.0
 51
90.0
  0
ARC
  5
1D5
330
ED
100
AcDbEntity
  8
0
  6
Continuous
 62
     7
370
    25
100
AcDbCircle
 10
-71.8868211149
 20
-154.7554270831
 30
0.0
 40
9.755430136451318
100
AcDbArc
 50
52.1539093035
 51
89.9546636895
  0
ARC
  5
1D6
330
ED
100
AcDbEntity
  8
0
  6
Continuous
 62
     7
370
    25
100
AcDbCircle
 10
99.9999999981
 20
-0.0000000006
 30
0.0
 40
125.0
100
AcDbArc
 50
270.0
 51
90.0
  0
ARC
  5
1D7
330
ED
100
AcDbEntity
  8
0
  6
Continuous
 62
     7
370
    25
100
AcDbCircle
 10
-100.0000000019
 20
-0.0000000006
 30
0.0
 40
125.0
100
AcDbArc
 50
90.0
 51
270.0
  0
ARC
  5
1D8
330
ED
100
AcDbEntity
  8
0
  6
Continuous
 62
     7
370
    25
100
AcDbCircle
 10
-71.121460819
 20
-154.7502766169
 30
0.0
 40
9.750279605200895
100
AcDbArc
 50
52.5155460815
 51
89.9551378301
  0
ARC
  5
1D9
330
ED
100
AcDbEntity
  8
0
  6
Continuous
 62
     7
370
    25
100
AcDbCircle
 10
71.1214608151
 20
-154.7502766169
 30
0.0
 40
9.750279605192636
100
AcDbArc
 50
90.0448621698
 51
127.4844539185
  0
ARC
  5
1DA
330
ED
100
AcDbEntity
  8
0
  6
Continuous
 62
     7
370
    25
100
AcDbCircle
 10
-0.0000000019
 20
-126.3869248857
 30
0.0
 40
20.99999999999979
100
AcDbArc
 50
249.0401489422
 51
290.9598510578
  0
VIEWPORT
  5
253
330
ED
100
AcDbEntity
  8
0
100
AcDbViewport
 10
0.0
 20
0.0
 30
0.0
 40
205.6
 41
156.0
 68
     1
 69
     1
 12
0.0
 22
59.9999999721
 13
0.0
 23
0.0
 14
10.0
 24
10.0
 15
10.0
 25
10.0
 16
0.0
 26
0.0
 36
1.0
 17
0.0
 27
0.0
 37
0.0
 42
50.0
 43
0.0
 44
0.0
 45
468.1807429934
 50
0.0
 51
0.0
 72
   100
 90
   557152
  1

281
     0
 71
     1
 74
     0
110
0.0
120
0.0
130
0.0
111
1.0
121
0.0
131
0.0
112
0.0
122
1.0
132
0.0
 79
     0
146
0.0
  0
ENDBLK
  5
F0
330
ED
100
AcDbEntity
  8
0
100
AcDbBlockEnd
  0
BLOCK
  5
1DD
330
1DB
100
AcDbEntity
  8
0
100
AcDbBlockBegin
  2
*Paper_Space2
 70
     0
 10
0.0
 20
0.0
 30
0.0
  3
*Paper_Space2
  1

  0
SPLINE
  5
1DF
330
1DB
100
AcDbEntity
  8
0
  6
Continuous
 62
     7
370
    25
100
AcDbSpline
210
0.0
220
0.0
230
1.0
 70
     8
 71
     3
 72
    56
 73
    52
 74
     0
 42
0.000000001
 43
0.00000001
 40
0.0
 40
0.0
 40
0.0
 40
0.0
 40
0.0137442660060638
 40
0.0290443329674899
 40
0.0453207382204031
 40
0.0601812091687171
 40
0.073372225272589
 40
0.0888112222161987
 40
0.1053412881125256
 40
0.1233627937584172
 40
0.1460593143626978
 40
0.1671576643922079
 40
0.1884760494288132
 40
0.2063468895757341
 40
0.2241327951099535
 40
0.239415606186423
 40
0.2493631662990954
 40
0.2596892494512705
 40
0.2715451394802594
 40
0.2849322739560854
 40
0.2998524437374532
 40
0.3208444262817053
 40
0.3406593864907875
 40
0.3590463432355023
 40
0.3782049406327336
 40
0.3958727216513493
 40
0.413616991800334
 40
0.4316228568968403
 40
0.4499123222726145
 40
0.4687443839997005
 40
0.4981506058796261
 40
0.528792039524026
 40
0.5591536959846477
 40
0.5888451408532821
 40
0.6179505944724809
 40
0.6469799661921737
 40
0.6760186218625449
 40
0.7051776774389811
 40
0.7349518768345156
 40
0.7653913308939974
 40
0.7960613495715108
 40
0.8258681969942538
 40
0.8404298710664497
 40
0.8550638246179064
 40
0.8720815610414216
 40
0.8919572879778874
 40
0.9099146581637568
 40
0.9296983550520928
 40
0.9513072337336724
 40
0.9747335860063094
 40
1.0
 40
1.0
 40
1.0
 40
1.0
 10
262.4784450672783
 20
52.18009432131998
 30
0.0
 10
262.4662270003413
 20
51.13943445049453
 30
0.0
 10
262.4404078256991
 20
48.94031579397088
 30
0.0
 10
262.1396502417791
 20
45.2529498660269
 30
0.0
 10
261.5475629988316
 20
41.31371068816515
 30
0.0
 10
260.7450593991232
 20
37.59663967486738
 30
0.0
 10
259.7468350435948
 20
33.96638846363918
 30
0.0
 10
258.4895929430988
 20
30.22847026413158
 30
0.0
 10
256.829720508054
 20
26.13748218201198
 30
0.0
 10
254.6035488422441
 20
21.51593963747875
 30
0.0
 10
251.7856730948317
 20
16.59842705775164
 30
0.0
 10
248.357163910405
 20
11.51368089354437
 30
0.0
 10
244.7640610048053
 20
6.885003502511831
 30
0.0
 10
241.004138914572
 20
2.585295958802504
 30
0.0
 10
237.3544153480667
 20
-1.185674598981355
 30
0.0
 10
234.0528444766105
 20
-4.304854803713877
 30
0.0
 10
231.1836587392656
 20
-6.842190267067068
 30
0.0
 10
228.4893097203954
 20
-9.10410232200752
 30
0.0
 10
225.3887514236825
 20
-11.56594679304018
 30
0.0
 10
221.7406068864628
 20
-14.28807563901058
 30
0.0
 10
217.0664246149589
 20
-17.54503873342678
 30
0.0
 10
211.5101127075117
 20
-21.09913822727983
 30
0.0
 10
205.2928528170702
 20
-24.70949964272654
 30
0.0
 10
198.9933895739011
 20
-28.05124564747553
 30
0.0
 10
192.6813915745362
 20
-31.11412697615465
 30
0.0
 10
186.2127288079595
 20
-33.98652049030468
 30
0.0
 10
179.6786487868238
 20
-36.64512435580784
 30
0.0
 10
172.8727240415013
 20
-39.17273859447332
 30
0.0
 10
165.7407852746729
 20
-41.57903885377672
 30
0.0
 10
156.9172587771158
 20
-44.26526568806364
 30
0.0
 10
146.1461417051449
 20
-47.10671217455887
 30
0.0
 10
133.4230062436995
 20
-49.85240555686249
 30
0.0
 10
120.3443994916357
 20
-52.07360263965481
 30
0.0
 10
107.2474442264379
 20
-53.729114070229
 30
0.0
 10
94.177911952753
 20
-54.84067449106731
 30
0.0
 10
81.10318951426343
 20
-55.43146036115155
 30
0.0
 10
67.97980057060985
 20
-55.50630356323349
 30
0.0
 10
54.76654955462124
 20
-55.05884040282255
 30
0.0
 10
41.43037869774055
 20
-54.07060859457719
 30
0.0
 10
28.0280843576664
 20
-52.51486390119093
 30
0.0
 10
14.8533507108119
 20
-50.40800402555171
 30
0.0
 10
4.225186275385012
 20
-48.22975234780336
 30
0.0
 10
-3.955616862239192
 20
-46.27033223390954
 30
0.0
 10
-10.26614308152604
 20
-44.61019393850375
 30
0.0
 10
-17.17476522722652
 20
-42.61064852240699
 30
0.0
 10
-24.35970007305563
 20
-40.30148224703268
 30
0.0
 10
-31.70811756237336
 20
-37.68620093308034
 30
0.0
 10
-39.06164523631532
 20
-34.80309940434904
 30
0.0
 10
-46.8072133342507
 20
-31.42966629839525
 30
0.0
 10
-54.88696187329636
 20
-27.53923344134113
 30
0.0
 10
-60.12084341654766
 20
-24.61828289623669
 30
0.0
 10
-62.83667634216994
 20
-23.10261740037962
 30
0.0
  0
SPLINE
  5
1E0
330
1DB
100
AcDbEntity
  8
0
  6
Continuous
 62
     7
370
    25
100
AcDbSpline
210
0.0
220
0.0
230
1.0
 70
     8
 71
     3
 72
    33
 73
    29
 74
     0
 42
0.000000001
 43
0.00000001
 40
0.0
 40
0.0
 40
0.0
 40
0.0
 40
0.0205218449417238
 40
0.0454817356018693
 40
0.0748860230306158
 40
0.1087292209578197
 40
0.1439332882454535
 40
0.183764510672504
 40
0.2163360460011984
 40
0.2416589814649225
 40
0.2746472021751445
 40
0.31360596228307
 40
0.3581598152429082
 40
0.4072485435714724
 40
0.4608053385003998
 40
0.5011599021671163
 40
0.5368376174365592
 40
0.5662110078473634
 40
0.5892868574349889
 40
0.6106682021122616
 40
0.6366644727100618
 40
0.6673094728329453
 40
0.7089308610880392
 40
0.7564433382189875
 40
0.8093080008700955
 40
0.867520926424485
 40
0.9310607086461443
 40
1.0
 40
1.0
 40
1.0
 40
1.0
 10
272.0141093219368
 20
46.93878546659042
 30
0.0
 10
272.0581509797059
 20
47.67658966234017
 30
0.0
 10
272.155758725979
 20
49.3117552847455
 30
0.0
 10
272.1944076765191
 20
51.8891356100977
 30
0.0
 10
272.1355010589966
 20
54.85904829135259
 30
0.0
 10
271.9287020809263
 20
58.09335984642219
 30
0.0
 10
271.5359172614049
 20
61.62117800979966
 30
0.0
 10
270.9598502000966
 20
65.11445443724833
 30
0.0
 10
270.2743912144016
 20
68.2781508647843
 30
0.0
 10
269.5151795157619
 20
71.21690146438665
 30
0.0
 10
268.5689318450903
 20
74.36412614292755
 30
0.0
 10
267.2383588890173
 20
78.12692656548428
 30
0.0
 10
265.4654143393029
 20
82.3865460608239
 30
0.0
 10
263.1893069383751
 20
87.05268375646709
 30
0.0
 10
260.652146691817
 20
91.5199428491828
 30
0.0
 10
258.0872770275299
 20
95.50604611468755
 30
0.0
 10
255.8280021892676
 20
98.7044266479766
 30
0.0
 10
253.8183946141209
 20
101.3429826467796
 30
0.0
 10
252.0566579301126
 20
103.5258420332436
 30
0.0
 10
250.3171629141831
 20
105.5815092056897
 30
0.0
 10
248.3178811349146
 20
107.8315295053595
 30
0.0
 10
245.6902090421747
 20
110.625851302708
 30
0.0
 10
242.3166285338629
 20
113.97138181942
 30
0.0
 10
238.0729482625678
 20
117.8436013114418
 30
0.0
 10
233.0364181106358
 20
122.0439711406392
 30
0.0
 10
227.129528664701
 20
126.5070583559214
 30
0.0
 10
220.2996724188872
 20
131.195400309352
 30
0.0
 10
215.1799634877688
 20
134.2491341700968
 30
0.0
 10
212.5157758834667
 20
135.8382323020596
 30
0.0
  0
SPLINE
  5
1E1
330
1DB
100
AcDbEntity
  8
0
  6
Continuous
 62
     7
370
    25
100
AcDbSpline
210
0.0
220
0.0
230
1.0
 70
     8
 71
     3
 72
    32
 73
    28
 74
     0
 42
0.000000001
 43
0.00000001
 40
0.0
 40
0.0
 40
0.0
 40
0.0
 40
0.0418892561149009
 40
0.0846379288394817
 40
0.1188902446995718
 40
0.1464507086009706
 40
0.1742242577239486
 40
0.2313425323794589
 40
0.2911178783093705
 40
0.3349363241559025
 40
0.3774479366599804
 40
0.4128101567361631
 40
0.4419085491216941
 40
0.4758400747021212
 40
0.5294242325377773
 40
0.585095303527132
 40
0.6391459387993605
 40
0.6913054664994392
 40
0.7414173085097375
 40
0.7647589690145377
 40
0.7868527996351921
 40
0.8076950340657124
 40
0.828827164121842
 40
0.8585568353971222
 40
0.8981556108904107
 40
0.9476774725656635
 40
1.0
 40
1.0
 40
1.0
 40
1.0
 10
254.7684930483911
 20
-53.22651911701993
 30
0.0
 10
255.1563061623287
 20
-51.90502052739471
 30
0.0
 10
255.9398889180222
 20
-49.23491095840708
 30
0.0
 10
256.9859493904785
 20
-45.4482670545957
 30
0.0
 10
257.8798258544115
 20
-42.10212317819644
 30
0.0
 10
258.6239359281549
 20
-39.22354740181422
 30
0.0
 10
259.5343562748055
 20
-35.60015126145633
 30
0.0
 10
260.6589370625526
 20
-30.91858141235459
 30
0.0
 10
261.8398652146158
 20
-25.68134162442221
 30
0.0
 10
262.8600922247176
 20
-20.88701015495099
 30
0.0
 10
263.6728172571013
 20
-16.87277503654547
 30
0.0
 10
264.3578134260645
 20
-13.32958616512136
 30
0.0
 10
264.9653061419993
 20
-10.06181369353805
 30
0.0
 10
265.6597443070514
 20
-6.176972770059651
 30
0.0
 10
266.4695221377498
 20
-1.385358725871068
 30
0.0
 10
267.3330923899097
 20
4.11125100794963
 30
0.0
 10
268.1301940432735
 20
9.591019203961098
 30
0.0
 10
268.8450232207529
 20
14.90739410263515
 30
0.0
 10
269.3773251168294
 20
19.19634653890791
 30
0.0
 10
269.7596227051698
 20
22.46848543686657
 30
0.0
 10
270.0152066906674
 20
24.74274333961001
 30
0.0
 10
270.2535392598454
 20
26.94511811833287
 30
0.0
 10
270.510743277173
 20
29.41429772000403
 30
0.0
 10
270.8209205097855
 20
32.53583141963458
 30
0.0
 10
271.2017832092683
 20
36.6482619160946
 30
0.0
 10
271.6204291352179
 20
41.55675907247673
 30
0.0
 10
271.877806588055
 20
45.10818695585264
 30
0.0
 10
272.0100341850271
 20
46.93273207300245
 30
0.0
  0
SPLINE
  5
1E2
330
1DB
100
AcDbEntity
  8
0
  6
Continuous
 62
     7
370
    25
100
AcDbSpline
210
0.0
220
0.0
230
1.0
 70
     8
 71
     3
 72
    33
 73
    29
 74
     0
 42
0.000000001
 43
0.00000001
 40
0.0
 40
0.0
 40
0.0
 40
0.0
 40
0.0636025726222394
 40
0.1247869137019636
 40
0.1763177134840691
 40
0.2181763022701198
 40
0.2503490876890234
 40
0.2789416660816185
 40
0.3108417856073882
 40
0.3609750969365729
 40
0.4101110037588606
 40
0.4536650339767183
 40
0.4917424977786911
 40
0.526440037409877
 40
0.5533801367678676
 40
0.5786476859338157
 40
0.6076992415523885
 40
0.6434653926119884
 40
0.6859438591142772
 40
0.7285181098198049
 40
0.7565993106752673
 40
0.7813799603390135
 40
0.8028595995604073
 40
0.8251485789991005
 40
0.85713704497717
 40
0.8991286744145492
 40
0.9511200343156617
 40
1.0
 40
1.0
 40
1.0
 40
1.0
 10
-271.9522791180191
 20
130.499292994108
 30
0.0
 10
-271.782506569942
 20
128.4818298889643
 30
0.0
 10
-271.4494163908434
 20
124.5236095840448
 30
0.0
 10
-270.889358650726
 20
118.9069318375534
 30
0.0
 10
-270.3534010928904
 20
113.9739532633152
 30
0.0
 10
-269.8833943661525
 20
109.9604753283052
 30
0.0
 10
-269.4788459523254
 20
106.6832666163722
 30
0.0
 10
-269.0976936251108
 20
103.7205978859734
 30
0.0
 10
-268.6219059729198
 20
100.1644427983827
 30
0.0
 10
-268.0257018587186
 20
95.92811731484419
 30
0.0
 10
-267.3361588229355
 20
91.30184255659749
 30
0.0
 10
-266.6710240302586
 20
87.05761339747067
 30
0.0
 10
-266.0528788138159
 20
83.27448907488841
 30
0.0
 10
-265.5028462635891
 20
80.02561504495239
 30
0.0
 10
-265.0085884353319
 20
77.18934014975687
 30
0.0
 10
-264.5347083690544
 20
74.53368443719935
 30
0.0
 10
-263.9954813979446
 20
71.58334978992738
 30
0.0
 10
-263.3340533450285
 20
68.06329728721298
 30
0.0
 10
-262.5636535817164
 20
64.09330659225151
 30
0.0
 10
-261.8166340269249
 20
60.37097653070485
 30
0.0
 10
-261.1686765733141
 20
57.22777806714828
 30
0.0
 10
-260.6535352172743
 20
54.77716311509342
 30
0.0
 10
-260.1702448679063
 20
52.51608389246935
 30
0.0
 10
-259.6268844027961
 20
50.01313927921167
 30
0.0
 10
-258.9219197510384
 20
46.82552782059189
 30
0.0
 10
-257.9741076462103
 20
42.64984780370914
 30
0.0
 10
-256.8693317355182
 20
37.90947179519637
 30
0.0
 10
-256.0514743568433
 20
34.55865971968996
 30
0.0
 10
-255.6551591466259
 20
32.93493188311396
 30
0.0
  0
SPLINE
  5
1E3
330
1DB
100
AcDbEntity
  8
0
  6
Continuous
 62
     7
370
    25
100
AcDbSpline
210
0.0
220
0.0
230
1.0
 70
     8
 71
     3
 72
    61
 73
    57
 74
     0
 42
0.000000001
 43
0.00000001
 40
0.0
 40
0.0
 40
0.0
 40
0.0
 40
0.0054185158572621
 40
0.0252587954093617
 40
0.0431670019793778
 40
0.0596982032765698
 40
0.0772227514962217
 40
0.095769630337371
 40
0.1150643519619206
 40
0.1343763872908325
 40
0.1537393414527867
 40
0.1730095644795669
 40
0.1922654799038614
 40
0.2115627212911113
 40
0.2308837047859895
 40
0.2502082727469869
 40
0.2695144275043047
 40
0.2887846079392013
 40
0.3080022730945723
 40
0.3271423052320509
 40
0.3463064716129292
 40
0.3655108228991939
 40
0.3847349807393414
 40
0.4039720384155436
 40
0.4232135574957053
 40
0.4424517752878029
 40
0.4616804090477023
 40
0.4808868724291067
 40
0.5000380945977007
 40
0.5192564204236209
 40
0.5384745991521819
 40
0.5576988117222743
 40
0.5769344526053385
 40
0.5961863375358818
 40
0.6154605935036342
 40
0.6347633991149345
 40
0.6540726990291551
 40
0.6731938660792868
 40
0.6923428471283022
 40
0.7115518939438943
 40
0.7308164038951896
 40
0.7501298256157026
 40
0.7694835594866727
 40
0.7888669470004853
 40
0.8082672764367023
 40
0.8276650040986994
 40
0.8470423936957351
 40
0.8663806931848782
 40
0.8856601109027975
 40
0.9048605587313477
 40
0.9239626815667626
 40
0.9429491528296093
 40
0.9618061457522253
 40
0.9804639599367371
 40
0.9989647990094385
 40
1.0
 40
1.0
 40
1.0
 40
1.0
 10
-58.80340802944097
 20
-113.2390822859885
 30
0.0
 10
-58.28848303927618
 20
-113.533676918214
 30
0.0
 10
-55.88812373049816
 20
-114.9069506596029
 30
0.0
 10
-51.62333532393534
 20
-117.1935481618845
 30
0.0
 10
-46.14140091004737
 20
-119.988465678131
 30
0.0
 10
-40.70535870379179
 20
-122.5508452427119
 30
0.0
 10
-35.023753955019
 20
-124.9937782455935
 30
0.0
 10
-28.89671702251498
 20
-127.423630723396
 30
0.0
 10
-22.40382557607952
 20
-129.7763679726695
 30
0.0
 10
-15.66030240046923
 20
-131.997417662596
 30
0.0
 10
-8.772704241924833
 20
-134.0506104297294
 30
0.0
 10
-1.754339092227733
 20
-135.9300592150543
 30
0.0
 10
5.379903217817159
 20
-137.6338584749977
 30
0.0
 10
12.63230425385951
 20
-139.1638458598094
 30
0.0
 10
19.99320332743704
 20
-140.5179219391564
 30
0.0
 10
27.44295350756867
 20
-141.6923579522414
 30
0.0
 10
34.96147756963698
 20
-142.6840209778116
 30
0.0
 10
42.52880079571693
 20
-143.4904934419597
 30
0.0
 10
50.12428936716705
 20
-144.1098453176879
 30
0.0
 10
57.74267099137614
 20
-144.5420899711803
 30
0.0
 10
65.38292797369904
 20
-144.7894108847649
 30
0.0
 10
73.0451703301115
 20
-144.8514251435403
 30
0.0
 10
80.71495241580294
 20
-144.7275010129297
 30
0.0
 10
88.37453449064283
 20
-144.41742042647
 30
0.0
 10
96.00783971383385
 20
-143.9214340723098
 30
0.0
 10
103.5988791917346
 20
-143.2401773806219
 30
0.0
 10
111.1312517530307
 20
-142.3749018237976
 30
0.0
 10
118.5851423366644
 20
-141.3273420985685
 30
0.0
 10
125.9586252786264
 20
-140.09996147047
 30
0.0
 10
133.2421460686217
 20
-138.6936970816612
 30
0.0
 10
140.4306551271214
 20
-137.1083195860674
 30
0.0
 10
147.5048070319941
 20
-135.347267142002
 30
0.0
 10
154.4544686942238
 20
-133.4123551568742
 30
0.0
 10
161.2696183893991
 20
-131.3056095579115
 30
0.0
 10
167.9405462431043
 20
-129.0289571823787
 30
0.0
 10
174.4543941907421
 20
-126.5863706902631
 30
0.0
 10
180.7778911933678
 20
-123.9883719427635
 30
0.0
 10
186.8977759552745
 20
-121.2392804842606
 30
0.0
 10
192.813194718735
 20
-118.3430093047983
 30
0.0
 10
198.5394073132544
 20
-115.2912642183089
 30
0.0
 10
204.068257827766
 20
-112.0863294474167
 30
0.0
 10
209.3877235451675
 20
-108.7326923146438
 30
0.0
 10
214.485708373693
 20
-105.2353894804407
 30
0.0
 10
219.3500868750945
 20
-101.6000358477083
 30
0.0
 10
223.9684291682336
 20
-97.83318745600434
 30
0.0
 10
228.3285029491444
 20
-93.94219921795519
 30
0.0
 10
232.4184978822581
 20
-89.9352347800407
 30
0.0
 10
236.2274693224052
 20
-85.82093831427196
 30
0.0
 10
239.7453460696068
 20
-81.60863823550137
 30
0.0
 10
242.9626751374946
 20
-77.30839503912392
 30
0.0
 10
245.8724369201599
 20
-72.9306435911134
 30
0.0
 10
248.4643395180605
 20
-68.48691768037938
 30
0.0
 10
250.7443505192763
 20
-63.9910941869184
 30
0.0
 10
252.6597594301957
 20
-59.46336346215689
 30
0.0
 10
253.8502507694942
 20
-56.34658903426513
 30
0.0
 10
254.3115849416077
 20
-54.72650892290035
 30
0.0
 10
254.3360307141596
 20
-54.6406620199127
 30
0.0
  0
SPLINE
  5
1E6
330
1DB
100
AcDbEntity
  8
0
  6
Continuous
 62
     7
370
    25
100
AcDbSpline
210
0.0
220
0.0
230
1.0
 70
     8
 71
     3
 72
    15
 73
    11
 74
     0
 42
0.000000001
 43
0.00000001
 40
0.0
 40
0.0
 40
0.0
 40
0.0
 40
0.0131911714763172
 40
0.0700344648034453
 40
0.1659023507207076
 40
0.4825024254676084
 40
0.8080199409228447
 40
0.9237789208461739
 40
0.976404122994269
 40
1.0
 40
1.0
 40
1.0
 40
1.0
 10
-200.2942036761439
 20
-31.54858047265947
 30
0.0
 10
-199.6789877638986
 20
-31.91902783463833
 30
0.0
 10
-196.4126882369752
 20
-33.88580408196535
 30
0.0
 10
-188.5328314855033
 20
-38.36855771205542
 30
0.0
 10
-166.4653504076817
 20
-51.16321140920441
 30
0.0
 10
-131.6253580735199
 20
-71.22424066412947
 30
0.0
 10
-95.93972457026887
 20
-91.873115736705
 30
0.0
 10
-72.61558288548984
 20
-105.2871872550698
 30
0.0
 10
-63.61426971746929
 20
-110.5385892940779
 30
0.0
 10
-59.93421735904765
 20
-112.597618062912
 30
0.0
 10
-58.79497787585007
 20
-113.2350347738802
 30
0.0
  0
SPLINE
  5
1E7
330
1DB
100
AcDbEntity
  8
0
  6
Continuous
 62
     7
370
    25
100
AcDbSpline
210
0.0
220
0.0
230
1.0
 70
     8
 71
     3
 72
    36
 73
    32
 74
     0
 42
0.000000001
 43
0.00000001
 40
0.0
 40
0.0
 40
0.0
 40
0.0
 40
0.0672030299738469
 40
0.1264990235747761
 40
0.1779740331193462
 40
0.2216179704885982
 40
0.2561567194409559
 40
0.283491558406956
 40
0.3036264425500243
 40
0.3172455565221151
 40
0.3321644146069065
 40
0.3505988582882761
 40
0.3725470569439621
 40
0.4007459813116996
 40
0.4330606448849101
 40
0.4654296364176361
 40
0.4959318624253201
 40
0.5245671363917462
 40
0.5736782070091374
 40
0.6161123889648561
 40
0.652111121182242
 40
0.6817662583293334
 40
0.6921973820993614
 40
0.7063269768425535
 40
0.7254789826141885
 40
0.7496514691442452
 40
0.778841767991065
 40
0.8223807009116396
 40
0.8737517560155466
 40
0.9329558358033979
 40
1.0
 40
1.0
 40
1.0
 40
1.0
 10
-207.7940609650809
 20
60.57950301722845
 30
0.0
 10
-210.1046590859903
 20
61.95314102123885
 30
0.0
 10
-214.4539928330325
 20
64.5387962561314
 30
0.0
 10
-220.1584606519189
 20
68.39150172792232
 30
0.0
 10
-224.8669186365816
 20
71.8401939774653
 30
0.0
 10
-228.6236310192927
 20
74.81863651717828
 30
0.0
 10
-231.5489808608665
 20
77.2928912018684
 30
0.0
 10
-233.7385368851807
 20
79.24534925668944
 30
0.0
 10
-235.3206548101062
 20
80.71549962046583
 30
0.0
 10
-236.5509701918847
 20
81.8932652811899
 30
0.0
 10
-237.7120692492044
 20
83.03335641942626
 30
0.0
 10
-239.0465186342678
 20
84.38358615843397
 30
0.0
 10
-240.6531562972717
 20
86.07042006593888
 30
0.0
 10
-242.5136044408837
 20
88.11759492525137
 30
0.0
 10
-244.5121079363162
 20
90.44901796150789
 30
0.0
 10
-246.4524655360423
 20
92.86456090012332
 30
0.0
 10
-248.2157177020635
 20
95.20942881889663
 30
0.0
 10
-250.1864031066939
 20
98.00636652925421
 30
0.0
 10
-252.2054608042075
 20
101.1438144707698
 30
0.0
 10
-254.131136788491
 20
104.5001673636521
 30
0.0
 10
-255.6114644186422
 20
107.3740367771667
 30
0.0
 10
-256.5637880328201
 20
109.4150134175074
 30
0.0
 10
-257.2043743146729
 20
110.8806102525499
 30
0.0
 10
-257.6961438013961
 20
112.0533274939838
 30
0.0
 10
-258.3052870691571
 20
113.5936443853881
 30
0.0
 10
-259.0149242182596
 20
115.5400941280353
 30
0.0
 10
-259.8670797662293
 20
118.1487582018801
 30
0.0
 10
-260.7931412442949
 20
121.5044273220643
 30
0.0
 10
-261.6662601137906
 20
125.6950520870514
 30
0.0
 10
-262.337759553521
 20
130.5505371931562
 30
0.0
 10
-262.4296477928368
 20
134.0196271548872
 30
0.0
 10
-262.4784450672383
 20
135.8618883196106
 30
0.0
  0
SPLINE
  5
1E8
330
1DB
100
AcDbEntity
  8
0
  6
Continuous
 62
     7
370
    25
100
AcDbSpline
210
0.0
220
0.0
230
1.0
 70
     8
 71
     3
 72
    67
 73
    63
 74
     0
 42
0.000000001
 43
0.00000001
 40
0.0
 40
0.0
 40
0.0
 40
0.0
 40
0.0253352326652223
 40
0.0486848057857268
 40
0.0700790641711763
 40
0.0895156308484277
 40
0.1069978083328389
 40
0.1225275699710367
 40
0.1361062822230775
 40
0.1477944755460555
 40
0.1589945777825053
 40
0.1702965753096781
 40
0.1989723152224638
 40
0.228253605191873
 40
0.2577638622744519
 40
0.2872780093960943
 40
0.3168042737719427
 40
0.3463450247394688
 40
0.3758748239559062
 40
0.4055344463830218
 40
0.4297347644396269
 40
0.4543946242962033
 40
0.4795506503769341
 40
0.5056317812543247
 40
0.532755381128337
 40
0.5484031180736021
 40
0.5638550015643822
 40
0.5777752376209673
 40
0.5900969570039409
 40
0.6008194710672359
 40
0.6098003513561736
 40
0.6188654653408918
 40
0.6292519889022234
 40
0.6409619469507332
 40
0.6558781905466222
 40
0.6725016537128838
 40
0.6898576523802464
 40
0.7061409670728055
 40
0.7213119459623126
 40
0.7353709063006085
 40
0.7483972752508641
 40
0.7609160501537536
 40
0.7788551164179383
 40
0.7967944787853731
 40
0.8153116918460976
 40
0.8270322723055112
 40
0.840474560289781
 40
0.8556604779946964
 40
0.8725909540174211
 40
0.8855955766563782
 40
0.8970398442418023
 40
0.9066296441292178
 40
0.9143644194512827
 40
0.9211535221167518
 40
0.9295133598449012
 40
0.9395910109199865
 40
0.9503386944873274
 40
0.9624784111650887
 40
0.9740912004748389
 40
0.9842158491607492
 40
0.9928511665473603
 40
1.0
 40
1.0
 40
1.0
 40
1.0
 10
67.5583104237269
 20
219.5204081898329
 30
0.0
 10
64.64873043896704
 20
221.1440503287412
 30
0.0
 10
59.05761002780467
 20
224.2640809691854
 30
0.0
 10
50.45333259182893
 20
228.3995618566316
 30
0.0
 10
42.26776187605275
 20
231.9514691621616
 30
0.0
 10
34.56311012067722
 20
234.958583368923
 30
0.0
 10
27.43809832096329
 20
237.4823222401822
 30
0.0
 10
20.96339430979162
 20
239.5760749878416
 30
0.0
 10
15.18963537538512
 20
241.2929027472117
 30
0.0
 10
9.953866477661222
 20
242.7353079262896
 30
0.0
 10
4.984133926547618
 20
244.0087000258573
 30
0.0
 10
-2.539420956335137
 20
245.7972592458757
 30
0.0
 10
-12.91472749153229
 20
247.9328320878117
 30
0.0
 10
-26.30398016189967
 20
250.0955766162334
 30
0.0
 10
-40.05156614962914
 20
251.720977688562
 30
0.0
 10
-53.99997871348818
 20
252.7807326637958
 30
0.0
 10
-68.04679929213513
 20
253.2667146089375
 30
0.0
 10
-82.12041625290983
 20
253.1737865425295
 30
0.0
 10
-96.16911911000673
 20
252.5020926623017
 30
0.0
 10
-109.2642009658049
 20
251.3296649809827
 30
0.0
 10
-121.4434284147867
 20
249.7649279165467
 30
0.0
 10
-132.7582631352969
 20
247.9017780645557
 30
0.0
 10
-144.1462980880683
 20
245.5925170544757
 30
0.0
 10
-155.6333799950956
 20
242.7910993990096
 30
0.0
 10
-165.4407336474464
 20
239.9583722937596
 30
0.0
 10
-173.5104831245942
 20
237.319590959129
 30
0.0
 10
-179.6167519077148
 20
235.144579070726
 30
0.0
 10
-185.1462596670695
 20
233.0150590522326
 30
0.0
 10
-189.9441487592051
 20
231.0376263553016
 30
0.0
 10
-194.0186095411467
 20
229.2578206149262
 30
0.0
 10
-197.6133442800315
 20
227.6088339476134
 30
0.0
 10
-201.1068724110617
 20
225.9336312650294
 30
0.0
 10
-204.8635889299728
 20
224.0447746834504
 30
0.0
 10
-209.2241853260851
 20
221.7317686754434
 30
0.0
 10
-214.1711884494508
 20
218.9334561252845
 30
0.0
 10
-219.55615702458
 20
215.6462555241999
 30
0.0
 10
-224.8531887428045
 20
212.1361596110879
 30
0.0
 10
-229.761353936413
 20
208.6056945172341
 30
0.0
 10
-234.1257511893212
 20
205.2115515571064
 30
0.0
 10
-237.9897032312829
 20
201.9749397285628
 30
0.0
 10
-241.4439852853589
 20
198.8692501170779
 30
0.0
 10
-245.0609495312382
 20
195.3867205588855
 30
0.0
 10
-248.8495718391468
 20
191.4171455114526
 30
0.0
 10
-252.7850688201935
 20
186.8379884194235
 30
0.0
 10
-255.9702511024284
 20
182.6843745339775
 30
0.0
 10
-258.6244869883012
 20
178.8514431411724
 30
0.0
 10
-260.8934972415418
 20
175.2637046936103
 30
0.0
 10
-263.2162075248697
 20
171.1592550516294
 30
0.0
 10
-265.2466578749278
 20
167.0423943644514
 30
0.0
 10
-266.8746170920728
 20
163.2293206470912
 30
0.0
 10
-268.0535903803914
 20
160.0749035209726
 30
0.0
 10
-268.9327929157114
 20
157.3988404653584
 30
0.0
 10
-269.5883891001615
 20
155.1514758988366
 30
0.0
 10
-270.1450748211342
 20
153.0195292907918
 30
0.0
 10
-270.6850572073683
 20
150.66589860453
 30
0.0
 10
-271.2061813319873
 20
147.9388090394463
 30
0.0
 10
-271.6634544326644
 20
144.8507137687775
 30
0.0
 10
-271.988343598935
 20
141.62510890153
 30
0.0
 10
-272.1609495988509
 20
138.41101149169
 30
0.0
 10
-272.1897603483213
 20
135.4592852830521
 30
0.0
 10
-272.1249232634693
 20
132.8861179435301
 30
0.0
 10
-272.0096217965576
 20
131.2514294537089
 30
0.0
 10
-271.9574003630329
 20
130.511059200048
 30
0.0
  0
SPLINE
  5
1EA
330
1DB
100
AcDbEntity
  8
0
  6
Continuous
 62
     7
370
    25
100
AcDbSpline
210
0.0
220
0.0
230
1.0
 70
     8
 71
     3
 72
    24
 73
    20
 74
     0
 42
0.000000001
 43
0.00000001
 40
0.0
 40
0.0
 40
0.0
 40
0.0
 40
0.0177725316636448
 40
0.0807021098745916
 40
0.1438800987291919
 40
0.2073718224612107
 40
0.2712257586451717
 40
0.3354735263572161
 40
0.4001313700612373
 40
0.465202764998307
 40
0.5304955135433879
 40
0.5957686518106273
 40
0.6611304089729477
 40
0.7267325811215507
 40
0.7847380513426304
 40
0.8453574925059721
 40
0.9109445210715488
 40
0.9822673344919439
 40
1.0
 40
1.0
 40
1.0
 40
1.0
 10
-255.0651431850261
 20
30.78243188695435
 30
0.0
 10
-254.9541173874687
 20
30.34852620183841
 30
0.0
 10
-254.4499677095856
 20
28.37823266470176
 30
0.0
 10
-253.2413654983877
 20
24.91331043238526
 30
0.0
 10
-251.4330871488212
 20
20.39458005827524
 30
0.0
 10
-249.2923324268768
 20
15.92693063683741
 30
0.0
 10
-246.8499273040663
 20
11.51159133354489
 30
0.0
 10
-244.0990300935468
 20
7.155913124322996
 30
0.0
 10
-241.043856471127
 20
2.866200052716719
 30
0.0
 10
-237.6894674158547
 20
-1.346582277799491
 30
0.0
 10
-234.0493466261273
 20
-5.466805240263051
 30
0.0
 10
-230.1322758969073
 20
-9.484464884893185
 30
0.0
 10
-225.9425695552436
 20
-13.39409932812895
 30
0.0
 10
-221.666401909547
 20
-17.03794747161681
 30
0.0
 10
-217.2590034629784
 20
-20.49599064129393
 30
0.0
 10
-212.6183818691598
 20
-23.82382206697197
 30
0.0
 10
-207.4405754966942
 20
-27.24098708934315
 30
0.0
 10
-203.264601869695
 20
-29.84461829374589
 30
0.0
 10
-200.8000684972201
 20
-31.27677341911305
 30
0.0
 10
-200.3093323128395
 20
-31.56194315936212
 30
0.0
  0
SPLINE
  5
1EB
330
1DB
100
AcDbEntity
  8
0
  6
Continuous
 62
     7
370
    25
100
AcDbSpline
210
0.0
220
0.0
230
1.0
 70
     8
 71
     3
 72
    35
 73
    31
 74
     0
 42
0.000000001
 43
0.00000001
 40
0.0
 40
0.0
 40
0.0
 40
0.0
 40
0.0365933421513945
 40
0.0744400415268084
 40
0.1102327383094284
 40
0.1482962955595687
 40
0.1850695901286731
 40
0.2212734878918145
 40
0.2573238702929011
 40
0.2933815682387414
 40
0.3295393015298959
 40
0.3658311873059827
 40
0.4022532916292804
 40
0.4387832444729213
 40
0.4753903151816706
 40
0.5120403090748218
 40
0.5486977070796532
 40
0.5853162663429216
 40
0.6218579968368526
 40
0.6582872837136757
 40
0.6945711301105809
 40
0.7306838129205699
 40
0.7666163667728686
 40
0.8023944547476382
 40
0.8381101341078948
 40
0.8738949628406565
 40
0.9100838073087452
 40
0.9472833944623564
 40
0.9864345888905071
 40
1.0
 40
1.0
 40
1.0
 40
1.0
 10
18.4470776369512
 20
16.65781295316937
 30
0.0
 10
18.43577409053782
 20
16.2952536922594
 30
0.0
 10
18.41277984035617
 20
15.55771716645076
 30
0.0
 10
18.05381420211038
 20
14.43274733861745
 30
0.0
 10
17.44563604947506
 20
13.25132086349848
 30
0.0
 10
16.54697246441114
 20
12.05762617201483
 30
0.0
 10
15.34483914836608
 20
10.87096805346457
 30
0.0
 10
13.88490321484583
 20
9.751969669723339
 30
0.0
 10
12.18017072705911
 20
8.716282550469787
 30
0.0
 10
10.24856595350333
 20
7.782103589284328
 30
0.0
 10
8.114417914565625
 20
6.967686886445813
 30
0.0
 10
5.806312206920855
 20
6.289369682622039
 30
0.0
 10
3.356961795563262
 20
5.761061954504563
 30
0.0
 10
0.8023300168484259
 20
5.39371914284334
 30
0.0
 10
-1.819373029283438
 20
5.19502541036837
 30
0.0
 10
-4.468552613092952
 20
5.169253679153531
 30
0.0
 10
-7.104733704600847
 20
5.317189173807399
 30
0.0
 10
-9.687462641511038
 20
5.636025836743268
 30
0.0
 10
-12.17706522039967
 20
6.119321643951639
 30
0.0
 10
-14.53557822871759
 20
6.757037798111508
 30
0.0
 10
-16.7273194075506
 20
7.535495753273433
 30
0.0
 10
-18.71975566759013
 20
8.43737173780358
 30
0.0
 10
-20.48469355491748
 20
9.441844742633279
 30
0.0
 10
-21.99950987303296
 20
10.5251103557962
 30
0.0
 10
-23.24849883780035
 20
11.66077767014676
 30
0.0
 10
-24.22306207837115
 20
12.8225488925188
 30
0.0
 10
-24.9322575369888
 20
13.98908534257345
 30
0.0
 10
-25.36513981538161
 20
15.15465886130563
 30
0.0
 10
-25.55813848237719
 20
16.05113401385491
 30
0.0
 10
-25.51395593297325
 20
16.57533807646249
 30
0.0
 10
-25.50258656576121
 20
16.71022998655448
 30
0.0
  0
SPLINE
  5
1ED
330
1DB
100
AcDbEntity
  8
0
  6
Continuous
 62
     7
370
    25
100
AcDbSpline
210
0.0
220
0.0
230
1.0
 70
     8
 71
     3
 72
    28
 73
    24
 74
     0
 42
0.000000001
 43
0.00000001
 40
0.0
 40
0.0
 40
0.0
 40
0.0
 40
0.0101034077580366
 40
0.0644438649875906
 40
0.1184338342708457
 40
0.1714366107454661
 40
0.2235947707480209
 40
0.2752714378454753
 40
0.3267493384497757
 40
0.378184885163897
 40
0.4296395017268461
 40
0.4811521078657061
 40
0.5327294468065666
 40
0.5843625918966231
 40
0.6360355872341266
 40
0.6877295752107255
 40
0.739424557938318
 40
0.7910934749822321
 40
0.8427154779523637
 40
0.8942704659134048
 40
0.945740737138057
 40
0.9944241810716622
 40
0.9999999999999999
 40
0.9999999999999999
 40
0.9999999999999999
 40
0.9999999999999999
 10
110.3436305424364
 20
143.701998740622
 30
0.0
 10
110.3487777156731
 20
143.614448474812
 30
0.0
 10
110.3816085926487
 20
143.056015355551
 30
0.0
 10
110.1392737840196
 20
142.0297302784074
 30
0.0
 10
109.5956151229924
 20
140.6389564311235
 30
0.0
 10
108.7195363483616
 20
139.2917001699103
 30
0.0
 10
107.5645825086831
 20
138.0128614026301
 30
0.0
 10
106.1402678127356
 20
136.8200529413443
 30
0.0
 10
104.4679198663728
 20
135.7293582948894
 30
0.0
 10
102.5692847029279
 20
134.7571560084746
 30
0.0
 10
100.4711702152748
 20
133.9191945006604
 30
0.0
 10
98.20409632071011
 20
133.22959185668
 30
0.0
 10
95.8016871769148
 20
132.7001579810165
 30
0.0
 10
93.30023854606536
 20
132.3401011015244
 30
0.0
 10
90.73792659319848
 20
132.1557428474696
 30
0.0
 10
88.15405320581299
 20
132.1503752917928
 30
0.0
 10
85.58847899977197
 20
132.3241930146637
 30
0.0
 10
83.08081258493675
 20
132.6742277899324
 30
0.0
 10
80.66990483237397
 20
133.1944079654591
 30
0.0
 10
78.392495253088
 20
133.8754187192289
 30
0.0
 10
76.32159515934727
 20
134.691056384867
 30
0.0
 10
75.0071409760245
 20
135.3487809402501
 30
0.0
 10
74.37737786777073
 20
135.709280846566
 30
0.0
 10
74.31266181977898
 20
135.7463267276797
 30
0.0
  0
SPLINE
  5
1EE
330
1DB
100
AcDbEntity
  8
0
  6
Continuous
 62
     7
370
    25
100
AcDbSpline
210
0.0
220
0.0
230
1.0
 70
     8
 71
     3
 72
    15
 73
    11
 74
     0
 42
0.000000001
 43
0.00000001
 40
0.0
 40
0.0
 40
0.0
 40
0.0
 40
0.0762108978784153
 40
0.2215631923605563
 40
0.3668819378098536
 40
0.51244756926907
 40
0.6589133163123437
 40
0.8072635214770385
 40
0.9584486241047845
 40
1.0
 40
1.0
 40
1.0
 40
1.0
 10
74.31266181977898
 20
135.7463267276797
 30
0.0
 10
74.0084534971988
 20
135.9287455145135
 30
0.0
 10
73.1240476055238
 20
136.4590802813592
 30
0.0
 10
71.83999739759025
 20
137.4195988773665
 30
0.0
 10
70.56508270361974
 20
138.6392446763875
 30
0.0
 10
69.57227360443864
 20
139.9231365440578
 30
0.0
 10
68.85813957224676
 20
141.2508137725698
 30
0.0
 10
68.45730834804823
 20
142.6103220472983
 30
0.0
 10
68.31115024007283
 20
143.6528005138424
 30
0.0
 10
68.40107521839636
 20
144.2412573615555
 30
0.0
 10
68.4204618265015
 20
144.3681206925908
 30
0.0
  0
LWPOLYLINE
  5
1F3
330
1DB
100
AcDbEntity
  8
0
  6
Continuous
 62
     7
370
    25
100
AcDbPolyline
 90
       19
 70
   128
 43
0.0
 10
262.4784450703
 20
51.2443277409
 10
262.3208220381
 20
55.7116124638
 10
261.7998892095
 20
60.5063964109
 10
260.9157519548
 20
65.2834122928
 10
259.6701064503
 20
70.0334956257
 10
258.0653424093
 20
74.7475335947
 10
256.1045384972
 20
79.4164825361
 10
253.7914564256
 20
84.0313852875
 10
251.1305337355
 20
88.5833883717
 10
248.1268752837
 20
93.0637589814
 10
244.7862434499
 20
97.4639017331
 10
241.1150470818
 20
101.7753751566
 10
237.1203291995
 20
105.9899078896
 10
232.8097534845
 20
110.0994145464
 10
228.1915895766
 20
114.0960112285
 10
223.2746972095
 20
117.9720306503
 10
218.0685092136
 20
121.720036848
 10
212.5830134195
 20
125.3328394451
 10
206.8287334971
 20
128.8035074472
  0
SPLINE
  5
1F5
330
1DB
100
AcDbEntity
  8
0
  6
Continuous
 62
     7
370
    25
100
AcDbSpline
210
0.0
220
0.0
230
1.0
 70
     8
 71
     3
 72
    11
 73
     7
 74
     0
 42
0.000000001
 43
0.00000001
 40
0.0
 40
0.0
 40
0.0
 40
0.0
 40
0.2216313097994044
 40
0.478947000129455
 40
0.7382157392704564
 40
1.0
 40
1.0
 40
1.0
 40
1.0
 10
-20.35451766746873
 20
-41.54278978362581
 30
0.0
 10
-18.6706236401694
 20
-40.64218223174591
 30
0.0
 10
-15.03171542976861
 20
-38.69596224298522
 30
0.0
 10
-9.190019959407804
 20
-34.57618530298016
 30
0.0
 10
-2.909992735162042
 20
-29.49113902402748
 30
0.0
 10
1.380121137947985
 20
-25.3462384671056
 30
0.0
 10
3.535533905932614
 20
-23.26378288511904
 30
0.0
  0
SPLINE
  5
1F7
330
1DB
100
AcDbEntity
  8
0
  6
Continuous
 62
     7
370
    25
100
AcDbSpline
210
0.0
220
0.0
230
1.0
 70
     8
 71
     3
 72
    16
 73
    12
 74
     0
 42
0.000000001
 43
0.00000001
 40
0.0
 40
0.0
 40
0.0
 40
0.0
 40
0.2500000000000001
 40
0.2500000000000001
 40
0.5000000000000001
 40
0.5000000000000001
 40
0.6250000000000001
 40
0.6250000000000001
 40
0.7500000000000002
 40
0.7500000000000002
 40
1.0
 40
1.0
 40
1.0
 40
1.0
 10
201.4441020370633
 20
-14.95879100155246
 30
0.0
 10
192.7915502708989
 20
-12.68163240873083
 30
0.0
 10
184.0640011076924
 20
-10.02961683549606
 30
0.0
 10
166.5303073365816
 20
-4.000582296004897
 30
0.0
 10
157.7185162770819
 20
-0.6225648109576751
 30
0.0
 10
144.4328041517007
 20
4.989985763794731
 30
0.0
 10
139.9905270365493
 20
6.952984979749964
 30
0.0
 10
131.102960167484
 20
11.05238704961612
 30
0.0
 10
126.6559757489185
 20
13.18941578934025
 30
0.0
 10
113.3048858029426
 20
19.86166933504411
 30
0.0
 10
104.3911765519728
 20
24.65784392235469
 30
0.0
 10
95.45941546018399
 20
29.80274438335698
 30
0.0
  0
SPLINE
  5
1F8
330
1DB
100
AcDbEntity
  8
0
  6
Continuous
 62
     7
370
    25
100
AcDbSpline
210
0.0
220
0.0
230
1.0
 70
     8
 71
     3
 72
    12
 73
     8
 74
     0
 42
0.000000001
 43
0.00000001
 40
0.0
 40
0.0
 40
0.0
 40
0.0
 40
0.1852083918551906
 40
0.3867776242597187
 40
0.5894987009499681
 40
0.7937584485128594
 40
1.0
 40
1.0
 40
1.0
 40
1.0
 10
-134.8059337917467
 20
18.44435235246678
 30
0.0
 10
-131.6272443332244
 20
18.27443208939884
 30
0.0
 10
-124.9890680351009
 20
17.91958123731437
 30
0.0
 10
-114.5574226269573
 20
18.49053048233
 30
0.0
 10
-103.6402292494459
 20
19.92751196546241
 30
0.0
 10
-92.52265001502414
 20
22.24653592918318
 30
0.0
 10
-85.06440544739989
 20
24.5589266326961
 30
0.0
 10
-81.31727983645297
 20
25.7207038242436
 30
0.0
  0
SPLINE
  5
1FB
330
1DB
100
AcDbEntity
  8
0
  6
Continuous
 62
     7
370
    25
100
AcDbSpline
210
0.0
220
0.0
230
1.0
 70
     8
 71
     3
 72
    14
 73
    10
 74
     0
 42
0.000000001
 43
0.00000001
 40
0.0
 40
0.0
 40
0.0
 40
0.0
 40
0.25
 40
0.25
 40
0.5
 40
0.5
 40
0.75
 40
0.75
 40
1.0
 40
1.0
 40
1.0
 40
1.0
 10
102.5234531911742
 20
42.05424740512025
 30
0.0
 10
102.5243734266088
 20
40.98486726943534
 30
0.0
 10
102.3412523317305
 20
39.80966329968403
 30
0.0
 10
101.634528666609
 20
37.42474196765214
 30
0.0
 10
101.1112041619496
 20
36.21596297007476
 30
0.0
 10
99.80350863238615
 20
33.94796323081692
 30
0.0
 10
99.01965212983171
 20
32.88963485018574
 30
0.0
 10
97.31006952591278
 20
31.08383910453516
 30
0.0
 10
96.38501607230032
 20
30.33708224303058
 30
0.0
 10
95.45941546018396
 20
29.80274438335697
 30
0.0
  0
SPLINE
  5
1FC
330
1DB
100
AcDbEntity
  8
0
  6
Continuous
 62
     7
370
    25
100
AcDbSpline
210
0.0
220
0.0
230
1.0
 70
     8
 71
     3
 72
    43
 73
    39
 74
     0
 42
0.000000001
 43
0.00000001
 40
0.0
 40
0.0
 40
0.0
 40
0.0
 40
0.2499999999999997
 40
0.2499999999999997
 40
0.3124999999999996
 40
0.3124999999999996
 40
0.3749999999999996
 40
0.3749999999999996
 40
0.4999999999999992
 40
0.4999999999999992
 40
0.5624999999999991
 40
0.5624999999999991
 40
0.6249999999999991
 40
0.6249999999999991
 40
0.656249999999999
 40
0.664062499999999
 40
0.664062499999999
 40
0.671874999999999
 40
0.671874999999999
 40
0.6874999999999994
 40
0.6874999999999994
 40
0.7500000000000006
 40
0.7500000000000006
 40
0.7656250000000007
 40
0.7656250000000007
 40
0.7812500000000008
 40
0.7812500000000008
 40
0.8125000000000009
 40
0.8125000000000009
 40
0.8750000000000009
 40
0.8750000000000009
 40
0.8906250000000009
 40
0.8906250000000009
 40
0.9062500000000009
 40
0.9062500000000009
 40
0.9375000000000008
 40
0.9375000000000008
 40
1.0
 40
1.0
 40
1.0
 40
1.0
 10
102.5234531911742
 20
42.05424740512024
 30
0.0
 10
115.6186937265946
 20
34.50956021206846
 30
0.0
 10
128.6767779438134
 20
27.7276938433052
 30
0.0
 10
144.9533144578753
 20
20.19615447120682
 30
0.0
 10
148.2078017657306
 20
18.73665932471393
 30
0.0
 10
154.7026586516281
 20
15.91695537345139
 30
0.0
 10
157.9432695903863
 20
14.55658250667939
 30
0.0
 10
167.6447054296462
 20
10.62349817490275
 30
0.0
 10
174.0851454896873
 20
8.198732895485408
 30
0.0
 10
183.70502842049
 20
4.857531622749544
 30
0.0
 10
186.9048568160435
 20
3.793144477199639
 30
0.0
 10
193.2908783422372
 20
1.763330265641155
 30
0.0
 10
196.4764393491807
 20
0.7981667873852155
 30
0.0
 10
201.2341654585031
 20
-0.5722907073382397
 30
0.0
 10
203.2127904796999
 20
-1.127384908814033
 30
0.0
 10
205.1867239822855
 20
-1.662607382436738
 30
0.0
 10
205.9759222039811
 20
-1.875107235760134
 30
0.0
 10
206.3706255255658
 20
-1.981798564785211
 30
0.0
 10
207.5520368021936
 20
-2.290441797673876
 30
0.0
 10
208.3347712215009
 20
-2.475563112704193
 30
0.0
 10
212.2240046219387
 20
-3.297655419198901
 30
0.0
 10
215.2576448423972
 20
-3.626020693906079
 30
0.0
 10
218.9470432278637
 20
-3.601677685555561
 30
0.0
 10
219.6789449278264
 20
-3.574824929108815
 30
0.0
 10
221.1188629048453
 20
-3.477832109602709
 30
0.0
 10
221.8285559892387
 20
-3.4077026023163
 30
0.0
 10
223.9271995309545
 20
-3.133177623777475
 30
0.0
 10
225.2857639224284
 20
-2.864750312881109
 30
0.0
 10
229.2409355628223
 20
-1.805496195078776
 30
0.0
 10
231.7178854749595
 20
-0.7625183055248175
 30
0.0
 10
234.605523551793
 20
0.980675103973462
 30
0.0
 10
235.1732273950216
 20
1.352041051876703
 30
0.0
 10
236.2770242916555
 20
2.132404499094235
 30
0.0
 10
236.8143891990967
 20
2.542090029213219
 30
0.0
 10
238.3834739468537
 20
3.82886539774932
 30
0.0
 10
239.3722550957817
 20
4.763578353326803
 30
0.0
 10
242.1687964073369
 20
7.795589286394004
 30
0.0
 10
243.8078715755382
 20
10.11926014304592
 30
0.0
 10
245.2135257328465
 20
12.7561786983032
 30
0.0
  0
SPLINE
  5
200
330
1DB
100
AcDbEntity
  8
0
  6
Continuous
 62
     7
370
    25
100
AcDbSpline
210
0.0
220
0.0
230
1.0
 70
     8
 71
     3
 72
     8
 73
     4
 74
     0
 42
0.000000001
 43
0.00000001
 40
0.0
 40
0.0
 40
0.0
 40
0.0
 40
1.0
 40
1.0
 40
1.0
 40
1.0
 10
-122.4048188134041
 20
240.75785073866
 30
0.0
 10
-120.7724862431597
 20
240.1849791836525
 30
0.0
 10
-119.2847620691627
 20
239.5060505597093
 30
0.0
 10
-117.934305569545
 20
238.726448616774
 30
0.0
  0
LWPOLYLINE
  5
201
330
1DB
100
AcDbEntity
  8
0
  6
Continuous
 62
     7
370
    25
100
AcDbPolyline
 90
       25
 70
   128
 43
0.0
 10
61.8718433538
 20
212.485338909
 10
55.859818207
 20
215.80721422
 10
49.60158201
 20
218.9739237349
 10
43.1091409009
 20
221.9793922674
 10
36.3949503291
 20
224.8178539646
 10
29.47189116
 20
227.4838633682
 10
22.3532449641
 20
229.9723058619
 10
15.0526685363
 20
232.2784074835
 10
7.5841676965
 20
234.397744083
 10
-0.0379295804
 20
236.3262498109
 10
-7.7990006514
 20
238.0602249176
 10
-15.6841562592
 20
239.5963428516
 10
-23.6782690955
 20
240.9316566416
 10
-31.766002823
 20
242.0636045493
 10
-39.9318414968
 20
242.990014985
 10
-48.1601193313
 20
243.7091106727
 10
-56.4350507543
 20
244.2195120606
 10
-64.7407606907
 20
244.520239967
 10
-73.0613150185
 20
244.6107174593
 10
-81.380751137
 20
244.4907709607
 10
-89.6831085912
 20
244.1606305828
 10
-97.9524596904
 20
243.620929685
 10
-106.1729400652
 20
242.8727036584
 10
-114.3287791025
 20
241.9173879404
 10
-122.4043302005
 20
240.75681526
  0
LWPOLYLINE
  5
203
330
1DB
100
AcDbEntity
  8
0
  6
Continuous
 62
     7
370
    25
100
AcDbPolyline
 90
       50
 70
   128
 43
0.0
 10
73.8127024535
 20
135.6968186772
 10
71.9511180851
 20
136.9189478429
 10
70.3755357043
 20
138.2684690664
 10
69.1118263299
 20
139.7232232464
 10
68.1807400351
 20
141.2593233597
 10
67.5975652311
 20
142.8515466847
 10
67.371877632
 20
144.4737489585
 10
67.5073830219
 20
146.0992936646
 10
68.0018564062
 20
147.7014894039
 10
68.8471785454
 20
149.2540281666
 10
70.0294692735
 20
150.7314173092
 10
71.5293154094
 20
152.1093981428
 10
73.322089521
 20
153.3653442602
 10
75.3783543069
 20
154.4786330609
 10
77.6643459562
 20
155.4309843735
 10
80.1425285493
 20
156.2067606159
 10
82.7722103964
 20
156.7932235635
 10
85.5102121943
 20
157.180743511
 10
88.3115760293
 20
157.3629573916
 10
91.1303035845
 20
157.3368732583
 10
93.9201114315
 20
157.102919412
 10
96.6351910026
 20
156.6649373683
 10
99.2309607662
 20
156.0301187802
 10
101.6647982545
 20
155.2088873515
 10
103.8967399234
 20
154.2147276795
 10
105.8901373523
 20
153.0639638385
 10
107.6122590106
 20
151.775491339
 10
109.0348277081
 20
150.3704668637
 10
110.1344849063
 20
148.8719608758
 10
110.8931742644
 20
147.3045788021
 10
111.2984381241
 20
145.694057013
 10
111.3436220639
 20
144.0668402316
 10
111.0279841649
 20
142.4496473126
 10
110.3567071926
 20
140.869032519
 10
109.3408134964
 20
139.3509495019
 10
107.9969840226
 20
137.9203251427
 10
106.3472844141
 20
136.6006502536
 10
104.4188026928
 20
135.4135938599
 10
102.2432044753
 20
134.3786473947
 10
99.8562130242
 20
133.5128046505
 10
97.297022673
 20
132.830282741
 10
94.6076552567
 20
132.3422886573
 10
91.8322701138
 20
132.0568352486
 10
89.0164389917
 20
131.978609652
 10
86.2063977595
 20
132.1088963298
 10
83.4482872166
 20
132.4455559781
 10
80.7873954618
 20
132.983060655
 10
78.2674142642
 20
133.7125845485
 10
75.9297216453
 20
134.6221488963
 10
73.8127024535
 20
135.6968186772
  0
SPLINE
  5
205
330
1DB
100
AcDbEntity
  8
0
  6
Continuous
 62
     7
370
    25
100
AcDbSpline
210
0.0
220
0.0
230
1.0
 70
     8
 71
     3
 72
    43
 73
    39
 74
     0
 42
0.000000001
 43
0.00000001
 40
0.0
 40
0.0
 40
0.0
 40
0.0
 40
0.0625000000000008
 40
0.0625000000000008
 40
0.093750000000001
 40
0.093750000000001
 40
0.109375000000001
 40
0.109375000000001
 40
0.125000000000001
 40
0.125000000000001
 40
0.1875000000000007
 40
0.1875000000000007
 40
0.2187500000000006
 40
0.2187500000000006
 40
0.2343750000000005
 40
0.2343750000000005
 40
0.2500000000000004
 40
0.2500000000000004
 40
0.3125000000000002
 40
0.3125000000000002
 40
0.3281250000000004
 40
0.3281250000000004
 40
0.3359375000000006
 40
0.3359375000000006
 40
0.3437500000000007
 40
0.3750000000000005
 40
0.3750000000000005
 40
0.4375000000000001
 40
0.4375000000000001
 40
0.4999999999999998
 40
0.4999999999999998
 40
0.6249999999999994
 40
0.6249999999999994
 40
0.6874999999999996
 40
0.6874999999999996
 40
0.7499999999999998
 40
0.7499999999999998
 40
1.0
 40
1.0
 40
1.0
 40
1.0
 10
-125.0053733814111
 20
226.4789999388024
 30
0.0
 10
-123.6073985682771
 20
222.2424199734398
 30
0.0
 10
-121.9745115962849
 20
218.0370004883621
 30
0.0
 10
-119.1792812907188
 20
211.7747539661515
 30
0.0
 10
-118.1896139438572
 20
209.6950219133485
 30
0.0
 10
-116.61644830924
 20
206.5871849621337
 30
0.0
 10
-116.076036670264
 20
205.5509416366852
 30
0.0
 10
-114.9713351868405
 20
203.4939938183763
 30
0.0
 10
-114.4079873432163
 20
202.4748872013211
 30
0.0
 10
-111.5373366921073
 20
197.4252756819568
 30
0.0
 10
-109.0693981045649
 20
193.5315997629024
 30
0.0
 10
-105.1171301989785
 20
187.9043416580756
 30
0.0
 10
-103.7577649192568
 20
186.064315551149
 30
0.0
 10
-101.6547334980536
 20
183.3587773087278
 30
0.0
 10
-100.9425701469835
 20
182.4654450357807
 30
0.0
 10
-99.49852694544315
 20
180.699680961873
 30
0.0
 10
-98.77076865717244
 20
179.8322581068519
 30
0.0
 10
-95.10390004743593
 20
175.5708059719856
 30
0.0
 10
-92.08106236870194
 20
172.4024045389776
 30
0.0
 10
-88.1950758376614
 20
168.7314297152368
 30
0.0
 10
-87.41247627138945
 20
168.011792719903
 30
0.0
 10
-86.23046635682418
 20
166.9541935163256
 30
0.0
 10
-85.83529335769408
 20
166.6048125317203
 30
0.0
 10
-85.04525798981604
 20
165.9052134781136
 30
0.0
 10
-83.069128127154
 20
164.159022316699
 30
0.0
 10
-81.08778748515324
 20
162.4268731238945
 30
0.0
 10
-76.32253251697306
 20
158.2967638442738
 30
0.0
 10
-73.13550123285155
 20
155.5822232943201
 30
0.0
 10
-66.74955241659836
 20
150.2379112454274
 30
0.0
 10
-63.54933436571961
 20
147.6070093782954
 30
0.0
 10
-53.92699077810867
 20
139.8378299353651
 30
0.0
 10
-47.48318884046343
 20
134.8230042861535
 30
0.0
 10
-37.77405959296088
 20
127.5480884876666
 30
0.0
 10
-34.53044222238062
 20
125.1643554033587
 30
0.0
 10
-28.02867458067097
 20
120.4796573371998
 30
0.0
 10
-24.77410825889295
 20
118.1812915816097
 30
0.0
 10
-8.491868288363145
 20
106.9150748962336
 30
0.0
 10
4.573120894415854
 20
98.61509035830835
 30
0.0
 10
17.67766953326257
 20
91.034683875644
 30
0.0
  0
SPLINE
  5
206
330
1DB
100
AcDbEntity
  8
0
  6
Continuous
 62
     7
370
    25
100
AcDbSpline
210
0.0
220
0.0
230
1.0
 70
     8
 71
     3
 72
    25
 73
    21
 74
     0
 42
0.000000001
 43
0.00000001
 40
0.0
 40
0.0
 40
0.0
 40
0.0
 40
0.2500000000000011
 40
0.2500000000000011
 40
0.3750000000000014
 40
0.3750000000000014
 40
0.4375000000000016
 40
0.4375000000000016
 40
0.5000000000000016
 40
0.5000000000000016
 40
0.7500000000000007
 40
0.7500000000000007
 40
0.8750000000000006
 40
0.8750000000000006
 40
0.9375000000000003
 40
0.9375000000000003
 40
0.9687499999999999
 40
0.9843749999999999
 40
0.9843749999999999
 40
1.0
 40
1.0
 40
1.0
 40
1.0
 10
10.60660171779838
 20
78.78723109271958
 30
0.0
 10
1.675042404727663
 20
83.95460802680113
 30
0.0
 10
-7.239460263934079
 20
89.45056326278966
 30
0.0
 10
-20.57857405287084
 20
98.18623606792472
 30
0.0
 10
-25.01962591334449
 20
101.1801307840765
 30
0.0
 10
-31.6729357199876
 20
105.7943277651298
 30
0.0
 10
-33.88932946954916
 20
107.3529563055935
 30
0.0
 10
-38.31933135754495
 20
110.5114436953015
 30
0.0
 10
-40.53307476531636
 20
112.1114187762755
 30
0.0
 10
-51.58021868201214
 20
120.2038895630728
 30
0.0
 10
-60.36053384588026
 20
126.982046353652
 30
0.0
 10
-73.44464478782575
 20
137.6043972291367
 30
0.0
 10
-77.79161398409596
 20
141.2210936761047
 30
0.0
 10
-84.29034604024362
 20
146.7604123782327
 30
0.0
 10
-86.4533702835211
 20
148.6262535521103
 30
0.0
 10
-89.69084548344642
 20
151.4522660880377
 30
0.0
 10
-91.30775070517366
 20
152.8720231209993
 30
0.0
 10
-92.92190620193428
 20
154.3019069697843
 30
0.0
 10
-93.99739862788117
 20
155.2574135609894
 30
0.0
 10
-94.53581709586845
 20
155.73716609026
 30
0.0
 10
-95.0719740253483
 20
156.2162962743069
 30
0.0
  0
LWPOLYLINE
  5
208
330
1DB
100
AcDbEntity
  8
0
  6
Continuous
 62
     7
370
    25
100
AcDbPolyline
 90
       28
 70
   128
 43
0.0
 10
-152.2958867507
 20
234.4633854551
 10
-159.7515245087
 20
232.355580848
 10
-167.0405505991
 20
230.0617760405
 10
-174.1490496564
 20
227.5863500996
 10
-181.0634509567
 20
224.9340288221
 10
-187.7705543248
 20
222.1098757129
 10
-194.2575553348
 20
219.1192823184
 10
-200.5120697548
 20
215.9679579337
 10
-206.5221571894
 20
212.6619187027
 10
-212.2763438749
 20
209.207476133
 10
-217.7636445837
 20
205.6112250468
 10
-222.9735835961
 20
201.8800309907
 10
-227.8962146991
 20
198.0210171287
 10
-232.5221401751
 20
194.0415506437
 10
-236.842528742
 20
189.9492286727
 10
-240.8491324139
 20
185.7518638035
 10
-244.5343022466
 20
181.4574691596
 10
-247.89100294
 20
177.0742431023
 10
-250.9128262695
 20
172.6105535799
 10
-253.5940033196
 20
168.0749221521
 10
-255.9294154972
 20
163.4760077216
 10
-257.9146043035
 20
158.8225900039
 10
-259.5457798457
 20
154.1235527658
 10
-260.8198280722
 20
149.3878668657
 10
-261.7343167175
 20
144.6245731272
 10
-262.2874999456
 20
139.8427650797
 10
-262.478321683
 20
135.0515715979
 10
-262.4784450693
 20
134.9271122363
  0
SPLINE
  5
209
330
1DB
100
AcDbEntity
  8
0
  6
Continuous
 62
     7
370
    25
100
AcDbSpline
210
0.0
220
0.0
230
1.0
 70
     8
 71
     3
 72
     8
 73
     4
 74
     0
 42
0.000000001
 43
0.00000001
 40
0.0
 40
0.0
 40
0.0
 40
0.0
 40
0.0004584990974291
 40
0.0004584990974291
 40
0.0004584990974291
 40
0.0004584990974291
 10
-152.295885348382
 20
234.4582444553827
 30
0.0
 10
-152.1571921849478
 20
234.4953392055686
 30
0.0
 10
-152.0184214536974
 20
234.532338016823
 30
0.0
 10
-151.8795737607163
 20
234.5692407149245
 30
0.0
  0
SPLINE
  5
20A
330
1DB
100
AcDbEntity
  8
0
  6
Continuous
 62
     7
370
    25
100
AcDbSpline
210
0.0
220
0.0
230
1.0
 70
     8
 71
     3
 72
    24
 73
    20
 74
     0
 42
0.000000001
 43
0.00000001
 40
0.0
 40
0.0
 40
0.0
 40
0.0
 40
0.2500000000000084
 40
0.2500000000000084
 40
0.3125000000000086
 40
0.3125000000000086
 40
0.3750000000000088
 40
0.3750000000000088
 40
0.5000000000000083
 40
0.5000000000000083
 40
0.6250000000000079
 40
0.6250000000000079
 40
0.7500000000000073
 40
0.7500000000000073
 40
0.8750000000000069
 40
0.8750000000000069
 40
0.9375000000000034
 40
0.9375000000000034
 40
1.0
 40
1.0
 40
1.0
 40
1.0
 10
-151.8795737607163
 20
234.5692407149251
 30
0.0
 10
-150.5988312629406
 20
234.8710590326032
 30
0.0
 10
-149.3158594137128
 20
234.9925653451025
 30
0.0
 10
-147.71089033386
 20
234.947509324515
 30
0.0
 10
-147.3894746740406
 20
234.9284281391076
 30
0.0
 10
-146.7540729594633
 20
234.8715244986071
 30
0.0
 10
-146.4391306626471
 20
234.833703178599
 30
0.0
 10
-145.5020666150955
 20
234.6938008326824
 30
0.0
 10
-144.887698981806
 20
234.5653287926907
 30
0.0
 10
-143.6772807130992
 20
234.2451628221172
 30
0.0
 10
-143.0812424272923
 20
234.0534243174898
 30
0.0
 10
-141.9052814153294
 20
233.6128036107546
 30
0.0
 10
-141.3238578038844
 20
233.3630681321935
 30
0.0
 10
-140.1863362789297
 20
232.8186778708723
 30
0.0
 10
-139.6292084547403
 20
232.5238040506585
 30
0.0
 10
-138.8070945641749
 20
232.0537810302809
 30
0.0
 10
-138.5353185510984
 20
231.8924892709437
 30
0.0
 10
-137.9956253426832
 20
231.561755976827
 30
0.0
 10
-137.7261497057924
 20
231.3912117940239
 30
0.0
 10
-137.4614809825774
 20
231.2194233978802
 30
0.0
  0
SPLINE
  5
20B
330
1DB
100
AcDbEntity
  8
0
  6
Continuous
 62
     7
370
    25
100
AcDbSpline
210
0.0
220
0.0
230
1.0
 70
     8
 71
     3
 72
    38
 73
    34
 74
     0
 42
0.000000001
 43
0.00000001
 40
0.0
 40
0.0
 40
0.0
 40
0.0
 40
0.0019531249999997
 40
0.0019531249999997
 40
0.0039062499999995
 40
0.0078124999999999
 40
0.0156249999999999
 40
0.03125
 40
0.0625000000000001
 40
0.0625000000000001
 40
0.1250000000000004
 40
0.1250000000000004
 40
0.2500000000000009
 40
0.2500000000000009
 40
0.2812500000000008
 40
0.2812500000000008
 40
0.3125000000000007
 40
0.3125000000000007
 40
0.3750000000000004
 40
0.3750000000000004
 40
0.4999999999999993
 40
0.4999999999999993
 40
0.5624999999999999
 40
0.5624999999999999
 40
0.6250000000000003
 40
0.6250000000000003
 40
0.7500000000000001
 40
0.7500000000000001
 40
0.8750000000000001
 40
0.8750000000000001
 40
0.9375
 40
0.9375
 40
1.0
 40
1.0
 40
1.0
 40
1.0
 10
-95.0719740253483
 20
156.2162962743069
 30
0.0
 10
-95.11175653287057
 20
156.2518716102958
 30
0.0
 10
-95.15025936883598
 20
156.2890685180278
 30
0.0
 10
-95.22849503177726
 20
156.3619421987006
 30
0.0
 10
-95.34579853829564
 20
156.4713538498849
 30
0.0
 10
-95.61915697296791
 20
156.7273553276751
 30
0.0
 10
-96.1644761619623
 20
157.2421865734572
 30
0.0
 10
-97.2495337392926
 20
158.2831457617639
 30
0.0
 10
-98.17004808359383
 20
159.1947100854204
 30
0.0
 10
-99.99842604724876
 20
161.0435021272118
 30
0.0
 10
-101.2004856116439
 20
162.3102287724565
 30
0.0
 10
-104.7562800167488
 20
166.2129898125575
 30
0.0
 10
-107.0597811674626
 20
168.9512616384951
 30
0.0
 10
-109.8538757228824
 20
172.5494355599513
 30
0.0
 10
-110.409057223636
 20
173.2787512948875
 30
0.0
 10
-111.5046686530146
 20
174.746885749069
 30
0.0
 10
-112.0457153341113
 20
175.4864647194416
 30
0.0
 10
-113.6488420886375
 20
177.7215387714143
 30
0.0
 10
-114.6909254084247
 20
179.2333572473519
 30
0.0
 10
-117.7386657711574
 20
183.8330469098787
 30
0.0
 10
-119.6660678708159
 20
186.984939432362
 30
0.0
 10
-122.4018323228869
 20
191.840532918508
 30
0.0
 10
-123.2878006700195
 20
193.4804094325484
 30
0.0
 10
-125.0072562749454
 20
196.8034495252095
 30
0.0
 10
-125.8417643608319
 20
198.4887722030618
 30
0.0
 10
-128.2583956994938
 20
203.5976225945149
 30
0.0
 10
-129.7282660060076
 20
207.0187004653244
 30
0.0
 10
-132.3990318733698
 20
213.8885386661986
 30
0.0
 10
-133.5998830908693
 20
217.3373042407856
 30
0.0
 10
-135.2006462542536
 20
222.5302851305395
 30
0.0
 10
-135.7007279911429
 20
224.264594747905
 30
0.0
 10
-136.6330306092874
 20
227.7398183682483
 30
0.0
 10
-137.0660655635903
 20
229.4846258258511
 30
0.0
 10
-137.4614809825772
 20
231.2194233978802
 30
0.0
  0
SPLINE
  5
20C
330
1DB
100
AcDbEntity
  8
0
  6
Continuous
 62
     7
370
    25
100
AcDbSpline
210
0.0
220
0.0
230
1.0
 70
     8
 71
     3
 72
    30
 73
    26
 74
     0
 42
0.000000001
 43
0.00000001
 40
0.0
 40
0.0
 40
0.0
 40
0.0
 40
0.1249999999999963
 40
0.1249999999999963
 40
0.2499999999999926
 40
0.2499999999999926
 40
0.3124999999999909
 40
0.3124999999999909
 40
0.3749999999999893
 40
0.3749999999999893
 40
0.4374999999999876
 40
0.4374999999999876
 40
0.4687499999999879
 40
0.4687499999999879
 40
0.4999999999999881
 40
0.4999999999999881
 40
0.6249999999999906
 40
0.6249999999999906
 40
0.6874999999999933
 40
0.6874999999999933
 40
0.749999999999996
 40
0.749999999999996
 40
0.874999999999998
 40
0.874999999999998
 40
1.0
 40
1.0
 40
1.0
 40
1.0
 10
-151.8795737607163
 20
234.5692407149249
 30
0.0
 10
-150.6576852327273
 20
234.8643557533014
 30
0.0
 10
-149.4540435025229
 20
235.0201436277218
 30
0.0
 10
-147.067773508131
 20
235.1451681442031
 30
0.0
 10
-145.8845482781175
 20
235.1111977530969
 30
0.0
 10
-144.1151730719106
 20
235.013434856113
 30
0.0
 10
-143.5258079691204
 20
234.9736531585387
 30
0.0
 10
-142.3399654583604
 20
234.9067776354316
 30
0.0
 10
-141.7434887688073
 20
234.8796914797945
 30
0.0
 10
-140.5323579987134
 20
234.8750831317353
 30
0.0
 10
-139.9175679295883
 20
234.8980257534093
 30
0.0
 10
-138.972242602846
 20
235.0006274100967
 30
0.0
 10
-138.6539214601517
 20
235.0462861872809
 30
0.0
 10
-138.0234476944432
 20
235.1603129758979
 30
0.0
 10
-137.70961027414
 20
235.2288276564831
 30
0.0
 10
-136.1469980987646
 20
235.6256746987722
 30
0.0
 10
-134.9182500410233
 20
236.1218199076532
 30
0.0
 10
-133.0820413753321
 20
236.9404818523223
 30
0.0
 10
-132.4724479756184
 20
237.2244804283706
 30
0.0
 10
-131.2515303997452
 20
237.7895389104978
 30
0.0
 10
-130.640227711196
 20
238.0706815178627
 30
0.0
 10
-128.7968188899921
 20
238.8838727577838
 30
0.0
 10
-127.5549658736653
 20
239.3847338076676
 30
0.0
 10
-125.0215925820712
 20
240.2157989186801
 30
0.0
 10
-123.7306573847995
 20
240.5481893027695
 30
0.0
 10
-122.4043303133941
 20
240.7568151754535
 30
0.0
  0
LWPOLYLINE
  5
20F
330
1DB
100
AcDbEntity
  8
0
  6
Continuous
 62
     7
370
    25
100
AcDbPolyline
 90
       63
 70
   128
 43
0.0
 10
-28.2727351614
 20
7.3581809489
 10
-30.6484377233
 20
8.8761819186
 10
-32.7459252024
 20
10.5251432173
 10
-34.5436745388
 20
12.2881442707
 10
-36.0232383915
 20
14.1470943022
 10
-37.1694344334
 20
16.082917969
 10
-37.9705011419
 20
18.0757511007
 10
-38.4182184886
 20
20.1051445325
 10
-38.5079922877
 20
22.1502739418
 10
-38.2389013385
 20
24.1901535331
 10
-37.6137068783
 20
26.2038513816
 10
-36.6388242482
 20
28.1707042224
 10
-35.3242570634
 20
30.0705294837
 10
-33.6834945619
 20
31.8838323874
 10
-31.7333731873
 20
33.592005992
 10
-29.493903824
 20
35.1775221247
 10
-26.988066458
 20
36.6241112446
 10
-24.2415743717
 20
37.9169293896
 10
-21.2826102905
 20
39.0427104962
 10
-18.1415371899
 20
39.9899025268
 10
-14.8505867306
 20
40.7487860093
 10
-11.4435285175
 20
41.3115737724
 10
-7.9553235786
 20
41.672490852
 10
-4.4217656166
 20
41.8278337504
 10
-0.879113718
 20
41.7760084393
 10
2.6362797147
 20
41.5175467165
 10
6.0883419879
 20
41.0551007491
 10
9.4416502712
 20
40.3934158585
 10
12.6617950839
 20
39.5392818271
 10
15.7157333828
 20
38.5014632258
 10
18.5721276281
 20
37.2906094779
 10
21.2016673496
 20
35.9191455813
 10
23.5773699114
 20
34.4011446117
 10
25.6748573905
 20
32.752183313
 10
27.4726067269
 20
30.9891822596
 10
28.9521705797
 20
29.1302322281
 10
30.0983666215
 20
27.1944085613
 10
30.8994333301
 20
25.2015754296
 10
31.3471506768
 20
23.1721819977
 10
31.4369244759
 20
21.1270525885
 10
31.1678335267
 20
19.0871729971
 10
30.5426390664
 20
17.0734751486
 10
29.5677564364
 20
15.1066223079
 10
28.2531892515
 20
13.2067970466
 10
26.61242675
 20
11.3934941429
 10
24.6623053755
 20
9.6853205383
 10
22.4228360121
 20
8.0998044055
 10
19.9169986462
 20
6.6532152857
 10
17.1705065599
 20
5.3603971406
 10
14.2115424786
 20
4.234616034
 10
11.0704693781
 20
3.2874240035
 10
7.7795189187
 20
2.5285405209
 10
4.3724607057
 20
1.9657527579
 10
0.8842557667
 20
1.6048356783
 10
-2.6493021953
 20
1.4494927799
 10
-6.1919540938
 20
1.501318091
 10
-9.7073475266
 20
1.7597798137
 10
-13.1594097998
 20
2.2222257811
 10
-16.5127180831
 20
2.8839106717
 10
-19.7328628958
 20
3.7380447032
 10
-22.7868011946
 20
4.7758633045
 10
-25.6431954399
 20
5.9867170524
 10
-28.2727351614
 20
7.3581809489
  0
LWPOLYLINE
  5
210
330
1DB
100
AcDbEntity
  8
0
  6
Continuous
 62
     7
370
    25
100
AcDbPolyline
 90
       58
 70
   128
 43
0.0
 10
17.1426965985
 20
32.6436196181
 10
14.742418394
 20
33.884368221
 10
12.1202706085
 20
34.9651533063
 10
9.3080825641
 20
35.8728556072
 10
6.3399904142
 20
36.5964568475
 10
3.2520227769
 20
37.1271734882
 10
0.081663396
 20
37.4585633483
 10
-3.1326038601
 20
37.5866038038
 10
-6.3517621412
 20
37.509740617
 10
-9.5367352264
 20
37.2289068028
 10
-12.648861857
 20
36.7475113034
 10
-15.6503650316
 20
36.071397608
 10
-18.5048105675
 20
35.2087728209
 10
-21.1775493626
 20
34.1701080386
 10
-23.6361379886
 20
32.9680112445
 10
-25.85073251
 20
31.6170742652
 10
-27.7944507494
 20
30.1336956457
 10
-29.4436986002
 20
28.535881593
 10
-30.7784564278
 20
26.8430274052
 10
-31.7825220803
 20
25.0756820389
 10
-32.4437075606
 20
23.2552986728
 10
-32.7539869729
 20
21.403974295
 10
-32.7095939453
 20
19.5441814755
 10
-32.311067349
 20
17.6984955799
 10
-31.5632447572
 20
15.8893207347
 10
-30.4752037229
 20
14.1386178718
 10
-29.0601515905
 20
12.4676381523
 10
-27.3352651759
 20
10.8966650064
 10
-25.3214822637
 20
9.4447679201
 10
-23.0432474505
 20
8.1295709572
 10
-20.5282154207
 20
6.9670388272
 10
-17.8069152562
 20
5.9712830953
 10
-14.9123798547
 20
5.1543908873
 10
-11.8797449548
 20
4.526278168
 10
-8.7458226361
 20
4.0945693749
 10
-5.5486544703
 20
3.8645048679
 10
-2.3270497479
 20
3.8388773186
 10
0.8798856139
 20
4.0179978106
 10
4.033223764
 20
4.3996920638
 10
7.0946874489
 20
4.9793268271
 10
10.0271146466
 20
5.7498661196
 10
12.7949096634
 20
6.701956638
 10
15.364475217
 20
7.8240412934
 10
17.7046202625
 20
9.1024994978
 10
19.7869386091
 20
10.5218125007
 10
21.5861537328
 20
12.0647517647
 10
23.0804255993
 20
13.7125880974
 10
24.2516157723
 20
15.4453189979
 10
25.0855075898
 20
17.2419114602
 10
25.5719787345
 20
19.0805572856
 10
25.7051241059
 20
20.9389378045
 10
25.4833274995
 20
22.7944947949
 10
24.9092812256
 20
24.6247043083
 10
23.9899534283
 20
26.4073500807
 10
22.7365035019
 20
28.1207932072
 10
21.1641466303
 20
29.7442348093
 10
19.2919690962
 20
31.2579685051
 10
17.1426965985
 20
32.6436196181
  0
LWPOLYLINE
  5
211
330
1DB
100
AcDbEntity
  8
0
  6
Continuous
 62
     7
370
    25
100
AcDbPolyline
 90
       52
 70
   128
 43
0.0
 10
-20.4014092854
 20
9.1463485181
 10
-22.346193142
 20
10.4166431895
 10
-24.0058265792
 20
11.815276337
 10
-25.3551512456
 20
13.3210461077
 10
-26.3737127549
 20
14.9111265667
 10
-27.0460707529
 20
16.5614137152
 10
-27.3620329775
 20
18.2468908821
 10
-27.3168097636
 20
19.9420079517
 10
-26.911086649
 20
21.6210686772
 10
-26.1510139825
 20
23.2586202095
 10
-25.0481136911
 20
24.8298389366
 10
-23.6191046188
 20
26.3109067841
 10
-21.8856490866
 20
27.6793722733
 10
-19.8740245133
 20
28.9144908622
 10
-17.6147250769
 20
29.9975394122
 10
-15.1419994539
 20
30.912100011
 10
-12.4933316442
 20
31.6443088524
 10
-9.7088727519
 20
32.1830663966
 10
-6.8308323354
 20
32.5202056285
 10
-3.9028385537
 20
32.650615861
 10
-0.9692768081
 20
32.5723202078
 10
1.9253830959
 20
32.2865055513
 10
4.7372610647
 20
31.7975045504
 10
7.4237318946
 20
31.1127299616
 10
9.9440714262
 20
30.2425622699
 10
12.2600738813
 20
29.2001923303
 10
14.3366310235
 20
28.0014214087
 10
16.1422643632
 20
26.6644216502
 10
17.6496023396
 20
25.2094606083
 10
18.8357952455
 20
23.6585940094
 10
19.6828616056
 20
22.0353314101
 10
20.1779607572
 20
20.3642798169
 10
20.3135875019
 20
18.6707706684
 10
20.0876858765
 20
16.9804758372
 10
19.5036803195
 20
15.3190184699
 10
18.5704237596
 20
13.7115845665
 10
17.3020634151
 20
12.1825411866
 10
15.7178263359
 20
10.7550670691
 10
13.8417279412
 20
9.4508012666
 10
11.7022079703
 20
8.2895151191
 10
9.3316993651
 20
7.2888125409
 10
6.7661366196
 20
6.463863163
 10
4.0444110499
 20
5.8271723771
 10
1.2077812413
 20
5.3883917664
 10
-1.7007523899
 20
5.1541727979
 10
-4.6370994387
 20
5.1280659922
 10
-7.5567478768
 20
5.3104671019
 10
-10.4154388101
 20
5.6986111123
 10
-13.1698373981
 20
6.2866141556
 10
-15.7781897658
 20
7.0655627052
 10
-18.2009559501
 20
8.023648695
 10
-20.4014092854
 20
9.1463485181
  0
LWPOLYLINE
  5
213
330
1DB
100
AcDbEntity
  8
0
  6
Continuous
 62
     7
370
    25
100
AcDbPolyline
 90
        3
 70
   128
 43
0.0
 10
12.0208152802
 20
11.0221730099
 10
13.8823996485
 20
9.8000438442
 10
13.9071456801
 20
9.7814938068
  0
LWPOLYLINE
  5
214
330
1DB
100
AcDbEntity
  8
0
  6
Continuous
 62
     7
370
    25
100
AcDbPolyline
 90
       15
 70
   128
 43
0.0
 10
-20.9509051405
 20
9.801960566
 10
-20.5137666805
 20
10.1183414335
 10
-18.5852849592
 20
11.3053978272
 10
-16.4096867417
 20
12.3403442924
 10
-14.0226952906
 20
13.2061870367
 10
-11.4635049394
 20
13.8887089461
 10
-8.7741375231
 20
14.3767030298
 10
-5.9987523802
 20
14.6621564385
 10
-3.1829212581
 20
14.7403820351
 10
-0.3728800259
 20
14.6100953573
 10
2.3852305171
 20
14.273435709
 10
5.0461222719
 20
13.7359310321
 10
7.5661034695
 20
13.0064071386
 10
9.9037960883
 20
12.0968427908
 10
12.0208152802
 20
11.0221730099
  0
LWPOLYLINE
  5
219
330
1DB
100
AcDbEntity
  8
0
  6
Continuous
 62
     7
370
    25
100
AcDbPolyline
 90
       12
 70
   128
 43
0.0
 10
97.9239621925
 20
140.234524447
 10
95.3217085349
 20
140.7888370103
 10
92.6156044858
 20
141.1403251251
 10
89.8528608906
 20
141.2828567096
 10
87.0816767317
 20
141.2139451498
 10
84.3503982458
 20
140.9347926806
 10
81.7066754731
 20
140.4502694118
 10
79.1966309518
 20
139.7688283642
 10
76.8640550617
 20
138.902357997
 10
74.7496420548
 20
137.8659748016
 10
72.8902801009
 20
136.6777595784
 10
72.8820439983
 20
136.6717367487
  0
SPLINE
  5
21A
330
1DB
100
AcDbEntity
  8
0
  6
Continuous
 62
     7
370
    25
100
AcDbSpline
210
0.0
220
0.0
230
1.0
 70
     8
 71
     3
 72
    14
 73
    10
 74
     0
 42
0.000000001
 43
0.00000001
 40
0.0
 40
0.0
 40
0.0
 40
0.0
 40
0.25
 40
0.25
 40
0.5
 40
0.5
 40
0.75
 40
0.75
 40
1.0
 40
1.0
 40
1.0
 40
1.0
 10
17.67766952966389
 20
91.03467977069063
 30
0.0
 10
17.6776695296639
 20
89.96583034736707
 30
0.0
 10
17.49362856142422
 20
88.79115688116451
 30
0.0
 10
16.78520452293639
 20
86.40721617770922
 30
0.0
 10
16.26110018729629
 20
85.19888691932431
 30
0.0
 10
14.95210324830053
 20
82.93163772068564
 30
0.0
 10
14.16772567934359
 20
81.8736098461755
 30
0.0
 10
12.4574387577152
 20
80.06822029018102
 30
0.0
 10
11.53220232991474
 20
79.3215689523932
 30
0.0
 10
10.60660171779841
 20
78.7872310927196
 30
0.0
  0
SPLINE
  5
21B
330
1DB
100
AcDbEntity
  8
0
  6
Continuous
 62
     7
370
    25
100
AcDbSpline
210
0.0
220
0.0
230
1.0
 70
     8
 71
     3
 72
    24
 73
    20
 74
     0
 42
0.000000001
 43
0.00000001
 40
0.0
 40
0.0
 40
0.0
 40
0.0
 40
0.2500000000000282
 40
0.2500000000000282
 40
0.31250000000003
 40
0.31250000000003
 40
0.3750000000000318
 40
0.3750000000000318
 40
0.5000000000000246
 40
0.5000000000000246
 40
0.6250000000000175
 40
0.6250000000000175
 40
0.6875000000000148
 40
0.6875000000000148
 40
0.7500000000000121
 40
0.7500000000000121
 40
0.8750000000000061
 40
0.8750000000000061
 40
1.0
 40
1.0
 40
1.0
 40
1.0
 10
-125.0053733814112
 20
226.4789999388025
 30
0.0
 10
-125.799171264968
 20
227.2362350340389
 30
0.0
 10
-126.663108249327
 20
227.9298994289593
 30
0.0
 10
-127.8441997614647
 20
228.7074759279325
 30
0.0
 10
-128.0855441381551
 20
228.8584630141433
 30
0.0
 10
-128.5791452313103
 20
229.1508758180213
 30
0.0
 10
-128.8317078080428
 20
229.2924077435611
 30
0.0
 10
-129.5969933945042
 20
229.6967103649177
 30
0.0
 10
-130.1202175363957
 20
229.941111492302
 30
0.0
 10
-131.1945343425472
 20
230.3767007273134
 30
0.0
 10
-131.7455965098454
 20
230.5679442707899
 30
0.0
 10
-132.5957633320859
 20
230.8102635376281
 30
0.0
 10
-132.8840166308093
 20
230.8837136916295
 30
0.0
 10
-133.4582626812777
 20
231.012272530972
 30
0.0
 10
-133.7453731224902
 20
231.0677542531062
 30
0.0
 10
-134.606599783079
 20
231.20742382113
 30
0.0
 10
-135.1806133837256
 20
231.2650465122489
 30
0.0
 10
-136.3279797515133
 20
231.3030239508927
 30
0.0
 10
-136.9041076390044
 20
231.2825854709717
 30
0.0
 10
-137.4614809825772
 20
231.2194233978803
 30
0.0
  0
SPLINE
  5
21C
330
1DB
100
AcDbEntity
  8
0
  6
Continuous
 62
     8
370
    25
100
AcDbSpline
210
0.0
220
0.0
230
1.0
 70
     8
 71
     3
 72
    27
 73
    23
 74
     0
 42
0.000000001
 43
0.00000001
 40
0.0
 40
0.0
 40
0.0
 40
0.0
 40
0.0001608155979303
 40
0.0793795209919812
 40
0.1527425124310034
 40
0.2202494017834045
 40
0.281899831903741
 40
0.3376934766359473
 40
0.3923008236492947
 40
0.439821001660573
 40
0.4495151163378686
 40
0.4588519989729932
 40
0.4678316493834838
 40
0.476454067394061
 40
0.4847192528366477
 40
0.492627205550409
 40
0.5001779253817837
 40
0.6001423644513387
 40
0.7001067894571281
 40
0.8000712023899605
 40
0.9000356052406471
 40
1.0
 40
1.0
 40
1.0
 40
1.0
 10
262.4781901400726
 20
52.18006358964067
 30
0.0
 10
262.4782748814565
 20
52.18468952869172
 30
0.0
 10
262.5201037248698
 20
54.46808013716019
 30
0.0
 10
262.2228105856315
 20
58.86354732098642
 30
0.0
 10
261.2481648854865
 20
65.1717575400855
 30
0.0
 10
259.7722461539163
 20
70.93802313333556
 30
0.0
 10
257.9707494486759
 20
76.15738476988642
 30
0.0
 10
255.908438451491
 20
80.96246560952856
 30
0.0
 10
253.6872081246453
 20
85.32121521154106
 30
0.0
 10
251.9017422437099
 20
88.36841041109815
 30
0.0
 10
250.769249844378
 20
90.16719189657897
 30
0.0
 10
250.2828255262314
 20
90.92219480539627
 30
0.0
 10
249.8059967924206
 20
91.64633509509734
 30
0.0
 10
249.3398394765278
 20
92.33981071264193
 30
0.0
 10
248.8853856164113
 20
93.00281484832077
 30
0.0
 10
248.4436145618646
 20
93.6355441004404
 30
0.0
 10
246.262071680311
 20
96.70623010465124
 30
0.0
 10
241.9352912175065
 20
102.130921373909
 30
0.0
 10
234.6428973149667
 20
109.663798263996
 30
0.0
 10
226.3349282631121
 20
116.8326022934767
 30
0.0
 10
217.1384495418765
 20
123.6363472394259
 30
0.0
 10
210.2653054192812
 20
127.7923482574219
 30
0.0
 10
206.8287334970653
 20
129.8703486823211
 30
0.0
  0
SPLINE
  5
21D
330
1DB
100
AcDbEntity
  8
0
  6
Continuous
 62
     8
370
    25
100
AcDbSpline
210
0.0
220
0.0
230
1.0
 70
     8
 71
     3
 72
    16
 73
    12
 74
     0
 42
0.000000001
 43
0.00000001
 40
0.0
 40
0.0
 40
0.0
 40
0.0
 40
0.0904824641536542
 40
0.198473217299833
 40
0.3102136412229232
 40
0.4219540651460114
 40
0.5299448182921868
 40
0.6311385922355541
 40
0.723593926537157
 40
0.8792352742864779
 40
1.0
 40
1.0
 40
1.0
 40
1.0
 10
212.5099777704804
 20
135.8269452903894
 30
0.0
 10
212.3361555836439
 20
135.9127578821682
 30
0.0
 10
211.9548767471066
 20
136.1009877379143
 30
0.0
 10
211.2091831433586
 20
136.0722383089115
 30
0.0
 10
210.3536836623048
 20
135.7760162589872
 30
0.0
 10
209.4801885436938
 20
135.1992260805553
 30
0.0
 10
208.6801991591552
 20
134.4203785067726
 30
0.0
 10
208.0139257091981
 20
133.534156387445
 30
0.0
 10
207.3821806506796
 20
132.4050417383096
 30
0.0
 10
206.9157885237532
 20
131.1202651004126
 30
0.0
 10
206.8552036616437
 20
130.2504013289625
 30
0.0
 10
206.8287334970653
 20
129.8703486823212
 30
0.0
  0
SPLINE
  5
21E
330
1DB
100
AcDbEntity
  8
0
  6
Continuous
 62
     8
370
    25
100
AcDbSpline
210
0.0
220
0.0
230
1.0
 70
     8
 71
     3
 72
    37
 73
    33
 74
     0
 42
0.000000001
 43
0.00000001
 40
0.0
 40
0.0
 40
0.0
 40
0.0
 40
0.0152096726451464
 40
0.0491661316560752
 40
0.0831252356317751
 40
0.1170964642326889
 40
0.1510918051928486
 40
0.1850928012223752
 40
0.2190804413498207
 40
0.2530664354626143
 40
0.2870599320231479
 40
0.3210726203165084
 40
0.3550848081404651
 40
0.3890773077582831
 40
0.4230625733902452
 40
0.45705061031412
 40
0.4910540151812648
 40
0.5250512797583614
 40
0.5590219513043648
 40
0.5929796679963417
 40
0.6269356677906149
 40
0.6609037683487033
 40
0.6948631481753115
 40
0.7287938002574557
 40
0.762709895917835
 40
0.7966232001097645
 40
0.8305480851641045
 40
0.864465214013288
 40
0.8983556248094775
 40
0.9322336152145781
 40
0.9661105472398517
 40
0.9999999999999999
 40
0.9999999999999999
 40
0.9999999999999999
 40
0.9999999999999999
 10
271.8627820719661
 20
46.95877391756301
 30
0.0
 10
271.8022534816035
 20
45.60898961209433
 30
0.0
 10
271.6065913715661
 20
41.2457350951634
 30
0.0
 10
269.9665414953234
 20
33.91329460479301
 30
0.0
 10
266.9993407654812
 20
25.02941323343971
 30
0.0
 10
262.755991203236
 20
16.30789475120811
 30
0.0
 10
257.3533637024254
 20
7.80018280065934
 30
0.0
 10
250.7961732740853
 20
-0.4371533650170747
 30
0.0
 10
243.1374014849771
 20
-8.35216316103616
 30
0.0
 10
234.4201354470022
 20
-15.89506809922609
 30
0.0
 10
224.6959313337929
 20
-23.02114994762964
 30
0.0
 10
214.0265855467322
 20
-29.68716501154411
 30
0.0
 10
202.4775572451379
 20
-35.84783758372674
 30
0.0
 10
190.1276138191898
 20
-41.46522205251041
 30
0.0
 10
177.0518538537715
 20
-46.50347143847145
 30
0.0
 10
163.3278303330296
 20
-50.93292050783339
 30
0.0
 10
149.0418994733848
 20
-54.72745393487789
 30
0.0
 10
134.2853359794255
 20
-57.85984651667793
 30
0.0
 10
119.1562807595355
 20
-60.31295066234394
 30
0.0
 10
103.7474837516006
 20
-62.07118491682951
 30
0.0
 10
88.14911583507997
 20
-63.12455494857022
 30
0.0
 10
72.45715513645331
 20
-63.46850370909002
 30
0.0
 10
56.77274750097344
 20
-63.09830994520421
 30
0.0
 10
41.19666389934672
 20
-62.01997357994222
 30
0.0
 10
25.82366757755171
 20
-60.24011556047147
 30
0.0
 10
10.74231848731122
 20
-57.76923998583134
 30
0.0
 10
-3.957336734456141
 20
-54.6246798998211
 30
0.0
 10
-18.17878526481852
 20
-50.82343196357437
 30
0.0
 10
-31.83964023872169
 20
-46.39619967999908
 30
0.0
 10
-44.83634587786575
 20
-41.35686623110955
 30
0.0
 10
-57.17242486942127
 20
-35.78109218407392
 30
0.0
 10
-64.71336654795864
 20
-31.61588067808283
 30
0.0
 10
-68.4845340315279
 20
-29.53289013616041
 30
0.0
  0
SPLINE
  5
21F
330
1DB
100
AcDbEntity
  8
0
  6
Continuous
 62
     8
370
    25
100
AcDbSpline
210
0.0
220
0.0
230
1.0
 70
     8
 71
     3
 72
    17
 73
    13
 74
     0
 42
0.000000001
 43
0.00000001
 40
0.0
 40
0.0
 40
0.0
 40
0.0
 40
0.115081901955999
 40
0.2633992373050345
 40
0.3515039024259236
 40
0.4479358025747691
 40
0.5508448365852778
 40
0.6573270931751996
 40
0.7638093497651216
 40
0.86671838377564
 40
0.9631502839244801
 40
0.9999999999999999
 40
0.9999999999999999
 40
0.9999999999999999
 40
0.9999999999999999
 10
-68.48453403152796
 20
-29.53289013616026
 30
0.0
 10
-68.49685895579782
 20
-29.17423117125007
 30
0.0
 10
-68.52506821891681
 20
-28.35333321766842
 30
0.0
 10
-68.16963431309149
 20
-27.07442450660561
 30
0.0
 10
-67.62348666363181
 20
-25.91128658339142
 30
0.0
 10
-67.01535471903189
 20
-24.96847772773473
 30
0.0
 10
-66.25459663187782
 20
-24.10136452050238
 30
0.0
 10
-65.39652401111707
 20
-23.41238245851316
 30
0.0
 10
-64.5220547123438
 20
-22.97704094349263
 30
0.0
 10
-63.7282084066304
 20
-22.8435366221258
 30
0.0
 10
-63.16312350364464
 20
-22.90854629401685
 30
0.0
 10
-62.91745430773911
 20
-23.07939349117669
 30
0.0
 10
-62.84953166113507
 20
-23.12662934324678
 30
0.0
  0
SPLINE
  5
220
330
1DB
100
AcDbEntity
  8
0
  6
Continuous
 62
     8
370
    25
100
AcDbSpline
210
0.0
220
0.0
230
1.0
 70
     8
 71
     3
 72
    17
 73
    13
 74
     0
 42
0.000000001
 43
0.00000001
 40
0.0
 40
0.0
 40
0.0
 40
0.0
 40
0.105904222515691
 40
0.2117679941249104
 40
0.3176325056432735
 40
0.4235319165913927
 40
0.5295095230161314
 40
0.6355143725667209
 40
0.7414915194639781
 40
0.8474802269662165
 40
0.9535114887243687
 40
1.0
 40
1.0
 40
1.0
 40
1.0
 10
-213.4414241748524
 20
54.14894132571504
 30
0.0
 10
-217.0512451187326
 20
56.32690859431492
 30
0.0
 10
-224.2695082085005
 20
60.68201124069673
 30
0.0
 10
-233.9380621230999
 20
67.80929950603104
 30
0.0
 10
-242.677705817546
 20
75.31803871422434
 30
0.0
 10
-250.3596846877683
 20
83.21176489853835
 30
0.0
 10
-256.9608951112531
 20
91.43011672943688
 30
0.0
 10
-262.4216799630107
 20
99.92599795107992
 30
0.0
 10
-266.7366812144592
 20
108.64299598706
 30
0.0
 10
-269.7847053813332
 20
117.5315686415032
 30
0.0
 10
-271.4927580628331
 20
124.8440692268754
 30
0.0
 10
-271.732434242491
 20
129.1875552233553
 30
0.0
 10
-271.8054883033442
 20
130.5114635514786
 30
0.0
  0
SPLINE
  5
221
330
1DB
100
AcDbEntity
  8
0
  6
Continuous
 62
     8
370
    25
100
AcDbSpline
210
0.0
220
0.0
230
1.0
 70
     8
 71
     3
 72
    34
 73
    30
 74
     0
 42
0.000000001
 43
0.00000001
 40
0.0
 40
0.0
 40
0.0
 40
0.0
 40
0.0334153216530204
 40
0.0713930007910744
 40
0.1096328566138635
 40
0.1487008458962098
 40
0.188055074627625
 40
0.2258824236773644
 40
0.2642456172399214
 40
0.3028816052333322
 40
0.342077938565753
 40
0.3798081135631411
 40
0.4180735767786747
 40
0.4566104152642528
 40
0.4957062982984644
 40
0.5334132703041531
 40
0.5716552502510485
 40
0.6101689169201342
 40
0.6492406919881593
 40
0.6869719448163162
 40
0.7252388465632953
 40
0.7637783920443473
 40
0.8028769312384753
 40
0.8406953203278414
 40
0.8790538584624392
 40
0.9176864800167688
 40
0.9568829484024468
 40
0.9948490809554995
 40
1.0
 40
1.0
 40
1.0
 40
1.0
 10
-60.89477436491059
 20
-109.663485616159
 30
0.0
 10
-57.62779021470937
 20
-111.494238388175
 30
0.0
 10
-50.64776457133327
 20
-115.4057055725402
 30
0.0
 10
-38.96512143404036
 20
-120.8048395495327
 30
0.0
 10
-25.97330020200103
 20
-125.9195079569858
 30
0.0
 10
-12.11168141083906
 20
-130.435583164499
 30
0.0
 10
2.300450683455551
 20
-134.2491186186526
 30
0.0
 10
17.11559693863261
 20
-137.332588003405
 30
0.0
 10
32.21657426159936
 20
-139.6856192298536
 30
0.0
 10
47.77840934100007
 20
-141.3172772890421
 30
0.0
 10
63.42623144812985
 20
-142.1757309151488
 30
0.0
 10
79.07919599973035
 20
-142.2700292919121
 30
0.0
 10
94.5908960499749
 20
-141.6129872447138
 30
0.0
 10
110.1242941750604
 20
-140.186089713314
 30
0.0
 10
125.3071115778409
 20
-138.0048255071163
 30
0.0
 10
140.0705418740503
 20
-135.0966040913807
 30
0.0
 10
154.2830207316804
 20
-131.4978704335454
 30
0.0
 10
168.0778820359935
 20
-127.162359767528
 30
0.0
 10
181.1219477719985
 20
-122.1765861161792
 30
0.0
 10
193.3615049152157
 20
-116.5756719923816
 30
0.0
 10
204.6987276118261
 20
-110.4235237576422
 30
0.0
 10
215.2215505087418
 20
-103.6492672662184
 30
0.0
 10
224.6762431986073
 20
-96.39979195732309
 30
0.0
 10
233.0291852192378
 20
-88.71659502721415
 30
0.0
 10
240.2118525854932
 20
-80.67928268053464
 30
0.0
 10
246.3085145833878
 20
-72.21296995526502
 30
0.0
 10
250.9957175474325
 20
-63.48688443981448
 30
0.0
 10
253.7549875320999
 20
-57.16659445070225
 30
0.0
 10
254.5534920224149
 20
-53.79058420849498
 30
0.0
 10
254.6488842589869
 20
-53.38727380561019
 30
0.0
  0
SPLINE
  5
222
330
1DB
100
AcDbEntity
  8
0
  6
Continuous
 62
     8
370
    25
100
AcDbSpline
210
0.0
220
0.0
230
1.0
 70
     8
 71
     3
 72
    20
 73
    16
 74
     0
 42
0.000000001
 43
0.00000001
 40
0.0
 40
0.0
 40
0.0
 40
0.0
 40
0.022262098045079
 40
0.1529300897680586
 40
0.2865293476779521
 40
0.3538505694123071
 40
0.4211717366599261
 40
0.4919517816471071
 40
0.5627319058565825
 40
0.6341124053509947
 40
0.7054928054212979
 40
0.7787878077339625
 40
0.852082933781054
 40
0.9260392398535787
 40
1.0
 40
1.0
 40
1.0
 40
1.0
 10
-255.5030812339536
 20
32.68362931375729
 30
0.0
 10
-255.4058077261799
 20
32.17403173425664
 30
0.0
 10
-254.7375847111803
 20
28.67333726148905
 30
0.0
 10
-252.196180949093
 20
22.2187994933148
 30
0.0
 10
-248.5352108420363
 20
14.87528286409835
 30
0.0
 10
-244.8263567703522
 20
9.071812369123384
 30
0.0
 10
-241.6615203871351
 20
4.700624255009556
 30
0.0
 10
-238.0954100244938
 20
0.3422430355940476
 30
0.0
 10
-234.1102429288343
 20
-4.002259334877564
 30
0.0
 10
-229.7682257815288
 20
-8.250337322920965
 30
0.0
 10
-225.0336567238081
 20
-12.42926822349186
 30
0.0
 10
-219.9176707167309
 20
-16.51320944250153
 30
0.0
 10
-214.4038608901055
 20
-20.50474944965471
 30
0.0
 10
-208.5576133643154
 20
-24.34640892257476
 30
0.0
 10
-204.3966666209595
 20
-26.79722799715482
 30
0.0
 10
-202.3161306021348
 20
-28.02267443393706
 30
0.0
  0
LWPOLYLINE
  5
223
330
1DB
100
AcDbEntity
  8
0
  6
Continuous
 62
     8
370
    25
100
AcDbPolyline
 90
        6
 70
   128
 43
0.0
 10
219.2211605549
 20
-16.0083224242
 10
215.587242149
 20
-16.4184198557
 10
208.6848616916
 20
-16.2214848556
 10
201.4441440594
 20
-14.9588012464
 10
201.4441020371
 20
-14.9587910016
 10
201.4441020371
 20
-14.9587910016
  0
SPLINE
  5
225
330
1DB
100
AcDbEntity
  8
0
  6
Continuous
 62
     8
370
    25
100
AcDbSpline
210
0.0
220
0.0
230
1.0
 70
     8
 71
     3
 72
    17
 73
    13
 74
     0
 42
0.000000001
 43
0.00000001
 40
0.0
 40
0.0
 40
0.0
 40
0.0
 40
0.1151075577173006
 40
0.2634579581624724
 40
0.3515822648796465
 40
0.4480356630552823
 40
0.5509676390711559
 40
0.6574736342621206
 40
0.7639796294530836
 40
0.866911605468958
 40
0.9633650036445964
 40
0.9999999999999999
 40
0.9999999999999999
 40
0.9999999999999999
 40
0.9999999999999999
 10
-213.4414241748524
 20
54.14894132571504
 30
0.0
 10
-213.4537490983857
 20
54.50760029197497
 30
0.0
 10
-213.4819583598191
 20
55.32849824864581
 30
0.0
 10
-213.1265244671901
 20
56.60740693552417
 30
0.0
 10
-212.5803767835966
 20
57.77054492129319
 30
0.0
 10
-211.9722449633083
 20
58.71335354912906
 30
0.0
 10
-211.2114863649539
 20
59.58046769321723
 30
0.0
 10
-210.3534157410779
 20
60.26944609559416
 30
0.0
 10
-209.4789390258516
 20
60.70480120245588
 30
0.0
 10
-208.6851189387547
 20
60.83825747399485
 30
0.0
 10
-208.1204944911988
 20
60.77344255998781
 30
0.0
 10
-207.8752077639516
 20
60.60293304400177
 30
0.0
 10
-207.8076881399424
 20
60.55599720471448
 30
0.0
  0
SPLINE
  5
226
330
1DB
100
AcDbEntity
  8
0
  6
Continuous
 62
     8
370
    25
100
AcDbSpline
210
0.0
220
0.0
230
1.0
 70
     8
 71
     3
 72
    10
 73
     6
 74
     0
 42
0.000000001
 43
0.00000001
 40
0.0
 40
0.0
 40
0.0
 40
0.0
 40
0.1606786316019073
 40
0.5759083871560454
 40
1.0
 40
1.0
 40
1.0
 40
1.0
 10
248.2765553656118
 20
11.51978082965541
 30
0.0
 10
248.1649836151012
 20
11.61394808537589
 30
0.0
 10
247.7650853445715
 20
11.9514647285302
 30
0.0
 10
246.742961688613
 20
12.3838105786399
 30
0.0
 10
245.726913651803
 20
12.63118536771047
 30
0.0
 10
245.2135257328466
 20
12.75617869830342
 30
0.0
  0
SPLINE
  5
227
330
1DB
100
AcDbEntity
  8
0
  6
Continuous
 62
     8
370
    25
100
AcDbSpline
210
0.0
220
0.0
230
1.0
 70
     8
 71
     3
 72
     9
 73
     5
 74
     0
 42
0.000000001
 43
0.00000001
 40
0.0
 40
0.0
 40
0.0
 40
0.0
 40
0.6056318352932227
 40
1.0
 40
1.0
 40
1.0
 40
1.0
 10
252.2845935447122
 20
25.00362737627434
 30
0.0
 10
252.9382690722244
 20
24.60901040667341
 30
0.0
 10
254.0175972868579
 20
23.9574314331046
 30
0.0
 10
254.8777341334153
 20
23.20616467010203
 30
0.0
 10
255.2169447229888
 20
22.90988897557153
 30
0.0
  0
SPLINE
  5
229
330
1DB
100
AcDbEntity
  8
0
  6
Continuous
 62
     8
370
    25
100
AcDbSpline
210
0.0
220
0.0
230
1.0
 70
     8
 71
     3
 72
    65
 73
    61
 74
     0
 42
0.000000001
 43
0.00000001
 40
0.0
 40
0.0
 40
0.0
 40
0.0
 40
0.0087096341879663
 40
0.0174192673032877
 40
0.0261288996065028
 40
0.0348385313581503
 40
0.0421168517161088
 40
0.0459843166748225
 40
0.0522785385870842
 40
0.0611425807017387
 40
0.0725763618101928
 40
0.0850079501436596
 40
0.092843488181014
 40
0.1128098460411724
 40
0.1333175870236918
 40
0.1379962201469507
 40
0.1427021439819506
 40
0.1474353585253206
 40
0.1521958637736347
 40
0.1569836597234139
 40
0.1617987463711265
 40
0.1666411237131888
 40
0.1775603581542792
 40
0.1904341266155267
 40
0.2052623608698417
 40
0.2220449823190623
 40
0.240781901998154
 40
0.2521543970755948
 40
0.264142519777077
 40
0.2767462637981649
 40
0.2899656225104863
 40
0.3038005889617602
 40
0.3182511558758186
 40
0.3333173156526279
 40
0.3672676792523117
 40
0.4000964324383172
 40
0.4318035180242389
 40
0.4623888808072232
 40
0.4918524675715114
 40
0.5201942270926664
 40
0.5527210252439682
 40
0.5836325849760928
 40
0.6129287949675335
 40
0.6406095498816269
 40
0.6666747503989381
 40
0.6927419671368902
 40
0.7204242402772211
 40
0.7497214705566314
 40
0.780633552700092
 40
0.8131603754532005
 40
0.8415017751694104
 40
0.8709646564240929
 40
0.9015489680257976
 40
0.9281082000709419
 40
0.955458809814463
 40
0.9642195741508406
 40
0.9730585424724453
 40
0.9819757147078275
 40
0.9909710907847813
 40
1.0
 40
1.0
 40
1.0
 40
1.0
 10
61.87184335382332
 20
213.552180144149
 30
0.0
 10
60.94747981806653
 20
214.078615193603
 30
0.0
 10
59.09875286039405
 20
215.1314852276774
 30
0.0
 10
56.2551078804866
 20
216.669402905191
 30
0.0
 10
53.36132740212124
 20
218.1762714759126
 30
0.0
 10
50.57494613947411
 20
219.5675979211065
 30
0.0
 10
48.29900485995842
 20
220.6626988793215
 30
0.0
 10
46.27826755429343
 20
221.6079034964711
 30
0.0
 10
44.05249662897977
 20
222.6234827131789
 30
0.0
 10
40.89796748085477
 20
224.0105299772118
 30
0.0
 10
36.9454826632289
 20
225.6635618467564
 30
0.0
 10
33.0404483571146
 20
227.2018995208772
 30
0.0
 10
28.00545893659295
 20
229.0850414928174
 30
0.0
 10
21.83229937628591
 20
231.2310777828579
 30
0.0
 10
15.90281891516104
 20
233.0754239964112
 30
0.0
 10
11.9178388314662
 20
234.2279997269322
 30
0.0
 10
10.02541001867693
 20
234.7602817674819
 30
0.0
 10
8.111784288537303
 20
235.2833673508418
 30
0.0
 10
6.177014682156937
 20
235.7969811050095
 30
0.0
 10
4.221175831877866
 20
236.3008422342183
 30
0.0
 10
2.24434303009434
 20
236.7946676612066
 30
0.0
 10
-0.5852966971574003
 20
237.4795270184067
 30
0.0
 10
-4.553642285917384
 20
238.390162415085
 30
0.0
 10
-9.963816203663892
 20
239.5310716367663
 30
0.0
 10
-16.26703736832355
 20
240.7269845536863
 30
0.0
 10
-23.4842268928961
 20
241.9261354238944
 30
0.0
 10
-30.28233020835029
 20
242.87963231974
 30
0.0
 10
-36.4329852983406
 20
243.6098989997649
 30
0.0
 10
-41.71576047379263
 20
244.150052736443
 30
0.0
 10
-47.29634513817499
 20
244.624797482863
 30
0.0
 10
-53.17348516133293
 20
245.0196975667734
 30
0.0
 10
-59.34445787480823
 20
245.3195982210191
 30
0.0
 10
-65.80514580781673
 20
245.5086781609369
 30
0.0
 10
-75.2748104567283
 20
245.595437152448
 30
0.0
 10
-87.49128719384561
 20
245.3002635582044
 30
0.0
 10
-102.0969129896246
 20
244.2801862399548
 30
0.0
 10
-116.0346921519382
 20
242.6801694753082
 30
0.0
 10
-129.2478529164381
 20
240.5728829848361
 30
0.0
 10
-141.6968258312596
 20
238.0296401785019
 30
0.0
 10
-154.0835579724822
 20
234.9381711468578
 30
0.0
 10
-166.251485502248
 20
231.2848865718065
 30
0.0
 10
-178.0337085856901
 20
227.0760722644241
 30
0.0
 10
-188.6824477641884
 20
222.642425162948
 30
0.0
 10
-198.2343335416898
 20
218.0752867970519
 30
0.0
 10
-206.9148712732445
 20
213.3615476819653
 30
0.0
 10
-215.0781454042126
 20
208.3513260534625
 30
0.0
 10
-222.9840494742786
 20
202.8399644702689
 30
0.0
 10
-230.6548028222489
 20
196.6976082560176
 30
0.0
 10
-237.9322076251479
 20
189.903129257071
 30
0.0
 10
-244.2444756636696
 20
182.8876665534975
 30
0.0
 10
-249.5814228802152
 20
175.7471680287132
 30
0.0
 10
-253.9671374542268
 20
168.5718154370122
 30
0.0
 10
-257.3916889312561
 20
161.3836908536693
 30
0.0
 10
-259.9058563214286
 20
154.2599352682736
 30
0.0
 10
-261.1852476600818
 20
148.918045914536
 30
0.0
 10
-261.8186070139907
 20
145.0706422434954
 30
0.0
 10
-262.1109436058107
 20
142.7969954656002
 30
0.0
 10
-262.320893906112
 20
140.5002637328571
 30
0.0
 10
-262.4538082777619
 20
138.1852004478241
 30
0.0
 10
-262.4700809130803
 20
136.6357369471851
 30
0.0
 10
-262.478232367887
 20
135.8595638533405
 30
0.0
  0
SPLINE
  5
22A
330
1DB
100
AcDbEntity
  8
0
  6
Continuous
 62
     8
370
    25
100
AcDbSpline
210
0.0
220
0.0
230
1.0
 70
     8
 71
     3
 72
    16
 73
    12
 74
     0
 42
0.000000001
 43
0.00000001
 40
0.0
 40
0.0
 40
0.0
 40
0.0
 40
0.0903869792864287
 40
0.1983890697431233
 40
0.3101412246324975
 40
0.4218933795218599
 40
0.5298954699785561
 40
0.631099867657798
 40
0.7235649082981632
 40
0.8792225959121276
 40
1.0
 40
1.0
 40
1.0
 40
1.0
 10
67.55245954619656
 20
219.5090255964969
 30
0.0
 10
67.37883510243213
 20
219.5947301870228
 30
0.0
 10
66.99774932929282
 20
219.782841949595
 30
0.0
 10
66.25228849877927
 20
219.7540600634097
 30
0.0
 10
65.3967947441426
 20
219.4578503627527
 30
0.0
 10
64.52329808369001
 20
218.8810568592726
 30
0.0
 10
63.72330909386077
 20
218.1022101366978
 30
0.0
 10
63.05703554791999
 20
217.215987810377
 30
0.0
 10
62.42529051575661
 20
216.0868732180778
 30
0.0
 10
61.95889837864109
 20
214.8020965582072
 30
0.0
 10
61.8983135178331
 20
213.9322327895639
 30
0.0
 10
61.8718433538233
 20
213.5521801441489
 30
0.0
  0
LWPOLYLINE
  5
22B
330
1DB
100
AcDbEntity
  8
0
  6
Continuous
 62
     8
370
    25
100
AcDbPolyline
 90
       20
 70
   128
 43
0.0
 10
12.0208152802
 20
25.6001443276
 10
9.9037960883
 20
26.6748141084
 10
7.5661034695
 20
27.5843784563
 10
5.0461222719
 20
28.3139023497
 10
2.3852305171
 20
28.8514070266
 10
-0.3728800259
 20
29.188066675
 10
-3.1829212581
 20
29.3183533527
 10
-5.9987523802
 20
29.2401277562
 10
-8.7741375231
 20
28.9546743475
 10
-11.4635049394
 20
28.4666802637
 10
-14.0226952906
 20
27.7841583543
 10
-16.4096867417
 20
26.91831561
 10
-18.5852849592
 20
25.8833691449
 10
-20.5137666805
 20
24.6963127512
 10
-22.163466289
 20
23.3766378621
 10
-23.5072957627
 20
21.9460135028
 10
-24.523189459
 20
20.4279304858
 10
-25.1944664312
 20
18.8473156921
 10
-25.5101043303
 20
17.2301227731
 10
-25.5344920679
 20
16.7432537133
  0
LWPOLYLINE
  5
22C
330
1DB
100
AcDbEntity
  8
0
  6
Continuous
 62
     8
370
    25
100
AcDbPolyline
 90
        8
 70
   128
 43
0.0
 10
18.4642643249
 20
16.6740483597
 10
18.4616401017
 20
16.8232140463
 10
18.2359525026
 20
18.4454163201
 10
17.6527776985
 20
20.0376396451
 10
16.7216914037
 20
21.5737397583
 10
15.4579820294
 20
23.0284939384
 10
13.8823996485
 20
24.3780151618
 10
12.0208152802
 20
25.6001443276
  0
LWPOLYLINE
  5
22F
330
1DB
100
AcDbEntity
  8
0
  6
Continuous
 62
     8
370
    25
100
AcDbPolyline
 90
       25
 70
   128
 43
0.0
 10
110.3690516396
 20
143.8607670953
 10
110.1893937284
 20
145.4431415997
 10
109.6534939916
 20
146.9984412376
 10
108.7705218223
 20
148.5000544009
 10
107.555585119
 20
149.9222880722
 10
106.0294717857
 20
151.2408074391
 10
104.2182940445
 20
152.4330522695
 10
102.1530416487
 20
153.4786229239
 10
99.8690516396
 20
154.3596293985
 10
97.4054037192
 20
155.0609974282
 10
94.8042515867
 20
155.5707264117
 10
92.1101016762
 20
155.8800947447
 10
89.3690516396
 20
155.9838090491
 10
86.6280016029
 20
155.8800947447
 10
83.9338516924
 20
155.5707264117
 10
81.3326995599
 20
155.0609974282
 10
78.8690516396
 20
154.3596293985
 10
76.5850616304
 20
153.4786229239
 10
74.5198092346
 20
152.4330522695
 10
72.7086314934
 20
151.2408074391
 10
71.1825181601
 20
149.9222880722
 10
69.9675814568
 20
148.5000544009
 10
69.0846092875
 20
146.9984412376
 10
68.5487095507
 20
145.4431415997
 10
68.3914771942
 20
144.4208761322
  0
LINE
  5
231
330
1DB
100
AcDbEntity
  8
0
  6
Continuous
 62
     7
370
    25
100
AcDbLine
 10
254.3809222965
 20
-54.4839450652
 30
0.0
 11
254.6884793912
 21
-53.4102602273
 31
0.0
  0
LINE
  5
232
330
1DB
100
AcDbEntity
  8
0
  6
Continuous
 62
     7
370
    25
100
AcDbLine
 10
-62.836923559
 20
-23.1024729056
 30
0.0
 11
-207.7938137023
 21
60.5793585563
 31
0.0
  0
LINE
  5
233
330
1DB
100
AcDbEntity
  8
0
  6
Continuous
 62
     7
370
    25
100
AcDbLine
 10
-255.5558754618
 20
32.6510947078
 30
0.0
 11
-255.3047549015
 21
31.6948509946
 31
0.0
  0
LINE
  5
234
330
1DB
100
AcDbEntity
  8
0
  6
Continuous
 62
     7
370
    25
100
AcDbLine
 10
212.5154882667
 20
135.838404532
 30
0.0
 11
67.5585981235
 21
219.5202359939
 31
0.0
  0
LINE
  5
235
330
1DB
100
AcDbEntity
  8
0
  6
Continuous
 62
     7
370
    25
100
AcDbLine
 10
-68.4845340315
 20
-29.5328901362
 30
0.0
 11
-213.4414241749
 21
54.1489413257
 31
0.0
  0
LINE
  5
236
330
1DB
100
AcDbEntity
  8
0
  6
Continuous
 62
     7
370
    25
100
AcDbLine
 10
254.648884259
 20
-53.3872738056
 30
0.0
 11
254.693268797
 21
-53.2056239673
 31
0.0
  0
LINE
  5
237
330
1DB
100
AcDbEntity
  8
0
  6
Continuous
 62
     7
370
    25
100
AcDbLine
 10
-202.3161306021
 20
-28.0226744339
 30
0.0
 11
-60.8947743649
 21
-109.6634856162
 31
0.0
  0
LINE
  5
238
330
1DB
100
AcDbEntity
  8
0
  6
Continuous
 62
     7
370
    25
100
AcDbLine
 10
-255.5580325532
 20
32.9575953191
 30
0.0
 11
-255.503081234
 21
32.6836293138
 31
0.0
  0
LINE
  5
239
330
1DB
100
AcDbEntity
  8
0
  6
Continuous
 62
     7
370
    25
100
AcDbLine
 10
206.8287334971
 20
128.8035074472
 30
0.0
 11
206.8287334971
 21
129.8703486823
 31
0.0
  0
LINE
  5
23A
330
1DB
100
AcDbEntity
  8
0
  6
Continuous
 62
     7
370
    25
100
AcDbLine
 10
3.5355339059
 20
-23.2637828851
 30
0.0
 11
95.4594154602
 21
29.8027443834
 31
0.0
  0
LINE
  5
23B
330
1DB
100
AcDbEntity
  8
0
  6
Continuous
 62
     7
370
    25
100
AcDbLine
 10
-81.3172798365
 20
25.7207038242
 30
0.0
 11
3.5355339059
 21
-23.2637828851
 31
0.0
  0
LINE
  5
23C
330
1DB
100
AcDbEntity
  8
0
  6
Continuous
 62
     7
370
    25
100
AcDbLine
 10
-117.9343055695
 20
238.7264486168
 30
0.0
 11
252.2845935447
 21
25.0036273763
 31
0.0
  0
LINE
  5
23D
330
1DB
100
AcDbEntity
  8
0
  6
Continuous
 62
     7
370
    25
100
AcDbLine
 10
245.2135257328
 20
12.7561786983
 30
0.0
 11
-125.0053733814
 21
226.4789999388
 31
0.0
  0
LINE
  5
23E
330
1DB
100
AcDbEntity
  8
0
  6
Continuous
 62
     7
370
    25
100
AcDbLine
 10
206.8287334971
 20
128.8035074472
 30
0.0
 11
61.8718433538
 21
212.485338909
 31
0.0
  0
LINE
  5
23F
330
1DB
100
AcDbEntity
  8
0
  6
Continuous
 62
     7
370
    25
100
AcDbLine
 10
17.6776695297
 20
91.0346797707
 30
0.0
 11
102.5234531912
 21
42.0542514406
 31
0.0
  0
LINE
  5
240
330
1DB
100
AcDbEntity
  8
0
  6
Continuous
 62
     7
370
    25
100
AcDbLine
 10
10.6066017178
 20
78.7872310927
 30
0.0
 11
-81.3172798365
 21
25.7207038242
 31
0.0
  0
LINE
  5
241
330
1DB
100
AcDbEntity
  8
0
  6
Continuous
 62
     7
370
    25
100
AcDbLine
 10
61.8718433538
 20
212.485338909
 30
0.0
 11
61.8718433538
 21
213.5521801441
 31
0.0
  0
LINE
  5
242
330
1DB
100
AcDbEntity
  8
0
  6
Continuous
 62
     7
370
    25
100
AcDbLine
 10
95.4594154602
 20
29.8027443834
 30
0.0
 11
10.6066017178
 21
78.7872310927
 31
0.0
  0
LINE
  5
243
330
1DB
100
AcDbEntity
  8
0
  6
Continuous
 62
     7
370
    25
100
AcDbLine
 10
-25.5344920679
 20
16.7432537133
 30
0.0
 11
-25.5355339059
 21
16.6196550975
 31
0.0
  0
LINE
  5
244
330
1DB
100
AcDbEntity
  8
0
  6
Continuous
 62
     7
370
    25
100
AcDbLine
 10
206.8287334971
 20
129.8703486823
 30
0.0
 11
61.8718433538
 21
213.5521801441
 31
0.0
  0
LINE
  5
245
330
1DB
100
AcDbEntity
  8
0
  6
Continuous
 62
     7
370
    25
100
AcDbLine
 10
110.3668590899
 20
143.6855887806
 30
0.0
 11
110.3690516396
 21
143.8607670953
 31
0.0
  0
LINE
  5
246
330
1DB
100
AcDbEntity
  8
0
  6
Continuous
 62
     7
370
    25
100
AcDbLine
 10
68.3914771942
 20
144.4208761322
 30
0.0
 11
68.3690516396
 21
143.8607670953
 31
0.0
  0
LINE
  5
247
330
1DB
100
AcDbEntity
  8
0
  6
Continuous
 62
     8
370
    25
100
AcDbLine
 10
104.9561776894
 20
136.9835219126
 30
0.0
 11
101.2742905268
 21
139.1090301289
 31
0.0
  0
LINE
  5
248
330
1DB
100
AcDbEntity
  8
0
  6
Continuous
 62
     8
370
    25
100
AcDbLine
 10
105.6896963472
 20
136.5700192738
 30
0.0
 11
104.9561776894
 21
136.9835219126
 31
0.0
  0
LINE
  5
249
330
1DB
100
AcDbEntity
  8
0
  6
Continuous
 62
     8
370
    25
100
AcDbLine
 10
104.9175828317
 20
137.3116520635
 30
0.0
 11
104.9561776894
 21
136.9835219126
 31
0.0
  0
ARC
  5
24A
330
1DB
100
AcDbEntity
  8
0
  6
Continuous
 62
     7
370
    25
100
AcDbCircle
 10
260.5656867465
 20
12.0575701757
 30
0.0
 40
15.36804807572209
100
AcDbArc
 50
122.60547834
 51
177.3945215143
  0
ARC
  5
24B
330
1DB
100
AcDbEntity
  8
0
  6
Continuous
 62
     7
370
    25
100
AcDbCircle
 10
-109.6532123677
 20
225.7803914162
 30
0.0
 40
15.36804807571999
100
AcDbArc
 50
122.60547834
 51
177.3945215143
  0
ARC
  5
24C
330
1DB
100
AcDbEntity
  8
0
  6
Continuous
 62
     7
370
    25
100
AcDbCircle
 10
92.6333320392
 20
117.8441956664
 30
0.0
 40
23.00690310143976
100
AcDbArc
 50
54.9214841697
 51
76.7053786154
  0
ARC
  5
24D
330
1DB
100
AcDbEntity
  8
0
  6
Continuous
 62
     8
370
    25
100
AcDbCircle
 10
-56.4207628833
 20
-109.4948288878
 30
0.0
 40
4.477189277857775
100
AcDbArc
 50
182.1588557086
 51
237.5242675744
  0
ARC
  5
24E
330
1DB
100
AcDbEntity
  8
0
  6
Continuous
 62
     8
370
    25
100
AcDbCircle
 10
-197.8174201976
 20
-27.8462933046
 30
0.0
 40
4.502166767928546
100
AcDbArc
 50
182.2452480658
 51
236.2663075102
  0
VIEWPORT
  5
255
330
1DB
100
AcDbEntity
  8
0
100
AcDbViewport
 10
0.0
 20
0.0
 30
0.0
 40
205.6
 41
156.0
 68
     1
 69
     1
 12
0.0
 22
59.9999999721
 13
0.0
 23
0.0
 14
10.0
 24
10.0
 15
10.0
 25
10.0
 16
0.0
 26
0.0
 36
1.0
 17
0.0
 27
0.0
 37
0.0
 42
50.0
 43
0.0
 44
0.0
 45
468.1807429934
 50
0.0
 51
0.0
 72
   100
 90
   557152
  1

281
     0
 71
     1
 74
     0
110
0.0
120
0.0
130
0.0
111
1.0
121
0.0
131
0.0
112
0.0
122
1.0
132
0.0
 79
     0
146
0.0
  0
ENDBLK
  5
1DE
330
1DB
100
AcDbEntity
  8
0
100
AcDbBlockEnd
  0
ENDSEC
  0
SECTION
  2
ENTITIES
  0
SPLINE
  5
73
330
1F
100
AcDbEntity
  8
0
  6
Continuous
 62
     7
370
    25
100
AcDbSpline
210
0.0
220
0.0
230
1.0
 70
     8
 71
     3
 72
    40
 73
    36
 74
     0
 42
0.000000001
 43
0.00000001
 40
0.0
 40
0.0
 40
0.0
 40
0.0
 40
0.0362975257856567
 40
0.0699475521814279
 40
0.1010032645573037
 40
0.1294516219412655
 40
0.1552942586508231
 40
0.1785313746857752
 40
0.1991629902240671
 40
0.2171889450475724
 40
0.2332676633787453
 40
0.2493550796316249
 40
0.2655782504086462
 40
0.28193389790743
 40
0.3317858414642891
 40
0.3824845581180252
 40
0.4332242173217283
 40
0.4839784744752202
 40
0.5246023394176879
 40
0.5652174236814611
 40
0.605728618067558
 40
0.6446715461883221
 40
0.6815480983889923
 40
0.6963051009692418
 40
0.7107363045072116
 40
0.72683952821883
 40
0.7457958154039849
 40
0.7676047299448949
 40
0.7922590614957663
 40
0.8197578686867917
 40
0.8501017872987743
 40
0.883294334395762
 40
0.9193381483252325
 40
0.9582371112109277
 40
1.0
 40
1.0
 40
1.0
 40
1.0
 10
-102.5000000000233
 20
119.99999000324
 30
0.0
 10
-106.2031458543764
 20
119.9997805819725
 30
0.0
 10
-113.3393344037667
 20
119.9993770143816
 30
0.0
 10
-123.611807934779
 20
120.0001431661512
 30
0.0
 10
-133.0332209244055
 20
119.9999623052734
 30
0.0
 10
-141.6008459498183
 20
120.0000049012734
 30
0.0
 10
-149.3155151834585
 20
119.9999947124071
 30
0.0
 10
-156.186288096565
 20
119.9999964955692
 30
0.0
 10
-162.2266163113277
 20
119.9999954970782
 30
0.0
 10
-167.516368605199
 20
119.9999953128691
 30
0.0
 10
-172.3213038446781
 20
119.9999953978809
 30
0.0
 10
-176.909087204235
 20
119.9999954477458
 30
0.0
 10
-181.4751731178472
 20
119.9999954723037
 30
0.0
 10
-189.1218483819833
 20
119.9999954378519
 30
0.0
 10
-199.7058526221863
 20
119.9999956471462
 30
0.0
 10
-212.7954112552785
 20
119.9999965318474
 30
0.0
 10
-225.2634251966603
 20
119.9999956517961
 30
0.0
 10
-236.1813438327355
 20
119.9999968427922
 30
0.0
 10
-245.6530563177653
 20
119.999996645184
 30
0.0
 10
-253.8080878496718
 20
119.9999961967651
 30
0.0
 10
-261.246578425142
 20
119.9999971556463
 30
0.0
 10
-267.848958479155
 20
119.9999972509382
 30
0.0
 10
-272.5220072254987
 20
119.9999968853317
 30
0.0
 10
-275.6903537494323
 20
119.9999967963987
 30
0.0
 10
-277.7684901764533
 20
119.9999967504583
 30
0.0
 10
-279.9305974602581
 20
119.9999968138234
 30
0.0
 10
-282.2698153461295
 20
119.9999970715204
 30
0.0
 10
-284.7633190887419
 20
119.9999976045888
 30
0.0
 10
-287.3250154051333
 20
119.9999986877492
 30
0.0
 10
-289.8567009183336
 20
119.9999998803518
 30
0.0
 10
-292.2457617187804
 20
120.0000002233063
 30
0.0
 10
-294.3691590957553
 20
119.9999978885317
 30
0.0
 10
-296.0703441508175
 20
119.9999890220258
 30
0.0
 10
-297.2673681809136
 20
119.9999677965865
 30
0.0
 10
-297.4304965509465
 20
119.9999298477939
 30
0.0
 10
-297.5149566995122
 20
119.9999101997053
 30
0.0
  0
SPLINE
  5
74
330
1F
100
AcDbEntity
  8
0
  6
Continuous
 62
     7
370
    25
100
AcDbSpline
210
0.0
220
0.0
230
1.0
 70
     8
 71
     3
 72
    13
 73
     9
 74
     0
 42
0.000000001
 43
0.00000001
 40
0.0
 40
0.0
 40
0.0
 40
0.0
 40
0.1587646697202037
 40
0.3127343280063365
 40
0.4579279648361264
 40
0.5916759646157832
 40
0.8198990620578721
 40
1.0
 40
1.0
 40
1.0
 40
1.0
 10
-297.5149643302375
 20
119.9999101539009
 30
0.0
 10
-297.9305412089087
 20
119.9672940238868
 30
0.0
 10
-298.74914371106
 20
119.9030468363981
 30
0.0
 10
-299.8714454146678
 20
119.4409860237262
 30
0.0
 10
-300.805455988657
 20
118.7883380041637
 30
0.0
 10
-301.6981028576295
 20
117.801594167217
 30
0.0
 10
-302.3599732717373
 20
116.4976503462965
 30
0.0
 10
-302.4361231044046
 20
115.4272380463777
 30
0.0
 10
-302.4697107825696
 20
114.955107477285
 30
0.0
  0
SPLINE
  5
75
330
1F
100
AcDbEntity
  8
0
  6
Continuous
 62
     7
370
    25
100
AcDbSpline
210
0.0
220
0.0
230
1.0
 70
     8
 71
     3
 72
    13
 73
     9
 74
     0
 42
0.000000001
 43
0.00000001
 40
0.0
 40
0.0
 40
0.0
 40
0.0
 40
0.1801009379472135
 40
0.4083240353907536
 40
0.5420720351698061
 40
0.6872656719981569
 40
0.8412353302822189
 40
1.0
 40
1.0
 40
1.0
 40
1.0
 10
302.4697107825697
 20
114.9551074772886
 30
0.0
 10
302.4361231044056
 20
115.427238046379
 30
0.0
 10
302.3599732717416
 20
116.4976503462794
 30
0.0
 10
301.6981028576354
 20
117.801594167213
 30
0.0
 10
300.8054559886615
 20
118.7883380041627
 30
0.0
 10
299.871445414674
 20
119.4409860237257
 30
0.0
 10
298.7491437110688
 20
119.903046836398
 30
0.0
 10
297.9305412089192
 20
119.9672940238868
 30
0.0
 10
297.5149643302494
 20
119.9999101539009
 30
0.0
  0
SPLINE
  5
76
330
1F
100
AcDbEntity
  8
0
  6
Continuous
 62
     7
370
    25
100
AcDbSpline
210
0.0
220
0.0
230
1.0
 70
     8
 71
     3
 72
    40
 73
    36
 74
     0
 42
0.000000001
 43
0.00000001
 40
0.0
 40
0.0
 40
0.0
 40
0.0
 40
0.0363418474889065
 40
0.0700606055968909
 40
0.1011633133470762
 40
0.1296539635511079
 40
0.1555336873032644
 40
0.1788048172287643
 40
0.1994687648580504
 40
0.2175255200437527
 40
0.2336251512685171
 40
0.2497290088222091
 40
0.26596680076784
 40
0.2823350632411377
 40
0.3322197926970867
 40
0.3829455420787244
 40
0.4336986501192424
 40
0.4844663246789173
 40
0.5250934468430891
 40
0.5657008232249441
 40
0.6062023007997953
 40
0.645131428259053
 40
0.6819888128876155
 40
0.6967384043013026
 40
0.7111603500020671
 40
0.7272395066584566
 40
0.746170786752965
 40
0.7679514221915097
 40
0.7925729337922363
 40
0.8200350738766423
 40
0.850338443531879
 40
0.8834837038460924
 40
0.9194724303115228
 40
0.9582954839368083
 40
1.0
 40
1.0
 40
1.0
 40
1.0
 10
297.5149719551549
 20
119.9999101081116
 30
0.0
 10
297.4503798798548
 20
119.9999290547629
 30
0.0
 10
297.3258578694185
 20
119.9999655805303
 30
0.0
 10
296.4218777425483
 20
119.9999878786128
 30
0.0
 10
295.1456397996594
 20
119.9999976871337
 30
0.0
 10
293.5649337318992
 20
120.00000012611
 30
0.0
 10
291.7989239444961
 20
119.9999999636563
 30
0.0
 10
289.9442298361571
 20
119.9999987377371
 30
0.0
 10
288.0885297945355
 20
119.9999975973097
 30
0.0
 10
286.2863293741877
 20
119.9999969651768
 30
0.0
 10
284.5048662144137
 20
119.9999969088474
 30
0.0
 10
282.6708731998912
 20
119.9999968747973
 30
0.0
 10
280.7095089150402
 20
119.9999968911918
 30
0.0
 10
277.1907262989466
 20
119.9999968121977
 30
0.0
 10
271.6376290758627
 20
119.9999968649482
 30
0.0
 10
263.3951685575273
 20
119.9999972787117
 30
0.0
 10
254.08047681786
 20
119.9999963290888
 30
0.0
 10
244.4863639204117
 20
119.9999966852432
 30
0.0
 10
234.8776776144191
 20
119.9999965274131
 30
0.0
 10
225.4782508025004
 20
119.9999960107957
 30
0.0
 10
215.7192167538145
 20
119.9999961866605
 30
0.0
 10
205.836419647612
 20
119.9999959801503
 30
0.0
 10
197.8511629299727
 20
119.9999956062418
 30
0.0
 10
191.8982720953387
 20
119.9999955524397
 30
0.0
 10
187.77019696053
 20
119.9999954745426
 30
0.0
 10
183.2080248817368
 20
119.9999958815077
 30
0.0
 10
177.9007506708952
 20
119.9999967143238
 30
0.0
 10
171.7125098433255
 20
119.9999974953511
 30
0.0
 10
164.6184875676193
 20
119.9999987195688
 30
0.0
 10
156.5960824234948
 20
119.9999975988884
 30
0.0
 10
147.6265310771305
 20
120.0000051423932
 30
0.0
 10
137.6980749850806
 20
119.9999737519318
 30
0.0
 10
126.8101336855949
 20
120.0001053561421
 30
0.0
 10
114.9711287703213
 20
119.9995504181139
 30
0.0
 10
106.7550398034774
 20
119.9998400206488
 30
0.0
 10
102.5000000000922
 20
119.99999000324
 30
0.0
  0
SPLINE
  5
78
330
1F
100
AcDbEntity
  8
0
  6
Continuous
 62
     7
370
    25
100
AcDbSpline
210
0.0
220
0.0
230
1.0
 70
     8
 71
     3
 72
    13
 73
     9
 74
     0
 42
0.000000001
 43
0.00000001
 40
0.0
 40
0.0
 40
0.0
 40
0.0
 40
0.1628251695793393
 40
0.3314505024721173
 40
0.5000023659432401
 40
0.6685597065121563
 40
0.8372015364264154
 40
1.0
 40
1.0
 40
1.0
 40
1.0
 10
287.0909125819202
 20
7.304987018968978
 30
0.0
 10
288.6142999575817
 20
13.0247888847385
 30
0.0
 10
291.7153408619286
 20
24.66814357829211
 30
0.0
 10
295.4104159640833
 20
42.4712267850391
 30
0.0
 10
298.4224916598553
 20
60.60989861198978
 30
0.0
 10
300.6052505593655
 20
78.86754350378578
 30
0.0
 10
302.0383094782973
 20
96.99331425096346
 30
0.0
 10
302.3183324322499
 20
109.0389281204498
 30
0.0
 10
302.4558754756412
 20
114.9555516248426
 30
0.0
  0
SPLINE
  5
79
330
1F
100
AcDbEntity
  8
0
  6
Continuous
 62
     7
370
    25
100
AcDbSpline
210
0.0
220
0.0
230
1.0
 70
     8
 71
     3
 72
    13
 73
     9
 74
     0
 42
0.000000001
 43
0.00000001
 40
0.0
 40
0.0
 40
0.0
 40
0.0
 40
0.1627984635739782
 40
0.3314402934881581
 40
0.4999976340569949
 40
0.6685494975280384
 40
0.8371748304207367
 40
1.0
 40
1.0
 40
1.0
 40
1.0
 10
-302.4558754756429
 20
114.9555516248939
 30
0.0
 10
-302.3183324322515
 20
109.038928120484
 30
0.0
 10
-302.0383094782986
 20
96.99331425098055
 30
0.0
 10
-300.6052505593656
 20
78.86754350378584
 30
0.0
 10
-298.4224916598553
 20
60.60989861198977
 30
0.0
 10
-295.4104159640833
 20
42.47122678503912
 30
0.0
 10
-291.7153408619286
 20
24.66814357829207
 30
0.0
 10
-288.6142999575817
 20
13.02478888473846
 30
0.0
 10
-287.0909125819201
 20
7.304987018968916
 30
0.0
  0
SPLINE
  5
7F
330
1F
100
AcDbEntity
  8
0
  6
Continuous
 62
     7
370
    25
100
AcDbSpline
210
0.0
220
0.0
230
1.0
 70
    24
 71
     3
 72
    26
 73
    22
 74
     0
 42
0.000000001
 43
0.00000001
 40
0.0
 40
0.0
 40
0.0
 40
0.0
 40
0.0433857951626317
 40
0.0975629764097823
 40
0.1501668140207785
 40
0.202770953886605
 40
0.2569023039348503
 40
0.3110338281217652
 40
0.3636578895459457
 40
0.4162819276611025
 40
0.4704273341325931
 40
0.524572587539131
 40
0.577320066125233
 40
0.6300674047287922
 40
0.6843360086672752
 40
0.7386047303378255
 40
0.7915531453424595
 40
0.8445018801858128
 40
0.8989793929530957
 40
0.9534572862447849
 40
1.0
 40
1.0
 40
1.0
 40
1.0
 10
277.3719266098768
 20
0.0
 30
0.0
 10
277.3276981701681
 20
0.0
 30
0.0
 10
277.2282403129647
 20
0.0
 30
0.0
 10
275.5601025010834
 20
0.0
 30
0.0
 10
272.6944732905683
 20
0.0
 30
0.0
 10
268.6060179540971
 20
0.0
 30
0.0
 10
263.2913533862428
 20
0.0
 30
0.0
 10
256.8094978712035
 20
0.0
 30
0.0
 10
249.2889906575251
 20
0.0
 30
0.0
 10
240.7446952361096
 20
0.0
 30
0.0
 10
231.122556159589
 20
0.0
 30
0.0
 10
220.5620874464658
 20
0.0
 30
0.0
 10
209.2493771332847
 20
0.0
 30
0.0
 10
197.1812852650471
 20
0.0
 30
0.0
 10
184.3103102085571
 20
0.0
 30
0.0
 10
170.8271405990789
 20
0.0
 30
0.0
 10
156.9597422962638
 20
0.0
 30
0.0
 10
142.6861558933398
 20
0.0
 30
0.0
 10
127.9755112639872
 20
0.0
 30
0.0
 10
113.6585287202226
 20
0.0
 30
0.0
 10
104.3080149529403
 20
0.0
 30
0.0
 10
99.99999999978564
 20
0.0
 30
0.0
  0
SPLINE
  5
82
330
1F
100
AcDbEntity
  8
0
  6
Continuous
 62
     7
370
    25
100
AcDbSpline
210
0.0
220
0.0
230
1.0
 70
    24
 71
     3
 72
    27
 73
    23
 74
     0
 42
0.000000001
 43
0.00000001
 40
0.0
 40
0.0
 40
0.0
 40
0.0
 40
0.0475228562985358
 40
0.0952419988156036
 40
0.1430197507411499
 40
0.1907232498270171
 40
0.2382329319703437
 40
0.2925198347176577
 40
0.34700618085294
 40
0.4014921496924627
 40
0.4557785360547026
 40
0.50932369231672
 40
0.5630615571464258
 40
0.616798860604204
 40
0.670343248602495
 40
0.7236907315089562
 40
0.7772296237513429
 40
0.8307678742327337
 40
0.8841144788686603
 40
0.937341599469582
 40
0.9907592558741323
 40
1.0
 40
1.0
 40
1.0
 40
1.0
 10
-100.000000000094
 20
0.0
 30
0.0
 10
-104.4055533580497
 20
0.0
 30
0.0
 10
-113.2348565687959
 20
0.0
 30
0.0
 10
-126.4224673282807
 20
0.0
 30
0.0
 10
-139.4869856230051
 20
0.0
 30
0.0
 10
-152.3220862774306
 20
0.0
 30
0.0
 10
-165.4398659610555
 20
0.0
 30
0.0
 10
-178.7196788145438
 20
0.0
 30
0.0
 10
-192.0250900463396
 20
0.0
 30
0.0
 10
-204.6731704955963
 20
0.0
 30
0.0
 10
-216.499089510423
 20
0.0
 30
0.0
 10
-227.416471305232
 20
0.0
 30
0.0
 10
-237.3968247916934
 20
0.0
 30
0.0
 10
-246.4155374807625
 20
0.0
 30
0.0
 10
-254.3806034947742
 20
0.0
 30
0.0
 10
-261.2157346216854
 20
0.0
 30
0.0
 10
-266.918783187978
 20
0.0
 30
0.0
 10
-271.4492067181105
 20
0.0
 30
0.0
 10
-274.7957452360912
 20
0.0
 30
0.0
 10
-276.7615094807243
 20
0.0
 30
0.0
 10
-277.5939467386702
 20
0.0
 30
0.0
 10
-277.39688610822
 20
0.0
 30
0.0
 10
-277.3678239737279
 20
0.0
 30
0.0
  0
SPLINE
  5
84
330
1F
100
AcDbEntity
  8
0
  6
Continuous
 62
     8
370
    25
100
AcDbSpline
210
0.0
220
0.0
230
1.0
 70
    24
 71
     3
 72
    14
 73
    10
 74
     0
 42
0.000000001
 43
0.00000001
 40
0.0
 40
0.0
 40
0.0
 40
0.0
 40
0.1684460061253065
 40
0.385538896962684
 40
0.5144981747324913
 40
0.655646071726381
 40
0.806274584799713
 40
0.9621332432066636
 40
1.0
 40
1.0
 40
1.0
 40
1.0
 10
-102.5000000000233
 20
114.7330542777043
 30
0.0
 10
-102.5000000000233
 20
115.1809808735852
 30
0.0
 10
-102.5000000000233
 20
116.2061944103653
 30
0.0
 10
-102.5000000000233
 20
117.5216764566776
 30
0.0
 10
-102.5000000000233
 20
118.5586824092873
 30
0.0
 10
-102.5000000000233
 20
119.2882638203517
 30
0.0
 10
-102.5000000000233
 20
119.7922483459491
 30
0.0
 10
-102.5000000000233
 20
120.0273433310404
 30
0.0
 10
-102.5000000000233
 20
119.9793105949749
 30
0.0
 10
-102.5000000000233
 20
119.9699218220417
 30
0.0
  0
SPLINE
  5
85
330
1F
100
AcDbEntity
  8
0
  6
Continuous
 62
     8
370
    25
100
AcDbSpline
210
0.0
220
0.0
230
1.0
 70
     8
 71
     3
 72
    28
 73
    24
 74
     0
 42
0.000000001
 43
0.00000001
 40
0.0
 40
0.0
 40
0.0
 40
0.0
 40
0.0499177526201605
 40
0.099816438782964
 40
0.1497154737005265
 40
0.1996309583975196
 40
0.2495833003827793
 40
0.2995484833632752
 40
0.3495006087511359
 40
0.3994581832080316
 40
0.4494358155320186
 40
0.4994518251503532
 40
0.5494808121782487
 40
0.5994960873505094
 40
0.6495153230255801
 40
0.6995523558786269
 40
0.7496247243109322
 40
0.7997054269789593
 40
0.8497666434525363
 40
0.8998254978506101
 40
0.9498953393064673
 40
0.9999932665914995
 40
1.0
 40
1.0
 40
1.0
 40
1.0
 10
-102.5000000000233
 20
114.7330542777043
 30
0.0
 10
-107.719214242927
 20
114.7341111037955
 30
0.0
 10
-118.1556492109863
 20
114.7362243523153
 30
0.0
 10
-133.7153818288486
 20
114.7432601710417
 30
0.0
 10
-149.0851155555201
 20
114.7506202299907
 30
0.0
 10
-164.1764755748176
 20
114.7602834129985
 30
0.0
 10
-178.8987835272929
 20
114.771472904509
 30
0.0
 10
-193.1566588039862
 20
114.7841171362493
 30
0.0
 10
-206.8610719777349
 20
114.7978660418656
 30
0.0
 10
-219.9269702167904
 20
114.8129472256391
 30
0.0
 10
-232.277430512564
 20
114.8286374484147
 30
0.0
 10
-243.8374362153959
 20
114.8449574193695
 30
0.0
 10
-254.5282810545749
 20
114.8614686401112
 30
0.0
 10
-264.2841988367112
 20
114.8776538378398
 30
0.0
 10
-273.042473101845
 20
114.8934581344131
 30
0.0
 10
-280.7506469891052
 20
114.9081593393056
 30
0.0
 10
-287.3611007220169
 20
114.9215166583492
 30
0.0
 10
-292.828870916543
 20
114.9330665132735
 30
0.0
 10
-297.1086743018778
 20
114.9424307537104
 30
0.0
 10
-300.2235219474694
 20
114.9496111139903
 30
0.0
 10
-301.9588758110048
 20
114.9538047015205
 30
0.0
 10
-302.6765766329085
 20
114.9556232122837
 30
0.0
 10
-302.4696551665596
 20
114.9551073387044
 30
0.0
 10
-302.4696273590314
 20
114.9551072693778
 30
0.0
  0
SPLINE
  5
86
330
1F
100
AcDbEntity
  8
0
  6
Continuous
 62
     8
370
    25
100
AcDbSpline
210
0.0
220
0.0
230
1.0
 70
     8
 71
     3
 72
    27
 73
    23
 74
     0
 42
0.000000001
 43
0.00000001
 40
0.0
 40
0.0
 40
0.0
 40
0.0
 40
0.0500905491423427
 40
0.100158832620263
 40
0.1502164610048957
 40
0.2002781712849655
 40
0.2503625173390669
 40
0.3004378192279486
 40
0.3504739516696206
 40
0.4004910026282859
 40
0.4505055247314123
 40
0.5005378703097116
 40
0.5505573709351302
 40
0.6005345578481219
 40
0.6504903042945535
 40
0.7004419391270927
 40
0.7504106316608486
 40
0.8003678999132818
 40
0.8502858145710599
 40
0.9001854349677821
 40
0.9500834964541035
 40
0.9999999999999999
 40
0.9999999999999999
 40
0.9999999999999999
 40
0.9999999999999999
 10
302.4696273574102
 20
114.9551072693771
 30
0.0
 10
302.3499559906661
 20
114.9548003359187
 30
0.0
 10
302.1106664520928
 20
114.9541866054366
 30
0.0
 10
300.1837003795429
 20
114.9495111563251
 30
0.0
 10
297.12074636173
 20
114.9424603829603
 30
0.0
 10
292.8274871825862
 20
114.9330626386586
 30
0.0
 10
287.3634567165356
 20
114.9215219014509
 30
0.0
 10
280.7520636500469
 20
114.9081617860863
 30
0.0
 10
273.0443532089162
 20
114.8934620322987
 30
0.0
 10
264.2864769831299
 20
114.877657454881
 30
0.0
 10
254.5308343078846
 20
114.8614728388498
 30
0.0
 10
243.8397210542941
 20
114.8449608248061
 30
0.0
 10
232.2794048991852
 20
114.8286398662336
 30
0.0
 10
219.9289277779391
 20
114.8129498156561
 30
0.0
 10
206.863385766601
 20
114.7978683665983
 30
0.0
 10
193.1589902063295
 20
114.7841193794902
 30
0.0
 10
178.9004159648334
 20
114.771474257163
 30
0.0
 10
164.1770773828781
 20
114.760283597929
 30
0.0
 10
149.0849114639257
 20
114.7506200457214
 30
0.0
 10
133.7149249318027
 20
114.743260007689
 30
0.0
 10
118.1553222594986
 20
114.7362242610894
 30
0.0
 10
107.7190834975577
 20
114.7341110689793
 30
0.0
 10
102.5000000000933
 20
114.7330542777042
 30
0.0
  0
SPLINE
  5
87
330
1F
100
AcDbEntity
  8
0
  6
Continuous
 62
     8
370
    25
100
AcDbSpline
210
0.0
220
0.0
230
1.0
 70
    24
 71
     3
 72
    14
 73
    10
 74
     0
 42
0.000000001
 43
0.00000001
 40
0.0
 40
0.0
 40
0.0
 40
0.0
 40
0.1684306147643287
 40
0.3855036692450983
 40
0.5144511636616443
 40
0.655586163595626
 40
0.8062009133398595
 40
0.962045330525377
 40
1.0
 40
1.0
 40
1.0
 40
1.0
 10
102.5000000000931
 20
114.7330542777042
 30
0.0
 10
102.5000000000931
 20
115.1809809022711
 30
0.0
 10
102.5000000000931
 20
116.2061945047076
 30
0.0
 10
102.500000000093
 20
117.5216760370191
 30
0.0
 10
102.5000000000928
 20
118.5586833191292
 30
0.0
 10
102.5000000000926
 20
119.2882598882469
 30
0.0
 10
102.5000000000924
 20
119.7922643251354
 30
0.0
 10
102.5000000000921
 20
120.0273637523939
 30
0.0
 10
102.500000000092
 20
119.9792862364228
 30
0.0
 10
102.500000000092
 20
119.9698704736383
 30
0.0
  0
SPLINE
  5
88
330
1F
100
AcDbEntity
  8
0
  6
Continuous
 62
     8
370
    25
100
AcDbSpline
210
0.0
220
0.0
230
1.0
 70
     8
 71
     3
 72
    26
 73
    22
 74
     0
 42
0.000000001
 43
0.00000001
 40
0.0
 40
0.0
 40
0.0
 40
0.0
 40
0.0464490388083779
 40
0.0994222306028319
 40
0.152395069998991
 40
0.2069005857197204
 40
0.2614057774240813
 40
0.3141687330977197
 40
0.3669316125032693
 40
0.4212182627242626
 40
0.4755050811588847
 40
0.5281327594741839
 40
0.5807606114756463
 40
0.634908116686714
 40
0.689055676841932
 40
0.7416512261343177
 40
0.7942466546041007
 40
0.8483613099841529
 40
0.9024756932726402
 40
0.9551051982491798
 40
1.0
 40
1.0
 40
1.0
 40
1.0
 10
99.99999999978564
 20
8.733342452966141
 30
0.0
 10
104.5368065793302
 20
8.71758957643428
 30
0.0
 10
114.2476518739496
 20
8.683871201126882
 30
0.0
 10
129.0539355189654
 20
8.616287105427896
 30
0.0
 10
144.445433170241
 20
8.53737411706411
 30
0.0
 10
159.6716162222546
 20
8.448645831170055
 30
0.0
 10
174.4542252338712
 20
8.352879208791423
 30
0.0
 10
188.5535282727831
 20
8.252840385400043
 30
0.0
 10
202.0291464586053
 20
8.149497903806092
 30
0.0
 10
214.9109363418398
 20
8.043385550714593
 30
0.0
 10
226.9644091469137
 20
7.93790728315924
 30
0.0
 10
238.0015419894761
 20
7.835827498454115
 30
0.0
 10
248.0847863253841
 20
7.738259771235878
 30
0.0
 10
257.2164758174395
 20
7.646102318248492
 30
0.0
 10
265.2269040526896
 20
7.562304147752899
 30
0.0
 10
272.0006080295808
 20
7.489263992091696
 30
0.0
 10
277.591518310031
 20
7.427356943679318
 30
0.0
 10
281.9871126079628
 20
7.37766132446832
 30
0.0
 10
285.0516851552215
 20
7.3423161653349
 30
0.0
 10
286.8261175265095
 20
7.321603794668653
 30
0.0
 10
286.9645609361993
 20
7.319959155628012
 30
0.0
 10
287.0282926318177
 20
7.319202054694316
 30
0.0
  0
SPLINE
  5
89
330
1F
100
AcDbEntity
  8
0
  6
Continuous
 62
     8
370
    25
100
AcDbSpline
210
0.0
220
0.0
230
1.0
 70
     8
 71
     3
 72
    29
 73
    25
 74
     0
 42
0.000000001
 43
0.00000001
 40
0.0
 40
0.0
 40
0.0
 40
0.0
 40
0.0068866868203611
 40
0.0609907318143775
 40
0.1150947844268231
 40
0.1678004475003792
 40
0.2205063648718867
 40
0.2747444405291342
 40
0.3289827755379673
 40
0.3818957676508729
 40
0.4348088891941959
 40
0.4892703565343799
 40
0.5437317962700321
 40
0.597375930806575
 40
0.6510199153808293
 40
0.6878504034595905
 40
0.7247117501857422
 40
0.7615421341495184
 40
0.8005742177892655
 40
0.8396429535996982
 40
0.8786749790618285
 40
0.9191007577448267
 40
0.9595687669906396
 40
0.9999999999999999
 40
0.9999999999999999
 40
0.9999999999999999
 40
0.9999999999999999
 10
-287.0358618701827
 20
7.319113073758876
 30
0.0
 10
-287.0593848240178
 20
7.318836485501704
 30
0.0
 10
-287.2677117316098
 20
7.316386930199377
 30
0.0
 10
-286.389564054934
 20
7.326736504514125
 30
0.0
 10
-284.3158392964127
 20
7.35084203609894
 30
0.0
 10
-280.8306524943889
 20
7.390842215257938
 30
0.0
 10
-276.1300929627495
 20
7.44365753210241
 30
0.0
 10
-270.1181457455131
 20
7.509786036886512
 30
0.0
 10
-262.8814908964108
 20
7.587094276205408
 30
0.0
 10
-254.549434749736
 20
7.673349225129647
 30
0.0
 10
-245.133099210248
 20
7.767258556473047
 30
0.0
 10
-234.5839770796259
 20
7.868013308636873
 30
0.0
 10
-223.0138760844471
 20
7.973174506105754
 30
0.0
 10
-210.6168780268562
 20
8.079508492184404
 30
0.0
 10
-198.8737108734041
 20
8.17408822877673
 30
0.0
 10
-188.0390799193206
 20
8.25600657064727
 30
0.0
 10
-178.3434872993379
 20
8.325378541374217
 30
0.0
 10
-168.1902901285583
 20
8.393925013273906
 30
0.0
 10
-157.5937920007534
 20
8.460455117573408
 30
0.0
 10
-146.5816958110791
 20
8.52515286854387
 30
0.0
 10
-135.2650117930876
 20
8.583240947543585
 30
0.0
 10
-123.6757251325886
 20
8.64858610664991
 30
0.0
 10
-111.8599070538291
 20
8.716056238943102
 30
0.0
 10
-103.9521040738105
 20
8.727582128154978
 30
0.0
 10
-100.0000000000941
 20
8.733342452966127
 30
0.0
  0
LINE
  5
8A
330
1F
100
AcDbEntity
  8
0
  6
Continuous
 62
     7
370
    25
100
AcDbLine
 10
102.5000000001
 20
119.9999900032
 30
0.0
 11
-102.5
 21
119.9999900032
 31
0.0
  0
LINE
  5
8B
330
1F
100
AcDbEntity
  8
0
  6
Continuous
 62
     7
370
    25
100
AcDbLine
 10
102.5000000001
 20
114.7330542777
 30
0.0
 11
-102.5
 21
114.7330542777
 31
0.0
  0
LINE
  5
8C
330
1F
100
AcDbEntity
  8
0
  6
Continuous
 62
     7
370
    25
100
AcDbLine
 10
287.0282926318
 20
7.3192020547
 30
0.0
 11
287.0358618702
 21
7.3191130738
 31
0.0
  0
LINE
  5
8D
330
1F
100
AcDbEntity
  8
0
  6
Continuous
 62
     7
370
    25
100
AcDbLine
 10
-100.0000000001
 20
8.733342453
 30
0.0
 11
99.9999999998
 21
8.733342453
 31
0.0
  0
LINE
  5
8E
330
1F
100
AcDbEntity
  8
0
  6
Continuous
 62
     7
370
    25
100
AcDbLine
 10
99.9999999998
 20
0.0
 30
0.0
 11
99.9999999998
 21
8.733342453
 31
0.0
  0
LINE
  5
8F
330
1F
100
AcDbEntity
  8
0
  6
Continuous
 62
     7
370
    25
100
AcDbLine
 10
-100.0000000001
 20
8.733342453
 30
0.0
 11
-100.0000000001
 21
0.0
 31
0.0
  0
LINE
  5
90
330
1F
100
AcDbEntity
  8
0
  6
Continuous
 62
     7
370
    25
100
AcDbLine
 10
99.9999999998
 20
0.0
 30
0.0
 11
-100.0000000001
 21
0.0
 31
0.0
  0
ARC
  5
91
330
1F
100
AcDbEntity
  8
0
  6
Continuous
 62
     7
370
    25
100
AcDbCircle
 10
277.4749829764
 20
9.9999925424
 30
0.0
 40
9.999992542335395
100
AcDbArc
 50
269.9982403577
 51
344.3830438185
  0
ARC
  5
92
330
1F
100
AcDbEntity
  8
0
  6
Continuous
 62
     7
370
    25
100
AcDbCircle
 10
-277.4749829816
 20
9.9999925309
 30
0.0
 40
9.999992530823093
100
AcDbArc
 50
195.6737621286
 51
270.0017596725
  0
SPLINE
  5
93
330
1B
100
AcDbEntity
 67
     1
  8
0
  6
Continuous
 62
     7
370
    25
100
AcDbSpline
210
0.0
220
0.0
230
1.0
 70
     8
 71
     3
 72
    16
 73
    12
 74
     0
 42
0.000000001
 43
0.00000001
 40
0.0
 40
0.0
 40
0.0
 40
0.0
 40
0.0543540750392404
 40
0.169414566082139
 40
0.2851781482174028
 40
0.4019134528971018
 40
0.5197019226010047
 40
0.6385177294607682
 40
0.7583674041269455
 40
0.8789698210638442
 40
1.0
 40
1.0
 40
1.0
 40
1.0
 10
-225.6765242897725
 20
-156.932153865426
 30
0.0
 10
-223.7992236704251
 20
-158.43599432445
 30
0.0
 10
-217.9479223723554
 20
-163.1232689885554
 30
0.0
 10
-207.3474577022162
 20
-170.0108103439148
 30
0.0
 10
-193.9590504927223
 20
-177.5878036027974
 30
0.0
 10
-179.8806913639288
 20
-184.1101273839413
 30
0.0
 10
-165.2201337029141
 20
-189.5761876721101
 30
0.0
 10
-150.0409584977453
 20
-193.9179313144398
 30
0.0
 10
-134.4445792995714
 20
-197.0471855438773
 30
0.0
 10
-118.549001050847
 20
-199.0254744309747
 30
0.0
 10
-107.8559769690399
 20
-199.2662992939183
 30
0.0
 10
-102.5000000019686
 20
-199.3869248914252
 30
0.0
  0
SPLINE
  5
94
330
1B
100
AcDbEntity
 67
     1
  8
0
  6
Continuous
 62
     7
370
    25
100
AcDbSpline
210
0.0
220
0.0
230
1.0
 70
     8
 71
     3
 72
    16
 73
    12
 74
     0
 42
0.000000001
 43
0.00000001
 40
0.0
 40
0.0
 40
0.0
 40
0.0
 40
0.1208752313800384
 40
0.2413815966598808
 40
0.3612564707639376
 40
0.4802312624901719
 40
0.5980782973050482
 40
0.7147626642171763
 40
0.8304716609298007
 40
0.9454962827292995
 40
1.0
 40
1.0
 40
1.0
 40
1.0
 10
-102.5000000019453
 20
199.3869248925616
 30
0.0
 10
-107.8501965806418
 20
199.2665565582041
 30
0.0
 10
-118.5342629345638
 20
199.0261872087289
 30
0.0
 10
-134.4233088108044
 20
197.0505637352741
 30
0.0
 10
-150.0270479633077
 20
193.9217427932241
 30
0.0
 10
-165.2198603360366
 20
189.5767748982926
 30
0.0
 10
-179.890048905982
 20
184.1063132786539
 30
0.0
 10
-193.9689284554025
 20
177.5826478616778
 30
0.0
 10
-207.3542880276753
 20
170.0066542392846
 30
0.0
 10
-217.958671083187
 20
163.1156909867941
 30
0.0
 10
-223.8148335041944
 20
158.4239994522824
 30
0.0
 10
-225.6976020291294
 20
156.9156107644626
 30
0.0
  0
SPLINE
  5
95
330
1B
100
AcDbEntity
 67
     1
  8
0
  6
Continuous
 62
     7
370
    25
100
AcDbSpline
210
0.0
220
0.0
230
1.0
 70
     8
 71
     3
 72
    16
 73
    12
 74
     0
 42
0.000000001
 43
0.00000001
 40
0.0
 40
0.0
 40
0.0
 40
0.0
 40
0.0543536457786985
 40
0.1694138869571529
 40
0.2851773662872492
 40
0.4019129575751997
 40
0.5197019022749606
 40
0.63851791114029
 40
0.7583676105075204
 40
0.8789699456326304
 40
1.0
 40
1.0
 40
1.0
 40
1.0
 10
225.6765210016034
 20
156.932158050339
 30
0.0
 10
223.7992354461219
 20
158.4359867788387
 30
0.0
 10
217.9479583454554
 20
163.1232431084371
 30
0.0
 10
207.3475251623292
 20
170.0107682385888
 30
0.0
 10
193.9591254891281
 20
177.5877677511517
 30
0.0
 10
179.8807418939118
 20
184.1101070093427
 30
0.0
 10
165.2201460083516
 20
189.5761854502521
 30
0.0
 10
150.0409409886051
 20
193.9179360757892
 30
0.0
 10
134.4445556501542
 20
197.0471892290151
 30
0.0
 10
118.548985791063
 20
199.0254751723827
 30
0.0
 10
107.8559712488842
 20
199.266299556178
 30
0.0
 10
102.4999999980547
 20
199.3869248925617
 30
0.0
  0
SPLINE
  5
96
330
1B
100
AcDbEntity
 67
     1
  8
0
  6
Continuous
 62
     7
370
    25
100
AcDbSpline
210
0.0
220
0.0
230
1.0
 70
     8
 71
     3
 72
    16
 73
    12
 74
     0
 42
0.000000001
 43
0.00000001
 40
0.0
 40
0.0
 40
0.0
 40
0.0
 40
0.1208751807472775
 40
0.2413816444944555
 40
0.3612566838437216
 40
0.4802316359203375
 40
0.5980787652689905
 40
0.7147630733642311
 40
0.8304719192947186
 40
0.9454964283576389
 40
1.0
 40
1.0
 40
1.0
 40
1.0
 10
102.499999998148
 20
-199.3869248914252
 30
0.0
 10
107.8501943100054
 20
-199.266556645319
 30
0.0
 10
118.5342627298172
 20
-199.0261873237561
 30
0.0
 10
134.4233179462689
 20
-197.0505627255914
 30
0.0
 10
150.0270751937047
 20
-193.9217366222099
 30
0.0
 10
165.2199045566487
 20
-189.5767605220542
 30
0.0
 10
179.8900997251553
 20
-184.1062919514523
 30
0.0
 10
193.968973146375
 20
-177.5826255720121
 30
0.0
 10
207.3543180990212
 20
-170.0066352796792
 30
0.0
 10
217.9586852460497
 20
-163.1156809980746
 30
0.0
 10
223.81483837106
 20
-158.423996204876
 30
0.0
 10
225.697601746129
 20
-156.9156114158451
 30
0.0
  0
SPLINE
  5
99
330
1B
100
AcDbEntity
 67
     1
  8
0
  6
Continuous
 62
     7
370
    25
100
AcDbSpline
210
0.0
220
0.0
230
1.0
 70
     8
 71
     3
 72
    75
 73
    71
 74
     0
 42
0.000000001
 43
0.00000001
 40
0.0
 40
0.0
 40
0.0
 40
0.0
 40
0.0024045641589505
 40
0.0048091281922176
 40
0.0072136921095384
 40
0.0096182559206513
 40
0.0120228196352926
 40
0.0144273832631997
 40
0.0168319468141102
 40
0.0192365102977615
 40
0.0216410737238909
 40
0.0240456371022352
 40
0.0264502004425327
 40
0.0288547637545196
 40
0.0312593270479342
 40
0.0344208932937997
 40
0.0406840504735258
 40
0.0500486501887826
 40
0.0625144704344438
 40
0.0929293399651617
 40
0.1250153825340388
 40
0.145317657696871
 40
0.1729225457630526
 40
0.2078264136726009
 40
0.2500246676674995
 40
0.3000929384261918
 40
0.3468019853585951
 40
0.3901505033920183
 40
0.4301372818190065
 40
0.4667612044660707
 40
0.5000212499280324
 40
0.5403314368211101
 40
0.5854804871589919
 40
0.6354657886632117
 40
0.6902844474386349
 40
0.7499332885572015
 40
0.7842741026638504
 40
0.813948863208235
 40
0.8389559739180377
 40
0.8592940896227327
 40
0.8749621163438762
 40
0.8792737688178475
 40
0.8835854211750421
 40
0.8878970734180109
 40
0.8922087255493054
 40
0.8965203775714765
 40
0.9008320294870764
 40
0.9051436812986554
 40
0.909455333008765
 40
0.9137669846199572
 40
0.9180786361347821
 40
0.9223902875557923
 40
0.9267019388855379
 40
0.9310135901265707
 40
0.9353252412814421
 40
0.9396368923527034
 40
0.9439485433429056
 40
0.9482601942545997
 40
0.9525718450903379
 40
0.9568834958526709
 40
0.9611951465441498
 40
0.9655067971673261
 40
0.9698184477247516
 40
0.9741300982189767
 40
0.9784417486525533
 40
0.9827533990280324
 40
0.9870650493479651
 40
0.9913766996149034
 40
0.995688349831398
 40
1.0
 40
1.0
 40
1.0
 40
1.0
 10
-102.5000000019453
 20
190.0000000005682
 30
0.0
 10
-102.9781505851294
 20
189.9989579028196
 30
0.0
 10
-103.9344517265053
 20
189.9968737073767
 30
0.0
 10
-105.3688217402363
 20
189.9800160891066
 30
0.0
 10
-106.8030282314235
 20
189.9531074515682
 30
0.0
 10
-108.2369894600993
 20
189.9151634510464
 30
0.0
 10
-109.6706236907545
 20
189.8664504152951
 30
0.0
 10
-111.1038492091004
 20
189.8069003380323
 30
0.0
 10
-112.5365843233357
 20
189.7365355796964
 30
0.0
 10
-113.9687473702604
 20
189.6553550688709
 30
0.0
 10
-115.4002567174908
 20
189.5633647946979
 30
0.0
 10
-116.8310307764135
 20
189.4605696344192
 30
0.0
 10
-118.2609879760715
 20
189.3469755492178
 30
0.0
 10
-119.6900468825691
 20
189.2225889715183
 30
0.0
 10
-121.2679880466885
 20
189.0732321483546
 30
0.0
 10
-123.6077942320593
 20
188.8311160396951
 30
0.0
 10
-127.3183572376803
 20
188.3915833398376
 30
0.0
 10
-132.8490746349381
 20
187.5984083217687
 30
0.0
 10
-143.0783793112434
 20
185.7717820274177
 30
0.0
 10
-157.5675102846257
 20
182.1641926196446
 30
0.0
 10
-173.1059000294895
 20
176.6286696911427
 30
0.0
 10
-187.609358375302
 20
170.0736815590398
 30
0.0
 10
-202.0815323035269
 20
162.1734044209293
 30
0.0
 10
-219.3254782042445
 20
150.4301679405486
 30
0.0
 10
-238.409728212704
 20
133.7273962422636
 30
0.0
 10
-256.4337431298206
 20
112.6231068496104
 30
0.0
 10
-271.1622890927809
 20
88.85292035310502
 30
0.0
 10
-281.5792345733045
 20
65.096697726958
 30
0.0
 10
-288.2421202617402
 20
42.12691675204875
 30
0.0
 10
-291.7733592286487
 20
20.51687722134629
 30
0.0
 10
-292.9193870098704
 20
-1.403448617362923
 30
0.0
 10
-291.4217326780904
 20
-25.02772012387049
 30
0.0
 10
-286.1172956931661
 20
-51.52525892740413
 30
0.0
 10
-275.9324581366253
 20
-79.68198791828524
 30
0.0
 10
-259.8418012655692
 20
-108.332491295699
 30
0.0
 10
-240.843989238032
 20
-131.2655036642694
 30
0.0
 10
-222.5090046233977
 20
-147.7151771251705
 30
0.0
 10
-208.1920500803826
 20
-158.1716587788883
 30
0.0
 10
-195.4217825836719
 20
-165.9120358036764
 30
0.0
 10
-184.6180582033208
 20
-171.4506372797659
 30
0.0
 10
-177.2852638376083
 20
-174.7005411138146
 30
0.0
 10
-172.809914473071
 20
-176.5183309174258
 30
0.0
 10
-170.4139012659388
 20
-177.4539586582127
 30
0.0
 10
-168.0054517809107
 20
-178.3570608321039
 30
0.0
 10
-165.5849948517383
 20
-179.2274778245399
 30
0.0
 10
-163.1529774233025
 20
-180.065048540702
 30
0.0
 10
-160.7098442958782
 20
-180.8696199069644
 30
0.0
 10
-158.256043449178
 20
-181.6410443609525
 30
0.0
 10
-155.7920245118394
 20
-182.3791805586383
 30
0.0
 10
-153.318239067125
 20
-183.083893218025
 30
0.0
 10
-150.8351404661717
 20
-183.7550531927644
 30
0.0
 10
-148.3431837727737
 20
-184.3925374827415
 30
0.0
 10
-145.8428256725172
 20
-184.9962292601253
 30
0.0
 10
-143.334524391089
 20
-185.5660178898255
 30
0.0
 10
-140.8187396097632
 20
-186.1017989500712
 30
0.0
 10
-138.2959323813018
 20
-186.6034742512919
 30
0.0
 10
-135.7665650454224
 20
-187.0709518548291
 30
0.0
 10
-133.2311011440775
 20
-187.5041460871747
 30
0.0
 10
-130.690005336502
 20
-187.9029775653965
 30
0.0
 10
-128.1437433140582
 20
-188.2673731754008
 30
0.0
 10
-125.5927817148911
 20
-188.5972662207461
 30
0.0
 10
-123.0375880384102
 20
-188.892595929496
 30
0.0
 10
-120.4786305596159
 20
-189.1533093514205
 30
0.0
 10
-117.916378243274
 20
-189.3793543288181
 30
0.0
 10
-115.3513006579957
 20
-189.5707057755323
 30
0.0
 10
-112.7838678900988
 20
-189.7272676426051
 30
0.0
 10
-110.2145504577625
 20
-189.8492388221893
 30
0.0
 10
-107.6438192236656
 20
-189.9357476048265
 30
0.0
 10
-105.0721453129223
 20
-189.9899479778927
 30
0.0
 10
-103.3573817690965
 20
-189.9966493255979
 30
0.0
 10
-102.5000000019453
 20
-189.9999999994318
 30
0.0
  0
SPLINE
  5
9A
330
1B
100
AcDbEntity
 67
     1
  8
0
  6
Continuous
 62
     7
370
    25
100
AcDbSpline
210
0.0
220
0.0
230
1.0
 70
     8
 71
     3
 72
    31
 73
    27
 74
     0
 42
0.000000001
 43
0.00000001
 40
0.0
 40
0.0
 40
0.0
 40
0.0
 40
0.0227524720815254
 40
0.0661113948088087
 40
0.1094815676638541
 40
0.1528398536991899
 40
0.1962015730978952
 40
0.2395787208858403
 40
0.2829865011185226
 40
0.326401506307482
 40
0.3697996188973344
 40
0.4131956838018558
 40
0.4566012733964327
 40
0.500031210621023
 40
0.543460442486564
 40
0.586864624139851
 40
0.6302596522640668
 40
0.6736583016967946
 40
0.717076661337232
 40
0.7604871793087555
 40
0.8038636502718732
 40
0.84722349126702
 40
0.890581051270868
 40
0.9339539694158909
 40
0.9773157814558432
 40
1.0
 40
1.0
 40
1.0
 40
1.0
 10
-225.663143712469
 20
-156.9145091999185
 30
0.0
 10
-227.8429708569602
 20
-155.2472538669739
 30
0.0
 10
-234.1768502019407
 20
-150.4027439970818
 30
0.0
 10
-243.8137034130292
 20
-141.3417357234461
 30
0.0
 10
-254.534641339096
 20
-129.8801786442858
 30
0.0
 10
-264.2824858604792
 20
-117.5663546543247
 30
0.0
 10
-273.042965191021
 20
-104.5354646439814
 30
0.0
 10
-280.7503921081071
 20
-90.84691085023104
 30
0.0
 10
-287.3616281520252
 20
-76.58988721554633
 30
0.0
 10
-292.827016271636
 20
-61.85266942396222
 30
0.0
 10
-297.115562304854
 20
-46.73259899606853
 30
0.0
 10
-300.1978223866083
 20
-31.32234011994494
 30
0.0
 10
-302.0548321156257
 20
-15.71318472798111
 30
0.0
 10
-302.6771176379729
 20
-0.0021913165154637
 30
0.0
 10
-302.0551978743398
 20
15.70864662230725
 30
0.0
 10
-300.1985888724189
 20
31.31746609094765
 30
0.0
 10
-297.1167751570741
 20
46.727577456586
 30
0.0
 10
-292.8285529360226
 20
61.84809948649143
 30
0.0
 10
-287.3631868962224
 20
76.58618083478679
 30
0.0
 10
-280.7519700953106
 20
90.84393565334345
 30
0.0
 10
-273.0447150411318
 20
104.5326137504084
 30
0.0
 10
-264.2846850717265
 20
117.5633208464373
 30
0.0
 10
-254.537127023274
 20
129.8774048315791
 30
0.0
 10
-243.815862815405
 20
141.3394448009904
 30
0.0
 10
-234.184943430642
 20
150.3957645246393
 30
0.0
 10
-227.8574834112375
 20
155.2356807904259
 30
0.0
 10
-225.6842493101087
 20
156.8980020130269
 30
0.0
  0
SPLINE
  5
9B
330
1B
100
AcDbEntity
 67
     1
  8
0
  6
Continuous
 62
     7
370
    25
100
AcDbSpline
210
0.0
220
0.0
230
1.0
 70
     8
 71
     3
 72
    75
 73
    71
 74
     0
 42
0.000000001
 43
0.00000001
 40
0.0
 40
0.0
 40
0.0
 40
0.0
 40
0.0024045632565566
 40
0.0048091263874294
 40
0.0072136894023556
 40
0.0096182523110727
 40
0.012022815123318
 40
0.014427377848829
 40
0.0168319404973431
 40
0.0192365030785976
 40
0.02164106560233
 40
0.0240456280782776
 40
0.0264501905161779
 40
0.0288547529257682
 40
0.031259315316786
 40
0.0344208831606286
 40
0.0406840471436158
 40
0.0500486588667589
 40
0.0625144963239018
 40
0.0929293591080504
 40
0.1250154872802285
 40
0.1453175248241016
 40
0.1729223368909799
 40
0.2078262902701352
 40
0.2500247909890511
 40
0.3000930681625386
 40
0.3468021104577731
 40
0.3901506127935912
 40
0.4301373644549935
 40
0.4667612492618744
 40
0.5000212458033697
 40
0.5403313416770412
 40
0.5854803346292858
 40
0.6354656123486095
 40
0.6902842809010072
 40
0.7499331653137118
 40
0.7842743575636126
 40
0.8139493087485624
 40
0.8389564224576197
 40
0.8592943534119231
 40
0.874962007554989
 40
0.8792736637802981
 40
0.8835853198888306
 40
0.887896975883138
 40
0.8922086317657715
 40
0.8965202875392819
 40
0.9008319432062207
 40
0.9051435987691396
 40
0.9094552542305894
 40
0.9137669095931217
 40
0.9180785648592871
 40
0.9223902200316378
 40
0.9267018751127242
 40
0.9310135301050982
 40
0.9353251850113108
 40
0.9396368398339136
 40
0.9439484945754572
 40
0.9482601492384931
 40
0.952571803825573
 40
0.9568834583392479
 40
0.961195112782069
 40
0.9655067671565877
 40
0.969818421465355
 40
0.9741300757109225
 40
0.9784417298958413
 40
0.9827533840226627
 40
0.9870650380939382
 40
0.9913766921122185
 40
0.9956883460800556
 40
1.0
 40
1.0
 40
1.0
 40
1.0
 10
102.4999999980547
 20
-189.9999999994318
 30
0.0
 10
102.9781504014342
 20
-189.9989579024668
 30
0.0
 10
103.9344511832008
 20
-189.9968737085914
 30
0.0
 10
105.3688206576104
 20
-189.9800161029995
 30
0.0
 10
106.8030266096606
 20
-189.9531074856976
 30
0.0
 10
108.236987299476
 20
-189.9151635137097
 30
0.0
 10
109.6706209916398
 20
-189.866450514588
 30
0.0
 10
111.1038459719553
 20
-189.8069004820991
 30
0.0
 10
112.5365805487133
 20
-189.7365357766625
 30
0.0
 10
113.9687430588059
 20
-189.6553553268594
 30
0.0
 10
115.4002518699412
 20
-189.5633651218236
 30
0.0
 10
116.831025393598
 20
-189.4605700387899
 30
0.0
 10
118.2609820589111
 20
-189.3469760389316
 30
0.0
 10
119.6900404320764
 20
-189.2225895546644
 30
0.0
 10
121.2679815593507
 20
-189.0732327914871
 30
0.0
 10
123.6077892345654
 20
-188.8311166100223
 30
0.0
 10
127.3183562777404
 20
-188.3915835117432
 30
0.0
 10
132.8490807575941
 20
-187.5984074312653
 30
0.0
 10
143.0783897375865
 20
-185.7717797961625
 30
0.0
 10
157.5675389724903
 20
-182.1641847616813
 30
0.0
 10
173.1058980478423
 20
-176.6286693509173
 30
0.0
 10
187.6093150784702
 20
-170.0737006629168
 30
0.0
 10
202.0814532805088
 20
-162.1734531190572
 30
0.0
 10
219.3254476493271
 20
-150.4301968328913
 30
0.0
 10
238.4097491928634
 20
-133.7273800167044
 30
0.0
 10
256.4337878414106
 20
-112.6230457662979
 30
0.0
 10
271.1623228063604
 20
-88.85285573868975
 30
0.0
 10
281.5792557085853
 20
-65.0966379477447
 30
0.0
 10
288.2421299681262
 20
-42.12687043235291
 30
0.0
 10
291.773360935569
 20
-20.51685264112757
 30
0.0
 10
292.9193854557867
 20
1.403437783760514
 30
0.0
 10
291.4217373210098
 20
25.02766993270812
 30
0.0
 10
286.1173174585061
 20
51.52517688024071
 30
0.0
 10
275.9324993871306
 20
79.68189759712239
 30
0.0
 10
259.8418550720326
 20
108.3324148312022
 30
0.0
 10
240.8439984398083
 20
131.2655023876973
 30
0.0
 10
222.5089188637422
 20
147.7152542003275
 30
0.0
 10
208.1918606050296
 20
158.171787432232
 30
0.0
 10
195.4215807286715
 20
165.9121474303463
 30
0.0
 10
184.6179484372931
 20
171.4506864252656
 30
0.0
 10
177.2852541315737
 20
174.7005437751168
 30
0.0
 10
172.8099726377199
 20
176.5183077600383
 30
0.0
 10
170.4139576507537
 20
177.4539370894537
 30
0.0
 10
168.0055063535039
 20
178.3570407996
 30
0.0
 10
165.5850475813477
 20
179.2274592750774
 30
0.0
 10
163.153028280134
 20
180.0650314205901
 30
0.0
 10
160.7098932512934
 20
180.8696041619645
 30
0.0
 10
158.2560904756557
 20
181.6410299363226
 30
0.0
 10
155.7920695829962
 20
182.3791673991473
 30
0.0
 10
153.31828215772
 20
183.0838812679754
 30
0.0
 10
150.8351815521158
 20
183.7550423960121
 30
0.0
 10
148.3432228311358
 20
184.3925277827173
 30
0.0
 10
145.842862681532
 20
184.9962205998558
 30
0.0
 10
143.3345593301637
 20
185.5660102119547
 30
0.0
 10
140.8187724594831
 20
186.1017921968812
 30
0.0
 10
138.295963123437
 20
186.6034683647248
 30
0.0
 10
135.7665936629328
 20
187.0709467765082
 30
0.0
 10
133.2311276211186
 20
187.5041417584264
 30
0.0
 10
130.6900296584294
 20
187.9029739272717
 30
0.0
 10
128.1437654674318
 20
188.2673701686968
 30
0.0
 10
125.5928016874793
 20
188.5972637860282
 30
0.0
 10
123.0376058191947
 20
188.8925940071197
 30
0.0
 10
120.4786461387932
 20
189.1533078815546
 30
0.0
 10
117.9163916122607
 20
189.3793532514583
 30
0.0
 10
115.3513118094284
 20
189.5707050305586
 30
0.0
 10
112.7838768178386
 20
189.7272671696694
 30
0.0
 10
110.2145571568962
 20
189.8492385612398
 30
0.0
 10
107.6438236905064
 20
189.9357474942569
 30
0.0
 10
105.0721475450121
 20
189.9899479615522
 30
0.0
 10
103.3573825105327
 20
189.9966493209087
 30
0.0
 10
102.4999999980548
 20
190.0000000005682
 30
0.0
  0
SPLINE
  5
9C
330
1B
100
AcDbEntity
 67
     1
  8
0
  6
Continuous
 62
     7
370
    25
100
AcDbSpline
210
0.0
220
0.0
230
1.0
 70
     8
 71
     3
 72
    31
 73
    27
 74
     0
 42
0.000000001
 43
0.00000001
 40
0.0
 40
0.0
 40
0.0
 40
0.0
 40
0.0227525899754817
 40
0.0661116152379426
 40
0.1094818841509424
 40
0.1528401023766201
 40
0.1962016978967238
 40
0.2395787750707231
 40
0.2829866407593255
 40
0.3264017272753882
 40
0.3697997599485623
 40
0.413195690863645
 40
0.4566012014809643
 40
0.500031217578663
 40
0.543460594638539
 40
0.586864832282731
 40
0.6302598330174655
 40
0.6736583723508354
 40
0.7170765346560165
 40
0.7604868565666559
 40
0.8038632224501066
 40
0.8472230465796663
 40
0.8905806784422028
 40
0.9339537614905662
 40
0.9773157092383233
 40
1.0
 40
1.0
 40
1.0
 40
1.0
 10
225.6631403965066
 20
156.9145133564872
 30
0.0
 10
227.8429786418143
 20
155.2472490351918
 30
0.0
 10
234.1768785411239
 20
150.4027219976892
 30
0.0
 10
243.8137561398643
 20
141.3416834593849
 30
0.0
 10
254.5347016761819
 20
129.8801114181056
 30
0.0
 10
264.2825319520592
 20
117.5662904910164
 30
0.0
 10
273.0429894690329
 20
104.5354238634356
 30
0.0
 10
280.7504095561719
 20
90.84688097401462
 30
0.0
 10
287.3616458762041
 20
76.58984432552258
 30
0.0
 10
292.8270358254446
 20
61.85261569493259
 30
0.0
 10
297.1155712499472
 20
46.73255857697069
 30
0.0
 10
300.1978225897734
 20
31.32233392622394
 30
0.0
 10
302.0548330486499
 20
15.71319463715134
 30
0.0
 10
302.6771182263428
 20
0.0021833311889373
 30
0.0
 10
302.0551957451796
 20
-15.70868867874782
 30
0.0
 10
300.1985790400807
 20
-31.31752870845464
 30
0.0
 10
297.1167618815196
 20
-46.72762960834893
 30
0.0
 10
292.828547215087
 20
-61.84811197901686
 30
0.0
 10
287.3632032395707
 20
-76.58613682879344
 30
0.0
 10
280.7520174948191
 20
-90.84383987373424
 30
0.0
 10
273.0447905903481
 20
-104.5324899985779
 30
0.0
 10
264.2847742482809
 20
-117.5631992876361
 30
0.0
 10
254.5372087354582
 20
-129.8773116736759
 30
0.0
 10
243.8159193287758
 20
-141.3393900970515
 30
0.0
 10
234.1849697312583
 20
-150.39574397284
 30
0.0
 10
227.857489972318
 20
-155.235675967847
 30
0.0
 10
225.6842490144712
 20
-156.8980026516868
 30
0.0
  0
SPLINE
  5
9F
330
1B
100
AcDbEntity
 67
     1
  8
0
  6
Continuous
 62
     7
370
    25
100
AcDbSpline
210
0.0
220
0.0
230
1.0
 70
     8
 71
     3
 72
    24
 73
    20
 74
     0
 42
0.000000001
 43
0.00000001
 40
0.0
 40
0.0
 40
0.0
 40
0.0
 40
0.1249999999999889
 40
0.1249999999999889
 40
0.2499999999999778
 40
0.2499999999999778
 40
0.3124999999999725
 40
0.3124999999999725
 40
0.3749999999999672
 40
0.3749999999999672
 40
0.4999999999999671
 40
0.4999999999999671
 40
0.624999999999967
 40
0.624999999999967
 40
0.6874999999999724
 40
0.6874999999999724
 40
0.7499999999999777
 40
0.7499999999999777
 40
1.0
 40
1.0
 40
1.0
 40
1.0
 10
273.1742542305474
 20
78.7743622879881
 30
0.0
 10
272.9193796689593
 20
79.30773270730316
 30
0.0
 10
272.6122406989325
 20
79.81536167293935
 30
0.0
 10
271.9252827689599
 20
80.75102498149182
 30
0.0
 10
271.5446559262239
 20
81.1821760381498
 30
0.0
 10
270.9237858630555
 20
81.77926451947921
 30
0.0
 10
270.7084566461951
 20
81.96997082279593
 30
0.0
 10
270.2615126598914
 20
82.3351334699012
 30
0.0
 10
270.0289151846007
 20
82.51018776454644
 30
0.0
 10
269.3194328970964
 20
83.00302307959737
 30
0.0
 10
268.8283528461569
 20
83.29126271481093
 30
0.0
 10
267.815019346054
 20
83.7972427940529
 30
0.0
 10
267.2927274777373
 20
84.0149016896744
 30
0.0
 10
266.487925855519
 20
84.29237744661265
 30
0.0
 10
266.2152476690878
 20
84.3768767227002
 30
0.0
 10
265.6686630800558
 20
84.52834957836912
 30
0.0
 10
265.3944831756322
 20
84.59548220507115
 30
0.0
 10
264.0195407647232
 20
84.8908556231712
 30
0.0
 10
262.9068936111028
 20
85.00000000056815
 30
0.0
 10
261.7842937667708
 20
85.00000000056814
 30
0.0
  0
SPLINE
  5
A1
330
1B
100
AcDbEntity
 67
     1
  8
0
  6
Continuous
 62
     7
370
    25
100
AcDbSpline
210
0.0
220
0.0
230
1.0
 70
     8
 71
     3
 72
     8
 73
     4
 74
     0
 42
0.000000001
 43
0.00000001
 40
0.0
 40
0.0
 40
0.0
 40
0.0
 40
1.0
 40
1.0
 40
1.0
 40
1.0
 10
261.7842937667709
 20
95.00000000056801
 30
0.0
 10
263.6941211730318
 20
95.000000000568
 30
0.0
 10
265.5776992567766
 20
94.77962607905265
 30
0.0
 10
267.4336242775159
 20
94.32709325390475
 30
0.0
  0
SPLINE
  5
A2
330
1B
100
AcDbEntity
 67
     1
  8
0
  6
Continuous
 62
     7
370
    25
100
AcDbSpline
210
0.0
220
0.0
230
1.0
 70
     8
 71
     3
 72
    12
 73
     8
 74
     0
 42
0.000000001
 43
0.00000001
 40
0.0
 40
0.0
 40
0.0
 40
0.0
 40
0.2052122507189076
 40
0.4326732078919742
 40
0.6666658474676201
 40
0.9986335274018485
 40
0.9999999999999999
 40
0.9999999999999999
 40
0.9999999999999999
 40
0.9999999999999999
 10
280.11785670283
 20
67.24341693065352
 30
0.0
 10
279.7156711718608
 20
68.2058457993313
 30
0.0
 10
278.8676959499014
 20
70.23504817160604
 30
0.0
 10
277.3195015397072
 20
73.00693953819099
 30
0.0
 10
275.4234218242204
 20
75.97894652513486
 30
0.0
 10
274.0142077298354
 20
77.78472372208752
 30
0.0
 10
273.1776834844965
 20
78.77032191913082
 30
0.0
 10
273.1742542305474
 20
78.77436228798837
 30
0.0
  0
SPLINE
  5
A3
330
1B
100
AcDbEntity
 67
     1
  8
0
  6
Continuous
 62
     7
370
    25
100
AcDbSpline
210
0.0
220
0.0
230
1.0
 70
     8
 71
     3
 72
     8
 73
     4
 74
     0
 42
0.000000001
 43
0.00000001
 40
0.0
 40
0.0
 40
0.0
 40
0.0
 40
1.0
 40
1.0
 40
1.0
 40
1.0
 10
-267.4336435717849
 20
94.32708870466973
 30
0.0
 10
-265.5777126128633
 20
94.77962460489101
 30
0.0
 10
-263.6941283046045
 20
95.00000000056922
 30
0.0
 10
-261.7842944074503
 20
95.00000000056923
 30
0.0
  0
SPLINE
  5
A5
330
1B
100
AcDbEntity
 67
     1
  8
0
  6
Continuous
 62
     7
370
    25
100
AcDbSpline
210
0.0
220
0.0
230
1.0
 70
     8
 71
     3
 72
    24
 73
    20
 74
     0
 42
0.000000001
 43
0.00000001
 40
0.0
 40
0.0
 40
0.0
 40
0.0
 40
0.2500000000000282
 40
0.2500000000000282
 40
0.31250000000003
 40
0.31250000000003
 40
0.3750000000000318
 40
0.3750000000000318
 40
0.5000000000000246
 40
0.5000000000000246
 40
0.6250000000000175
 40
0.6250000000000175
 40
0.6875000000000148
 40
0.6875000000000148
 40
0.7500000000000121
 40
0.7500000000000121
 40
0.8750000000000061
 40
0.8750000000000061
 40
1.0
 40
1.0
 40
1.0
 40
1.0
 10
-261.7842944074502
 20
85.00000000056824
 30
0.0
 10
-262.9068941401594
 20
85.00000000056825
 30
0.0
 10
-264.0195411840476
 20
84.89085564414029
 30
0.0
 10
-265.394483461347
 20
84.59548228657087
 30
0.0
 10
-265.6686633392332
 20
84.52834967373889
 30
0.0
 10
-266.2152478756222
 20
84.37687684978563
 30
0.0
 10
-266.4879260381377
 20
84.29237759093813
 30
0.0
 10
-267.2927275928203
 20
84.01490189015836
 30
0.0
 10
-267.8150194191647
 20
83.79724303887883
 30
0.0
 10
-268.8283528428561
 20
83.29126306502539
 30
0.0
 10
-269.3194328593235
 20
83.00302349078895
 30
0.0
 10
-270.0289151028118
 20
82.5101882839852
 30
0.0
 10
-270.2615125688104
 20
82.33513402553024
 30
0.0
 10
-270.7084565456001
 20
81.96997144960844
 30
0.0
 10
-270.9237857594853
 20
81.77926518363192
 30
0.0
 10
-271.5446558197626
 20
81.18217682022735
 30
0.0
 10
-271.9252826684641
 20
80.75102584990785
 30
0.0
 10
-272.6122406325749
 20
79.81536273568238
 30
0.0
 10
-272.9193796384032
 20
79.30773386935945
 30
0.0
 10
-273.1742542547655
 20
78.7743635439358
 30
0.0
  0
SPLINE
  5
A6
330
1B
100
AcDbEntity
 67
     1
  8
0
  6
Continuous
 62
     7
370
    25
100
AcDbSpline
210
0.0
220
0.0
230
1.0
 70
     8
 71
     3
 72
    12
 73
     8
 74
     0
 42
0.000000001
 43
0.00000001
 40
0.0
 40
0.0
 40
0.0
 40
0.0
 40
0.0013667826890999
 40
0.3334099093929282
 40
0.5613065288931494
 40
0.7949632674031268
 40
0.9999999999999999
 40
0.9999999999999999
 40
0.9999999999999999
 40
0.9999999999999999
 10
-273.1742542547655
 20
78.77436354393616
 30
0.0
 10
-273.1776835088356
 20
78.77032317622204
 30
0.0
 10
-274.0142080697215
 20
77.78472492112036
 30
0.0
 10
-275.4082420720201
 20
75.99835756659138
 30
0.0
 10
-277.3048196867074
 20
73.03175075456129
 30
0.0
 10
-278.8549942063753
 20
70.26458182627938
 30
0.0
 10
-279.7147073059969
 20
68.20779446751467
 30
0.0
 10
-280.1165203634659
 20
67.24649235690052
 30
0.0
  0
CIRCLE
  5
A8
330
1B
100
AcDbEntity
 67
     1
  8
0
  6
Continuous
 62
     7
370
    25
100
AcDbCircle
 10
-0.0000000019
 20
126.3869248857
 30
0.0
 40
22.00000000000001
  0
SPLINE
  5
A9
330
1B
100
AcDbEntity
 67
     1
  8
0
  6
Continuous
 62
     7
370
    25
100
AcDbSpline
210
0.0
220
0.0
230
1.0
 70
     8
 71
     3
 72
    10
 73
     6
 74
     0
 42
0.000000001
 43
0.00000001
 40
0.0
 40
0.0
 40
0.0
 40
0.0
 40
0.4003098946659907
 40
0.4003098946659907
 40
1.0
 40
1.0
 40
1.0
 40
1.0
 10
-102.5000000019686
 20
-189.9999999994318
 30
0.0
 10
-98.17792647453213
 20
-179.6831602869146
 30
0.0
 10
-92.96415600765536
 20
-165.1679741901149
 30
0.0
 10
-78.7673603748033
 20
-121.7717166981091
 30
0.0
 10
-69.20037437199231
 20
-89.3362645971027
 30
0.0
 10
-60.0000000019453
 20
-54.99999999943178
 30
0.0
  0
SPLINE
  5
AB
330
1B
100
AcDbEntity
 67
     1
  8
0
  6
Continuous
 62
     7
370
    25
100
AcDbSpline
210
0.0
220
0.0
230
1.0
 70
     8
 71
     3
 72
    10
 73
     6
 74
     0
 42
0.000000001
 43
0.00000001
 40
0.0
 40
0.0
 40
0.0
 40
0.0
 40
0.4003098946659907
 40
0.4003098946659907
 40
1.0
 40
1.0
 40
1.0
 40
1.0
 10
102.4999999981458
 20
-189.9999999994318
 30
0.0
 10
98.17792647069315
 20
-179.6831602869165
 30
0.0
 10
92.9641560038025
 20
-165.1679741901181
 30
0.0
 10
78.76736037092331
 20
-121.7717166981133
 30
0.0
 10
69.20037436810263
 20
-89.33626459710602
 30
0.0
 10
59.99999999805474
 20
-54.99999999943178
 30
0.0
  0
SPLINE
  5
AC
330
1B
100
AcDbEntity
 67
     1
  8
0
  6
Continuous
 62
     7
370
    25
100
AcDbSpline
210
0.0
220
0.0
230
1.0
 70
     8
 71
     3
 72
    25
 73
    21
 74
     0
 42
0.000000001
 43
0.00000001
 40
0.0
 40
0.0
 40
0.0
 40
0.0
 40
0.2500000000000011
 40
0.2500000000000011
 40
0.3750000000000014
 40
0.3750000000000014
 40
0.4375000000000016
 40
0.4375000000000016
 40
0.5000000000000016
 40
0.5000000000000016
 40
0.7500000000000007
 40
0.7500000000000007
 40
0.8750000000000006
 40
0.8750000000000006
 40
0.9375000000000003
 40
0.9375000000000003
 40
0.9687499999999999
 40
0.9843749999999999
 40
0.9843749999999999
 40
1.0
 40
1.0
 40
1.0
 40
1.0
 10
-60.00000000194528
 20
75.00000000056822
 30
0.0
 10
-72.63240912761611
 20
75.00127681255468
 30
0.0
 10
-85.23923010158768
 20
75.00108721069367
 30
0.0
 10
-104.111491914737
 20
75.00899339349056
 30
0.0
 10
-110.3959082890192
 20
75.01281399548866
 30
0.0
 10
-119.8130116694677
 20
75.02071641271257
 30
0.0
 10
-122.9504588841922
 20
75.0237095272482
 30
0.0
 10
-129.2221719507752
 20
75.03045384248912
 30
0.0
 10
-132.356629530218
 20
75.03420547104757
 30
0.0
 10
-148.0003490962618
 20
75.05490428461272
 30
0.0
 10
-160.4404009284962
 20
75.07771533019458
 30
0.0
 10
-178.9884518915853
 20
75.12203914759019
 30
0.0
 10
-185.1524489825875
 20
75.13849344600898
 30
0.0
 10
-194.3703218548189
 20
75.16577130620752
 30
0.0
 10
-197.4388273648533
 20
75.17529859565708
 30
0.0
 10
-202.0322516695007
 20
75.19024156472356
 30
0.0
 10
-204.3265350807899
 20
75.19787568237425
 30
0.0
 10
-206.617175373117
 20
75.2057553794034
 30
0.0
 10
-208.1434592418705
 20
75.21106327315319
 30
0.0
 10
-208.9075842007717
 20
75.21374953239474
 30
0.0
 10
-209.6685284747646
 20
75.21645340515691
 30
0.0
  0
SPLINE
  5
AE
330
1B
100
AcDbEntity
 67
     1
  8
0
  6
Continuous
 62
     7
370
    25
100
AcDbSpline
210
0.0
220
0.0
230
1.0
 70
     8
 71
     3
 72
    38
 73
    34
 74
     0
 42
0.000000001
 43
0.00000001
 40
0.0
 40
0.0
 40
0.0
 40
0.0
 40
0.0019531249999997
 40
0.0019531249999997
 40
0.0039062499999995
 40
0.0078124999999999
 40
0.0156249999999999
 40
0.03125
 40
0.0625000000000001
 40
0.0625000000000001
 40
0.1250000000000004
 40
0.1250000000000004
 40
0.2500000000000009
 40
0.2500000000000009
 40
0.2812500000000008
 40
0.2812500000000008
 40
0.3125000000000007
 40
0.3125000000000007
 40
0.3750000000000004
 40
0.3750000000000004
 40
0.4999999999999993
 40
0.4999999999999993
 40
0.5624999999999999
 40
0.5624999999999999
 40
0.6250000000000003
 40
0.6250000000000003
 40
0.7500000000000001
 40
0.7500000000000001
 40
0.8750000000000001
 40
0.8750000000000001
 40
0.9375
 40
0.9375
 40
1.0
 40
1.0
 40
1.0
 40
1.0
 10
-209.6685284747646
 20
75.21645340515691
 30
0.0
 10
-209.7249900986273
 20
75.21665406733632
 30
0.0
 10
-209.7822600582242
 20
75.21947279412119
 30
0.0
 10
-209.8959301236457
 20
75.22250092394988
 30
0.0
 10
-210.0663732534784
 20
75.22705184395038
 30
0.0
 10
-210.4636402768034
 20
75.23773166157274
 30
0.0
 10
-211.2564411426401
 20
75.2593347345113
 30
0.0
 10
-212.8351195537394
 20
75.30351000379433
 30
0.0
 10
-214.1764334790752
 20
75.34302005906041
 30
0.0
 10
-216.8433226134117
 20
75.424192280052
 30
0.0
 10
-218.6002759062366
 20
75.48117663412894
 30
0.0
 10
-223.8081550087943
 20
75.66040306397693
 30
0.0
 10
-227.1963180470259
 20
75.79092353392707
 30
0.0
 10
-231.3235518781854
 20
75.96671095025897
 30
0.0
 10
-232.1445302138063
 20
76.0025440779355
 30
0.0
 10
-233.7664448864921
 20
76.07503020810317
 30
0.0
 10
-234.5682901106358
 20
76.11171987796297
 30
0.0
 10
-236.9467724353315
 20
76.22303860420453
 30
0.0
 10
-238.4963796001971
 20
76.29891740510428
 30
0.0
 10
-243.038452905652
 20
76.53083495499075
 30
0.0
 10
-245.9245365038565
 20
76.69116036371179
 30
0.0
 10
-250.0396309603882
 20
76.93729962866642
 30
0.0
 10
-251.375566596615
 20
77.02028681254497
 30
0.0
 10
-253.9745936788175
 20
77.1876364583629
 30
0.0
 10
-255.2392362904141
 20
77.27210641698888
 30
0.0
 10
-258.910875714487
 20
77.52611302667022
 30
0.0
 10
-261.1569537585547
 20
77.69348054833652
 30
0.0
 10
-265.2607223900075
 20
78.02021586824262
 30
0.0
 10
-267.1183513056265
 20
78.17958470568159
 30
0.0
 10
-269.6124770062443
 20
78.40988943049396
 30
0.0
 10
-270.395012515149
 20
78.48520256479476
 30
0.0
 10
-271.8607801508099
 20
78.63249519363985
 30
0.0
 10
-272.545315869792
 20
78.70462700726496
 30
0.0
 10
-273.1742542547654
 20
78.77436354393576
 30
0.0
  0
SPLINE
  5
B0
330
1B
100
AcDbEntity
 67
     1
  8
0
  6
Continuous
 62
     7
370
    25
100
AcDbSpline
210
0.0
220
0.0
230
1.0
 70
     8
 71
     3
 72
    16
 73
    12
 74
     0
 42
0.000000001
 43
0.00000001
 40
0.0
 40
0.0
 40
0.0
 40
0.0
 40
0.2500000000000001
 40
0.2500000000000001
 40
0.5000000000000001
 40
0.5000000000000001
 40
0.6250000000000001
 40
0.6250000000000001
 40
0.7500000000000002
 40
0.7500000000000002
 40
1.0
 40
1.0
 40
1.0
 40
1.0
 10
209.6685278193154
 20
75.2164533401923
 30
0.0
 10
197.4752980982028
 20
75.17312700445993
 30
0.0
 10
185.1690000995202
 20
75.1368066102579
 30
0.0
 10
160.4317225846867
 20
75.07769659548978
 30
0.0
 10
147.9927711519189
 20
75.05489360311522
 30
0.0
 10
129.22876328202
 20
75.03006719951519
 30
0.0
 10
122.9531504573041
 20
75.02335148016434
 30
0.0
 10
110.3947712860284
 20
75.0128130487101
 30
0.0
 10
104.1096063307577
 20
75.00899232758373
 30
0.0
 10
85.23621967033247
 20
75.0010865139466
 30
0.0
 10
72.63014108713429
 20
75.00127658337279
 30
0.0
 10
59.99999999805472
 20
75.00000000056828
 30
0.0
  0
SPLINE
  5
B1
330
1B
100
AcDbEntity
 67
     1
  8
0
  6
Continuous
 62
     7
370
    25
100
AcDbSpline
210
0.0
220
0.0
230
1.0
 70
     8
 71
     3
 72
    41
 73
    37
 74
     0
 42
0.000000001
 43
0.00000001
 40
0.0
 40
0.0
 40
0.0
 40
0.0
 40
0.0625000000000003
 40
0.0625000000000003
 40
0.1250000000000006
 40
0.1250000000000006
 40
0.2499999999999999
 40
0.2499999999999999
 40
0.3749999999999992
 40
0.3749999999999992
 40
0.4062499999999996
 40
0.4062499999999996
 40
0.4374999999999999
 40
0.4374999999999999
 40
0.5000000000000002
 40
0.5000000000000002
 40
0.6250000000000006
 40
0.6250000000000006
 40
0.750000000000001
 40
0.750000000000001
 40
0.7812500000000006
 40
0.7812500000000006
 40
0.8125000000000001
 40
0.8125000000000001
 40
0.8750000000000002
 40
0.8750000000000002
 40
0.9375000000000002
 40
0.9375000000000002
 40
0.9687500000000003
 40
0.9687500000000003
 40
0.9843750000000007
 40
0.9921875000000004
 40
0.9960937500000002
 40
0.9980468750000001
 40
0.9980468750000001
 40
1.0
 40
1.0
 40
1.0
 40
1.0
 10
273.1742542305475
 20
78.7743622879882
 30
0.0
 10
272.5463951805079
 20
78.7047454414358
 30
0.0
 10
271.8637040011947
 20
78.63278582853903
 30
0.0
 10
270.3908035157665
 20
78.48478037377954
 30
0.0
 10
269.6050134501475
 20
78.40917438649001
 30
0.0
 10
267.1029743518076
 20
78.17821354509202
 30
0.0
 10
265.2425299435259
 20
78.0187059956919
 30
0.0
 10
261.1427630753035
 20
77.69241058048446
 30
0.0
 10
258.9034678529021
 20
77.52562194167446
 30
0.0
 10
255.8615576523819
 20
77.31515268617548
 30
0.0
 10
255.2409960530242
 20
77.27296048934664
 30
0.0
 10
253.9751964546391
 20
77.18844704519267
 30
0.0
 10
253.3305991052947
 20
77.1461717567883
 30
0.0
 10
251.3734199614254
 20
77.02014299748464
 30
0.0
 10
250.0332847892738
 20
76.93690548783984
 30
0.0
 10
245.9094043360455
 20
76.69028254817826
 30
0.0
 10
243.0225332315284
 20
76.52999307924273
 30
0.0
 10
236.978259006375
 20
76.22143060094187
 30
0.0
 10
233.8208548203238
 20
76.07315071465247
 30
0.0
 10
229.7009124456352
 20
75.89758078533556
 30
0.0
 10
228.8670758041931
 20
75.86290990497493
 30
0.0
 10
227.1897786842732
 20
75.79492208494044
 30
0.0
 10
226.3459527317632
 20
75.76158686806761
 30
0.0
 10
223.7991041020669
 20
75.66359827048103
 30
0.0
 10
222.0807231178449
 20
75.60096214262458
 30
0.0
 10
218.6035438505605
 20
75.48128108865332
 30
0.0
 10
216.8447446095769
 20
75.42423600292162
 30
0.0
 10
214.1763499396403
 20
75.34301715694468
 30
0.0
 10
213.2818494752942
 20
75.31666898528029
 30
0.0
 10
211.9325342550423
 20
75.27825330715434
 30
0.0
 10
211.2559852469039
 20
75.25932211367943
 30
0.0
 10
210.4633628719349
 20
75.23772411332473
 30
0.0
 10
210.0662220192634
 20
75.22704774576154
 30
0.0
 10
209.8958409136052
 20
75.22249849542953
 30
0.0
 10
209.782213968839
 20
75.2194715206458
 30
0.0
 10
209.7253026254811
 20
75.21665511531877
 30
0.0
 10
209.6685278193154
 20
75.2164533401923
 30
0.0
  0
CIRCLE
  5
B2
330
1B
100
AcDbEntity
 67
     1
  8
0
  6
Continuous
 62
     7
370
    25
100
AcDbCircle
 10
-0.0000000019
 20
126.3869248857
 30
0.0
 40
21.0
  0
SPLINE
  5
B4
330
1B
100
AcDbEntity
 67
     1
  8
0
  6
Continuous
 62
     7
370
    25
100
AcDbSpline
210
0.0
220
0.0
230
1.0
 70
     8
 71
     3
 72
    14
 73
    10
 74
     0
 42
0.000000001
 43
0.00000001
 40
0.0
 40
0.0
 40
0.0
 40
0.0
 40
0.25
 40
0.25
 40
0.5
 40
0.5
 40
0.75
 40
0.75
 40
1.0
 40
1.0
 40
1.0
 40
1.0
 10
59.99005796233632
 20
85.00000000056825
 30
0.0
 10
59.99135937176859
 20
85.00000000056825
 30
0.0
 10
59.99266026915184
 20
84.73972676725143
 30
0.0
 10
59.99506496022763
 20
83.73786388411082
 30
0.0
 10
59.99616780777694
 20
82.99666842455005
 30
0.0
 10
59.99800827864627
 20
81.14546720031738
 30
0.0
 10
59.99874517781959
 20
80.03618980427726
 30
0.0
 10
59.99974123347651
 20
77.61747884416106
 30
0.0
 10
59.99999999805473
 20
76.30899693956401
 30
0.0
 10
59.99999999805472
 20
75.00000000056825
 30
0.0
  0
SPLINE
  5
B5
330
1B
100
AcDbEntity
 67
     1
  8
0
  6
Continuous
 62
     7
370
    25
100
AcDbSpline
210
0.0
220
0.0
230
1.0
 70
    24
 71
     3
 72
    14
 73
    10
 74
     0
 42
0.000000001
 43
0.00000001
 40
0.0
 40
0.0
 40
0.0
 40
0.0
 40
0.25
 40
0.25
 40
0.5
 40
0.5
 40
0.75
 40
0.75
 40
1.0
 40
1.0
 40
1.0
 40
1.0
 10
-60.00000000194527
 20
85.00000000056825
 30
0.0
 10
-60.00000000194527
 20
85.00000000056826
 30
0.0
 10
-60.00000000194528
 20
84.73972676725143
 30
0.0
 10
-60.00000000194527
 20
83.73786388411082
 30
0.0
 10
-60.00000000194528
 20
82.99666842455005
 30
0.0
 10
-60.00000000194527
 20
81.14546720031738
 30
0.0
 10
-60.00000000194528
 20
80.03618980427726
 30
0.0
 10
-60.00000000194527
 20
77.61747884416106
 30
0.0
 10
-60.00000000194528
 20
76.30899693956401
 30
0.0
 10
-60.00000000194527
 20
75.00000000056825
 30
0.0
  0
CIRCLE
  5
B7
330
1B
100
AcDbEntity
 67
     1
  8
0
  6
Continuous
 62
     7
370
    25
100
AcDbCircle
 10
-0.0000000019
 20
-4.9999999994
 30
0.0
 40
34.98368551069515
  0
CIRCLE
  5
B8
330
1B
100
AcDbEntity
 67
     1
  8
0
  6
Continuous
 62
     7
370
    25
100
AcDbCircle
 10
-0.0000000019
 20
-4.9999999994
 30
0.0
 40
29.24343402521879
  0
CIRCLE
  5
B9
330
1B
100
AcDbEntity
 67
     1
  8
0
  6
Continuous
 62
     7
370
    25
100
AcDbCircle
 10
-0.0000000019
 20
-4.9999999994
 30
0.0
 40
23.85194970290474
  0
CIRCLE
  5
BA
330
1B
100
AcDbEntity
 67
     1
  8
0
  6
Continuous
 62
     7
370
    25
100
AcDbCircle
 10
-0.0000000019
 20
-4.9999999994
 30
0.0
 40
22.0
  0
LINE
  5
BF
330
1B
100
AcDbEntity
 67
     1
  8
0
  6
Continuous
 62
     7
370
    25
100
AcDbLine
 10
102.4999999981
 20
199.3869248926
 30
0.0
 11
-102.5000000019
 21
199.3869248926
 31
0.0
  0
LINE
  5
C0
330
1B
100
AcDbEntity
 67
     1
  8
0
  6
Continuous
 62
     7
370
    25
100
AcDbLine
 10
-102.500000002
 20
-199.3869248914
 30
0.0
 11
102.4999999981
 21
-199.3869248914
 31
0.0
  0
LINE
  5
C1
330
1B
100
AcDbEntity
 67
     1
  8
0
  6
Continuous
 62
     7
370
    25
100
AcDbLine
 10
102.4999999981
 20
190.0000000006
 30
0.0
 11
-102.5000000019
 21
190.0000000006
 31
0.0
  0
LINE
  5
C2
330
1B
100
AcDbEntity
 67
     1
  8
0
  6
Continuous
 62
     7
370
    25
100
AcDbLine
 10
-102.500000002
 20
-189.9999999994
 30
0.0
 11
102.4999999981
 21
-189.9999999994
 31
0.0
  0
LINE
  5
C3
330
1B
100
AcDbEntity
 67
     1
  8
0
  6
Continuous
 62
     7
370
    25
100
AcDbLine
 10
261.7842937668
 20
95.0000000006
 30
0.0
 11
261.7842937668
 21
85.0000000006
 31
0.0
  0
LINE
  5
C4
330
1B
100
AcDbEntity
 67
     1
  8
0
  6
Continuous
 62
     7
370
    25
100
AcDbLine
 10
-261.7842944075
 20
95.0000000006
 30
0.0
 11
-261.7842944075
 21
85.0000000006
 31
0.0
  0
LINE
  5
C5
330
1B
100
AcDbEntity
 67
     1
  8
0
  6
Continuous
 62
     7
370
    25
100
AcDbLine
 10
-261.7842944075
 20
95.0000000006
 30
0.0
 11
261.7842937668
 21
95.0000000006
 31
0.0
  0
LINE
  5
C6
330
1B
100
AcDbEntity
 67
     1
  8
0
  6
Continuous
 62
     7
370
    25
100
AcDbLine
 10
-60.0000000019
 20
-54.9999999994
 30
0.0
 11
59.9999999981
 21
-54.9999999994
 31
0.0
  0
LINE
  5
C7
330
1B
100
AcDbEntity
 67
     1
  8
0
  6
Continuous
 62
     7
370
    25
100
AcDbLine
 10
-60.0000000019
 20
75.0000000006
 30
0.0
 11
-60.0000000019
 21
-54.9999999994
 31
0.0
  0
LINE
  5
C8
330
1B
100
AcDbEntity
 67
     1
  8
0
  6
Continuous
 62
     7
370
    25
100
AcDbLine
 10
59.9999999981
 20
-54.9999999994
 30
0.0
 11
59.9999999981
 21
75.0000000006
 31
0.0
  0
LINE
  5
C9
330
1B
100
AcDbEntity
 67
     1
  8
0
  6
Continuous
 62
     7
370
    25
100
AcDbLine
 10
261.7842937668
 20
85.0000000006
 30
0.0
 11
-261.7842944075
 21
85.0000000006
 31
0.0
  0
LINE
  5
CA
330
1B
100
AcDbEntity
 67
     1
  8
0
  6
Continuous
 62
     7
370
    25
100
AcDbLine
 10
59.9999999981
 20
75.0000000006
 30
0.0
 11
-60.0000000019
 21
75.0000000006
 31
0.0
  0
LINE
  5
CB
330
1B
100
AcDbEntity
 67
     1
  8
0
  6
Continuous
 62
     8
370
    25
100
AcDbLine
 10
-102.500000002
 20
-199.3400908025
 30
0.0
 11
-102.500000002
 21
-189.9999999994
 31
0.0
  0
LINE
  5
CC
330
1B
100
AcDbEntity
 67
     1
  8
0
  6
Continuous
 62
     8
370
    25
100
AcDbLine
 10
-102.5000000019
 20
199.3400908041
 30
0.0
 11
-102.5000000019
 21
190.0000000006
 31
0.0
  0
LINE
  5
CD
330
1B
100
AcDbEntity
 67
     1
  8
0
  6
Continuous
 62
     8
370
    25
100
AcDbLine
 10
102.4999999981
 20
199.3400908036
 30
0.0
 11
102.4999999981
 21
190.0000000006
 31
0.0
  0
LINE
  5
CE
330
1B
100
AcDbEntity
 67
     1
  8
0
  6
Continuous
 62
     8
370
    25
100
AcDbLine
 10
102.4999999981
 20
-199.340090803
 30
0.0
 11
102.4999999981
 21
-189.9999999994
 31
0.0
  0
VIEWPORT
  5
24F
330
1B
100
AcDbEntity
 67
     1
  8
0
100
AcDbViewport
 10
0.0
 20
0.0
 30
0.0
 40
205.6
 41
156.0
 68
     1
 69
     1
 12
0.0
 22
59.9999999721
 13
0.0
 23
0.0
 14
10.0
 24
10.0
 15
10.0
 25
10.0
 16
0.0
 26
0.0
 36
1.0
 17
0.0
 27
0.0
 37
0.0
 42
50.0
 43
0.0
 44
0.0
 45
468.1807429934
 50
0.0
 51
0.0
 72
   100
 90
   557152
  1

281
     0
 71
     1
 74
     0
110
0.0
120
0.0
130
0.0
111
1.0
121
0.0
131
0.0
112
0.0
122
1.0
132
0.0
 79
     0
146
0.0
  0
ENDSEC
  0
SECTION
  2
OBJECTS
  0
DICTIONARY
  5
C
330
0
100
AcDbDictionary
281
     1
  3
ACAD_GROUP
350
D
  3
ACAD_LAYOUT
350
1A
  3
ACAD_MLINESTYLE
350
17
  3
ACAD_PLOTSETTINGS
350
19
  3
ACAD_PLOTSTYLENAME
350
E
  3
ACAD_SCALELIST
350
47
  0
DICTIONARY
  5
D
102
{ACAD_REACTORS
330
C
102
}
330
C
100
AcDbDictionary
281
     1
  0
DICTIONARY
  5
1A
102
{ACAD_REACTORS
330
C
102
}
330
C
100
AcDbDictionary
281
     1
  3
_Bottom
350
EE
  3
_Isometric
350
1DC
  3
_Right
350
26
  3
_Top
350
1E
  3
Model
350
22
  0
DICTIONARY
  5
17
102
{ACAD_REACTORS
330
C
102
}
330
C
100
AcDbDictionary
281
     1
  3
Standard
350
18
  0
DICTIONARY
  5
19
102
{ACAD_REACTORS
330
C
102
}
330
C
100
AcDbDictionary
281
     1
  0
ACDBDICTIONARYWDFLT
  5
E
102
{ACAD_REACTORS
330
C
102
}
330
C
100
AcDbDictionary
281
     1
  3
Normal
350
F
100
AcDbDictionaryWithDefault
340
F
  0
DICTIONARY
  5
47
102
{ACAD_REACTORS
330
C
102
}
330
C
100
AcDbDictionary
281
     1
  3
A0
350
48
  3
A1
350
49
  3
A2
350
4A
  3
A3
350
4B
  3
A4
350
4C
  3
A5
350
4D
  3
A6
350
4E
  3
A7
350
4F
  3
A8
350
50
  3
A9
350
51
  3
B0
350
52
  3
B1
350
53
  3
B2
350
54
  3
B3
350
55
  3
B4
350
56
  3
B5
350
57
  3
B6
350
58
  3
B7
350
59
  3
B8
350
5A
  3
B9
350
5B
  3
C0
350
5C
  3
C1
350
5D
  3
C2
350
5E
  3
C3
350
5F
  3
C4
350
60
  3
C5
350
61
  3
C6
350
62
  3
C7
350
63
  3
C8
350
64
  3
C9
350
65
  3
D0
350
66
  3
D1
350
67
  3
D2
350
68
  0
LAYOUT
  5
EE
102
{ACAD_REACTORS
330
1A
102
}
330
1A
100
AcDbPlotSettings
  1

  2
none_device
  4
ISO_A4_(210.00_x_297.00_MM)
  6

 40
7.5
 41
20.0
 42
7.5
 43
20.0
 44
210.0
 45
297.0
 46
0.0
 47
0.0
 48
0.0
 49
0.0
140
0.0
141
0.0
142
1.0
143
2.3538498858
 70
   688
 72
     1
 73
     1
 74
     1
  7

 75
     0
147
0.4248359277
148
302.4697103266
149
199.3869248914
100
AcDbLayout
  1
_Bottom
 70
     1
 71
     3
 10
0.0
 20
0.0
 11
0.0
 21
0.0
 12
0.0
 22
0.0
 32
0.0
 14
0.0
 24
0.0
 34
0.0
 15
0.0
 25
0.0
 35
0.0
146
0.0
 13
0.0
 23
0.0
 33
0.0
 16
1.0
 26
0.0
 36
0.0
 17
0.0
 27
1.0
 37
0.0
 76
     0
330
ED
331
253
  0
LAYOUT
  5
1DC
102
{ACAD_REACTORS
330
1A
102
}
330
1A
100
AcDbPlotSettings
  1

  2
none_device
  4
ISO_A4_(210.00_x_297.00_MM)
  6

 40
7.5
 41
20.0
 42
7.5
 43
20.0
 44
210.0
 45
297.0
 46
0.0
 47
0.0
 48
0.0
 49
0.0
140
0.0
141
0.0
142
1.0
143
2.3538498858
 70
   688
 72
     1
 73
     1
 74
     1
  7

 75
     0
147
0.4248359277
148
302.4697103266
149
199.3869248914
100
AcDbLayout
  1
_Isometric
 70
     1
 71
     4
 10
0.0
 20
0.0
 11
0.0
 21
0.0
 12
0.0
 22
0.0
 32
0.0
 14
0.0
 24
0.0
 34
0.0
 15
0.0
 25
0.0
 35
0.0
146
0.0
 13
0.0
 23
0.0
 33
0.0
 16
1.0
 26
0.0
 36
0.0
 17
0.0
 27
1.0
 37
0.0
 76
     0
330
1DB
331
255
  0
LAYOUT
  5
26
102
{ACAD_REACTORS
330
1A
102
}
330
1A
100
AcDbPlotSettings
  1

  2
none_device
  4
ISO_A4_(210.00_x_297.00_MM)
  6

 40
7.5
 41
20.0
 42
7.5
 43
20.0
 44
210.0
 45
297.0
 46
0.0
 47
0.0
 48
0.0
 49
0.0
140
0.0
141
0.0
142
1.0
143
2.3538498858
 70
   688
 72
     1
 73
     1
 74
     1
  7

 75
     0
147
0.4248359277
148
302.4697103266
149
199.3869248914
100
AcDbLayout
  1
_Right
 70
     1
 71
     2
 10
0.0
 20
0.0
 11
0.0
 21
0.0
 12
0.0
 22
0.0
 32
0.0
 14
0.0
 24
0.0
 34
0.0
 15
0.0
 25
0.0
 35
0.0
146
0.0
 13
0.0
 23
0.0
 33
0.0
 16
1.0
 26
0.0
 36
0.0
 17
0.0
 27
1.0
 37
0.0
 76
     0
330
23
331
251
  0
LAYOUT
  5
1E
102
{ACAD_REACTORS
330
1A
102
}
330
1A
100
AcDbPlotSettings
  1

  2
none_device
  4
ISO_A4_(210.00_x_297.00_MM)
  6

 40
7.5
 41
20.0
 42
7.5
 43
20.0
 44
210.0
 45
297.0
 46
0.0
 47
0.0
 48
0.0
 49
0.0
140
0.0
141
0.0
142
1.0
143
2.3538498858
 70
   688
 72
     1
 73
     1
 74
     1
  7

 75
     0
147
0.4248359277
148
302.4697103266
149
199.3869248914
100
AcDbLayout
  1
_Top
 70
     1
 71
     1
 10
-349.5467080425
 20
-217.0407990349
 11
349.546708039
 21
277.2676769823
 12
0.0
 22
0.0
 32
0.0
 14
-302.4697103266
 24
-199.3869248914
 34
0.0
 15
302.4697103231
 25
199.3869248926
 35
0.0
146
0.0
 13
0.0
 23
0.0
 33
0.0
 16
1.0
 26
0.0
 36
0.0
 17
0.0
 27
1.0
 37
0.0
 76
     0
330
1B
331
24F
  0
LAYOUT
  5
22
102
{ACAD_REACTORS
330
1A
102
}
330
1A
100
AcDbPlotSettings
  1

  2
none_device
  4
ANSI_A_(11.00_x_8.50_Inches)
  6

 40
6.35
 41
19.05
 42
6.35000508
 43
19.05000254
 44
279.4
 45
215.9
 46
133.34999746
 47
61.4652517113
 48
0.0
 49
0.0
140
0.0
141
0.0
142
0.0180018025
143
1.0
 70
  1696
 72
     0
 73
     0
 74
     0
  7

 75
     0
147
0.0179189148
148
-1300.4909072572
149
0.0
100
AcDbLayout
  1
Model
 70
     1
 71
     0
 10
0.0
 20
0.0
 11
420.0
 21
297.0
 12
0.0
 22
0.0
 32
0.0
 14
-302.4697107826
 24
0.0
 34
0.0
 15
302.4697107826
 25
119.9999999443
 35
0.0
146
0.0
 13
0.0
 23
0.0
 33
0.0
 16
1.0
 26
0.0
 36
0.0
 17
0.0
 27
1.0
 37
0.0
 76
     0
330
1F
331
29
  0
MLINESTYLE
  5
18
102
{ACAD_REACTORS
330
17
102
}
330
17
100
AcDbMlineStyle
  2
Standard
 70
     0
  3

 62
   256
 51
90.0
 52
90.0
 71
     2
 49
0.5
 62
   256
  6
BYLAYER
 49
-0.5
 62
   256
  6
BYLAYER
  0
ACDBPLACEHOLDER
  5
F
102
{ACAD_REACTORS
330
E
102
}
330
E
  0
SCALE
  5
48
102
{ACAD_REACTORS
330
47
102
}
330
47
100
AcDbScale
 70
     0
300
1:1
140
1.0
141
1.0
290
     1
  0
SCALE
  5
49
102
{ACAD_REACTORS
330
47
102
}
330
47
100
AcDbScale
 70
     0
300
1:2
140
1.0
141
2.0
290
     0
  0
SCALE
  5
4A
102
{ACAD_REACTORS
330
47
102
}
330
47
100
AcDbScale
 70
     0
300
1:4
140
1.0
141
4.0
290
     0
  0
SCALE
  5
4B
102
{ACAD_REACTORS
330
47
102
}
330
47
100
AcDbScale
 70
     0
300
1:5
140
1.0
141
5.0
290
     0
  0
SCALE
  5
4C
102
{ACAD_REACTORS
330
47
102
}
330
47
100
AcDbScale
 70
     0
300
1:8
140
1.0
141
8.0
290
     0
  0
SCALE
  5
4D
102
{ACAD_REACTORS
330
47
102
}
330
47
100
AcDbScale
 70
     0
300
1:10
140
1.0
141
10.0
290
     0
  0
SCALE
  5
4E
102
{ACAD_REACTORS
330
47
102
}
330
47
100
AcDbScale
 70
     0
300
1:16
140
1.0
141
16.0
290
     0
  0
SCALE
  5
4F
102
{ACAD_REACTORS
330
47
102
}
330
47
100
AcDbScale
 70
     0
300
1:20
140
1.0
141
20.0
290
     0
  0
SCALE
  5
50
102
{ACAD_REACTORS
330
47
102
}
330
47
100
AcDbScale
 70
     0
300
1:30
140
1.0
141
30.0
290
     0
  0
SCALE
  5
51
102
{ACAD_REACTORS
330
47
102
}
330
47
100
AcDbScale
 70
     0
300
1:40
140
1.0
141
40.0
290
     0
  0
SCALE
  5
52
102
{ACAD_REACTORS
330
47
102
}
330
47
100
AcDbScale
 70
     0
300
1:50
140
1.0
141
50.0
290
     0
  0
SCALE
  5
53
102
{ACAD_REACTORS
330
47
102
}
330
47
100
AcDbScale
 70
     0
300
1:100
140
1.0
141
100.0
290
     0
  0
SCALE
  5
54
102
{ACAD_REACTORS
330
47
102
}
330
47
100
AcDbScale
 70
     0
300
2:1
140
2.0
141
1.0
290
     0
  0
SCALE
  5
55
102
{ACAD_REACTORS
330
47
102
}
330
47
100
AcDbScale
 70
     0
300
4:1
140
4.0
141
1.0
290
     0
  0
SCALE
  5
56
102
{ACAD_REACTORS
330
47
102
}
330
47
100
AcDbScale
 70
     0
300
8:1
140
8.0
141
1.0
290
     0
  0
SCALE
  5
57
102
{ACAD_REACTORS
330
47
102
}
330
47
100
AcDbScale
 70
     0
300
10:1
140
10.0
141
1.0
290
     0
  0
SCALE
  5
58
102
{ACAD_REACTORS
330
47
102
}
330
47
100
AcDbScale
 70
     0
300
100:1
140
100.0
141
1.0
290
     0
  0
SCALE
  5
59
102
{ACAD_REACTORS
330
47
102
}
330
47
100
AcDbScale
 70
     0
300
1/128" = 1'-0"
140
0.0078125
141
12.0
290
     0
  0
SCALE
  5
5A
102
{ACAD_REACTORS
330
47
102
}
330
47
100
AcDbScale
 70
     0
300
1/64" = 1'-0"
140
0.015625
141
12.0
290
     0
  0
SCALE
  5
5B
102
{ACAD_REACTORS
330
47
102
}
330
47
100
AcDbScale
 70
     0
300
1/32" = 1'-0"
140
0.03125
141
12.0
290
     0
  0
SCALE
  5
5C
102
{ACAD_REACTORS
330
47
102
}
330
47
100
AcDbScale
 70
     0
300
1/16" = 1'-0"
140
0.0625
141
12.0
290
     0
  0
SCALE
  5
5D
102
{ACAD_REACTORS
330
47
102
}
330
47
100
AcDbScale
 70
     0
300
3/32" = 1'-0"
140
0.09375
141
12.0
290
     0
  0
SCALE
  5
5E
102
{ACAD_REACTORS
330
47
102
}
330
47
100
AcDbScale
 70
     0
300
1/8" = 1'-0"
140
0.125
141
12.0
290
     0
  0
SCALE
  5
5F
102
{ACAD_REACTORS
330
47
102
}
330
47
100
AcDbScale
 70
     0
300
3/16" = 1'-0"
140
0.1875
141
12.0
290
     0
  0
SCALE
  5
60
102
{ACAD_REACTORS
330
47
102
}
330
47
100
AcDbScale
 70
     0
300
1/4" = 1'-0"
140
0.25
141
12.0
290
     0
  0
SCALE
  5
61
102
{ACAD_REACTORS
330
47
102
}
330
47
100
AcDbScale
 70
     0
300
3/8" = 1'-0"
140
0.375
141
12.0
290
     0
  0
SCALE
  5
62
102
{ACAD_REACTORS
330
47
102
}
330
47
100
AcDbScale
 70
     0
300
1/2" = 1'-0"
140
0.5
141
12.0
290
     0
  0
SCALE
  5
63
102
{ACAD_REACTORS
330
47
102
}
330
47
100
AcDbScale
 70
     0
300
3/4" = 1'-0"
140
0.75
141
12.0
290
     0
  0
SCALE
  5
64
102
{ACAD_REACTORS
330
47
102
}
330
47
100
AcDbScale
 70
     0
300
1" = 1'-0"
140
1.0
141
12.0
290
     0
  0
SCALE
  5
65
102
{ACAD_REACTORS
330
47
102
}
330
47
100
AcDbScale
 70
     0
300
1-1/2" = 1'-0"
140
1.5
141
12.0
290
     0
  0
SCALE
  5
66
102
{ACAD_REACTORS
330
47
102
}
330
47
100
AcDbScale
 70
     0
300
3" = 1'-0"
140
3.0
141
12.0
290
     0
  0
SCALE
  5
67
102
{ACAD_REACTORS
330
47
102
}
330
47
100
AcDbScale
 70
     0
300
6" = 1'-0"
140
6.0
141
12.0
290
     0
  0
SCALE
  5
68
102
{ACAD_REACTORS
330
47
102
}
330
47
100
AcDbScale
 70
     0
300
1'-0" = 1'-0"
140
12.0
141
12.0
290
     0
  0
ENDSEC
  0
EOF
