  0
SECTION
  2
HEADER
  9
$ACADVER
  1
AC1015
  9
$ACADMAINTVER
 70
     6
  9
$DWGCODEPAGE
  3
ANSI_1252
  9
$INSBASE
 10
0.0
 20
0.0
 30
0.0
  9
$EXTMIN
 10
-254.8592924461
 20
0.0
 30
0.0
  9
$EXTMAX
 10
254.8592924461
 20
112.0029590075
 30
0.0
  9
$LIMMIN
 10
0.0
 20
0.0
  9
$LIMMAX
 10
420.0
 20
297.0
  9
$ORTHOMODE
 70
     0
  9
$REGENMODE
 70
     1
  9
$FILLMODE
 70
     1
  9
$QTEXTMODE
 70
     0
  9
$MIRRTEXT
 70
     1
  9
$LTSCALE
 40
1.0
  9
$ATTMODE
 70
     1
  9
$TEXTSIZE
 40
3.5
  9
$TRACEWID
 40
1.0
  9
$TEXTSTYLE
  7
Standard
  9
$CLAYER
  8
0
  9
$CELTYPE
  6
ByLayer
  9
$CECOLOR
 62
   256
  9
$CELTSCALE
 40
1.0
  9
$DISPSILH
 70
     0
  9
$DIMSCALE
 40
1.0
  9
$DIMASZ
 40
3.302
  9
$DIMEXO
 40
1.0
  9
$DIMDLI
 40
3.75
  9
$DIMRND
 40
0.0
  9
$DIMDLE
 40
0.0
  9
$DIMEXE
 40
1.0
  9
$DIMTP
 40
0.0
  9
$DIMTM
 40
0.0
  9
$DIMTXT
 40
3.5
  9
$DIMCEN
 40
2.5
  9
$DIMTSZ
 40
0.0
  9
$DIMTOL
 70
     0
  9
$DIMLIM
 70
     0
  9
$DIMTIH
 70
     1
  9
$DIMTOH
 70
     1
  9
$DIMSE1
 70
     0
  9
$DIMSE2
 70
     0
  9
$DIMTAD
 70
     1
  9
$DIMZIN
 70
     1
  9
$DIMBLK
  1

  9
$DIMASO
 70
     1
  9
$DIMSHO
 70
     1
  9
$DIMPOST
  1

  9
$DIMAPOST
  1

  9
$DIMALT
 70
     0
  9
$DIMALTD
 70
     3
  9
$DIMALTF
 40
0.0393700787
  9
$DIMLFAC
 40
1.0
  9
$DIMTOFL
 70
     1
  9
$DIMTVP
 40
0.0
  9
$DIMTIX
 70
     0
  9
$DIMSOXD
 70
     0
  9
$DIMSAH
 70
     0
  9
$DIMBLK1
  1

  9
$DIMBLK2
  1

  9
$DIMSTYLE
  2
ISO-25
  9
$DIMCLRD
 70
     0
  9
$DIMCLRE
 70
     0
  9
$DIMCLRT
 70
     0
  9
$DIMTFAC
 40
1.0
  9
$DIMGAP
 40
1.524
  9
$DIMJUST
 70
     0
  9
$DIMSD1
 70
     0
  9
$DIMSD2
 70
     0
  9
$DIMTOLJ
 70
     0
  9
$DIMTZIN
 70
     1
  9
$DIMALTZ
 70
     0
  9
$DIMALTTZ
 70
     0
  9
$DIMUPT
 70
     0
  9
$DIMDEC
 70
     2
  9
$DIMTDEC
 70
     2
  9
$DIMALTU
 70
     2
  9
$DIMALTTD
 70
     3
  9
$DIMTXSTY
  7
Standard
  9
$DIMAUNIT
 70
     0
  9
$DIMADEC
 70
     2
  9
$DIMALTRND
 40
0.0
  9
$DIMAZIN
 70
     0
  9
$DIMDSEP
 70
    44
  9
$DIMATFIT
 70
     3
  9
$DIMFRAC
 70
     0
  9
$DIMLDRBLK
  1

  9
$DIMLUNIT
 70
     2
  9
$DIMLWD
 70
    -2
  9
$DIMLWE
 70
    -2
  9
$DIMTMOVE
 70
     0
  9
$LUNITS
 70
     2
  9
$LUPREC
 70
     2
  9
$SKETCHINC
 40
1.0
  9
$FILLETRAD
 40
10.0
  9
$AUNITS
 70
     0
  9
$AUPREC
 70
     2
  9
$MENU
  1
.
  9
$ELEVATION
 40
0.0
  9
$PELEVATION
 40
0.0
  9
$THICKNESS
 40
0.0
  9
$LIMCHECK
 70
     0
  9
$CHAMFERA
 40
0.0
  9
$CHAMFERB
 40
0.0
  9
$CHAMFERC
 40
0.0
  9
$CHAMFERD
 40
0.0
  9
$SKPOLY
 70
     0
  9
$TDCREATE
 40
2460292.497908125
  9
$TDUCREATE
 40
2460292.497908125
  9
$TDUPDATE
 40
2460292.497966968
  9
$TDUUPDATE
 40
2460292.497966968
  9
$TDINDWG
 40
0.0000000116
  9
$TDUSRTIMER
 40
0.0000000116
  9
$USRTIMER
 70
     1
  9
$ANGBASE
 50
0.0
  9
$ANGDIR
 70
     0
  9
$PDMODE
 70
     0
  9
$PDSIZE
 40
-1.0
  9
$PLINEWID
 40
0.0
  9
$SPLFRAME
 70
     0
  9
$SPLINETYPE
 70
     6
  9
$SPLINESEGS
 70
     8
  9
$HANDSEED
  5
24E
  9
$SURFTAB1
 70
     6
  9
$SURFTAB2
 70
     6
  9
$SURFTYPE
 70
     6
  9
$SURFU
 70
     6
  9
$SURFV
 70
     6
  9
$UCSBASE
  2

  9
$UCSNAME
  2

  9
$UCSORG
 10
0.0
 20
0.0
 30
0.0
  9
$UCSXDIR
 10
1.0
 20
0.0
 30
0.0
  9
$UCSYDIR
 10
0.0
 20
1.0
 30
0.0
  9
$UCSORTHOREF
  2

  9
$UCSORTHOVIEW
 70
     0
  9
$UCSORGTOP
 10
0.0
 20
0.0
 30
0.0
  9
$UCSORGBOTTOM
 10
0.0
 20
0.0
 30
0.0
  9
$UCSORGLEFT
 10
0.0
 20
0.0
 30
0.0
  9
$UCSORGRIGHT
 10
0.0
 20
0.0
 30
0.0
  9
$UCSORGFRONT
 10
0.0
 20
0.0
 30
0.0
  9
$UCSORGBACK
 10
0.0
 20
0.0
 30
0.0
  9
$PUCSBASE
  2

  9
$PUCSNAME
  2

  9
$PUCSORG
 10
0.0
 20
0.0
 30
0.0
  9
$PUCSXDIR
 10
1.0
 20
0.0
 30
0.0
  9
$PUCSYDIR
 10
0.0
 20
1.0
 30
0.0
  9
$PUCSORTHOREF
  2

  9
$PUCSORTHOVIEW
 70
     0
  9
$PUCSORGTOP
 10
0.0
 20
0.0
 30
0.0
  9
$PUCSORGBOTTOM
 10
0.0
 20
0.0
 30
0.0
  9
$PUCSORGLEFT
 10
0.0
 20
0.0
 30
0.0
  9
$PUCSORGRIGHT
 10
0.0
 20
0.0
 30
0.0
  9
$PUCSORGFRONT
 10
0.0
 20
0.0
 30
0.0
  9
$PUCSORGBACK
 10
0.0
 20
0.0
 30
0.0
  9
$USERI1
 70
     0
  9
$USERI2
 70
     0
  9
$USERI3
 70
     0
  9
$USERI4
 70
     0
  9
$USERI5
 70
     0
  9
$USERR1
 40
0.0
  9
$USERR2
 40
0.0
  9
$USERR3
 40
0.0
  9
$USERR4
 40
0.0
  9
$USERR5
 40
0.0
  9
$WORLDVIEW
 70
     1
  9
$SHADEDGE
 70
     3
  9
$SHADEDIF
 70
    70
  9
$TILEMODE
 70
     1
  9
$MAXACTVP
 70
    64
  9
$PINSBASE
 10
0.0
 20
0.0
 30
0.0
  9
$PLIMCHECK
 70
     0
  9
$PEXTMIN
 10
-254.861791183
 20
-172.3712800275
 30
0.0
  9
$PEXTMAX
 10
254.8617911955
 20
172.3712800275
 30
0.0
  9
$PLIMMIN
 10
-294.5289960373
 20
-187.2464818479
  9
$PLIMMAX
 10
294.5289960498
 20
229.2591691229
  9
$UNITMODE
 70
     0
  9
$VISRETAIN
 70
     1
  9
$PLINEGEN
 70
     0
  9
$PSLTSCALE
 70
     1
  9
$TREEDEPTH
 70
  3020
  9
$CMLSTYLE
  2
Standard
  9
$CMLJUST
 70
     0
  9
$CMLSCALE
 40
20.0
  9
$PROXYGRAPHICS
 70
     1
  9
$MEASUREMENT
 70
     1
  9
$CELWEIGHT
370
    -1
  9
$ENDCAPS
280
     0
  9
$JOINSTYLE
280
     0
  9
$LWDISPLAY
290
     1
  9
$INSUNITS
 70
     4
  9
$HYPERLINKBASE
  1

  9
$STYLESHEET
  1

  9
$XEDIT
290
     1
  9
$CEPSNTYPE
380
     0
  9
$PSTYLEMODE
290
     1
  9
$FINGERPRINTGUID
  2
{38140b19-a522-4619-b30b-d9a36c1ec6e6}
  9
$VERSIONGUID
  2
{FAEB1C32-E019-11D5-929B-00C0DF256EC4}
  9
$EXTNAMES
290
     1
  9
$PSVPSCALE
 40
0.0
  9
$OLESTARTUP
290
     0
  0
ENDSEC
  0
SECTION
  2
CLASSES
  0
CLASS
  1
ACDBDICTIONARYWDFLT
  2
AcDbDictionaryWithDefault
  3
ObjectDBX Classes
 90
        0
280
     0
281
     0
  0
CLASS
  1
VISUALSTYLE
  2
AcDbVisualStyle
  3
ObjectDBX Classes
 90
     4095
280
     0
281
     0
  0
CLASS
  1
MATERIAL
  2
AcDbMaterial
  3
ObjectDBX Classes
 90
     1153
280
     0
281
     0
  0
CLASS
  1
SCALE
  2
AcDbScale
  3
ObjectDBX Classes
 90
     1153
280
     0
281
     0
  0
CLASS
  1
TABLESTYLE
  2
AcDbTableStyle
  3
ObjectDBX Classes
 90
     4095
280
     0
281
     0
  0
CLASS
  1
MLEADERSTYLE
  2
AcDbMLeaderStyle
  3
ACDB_MLEADERSTYLE_CLASS
 90
     4095
280
     0
281
     0
  0
CLASS
  1
SUN
  2
AcDbSun
  3
SCENEOE
 90
     1153
280
     0
281
     0
  0
CLASS
  1
ACDBPLACEHOLDER
  2
AcDbPlaceHolder
  3
ObjectDBX Classes
 90
        0
280
     0
281
     0
  0
CLASS
  1
LAYOUT
  2
AcDbLayout
  3
ObjectDBX Classes
 90
        0
280
     0
281
     0
  0
ENDSEC
  0
SECTION
  2
TABLES
  0
TABLE
  2
VPORT
  5
8
330
0
100
AcDbSymbolTable
 70
     1
  0
VPORT
  5
29
330
8
100
AcDbSymbolTableRecord
100
AcDbViewportTableRecord
  2
*Active
 70
     0
 10
0.0
 20
0.0
 11
1.0
 21
1.0
 12
0.0
 22
56.0014795037
 13
0.0
 23
0.0
 14
10.0
 24
10.0
 15
10.0
 25
10.0
 16
0.0
 26
0.0
 36
1.0
 17
0.0
 27
0.0
 37
0.0
 40
114.2430181876
 41
4.5509385592
 42
50.0
 43
0.0
 44
0.0
 50
0.0
 51
0.0
 71
     0
 72
   100
 73
     1
 74
     3
 75
     0
 76
     0
 77
     0
 78
     0
281
     0
 65
     1
110
0.0
120
0.0
130
0.0
111
1.0
121
0.0
131
0.0
112
0.0
122
1.0
132
0.0
 79
     0
146
0.0
  0
ENDTAB
  0
TABLE
  2
LTYPE
  5
5
330
0
100
AcDbSymbolTable
 70
     6
  0
LTYPE
  5
14
330
5
100
AcDbSymbolTableRecord
100
AcDbLinetypeTableRecord
  2
ByBlock
 70
     0
  3

 72
    65
 73
     0
 40
0.0
  0
LTYPE
  5
15
330
5
100
AcDbSymbolTableRecord
100
AcDbLinetypeTableRecord
  2
ByLayer
 70
     0
  3

 72
    65
 73
     0
 40
0.0
  0
LTYPE
  5
16
330
5
100
AcDbSymbolTableRecord
100
AcDbLinetypeTableRecord
  2
Continuous
 70
     0
  3
Solid line
 72
    65
 73
     0
 40
0.0
  0
LTYPE
  5
6E
330
5
100
AcDbSymbolTableRecord
100
AcDbLinetypeTableRecord
  2
HIDDEN
 70
     0
  3
Hidden __ __ __ __ __ __ __ __ __ __ __ __ __ __
 72
    65
 73
     2
 40
1.905
 49
1.27
 74
     0
 49
-0.635
 74
     0
  0
LTYPE
  5
6F
330
5
100
AcDbSymbolTableRecord
100
AcDbLinetypeTableRecord
  2
PHANTOM
 70
     0
  3
Phantom ______  __  __  ______  __  __  ______
 72
    65
 73
     6
 40
12.7
 49
6.35
 74
     0
 49
-1.27
 74
     0
 49
1.27
 74
     0
 49
-1.27
 74
     0
 49
1.27
 74
     0
 49
-1.27
 74
     0
  0
LTYPE
  5
70
330
5
100
AcDbSymbolTableRecord
100
AcDbLinetypeTableRecord
  2
CENTER
 70
     0
  3
Center ____ _ ____ _ ____ _ ____ _ ____ _ ____
 72
    65
 73
     4
 40
10.16
 49
6.35
 74
     0
 49
-1.27
 74
     0
 49
1.27
 74
     0
 49
-1.27
 74
     0
  0
LTYPE
  5
71
330
5
100
AcDbSymbolTableRecord
100
AcDbLinetypeTableRecord
  2
CENTERX2
 70
     0
  3
Center (2x) ________  __  ________  __  _____
 72
    65
 73
     4
 40
20.32
 49
12.7
 74
     0
 49
-2.54
 74
     0
 49
2.54
 74
     0
 49
-2.54
 74
     0
  0
LTYPE
  5
72
330
5
100
AcDbSymbolTableRecord
100
AcDbLinetypeTableRecord
  2
DOT2
 70
     0
  3
Dot (.5x) ........................................
 72
    65
 73
     2
 40
0.635
 49
0.0
 74
     0
 49
-0.635
 74
     0
  0
ENDTAB
  0
TABLE
  2
LAYER
  5
2
330
0
100
AcDbSymbolTable
 70
     1
  0
LAYER
  5
10
330
2
100
AcDbSymbolTableRecord
100
AcDbLayerTableRecord
  2
0
 70
     0
 62
     7
  6
Continuous
370
    -3
390
F
  0
ENDTAB
  0
TABLE
  2
STYLE
  5
3
330
0
100
AcDbSymbolTable
 70
     1
  0
STYLE
  5
11
330
3
100
AcDbSymbolTableRecord
100
AcDbTextStyleTableRecord
  2
Standard
 70
     0
 40
0.0
 41
1.0
 50
0.0
 71
     0
 42
3.5
  3
txt
  4

  0
ENDTAB
  0
TABLE
  2
VIEW
  5
6
330
0
100
AcDbSymbolTable
 70
     0
  0
ENDTAB
  0
TABLE
  2
UCS
  5
7
330
0
100
AcDbSymbolTable
 70
     0
  0
ENDTAB
  0
TABLE
  2
APPID
  5
9
330
0
100
AcDbSymbolTable
 70
     1
  0
APPID
  5
12
330
9
100
AcDbSymbolTableRecord
100
AcDbRegAppTableRecord
  2
ACAD
 70
     0
  0
ENDTAB
  0
TABLE
  2
DIMSTYLE
  5
A
330
0
100
AcDbSymbolTable
 70
     1
100
AcDbDimStyleTable
  0
DIMSTYLE
105
27
330
A
100
AcDbSymbolTableRecord
100
AcDbDimStyleTableRecord
  2
ISO-25
 70
     0
 41
2.5
 42
0.625
 43
3.75
 44
1.25
 73
     0
 74
     0
 77
     1
 78
     8
140
2.5
141
2.5
143
0.0393700787
147
0.625
171
     3
172
     1
178
     0
271
     2
272
     2
274
     3
278
    44
283
     0
284
     8
340
11
  0
ENDTAB
  0
TABLE
  2
BLOCK_RECORD
  5
1
330
0
100
AcDbSymbolTable
 70
     3
  0
BLOCK_RECORD
  5
1F
330
1
100
AcDbSymbolTableRecord
100
AcDbBlockTableRecord
  2
*Model_Space
340
22
  0
BLOCK_RECORD
  5
1B
330
1
100
AcDbSymbolTableRecord
100
AcDbBlockTableRecord
  2
*Paper_Space
340
1E
  0
BLOCK_RECORD
  5
23
330
1
100
AcDbSymbolTableRecord
100
AcDbBlockTableRecord
  2
*Paper_Space0
340
26
  0
BLOCK_RECORD
  5
11B
330
1
100
AcDbSymbolTableRecord
100
AcDbBlockTableRecord
  2
*Paper_Space1
340
11C
  0
BLOCK_RECORD
  5
1E7
330
1
100
AcDbSymbolTableRecord
100
AcDbBlockTableRecord
  2
*Paper_Space2
340
1E8
  0
ENDTAB
  0
ENDSEC
  0
SECTION
  2
BLOCKS
  0
BLOCK
  5
20
330
1F
100
AcDbEntity
  8
0
100
AcDbBlockBegin
  2
*Model_Space
 70
     0
 10
0.0
 20
0.0
 30
0.0
  3
*Model_Space
  1

  0
ENDBLK
  5
21
330
1F
100
AcDbEntity
  8
0
100
AcDbBlockEnd
  0
BLOCK
  5
1C
330
1B
100
AcDbEntity
 67
     1
  8
0
100
AcDbBlockBegin
  2
*Paper_Space
 70
     0
 10
0.0
 20
0.0
 30
0.0
  3
*Paper_Space
  1

  0
ENDBLK
  5
1D
330
1B
100
AcDbEntity
 67
     1
  8
0
100
AcDbBlockEnd
  0
BLOCK
  5
24
330
23
100
AcDbEntity
  8
0
100
AcDbBlockBegin
  2
*Paper_Space0
 70
     0
 10
0.0
 20
0.0
 30
0.0
  3
*Paper_Space0
  1

  0
SPLINE
  5
EA
330
23
100
AcDbEntity
  8
0
  6
Continuous
 62
     7
370
    25
100
AcDbSpline
210
0.0
220
0.0
230
1.0
 70
     8
 71
     3
 72
    14
 73
    10
 74
     0
 42
0.000000001
 43
0.00000001
 40
0.0
 40
0.0
 40
0.0
 40
0.0
 40
0.2181257726704314
 40
0.408899834421341
 40
0.5714469529511826
 40
0.7103555894222695
 40
0.847945563009241
 40
0.9875772368074041
 40
1.0
 40
1.0
 40
1.0
 40
1.0
 10
-152.4065386460202
 20
111.9999964580082
 30
0.0
 10
-153.9024839008321
 20
111.9998583311913
 30
0.0
 10
-156.7067915234815
 20
111.9995993978618
 30
0.0
 10
-160.3719513249256
 20
112.0012580440164
 30
0.0
 10
-163.16201085469
 20
111.9962152975113
 30
0.0
 10
-165.3631435661876
 20
112.0103357532431
 30
0.0
 10
-166.6693660028213
 20
111.9608193263593
 30
0.0
 10
-167.2248884103386
 20
111.9649211230883
 30
0.0
 10
-167.1677339148835
 20
111.7492162713879
 30
0.0
 10
-167.1630644242952
 20
111.7315933046058
 30
0.0
  0
SPLINE
  5
EB
330
23
100
AcDbEntity
  8
0
  6
Continuous
 62
     7
370
    25
100
AcDbSpline
210
0.0
220
0.0
230
1.0
 70
     8
 71
     3
 72
    14
 73
    10
 74
     0
 42
0.000000001
 43
0.00000001
 40
0.0
 40
0.0
 40
0.0
 40
0.0
 40
0.0124233309132745
 40
0.1520542758893464
 40
0.2896436766247617
 40
0.428552274012263
 40
0.5911000533151877
 40
0.7818752698342253
 40
1.0
 40
1.0
 40
1.0
 40
1.0
 10
167.1630421703908
 20
111.7315899496037
 30
0.0
 10
167.167711491361
 20
111.7492136921101
 30
0.0
 10
167.2248612383952
 20
111.9649179524229
 30
0.0
 10
166.6693538897181
 20
111.9608199284365
 30
0.0
 10
165.3631439801088
 20
112.0103363308527
 30
0.0
 10
163.1620199823105
 20
111.9962145495282
 30
0.0
 10
160.3719567035102
 20
112.0012583026351
 30
0.0
 10
156.7067860993578
 20
111.9995993210492
 30
0.0
 10
153.9024770836315
 20
111.9998583049258
 30
0.0
 10
152.4065386460844
 20
111.9999964580087
 30
0.0
  0
LWPOLYLINE
  5
EC
330
23
100
AcDbEntity
  8
0
  6
Continuous
 62
     7
370
    25
100
AcDbPolyline
 90
       21
 70
   128
 43
0.0
 10
152.4065386461
 20
111.9999964591
 10
143.8978765685
 20
111.9999963449
 10
136.3692696626
 20
111.9999963931
 10
129.8181190415
 20
111.9999964285
 10
124.2423268885
 20
111.9999964512
 10
119.6402279701
 20
111.9999964614
 10
115.7759938432
 20
111.9999964621
 10
106.5930613454
 20
111.9999963544
 10
97.1408937257
 20
111.9999960292
 10
63.1270243485
 20
111.9999957265
 10
2.3878228997
 20
111.9999964604
 10
-74.9165468612
 20
111.9999955634
 10
-86.2544434726
 20
111.999995646
 10
-97.3728515832
 20
111.9999960382
 10
-107.4918812118
 20
111.9999963768
 10
-111.7602836611
 20
111.999996446
 10
-117.3073554985
 20
111.9999964438
 10
-124.1425004492
 20
111.9999964194
 10
-132.2683300758
 20
111.9999963847
 10
-141.6882360331
 20
111.9999963395
 10
-152.406538646
 20
111.9999964591
  0
SPLINE
  5
EE
330
23
100
AcDbEntity
  8
0
  6
Continuous
 62
     7
370
    25
100
AcDbSpline
210
0.0
220
0.0
230
1.0
 70
     8
 71
     3
 72
     9
 73
     5
 74
     0
 42
0.000000001
 43
0.00000001
 40
0.0
 40
0.0
 40
0.0
 40
0.0
 40
0.9182043707733301
 40
1.0
 40
1.0
 40
1.0
 40
1.0
 10
172.3884978213434
 20
108.8779389976157
 30
0.0
 10
172.39459716127
 20
109.1267504945199
 30
0.0
 10
172.4012398435756
 20
109.3977266571521
 30
0.0
 10
172.3116249734182
 20
109.6482082393806
 30
0.0
 10
172.3042948687256
 20
109.6686965380086
 30
0.0
  0
SPLINE
  5
EF
330
23
100
AcDbEntity
  8
0
  6
Continuous
 62
     7
370
    25
100
AcDbSpline
210
0.0
220
0.0
230
1.0
 70
     8
 71
     3
 72
    11
 73
     7
 74
     0
 42
0.000000001
 43
0.00000001
 40
0.0
 40
0.0
 40
0.0
 40
0.0
 40
0.2181104005091439
 40
0.5344693397531899
 40
0.8115701789057472
 40
1.0
 40
1.0
 40
1.0
 40
1.0
 10
172.2416645740655
 20
109.8494375695327
 30
0.0
 10
172.1937713521389
 20
110.0100349380699
 30
0.0
 10
172.0764112508233
 20
110.4035712817188
 30
0.0
 10
171.7141281803544
 20
110.9200364855421
 30
0.0
 10
171.2875300791095
 20
111.3455859988067
 30
0.0
 10
170.9819311612304
 20
111.5302359246024
 30
0.0
 10
170.8582358725205
 20
111.6049754755148
 30
0.0
  0
SPLINE
  5
F2
330
23
100
AcDbEntity
  8
0
  6
Continuous
 62
     7
370
    25
100
AcDbSpline
210
0.0
220
0.0
230
1.0
 70
     8
 71
     3
 72
    18
 73
    14
 74
     0
 42
0.000000001
 43
0.00000001
 40
0.0
 40
0.0
 40
0.0
 40
0.0
 40
0.233164771670156
 40
0.4400330708902171
 40
0.5845137796242917
 40
0.6352402752271193
 40
0.6740647567177062
 40
0.7069585024009133
 40
0.7505368036342924
 40
0.8061812900877521
 40
0.8697091792511108
 40
0.9359530845881295
 40
1.0
 40
1.0
 40
1.0
 40
1.0
 10
-167.457248367692
 20
111.2921014586598
 30
0.0
 10
-167.6355787921705
 20
111.4328153990167
 30
0.0
 10
-167.9721274215124
 20
111.6983734713138
 30
0.0
 10
-168.7281817539919
 20
111.9667510660848
 30
0.0
 10
-169.4610604404069
 20
112.0272699040649
 30
0.0
 10
-170.052221994636
 20
111.9319904007529
 30
0.0
 10
-170.4366095252959
 20
111.8166462006836
 30
0.0
 10
-170.8464825493079
 20
111.6298245756373
 30
0.0
 10
-171.26692220554
 20
111.355597422395
 30
0.0
 10
-171.7197424922196
 20
110.9230217341383
 30
0.0
 10
-172.107635419021
 20
110.3267901086324
 30
0.0
 10
-172.3625528860897
 20
109.6213413142949
 30
0.0
 10
-172.3799472788385
 20
109.122938379824
 30
0.0
 10
-172.388497821345
 20
108.8779389976602
 30
0.0
  0
SPLINE
  5
F3
330
23
100
AcDbEntity
  8
0
  6
Continuous
 62
     7
370
    25
100
AcDbSpline
210
0.0
220
0.0
230
1.0
 70
     8
 71
     3
 72
    38
 73
    34
 74
     0
 42
0.000000001
 43
0.00000001
 40
0.0
 40
0.0
 40
0.0
 40
0.0
 40
0.0142339914373171
 40
0.0285269206053933
 40
0.0428788046233963
 40
0.0572896603998737
 40
0.0717595046361317
 40
0.0862883538295382
 40
0.100876224276763
 40
0.1155231320769548
 40
0.1302290931348613
 40
0.1449941231638804
 40
0.1598182376890647
 40
0.1747014520500509
 40
0.189643781403956
 40
0.2046452407281939
 40
0.2197058448232608
 40
0.2348256083154506
 40
0.2500045456595271
 40
0.3046509278296942
 40
0.3645687133707011
 40
0.4297579413577395
 40
0.5002183210183573
 40
0.575236387449079
 40
0.6586207540394113
 40
0.750371590926161
 40
0.8115703164359922
 40
0.875855850042242
 40
0.9006825868625931
 40
0.9255103304516991
 40
0.9503391206289418
 40
0.9751689972086678
 40
1.0
 40
1.0
 40
1.0
 40
1.0
 10
-152.4065386460192
 20
108.8481423881666
 30
0.0
 10
-152.5554267072646
 20
108.8474333702583
 30
0.0
 10
-152.8538193205342
 20
108.846012398659
 30
0.0
 10
-153.3021060175279
 20
108.8438250517125
 30
0.0
 10
-153.751786602278
 20
108.841608333924
 30
0.0
 10
-154.2026262215188
 20
108.8393709237103
 30
0.0
 10
-154.654384927498
 20
108.8371274574608
 30
0.0
 10
-155.106817417891
 20
108.8348909109631
 30
0.0
 10
-155.5596732092678
 20
108.832674638017
 30
0.0
 10
-156.0126967032865
 20
108.8304918040468
 30
0.0
 10
-156.4656272899404
 20
108.8283555255898
 30
0.0
 10
-156.9181994552545
 20
108.8262788043796
 30
0.0
 10
-157.3701428792895
 20
108.8242745719035
 30
0.0
 10
-157.8211826150409
 20
108.8223554957096
 30
0.0
 10
-158.2710389987034
 20
108.820534631066
 30
0.0
 10
-158.7194286067047
 20
108.8188229106394
 30
0.0
 10
-159.166061320903
 20
108.8172385003587
 30
0.0
 10
-159.610652042903
 20
108.815771607699
 30
0.0
 10
-160.4355859974685
 20
108.8134303542326
 30
0.0
 10
-161.6676324684837
 20
108.8093287672475
 30
0.0
 10
-163.2963467372077
 20
108.8044416907282
 30
0.0
 10
-164.9595119565032
 20
108.8023453419372
 30
0.0
 10
-166.6044271702523
 20
108.8082573466049
 30
0.0
 10
-168.1975734011921
 20
108.8154102187347
 30
0.0
 10
-169.6825003410816
 20
108.8198454346082
 30
0.0
 10
-170.7927506993961
 20
108.8285155192728
 30
0.0
 10
-171.5597378886649
 20
108.8396272269924
 30
0.0
 10
-171.9424210284043
 20
108.848320787789
 30
0.0
 10
-172.1504475398137
 20
108.8558244032953
 30
0.0
 10
-172.256642076146
 20
108.8610233132903
 30
0.0
 10
-172.3321190022178
 20
108.8664705250678
 30
0.0
 10
-172.3795307575024
 20
108.8721094485102
 30
0.0
 10
-172.3855083647892
 20
108.8759848628487
 30
0.0
 10
-172.3884972362129
 20
108.8779226139614
 30
0.0
  0
SPLINE
  5
F5
330
23
100
AcDbEntity
  8
0
  6
Continuous
 62
     7
370
    25
100
AcDbSpline
210
0.0
220
0.0
230
1.0
 70
     8
 71
     3
 72
    31
 73
    27
 74
     0
 42
0.000000001
 43
0.00000001
 40
0.0
 40
0.0
 40
0.0
 40
0.0
 40
0.0122586123424728
 40
0.0245180010660753
 40
0.0367782125512043
 40
0.049039293168915
 40
0.0613012892804058
 40
0.0824142011070798
 40
0.1241743745219408
 40
0.1884653610203328
 40
0.2496883600202585
 40
0.3840799635341071
 40
0.4996733618307931
 40
0.5701610786456657
 40
0.6353698383339784
 40
0.6952993469551061
 40
0.7499496410937264
 40
0.7785708147205286
 40
0.806982300364288
 40
0.835184196518186
 40
0.8631766039109713
 40
0.8909596255731385
 40
0.9185333669055229
 40
0.9458979357504416
 40
0.9730534424654734
 40
1.0
 40
1.0
 40
1.0
 40
1.0
 10
172.3884972362393
 20
108.877922614699
 30
0.0
 10
172.3877253991659
 20
108.8762310796532
 30
0.0
 10
172.3861816761361
 20
108.8728479024306
 30
0.0
 10
172.3745389794142
 20
108.8690469426235
 30
0.0
 10
172.3560759770946
 20
108.8662551954384
 30
0.0
 10
172.3301188912329
 20
108.8642933818747
 30
0.0
 10
172.2889057304685
 20
108.8641522715346
 30
0.0
 10
172.2003468763753
 20
108.8583341060632
 30
0.0
 10
171.9854681686842
 20
108.8490321220572
 30
0.0
 10
171.5597178583245
 20
108.8397240515464
 30
0.0
 10
170.6426367722082
 20
108.826093875245
 30
0.0
 10
169.0770926453758
 20
108.8176825831688
 30
0.0
 10
166.9207750574958
 20
108.8096843072184
 30
0.0
 10
164.9593868549217
 20
108.8022918639399
 30
0.0
 10
163.2960641616259
 20
108.8044539149287
 30
0.0
 10
161.6673968078443
 20
108.8093628113187
 30
0.0
 10
160.3079476472107
 20
108.8138029567438
 30
0.0
 10
159.2188427477704
 20
108.8169831960599
 30
0.0
 10
158.374011653076
 20
108.8201078706954
 30
0.0
 10
157.5236901948643
 20
108.8235843333156
 30
0.0
 10
156.669767142435
 20
108.8273937699155
 30
0.0
 10
155.8140950778424
 20
108.8314326706874
 30
0.0
 10
154.9584613688253
 20
108.8356194563161
 30
0.0
 10
154.1045920343673
 20
108.8398597677225
 30
0.0
 10
153.2541486369357
 20
108.8440813954018
 30
0.0
 10
152.6883469098468
 20
108.8467922149704
 30
0.0
 10
152.4065386460843
 20
108.8481423899866
 30
0.0
  0
SPLINE
  5
106
330
23
100
AcDbEntity
  8
0
  6
Continuous
 62
     8
370
    25
100
AcDbSpline
210
0.0
220
0.0
230
1.0
 70
     8
 71
     3
 72
    18
 73
    14
 74
     0
 42
0.000000001
 43
0.00000001
 40
0.0
 40
0.0
 40
0.0
 40
0.0
 40
0.0440167367140111
 40
0.1243856588478862
 40
0.211487865514242
 40
0.3037379870401617
 40
0.3987953905710905
 40
0.4938527941020258
 40
0.5861029156279466
 40
0.6732051222943001
 40
0.7535740444281719
 40
0.8910942049848319
 40
1.0
 40
1.0
 40
1.0
 40
1.0
 10
-166.8819342571264
 20
110.6026859669663
 30
0.0
 10
-166.9336329306534
 20
110.7059192227204
 30
0.0
 10
-167.0797267587803
 20
110.9976431779835
 30
0.0
 10
-167.5050027945755
 20
111.3686237972676
 30
0.0
 10
-168.0740188938798
 20
111.7373076313824
 30
0.0
 10
-168.7613713097457
 20
111.9667580678242
 30
0.0
 10
-169.5018594369622
 20
112.0283925471007
 30
0.0
 10
-170.2358671264396
 20
111.9059855717879
 30
0.0
 10
-170.8985321170013
 20
111.6189473135533
 30
0.0
 10
-171.4463226085522
 20
111.2096609650256
 30
0.0
 10
-171.9661228007588
 20
110.6037866305471
 30
0.0
 10
-172.3445273619569
 20
109.8091581984767
 30
0.0
 10
-172.3750208888146
 20
109.1633374453423
 30
0.0
 10
-172.3884972362129
 20
108.8779226139615
 30
0.0
  0
SPLINE
  5
107
330
23
100
AcDbEntity
  8
0
  6
Continuous
 62
     8
370
    25
100
AcDbSpline
210
0.0
220
0.0
230
1.0
 70
    24
 71
     3
 72
    14
 73
    10
 74
     0
 42
0.000000001
 43
0.00000001
 40
0.0
 40
0.0
 40
0.0
 40
0.0
 40
0.0375015457775096
 40
0.1896103079046438
 40
0.3372387757541132
 40
0.4766495606829694
 40
0.6053082986336952
 40
0.8255292538366796
 40
1.0
 40
1.0
 40
1.0
 40
1.0
 10
-152.4065386460192
 20
111.9828259338035
 30
0.0
 10
-152.4065386460192
 20
111.9885289005888
 30
0.0
 10
-152.4065386460192
 20
112.0173634796899
 30
0.0
 10
-152.4065386460193
 20
111.8881643004617
 30
0.0
 10
-152.4065386460191
 20
111.6059011149122
 30
0.0
 10
-152.4065386460192
 20
111.1887667692617
 30
0.0
 10
-152.4065386460192
 20
110.5788107581165
 30
0.0
 10
-152.4065386460192
 20
109.7802045391496
 30
0.0
 10
-152.4065386460192
 20
109.1338562114492
 30
0.0
 10
-152.4065386460192
 20
108.8481423881666
 30
0.0
  0
SPLINE
  5
108
330
23
100
AcDbEntity
  8
0
  6
Continuous
 62
     8
370
    25
100
AcDbSpline
210
0.0
220
0.0
230
1.0
 70
     8
 71
     3
 72
    18
 73
    14
 74
     0
 42
0.000000001
 43
0.00000001
 40
0.0
 40
0.0
 40
0.0
 40
0.0
 40
0.1138276541349196
 40
0.1883276155872787
 40
0.269069161773935
 40
0.3545826950406884
 40
0.4426985078365394
 40
0.5308143206323973
 40
0.6163278538991431
 40
0.6970694000857982
 40
0.7715693615381547
 40
0.8990470779241053
 40
1.0
 40
1.0
 40
1.0
 40
1.0
 10
166.5810390034042
 20
110.0648876295079
 30
0.0
 10
166.7173904191265
 20
110.3584460618082
 30
0.0
 10
166.9429835511302
 20
110.8441378737921
 30
0.0
 10
167.4998127059845
 20
111.3722923885424
 30
0.0
 10
168.0755496742523
 20
111.7362256114509
 30
0.0
 10
168.7609369763474
 20
111.9670650769439
 30
0.0
 10
169.5019774260411
 20
112.0283091489743
 30
0.0
 10
170.2358364888737
 20
111.9060072287639
 30
0.0
 10
170.8985397327821
 20
111.6189419308214
 30
0.0
 10
171.4463208228367
 20
111.2096622274607
 30
0.0
 10
171.9661236431961
 20
110.6037860352667
 30
0.0
 10
172.3445271672275
 20
109.8091583365101
 30
0.0
 10
172.375020829149
 20
109.1633374881821
 30
0.0
 10
172.3884972362393
 20
108.8779226146991
 30
0.0
  0
SPLINE
  5
109
330
23
100
AcDbEntity
  8
0
  6
Continuous
 62
     8
370
    25
100
AcDbSpline
210
0.0
220
0.0
230
1.0
 70
    24
 71
     3
 72
    14
 73
    10
 74
     0
 42
0.000000001
 43
0.00000001
 40
0.0
 40
0.0
 40
0.0
 40
0.0
 40
0.0375014429106487
 40
0.1896102215572562
 40
0.3372387053971567
 40
0.4766495053527017
 40
0.6053082570821124
 40
0.8255292356131848
 40
1.0
 40
1.0
 40
1.0
 40
1.0
 10
152.4065386460843
 20
111.9828259709741
 30
0.0
 10
152.4065386460844
 20
111.9885289189313
 30
0.0
 10
152.4065386460844
 20
112.0173634687984
 30
0.0
 10
152.4065386460843
 20
111.8881642933406
 30
0.0
 10
152.4065386460843
 20
111.6059011222149
 30
0.0
 10
152.4065386460844
 20
111.1887667729642
 30
0.0
 10
152.4065386460844
 20
110.5788107619182
 30
0.0
 10
152.4065386460843
 20
109.7802045415791
 30
0.0
 10
152.4065386460843
 20
109.1338562132924
 30
0.0
 10
152.4065386460843
 20
108.8481423899866
 30
0.0
  0
LINE
  5
10A
330
23
100
AcDbEntity
  8
0
  6
Continuous
 62
     7
370
    25
100
AcDbLine
 10
166.6283813618
 20
110.1495039244
 30
0.0
 11
166.844950522
 21
110.6229685295
 31
0.0
  0
LINE
  5
10B
330
23
100
AcDbEntity
  8
0
  6
Continuous
 62
     7
370
    25
100
AcDbLine
 10
166.9854522516
 20
110.7877065135
 30
0.0
 11
166.8449222496
 21
110.6229248268
 31
0.0
  0
LINE
  5
10C
330
23
100
AcDbEntity
  8
0
  6
Continuous
 62
     7
370
    25
100
AcDbLine
 10
-166.8449505126
 20
110.6229685149
 30
0.0
 11
-166.985461204
 21
110.7877225175
 31
0.0
  0
LINE
  5
10D
330
23
100
AcDbEntity
  8
0
  6
Continuous
 62
     7
370
    25
100
AcDbLine
 10
-166.5810374911
 20
110.0648849274
 30
0.0
 11
-166.8819342571
 21
110.602685967
 31
0.0
  0
LINE
  5
10E
330
23
100
AcDbEntity
  8
0
  6
Continuous
 62
     7
370
    25
100
AcDbLine
 10
152.4065386461
 20
108.84814239
 30
0.0
 11
-152.406538646
 21
108.8481423882
 31
0.0
  0
LINE
  5
10F
330
23
100
AcDbEntity
  8
0
  6
Continuous
 62
     7
370
    25
100
AcDbLine
 10
172.3884972362
 20
108.8779226147
 30
0.0
 11
168.6033187646
 21
2.8929254085
 31
0.0
  0
LINE
  5
110
330
23
100
AcDbEntity
  8
0
  6
Continuous
 62
     7
370
    25
100
AcDbLine
 10
148.6214694424
 20
2.8662046882
 30
0.0
 11
152.4065386461
 21
108.84814239
 31
0.0
  0
LINE
  5
111
330
23
100
AcDbEntity
  8
0
  6
Continuous
 62
     7
370
    25
100
AcDbLine
 10
-152.406538646
 20
108.8481423882
 30
0.0
 11
-148.6214694424
 21
2.8662046882
 31
0.0
  0
LINE
  5
112
330
23
100
AcDbEntity
  8
0
  6
Continuous
 62
     7
370
    25
100
AcDbLine
 10
-168.6033187646
 20
2.8929254085
 30
0.0
 11
-172.3884972362
 21
108.877922614
 31
0.0
  0
LINE
  5
113
330
23
100
AcDbEntity
  8
0
  6
Continuous
 62
     7
370
    25
100
AcDbLine
 10
-148.6214694424
 20
2.8662046882
 30
0.0
 11
148.6214694424
 21
2.8662046882
 31
0.0
  0
LINE
  5
114
330
23
100
AcDbEntity
  8
0
  6
Continuous
 62
     7
370
    25
100
AcDbLine
 10
-148.6214694424
 20
0.0
 30
0.0
 11
-148.6214694424
 21
2.8662046882
 31
0.0
  0
LINE
  5
115
330
23
100
AcDbEntity
  8
0
  6
Continuous
 62
     7
370
    25
100
AcDbLine
 10
165.6052302015
 20
0.0
 30
0.0
 11
-165.6052302015
 21
0.0
 31
0.0
  0
LINE
  5
116
330
23
100
AcDbEntity
  8
0
  6
Continuous
 62
     7
370
    25
100
AcDbLine
 10
148.6214694424
 20
0.0
 30
0.0
 11
148.6214694424
 21
2.8662046882
 31
0.0
  0
ARC
  5
117
330
23
100
AcDbEntity
  8
0
  6
Continuous
 62
     7
370
    25
100
AcDbCircle
 10
157.707016722
 20
679.9239803355
 30
0.0
 40
677.1187331139124
100
AcDbArc
 50
269.2311848573
 51
270.9220525692
  0
ARC
  5
118
330
23
100
AcDbEntity
  8
0
  6
Continuous
 62
     7
370
    25
100
AcDbCircle
 10
-157.517397048
 20
821.7222446803
 30
0.0
 40
818.9043605693693
100
AcDbArc
 50
269.2243344163
 51
270.6224281572
  0
ARC
  5
119
330
23
100
AcDbEntity
  8
0
  6
Continuous
 62
     7
370
    25
100
AcDbCircle
 10
-165.6052302015
 20
3.0
 30
0.0
 40
2.999999999999994
100
AcDbArc
 50
182.0454084889
 51
270.0
  0
ARC
  5
11A
330
23
100
AcDbEntity
  8
0
  6
Continuous
 62
     7
370
    25
100
AcDbCircle
 10
165.6052302015
 20
3.0
 30
0.0
 40
3.000000000000031
100
AcDbArc
 50
270.0
 51
357.9545915111
  0
VIEWPORT
  5
248
330
23
100
AcDbEntity
  8
0
100
AcDbViewport
 10
0.0
 20
0.0
 30
0.0
 40
205.6
 41
156.0
 68
     1
 69
     1
 12
0.0
 22
56.0014795037
 13
0.0
 23
0.0
 14
10.0
 24
10.0
 15
10.0
 25
10.0
 16
0.0
 26
0.0
 36
1.0
 17
0.0
 27
0.0
 37
0.0
 42
50.0
 43
0.0
 44
0.0
 45
394.4864845721
 50
0.0
 51
0.0
 72
   100
 90
   557152
  1

281
     0
 71
     1
 74
     0
110
0.0
120
0.0
130
0.0
111
1.0
121
0.0
131
0.0
112
0.0
122
1.0
132
0.0
 79
     0
146
0.0
  0
ENDBLK
  5
25
330
23
100
AcDbEntity
  8
0
100
AcDbBlockEnd
  0
BLOCK
  5
11D
330
11B
100
AcDbEntity
  8
0
100
AcDbBlockBegin
  2
*Paper_Space1
 70
     0
 10
0.0
 20
0.0
 30
0.0
  3
*Paper_Space1
  1

  0
SPLINE
  5
11F
330
11B
100
AcDbEntity
  8
0
  6
Continuous
 62
     7
370
    25
100
AcDbSpline
210
0.0
220
0.0
230
1.0
 70
     8
 71
     3
 72
    22
 73
    18
 74
     0
 42
0.000000001
 43
0.00000001
 40
0.0
 40
0.0
 40
0.0
 40
0.0
 40
0.054722044766018
 40
0.1076499846400494
 40
0.1570444280397315
 40
0.2845880763260126
 40
0.3524395324408434
 40
0.4065584721128209
 40
0.4517700884748928
 40
0.542143149916356
 40
0.6633899072309943
 40
0.7359584964653724
 40
0.8165093228884647
 40
0.8596894084311937
 40
0.9048627626261152
 40
0.9521058063303987
 40
1.0
 40
1.0
 40
1.0
 40
1.0
 10
-234.8725690501462
 20
172.3712795770295
 30
0.0
 10
-235.444574245514
 20
172.3574157831858
 30
0.0
 10
-236.569831000057
 20
172.3301427307859
 30
0.0
 10
-238.1997598605243
 20
172.1142889451554
 30
0.0
 10
-240.5519593473304
 20
171.6227620245799
 30
0.0
 10
-242.9778230590258
 20
170.7462736565057
 30
0.0
 10
-245.2693740001023
 20
169.4945197273438
 30
0.0
 10
-246.7173936159604
 20
168.5129405952692
 30
0.0
 10
-248.2676125413747
 20
167.2751197750536
 30
0.0
 10
-250.1819749582185
 20
165.3813077177603
 30
0.0
 10
-251.9284425795199
 20
162.9545161741634
 30
0.0
 10
-253.2330131495349
 20
160.3956640125555
 30
0.0
 10
-253.9404923378745
 20
158.4636351529186
 30
0.0
 10
-254.3844029231057
 20
156.7540906762657
 30
0.0
 10
-254.6429551976835
 20
155.3599441791704
 30
0.0
 10
-254.8130119973666
 20
153.9015567128611
 30
0.0
 10
-254.8341505812038
 20
152.90714668941
 30
0.0
 10
-254.8447922127682
 20
152.4065386460736
 30
0.0
  0
SPLINE
  5
120
330
11B
100
AcDbEntity
  8
0
  6
Continuous
 62
     7
370
    25
100
AcDbSpline
210
0.0
220
0.0
230
1.0
 70
     8
 71
     3
 72
    22
 73
    18
 74
     0
 42
0.000000001
 43
0.00000001
 40
0.0
 40
0.0
 40
0.0
 40
0.0
 40
0.0547220447656317
 40
0.10764998464142
 40
0.1570444280383045
 40
0.2845880763271727
 40
0.3524395324411848
 40
0.4065584721148794
 40
0.4517700884768093
 40
0.5421431499170766
 40
0.6633899072319431
 40
0.7359584964673874
 40
0.8165093228833843
 40
0.8596894084283719
 40
0.9048627626284556
 40
0.9521058063317418
 40
1.0
 40
1.0
 40
1.0
 40
1.0
 10
234.8725690626631
 20
-172.3712795770509
 30
0.0
 10
235.4445742580269
 20
-172.3574157832087
 30
0.0
 10
236.5698310125844
 20
-172.3301427308112
 30
0.0
 10
238.1997598730427
 20
-172.114288945196
 30
0.0
 10
240.5519593598324
 20
-171.6227620244844
 30
0.0
 10
242.9778230716235
 20
-170.746273656717
 30
0.0
 10
245.2693740126867
 20
-169.4945197274172
 30
0.0
 10
246.7173936284649
 20
-168.5129405952174
 30
0.0
 10
248.2676125539183
 20
-167.275119775046
 30
0.0
 10
250.1819749707487
 20
-165.3813077177475
 30
0.0
 10
251.928442592063
 20
-162.9545161741617
 30
0.0
 10
253.2330131620625
 20
-160.3956640126083
 30
0.0
 10
253.940492350348
 20
-158.4636351529949
 30
0.0
 10
254.3844029356158
 20
-156.7540906763476
 30
0.0
 10
254.6429552102085
 20
-155.359944179185
 30
0.0
 10
254.8130120098826
 20
-153.9015567128445
 30
0.0
 10
254.8341505937208
 20
-152.9071466894175
 30
0.0
 10
254.8447922252857
 20
-152.406538646095
 30
0.0
  0
SPLINE
  5
121
330
11B
100
AcDbEntity
  8
0
  6
Continuous
 62
     7
370
    25
100
AcDbSpline
210
0.0
220
0.0
230
1.0
 70
     8
 71
     3
 72
    22
 73
    18
 74
     0
 42
0.000000001
 43
0.00000001
 40
0.0
 40
0.0
 40
0.0
 40
0.0
 40
0.0412616607485801
 40
0.0819517532760955
 40
0.120622363974585
 40
0.157326053671408
 40
0.2848348035170589
 40
0.3526864960111192
 40
0.4068299717842298
 40
0.4520346492768537
 40
0.5423716428064144
 40
0.6636283081176753
 40
0.7362196473060081
 40
0.81679808744388
 40
0.8748307380725808
 40
0.9364568772651773
 40
1.0
 40
1.0
 40
1.0
 40
1.0
 10
254.8447922252138
 20
152.4065386460081
 30
0.0
 10
254.8369088001972
 20
152.8377901938177
 30
0.0
 10
254.8212511536019
 20
153.6943194707505
 30
0.0
 10
254.6953429343487
 20
154.9497768747624
 30
0.0
 10
254.5047151915598
 20
156.1482199037135
 30
0.0
 10
254.046185274796
 20
158.2187165425077
 30
0.0
 10
253.2149540478053
 20
160.518185837597
 30
0.0
 10
251.9611264757797
 20
162.8085404882093
 30
0.0
 10
250.9782683918265
 20
164.2558686489843
 30
0.0
 10
249.7394002402171
 20
165.8049935186163
 30
0.0
 10
247.8436751339054
 20
167.7169008896522
 30
0.0
 10
245.4158384393718
 20
169.4618073993866
 30
0.0
 10
242.8553183233943
 20
170.7642015029973
 30
0.0
 10
240.7762802640014
 20
171.5249913541555
 30
0.0
 10
238.7420111608301
 20
172.0229925770503
 30
0.0
 10
236.8453821187044
 20
172.3156179777095
 30
0.0
 10
235.5368535099885
 20
172.352537236151
 30
0.0
 10
234.8725690626306
 20
172.3712795769965
 30
0.0
  0
SPLINE
  5
122
330
11B
100
AcDbEntity
  8
0
  6
Continuous
 62
     7
370
    25
100
AcDbSpline
210
0.0
220
0.0
230
1.0
 70
     8
 71
     3
 72
    22
 73
    18
 74
     0
 42
0.000000001
 43
0.00000001
 40
0.0
 40
0.0
 40
0.0
 40
0.0
 40
0.0412616192558343
 40
0.0819517482755294
 40
0.1206223806584339
 40
0.157326079481691
 40
0.2848347916336296
 40
0.3526864927789642
 40
0.406829970509216
 40
0.4520346480187383
 40
0.542371641940494
 40
0.6636283076707328
 40
0.7362196470286516
 40
0.8167980873569218
 40
0.8748307380807576
 40
0.9364568773361699
 40
1.0
 40
1.0
 40
1.0
 40
1.0
 10
-254.8447922126965
 20
-152.4065386460309
 30
0.0
 10
-254.836908802432
 20
-152.8377897599346
 30
0.0
 10
-254.821251170347
 20
-153.6943189841283
 30
0.0
 10
-254.6953429799969
 20
-154.9497765682437
 30
0.0
 10
-254.5047151149418
 20
-156.1482202909982
 30
0.0
 10
-254.0461851470612
 20
-158.2187168461116
 30
0.0
 10
-253.2149539420031
 20
-160.5181859113795
 30
0.0
 10
-251.9611265473573
 20
-162.8085403367492
 30
0.0
 10
-250.97826841815
 20
-164.2558686018139
 30
0.0
 10
-249.7394002512813
 20
-165.804993491277
 30
0.0
 10
-247.8436751432758
 20
-167.7169008726722
 30
0.0
 10
-245.4158384416102
 20
-169.461807390939
 30
0.0
 10
-242.85531831904
 20
-170.7642014997288
 30
0.0
 10
-240.7762802552877
 20
-171.5249913531919
 30
0.0
 10
-238.7420111485366
 20
-172.0229925771087
 30
0.0
 10
-236.8453821054205
 20
-172.3156179777816
 30
0.0
 10
-235.5368534967495
 20
-172.3525372362025
 30
0.0
 10
-234.8725690501131
 20
-172.3712795770179
 30
0.0
  0
SPLINE
  5
123
330
11B
100
AcDbEntity
  8
0
  6
Continuous
 62
     7
370
    25
100
AcDbSpline
210
0.0
220
0.0
230
1.0
 70
     8
 71
     3
 72
    24
 73
    20
 74
     0
 42
0.000000001
 43
0.00000001
 40
0.0
 40
0.0
 40
0.0
 40
0.0
 40
0.1249999999999908
 40
0.1249999999999908
 40
0.1874999999999915
 40
0.1874999999999915
 40
0.2499999999999922
 40
0.2499999999999922
 40
0.3749999999999935
 40
0.3749999999999935
 40
0.4999999999999949
 40
0.4999999999999949
 40
0.6249999999999961
 40
0.6249999999999961
 40
0.7499999999999974
 40
0.7499999999999974
 40
0.8749999999999987
 40
0.8749999999999987
 40
1.0
 40
1.0
 40
1.0
 40
1.0
 10
235.0000000062587
 20
148.5191049892883
 30
0.0
 10
235.0000000062587
 20
148.8482933236735
 30
0.0
 10
234.9678410706506
 20
149.172016939099
 30
0.0
 10
234.8731677464458
 20
149.6497117468529
 30
0.0
 10
234.8338142869016
 20
149.8076186405883
 30
0.0
 10
234.7391380117023
 20
150.1207187796917
 30
0.0
 10
234.6835455409337
 20
150.2763422254969
 30
0.0
 10
234.4961671962049
 20
150.7290153595568
 30
0.0
 10
234.3432016939831
 20
151.0152537434923
 30
0.0
 10
233.9816123892617
 20
151.5568841325596
 30
0.0
 10
233.7710387833621
 20
151.8133039792213
 30
0.0
 10
233.3109785916776
 20
152.272714852648
 30
0.0
 10
233.059917700162
 20
152.4787652094669
 30
0.0
 10
232.5147900379669
 20
152.8424936445022
 30
0.0
 10
232.2245894564034
 20
152.9969319297684
 30
0.0
 10
231.6246617960408
 20
153.2448282129135
 30
0.0
 10
231.3108616861782
 20
153.3401279010315
 30
0.0
 10
230.6667440157058
 20
153.4679760472111
 30
0.0
 10
230.3411301712208
 20
153.4999999999893
 30
0.0
 10
230.0119475173646
 20
153.4999999999893
 30
0.0
  0
SPLINE
  5
125
330
11B
100
AcDbEntity
  8
0
  6
Continuous
 62
     7
370
    25
100
AcDbSpline
210
0.0
220
0.0
230
1.0
 70
     8
 71
     3
 72
    29
 73
    25
 74
     0
 42
0.000000001
 43
0.00000001
 40
0.0
 40
0.0
 40
0.0
 40
0.0
 40
0.0208547684434965
 40
0.0416644361065069
 40
0.0624510954719557
 40
0.0832369123869384
 40
0.1040440553909248
 40
0.1248946250011512
 40
0.1560699531128693
 40
0.187287103986336
 40
0.250109996756163
 40
0.3124330808457596
 40
0.3746560711898474
 40
0.4997777981506071
 40
0.5619733226418742
 40
0.6244022848278666
 40
0.7493352942650144
 40
0.8115901811040696
 40
0.8429739748482116
 40
0.8743923373709483
 40
0.9058204027909361
 40
0.9371800639585715
 40
0.9685477922000549
 40
1.0
 40
1.0
 40
1.0
 40
1.0
 10
230.0119475173641
 20
158.4999999999893
 30
0.0
 10
230.1209300384198
 20
158.4989820224598
 30
0.0
 10
230.3386593935816
 20
158.4969482688918
 30
0.0
 10
230.6646715999107
 20
158.4804594296105
 30
0.0
 10
230.989632441282
 20
158.454122753528
 30
0.0
 10
231.3135405399597
 20
158.4169821206103
 30
0.0
 10
231.6363960657546
 20
158.3692856746794
 30
0.0
 10
232.0109539067838
 20
158.3014401556137
 30
0.0
 10
232.4356621538509
 20
158.2065345392267
 30
0.0
 10
233.0666841891614
 20
158.0326910677182
 30
0.0
 10
233.8376812044188
 20
157.7578762692792
 30
0.0
 10
234.7246237340558
 20
157.3393414750986
 30
0.0
 10
235.8460636336838
 20
156.6695820844233
 30
0.0
 10
236.8630142151246
 20
155.8373106634515
 30
0.0
 10
237.7411705520114
 20
154.8696290115136
 30
0.0
 10
238.5207189090071
 20
153.8220734052532
 30
0.0
 10
239.1412762686525
 20
152.6633693407036
 30
0.0
 10
239.5273856401517
 20
151.5868852223253
 30
0.0
 10
239.7024260795877
 20
150.9569943641921
 30
0.0
 10
239.8106451243326
 20
150.4764302003006
 30
0.0
 10
239.8952983734051
 20
149.9912666283394
 30
0.0
 10
239.9554240864964
 20
149.5027827578555
 30
0.0
 10
239.9930518395664
 20
149.011779415552
 30
0.0
 10
239.9976818752209
 20
148.6834769638841
 30
0.0
 10
240.0000000062587
 20
148.5191049892887
 30
0.0
  0
SPLINE
  5
12A
330
11B
100
AcDbEntity
  8
0
  6
Continuous
 62
     7
370
    25
100
AcDbSpline
210
0.0
220
0.0
230
1.0
 70
     8
 71
     3
 72
    29
 73
    25
 74
     0
 42
0.000000001
 43
0.00000001
 40
0.0
 40
0.0
 40
0.0
 40
0.0
 40
0.0208544048637636
 40
0.0416636650429163
 40
0.0624499662728855
 40
0.083235567805678
 40
0.1040427311388845
 40
0.1248936487087864
 40
0.15607204861032
 40
0.1872881264802229
 40
0.2501103063697168
 40
0.3124311432943536
 40
0.37465722519546
 40
0.4997774055861016
 40
0.5619735141620106
 40
0.6244115341871244
 40
0.7493352884910296
 40
0.8115951312152814
 40
0.8429816204400186
 40
0.8744034090634669
 40
0.9058282713023849
 40
0.9371852480072065
 40
0.968550467939841
 40
1.0
 40
1.0
 40
1.0
 40
1.0
 10
240.0000000062587
 20
-148.5191049893093
 30
0.0
 10
239.9989798911068
 20
-148.6280856605142
 30
0.0
 10
239.9969418691028
 20
-148.8458110864325
 30
0.0
 10
239.9804184300538
 20
-149.1718160905418
 30
0.0
 10
239.9540264944184
 20
-149.4967675873654
 30
0.0
 10
239.9168078611407
 20
-149.820664171952
 30
0.0
 10
239.869011509271
 20
-150.1435060733003
 30
0.0
 10
239.8010207795568
 20
-150.518056193298
 30
0.0
 10
239.705921387311
 20
-150.9427344960937
 30
0.0
 10
239.5317334747928
 20
-151.5736696186597
 30
0.0
 10
239.2563854161072
 20
-152.3444602222146
 30
0.0
 10
238.8370950116276
 20
-153.2310502200601
 30
0.0
 10
238.1662877991327
 20
-154.3518650499934
 30
0.0
 10
237.332900706267
 20
-155.3679297332994
 30
0.0
 10
236.3642429593804
 20
-156.2450686358382
 30
0.0
 10
235.3158730017127
 20
-157.0235256226325
 30
0.0
 10
234.1565985716834
 20
-157.643016336081
 30
0.0
 10
233.0798610173488
 20
-158.028377430888
 30
0.0
 10
232.4498167038735
 20
-158.2030789500847
 30
0.0
 10
231.9691865864936
 20
-158.3110718277391
 30
0.0
 10
231.4840042362185
 20
-158.3955377100546
 30
0.0
 10
230.9955482387994
 20
-158.4555259154063
 30
0.0
 10
230.5045807770945
 20
-158.4930676347374
 30
0.0
 10
230.1763054780856
 20
-158.4976871447643
 30
0.0
 10
230.0119475173645
 20
-158.5000000000107
 30
0.0
  0
SPLINE
  5
12C
330
11B
100
AcDbEntity
  8
0
  6
Continuous
 62
     7
370
    25
100
AcDbSpline
210
0.0
220
0.0
230
1.0
 70
     8
 71
     3
 72
    24
 73
    20
 74
     0
 42
0.000000001
 43
0.00000001
 40
0.0
 40
0.0
 40
0.0
 40
0.0
 40
0.125
 40
0.125
 40
0.1875
 40
0.1875
 40
0.25
 40
0.25
 40
0.375
 40
0.375
 40
0.5
 40
0.5
 40
0.625
 40
0.625
 40
0.75
 40
0.75
 40
0.875
 40
0.875
 40
1.0
 40
1.0
 40
1.0
 40
1.0
 10
230.0119475173645
 20
-153.5000000000107
 30
0.0
 10
230.3411308310652
 20
-153.5000000000107
 30
0.0
 10
230.6648758303291
 20
-153.4679786890464
 30
0.0
 10
231.1426385787077
 20
-153.3736972069098
 30
0.0
 10
231.300574170954
 20
-153.3345056675152
 30
0.0
 10
231.6137440262137
 20
-153.2402169061128
 30
0.0
 10
231.7694512387853
 20
-153.1848378958934
 30
0.0
 10
232.2224747359871
 20
-152.9981228047656
 30
0.0
 10
232.5089857667678
 20
-152.8456725402121
 30
0.0
 10
233.0512279984816
 20
-152.4852388903544
 30
0.0
 10
233.3081434547351
 20
-152.2751997905561
 30
0.0
 10
233.768603941455
 20
-151.8160776411202
 30
0.0
 10
233.9751536434603
 20
-151.5654947892477
 30
0.0
 10
234.3398287921183
 20
-151.0213417276691
 30
0.0
 10
234.4949597567297
 20
-150.7311598486824
 30
0.0
 10
234.7437684096584
 20
-150.1316162054702
 30
0.0
 10
234.8393889897251
 20
-149.818198655087
 30
0.0
 10
234.9678352033013
 20
-149.1739640536623
 30
0.0
 10
235.0000000062587
 20
-148.8483091826299
 30
0.0
 10
235.0000000062587
 20
-148.5191049893098
 30
0.0
  0
SPLINE
  5
12D
330
11B
100
AcDbEntity
  8
0
  6
Continuous
 62
     7
370
    25
100
AcDbSpline
210
0.0
220
0.0
230
1.0
 70
     8
 71
     3
 72
    24
 73
    20
 74
     0
 42
0.000000001
 43
0.00000001
 40
0.0
 40
0.0
 40
0.0
 40
0.0
 40
0.125
 40
0.125
 40
0.1875
 40
0.1875
 40
0.25
 40
0.25
 40
0.375
 40
0.375
 40
0.5
 40
0.5
 40
0.625
 40
0.625
 40
0.75
 40
0.75
 40
0.875
 40
0.875
 40
1.0
 40
1.0
 40
1.0
 40
1.0
 10
-230.0119475048471
 20
153.4999999999893
 30
0.0
 10
-230.3411308185478
 20
153.4999999999893
 30
0.0
 10
-230.6648758178117
 20
153.467978689025
 30
0.0
 10
-231.1426385661903
 20
153.3736972068884
 30
0.0
 10
-231.3005741584365
 20
153.3345056674937
 30
0.0
 10
-231.6137440136962
 20
153.2402169060913
 30
0.0
 10
-231.7694512262678
 20
153.184837895872
 30
0.0
 10
-232.2224747234696
 20
152.9981228047442
 30
0.0
 10
-232.5089857542503
 20
152.8456725401907
 30
0.0
 10
-233.0512279859641
 20
152.4852388903329
 30
0.0
 10
-233.3081434422177
 20
152.2751997905347
 30
0.0
 10
-233.7686039289376
 20
151.8160776410988
 30
0.0
 10
-233.9751536309429
 20
151.5654947892263
 30
0.0
 10
-234.3398287796009
 20
151.0213417276477
 30
0.0
 10
-234.4949597442123
 20
150.731159848661
 30
0.0
 10
-234.743768397141
 20
150.1316162054488
 30
0.0
 10
-234.8393889772077
 20
149.8181986550655
 30
0.0
 10
-234.9678351907839
 20
149.1739640536409
 30
0.0
 10
-234.9999999937413
 20
148.8483091826084
 30
0.0
 10
-234.9999999937412
 20
148.5191049892883
 30
0.0
  0
SPLINE
  5
12F
330
11B
100
AcDbEntity
  8
0
  6
Continuous
 62
     7
370
    25
100
AcDbSpline
210
0.0
220
0.0
230
1.0
 70
     8
 71
     3
 72
    29
 73
    25
 74
     0
 42
0.000000001
 43
0.00000001
 40
0.0
 40
0.0
 40
0.0
 40
0.0
 40
0.0208544048624276
 40
0.0416636650407708
 40
0.0624499662704598
 40
0.0832355678035
 40
0.1040427311374713
 40
0.1248936487086539
 40
0.1560720486113591
 40
0.1872881264801615
 40
0.250110306369677
 40
0.3124311432943597
 40
0.3746572251954071
 40
0.4997774055860645
 40
0.5619735141619736
 40
0.6244115341871047
 40
0.7493352884910981
 40
0.8115951312154799
 40
0.8429816204474635
 40
0.874403409063437
 40
0.9058282713012055
 40
0.9371852480056432
 40
0.9685504679386687
 40
1.0
 40
1.0
 40
1.0
 40
1.0
 10
-239.9999999937412
 20
148.5191049892879
 30
0.0
 10
-239.9989798785893
 20
148.6280856604858
 30
0.0
 10
-239.9969418565852
 20
148.8458110863928
 30
0.0
 10
-239.9804184175361
 20
149.1718160904894
 30
0.0
 10
-239.9540264819006
 20
149.4967675873086
 30
0.0
 10
-239.9168078486229
 20
149.820664171899
 30
0.0
 10
-239.8690114967532
 20
150.1435060732595
 30
0.0
 10
-239.8010207670405
 20
150.5180561932745
 30
0.0
 10
-239.7059213747995
 20
150.9427344960786
 30
0.0
 10
-239.5317334622695
 20
151.573669618642
 30
0.0
 10
-239.2563854035913
 20
152.3444602221932
 30
0.0
 10
-238.8370949991099
 20
153.2310502200383
 30
0.0
 10
-238.1662877866158
 20
154.3518650499719
 30
0.0
 10
-237.33290069375
 20
155.3679297332776
 30
0.0
 10
-236.3642429468634
 20
156.2450686358164
 30
0.0
 10
-235.3158729891953
 20
157.0235256226119
 30
0.0
 10
-234.1565985591634
 20
157.6430163360548
 30
0.0
 10
-233.0798610047954
 20
158.0283774308873
 30
0.0
 10
-232.4498166913139
 20
158.2030789500599
 30
0.0
 10
-231.9691865739444
 20
158.3110718277256
 30
0.0
 10
-231.4840042237155
 20
158.3955377100336
 30
0.0
 10
-230.9955482263025
 20
158.4555259153856
 30
0.0
 10
-230.5045807645914
 20
158.4930676347163
 30
0.0
 10
-230.1763054655744
 20
158.497687144743
 30
0.0
 10
-230.0119475048471
 20
158.4999999999893
 30
0.0
  0
SPLINE
  5
134
330
11B
100
AcDbEntity
  8
0
  6
Continuous
 62
     7
370
    25
100
AcDbSpline
210
0.0
220
0.0
230
1.0
 70
     8
 71
     3
 72
    29
 73
    25
 74
     0
 42
0.000000001
 43
0.00000001
 40
0.0
 40
0.0
 40
0.0
 40
0.0
 40
0.0208547684394497
 40
0.0416644361000392
 40
0.062451095464694
 40
0.0832369123804967
 40
0.1040440553869079
 40
0.1248946250011466
 40
0.1560699531091447
 40
0.187287103986353
 40
0.2501099967560914
 40
0.3124330808457528
 40
0.3746560711898242
 40
0.4997777981505827
 40
0.5619733226417757
 40
0.6244022848277958
 40
0.7493352942649983
 40
0.81159018110401
 40
0.842973974843496
 40
0.8743923373709593
 40
0.905820402790361
 40
0.9371800639577992
 40
0.9685477921994747
 40
1.0
 40
1.0
 40
1.0
 40
1.0
 10
-230.0119475048467
 20
-158.5000000000107
 30
0.0
 10
-230.1209300258813
 20
-158.4989820224812
 30
0.0
 10
-230.3386593810093
 20
-158.4969482689128
 30
0.0
 10
-230.6646715873003
 20
-158.480459429631
 30
0.0
 10
-230.9896324286589
 20
-158.4541227535479
 30
0.0
 10
-231.3135405273495
 20
-158.4169821206302
 30
0.0
 10
-231.6363960531825
 20
-158.3692856746979
 30
0.0
 10
-232.0109538942285
 20
-158.3014401556459
 30
0.0
 10
-232.4356621413189
 20
-158.2065345392645
 30
0.0
 10
-233.0666841766243
 20
-158.032691067739
 30
0.0
 10
-233.8376811919026
 20
-157.7578762693026
 30
0.0
 10
-234.7246237215386
 20
-157.3393414751193
 30
0.0
 10
-235.846063621167
 20
-156.6695820844447
 30
0.0
 10
-236.8630142026074
 20
-155.8373106634727
 30
0.0
 10
-237.741170539494
 20
-154.869629011535
 30
0.0
 10
-238.5207188964895
 20
-153.8220734052745
 30
0.0
 10
-239.1412762561367
 20
-152.6633693407251
 30
0.0
 10
-239.527385627624
 20
-151.5868852223688
 30
0.0
 10
-239.7024260670684
 20
-150.9569943642377
 30
0.0
 10
-239.810645111809
 20
-150.4764302003479
 30
0.0
 10
-239.8952983608888
 20
-149.9912666283672
 30
0.0
 10
-239.9554240739793
 20
-149.5027827578863
 30
0.0
 10
-239.9930518270493
 20
-149.0117794155797
 30
0.0
 10
-239.9976818627036
 20
-148.6834769639078
 30
0.0
 10
-239.9999999937413
 20
-148.5191049893094
 30
0.0
  0
SPLINE
  5
135
330
11B
100
AcDbEntity
  8
0
  6
Continuous
 62
     7
370
    25
100
AcDbSpline
210
0.0
220
0.0
230
1.0
 70
     8
 71
     3
 72
    24
 73
    20
 74
     0
 42
0.000000001
 43
0.00000001
 40
0.0
 40
0.0
 40
0.0
 40
0.0
 40
0.1249999999999908
 40
0.1249999999999908
 40
0.1874999999999915
 40
0.1874999999999915
 40
0.2499999999999922
 40
0.2499999999999922
 40
0.3749999999999935
 40
0.3749999999999935
 40
0.4999999999999949
 40
0.4999999999999949
 40
0.6249999999999961
 40
0.6249999999999961
 40
0.7499999999999974
 40
0.7499999999999974
 40
0.8749999999999987
 40
0.8749999999999987
 40
1.0
 40
1.0
 40
1.0
 40
1.0
 10
-234.9999999937413
 20
-148.5191049893098
 30
0.0
 10
-234.9999999937413
 20
-148.848293323695
 30
0.0
 10
-234.9678410581332
 20
-149.1720169391204
 30
0.0
 10
-234.8731677339284
 20
-149.6497117468743
 30
0.0
 10
-234.8338142743842
 20
-149.8076186406098
 30
0.0
 10
-234.7391379991849
 20
-150.1207187797131
 30
0.0
 10
-234.6835455284162
 20
-150.2763422255184
 30
0.0
 10
-234.4961671836874
 20
-150.7290153595783
 30
0.0
 10
-234.3432016814656
 20
-151.0152537435137
 30
0.0
 10
-233.9816123767442
 20
-151.556884132581
 30
0.0
 10
-233.7710387708447
 20
-151.8133039792427
 30
0.0
 10
-233.3109785791602
 20
-152.2727148526694
 30
0.0
 10
-233.0599176876446
 20
-152.4787652094883
 30
0.0
 10
-232.5147900254495
 20
-152.8424936445236
 30
0.0
 10
-232.224589443886
 20
-152.9969319297898
 30
0.0
 10
-231.6246617835234
 20
-153.2448282129349
 30
0.0
 10
-231.3108616736607
 20
-153.3401279010529
 30
0.0
 10
-230.6667440031884
 20
-153.4679760472325
 30
0.0
 10
-230.3411301587034
 20
-153.5000000000108
 30
0.0
 10
-230.0119475048471
 20
-153.5000000000107
 30
0.0
  0
SPLINE
  5
153
330
11B
100
AcDbEntity
  8
0
  6
Continuous
 62
     7
370
    25
100
AcDbSpline
210
0.0
220
0.0
230
1.0
 70
     8
 71
     3
 72
    31
 73
    27
 74
     0
 42
0.000000001
 43
0.00000001
 40
0.0
 40
0.0
 40
0.0
 40
0.0
 40
0.0122586123424728
 40
0.0245180010660753
 40
0.0367782125512043
 40
0.049039293168915
 40
0.0613012892804058
 40
0.0824142011070798
 40
0.1241743745219408
 40
0.1884653610203328
 40
0.2496883600202585
 40
0.3840799635341071
 40
0.4996733618307931
 40
0.5701610786456657
 40
0.6353698383339784
 40
0.6952993469551061
 40
0.7499496410937264
 40
0.7785708147205286
 40
0.806982300364288
 40
0.835184196518186
 40
0.8631766039109713
 40
0.8909596255731385
 40
0.9185333669055229
 40
0.9458979357504416
 40
0.9730534424654734
 40
1.0
 40
1.0
 40
1.0
 40
1.0
 10
-234.8725690501462
 20
172.3884972362285
 30
0.0
 10
-235.0007529251912
 20
172.3877253991552
 30
0.0
 10
-235.2571287936181
 20
172.3861816761254
 30
0.0
 10
-235.6415751432443
 20
172.3745389794035
 30
0.0
 10
-236.0257706658856
 20
172.3560759770839
 30
0.0
 10
-236.4095735560037
 20
172.3301188912222
 30
0.0
 10
-236.8850533701121
 20
172.2889057304578
 30
0.0
 10
-237.6658915316458
 20
172.2003468763646
 30
0.0
 10
-238.9790904881681
 20
171.9854681686734
 30
0.0
 10
-240.679149406042
 20
171.5597178583137
 30
0.0
 10
-243.2410006712876
 20
170.6426367721975
 30
0.0
 10
-246.1249800114926
 20
169.077092645365
 30
0.0
 10
-248.7146751210209
 20
166.9207750574851
 30
0.0
 10
-250.4709784534286
 20
164.9593868549109
 30
0.0
 10
-251.6682380441699
 20
163.2960641616152
 30
0.0
 10
-252.6129627171671
 20
161.6673968078335
 30
0.0
 10
-253.2456881468262
 20
160.3079476471999
 30
0.0
 10
-253.6683467009707
 20
159.2188427477597
 30
0.0
 10
-253.9534336774299
 20
158.3740116530653
 30
0.0
 10
-254.1988760701852
 20
157.5236901948535
 30
0.0
 10
-254.4050638770006
 20
156.6697671424243
 30
0.0
 10
-254.5723735477711
 20
155.8140950778317
 30
0.0
 10
-254.701575784198
 20
154.9584613688146
 30
0.0
 10
-254.7923774799433
 20
154.1045920343566
 30
0.0
 10
-254.8487592598206
 20
153.254148636925
 30
0.0
 10
-254.8557901811985
 20
152.6883469098361
 30
0.0
 10
-254.8592920647228
 20
152.4065386460736
 30
0.0
  0
SPLINE
  5
156
330
11B
100
AcDbEntity
  8
0
  6
Continuous
 62
     7
370
    25
100
AcDbSpline
210
0.0
220
0.0
230
1.0
 70
     8
 71
     3
 72
    31
 73
    27
 74
     0
 42
0.000000001
 43
0.00000001
 40
0.0
 40
0.0
 40
0.0
 40
0.0
 40
0.012258612342449
 40
0.0245180010660424
 40
0.0367782125511777
 40
0.0490392931689111
 40
0.0613012892804409
 40
0.0824142012147815
 40
0.1241743745219958
 40
0.1884653612832335
 40
0.2496883600204801
 40
0.3840799630646896
 40
0.4996733618321679
 40
0.5701610781559668
 40
0.6353698376805207
 40
0.6952993464653845
 40
0.7499496410953902
 40
0.7785708148798287
 40
0.8069823006417729
 40
0.8351841968744005
 40
0.8631766043064593
 40
0.8909596259684437
 40
0.9185333672611864
 40
0.9458979360270081
 40
0.9730534426234847
 40
1.0
 40
1.0
 40
1.0
 40
1.0
 10
234.8725690626631
 20
-172.3884972362499
 30
0.0
 10
235.000752937708
 20
-172.3877253991762
 30
0.0
 10
235.2571288061345
 20
-172.3861816761457
 30
0.0
 10
235.6415751557607
 20
-172.3745389794232
 30
0.0
 10
236.0257706784026
 20
-172.3560759771036
 30
0.0
 10
236.4095735685221
 20
-172.3301188912423
 30
0.0
 10
236.8850533837532
 20
-172.2889057303819
 30
0.0
 10
237.6658915452839
 20
-172.2003468762245
 30
0.0
 10
238.9790905044948
 20
-171.9854681679754
 30
0.0
 10
240.6791494212213
 20
-171.5597178575296
 30
0.0
 10
243.2410006816239
 20
-170.6426367725466
 30
0.0
 10
246.1249800197828
 20
-169.0770926482005
 30
0.0
 10
248.714675126318
 20
-166.9207750644421
 30
0.0
 10
250.4709784581491
 20
-164.9593868640593
 30
0.0
 10
251.6682380473733
 20
-163.2960641760245
 30
0.0
 10
252.6129627244169
 20
-161.6673968186235
 30
0.0
 10
253.2456881581983
 20
-160.3079476504769
 30
0.0
 10
253.6683467151076
 20
-159.2188427434965
 30
0.0
 10
253.9534336924642
 20
-158.3740116451867
 30
0.0
 10
254.1988760854828
 20
-157.5236901844768
 30
0.0
 10
254.4050638920853
 20
-156.6697671307266
 30
0.0
 10
254.5723735623252
 20
-155.8140950660353
 30
0.0
 10
254.7015757980629
 20
-154.9584613581723
 30
0.0
 10
254.7923774931253
 20
-154.1045920261379
 30
0.0
 10
254.8487592724554
 20
-153.2541486324019
 30
0.0
 10
254.8557901937567
 20
-152.6883469082051
 30
0.0
 10
254.8592920772402
 20
-152.406538646095
 30
0.0
  0
SPLINE
  5
159
330
11B
100
AcDbEntity
  8
0
  6
Continuous
 62
     7
370
    25
100
AcDbSpline
210
0.0
220
0.0
230
1.0
 70
     8
 71
     3
 72
    38
 73
    34
 74
     0
 42
0.000000001
 43
0.00000001
 40
0.0
 40
0.0
 40
0.0
 40
0.0
 40
0.0142339914373171
 40
0.0285269206053933
 40
0.0428788046233963
 40
0.0572896603998737
 40
0.0717595046361317
 40
0.0862883538295382
 40
0.100876224276763
 40
0.1155231320769548
 40
0.1302290931348613
 40
0.1449941231638804
 40
0.1598182376890647
 40
0.1747014520500509
 40
0.189643781403956
 40
0.2046452407281939
 40
0.2197058448232608
 40
0.2348256083154506
 40
0.2500045456595271
 40
0.3046509278296942
 40
0.3645687133707011
 40
0.4297579413577395
 40
0.5002183210183573
 40
0.575236387449079
 40
0.6586207540394113
 40
0.750371590926161
 40
0.8115703164359922
 40
0.875855850042242
 40
0.9006825868625931
 40
0.9255103304516991
 40
0.9503391206289418
 40
0.9751689972086678
 40
1.0
 40
1.0
 40
1.0
 40
1.0
 10
-254.8592920646415
 20
-152.4065386460299
 30
0.0
 10
-254.8583001158821
 20
-152.5554267072753
 30
0.0
 10
-254.8563121110677
 20
-152.8538193205449
 30
0.0
 10
-254.8406003129078
 20
-153.3021060175386
 30
0.0
 10
-254.8154330382281
 20
-153.7517866022887
 30
0.0
 10
-254.7797818426701
 20
-154.2026262215295
 30
0.0
 10
-254.7337863458948
 20
-154.6543849275087
 30
0.0
 10
-254.677277849945
 20
-155.1068174179017
 30
0.0
 10
-254.6101776433464
 20
-155.5596732092785
 30
0.0
 10
-254.5323898866125
 20
-156.0126967032972
 30
0.0
 10
-254.4438307576837
 20
-156.4656272899511
 30
0.0
 10
-254.3444208596794
 20
-156.9181994552652
 30
0.0
 10
-254.2340875454441
 20
-157.3701428793002
 30
0.0
 10
-254.1127645187423
 20
-157.8211826150516
 30
0.0
 10
-253.9803923544443
 20
-158.2710389987141
 30
0.0
 10
-253.8369180725544
 20
-158.7194286067154
 30
0.0
 10
-253.6822975833913
 20
-159.1660613209137
 30
0.0
 10
-253.5164875300115
 20
-159.6106520429137
 30
0.0
 10
-253.1862891874873
 20
-160.4355859974793
 30
0.0
 10
-252.6128474157516
 20
-161.6676324684944
 30
0.0
 10
-251.6680463466992
 20
-163.2963467372184
 30
0.0
 10
-250.4708896127201
 20
-164.9595119565139
 30
0.0
 10
-248.9978572037614
 20
-166.6044271702631
 30
0.0
 10
-247.2036355936112
 20
-168.1975734012028
 30
0.0
 10
-245.04031135159
 20
-169.6825003410923
 30
0.0
 10
-242.8212736676299
 20
-170.7927506994068
 30
0.0
 10
-240.6791846899385
 20
-171.5597378886756
 30
0.0
 10
-239.1510813795744
 20
-171.942421028415
 30
0.0
 10
-237.9773945189426
 20
-172.1504475398244
 30
0.0
 10
-237.2053594405712
 20
-172.2566420761567
 30
0.0
 10
-236.4297702767653
 20
-172.3321190022286
 30
0.0
 10
-235.6517754690912
 20
-172.3795307575131
 30
0.0
 10
-235.1323084499378
 20
-172.3855083647999
 30
0.0
 10
-234.8725690501132
 20
-172.3884972362236
 30
0.0
  0
SPLINE
  5
15C
330
11B
100
AcDbEntity
  8
0
  6
Continuous
 62
     7
370
    25
100
AcDbSpline
210
0.0
220
0.0
230
1.0
 70
     8
 71
     3
 72
    38
 73
    34
 74
     0
 42
0.000000001
 43
0.00000001
 40
0.0
 40
0.0
 40
0.0
 40
0.0
 40
0.0142339905566235
 40
0.0285269189551738
 40
0.0428788023148193
 40
0.0572896575441061
 40
0.0717595013443428
 40
0.0862883502128915
 40
0.1008762204464228
 40
0.1155231281440849
 40
0.1302290892106217
 40
0.1449941193594289
 40
0.159818234115555
 40
0.1747014488186368
 40
0.189643778625785
 40
0.2046452385144113
 40
0.2197058432850063
 40
0.2348256075638603
 40
0.2500045458057333
 40
0.304650924492197
 40
0.3645687090864265
 40
0.4297579386627972
 40
0.5002183224477671
 40
0.5752363880843127
 40
0.6586207543798511
 40
0.7503715914708405
 40
0.8115703169904723
 40
0.8758558502030424
 40
0.9006825869912415
 40
0.9255103305481914
 40
0.9503391206932745
 40
0.9751689972408362
 40
1.0
 40
1.0
 40
1.0
 40
1.0
 10
254.859292077159
 20
152.4065386460081
 30
0.0
 10
254.8583001285188
 20
152.5554266980405
 30
0.0
 10
254.8563121239355
 20
152.853819294047
 30
0.0
 10
254.8406003275396
 20
153.3021059669295
 30
0.0
 10
254.8154330553957
 20
153.7517865311243
 30
0.0
 10
254.7797818630125
 20
154.2026261333852
 30
0.0
 10
254.7337863697931
 20
154.654384825968
 30
0.0
 10
254.6772778775508
 20
155.1068173065462
 30
0.0
 10
254.610177674573
 20
155.5596730916769
 30
0.0
 10
254.5323899211357
 20
156.0126965829941
 30
0.0
 10
254.4438307949414
 20
156.4656271704569
 30
0.0
 10
254.3444208988711
 20
156.9181993400435
 30
0.0
 10
254.2340875855321
 20
157.3701427717577
 30
0.0
 10
254.1127645584512
 20
157.8211825185253
 30
0.0
 10
253.9803923922644
 20
158.2710389164607
 30
0.0
 10
253.8369181067418
 20
158.7194285418989
 30
0.0
 10
253.6822976119715
 20
159.1660612765942
 30
0.0
 10
253.5164875507812
 20
159.6106520220344
 30
0.0
 10
253.1862892156902
 20
160.4355859593175
 30
0.0
 10
252.6128474628013
 20
161.6676323980008
 30
0.0
 10
251.6680464184503
 20
163.2963466465653
 30
0.0
 10
250.4708896643015
 20
164.9595119130638
 30
0.0
 10
248.9978572221788
 20
166.6044271671418
 30
0.0
 10
247.2036355858021
 20
168.1975734161715
 30
0.0
 10
245.0403113503201
 20
169.6825003491241
 30
0.0
 10
242.821273666307
 20
170.7927507055196
 30
0.0
 10
240.6791846897256
 20
171.5597378923011
 30
0.0
 10
239.1510813834197
 20
171.9424210301129
 30
0.0
 10
237.9773945274608
 20
172.1504475404187
 30
0.0
 10
237.2053594500731
 20
172.2566420764763
 30
0.0
 10
236.4297702872644
 20
172.3321190023528
 30
0.0
 10
235.6517754805973
 20
172.3795307575147
 30
0.0
 10
235.1323084621181
 20
172.3855083647863
 30
0.0
 10
234.8725690626306
 20
172.3884972362022
 30
0.0
  0
CIRCLE
  5
17B
330
11B
100
AcDbEntity
  8
0
  6
Continuous
 62
     7
370
    25
100
AcDbCircle
 10
0.0000000063
 20
0.0
 30
0.0
 40
35.00000000000001
  0
CIRCLE
  5
17C
330
11B
100
AcDbEntity
  8
0
  6
Continuous
 62
     7
370
    25
100
AcDbCircle
 10
0.0000000063
 20
0.0
 30
0.0
 40
24.5
  0
CIRCLE
  5
17D
330
11B
100
AcDbEntity
  8
0
  6
Continuous
 62
     7
370
    25
100
AcDbCircle
 10
0.0000000063
 20
0.0
 30
0.0
 40
22.49999999999999
  0
CIRCLE
  5
18E
330
11B
100
AcDbEntity
  8
0
  6
Continuous
 62
     7
370
    25
100
AcDbCircle
 10
0.0000000063
 20
0.0
 30
0.0
 40
39.99999999999999
  0
LINE
  5
191
330
11B
100
AcDbEntity
  8
0
  6
Continuous
 62
     7
370
    25
100
AcDbLine
 10
230.0119475174
 20
153.5
 30
0.0
 11
230.0119475174
 21
158.5
 31
0.0
  0
LINE
  5
192
330
11B
100
AcDbEntity
  8
0
  6
Continuous
 62
     7
370
    25
100
AcDbLine
 10
235.0000000063
 20
148.5191049893
 30
0.0
 11
240.0000000063
 21
148.5191049893
 31
0.0
  0
LINE
  5
193
330
11B
100
AcDbEntity
  8
0
  6
Continuous
 62
     7
370
    25
100
AcDbLine
 10
235.0000000063
 20
-148.5191049893
 30
0.0
 11
235.0000000063
 21
148.5191049893
 31
0.0
  0
LINE
  5
194
330
11B
100
AcDbEntity
  8
0
  6
Continuous
 62
     7
370
    25
100
AcDbLine
 10
240.0000000063
 20
148.5191049893
 30
0.0
 11
240.0000000063
 21
-148.5191049893
 31
0.0
  0
LINE
  5
195
330
11B
100
AcDbEntity
  8
0
  6
Continuous
 62
     7
370
    25
100
AcDbLine
 10
240.0000000063
 20
-148.5191049893
 30
0.0
 11
235.0000000063
 21
-148.5191049893
 31
0.0
  0
LINE
  5
196
330
11B
100
AcDbEntity
  8
0
  6
Continuous
 62
     7
370
    25
100
AcDbLine
 10
230.0119475174
 20
-158.5
 30
0.0
 11
230.0119475174
 21
-153.5
 31
0.0
  0
LINE
  5
197
330
11B
100
AcDbEntity
  8
0
  6
Continuous
 62
     7
370
    25
100
AcDbLine
 10
-234.9999999937
 20
148.5191049893
 30
0.0
 11
-239.9999999937
 21
148.5191049893
 31
0.0
  0
LINE
  5
198
330
11B
100
AcDbEntity
  8
0
  6
Continuous
 62
     7
370
    25
100
AcDbLine
 10
-230.0119475048
 20
153.5
 30
0.0
 11
-230.0119475048
 21
158.5
 31
0.0
  0
LINE
  5
199
330
11B
100
AcDbEntity
  8
0
  6
Continuous
 62
     7
370
    25
100
AcDbLine
 10
-234.9999999937
 20
148.5191049893
 30
0.0
 11
-234.9999999937
 21
-148.5191049893
 31
0.0
  0
LINE
  5
19A
330
11B
100
AcDbEntity
  8
0
  6
Continuous
 62
     7
370
    25
100
AcDbLine
 10
-239.9999999937
 20
-148.5191049893
 30
0.0
 11
-234.9999999937
 21
-148.5191049893
 31
0.0
  0
LINE
  5
19B
330
11B
100
AcDbEntity
  8
0
  6
Continuous
 62
     7
370
    25
100
AcDbLine
 10
-239.9999999937
 20
-148.5191049893
 30
0.0
 11
-239.9999999937
 21
148.5191049893
 31
0.0
  0
LINE
  5
19C
330
11B
100
AcDbEntity
  8
0
  6
Continuous
 62
     7
370
    25
100
AcDbLine
 10
-230.0119475048
 20
-158.5
 30
0.0
 11
-230.0119475048
 21
-153.5
 31
0.0
  0
LINE
  5
19D
330
11B
100
AcDbEntity
  8
0
  6
Continuous
 62
     7
370
    25
100
AcDbLine
 10
230.0119475174
 20
-158.5
 30
0.0
 11
-230.0119475048
 21
-158.5
 31
0.0
  0
LINE
  5
19E
330
11B
100
AcDbEntity
  8
0
  6
Continuous
 62
     7
370
    25
100
AcDbLine
 10
-230.0119475048
 20
-153.5
 30
0.0
 11
230.0119475174
 21
-153.5
 31
0.0
  0
LINE
  5
19F
330
11B
100
AcDbEntity
  8
0
  6
Continuous
 62
     7
370
    25
100
AcDbLine
 10
-230.0119475048
 20
158.5
 30
0.0
 11
230.0119475174
 21
158.5
 31
0.0
  0
LINE
  5
1A0
330
11B
100
AcDbEntity
  8
0
  6
Continuous
 62
     7
370
    25
100
AcDbLine
 10
230.1410959731
 20
165.6052302015
 30
0.0
 11
-230.1410959606
 21
165.6052302015
 31
0.0
  0
LINE
  5
1A1
330
11B
100
AcDbEntity
  8
0
  6
Continuous
 62
     7
370
    25
100
AcDbLine
 10
247.1309405887
 20
-148.6214694425
 30
0.0
 11
247.1309405887
 21
148.6214694424
 31
0.0
  0
LINE
  5
1A2
330
11B
100
AcDbEntity
  8
0
  6
Continuous
 62
     7
370
    25
100
AcDbLine
 10
-230.1410959606
 20
-165.6052302016
 30
0.0
 11
230.1410959731
 21
-165.6052302016
 31
0.0
  0
LINE
  5
1A3
330
11B
100
AcDbEntity
  8
0
  6
Continuous
 62
     7
370
    25
100
AcDbLine
 10
-247.1309405761
 20
148.6214694424
 30
0.0
 11
-247.1309405761
 21
-148.6214694425
 31
0.0
  0
LINE
  5
1A4
330
11B
100
AcDbEntity
  8
0
  6
Continuous
 62
     7
370
    25
100
AcDbLine
 10
230.0119475174
 20
153.5
 30
0.0
 11
-230.0119475048
 21
153.5
 31
0.0
  0
LINE
  5
1A5
330
11B
100
AcDbEntity
  8
0
  6
Continuous
 62
     7
370
    25
100
AcDbLine
 10
250.1279555727
 20
148.6214694424
 30
0.0
 11
250.1279555727
 21
-148.6214694425
 31
0.0
  0
LINE
  5
1A6
330
11B
100
AcDbEntity
  8
0
  6
Continuous
 62
     7
370
    25
100
AcDbLine
 10
250.1279555727
 20
-148.6214694425
 30
0.0
 11
247.1309405887
 21
-148.6214694425
 31
0.0
  0
LINE
  5
1A7
330
11B
100
AcDbEntity
  8
0
  6
Continuous
 62
     7
370
    25
100
AcDbLine
 10
250.1279555727
 20
148.6214694424
 30
0.0
 11
247.1309405887
 21
148.6214694424
 31
0.0
  0
LINE
  5
1A8
330
11B
100
AcDbEntity
  8
0
  6
Continuous
 62
     7
370
    25
100
AcDbLine
 10
-230.1410959606
 20
-168.6033187646
 30
0.0
 11
-230.1410959606
 21
-165.6052302016
 31
0.0
  0
LINE
  5
1A9
330
11B
100
AcDbEntity
  8
0
  6
Continuous
 62
     7
370
    25
100
AcDbLine
 10
-247.1309405761
 20
-148.6214694425
 30
0.0
 11
-250.1279555602
 21
-148.6214694425
 31
0.0
  0
LINE
  5
1AA
330
11B
100
AcDbEntity
  8
0
  6
Continuous
 62
     7
370
    25
100
AcDbLine
 10
-247.1309405761
 20
148.6214694424
 30
0.0
 11
-250.1279555602
 21
148.6214694424
 31
0.0
  0
LINE
  5
1AB
330
11B
100
AcDbEntity
  8
0
  6
Continuous
 62
     7
370
    25
100
AcDbLine
 10
-230.1410959606
 20
165.6052302015
 30
0.0
 11
-230.1410959606
 21
168.6033187646
 31
0.0
  0
LINE
  5
1AC
330
11B
100
AcDbEntity
  8
0
  6
Continuous
 62
     7
370
    25
100
AcDbLine
 10
230.1410959731
 20
-168.6033187646
 30
0.0
 11
230.1410959731
 21
-165.6052302016
 31
0.0
  0
LINE
  5
1AD
330
11B
100
AcDbEntity
  8
0
  6
Continuous
 62
     7
370
    25
100
AcDbLine
 10
-250.1279555602
 20
-148.6214694425
 30
0.0
 11
-250.1279555602
 21
148.6214694424
 31
0.0
  0
LINE
  5
1AE
330
11B
100
AcDbEntity
  8
0
  6
Continuous
 62
     7
370
    25
100
AcDbLine
 10
230.1410959731
 20
-168.6033187646
 30
0.0
 11
-230.1410959606
 21
-168.6033187646
 31
0.0
  0
LINE
  5
1AF
330
11B
100
AcDbEntity
  8
0
  6
Continuous
 62
     7
370
    25
100
AcDbLine
 10
-230.1410959606
 20
168.6033187646
 30
0.0
 11
230.1410959731
 21
168.6033187646
 31
0.0
  0
LINE
  5
1B0
330
11B
100
AcDbEntity
  8
0
  6
Continuous
 62
     7
370
    25
100
AcDbLine
 10
230.1410959731
 20
165.6052302015
 30
0.0
 11
230.1410959731
 21
168.6033187646
 31
0.0
  0
LINE
  5
1B1
330
11B
100
AcDbEntity
  8
0
  6
Continuous
 62
     7
370
    25
100
AcDbLine
 10
-234.8725690501
 20
172.3884972362
 30
0.0
 11
-230.1410959606
 21
168.6033187646
 31
0.0
  0
LINE
  5
1B2
330
11B
100
AcDbEntity
  8
0
  6
Continuous
 62
     7
370
    25
100
AcDbLine
 10
-250.1279555602
 20
148.6214694424
 30
0.0
 11
-254.8592920647
 21
152.4065386461
 31
0.0
  0
LINE
  5
1B3
330
11B
100
AcDbEntity
  8
0
  6
Continuous
 62
     7
370
    25
100
AcDbLine
 10
234.8725690627
 20
-172.3884972362
 30
0.0
 11
230.1410959731
 21
-168.6033187646
 31
0.0
  0
LINE
  5
1B4
330
11B
100
AcDbEntity
  8
0
  6
Continuous
 62
     7
370
    25
100
AcDbLine
 10
250.1279555727
 20
-148.6214694425
 30
0.0
 11
254.8592920772
 21
-152.4065386461
 31
0.0
  0
LINE
  5
1B5
330
11B
100
AcDbEntity
  8
0
  6
Continuous
 62
     7
370
    25
100
AcDbLine
 10
-254.8592920646
 20
-152.406538646
 30
0.0
 11
-250.1279555602
 21
-148.6214694425
 31
0.0
  0
LINE
  5
1B6
330
11B
100
AcDbEntity
  8
0
  6
Continuous
 62
     7
370
    25
100
AcDbLine
 10
-230.1410959606
 20
-168.6033187646
 30
0.0
 11
-234.8725690501
 21
-172.3884972362
 31
0.0
  0
LINE
  5
1B7
330
11B
100
AcDbEntity
  8
0
  6
Continuous
 62
     7
370
    25
100
AcDbLine
 10
254.8592920772
 20
152.406538646
 30
0.0
 11
250.1279555727
 21
148.6214694424
 31
0.0
  0
LINE
  5
1B8
330
11B
100
AcDbEntity
  8
0
  6
Continuous
 62
     7
370
    25
100
AcDbLine
 10
230.1410959731
 20
168.6033187646
 30
0.0
 11
234.8725690626
 21
172.3884972362
 31
0.0
  0
LINE
  5
1B9
330
11B
100
AcDbEntity
  8
0
  6
Continuous
 62
     7
370
    25
100
AcDbLine
 10
-254.8592920647
 20
152.4065386461
 30
0.0
 11
-254.8592920646
 21
-152.406538646
 31
0.0
  0
LINE
  5
1BA
330
11B
100
AcDbEntity
  8
0
  6
Continuous
 62
     7
370
    25
100
AcDbLine
 10
254.8592920772
 20
-152.4065386461
 30
0.0
 11
254.8592920772
 21
152.406538646
 31
0.0
  0
LINE
  5
1BB
330
11B
100
AcDbEntity
  8
0
  6
Continuous
 62
     7
370
    25
100
AcDbLine
 10
234.8725690626
 20
172.3884972362
 30
0.0
 11
-234.8725690501
 21
172.3884972362
 31
0.0
  0
LINE
  5
1BC
330
11B
100
AcDbEntity
  8
0
  6
Continuous
 62
     7
370
    25
100
AcDbLine
 10
-234.8725690501
 20
-172.3884972362
 30
0.0
 11
234.8725690627
 21
-172.3884972362
 31
0.0
  0
LINE
  5
1BD
330
11B
100
AcDbEntity
  8
0
  6
Continuous
 62
     7
370
    25
100
AcDbLine
 10
170.0000000063
 20
-132.0068374349
 30
0.0
 11
-169.9999999937
 21
-132.0068374349
 31
0.0
  0
LINE
  5
1BE
330
11B
100
AcDbEntity
  8
0
  6
Continuous
 62
     7
370
    25
100
AcDbLine
 10
213.5068374411
 20
88.5
 30
0.0
 11
213.5068374411
 21
-88.5
 31
0.0
  0
LINE
  5
1BF
330
11B
100
AcDbEntity
  8
0
  6
Continuous
 62
     7
370
    25
100
AcDbLine
 10
-169.9999999937
 20
132.0068374348
 30
0.0
 11
170.0000000063
 21
132.0068374348
 31
0.0
  0
LINE
  5
1C0
330
11B
100
AcDbEntity
  8
0
  6
Continuous
 62
     7
370
    25
100
AcDbLine
 10
-213.5068374286
 20
-88.5
 30
0.0
 11
-213.5068374286
 21
88.5
 31
0.0
  0
LINE
  5
1C1
330
11B
100
AcDbEntity
  8
0
  6
Continuous
 62
     7
370
    25
100
AcDbLine
 10
-169.9999999937
 20
-132.0068374349
 30
0.0
 11
-169.9999999937
 21
-98.6002512579
 31
0.0
  0
LINE
  5
1C2
330
11B
100
AcDbEntity
  8
0
  6
Continuous
 62
     7
370
    25
100
AcDbLine
 10
-169.9999999937
 20
-115.3035443464
 30
0.0
 11
170.0000000063
 21
-115.3035443464
 31
0.0
  0
LINE
  5
1C3
330
11B
100
AcDbEntity
  8
0
  6
Continuous
 62
     7
370
    25
100
AcDbLine
 10
170.0000000063
 20
-132.0068374349
 30
0.0
 11
170.0000000063
 21
-98.6002512579
 31
0.0
  0
LINE
  5
1C4
330
11B
100
AcDbEntity
  8
0
  6
Continuous
 62
     7
370
    25
100
AcDbLine
 10
180.1002512641
 20
-88.5
 30
0.0
 11
213.5068374411
 21
-88.5
 31
0.0
  0
LINE
  5
1C5
330
11B
100
AcDbEntity
  8
0
  6
Continuous
 62
     7
370
    25
100
AcDbLine
 10
170.0000000063
 20
115.3035443463
 30
0.0
 11
-169.9999999937
 21
115.3035443463
 31
0.0
  0
LINE
  5
1C6
330
11B
100
AcDbEntity
  8
0
  6
Continuous
 62
     7
370
    25
100
AcDbLine
 10
-169.9999999937
 20
98.6002512579
 30
0.0
 11
-169.9999999937
 21
132.0068374348
 31
0.0
  0
LINE
  5
1C7
330
11B
100
AcDbEntity
  8
0
  6
Continuous
 62
     7
370
    25
100
AcDbLine
 10
170.0000000063
 20
98.6002512579
 30
0.0
 11
170.0000000063
 21
132.0068374348
 31
0.0
  0
LINE
  5
1C8
330
11B
100
AcDbEntity
  8
0
  6
Continuous
 62
     7
370
    25
100
AcDbLine
 10
-213.5068374286
 20
88.5
 30
0.0
 11
-180.1002512516
 21
88.5
 31
0.0
  0
LINE
  5
1C9
330
11B
100
AcDbEntity
  8
0
  6
Continuous
 62
     7
370
    25
100
AcDbLine
 10
-213.5068374286
 20
-88.5
 30
0.0
 11
-180.1002512516
 21
-88.5
 31
0.0
  0
LINE
  5
1CA
330
11B
100
AcDbEntity
  8
0
  6
Continuous
 62
     7
370
    25
100
AcDbLine
 10
180.1002512641
 20
88.5
 30
0.0
 11
213.5068374411
 21
88.5
 31
0.0
  0
LINE
  5
1CB
330
11B
100
AcDbEntity
  8
0
  6
Continuous
 62
     7
370
    25
100
AcDbLine
 10
-196.8035443401
 20
88.5
 30
0.0
 11
-196.8035443401
 21
-88.5
 31
0.0
  0
LINE
  5
1CC
330
11B
100
AcDbEntity
  8
0
  6
Continuous
 62
     7
370
    25
100
AcDbLine
 10
196.8035443526
 20
-88.5
 30
0.0
 11
196.8035443526
 21
88.5
 31
0.0
  0
LINE
  5
1CD
330
11B
100
AcDbEntity
  8
0
  6
Continuous
 62
     7
370
    25
100
AcDbLine
 10
-169.9999999937
 20
-98.6002512579
 30
0.0
 11
170.0000000063
 21
-98.6002512579
 31
0.0
  0
LINE
  5
1CE
330
11B
100
AcDbEntity
  8
0
  6
Continuous
 62
     7
370
    25
100
AcDbLine
 10
170.0000000063
 20
98.6002512579
 30
0.0
 11
-169.9999999937
 21
98.6002512579
 31
0.0
  0
LINE
  5
1CF
330
11B
100
AcDbEntity
  8
0
  6
Continuous
 62
     7
370
    25
100
AcDbLine
 10
180.1002512641
 20
-88.5
 30
0.0
 11
180.1002512641
 21
88.5
 31
0.0
  0
LINE
  5
1D0
330
11B
100
AcDbEntity
  8
0
  6
Continuous
 62
     7
370
    25
100
AcDbLine
 10
-180.1002512516
 20
88.5
 30
0.0
 11
-180.1002512516
 21
-88.5
 31
0.0
  0
LINE
  5
1D1
330
11B
100
AcDbEntity
  8
0
  6
Continuous
 62
     8
370
    25
100
AcDbLine
 10
234.8725690626
 20
172.3412687724
 30
0.0
 11
234.8725690626
 21
172.3884972362
 31
0.0
  0
LINE
  5
1D2
330
11B
100
AcDbEntity
  8
0
  6
Continuous
 62
     8
370
    25
100
AcDbLine
 10
-234.8725690501
 20
-172.3412687724
 30
0.0
 11
-234.8725690501
 21
-172.3884972362
 31
0.0
  0
ARC
  5
1D3
330
11B
100
AcDbEntity
  8
0
  6
Continuous
 62
     7
370
    25
100
AcDbCircle
 10
-230.1483427042
 20
148.6226338358
 30
0.0
 40
16.98259791190845
100
AcDbArc
 50
89.9755509825
 51
180.0039284228
  0
ARC
  5
1D4
330
11B
100
AcDbEntity
  8
0
  6
Continuous
 62
     7
370
    25
100
AcDbCircle
 10
230.1483427167
 20
148.6226338358
 30
0.0
 40
16.98259791190848
100
AcDbArc
 50
359.9960715773
 51
90.0244490175
  0
ARC
  5
1D5
330
11B
100
AcDbEntity
  8
0
  6
Continuous
 62
     7
370
    25
100
AcDbCircle
 10
230.1483427167
 20
-148.6226338358
 30
0.0
 40
16.98259791190848
100
AcDbArc
 50
269.9755509825
 51
0.0039284227
  0
ARC
  5
1D6
330
11B
100
AcDbEntity
  8
0
  6
Continuous
 62
     7
370
    25
100
AcDbCircle
 10
-230.1483427042
 20
-148.6226338358
 30
0.0
 40
16.98259791190848
100
AcDbArc
 50
179.9960715773
 51
270.0244490175
  0
ARC
  5
1D7
330
11B
100
AcDbEntity
  8
0
  6
Continuous
 62
     7
370
    25
100
AcDbCircle
 10
-230.1426959909
 20
-148.6180589684
 30
0.0
 40
19.98525986028961
100
AcDbArc
 50
180.0097774947
 51
270.0045871299
  0
ARC
  5
1D8
330
11B
100
AcDbEntity
  8
0
  6
Continuous
 62
     7
370
    25
100
AcDbCircle
 10
-230.1422207888
 20
148.6175836471
 30
0.0
 40
19.98573514910493
100
AcDbArc
 50
89.9967753044
 51
179.9888600709
  0
ARC
  5
1D9
330
11B
100
AcDbEntity
  8
0
  6
Continuous
 62
     7
370
    25
100
AcDbCircle
 10
230.1422208013
 20
-148.6175836471
 30
0.0
 40
19.98573514910499
100
AcDbArc
 50
269.9967753044
 51
359.9888600709
  0
ARC
  5
1DA
330
11B
100
AcDbEntity
  8
0
  6
Continuous
 62
     7
370
    25
100
AcDbCircle
 10
230.1426960034
 20
148.6180589683
 30
0.0
 40
19.98525986028972
100
AcDbArc
 50
0.0097774947
 51
90.0045871299
  0
ARC
  5
1DB
330
11B
100
AcDbEntity
  8
0
  6
Continuous
 62
     7
370
    25
100
AcDbCircle
 10
-169.9999999937
 20
-88.5
 30
0.0
 40
43.50683743484787
100
AcDbArc
 50
180.0
 51
270.0
  0
ARC
  5
1DC
330
11B
100
AcDbEntity
  8
0
  6
Continuous
 62
     7
370
    25
100
AcDbCircle
 10
170.0000000063
 20
-88.5
 30
0.0
 40
43.50683743484784
100
AcDbArc
 50
270.0
 51
0.0
  0
ARC
  5
1DD
330
11B
100
AcDbEntity
  8
0
  6
Continuous
 62
     7
370
    25
100
AcDbCircle
 10
170.0000000063
 20
88.5
 30
0.0
 40
43.50683743484784
100
AcDbArc
 50
0.0
 51
90.0
  0
ARC
  5
1DE
330
11B
100
AcDbEntity
  8
0
  6
Continuous
 62
     7
370
    25
100
AcDbCircle
 10
-169.9999999937
 20
88.5
 30
0.0
 40
43.50683743484782
100
AcDbArc
 50
90.0
 51
180.0
  0
ARC
  5
1DF
330
11B
100
AcDbEntity
  8
0
  6
Continuous
 62
     7
370
    25
100
AcDbCircle
 10
170.0000000063
 20
-88.5
 30
0.0
 40
26.80354434635763
100
AcDbArc
 50
270.0
 51
0.0
  0
ARC
  5
1E0
330
11B
100
AcDbEntity
  8
0
  6
Continuous
 62
     7
370
    25
100
AcDbCircle
 10
-169.9999999937
 20
88.5
 30
0.0
 40
26.80354434635763
100
AcDbArc
 50
90.0
 51
180.0
  0
ARC
  5
1E1
330
11B
100
AcDbEntity
  8
0
  6
Continuous
 62
     7
370
    25
100
AcDbCircle
 10
-169.9999999937
 20
-88.5
 30
0.0
 40
26.80354434635768
100
AcDbArc
 50
180.0
 51
270.0
  0
ARC
  5
1E2
330
11B
100
AcDbEntity
  8
0
  6
Continuous
 62
     7
370
    25
100
AcDbCircle
 10
170.0000000063
 20
88.5
 30
0.0
 40
26.80354434635767
100
AcDbArc
 50
0.0
 51
90.0
  0
ARC
  5
1E3
330
11B
100
AcDbEntity
  8
0
  6
Continuous
 62
     7
370
    25
100
AcDbCircle
 10
-169.9999999937
 20
88.5
 30
0.0
 40
10.10025125786757
100
AcDbArc
 50
90.0
 51
180.0
  0
ARC
  5
1E4
330
11B
100
AcDbEntity
  8
0
  6
Continuous
 62
     7
370
    25
100
AcDbCircle
 10
-169.9999999937
 20
-88.5
 30
0.0
 40
10.1002512578676
100
AcDbArc
 50
180.0
 51
270.0
  0
ARC
  5
1E5
330
11B
100
AcDbEntity
  8
0
  6
Continuous
 62
     7
370
    25
100
AcDbCircle
 10
170.0000000063
 20
-88.5
 30
0.0
 40
10.1002512578676
100
AcDbArc
 50
270.0
 51
0.0
  0
ARC
  5
1E6
330
11B
100
AcDbEntity
  8
0
  6
Continuous
 62
     7
370
    25
100
AcDbCircle
 10
170.0000000063
 20
88.5
 30
0.0
 40
10.10025125786757
100
AcDbArc
 50
0.0
 51
90.0
  0
VIEWPORT
  5
24A
330
11B
100
AcDbEntity
  8
0
100
AcDbViewport
 10
0.0
 20
0.0
 30
0.0
 40
205.6
 41
156.0
 68
     1
 69
     1
 12
0.0
 22
56.0014795037
 13
0.0
 23
0.0
 14
10.0
 24
10.0
 15
10.0
 25
10.0
 16
0.0
 26
0.0
 36
1.0
 17
0.0
 27
0.0
 37
0.0
 42
50.0
 43
0.0
 44
0.0
 45
394.4864845721
 50
0.0
 51
0.0
 72
   100
 90
   557152
  1

281
     0
 71
     1
 74
     0
110
0.0
120
0.0
130
0.0
111
1.0
121
0.0
131
0.0
112
0.0
122
1.0
132
0.0
 79
     0
146
0.0
  0
ENDBLK
  5
11E
330
11B
100
AcDbEntity
  8
0
100
AcDbBlockEnd
  0
BLOCK
  5
1E9
330
1E7
100
AcDbEntity
  8
0
100
AcDbBlockBegin
  2
*Paper_Space2
 70
     0
 10
0.0
 20
0.0
 30
0.0
  3
*Paper_Space2
  1

  0
SPLINE
  5
1EB
330
1E7
100
AcDbEntity
  8
0
  6
Continuous
 62
     7
370
    25
100
AcDbSpline
210
0.0
220
0.0
230
1.0
 70
     8
 71
     3
 72
    19
 73
    15
 74
     0
 42
0.000000001
 43
0.00000001
 40
0.0
 40
0.0
 40
0.0
 40
0.0
 40
0.1147044880311406
 40
0.2101691460181467
 40
0.2860722363971365
 40
0.342172321013755
 40
0.3874525261143286
 40
0.4286096667806885
 40
0.4773623050074138
 40
0.5650877472155176
 40
0.6797762067011427
 40
0.8248678537814443
 40
0.9088223397549782
 40
1.0
 40
1.0
 40
1.0
 40
1.0
 10
68.80586553467802
 20
-73.41472035528821
 30
0.0
 10
68.1581264401516
 20
-73.75030141889444
 30
0.0
 10
66.97129604950271
 20
-74.36517522870412
 30
0.0
 10
65.05026257369744
 20
-74.99514876978786
 30
0.0
 10
63.42224326385412
 20
-75.38508194540175
 30
0.0
 10
62.09674330342056
 20
-75.6116863687519
 30
0.0
 10
61.0032664316691
 20
-75.74647198848587
 30
0.0
 10
59.94902359324168
 20
-75.83477204599295
 30
0.0
 10
58.55231817388705
 20
-75.89461012065857
 30
0.0
 10
56.56734120812326
 20
-75.8560132382338
 30
0.0
 10
53.87479042109146
 20
-75.55979533334339
 30
0.0
 10
51.39285998705792
 20
-74.96330871444013
 30
0.0
 10
49.31219775453281
 20
-74.20248119154199
 30
0.0
 10
48.3337762210071
 20
-73.68558378892051
 30
0.0
 10
47.82438837824699
 20
-73.41647559390685
 30
0.0
  0
LWPOLYLINE
  5
1EC
330
1E7
100
AcDbEntity
  8
0
  6
Continuous
 62
     7
370
    25
100
AcDbPolyline
 90
       21
 70
   128
 43
0.0
 10
284.3404919796
 20
51.0107714787
 10
278.3234537707
 20
47.5371994751
 10
272.9995904367
 20
44.4637982462
 10
268.3669806115
 20
41.7894491542
 10
264.4241408524
 20
39.5132959253
 10
261.1698936217
 20
37.6346588455
 10
258.4374629943
 20
36.057260211
 10
251.9441488359
 20
32.3087496401
 10
245.2604563423
 20
28.4503358003
 10
221.2090192778
 20
14.5657364532
 10
178.2599179792
 20
-10.228251313
 10
123.5974737323
 20
-41.7842094944
 10
115.5803705752
 20
-46.4123845595
 10
107.7184692504
 20
-50.9509632358
 10
100.5632342212
 20
-55.0815921911
 10
97.5449848188
 20
-56.8239904845
 10
93.6224993395
 20
-59.0883933871
 10
88.7891278207
 20
-61.8786398394
 10
83.0430235985
 20
-65.1957959593
 10
76.3817884752
 20
-69.041246299
 10
68.8024510982
 20
-73.4166963437
  0
LWPOLYLINE
  5
1ED
330
1E7
100
AcDbEntity
  8
0
  6
Continuous
 62
     7
370
    25
100
AcDbPolyline
 90
       22
 70
   128
 43
0.0
 10
47.823521309
 20
-73.4159700881
 10
42.421937526
 20
-70.2977187858
 10
37.758003174
 20
-67.6052849624
 10
33.8309414798
 20
-65.3382394554
 10
30.6400099619
 20
-63.4961534262
 10
28.0952815904
 20
-62.0271129468
 10
25.6167488283
 20
-60.5962864392
 10
13.5100126818
 20
-53.6072164283
 10
-8.3271197755
 20
-41.0009081936
 10
-47.3220070764
 20
-18.4896389204
 10
-116.9557233169
 20
21.709049812
 10
-205.5804433822
 20
72.8710116926
 10
-244.5753313578
 20
95.3822813551
 10
-248.8647625395
 20
97.8585172682
 10
-253.1000026123
 20
100.3034693201
 10
-257.0756145684
 20
102.5985412503
 10
-260.8192967928
 20
104.759723009
 10
-263.7918211896
 20
106.4757250223
 10
-267.629133876
 20
108.6909589128
 10
-272.3320473372
 20
111.4058936531
 10
-277.9016029451
 20
114.6211303134
 10
-284.3392426451
 20
118.3375200502
  0
SPLINE
  5
1EE
330
1E7
100
AcDbEntity
  8
0
  6
Continuous
 62
     7
370
    25
100
AcDbSpline
210
0.0
220
0.0
230
1.0
 70
     8
 71
     3
 72
    20
 73
    16
 74
     0
 42
0.000000001
 43
0.00000001
 40
0.0
 40
0.0
 40
0.0
 40
0.0
 40
0.0462604369655633
 40
0.1319818090801776
 40
0.2174674909691897
 40
0.3026786501220653
 40
0.387622108366629
 40
0.4723855584745624
 40
0.5570915100726413
 40
0.6418708074933601
 40
0.7268271129979746
 40
0.812106423461826
 40
0.8978462149983556
 40
0.9793806404147798
 40
1.0
 40
1.0
 40
1.0
 40
1.0
 10
44.13387021343048
 20
-161.6937796054378
 30
0.0
 10
44.47966626032421
 20
-161.884975955545
 30
0.0
 10
45.46622823067009
 20
-162.4304623761654
 30
0.0
 10
47.24442750279506
 20
-163.196979088573
 30
0.0
 10
49.49209467142902
 20
-163.9309949920855
 30
0.0
 10
51.86403538632425
 20
-164.4762641554745
 30
0.0
 10
54.31988545811517
 20
-164.831205051026
 30
0.0
 10
56.82386334408449
 20
-164.9923700062293
 30
0.0
 10
59.33926632468048
 20
-164.9588402043312
 30
0.0
 10
61.82977539382707
 20
-164.7309171900354
 30
0.0
 10
64.25943094096729
 20
-164.3101889196657
 30
0.0
 10
66.59409525286348
 20
-163.6998016011344
 30
0.0
 10
68.75728023084747
 20
-162.9161770272987
 30
0.0
 10
70.24754075024431
 20
-162.2106333675758
 30
0.0
 10
71.00392069009541
 20
-161.7826499192799
 30
0.0
 10
71.15659315311365
 20
-161.6962630603222
 30
0.0
  0
SPLINE
  5
1F1
330
1E7
100
AcDbEntity
  8
0
  6
Continuous
 62
     7
370
    25
100
AcDbSpline
210
0.0
220
0.0
230
1.0
 70
     8
 71
     3
 72
    11
 73
     7
 74
     0
 42
0.000000001
 43
0.00000001
 40
0.0
 40
0.0
 40
0.0
 40
0.0
 40
0.2446816911500404
 40
0.4922299157779533
 40
0.7439313157707164
 40
0.9999999999999999
 40
0.9999999999999999
 40
0.9999999999999999
 40
0.9999999999999999
 10
287.7840019914683
 20
55.07470591137447
 30
0.0
 10
287.7189111090236
 20
54.74125513032418
 30
0.0
 10
287.5879667811784
 20
54.0704470731255
 30
0.0
 10
286.9270831228417
 20
53.05964605884339
 30
0.0
 10
285.91212036761
 20
52.01612130031942
 30
0.0
 10
284.8650880502842
 20
51.34648465827303
 30
0.0
 10
284.3370691768329
 20
51.00878659537266
 30
0.0
  0
SPLINE
  5
1F2
330
1E7
100
AcDbEntity
  8
0
  6
Continuous
 62
     7
370
    25
100
AcDbSpline
210
0.0
220
0.0
230
1.0
 70
     8
 71
     3
 72
    13
 73
     9
 74
     0
 42
0.000000001
 43
0.00000001
 40
0.0
 40
0.0
 40
0.0
 40
0.0
 40
0.2181813138131331
 40
0.4588677798162283
 40
0.7211579531551221
 40
0.8129669203815693
 40
0.9069105518118846
 40
1.0
 40
1.0
 40
1.0
 40
1.0
 10
293.8152102012923
 20
54.71181115810596
 30
0.0
 10
293.8022169393729
 20
55.55147103066275
 30
0.0
 10
293.7748901754749
 20
57.31740072824864
 30
0.0
 10
292.6673734479966
 20
60.00319267498158
 30
0.0
 10
291.0905060713611
 20
62.01867999922052
 30
0.0
 10
289.5673015294877
 20
63.36631674404324
 30
0.0
 10
288.5283257755698
 20
64.15080902531297
 30
0.0
 10
287.7526216982621
 20
64.62328518429929
 30
0.0
 10
287.3665409864374
 20
64.8584443604825
 30
0.0
  0
SPLINE
  5
1F4
330
1E7
100
AcDbEntity
  8
0
  6
Continuous
 62
     7
370
    25
100
AcDbSpline
210
0.0
220
0.0
230
1.0
 70
     8
 71
     3
 72
    28
 73
    24
 74
     0
 42
0.000000001
 43
0.00000001
 40
0.0
 40
0.0
 40
0.0
 40
0.0
 40
0.0162605986655873
 40
0.0303004532782412
 40
0.042122335333151
 40
0.0517284805880015
 40
0.0593895715126906
 40
0.0668514362280928
 40
0.1032999465215755
 40
0.169042763705674
 40
0.2864406753535516
 40
0.4960797699319927
 40
0.7628931338456622
 40
0.8802910475265113
 40
0.89320479847576
 40
0.9059554014359069
 40
0.917924368477055
 40
0.9291950761316742
 40
0.9381439362333085
 40
0.9496960597678298
 40
0.9638538927384104
 40
0.9806205701572044
 40
1.0
 40
1.0
 40
1.0
 40
1.0
 10
287.3659446665731
 20
64.85879995271928
 30
0.0
 10
285.5651144167891
 20
65.89840878227116
 30
0.0
 10
282.209397080188
 20
67.83564488380219
 30
0.0
 10
277.5446294816799
 20
70.52857078240449
 30
0.0
 10
273.6169557471639
 20
72.79597864066405
 30
0.0
 10
270.3958292431678
 20
74.65550039830453
 30
0.0
 10
267.6578242671955
 20
76.23611702739281
 30
0.0
 10
261.9478316172209
 20
79.53242562006862
 30
0.0
 10
249.8070315434875
 20
86.54116031803564
 30
0.0
 10
225.4941126382869
 20
100.576709645821
 30
0.0
 10
182.0055340625614
 20
125.6821316763861
 30
0.0
 10
116.2544272102874
 20
163.6394377039271
 30
0.0
 10
50.50331498901656
 20
201.5967469013512
 30
0.0
 10
6.53364185168688
 20
226.9798988214907
 30
0.0
 10
-9.306215523633615
 20
236.1240539027016
 30
0.0
 10
-13.47297115089235
 20
238.5294706551899
 30
0.0
 10
-17.45783299769049
 20
240.829882679184
 30
0.0
 10
-21.02168689112173
 20
242.8872509433271
 30
0.0
 10
-24.53970308419228
 20
244.9181618296349
 30
0.0
 10
-28.37758133863101
 20
247.1337276845114
 30
0.0
 10
-33.08128124930799
 20
249.8491235261439
 30
0.0
 10
-38.65186540629593
 20
253.0649655504186
 30
0.0
 10
-42.65467678841371
 20
255.3757390607676
 30
0.0
 10
-44.80075027268418
 20
256.6146407439369
 30
0.0
  0
SPLINE
  5
1F5
330
1E7
100
AcDbEntity
  8
0
  6
Continuous
 62
     7
370
    25
100
AcDbSpline
210
0.0
220
0.0
230
1.0
 70
     8
 71
     3
 72
    14
 73
    10
 74
     0
 42
0.000000001
 43
0.00000001
 40
0.0
 40
0.0
 40
0.0
 40
0.0
 40
0.0925467542862447
 40
0.2655999051295483
 40
0.4383898838992323
 40
0.6082859152286189
 40
0.7730710574678282
 40
0.9318808432843356
 40
1.0
 40
1.0
 40
1.0
 40
1.0
 10
281.3390908984445
 20
-40.36048981649578
 30
0.0
 10
281.6741968184821
 20
-40.15851538329451
 30
0.0
 10
282.6359172078872
 20
-39.57886901200268
 30
0.0
 10
284.050203891434
 20
-38.48945097234567
 30
0.0
 10
285.4666133917739
 20
-37.05182719020344
 30
0.0
 10
286.5807452293107
 20
-35.47994860696315
 30
0.0
 10
287.3379304162607
 20
-33.81803138531033
 30
0.0
 10
287.7335793637293
 20
-32.42439433027749
 30
0.0
 10
287.753026842592
 20
-31.59794886617603
 30
0.0
 10
287.7588645548097
 20
-31.3498678261029
 30
0.0
  0
SPLINE
  5
1F6
330
1E7
100
AcDbEntity
  8
0
  6
Continuous
 62
     7
370
    25
100
AcDbSpline
210
0.0
220
0.0
230
1.0
 70
     8
 71
     3
 72
    34
 73
    30
 74
     0
 42
0.000000001
 43
0.00000001
 40
0.0
 40
0.0
 40
0.0
 40
0.0
 40
0.0336913507718581
 40
0.0746432706679967
 40
0.1141964365584947
 40
0.1523110013406747
 40
0.1895670971957125
 40
0.226435862239119
 40
0.2631881510943511
 40
0.2999373269343782
 40
0.3367469812160967
 40
0.3736421578492982
 40
0.4106210447380005
 40
0.4476688146811126
 40
0.4847647673206684
 40
0.5218857641301272
 40
0.5590077035584827
 40
0.5960979524690088
 40
0.6331318637685374
 40
0.6700853350642939
 40
0.7069365157737434
 40
0.7436697185979584
 40
0.7802833627493316
 40
0.8168048736507396
 40
0.8533034245830549
 40
0.8899008697567818
 40
0.9268692708572586
 40
0.9646508580820855
 40
1.0
 40
1.0
 40
1.0
 40
1.0
 10
22.47847913806503
 20
17.57974605536133
 30
0.0
 10
22.46727162886489
 20
17.19917624530094
 30
0.0
 10
22.44244136461086
 20
16.35602289319095
 30
0.0
 10
22.03044118241947
 20
15.05250979092785
 30
0.0
 10
21.31116019526378
 20
13.68542424827279
 30
0.0
 10
20.29218175664504
 20
12.37125578186939
 30
0.0
 10
19.00397852909438
 20
11.12749677373608
 30
0.0
 10
17.45795055300439
 20
9.966523655802174
 30
0.0
 10
15.67068215559452
 20
8.903386316335409
 30
0.0
 10
13.66279865203781
 20
7.954721829369883
 30
0.0
 10
11.46013545011631
 20
7.136725648066486
 30
0.0
 10
9.092211072631896
 20
6.463777404138255
 30
0.0
 10
6.591975501752584
 20
5.947966675425242
 30
0.0
 10
3.995091039708767
 20
5.598678691374419
 30
0.0
 10
1.339085863908745
 20
5.42233170385864
 30
0.0
 10
-1.337394775527077
 20
5.422255042651057
 30
0.0
 10
-3.995062467303119
 20
5.598620590683084
 30
0.0
 10
-6.59481654731393
 20
5.94836856808334
 30
0.0
 10
-9.09839153022221
 20
6.465190625699821
 30
0.0
 10
-11.46917464643888
 20
7.139587155217779
 30
0.0
 10
-13.67270318466856
 20
7.958857694558549
 30
0.0
 10
-15.67748984835497
 20
8.907163048230707
 30
0.0
 10
-17.45592617999724
 20
9.965740074319628
 30
0.0
 10
-18.98549191638484
 20
11.11332579291751
 30
0.0
 10
-20.24874821091068
 20
12.32686544852514
 30
0.0
 10
-21.23847071510113
 20
13.58393832102817
 30
0.0
 10
-21.94506269834613
 20
14.86691576504914
 30
0.0
 10
-22.38709754804613
 20
16.12646684365421
 30
0.0
 10
-22.45208533404544
 20
16.95321999638621
 30
0.0
 10
-22.48349842806419
 20
17.35284700502663
 30
0.0
  0
SPLINE
  5
1F7
330
1E7
100
AcDbEntity
  8
0
  6
Continuous
 62
     7
370
    25
100
AcDbSpline
210
0.0
220
0.0
230
1.0
 70
     8
 71
     3
 72
    26
 73
    22
 74
     0
 42
0.000000001
 43
0.00000001
 40
0.0
 40
0.0
 40
0.0
 40
0.0
 40
0.0406654924841277
 40
0.0946445943116972
 40
0.1484531647961501
 40
0.2022571775536334
 40
0.2561497360478289
 40
0.310167506756586
 40
0.364307836612641
 40
0.418549017294696
 40
0.4728607416652801
 40
0.5272091328945382
 40
0.581558904200438
 40
0.6358622778120603
 40
0.6900831682258532
 40
0.7441862874273611
 40
0.7981396442495825
 40
0.8519202711126379
 40
0.9055258536049865
 40
0.9589965449482643
 40
1.0
 40
1.0
 40
1.0
 40
1.0
 10
-19.90829176638027
 20
12.05118385536323
 30
0.0
 10
-19.60267247280833
 20
12.36057989716826
 30
0.0
 10
-18.89137617988299
 20
13.08066616858648
 30
0.0
 10
-17.45210977155912
 20
14.13798532648543
 30
0.0
 10
-15.67224485248091
 20
15.20239831940644
 30
0.0
 10
-13.66237921110323
 20
16.15072127496815
 30
0.0
 10
-11.46024819966412
 20
16.96880915481517
 30
0.0
 10
-9.092180754801454
 20
17.64173274881774
 30
0.0
 10
-6.591983659563953
 20
18.1575501024043
 30
0.0
 10
-3.995088811964923
 20
18.50683631440321
 30
0.0
 10
-1.33908660002769
 20
18.68318374744682
 30
0.0
 10
1.337395489794127
 20
18.68326040214691
 30
0.0
 10
3.995060347445742
 20
18.50689443418363
 30
0.0
 10
6.594824300429949
 20
18.15714814079302
 30
0.0
 10
9.09836270874286
 20
17.64031978147681
 30
0.0
 10
11.46928181934487
 20
16.96594670039011
 30
0.0
 10
13.67230495414204
 20
16.1465890138177
 30
0.0
 10
15.67896887610556
 20
15.19860735892273
 30
0.0
 10
17.45043159305974
 20
14.13882786049416
 30
0.0
 10
18.8854455329721
 20
13.08426239887821
 30
0.0
 10
19.59871860366913
 20
12.36604891162773
 30
0.0
 10
19.90829176638027
 20
12.0543315205132
 30
0.0
  0
SPLINE
  5
1F8
330
1E7
100
AcDbEntity
  8
0
  6
Continuous
 62
     7
370
    25
100
AcDbSpline
210
0.0
220
0.0
230
1.0
 70
     8
 71
     3
 72
    11
 73
     7
 74
     0
 42
0.000000001
 43
0.00000001
 40
0.0
 40
0.0
 40
0.0
 40
0.0
 40
0.258399207987443
 40
0.5108872396173633
 40
0.7576548673422551
 40
1.0
 40
1.0
 40
1.0
 40
1.0
 10
-284.340109560139
 20
118.338020589363
 30
0.0
 10
-284.8709654924503
 20
118.6782371542388
 30
0.0
 10
-285.9205334226517
 20
119.3508874423542
 30
0.0
 10
-286.9344886349683
 20
120.3973194733428
 30
0.0
 10
-287.5904887737932
 20
121.4057230564478
 30
0.0
 10
-287.720203165758
 20
122.0765810636461
 30
0.0
 10
-287.7844739312634
 20
122.408977161065
 30
0.0
  0
SPLINE
  5
1F9
330
1E7
100
AcDbEntity
  8
0
  6
Continuous
 62
     7
370
    25
100
AcDbSpline
210
0.0
220
0.0
230
1.0
 70
     8
 71
     3
 72
    14
 73
    10
 74
     0
 42
0.000000001
 43
0.00000001
 40
0.0
 40
0.0
 40
0.0
 40
0.0
 40
0.0416240568840604
 40
0.0853146781704271
 40
0.153208904051648
 40
0.2721879185132675
 40
0.5319139767443772
 40
0.7748682789583792
 40
1.0
 40
1.0
 40
1.0
 40
1.0
 10
-287.3659446331362
 20
132.1882231961459
 30
0.0
 10
-287.5404503003344
 20
132.0848991464154
 30
0.0
 10
-287.8981255475454
 20
131.873121181702
 30
0.0
 10
-288.5097145279775
 20
131.4742004493115
 30
0.0
 10
-289.3898848469909
 20
130.8425403575654
 30
0.0
 10
-290.9420237698043
 20
129.5200971566551
 30
0.0
 10
-292.6154359857481
 20
127.42642387457
 30
0.0
 10
-293.7659927292553
 20
124.7150119001677
 30
0.0
 10
-293.7995929310341
 20
122.9171201212725
 30
0.0
 10
-293.8157533606943
 20
122.0524019918696
 30
0.0
  0
SPLINE
  5
1FB
330
1E7
100
AcDbEntity
  8
0
  6
Continuous
 62
     7
370
    25
100
AcDbSpline
210
0.0
220
0.0
230
1.0
 70
     8
 71
     3
 72
    27
 73
    23
 74
     0
 42
0.000000001
 43
0.00000001
 40
0.0
 40
0.0
 40
0.0
 40
0.0
 40
0.0279143612823968
 40
0.0526134564352038
 40
0.0741058116760653
 40
0.0923983093932578
 40
0.1074964128088576
 40
0.1201738025972208
 40
0.1503002420948335
 40
0.1813099620743261
 40
0.2928992324772198
 40
0.492166278138902
 40
0.745778657388587
 40
0.782974883687046
 40
0.8194510352747191
 40
0.8526485305374834
 40
0.8666518740960701
 40
0.884850146229537
 40
0.9072741986829201
 40
0.9339325994004979
 40
0.9648364753030418
 40
1.0
 40
1.0
 40
1.0
 40
1.0
 10
-71.82887062040763
 20
256.615147148497
 30
0.0
 10
-73.83471210301826
 20
255.4571977116272
 30
0.0
 10
-77.61535577935449
 20
253.2746751873045
 30
0.0
 10
-82.94028903767799
 20
250.2006454217129
 30
0.0
 10
-87.57373399293957
 20
247.5258068446248
 30
0.0
 10
-91.51719207273449
 20
245.249291349245
 30
0.0
 10
-94.82714271350555
 20
243.3384947090432
 30
0.0
 10
-98.98708631650454
 20
240.9370108082681
 30
0.0
 10
-104.2902454804223
 20
237.8755619082395
 30
0.0
 10
-116.6997186851019
 20
230.7117248950607
 30
0.0
 10
-141.2611365206548
 20
216.5327200340563
 30
0.0
 10
-181.8154571172019
 20
193.1212106730291
 30
0.0
 10
-217.0250177993804
 20
172.7951622032286
 30
0.0
 10
-240.5388237338364
 20
159.2209311851638
 30
0.0
 10
-248.2169193842265
 20
154.7884611376942
 30
0.0
 10
-254.228659707161
 20
151.3179582746915
 30
0.0
 10
-258.9273497842258
 20
148.6054611297952
 30
0.0
 10
-262.8521921540067
 20
146.3396940103652
 30
0.0
 10
-267.6863807031197
 20
143.5489702540316
 30
0.0
 10
-273.4335741631744
 20
140.2311765941506
 30
0.0
 10
-280.096188414073
 20
136.3849200950894
 30
0.0
 10
-284.8433827387652
 20
133.6444089315258
 30
0.0
 10
-287.3700158946462
 20
132.1858070929819
 30
0.0
  0
SPLINE
  5
1FC
330
1E7
100
AcDbEntity
  8
0
  6
Continuous
 62
     7
370
    25
100
AcDbSpline
210
0.0
220
0.0
230
1.0
 70
     8
 71
     3
 72
    14
 73
    10
 74
     0
 42
0.000000001
 43
0.00000001
 40
0.0
 40
0.0
 40
0.0
 40
0.0
 40
0.1378724592109902
 40
0.2894190349758844
 40
0.4431322842171181
 40
0.6010626166633796
 40
0.7640171538525878
 40
0.9313588425652082
 40
1.0
 40
1.0
 40
1.0
 40
1.0
 10
-287.7829602869104
 20
35.16279048166414
 30
0.0
 10
-287.7303903894859
 20
34.66432875798412
 30
0.0
 10
-287.620036740407
 20
33.61796814422934
 30
0.0
 10
-287.0738017535611
 20
32.07973285629845
 30
0.0
 10
-286.2507676598478
 20
30.56858276985169
 30
0.0
 10
-285.1393102399222
 20
29.1436715189837
 30
0.0
 10
-283.7510669049747
 20
27.8197211757108
 30
0.0
 10
-282.4386981994616
 20
26.85351625960687
 30
0.0
 10
-281.5835336667444
 20
26.34359932993975
 30
0.0
 10
-281.3347889622831
 20
26.19527800565979
 30
0.0
  0
SPLINE
  5
1FD
330
1E7
100
AcDbEntity
  8
0
  6
Continuous
 62
     7
370
    25
100
AcDbSpline
210
0.0
220
0.0
230
1.0
 70
     8
 71
     3
 72
    22
 73
    18
 74
     0
 42
0.000000001
 43
0.00000001
 40
0.0
 40
0.0
 40
0.0
 40
0.0
 40
0.0572142350275948
 40
0.1121242884374942
 40
0.1632259226267163
 40
0.2692410943132295
 40
0.3697205268506787
 40
0.4641369797963223
 40
0.5247565501085122
 40
0.5859740402329227
 40
0.6624294393400522
 40
0.7315867561774929
 40
0.811035398100956
 40
0.8545868419038289
 40
0.9007598738555069
 40
0.949646188092678
 40
0.9999999999999999
 40
0.9999999999999999
 40
0.9999999999999999
 40
0.9999999999999999
 10
-44.80133148588643
 20
256.6149807047226
 30
0.0
 10
-45.22740853064237
 20
256.8486679581751
 30
0.0
 10
-46.06240327346765
 20
257.3066312080138
 30
0.0
 10
-47.38699543877439
 20
257.8873751881177
 30
0.0
 10
-49.19085454067223
 20
258.5597184265749
 30
0.0
 10
-51.53150509102088
 20
259.2094881998441
 30
0.0
 10
-54.40928282580892
 20
259.6963199922617
 30
0.0
 10
-56.92682953898235
 20
259.8893431415061
 30
0.0
 10
-59.06857750091817
 20
259.8982350871813
 30
0.0
 10
-61.02611483645141
 20
259.798433110496
 30
0.0
 10
-63.04493903301495
 20
259.5645330797887
 30
0.0
 10
-65.18481109811906
 20
259.1641044808954
 30
0.0
 10
-66.94040226232796
 20
258.697915189132
 30
0.0
 10
-68.41396115670884
 20
258.202737218877
 30
0.0
 10
-69.57203099802426
 20
257.7471150116103
 30
0.0
 10
-70.73177643904124
 20
257.2208421805443
 30
0.0
 10
-71.46230049060848
 20
256.8174217091742
 30
0.0
 10
-71.83296377083079
 20
256.6127287152802
 30
0.0
  0
SPLINE
  5
1FE
330
1E7
100
AcDbEntity
  8
0
  6
Continuous
 62
     7
370
    25
100
AcDbSpline
210
0.0
220
0.0
230
1.0
 70
     8
 71
     3
 72
    38
 73
    34
 74
     0
 42
0.000000001
 43
0.00000001
 40
0.0
 40
0.0
 40
0.0
 40
0.0
 40
0.0142339905566235
 40
0.0285269189551738
 40
0.0428788023148193
 40
0.0572896575441061
 40
0.0717595013443428
 40
0.0862883502128915
 40
0.1008762204464228
 40
0.1155231281440849
 40
0.1302290892106217
 40
0.1449941193594289
 40
0.159818234115555
 40
0.1747014488186368
 40
0.189643778625785
 40
0.2046452385144113
 40
0.2197058432850063
 40
0.2348256075638603
 40
0.2500045458057333
 40
0.304650924492197
 40
0.3645687090864265
 40
0.4297579386627972
 40
0.5002183224477671
 40
0.5752363880843127
 40
0.6586207543798511
 40
0.7503715914708405
 40
0.8115703169904723
 40
0.8758558502030424
 40
0.9006825869912415
 40
0.9255103305481914
 40
0.9503391206932745
 40
0.9751689972408362
 40
1.0
 40
1.0
 40
1.0
 40
1.0
 10
72.44503669796647
 20
-77.36861337486428
 30
0.0
 10
72.33905553312661
 20
-77.42956410616239
 30
0.0
 10
72.12665437351268
 20
-77.55171794384286
 30
0.0
 10
71.79855790942575
 20
-77.73008282096816
 30
0.0
 10
71.46278978431893
 20
-77.90518090916058
 30
0.0
 10
71.11878884444128
 20
-78.07648943887449
 30
0.0
 10
70.76682348429648
 20
-78.24395550445549
 30
0.0
 10
70.40694787119148
 20
-78.40739951394637
 30
0.0
 10
70.03928346608139
 20
-78.56667618461805
 30
0.0
 10
69.66394323538537
 20
-78.7216313079011
 30
0.0
 10
69.28105218691564
 20
-78.87211357492028
 30
0.0
 10
68.89074192519631
 20
-79.01797157509291
 30
0.0
 10
68.49315222586574
 20
-79.15905474864205
 30
0.0
 10
68.08843062717875
 20
-79.29521345498743
 30
0.0
 10
67.67673286128742
 20
-79.42629861635126
 30
0.0
 10
67.25822187630737
 20
-79.552163984321
 30
0.0
 10
66.83307164054197
 20
-79.67265830053167
 30
0.0
 10
66.40145309093182
 20
-79.78765548404712
 30
0.0
 10
65.58465122796866
 20
-79.99152029158635
 30
0.0
 10
64.30797828435571
 20
-80.26371450815148
 30
0.0
 10
62.48822816924793
 20
-80.54688114999526
 30
0.0
 10
60.46567507207103
 20
-80.73881946999967
 30
0.0
 10
58.26095311270246
 20
-80.80415533764712
 30
0.0
 10
55.86572231055808
 20
-80.71623493647384
 30
0.0
 10
53.28601916988626
 20
-80.43568887148194
 30
0.0
 10
50.93185701999005
 20
-79.97599790938159
 30
0.0
 10
48.87482953788803
 20
-79.40560261865656
 30
0.0
 10
47.52369948585311
 20
-78.93093881295019
 30
0.0
 10
46.54668059491117
 20
-78.53062533495192
 30
0.0
 10
45.92567847980514
 20
-78.25458140320713
 30
0.0
 10
45.32388387725797
 20
-77.96434487777596
 30
0.0
 10
44.74023330015281
 20
-77.66151350185014
 30
0.0
 10
44.36868784214644
 20
-77.44874060755997
 30
0.0
 10
44.18291090018118
 20
-77.34235174777834
 30
0.0
  0
SPLINE
  5
202
330
1E7
100
AcDbEntity
  8
0
  6
Continuous
 62
     7
370
    25
100
AcDbSpline
210
0.0
220
0.0
230
1.0
 70
     8
 71
     3
 72
    30
 73
    26
 74
     0
 42
0.000000001
 43
0.00000001
 40
0.0
 40
0.0
 40
0.0
 40
0.0
 40
0.0160152977741263
 40
0.031949329495602
 40
0.0478032081189802
 40
0.0635778959678948
 40
0.0792742252649121
 40
0.0948929177222103
 40
0.1104346031968906
 40
0.1258998374191772
 40
0.1674555885301646
 40
0.2510633899608959
 40
0.3987953877350997
 40
0.5000277406266337
 40
0.5622665449715649
 40
0.6245430375302398
 40
0.6722343854403235
 40
0.7492096374392347
 40
0.7907612700274368
 40
0.8304123805784828
 40
0.8681592516489616
 40
0.9039966847502274
 40
0.9379192917093823
 40
0.9699219908032263
 40
1.0
 40
1.0
 40
1.0
 40
1.0
 10
-48.44231062806305
 20
252.8938521295768
 30
0.0
 10
-48.52576636212518
 20
252.9417672596129
 30
0.0
 10
-48.69225435276096
 20
253.0373543850562
 30
0.0
 10
-48.94902209508967
 20
253.176150483656
 30
0.0
 10
-49.20982483243823
 20
253.3111011716146
 30
0.0
 10
-49.47498024103916
 20
253.4419042977348
 30
0.0
 10
-49.74410100431103
 20
253.5686229780878
 30
0.0
 10
-50.01699010570519
 20
253.691266001857
 30
0.0
 10
-50.29341701018839
 20
253.8097050127137
 30
0.0
 10
-50.7308728293005
 20
253.9891115337568
 30
0.0
 10
-51.60436883308405
 20
254.3089571603727
 30
0.0
 10
-53.39693892002502
 20
254.8311477946389
 30
0.0
 10
-55.75841023314332
 20
255.2287197185996
 30
0.0
 10
-58.03295463517912
 20
255.3385258556007
 30
0.0
 10
-59.68205010067827
 20
255.2882520092462
 30
0.0
 10
-60.92827716222671
 20
255.1844753824158
 30
0.0
 10
-62.25767599447217
 20
255.0011520980793
 30
0.0
 10
-63.40916437462325
 20
254.7689443808509
 30
0.0
 10
-64.46241444010097
 20
254.4898503963992
 30
0.0
 10
-65.23012193143914
 20
254.2506857518645
 30
0.0
 10
-65.93603244289187
 20
253.9974314674738
 30
0.0
 10
-66.5817601126209
 20
253.7347643652757
 30
0.0
 10
-67.16850767635107
 20
253.466451698059
 30
0.0
 10
-67.70085438459391
 20
253.1976609444945
 30
0.0
 10
-68.02615062621143
 20
253.0114691798609
 30
0.0
 10
-68.18375616288223
 20
252.9212595517297
 30
0.0
  0
SPLINE
  5
203
330
1E7
100
AcDbEntity
  8
0
  6
Continuous
 62
     7
370
    25
100
AcDbSpline
210
0.0
220
0.0
230
1.0
 70
     8
 71
     3
 72
    15
 73
    11
 74
     0
 42
0.000000001
 43
0.00000001
 40
0.0135444792706811
 40
0.0135444792706811
 40
0.0135444792706811
 40
0.0135444792706811
 40
0.0135625654919014
 40
0.0135625654919014
 40
0.0853258562284974
 40
0.1570891469650933
 40
0.2288524377016893
 40
0.3006157284382853
 40
0.3006157284382853
 40
0.3006338156702776
 40
0.3006338156702776
 40
0.3006338156702776
 40
0.3006338156702776
 10
283.7176619620532
 20
61.14198151185627
 30
0.0
 10
283.710705379534
 20
61.14601458343373
 30
0.0
 10
283.7037410593214
 20
61.15004356319545
 30
0.0
 10
256.0327756300645
 20
77.1241518870494
 30
0.0
 10
200.6860302151677
 20
109.075147918996
 30
0.0
 10
117.6376988044166
 20
157.0179291516312
 30
0.0
 10
34.58936698212053
 20
204.9607106218451
 30
0.0
 10
-20.75737925482006
 20
236.911707128348
 30
0.0
 10
-48.42834445216569
 20
252.8858153183224
 30
0.0
 10
-48.43532399585828
 20
252.889835959468
 30
0.0
 10
-48.44231062790445
 20
252.893852133553
 30
0.0
  0
SPLINE
  5
205
330
1E7
100
AcDbEntity
  8
0
  6
Continuous
 62
     7
370
    25
100
AcDbSpline
210
0.0
220
0.0
230
1.0
 70
     8
 71
     3
 72
    18
 73
    14
 74
     0
 42
0.000000001
 43
0.00000001
 40
0.0
 40
0.0
 40
0.0
 40
0.0
 40
0.0000691575015737
 40
0.0020341794810712
 40
0.0039982937301476
 40
0.0079260294731336
 40
0.015779944300605
 40
0.0314816629431816
 40
0.0628615811519857
 40
0.1255347410491139
 40
0.2505935530404965
 40
0.5000347320445276
 40
0.9999999999999999
 40
0.9999999999999999
 40
0.9999999999999999
 40
0.9999999999999999
 10
-68.18375616288303
 20
252.9212595517291
 30
0.0
 10
-68.18872549552607
 20
252.918335042631
 30
0.0
 10
-68.33489206122154
 20
252.8323143469086
 30
0.0
 10
-68.6220197663766
 20
252.6666608468106
 30
0.0
 10
-69.18666830766975
 20
252.3429383518883
 30
0.0
 10
-70.17412891044862
 20
251.7714998974954
 30
0.0
 10
-72.14875006289124
 20
250.6325595622096
 30
0.0
 10
-76.09554903886335
 20
248.3534241577929
 30
0.0
 10
-83.98093443339187
 20
243.8017811545704
 30
0.0
 10
-99.72303067949095
 20
234.7137142534718
 30
0.0
 10
-131.1318118732061
 20
216.5820517945931
 30
0.0
 10
-193.9578719059917
 20
180.3131552701853
 30
0.0
 10
-247.7990784673986
 20
149.2314399204467
 30
0.0
 10
-283.7191501117439
 20
128.4953250839706
 30
0.0
  0
SPLINE
  5
206
330
1E7
100
AcDbEntity
  8
0
  6
Continuous
 62
     7
370
    25
100
AcDbSpline
210
0.0
220
0.0
230
1.0
 70
     8
 71
     3
 72
    34
 73
    30
 74
     0
 42
0.000000001
 43
0.00000001
 40
0.0
 40
0.0
 40
0.0
 40
0.0
 40
0.0172189186350193
 40
0.0343623690462401
 40
0.0514301635035024
 40
0.0684219951064723
 40
0.0853374709938071
 40
0.1021761433592574
 40
0.1189375383533266
 40
0.1356211829505218
 40
0.1522266298616195
 40
0.1687534805683831
 40
0.185201406554813
 40
0.2015701688049212
 40
0.217859635632056
 40
0.2340697988995955
 40
0.2502007886860625
 40
0.3754574656424742
 40
0.5000085769527384
 40
0.6235483060712311
 40
0.7498196858445816
 40
0.7795201957886843
 40
0.809673159682987
 40
0.840278188917728
 40
0.8713335677256218
 40
0.902836591852487
 40
0.9347840184343551
 40
0.9671726404070964
 40
1.0
 40
1.0
 40
1.0
 40
1.0
 10
-67.75165763258927
 20
206.7139494045345
 30
0.0
 10
-67.6617680607795
 20
206.7599797542803
 30
0.0
 10
-67.4823828911641
 20
206.8518387088882
 30
0.0
 10
-67.20494563981882
 20
206.9845645210751
 30
0.0
 10
-66.922538292113
 20
207.1131507788423
 30
0.0
 10
-66.63482287962975
 20
207.2372328423046
 30
0.0
 10
-66.34228753898576
 20
207.3568723183682
 30
0.0
 10
-66.04519183426994
 20
207.4720202813368
 30
0.0
 10
-65.74384758187347
 20
207.5826601087288
 30
0.0
 10
-65.4385442023111
 20
207.6887694321449
 30
0.0
 10
-65.12956872711526
 20
207.7903302217888
 30
0.0
 10
-64.81720043349826
 20
207.887326090683
 30
0.0
 10
-64.50171290124355
 20
207.9797428913369
 30
0.0
 10
-64.18337160629572
 20
208.0675688383979
 30
0.0
 10
-63.86244191798323
 20
208.1507932678434
 30
0.0
 10
-63.53916017927913
 20
208.2294112779504
 30
0.0
 10
-62.47972365722594
 20
208.4703842216837
 30
0.0
 10
-60.60386681876949
 20
208.7745076435521
 30
0.0
 10
-57.87009670339356
 20
208.9329117480361
 30
0.0
 10
-55.12909895921393
 20
208.8135874928088
 30
0.0
 10
-53.15724755143653
 20
208.5222895241309
 30
0.0
 10
-51.91194909403244
 20
208.2481474075688
 30
0.0
 10
-51.31983425217333
 20
208.1002677910964
 30
0.0
 10
-50.73382344105826
 20
207.9355385934802
 30
0.0
 10
-50.15589923795839
 20
207.7537275522212
 30
0.0
 10
-49.58803931600993
 20
207.5547548766827
 30
0.0
 10
-49.03311360881293
 20
207.3381709827217
 30
0.0
 10
-48.49116933716279
 20
207.1051161564072
 30
0.0
 10
-48.1484876341865
 20
206.9367525070818
 30
0.0
 10
-47.97599409472814
 20
206.8520043529315
 30
0.0
  0
SPLINE
  5
207
330
1E7
100
AcDbEntity
  8
0
  6
Continuous
 62
     7
370
    25
100
AcDbSpline
210
0.0
220
0.0
230
1.0
 70
     8
 71
     3
 72
    10
 73
     6
 74
     0
 42
0.000000001
 43
0.00000001
 40
0.0
 40
0.0
 40
0.0
 40
0.0
 40
0.4999911530600381
 40
0.9047838306711932
 40
1.0
 40
1.0
 40
1.0
 40
1.0
 10
-67.75087778126229
 20
206.5523067050187
 30
0.0
 10
-67.75091774354956
 20
206.5792928023273
 30
0.0
 10
-67.75099005929195
 20
206.6281268353863
 30
0.0
 10
-67.75134127987268
 20
206.681961502944
 30
0.0
 10
-67.75160702669574
 20
206.7088324061371
 30
0.0
 10
-67.7516576325893
 20
206.7139494045345
 30
0.0
  0
LWPOLYLINE
  5
20E
330
1E7
100
AcDbEntity
  8
0
  6
Continuous
 62
     7
370
    25
100
AcDbPolyline
 90
       63
 70
   128
 43
0.0
 10
24.3874932269
 20
36.1252020894
 10
26.7296106531
 20
34.6286609899
 10
28.7974461031
 20
33.003010938
 10
30.5697807869
 20
31.2649333033
 10
32.0284281523
 20
29.4322631142
 10
33.1584205034
 20
27.5238060468
 10
33.9481625897
 20
25.5591454533
 10
34.3895505886
 20
23.5584414099
 10
34.478055262
 20
21.5422238475
 10
34.2127684321
 20
19.5311818867
 10
33.5964123009
 20
17.5459515393
 10
32.6353115162
 20
15.6069039552
 10
31.3393282727
 20
13.7339363865
 10
29.7217611123
 20
11.946268015
 10
27.7992084628
 20
10.2622427374
 10
25.5913983163
 20
8.6991409317
 10
23.1209857922
 20
7.2730021379
 10
20.4133206663
 20
5.9984604696
 10
17.4961872467
 20
4.8885944493
 10
14.3995192698
 20
3.9547928041
 10
11.1550927396
 20
3.2066376025
 10
7.7961998626
 20
2.6518059295
 10
4.357307425
 20
2.2959911086
 10
0.8737031169
 20
2.1428442816
 10
-2.6188665675
 20
2.193936942
 10
-6.084563137
 20
2.44874481
 10
-9.487823855
 20
2.9046532121
 10
-12.7937266611
 20
3.5569839112
 10
-15.9683485191
 20
4.3990431115
 10
-18.9791135126
 20
5.4221901461
 10
-21.7951271186
 20
6.615926142
 10
-24.3874932269
 20
7.9680017524
 10
-26.7296106531
 20
9.464542852
 10
-28.7974461031
 20
11.0901929038
 10
-30.5697807869
 20
12.8282705385
 10
-32.0284281523
 20
14.6609407277
 10
-33.1584205034
 20
16.569397795
 10
-33.9481625897
 20
18.5340583885
 10
-34.3895505886
 20
20.5347624319
 10
-34.478055262
 20
22.5509799943
 10
-34.2127684321
 20
24.5620219552
 10
-33.5964123009
 20
26.5472523025
 10
-32.6353115162
 20
28.4862998867
 10
-31.3393282727
 20
30.3592674553
 10
-29.7217611123
 20
32.1469358268
 10
-27.7992084628
 20
33.8309611044
 10
-25.5913983163
 20
35.3940629101
 10
-23.1209857922
 20
36.820201704
 10
-20.4133206663
 20
38.0947433722
 10
-17.4961872467
 20
39.2046093926
 10
-14.3995192698
 20
40.1384110378
 10
-11.1550927396
 20
40.8865662393
 10
-7.7961998626
 20
41.4413979124
 10
-4.357307425
 20
41.7972127332
 10
-0.8737031169
 20
41.9503595603
 10
2.6188665675
 20
41.8992668999
 10
6.084563137
 20
41.6444590318
 10
9.487823855
 20
41.1885506297
 10
12.7937266611
 20
40.5362199306
 10
15.9683485191
 20
39.6941607303
 10
18.9791135126
 20
38.6710136957
 10
21.7951271186
 20
37.4772776998
 10
24.3874932269
 20
36.1252020894
  0
SPLINE
  5
20F
330
1E7
100
AcDbEntity
  8
0
  6
Continuous
 62
     7
370
    25
100
AcDbSpline
210
0.0
220
0.0
230
1.0
 70
     8
 71
     3
 72
    32
 73
    28
 74
     0
 42
0.000000001
 43
0.00000001
 40
0.0
 40
0.0
 40
0.0
 40
0.0
 40
0.0133354565756459
 40
0.0255244603553678
 40
0.0365670054127976
 40
0.0464630865608164
 40
0.055212699426898
 40
0.0628158405852573
 40
0.095906921579796
 40
0.1254715112546747
 40
0.1912468040991768
 40
0.2499057643606716
 40
0.3149042333025688
 40
0.3754204480508435
 40
0.4996782490909169
 40
0.5636496267288573
 40
0.6250232710300289
 40
0.6884754801228192
 40
0.7499501687319204
 40
0.8123612137381295
 40
0.8734614377342179
 40
0.8947372871154848
 40
0.9159299421690731
 40
0.9370459200925674
 40
0.9580918093167237
 40
0.9790742642955006
 40
1.0
 40
1.0
 40
1.0
 40
1.0
 10
-57.86557609387305
 20
164.7512344856476
 30
0.0
 10
-57.80274226350712
 20
164.8712211511101
 30
0.0
 10
-57.68247644410654
 20
165.1008791960669
 30
0.0
 10
-57.51019481882354
 20
165.4397380338191
 30
0.0
 10
-57.35422252387833
 20
165.7524884142681
 30
0.0
 10
-57.21456312205607
 20
166.0378970368707
 30
0.0
 10
-57.0911960125727
 20
166.2941289396249
 30
0.0
 10
-56.85894902728774
 20
166.7831859392698
 30
0.0
 10
-56.52939993554766
 20
167.5007107554198
 30
0.0
 10
-55.93035056023847
 20
168.8735234036803
 30
0.0
 10
-55.21802241821486
 20
170.6291681785272
 30
0.0
 10
-54.36051689795927
 20
172.9506789121383
 30
0.0
 10
-53.54760702338547
 20
175.3541963507193
 30
0.0
 10
-52.48576968480558
 20
178.7935552909084
 30
0.0
 10
-51.49527446499575
 20
182.4661991394769
 30
0.0
 10
-50.60375872371232
 20
186.3133288162898
 30
0.0
 10
-49.98803013175249
 20
189.2859656527459
 30
0.0
 10
-49.44540435456607
 20
192.2546480791944
 30
0.0
 10
-48.97396760211728
 20
195.2457665461486
 30
0.0
 10
-48.58780804404188
 20
198.1734921382335
 30
0.0
 10
-48.35336112835228
 20
200.4185931834552
 30
0.0
 10
-48.21994451386172
 20
201.9876642865667
 30
0.0
 10
-48.14906646356609
 20
202.9382672434365
 30
0.0
 10
-48.08953149543891
 20
203.871382229256
 30
0.0
 10
-48.04162805524449
 20
204.7855796099172
 30
0.0
 10
-48.00431279453793
 20
205.6816584850865
 30
0.0
 10
-47.98900339560961
 20
206.2626736090702
 30
0.0
 10
-47.98135905614888
 20
206.5527879930741
 30
0.0
  0
SPLINE
  5
210
330
1E7
100
AcDbEntity
  8
0
  6
Continuous
 62
     7
370
    25
100
AcDbSpline
210
0.0
220
0.0
230
1.0
 70
     8
 71
     3
 72
     8
 73
     4
 74
     0
 42
0.000000001
 43
0.00000001
 40
0.0
 40
0.0
 40
0.0
 40
0.0
 40
1.0
 40
1.0
 40
1.0
 40
1.0
 10
-47.98135905614889
 20
206.5527879930741
 30
0.0
 10
-47.97908440113491
 20
206.6527767004626
 30
0.0
 10
-47.97729597991491
 20
206.7525177426986
 30
0.0
 10
-47.97599409472812
 20
206.8520043529317
 30
0.0
  0
LWPOLYLINE
  5
211
330
1E7
100
AcDbEntity
  8
0
  6
Continuous
 62
     7
370
    25
100
AcDbPolyline
 90
       59
 70
   128
 43
0.0
 10
-21.6815127262
 20
8.9085763614
 10
-19.2102308957
 20
7.6286799047
 10
-16.5137266721
 20
6.5105332408
 10
-13.6236141019
 20
5.5672456171
 10
-10.5737771125
 20
4.8098762184
 10
-7.3999722542
 20
4.2473045086
 10
-4.139409487
 20
3.8861261264
 10
-0.8303159284
 20
3.7305755584
 10
2.4885123254
 20
3.7824764925
 10
5.7781650474
 20
4.0412204379
 10
9.0000740673
 20
4.5037738583
 10
12.1164654476
 20
5.1647137379
 10
15.0908023487
 20
6.0162911607
 10
17.8882133899
 20
7.0485221602
 10
20.4759014845
 20
8.2493047717
 10
22.8235283554
 20
9.6045609168
 10
24.9035702242
 20
11.0984014565
 10
26.6916405016
 20
12.7133124763
 10
28.1667756985
 20
14.4303606209
 10
29.3116812035
 20
16.2294150708
 10
30.1129340463
 20
18.0893835574
 10
30.5611402699
 20
19.9884596508
 10
30.6510450662
 20
21.9043784203
 10
30.3815943836
 20
23.8146774698
 10
29.755947285
 20
25.6969602898
 10
28.7814389106
 20
27.5291588351
 10
27.4694944802
 20
29.2897922529
 10
25.8354953425
 20
30.9582187262
 10
23.8985986435
 20
32.5148774801
 10
21.6815127262
 20
33.9415181139
 10
19.2102308957
 20
35.2214145706
 10
16.5137266721
 20
36.3395612345
 10
13.6236141019
 20
37.2828488583
 10
10.5737771125
 20
38.0402182569
 10
7.3999722542
 20
38.6027899668
 10
4.139409487
 20
38.9639683489
 10
0.8303159284
 20
39.119518917
 10
-2.4885123254
 20
39.0676179828
 10
-5.7781650474
 20
38.8088740374
 10
-9.0000740673
 20
38.346320617
 10
-12.1164654476
 20
37.6853807375
 10
-15.0908023487
 20
36.8338033146
 10
-17.8882133899
 20
35.8015723151
 10
-20.4759014845
 20
34.6007897037
 10
-22.8235283554
 20
33.2455335585
 10
-24.9035702242
 20
31.7516930188
 10
-26.6916405016
 20
30.1367819991
 10
-28.1667756985
 20
28.4197338545
 10
-29.3116812035
 20
26.6206794046
 10
-30.1129340463
 20
24.760710918
 10
-30.5611402699
 20
22.8616348245
 10
-30.6510450662
 20
20.9457160551
 10
-30.3815943836
 20
19.0354170055
 10
-29.755947285
 20
17.1531341856
 10
-28.7814389106
 20
15.3209356403
 10
-27.4694944802
 20
13.5603022225
 10
-25.8354953425
 20
11.8918757491
 10
-23.8985986435
 20
10.3352169952
 10
-21.6815127262
 20
8.9085763614
  0
LWPOLYLINE
  5
212
330
1E7
100
AcDbEntity
  8
0
  6
Continuous
 62
     7
370
    25
100
AcDbPolyline
 90
       52
 70
   128
 43
0.0
 10
-16.7829200389
 20
9.3933860565
 10
-18.7181384148
 20
10.6574327435
 10
-20.3696088924
 20
12.0491866697
 10
-21.712296863
 20
13.5475502642
 10
-22.7258485453
 20
15.1298098623
 10
-23.3948995292
 20
16.7719800213
 10
-23.7093076837
 20
18.4491671156
 10
-23.6643069016
 20
20.1359466984
 10
-23.2605793489
 20
21.8067489108
 10
-22.5042451239
 20
23.4362460941
 10
-21.4067694823
 20
24.9997367323
 10
-19.9847890363
 20
26.4735199008
 10
-18.2598595598
 20
27.8352545493
 10
-16.2581292255
 20
29.0642981685
 10
-14.0099422247
 20
30.1420197099
 10
-11.5493787808
 20
31.0520820136
 10
-8.9137385273
 20
31.7806894627
 10
-6.1429750839
 20
32.3167971109
 10
-3.2790904001
 20
32.6522781128
 10
-0.3654980483
 20
32.7820469185
 10
2.5536348813
 20
32.7041363649
 10
5.4340573092
 20
32.4197274969
 10
8.2321049674
 20
31.9331316628
 10
10.9053623057
 20
31.2517251595
 10
13.4133054677
 20
30.385837415
 10
15.7179165916
 20
29.3485944048
 10
17.7842601219
 20
28.1557196758
 10
19.5810123971
 20
26.8252959929
 10
21.0809364841
 20
25.3774912228
 10
22.2612950628
 20
23.8342526102
 10
23.1041951002
 20
22.2189740793
 10
23.596859091
 20
20.5561416061
 10
23.7318187513
 20
18.8709620358
 10
23.5070282302
 20
17.1889809731
 10
22.9258951229
 20
15.5356955363
 10
21.9972288148
 20
13.9361678474
 10
20.7351069407
 20
12.4146451156
 10
19.1586619816
 20
10.9941920746
 10
17.2917912361
 20
9.6963413446
 10
15.1627945618
 20
8.5407670196
 10
12.803945378
 20
7.5449864287
 10
10.2510014339
 20
6.7240945903
 10
7.5426627573
 20
6.0905353881
 10
4.7199850019
 20
5.6539129338
 10
1.8257570852
 20
5.4208459786
 10
-1.0961474479
 20
5.3948675801
 10
-4.001435503
 20
5.5763715442
 10
-6.8460658747
 20
5.962606456
 10
-9.5869168663
 20
6.5477173878
 10
-12.1824399705
 20
7.3228346543
 10
-14.5932897029
 20
8.276208268
 10
-16.7829200389
 20
9.3933860565
  0
SPLINE
  5
214
330
1E7
100
AcDbEntity
  8
0
  6
Continuous
 62
     7
370
    25
100
AcDbSpline
210
0.0
220
0.0
230
1.0
 70
     8
 71
     3
 72
    84
 73
    80
 74
     0
 42
0.000000001
 43
0.00000001
 40
0.0
 40
0.0
 40
0.0
 40
0.0
 40
0.0348887032716803
 40
0.0348887032716803
 40
0.0697774065433606
 40
0.0697774065433606
 40
0.0872217581792007
 40
0.0872217581792007
 40
0.104666109815041
 40
0.104666109815041
 40
0.1395548130867212
 40
0.1395548130867212
 40
0.1744435163584016
 40
0.1744435163584016
 40
0.209332219630082
 40
0.209332219630082
 40
0.2442209229017622
 40
0.2442209229017622
 40
0.2616652745376025
 40
0.2616652745376025
 40
0.2703874503555226
 40
0.2703874503555226
 40
0.2791096261734426
 40
0.2791096261734426
 40
0.2950139092180573
 40
0.2950139092180573
 40
0.310918192262672
 40
0.310918192262672
 40
0.3427267583519016
 40
0.3427267583519016
 40
0.3745353244411311
 40
0.3745353244411311
 40
0.4063438905303607
 40
0.4063438905303607
 40
0.4222481735749755
 40
0.4222481735749755
 40
0.4381524566195902
 40
0.4381524566195902
 40
0.4699610227088198
 40
0.4699610227088198
 40
0.5017695887980493
 40
0.5017695887980493
 40
0.5176738718426641
 40
0.5176738718426641
 40
0.5335781548872789
 40
0.5335781548872789
 40
0.5632525002866429
 40
0.5632525002866429
 40
0.5929268456860068
 40
0.5929268456860068
 40
0.6226011910853708
 40
0.6226011910853708
 40
0.6522755364847348
 40
0.6522755364847348
 40
0.6671127091844168
 40
0.6671127091844168
 40
0.6819498818840988
 40
0.6819498818840988
 40
0.7116242272834628
 40
0.7116242272834628
 40
0.7412985726828267
 40
0.7412985726828267
 40
0.7561357453825087
 40
0.7561357453825087
 40
0.7709729180821907
 40
0.7709729180821907
 40
0.7996013033219168
 40
0.7996013033219168
 40
0.8282296885616429
 40
0.8282296885616429
 40
0.8568580738013691
 40
0.8568580738013691
 40
0.8854864590410954
 40
0.8854864590410954
 40
0.9427432295205477
 40
0.9427432295205477
 40
0.9713716147602738
 40
0.9713716147602738
 40
1.0
 40
1.0
 40
1.0
 40
1.0
 10
-67.7508777812858
 20
206.5523067054868
 30
0.0
 10
-67.73953212036345
 20
206.0535761623892
 30
0.0
 10
-67.72272358147463
 20
205.5507252481426
 30
0.0
 10
-67.67856205077426
 20
204.5351458510556
 30
0.0
 10
-67.65120905896266
 20
204.0224173682152
 30
0.0
 10
-67.60255720881075
 20
203.2446888477869
 30
0.0
 10
-67.58505752458618
 20
202.9841082921252
 30
0.0
 10
-67.54764820393568
 20
202.4615953639473
 30
0.0
 10
-67.5277385675099
 20
202.199662991431
 30
0.0
 10
-67.46462700415233
 20
201.4138235698751
 30
0.0
 10
-67.41796789776193
 20
200.8885558982088
 30
0.0
 10
-67.31562893877623
 20
199.8323715664341
 30
0.0
 10
-67.2599858223614
 20
199.3015675429884
 30
0.0
 10
-67.13956374364184
 20
198.2321755122774
 30
0.0
 10
-67.07478478133707
 20
197.6935875050122
 30
0.0
 10
-66.93590243879137
 20
196.6062672379597
 30
0.0
 10
-66.86165456450303
 20
196.0566896631346
 30
0.0
 10
-66.74322363317229
 20
195.2254299067197
 30
0.0
 10
-66.70270348831578
 20
194.9481165427762
 30
0.0
 10
-66.6403595161204
 20
194.53172453659
 30
0.0
 10
-66.61931756623682
 20
194.3928568744828
 30
0.0
 10
-66.57671258095097
 20
194.1149672647508
 30
0.0
 10
-66.55514954554873
 20
193.9759453171262
 30
0.0
 10
-66.49353241977667
 20
193.5831894321549
 30
0.0
 10
-66.4529257342833
 20
193.3295951669641
 30
0.0
 10
-66.370109152701
 20
192.8225618986217
 30
0.0
 10
-66.32789925661196
 20
192.5691228954701
 30
0.0
 10
-66.19889910102944
 20
191.8091045320824
 30
0.0
 10
-66.10973837422048
 20
191.3028238179133
 30
0.0
 10
-65.9252788668429
 20
190.2914094617982
 30
0.0
 10
-65.8299788686357
 20
189.786252200108
 30
0.0
 10
-65.63337439628927
 20
188.7774619185459
 30
0.0
 10
-65.53206992214996
 20
188.2738288986741
 30
0.0
 10
-65.37571186382051
 20
187.5198408570435
 30
0.0
 10
-65.32279740163831
 20
187.2684765889967
 30
0.0
 10
-65.21559649807925
 20
186.7666573387098
 30
0.0
 10
-65.16131005670233
 20
186.5162023564695
 30
0.0
 10
-64.99672012320434
 20
185.7676700296773
 30
0.0
 10
-64.88489660923892
 20
185.2733383859991
 30
0.0
 10
-64.65742432968298
 20
184.2945370965975
 30
0.0
 10
-64.5417550913315
 20
183.8099587804104
 30
0.0
 10
-64.36549945948968
 20
183.0903294902915
 30
0.0
 10
-64.30628895315661
 20
182.8516594242787
 30
0.0
 10
-64.1869753279767
 20
182.3767328022057
 30
0.0
 10
-64.12687220912981
 20
182.1404762461455
 30
0.0
 10
-63.9533844709243
 20
181.4668696647952
 30
0.0
 10
-63.83851186862012
 20
181.0309405597411
 30
0.0
 10
-63.60510829371738
 20
180.1649750750123
 30
0.0
 10
-63.4865773211189
 20
179.7349386953377
 30
0.0
 10
-63.24604256814715
 20
178.8813952544255
 30
0.0
 10
-63.12403878777393
 20
178.4578881931878
 30
0.0
 10
-62.87674398177269
 20
177.6180399822066
 30
0.0
 10
-62.75145295614475
 20
177.201698832463
 30
0.0
 10
-62.5611901556514
 20
176.5830389862612
 30
0.0
 10
-62.49732152658748
 20
176.3776089543985
 30
0.0
 10
-62.36894872483825
 20
175.9691351792532
 30
0.0
 10
-62.30444455215287
 20
175.7660914359705
 30
0.0
 10
-62.11036848993008
 20
175.1617493212471
 30
0.0
 10
-61.98026656815082
 20
174.7653110604866
 30
0.0
 10
-61.71883219654841
 20
173.9854459771463
 30
0.0
 10
-61.58750171381404
 20
173.6020253778275
 30
0.0
 10
-61.38974771556128
 20
173.0367974355369
 30
0.0
 10
-61.32370333711859
 20
172.8500386142214
 30
0.0
 10
-61.19138876739085
 20
172.4798444643462
 30
0.0
 10
-61.12511857610585
 20
172.2964091357866
 30
0.0
 10
-60.9306884886706
 20
171.7639356528518
 30
0.0
 10
-60.80170795007592
 20
171.4179675019735
 30
0.0
 10
-60.54212856958592
 20
170.7360853273184
 30
0.0
 10
-60.41152972769049
 20
170.4001713035414
 30
0.0
 10
-60.148935589821
 20
169.7389655032464
 30
0.0
 10
-60.01694029384695
 20
169.4136737267285
 30
0.0
 10
-59.75177509704237
 20
168.7742805411094
 30
0.0
 10
-59.61860519621186
 20
168.4601791320082
 30
0.0
 10
-59.21766636026868
 20
167.5355126360662
 30
0.0
 10
-58.94844641331382
 20
166.9425257638343
 30
0.0
 10
-58.54313188264153
 20
166.0913167684497
 30
0.0
 10
-58.40777960404409
 20
165.8139589888154
 30
0.0
 10
-58.13681458914417
 20
165.2725147214294
 30
0.0
 10
-58.0012018528416
 20
165.0084282336777
 30
0.0
 10
-57.86557609387395
 20
164.7512344856481
 30
0.0
  0
SPLINE
  5
215
330
1E7
100
AcDbEntity
  8
0
  6
Continuous
 62
     7
370
    25
100
AcDbSpline
210
0.0
220
0.0
230
1.0
 70
     8
 71
     3
 72
    16
 73
    12
 74
     0
 42
0.000000001
 43
0.00000001
 40
0.0
 40
0.0
 40
0.0
 40
0.0
 40
0.25
 40
0.25
 40
0.5
 40
0.5
 40
0.75
 40
0.75
 40
0.875
 40
0.875
 40
1.0
 40
1.0
 40
1.0
 40
1.0
 10
-67.75087778126229
 20
206.5523067050188
 30
0.0
 10
-66.45528551606637
 20
207.2076858332077
 30
0.0
 10
-64.90403543849672
 20
207.7323989006562
 30
0.0
 10
-61.52337764835367
 20
208.4413420475399
 30
0.0
 10
-59.69511832677075
 20
208.6255850115604
 30
0.0
 10
-56.03744842641927
 20
208.6257334016568
 30
0.0
 10
-54.2090432007008
 20
208.4416209143392
 30
0.0
 10
-51.67343423908477
 20
207.9100386144672
 30
0.0
 10
-50.86301943042616
 20
207.6902776897022
 30
0.0
 10
-49.34088657283495
 20
207.1755026345783
 30
0.0
 10
-48.62916852390235
 20
206.8804885042193
 30
0.0
 10
-47.98135905614877
 20
206.5527879930741
 30
0.0
  0
SPLINE
  5
216
330
1E7
100
AcDbEntity
  8
0
  6
Continuous
 62
     8
370
    25
100
AcDbSpline
210
0.0
220
0.0
230
1.0
 70
     8
 71
     3
 72
    17
 73
    13
 74
     0
 42
0.000000001
 43
0.00000001
 40
0.0
 40
0.0
 40
0.0
 40
0.0
 40
0.0482768410926867
 40
0.1429500132648477
 40
0.2432185595208466
 40
0.3465383980777975
 40
0.4498582366347442
 40
0.5501267828907515
 40
0.6447999550629069
 40
0.7321545823872887
 40
0.8816280611407478
 40
1.0
 40
1.0
 40
1.0
 40
1.0
 10
47.81593567151092
 20
-73.43035969407113
 30
0.0
 10
47.75922793665385
 20
-73.39455401641662
 30
0.0
 10
47.59131364759597
 20
-73.28853170882942
 30
0.0
 10
47.22977351467996
 20
-73.25249706607522
 30
0.0
 10
46.74879253641487
 20
-73.33784260978318
 30
0.0
 10
46.22376882395186
 20
-73.59200026320481
 30
0.0
 10
45.70512899561152
 20
-73.99097957477322
 30
0.0
 10
45.23645576966416
 20
-74.49601393844269
 30
0.0
 10
44.84913355995206
 20
-75.05378555442272
 30
0.0
 10
44.4815725633472
 20
-75.76070176116231
 30
0.0
 10
44.21400279704955
 20
-76.56401042557845
 30
0.0
 10
44.19244027024562
 20
-77.1037975506166
 30
0.0
 10
44.18291090018118
 20
-77.34235174777831
 30
0.0
  0
SPLINE
  5
217
330
1E7
100
AcDbEntity
  8
0
  6
Continuous
 62
     8
370
    25
100
AcDbSpline
210
0.0
220
0.0
230
1.0
 70
     8
 71
     3
 72
    17
 73
    13
 74
     0
 42
0.000000001
 43
0.00000001
 40
0.0
 40
0.0
 40
0.0
 40
0.0
 40
0.0517939283992421
 40
0.1461045521033963
 40
0.2459743927794582
 40
0.348875127714693
 40
0.4517758626498983
 40
0.5516457033259784
 40
0.6459563270301251
 40
0.7329932505171554
 40
0.8819715067439904
 40
1.0
 40
1.0
 40
1.0
 40
1.0
 10
68.81280407666104
 20
-73.42898561852174
 30
0.0
 10
68.87449963404313
 20
-73.39148699914227
 30
0.0
 10
69.04853551154213
 20
-73.2857078246664
 30
0.0
 10
69.41726177264985
 20
-73.25406076473942
 30
0.0
 10
69.90003903467596
 20
-73.3467790915798
 30
0.0
 10
70.4251938542162
 20
-73.60730374309266
 30
0.0
 10
70.94272519781063
 20
-74.01167720711874
 30
0.0
 10
71.4092152592765
 20
-74.52065531703653
 30
0.0
 10
71.79368293611832
 20
-75.0809497042228
 30
0.0
 10
72.15727226982506
 20
-75.78953184496332
 30
0.0
 10
72.419813748518
 20
-76.5929387803608
 30
0.0
 10
72.43730486880253
 20
-77.13083850782898
 30
0.0
 10
72.44503669796609
 20
-77.36861337486454
 30
0.0
  0
SPLINE
  5
218
330
1E7
100
AcDbEntity
  8
0
  6
Continuous
 62
     8
370
    25
100
AcDbSpline
210
0.0
220
0.0
230
1.0
 70
     8
 71
     3
 72
    12
 73
     8
 74
     0
 42
0.000000001
 43
0.00000001
 40
0.0
 40
0.0
 40
0.0
 40
0.0
 40
0.0623317414434113
 40
0.2957375791049902
 40
0.5295447424013088
 40
0.7641430084426921
 40
1.0
 40
1.0
 40
1.0
 40
1.0
 10
287.732848799549
 20
55.08622830916391
 30
0.0
 10
287.7610293942103
 20
55.22553981847366
 30
0.0
 10
287.8947343196605
 20
55.88651362653166
 30
0.0
 10
287.5995998001296
 20
57.07609551343855
 30
0.0
 10
286.8335483979732
 20
58.57851833796423
 30
0.0
 10
285.5479971285588
 20
59.97656890344275
 30
0.0
 10
284.3288609698989
 20
60.75281834489757
 30
0.0
 10
283.7176619620528
 20
61.14198151185651
 30
0.0
  0
SPLINE
  5
219
330
1E7
100
AcDbEntity
  8
0
  6
Continuous
 62
     8
370
    25
100
AcDbSpline
210
0.0
220
0.0
230
1.0
 70
     8
 71
     3
 72
    12
 73
     8
 74
     0
 42
0.000000001
 43
0.00000001
 40
0.0
 40
0.0
 40
0.0
 40
0.0
 40
0.2353805254934777
 40
0.4695851885734346
 40
0.7030934203934948
 40
0.9363056861128034
 40
1.0
 40
1.0
 40
1.0
 40
1.0
 10
-283.719150111744
 20
128.4953250839706
 30
0.0
 10
-284.3298872341319
 20
128.1051357478252
 30
0.0
 10
-285.5483104923183
 20
127.3267062978567
 30
0.0
 10
-286.8333353749718
 20
125.923760070436
 30
0.0
 10
-287.5997018727372
 20
124.4152264912777
 30
0.0
 10
-287.8947370898468
 20
123.2172663298135
 30
0.0
 10
-287.7601960930317
 20
122.5501214738008
 30
0.0
 10
-287.7313334908853
 20
122.407001257592
 30
0.0
  0
SPLINE
  5
21C
330
1E7
100
AcDbEntity
  8
0
  6
Continuous
 62
     8
370
    25
100
AcDbSpline
210
0.0
220
0.0
230
1.0
 70
     8
 71
     3
 72
    17
 73
    13
 74
     0
 42
0.000000001
 43
0.00000001
 40
0.0
 40
0.0
 40
0.0
 40
0.0
 40
0.0517811593627224
 40
0.1460930531483111
 40
0.2459642388245572
 40
0.3488663596082111
 40
0.4517684803918771
 40
0.5516396660681382
 40
0.6459515598537149
 40
0.732989655406994
 40
0.8819699176478085
 40
1.0
 40
1.0
 40
1.0
 40
1.0
 10
284.3482476054339
 20
50.99697522525581
 30
0.0
 10
284.4099274219473
 20
51.0344635155175
 30
0.0
 10
284.5839481048167
 20
51.140231305367
 30
0.0
 10
284.9526562460738
 20
51.17187263996253
 30
0.0
 10
285.4354328180916
 20
51.07915565306796
 30
0.0
 10
285.9605878338465
 20
50.81863062848347
 30
0.0
 10
286.4781191278232
 20
50.41425726611102
 30
0.0
 10
286.9446092052825
 20
49.90527912947081
 30
0.0
 10
287.3290768808141
 20
49.34498474729335
 30
0.0
 10
287.692666216944
 20
48.636402603224
 30
0.0
 10
287.9552076960304
 20
47.83299566727228
 30
0.0
 10
287.9726988164102
 20
47.29509593916694
 30
0.0
 10
287.9804306456097
 20
47.0573210720461
 30
0.0
  0
SPLINE
  5
21D
330
1E7
100
AcDbEntity
  8
0
  6
Continuous
 62
     8
370
    25
100
AcDbSpline
210
0.0
220
0.0
230
1.0
 70
     8
 71
     3
 72
    17
 73
    13
 74
     0
 42
0.000000001
 43
0.00000001
 40
0.0
 40
0.0
 40
0.0
 40
0.0
 40
0.047412150751672
 40
0.1421713384534705
 40
0.2425309839219326
 40
0.3459446939457135
 40
0.4493584039695025
 40
0.5497180494379557
 40
0.6444772371397528
 40
0.7319112307212048
 40
0.8815205139876833
 40
0.9999999999999999
 40
0.9999999999999999
 40
0.9999999999999999
 40
0.9999999999999999
 10
-284.3473312683166
 20
118.323348696688
 30
0.0
 10
-284.4029926017295
 20
118.3584433598673
 30
0.0
 10
-284.5699001590952
 20
118.4636791519096
 30
0.0
 10
-284.9302381240719
 20
118.4992992398469
 30
0.0
 10
-285.4111689758528
 20
118.4140490976137
 30
0.0
 10
-285.9362067765613
 20
118.159864629852
 30
0.0
 10
-286.4548428132236
 20
117.760892533784
 30
0.0
 10
-286.9235170144626
 20
117.2558563132162
 30
0.0
 10
-287.3108389839801
 20
116.6980851539933
 30
0.0
 10
-287.6784000473147
 20
115.9911688200719
 30
0.0
 10
-287.9459697869746
 20
115.1878602064192
 30
0.0
 10
-287.9675323172105
 20
114.6480730750674
 30
0.0
 10
-287.9770616887927
 20
114.4095188750885
 30
0.0
  0
SPLINE
  5
224
330
1E7
100
AcDbEntity
  8
0
  6
Continuous
 62
     8
370
    25
100
AcDbSpline
210
0.0
220
0.0
230
1.0
 70
     8
 71
     3
 72
    12
 73
     8
 74
     0
 42
0.000000001
 43
0.00000001
 40
0.0
 40
0.0
 40
0.0
 40
0.0
 40
0.1485097109385356
 40
0.3229522023508618
 40
0.4777802618557866
 40
0.7433029556063712
 40
1.0
 40
1.0
 40
1.0
 40
1.0
 10
293.7821579165685
 20
54.79133857455516
 30
0.0
 10
293.7485424309231
 20
54.3611111368074
 30
0.0
 10
293.6754415201904
 20
53.42552990340306
 30
0.0
 10
293.1431717904752
 20
52.07823851665465
 30
0.0
 10
292.1697155445581
 20
50.46263925641667
 30
0.0
 10
290.5827158365506
 20
48.72220882793562
 30
0.0
 10
288.8380304973003
 20
47.60599555918646
 30
0.0
 10
287.9804306456097
 20
47.0573210720461
 30
0.0
  0
SPLINE
  5
225
330
1E7
100
AcDbEntity
  8
0
  6
Continuous
 62
     8
370
    25
100
AcDbSpline
210
0.0
220
0.0
230
1.0
 70
     8
 71
     3
 72
    17
 73
    13
 74
     0
 42
0.000000001
 43
0.00000001
 40
0.0
 40
0.0
 40
0.0
 40
0.0
 40
0.1223122826942976
 40
0.2767614077240796
 40
0.367023880156769
 40
0.4648485158313376
 40
0.5684547833868923
 40
0.675213914107466
 40
0.7819730448280365
 40
0.885579312383608
 40
0.9834039480581697
 40
1.0
 40
1.0
 40
1.0
 40
1.0
 10
283.7176619620532
 20
61.14198151185627
 30
0.0
 10
283.7438599156263
 20
61.3884483749852
 30
0.0
 10
283.8031391830123
 20
61.94613983895192
 30
0.0
 10
284.1162877103342
 20
62.74796444175099
 30
0.0
 10
284.5180449091176
 20
63.43780433274944
 30
0.0
 10
284.927974257628
 20
63.97045410607704
 30
0.0
 10
285.4118928910424
 20
64.43875452062682
 30
0.0
 10
285.9356960129617
 20
64.79059409800112
 30
0.0
 10
286.4561317841878
 20
64.99290742755242
 30
0.0
 10
286.9191211748812
 20
65.01968891111726
 30
0.0
 10
287.2230254307181
 20
64.9609036708875
 30
0.0
 10
287.3437549414373
 20
64.86415121646331
 30
0.0
 10
287.3612660512947
 20
64.85011783847395
 30
0.0
  0
LWPOLYLINE
  5
226
330
1E7
100
AcDbEntity
  8
0
  6
Continuous
 62
     8
370
    25
100
AcDbPolyline
 90
        7
 70
   128
 43
0.0
 10
281.958422418
 20
-39.094986234
 10
283.825498424
 20
-37.8619114694
 10
285.3667427663
 20
-36.4859161243
 10
286.5508436037
 20
-34.9949548498
 10
287.3537448044
 20
-33.4193179388
 10
287.7591346686
 20
-31.79101595
 10
287.7935955867
 20
-31.4347795803
  0
SPLINE
  5
227
330
1E7
100
AcDbEntity
  8
0
  6
Continuous
 62
     8
370
    25
100
AcDbSpline
210
0.0
220
0.0
230
1.0
 70
     8
 71
     3
 72
    17
 73
    13
 74
     0
 42
0.000000001
 43
0.00000001
 40
0.0
 40
0.0
 40
0.0
 40
0.0
 40
0.1225162196111038
 40
0.2772228648301894
 40
0.367635836083834
 40
0.4656235793353376
 40
0.5694025944598006
 40
0.6763397296694993
 40
0.7832768648792056
 40
0.8870558800036697
 40
0.9850436232551708
 40
1.0
 40
1.0
 40
1.0
 40
1.0
 10
-48.44231062806303
 20
252.8938521295769
 30
0.0
 10
-48.41611266950297
 20
253.1403190015961
 30
0.0
 10
-48.35683339082633
 20
253.6980104857422
 30
0.0
 10
-48.04368495516773
 20
254.4998349340564
 30
0.0
 10
-47.64192752552494
 20
255.1896752186456
 30
0.0
 10
-47.23199900331723
 20
255.7223235877088
 30
0.0
 10
-46.74807700703821
 20
256.1906297204166
 30
0.0
 10
-46.22428694914671
 20
256.5424470854034
 30
0.0
 10
-45.70380262726534
 20
256.7448429639455
 30
0.0
 10
-45.240985972868
 20
256.7713307483365
 30
0.0
 10
-44.93896373007288
 20
256.7137393845541
 30
0.0
 10
-44.81983300102618
 20
256.6186623770877
 30
0.0
 10
-44.80405737618119
 20
256.6060720134328
 30
0.0
  0
LWPOLYLINE
  5
228
330
1E7
100
AcDbEntity
  8
0
  6
Continuous
 62
     8
370
    25
100
AcDbPolyline
 90
       20
 70
   128
 43
0.0
 10
15.9099025767
 20
26.7577801388
 10
13.7904087072
 20
27.8364914148
 10
11.4534318544
 20
28.7533442788
 10
8.9358275393
 20
29.4938794134
 10
6.2772998859
 20
30.0464181373
 10
3.5197754634
 20
30.4022465847
 10
0.7067420793
 20
30.5557531284
 10
-2.1174370497
 20
30.5045168785
 10
-4.9082229314
 20
30.2493458612
 10
-7.6216032055
 20
29.794264276
 10
-10.2147862441
 20
29.1464490313
 10
-12.6468760017
 20
28.3161165605
 10
-14.8795169698
 20
27.3163617027
 10
-16.8774990667
 20
26.1629511892
 10
-18.6093129212
 20
24.8740749928
 10
-20.0476467942
 20
23.4700594611
 10
-21.1698173015
 20
21.9730467577
 10
-21.9581271436
 20
20.4066456673
 10
-22.4001442036
 20
18.7955592707
 10
-22.5
 20
17.5731888808
  0
LWPOLYLINE
  5
229
330
1E7
100
AcDbEntity
  8
0
  6
Continuous
 62
     8
370
    25
100
AcDbPolyline
 90
        8
 70
   128
 43
0.0
 10
22.4999938765
 20
17.5827717937
 10
22.4888976082
 20
17.9811823988
 10
22.2229876634
 20
19.6051120051
 10
21.6066079277
 20
21.19699697
 10
20.6494790779
 20
22.7317323165
 10
19.3666956076
 20
24.1851143515
 10
17.7784877785
 20
25.5342223721
 10
15.9099025767
 20
26.7577801388
  0
LWPOLYLINE
  5
22A
330
1E7
100
AcDbEntity
  8
0
  6
Continuous
 62
     8
370
    25
100
AcDbPolyline
 90
       20
 70
   128
 43
0.0
 10
-20.1664150944
 20
12.2926542377
 10
-20.0476467942
 20
12.4291970754
 10
-18.6093129212
 20
13.8332126071
 10
-16.8774990667
 20
15.1220888035
 10
-14.8795169698
 20
16.275499317
 10
-12.6468760017
 20
17.2752541748
 10
-10.2147862441
 20
18.1055866456
 10
-7.6216032055
 20
18.7534018903
 10
-4.9082229314
 20
19.2084834755
 10
-2.1174370497
 20
19.4636544928
 10
0.7067420793
 20
19.5148907427
 10
3.5197754634
 20
19.361384199
 10
6.2772998859
 20
19.0055557516
 10
8.9358275393
 20
18.4530170277
 10
11.4534318544
 20
17.712481893
 10
13.7904087072
 20
16.795629029
 10
15.9099025767
 20
15.7169177531
 10
17.7784877785
 20
14.4933599864
 10
19.3666956076
 20
13.1442519658
 10
20.1781631548
 20
12.2789272083
  0
SPLINE
  5
22B
330
1E7
100
AcDbEntity
  8
0
  6
Continuous
 62
     8
370
    25
100
AcDbSpline
210
0.0
220
0.0
230
1.0
 70
     8
 71
     3
 72
    15
 73
    11
 74
     0
 42
0.000000001
 43
0.00000001
 40
0.0
 40
0.0
 40
0.0
 40
0.0
 40
0.1286364927322202
 40
0.2605846183550069
 40
0.3955450791340547
 40
0.5240651813339459
 40
0.6702714633156058
 40
0.806575356472587
 40
0.9329779674853365
 40
1.0
 40
1.0
 40
1.0
 40
1.0
 10
-287.9770616887927
 20
114.4095188750884
 30
0.0
 10
-288.4176158537131
 20
114.6746269597729
 30
0.0
 10
-289.3100658614221
 20
115.2116681026324
 30
0.0
 10
-290.4805944792635
 20
116.1196009683892
 30
0.0
 10
-291.4973801388622
 20
117.0864688252572
 30
0.0
 10
-292.3697883281498
 20
118.1454103675107
 30
0.0
 10
-293.0539233542704
 20
119.2561807965463
 30
0.0
 10
-293.5185679652816
 20
120.3985235699699
 30
0.0
 10
-293.7596517515954
 20
121.3367667778331
 30
0.0
 10
-293.7890234126982
 20
121.8905835902485
 30
0.0
 10
-293.7992007530285
 20
122.0824822425192
 30
0.0
  0
SPLINE
  5
22C
330
1E7
100
AcDbEntity
  8
0
  6
Continuous
 62
     8
370
    25
100
AcDbSpline
210
0.0
220
0.0
230
1.0
 70
     8
 71
     3
 72
    17
 73
    13
 74
     0
 42
0.000000001
 43
0.00000001
 40
0.0
 40
0.0
 40
0.0
 40
0.0
 40
0.1230552310772362
 40
0.2783783506637096
 40
0.3691221063858487
 40
0.4674493434073891
 40
0.5715725600181902
 40
0.678855754260035
 40
0.7861389485018844
 40
0.8902621651126896
 40
0.9885894021342322
 40
1.0
 40
1.0
 40
1.0
 40
1.0
 10
-283.719150111744
 20
128.4953250839706
 30
0.0
 10
-283.7477028011634
 20
128.7429506885373
 30
0.0
 10
-283.812295346462
 20
129.3031349795905
 30
0.0
 10
-284.1317179704782
 20
130.1045881092847
 30
0.0
 10
-284.5379595887064
 20
130.7917793326755
 30
0.0
 10
-284.9506101135191
 20
131.320674655256
 30
0.0
 10
-285.4361037021722
 20
131.7837919209582
 30
0.0
 10
-285.9600574926388
 20
132.1293195467192
 30
0.0
 10
-286.4795383666563
 20
132.3252217888808
 30
0.0
 10
-286.9397390757154
 20
132.3446268087422
 30
0.0
 10
-287.2357529433381
 20
132.2852923236057
 30
0.0
 10
-287.3501474211848
 20
132.1918698229528
 30
0.0
 10
-287.3620422192379
 20
132.1821557021333
 30
0.0
  0
LWPOLYLINE
  5
22D
330
1E7
100
AcDbEntity
  8
0
  6
Continuous
 62
     8
370
    25
100
AcDbPolyline
 90
        7
 70
   128
 43
0.0
 10
-287.7939675042
 20
35.1308655888
 10
-287.7587773165
 20
34.7673551582
 10
-287.3526800082
 20
33.1433512155
 10
-286.5490929958
 20
31.5718215288
 10
-285.3643419118
 20
30.0846932148
 10
-283.8224960986
 20
28.7121786961
 10
-281.9548796169
 20
27.4821619075
  0
SPLINE
  5
22E
330
1E7
100
AcDbEntity
  8
0
  6
Continuous
 62
     8
370
    25
100
AcDbSpline
210
0.0
220
0.0
230
1.0
 70
     8
 71
     3
 72
    17
 73
    13
 74
     0
 42
0.000000001
 43
0.00000001
 40
0.0
 40
0.0
 40
0.0
 40
0.0
 40
0.1230416060304334
 40
0.2783475275421413
 40
0.369081235601635
 40
0.4673975852064713
 40
0.5715092725778768
 40
0.6787805876549832
 40
0.7860519027320901
 40
0.890163590103491
 40
0.9884799397083269
 40
1.0
 40
1.0
 40
1.0
 40
1.0
 10
-68.18375616288303
 20
252.9212595517293
 30
0.0
 10
-68.21230885388552
 20
253.1688851564269
 30
0.0
 10
-68.27690140271211
 20
253.7290694473138
 30
0.0
 10
-68.59632403784228
 20
254.5305225863654
 30
0.0
 10
-69.00256564156399
 20
255.2177137776783
 30
0.0
 10
-69.4152162270729
 20
255.74660919694
 30
0.0
 10
-69.90070956989013
 20
256.2097260462558
 30
0.0
 10
-70.42466430985841
 20
256.5552552653639
 30
0.0
 10
-70.94414164505288
 20
256.7511515649909
 30
0.0
 10
-71.40435493456889
 20
256.7705777152001
 30
0.0
 10
-71.70049066428524
 20
256.7111597481148
 30
0.0
 10
-71.81498945180257
 20
256.6176242861913
 30
0.0
 10
-71.82699851998647
 20
256.6078139313028
 30
0.0
  0
LINE
  5
22F
330
1E7
100
AcDbEntity
  8
0
  6
Continuous
 62
     7
370
    25
100
AcDbLine
 10
-281.3347889623
 20
26.1952780057
 30
0.0
 11
44.1338702134
 21
-161.6937796054
 31
0.0
  0
LINE
  5
230
330
1E7
100
AcDbEntity
  8
0
  6
Continuous
 62
     7
370
    25
100
AcDbLine
 10
71.1565931531
 20
-161.6962630603
 30
0.0
 11
281.3390908984
 21
-40.3604898165
 31
0.0
  0
LINE
  5
231
330
1E7
100
AcDbEntity
  8
0
  6
Continuous
 62
     7
370
    25
100
AcDbLine
 10
287.7935955867
 20
-31.4347795803
 30
0.0
 11
293.8152271248
 21
54.7121387144
 31
0.0
  0
LINE
  5
232
330
1E7
100
AcDbEntity
  8
0
  6
Continuous
 62
     7
370
    25
100
AcDbLine
 10
-293.8157960563
 20
122.0531196643
 30
0.0
 11
-287.7939675042
 21
35.1308655888
 31
0.0
  0
LINE
  5
233
330
1E7
100
AcDbEntity
  8
0
  6
Continuous
 62
     7
370
    25
100
AcDbLine
 10
72.445036698
 20
-77.3686133749
 30
0.0
 11
71.7759246727
 21
-160.4307594778
 31
0.0
  0
LINE
  5
234
330
1E7
100
AcDbEntity
  8
0
  6
Continuous
 62
     7
370
    25
100
AcDbLine
 10
43.5137795589
 20
-160.4068957036
 30
0.0
 11
44.1829109002
 21
-77.3423517478
 31
0.0
  0
LINE
  5
235
330
1E7
100
AcDbEntity
  8
0
  6
Continuous
 62
     7
370
    25
100
AcDbLine
 10
-287.7313334909
 20
122.4070012576
 30
0.0
 11
-287.6565664835
 21
121.9658505838
 31
0.0
  0
LINE
  5
236
330
1E7
100
AcDbEntity
  8
0
  6
Continuous
 62
     7
370
    25
100
AcDbLine
 10
287.9804306456
 20
47.057321072
 30
0.0
 11
72.445036698
 21
-77.3686133749
 31
0.0
  0
LINE
  5
237
330
1E7
100
AcDbEntity
  8
0
  6
Continuous
 62
     7
370
    25
100
AcDbLine
 10
44.1829109002
 20
-77.3423517478
 30
0.0
 11
-287.9770616888
 21
114.4095188751
 31
0.0
  0
LINE
  5
238
330
1E7
100
AcDbEntity
  8
0
  6
Continuous
 62
     7
370
    25
100
AcDbLine
 10
-281.9548796169
 20
27.4821619075
 30
0.0
 11
43.5137795589
 21
-160.4068957036
 31
0.0
  0
LINE
  5
239
330
1E7
100
AcDbEntity
  8
0
  6
Continuous
 62
     7
370
    25
100
AcDbLine
 10
-287.9770616888
 20
114.4095188751
 30
0.0
 11
-281.9548796169
 21
27.4821619075
 31
0.0
  0
LINE
  5
23A
330
1E7
100
AcDbEntity
  8
0
  6
Continuous
 62
     7
370
    25
100
AcDbLine
 10
281.958422418
 20
-39.094986234
 30
0.0
 11
287.9804306456
 21
47.057321072
 31
0.0
  0
LINE
  5
23B
330
1E7
100
AcDbEntity
  8
0
  6
Continuous
 62
     7
370
    25
100
AcDbLine
 10
71.7759246727
 20
-160.4307594778
 30
0.0
 11
281.958422418
 21
-39.094986234
 31
0.0
  0
LINE
  5
23C
330
1E7
100
AcDbEntity
  8
0
  6
Continuous
 62
     7
370
    25
100
AcDbLine
 10
-22.5
 20
17.5731888808
 30
0.0
 11
-22.495223783
 21
17.3055695098
 31
0.0
  0
LINE
  5
23D
330
1E7
100
AcDbEntity
  8
0
  6
Continuous
 62
     8
370
    25
100
AcDbLine
 10
-47.9759940947
 20
206.8520043529
 30
0.0
 11
253.1593501511
 21
33.0102704452
 31
0.0
  0
LINE
  5
23E
330
1E7
100
AcDbEntity
  8
0
  6
Continuous
 62
     8
370
    25
100
AcDbLine
 10
-252.4496035053
 20
99.9280019076
 30
0.0
 11
-67.7508777813
 21
206.552306706
 31
0.0
  0
LINE
  5
23F
330
1E7
100
AcDbEntity
  8
0
  6
Continuous
 62
     8
370
    25
100
AcDbLine
 10
-57.8655760939
 20
164.7512344856
 30
0.0
 11
-211.3022393575
 21
76.1741342002
 31
0.0
  0
LINE
  5
240
330
1E7
100
AcDbEntity
  8
0
  6
Continuous
 62
     8
370
    25
100
AcDbLine
 10
211.7502723244
 20
9.1053182103
 30
0.0
 11
-57.8655760939
 21
164.7512344856
 31
0.0
  0
ARC
  5
241
330
1E7
100
AcDbEntity
  8
0
  6
Continuous
 62
     7
370
    25
100
AcDbCircle
 10
57.6674668661
 20
-133.6359160112
 30
0.0
 40
30.28220959711328
100
AcDbArc
 50
242.1348085725
 51
297.7684335053
  0
ARC
  5
242
330
1E7
100
AcDbEntity
  8
0
  6
Continuous
 62
     8
370
    25
100
AcDbCircle
 10
44.9726887601
 20
-160.4967848225
 30
0.0
 40
1.461675788645194
100
AcDbArc
 50
176.4742393443
 51
234.9656910162
  0
ARC
  5
243
330
1E7
100
AcDbEntity
  8
0
  6
Continuous
 62
     8
370
    25
100
AcDbCircle
 10
70.3282473368
 20
-160.506489361
 30
0.0
 40
1.449656746996383
100
AcDbArc
 50
304.8121987574
 51
2.9944872495
  0
ARC
  5
244
330
1E7
100
AcDbEntity
  8
0
  6
Continuous
 62
     8
370
    25
100
AcDbCircle
 10
-280.4960915134
 20
27.3922467036
 30
0.0
 40
1.461556524616287
100
AcDbArc
 50
176.4729267546
 51
234.9816656834
  0
ARC
  5
245
330
1E7
100
AcDbEntity
  8
0
  6
Continuous
 62
     8
370
    25
100
AcDbCircle
 10
280.5104267347
 20
-39.1706446981
 30
0.0
 40
1.44997093143334
100
AcDbArc
 50
304.8551698436
 51
2.991011815
  0
VIEWPORT
  5
24C
330
1E7
100
AcDbEntity
  8
0
100
AcDbViewport
 10
0.0
 20
0.0
 30
0.0
 40
205.6
 41
156.0
 68
     1
 69
     1
 12
0.0
 22
56.0014795037
 13
0.0
 23
0.0
 14
10.0
 24
10.0
 15
10.0
 25
10.0
 16
0.0
 26
0.0
 36
1.0
 17
0.0
 27
0.0
 37
0.0
 42
50.0
 43
0.0
 44
0.0
 45
394.4864845721
 50
0.0
 51
0.0
 72
   100
 90
   557152
  1

281
     0
 71
     1
 74
     0
110
0.0
120
0.0
130
0.0
111
1.0
121
0.0
131
0.0
112
0.0
122
1.0
132
0.0
 79
     0
146
0.0
  0
ENDBLK
  5
1EA
330
1E7
100
AcDbEntity
  8
0
100
AcDbBlockEnd
  0
ENDSEC
  0
SECTION
  2
ENTITIES
  0
SPLINE
  5
73
330
1F
100
AcDbEntity
  8
0
  6
Continuous
 62
     7
370
    25
100
AcDbSpline
210
0.0
220
0.0
230
1.0
 70
     8
 71
     3
 72
    21
 73
    17
 74
     0
 42
0.000000001
 43
0.00000001
 40
0.0
 40
0.0
 40
0.0
 40
0.0
 40
0.0251028547103625
 40
0.0521801905381344
 40
0.0808291577294186
 40
0.110617571891574
 40
0.1415755613047392
 40
0.2097740890435654
 40
0.2753898166990109
 40
0.3365785306952441
 40
0.4667619623234051
 40
0.5707903609286555
 40
0.69357256007464
 40
0.8368320688558479
 40
0.9162644778875111
 40
1.0
 40
1.0
 40
1.0
 40
1.0
 10
254.4779527781712
 20
108.827691494978
 30
0.0
 10
254.4717022510295
 20
109.0455570999823
 30
0.0
 10
254.4587095575296
 20
109.498424668711
 30
0.0
 10
254.2190027211271
 20
110.1405808422261
 30
0.0
 10
253.8371892891217
 20
110.7060564250499
 30
0.0
 10
253.3453446575392
 20
111.148032577924
 30
0.0
 10
252.6039870443633
 20
111.5638011059891
 30
0.0
 10
251.8204755039457
 20
111.7334880113891
 30
0.0
 10
250.7450410754993
 20
111.9006211929103
 30
0.0
 10
249.2388961118756
 20
111.9989769387526
 30
0.0
 10
247.4132462407968
 20
111.9997049125056
 30
0.0
 10
245.1628012282609
 20
112.0003429077584
 30
0.0
 10
242.4291638125716
 20
111.9998670667577
 30
0.0
 10
239.6141510090006
 20
112.00001236608
 30
0.0
 10
237.0075957336685
 20
111.9999930316578
 30
0.0
 10
235.5966479268351
 20
111.9999961019621
 30
0.0
 10
234.8725690563719
 20
111.9999976775998
 30
0.0
  0
SPLINE
  5
74
330
1F
100
AcDbEntity
  8
0
  6
Continuous
 62
     7
370
    25
100
AcDbSpline
210
0.0
220
0.0
230
1.0
 70
     8
 71
     3
 72
    21
 73
    17
 74
     0
 42
0.000000001
 43
0.00000001
 40
0.0
 40
0.0
 40
0.0
 40
0.0
 40
0.083734603197885
 40
0.1631656990743966
 40
0.306421723640664
 40
0.4292009355934942
 40
0.5332271665746106
 40
0.639531829266745
 40
0.7593371189464309
 40
0.8256088251425188
 40
0.8584271794082047
 40
0.8893846505661993
 40
0.9191725062472935
 40
0.9478209009747487
 40
0.9748976767446514
 40
1.0
 40
1.0
 40
1.0
 40
1.0
 10
-234.8725690564049
 20
111.9999976775998
 30
0.0
 10
-235.596655954472
 20
111.9999949821076
 30
0.0
 10
-237.0076155864718
 20
111.9999897296569
 30
0.0
 10
-239.6141324112595
 20
112.0000289267897
 30
0.0
 10
-242.4293742836504
 20
111.9997545527487
 30
0.0
 10
-245.1621796138301
 20
112.0006685828566
 30
0.0
 10
-247.2646514711214
 20
111.9987251992034
 30
0.0
 10
-249.2994525336775
 20
112.0030976520337
 30
0.0
 10
-251.0418645883058
 20
111.8780441387071
 30
0.0
 10
-252.144581813311
 20
111.6714133369327
 30
0.0
 10
-252.8071152381046
 20
111.4521935832362
 30
0.0
 10
-253.3454321298734
 20
111.1474163631918
 30
0.0
 10
-253.8371812545003
 20
110.7062163314086
 30
0.0
 10
-254.2190170091739
 20
110.140546638652
 30
0.0
 10
-254.4587172946691
 20
109.49843882881
 30
0.0
 10
-254.4717106106976
 20
109.0455662429451
 30
0.0
 10
-254.4779614357444
 20
108.8276982794074
 30
0.0
  0
LWPOLYLINE
  5
75
330
1F
100
AcDbEntity
  8
0
  6
Continuous
 62
     7
370
    25
100
AcDbPolyline
 90
       22
 70
   128
 43
0.0
 10
234.8725690564
 20
111.9999976784
 10
227.2342321969
 20
111.9999975305
 10
220.6390787816
 20
111.9999976057
 10
215.0858069406
 20
111.9999976553
 10
210.5733664585
 20
111.9999976802
 10
206.9746059432
 20
111.9999976835
 10
203.4694312961
 20
111.9999976836
 10
186.3479208416
 20
111.9999976836
 10
155.4655519571
 20
111.9999976835
 10
100.3184534732
 20
111.9999976838
 10
1.8415075677
 20
111.9999976836
 10
-123.4927735095
 20
111.9999976835
 10
-178.6398729476
 20
111.9999976836
 10
-184.7060446996
 20
111.9999976837
 10
-190.6955786505
 20
111.9999976838
 10
-196.3179429975
 20
111.9999976838
 10
-201.6123030539
 20
111.9999976829
 10
-205.8159858569
 20
111.9999976683
 10
-211.2425391121
 20
111.9999976361
 10
-217.8931117895
 20
111.9999975859
 10
-225.7691765224
 20
111.9999975169
 10
-234.8725690564
 20
111.9999976784
  0
SPLINE
  5
76
330
1F
100
AcDbEntity
  8
0
  6
Continuous
 62
     7
370
    25
100
AcDbSpline
210
0.0
220
0.0
230
1.0
 70
     8
 71
     3
 72
    14
 73
    10
 74
     0
 42
0.000000001
 43
0.00000001
 40
0.0
 40
0.0
 40
0.0
 40
0.0
 40
0.0116721408563237
 40
0.1496090653416376
 40
0.2994164522695974
 40
0.4585549166744861
 40
0.6617521871814804
 40
0.8693634379070175
 40
1.0
 40
1.0
 40
1.0
 40
1.0
 10
-254.0304507910839
 20
111.0576114369186
 30
0.0
 10
-254.0425055216427
 20
111.0466599381466
 30
0.0
 10
-254.1970184763818
 20
110.9062877891529
 30
0.0
 10
-254.2696713957038
 20
110.765693074312
 30
0.0
 10
-254.355948014648
 20
110.6610822689982
 30
0.0
 10
-254.3341385188024
 20
110.6862977925922
 30
0.0
 10
-254.3391026252936
 20
110.6813040557658
 30
0.0
 10
-254.3467054472683
 20
110.6697281313229
 30
0.0
 10
-254.3297258287233
 20
110.6943274983133
 30
0.0
 10
-254.3231680361573
 20
110.7038281561491
 30
0.0
  0
SPLINE
  5
78
330
1F
100
AcDbEntity
  8
0
  6
Continuous
 62
     7
370
    25
100
AcDbSpline
210
0.0
220
0.0
230
1.0
 70
     8
 71
     3
 72
    13
 73
     9
 74
     0
 42
0.000000001
 43
0.00000001
 40
0.0
 40
0.0
 40
0.0
 40
0.0
 40
0.0605207412805063
 40
0.2219031489678019
 40
0.5040918894950511
 40
0.7308360081625007
 40
0.9385347967835485
 40
1.0
 40
1.0
 40
1.0
 40
1.0
 10
254.3325466948761
 20
110.6903642952733
 30
0.0
 10
254.3352378684168
 20
110.686447357651
 30
0.0
 10
254.3451052274488
 20
110.672085656616
 30
0.0
 10
254.3363722099443
 20
110.6840659687337
 30
0.0
 10
254.3377180059978
 20
110.6872042307935
 30
0.0
 10
254.3472665201317
 20
110.6567168983068
 30
0.0
 10
254.2919332284049
 20
110.7789686426988
 30
0.0
 10
254.0894718263309
 20
110.9918705321987
 30
0.0
 10
254.043238557397
 20
111.0404879487185
 30
0.0
  0
SPLINE
  5
79
330
1F
100
AcDbEntity
  8
0
  6
Continuous
 62
     7
370
    25
100
AcDbSpline
210
0.0
220
0.0
230
1.0
 70
     8
 71
     3
 72
    17
 73
    13
 74
     0
 42
0.000000001
 43
0.00000001
 40
0.0
 40
0.0
 40
0.0
 40
0.0
 40
0.1157405619556171
 40
0.2332540131844441
 40
0.3403976059918858
 40
0.42568185122658
 40
0.4829816044343317
 40
0.5374677764592901
 40
0.6036860044156064
 40
0.6851631232226767
 40
0.8998554583424823
 40
1.0
 40
1.0
 40
1.0
 40
1.0
 10
254.8592924460569
 20
108.8481507916748
 30
0.0
 10
254.8493222239529
 20
109.1273065046269
 30
0.0
 10
254.8292290580067
 20
109.689893978277
 30
0.0
 10
254.5148614201632
 20
110.460828875653
 30
0.0
 10
254.0676532270653
 20
111.0630407786067
 30
0.0
 10
253.6069291547384
 20
111.4504394570074
 30
0.0
 10
253.1943442899567
 20
111.6915870970309
 30
0.0
 10
252.8117931961326
 20
111.8499684967142
 30
0.0
 10
252.4292789909048
 20
111.9520036616167
 30
0.0
 10
251.8378229587131
 20
112.0266416765554
 30
0.0
 10
251.3008117601184
 20
111.9848936284766
 30
0.0
 10
251.021587564256
 20
111.8667435596009
 30
0.0
 10
250.9327708430365
 20
111.8291619248971
 30
0.0
  0
SPLINE
  5
7A
330
1F
100
AcDbEntity
  8
0
  6
Continuous
 62
     7
370
    25
100
AcDbSpline
210
0.0
220
0.0
230
1.0
 70
     8
 71
     3
 72
     9
 73
     5
 74
     0
 42
0.000000001
 43
0.00000001
 40
0.0
 40
0.0
 40
0.0
 40
0.0
 40
0.6844168262782908
 40
1.0
 40
1.0
 40
1.0
 40
1.0
 10
254.8504974093787
 20
109.2492610884882
 30
0.0
 10
254.841655234767
 20
109.3265500514861
 30
0.0
 10
254.8287359518502
 20
109.4394767944156
 30
0.0
 10
254.7982371008516
 20
109.5413304218043
 30
0.0
 10
254.7886121766586
 20
109.5734737127906
 30
0.0
  0
SPLINE
  5
7B
330
1F
100
AcDbEntity
  8
0
  6
Continuous
 62
     7
370
    25
100
AcDbSpline
210
0.0
220
0.0
230
1.0
 70
     8
 71
     3
 72
    10
 73
     6
 74
     0
 42
0.000000001
 43
0.00000001
 40
0.0
 40
0.0
 40
0.0
 40
0.0
 40
0.5917729982364676
 40
0.8777015922116991
 40
1.0
 40
1.0
 40
1.0
 40
1.0
 10
242.5394471844545
 20
111.9999902300322
 30
0.0
 10
241.5853466072257
 20
111.9999914956583
 30
0.0
 10
240.1702506189678
 20
111.9999933728006
 30
0.0
 10
238.4252031145564
 20
111.9999953907839
 30
0.0
 10
237.7022281525898
 20
111.9999959095697
 30
0.0
 10
237.485636191898
 20
111.9999960649898
 30
0.0
  0
SPLINE
  5
7C
330
1F
100
AcDbEntity
  8
0
  6
Continuous
 62
     7
370
    25
100
AcDbSpline
210
0.0
220
0.0
230
1.0
 70
     8
 71
     3
 72
    10
 73
     6
 74
     0
 42
0.000000001
 43
0.00000001
 40
0.0
 40
0.0
 40
0.0
 40
0.0
 40
0.4892001749592051
 40
0.9869531626720655
 40
1.0
 40
1.0
 40
1.0
 40
1.0
 10
254.8592920709002
 20
108.8481423881666
 30
0.0
 10
254.8375608191036
 20
108.8450725915012
 30
0.0
 10
254.7937183824338
 20
108.8388793281242
 30
0.0
 10
254.6400952094434
 20
108.8321144100508
 30
0.0
 10
254.4796974410631
 20
108.8292852264109
 30
0.0
 10
254.4756005649694
 20
108.8292129634677
 30
0.0
  0
SPLINE
  5
7D
330
1F
100
AcDbEntity
  8
0
  6
Continuous
 62
     7
370
    25
100
AcDbSpline
210
0.0
220
0.0
230
1.0
 70
     8
 71
     3
 72
     9
 73
     5
 74
     0
 42
0.000000001
 43
0.00000001
 40
0.0
 40
0.0
 40
0.0
 40
0.0
 40
0.0128979177852702
 40
1.0
 40
1.0
 40
1.0
 40
1.0
 10
-254.4732297765179
 20
108.8292477065021
 30
0.0
 10
-254.4780920264343
 20
108.8293103968332
 30
0.0
 10
-254.8550714736045
 20
108.8341708969676
 30
0.0
 10
-254.8571954698576
 20
108.8412019866857
 30
0.0
 10
-254.8592920709815
 20
108.8481423899866
 30
0.0
  0
SPLINE
  5
7E
330
1F
100
AcDbEntity
  8
0
  6
Continuous
 62
     7
370
    25
100
AcDbSpline
210
0.0
220
0.0
230
1.0
 70
     8
 71
     3
 72
    15
 73
    11
 74
     0
 42
0.000000001
 43
0.00000001
 40
0.0
 40
0.0
 40
0.0
 40
0.0
 40
0.0617685431221241
 40
0.1898075721307429
 40
0.3178466011393671
 40
0.442114298855825
 40
0.55946468203847
 40
0.6677644251004251
 40
0.8531375541816667
 40
1.0
 40
1.0
 40
1.0
 40
1.0
 10
-250.9187030072148
 20
111.8315541189849
 30
0.0
 10
-251.0313463733727
 20
111.8725669384331
 30
0.0
 10
-251.3774863787278
 20
111.9985945779436
 30
0.0
 10
-252.0044080163595
 20
112.0211305126495
 30
0.0
 10
-252.7342859025636
 20
111.8985890464144
 30
0.0
 10
-253.3945229546338
 20
111.6033099017525
 30
0.0
 10
-253.9381144268681
 20
111.1893748854423
 30
0.0
 10
-254.4523431802677
 20
110.5785239853082
 30
0.0
 10
-254.8236187797401
 20
109.7802709112536
 30
0.0
 10
-254.8483567997519
 20
109.1338765582162
 30
0.0
 10
-254.8592920709815
 20
108.8481423899866
 30
0.0
  0
SPLINE
  5
8E
330
1F
100
AcDbEntity
  8
0
  6
Continuous
 62
     8
370
    25
100
AcDbSpline
210
0.0
220
0.0
230
1.0
 70
     8
 71
     3
 72
    18
 73
    14
 74
     0
 42
0.000000001
 43
0.00000001
 40
0.0
 40
0.0
 40
0.0
 40
0.0
 40
0.0701459836017519
 40
0.1433662411284274
 40
0.2058108482872314
 40
0.2742791093275425
 40
0.3487710688997857
 40
0.4292863947360223
 40
0.515009799490157
 40
0.6102934051319066
 40
0.7151374060767934
 40
0.8583549992606758
 40
1.0
 40
1.0
 40
1.0
 40
1.0
 10
254.4756005649694
 20
108.8292129634677
 30
0.0
 10
254.3341609745615
 20
108.8263171164644
 30
0.0
 10
254.0450829492442
 20
108.8203985067532
 30
0.0
 10
253.4001901100327
 20
108.8147554620919
 30
0.0
 10
252.6134597329529
 20
108.8093897227571
 30
0.0
 10
251.6678590644918
 20
108.8044230143567
 30
0.0
 10
250.4709493048081
 20
108.802351396441
 30
0.0
 10
248.9978265965057
 20
108.8082538085558
 30
0.0
 10
247.2036991446755
 20
108.8154185943768
 30
0.0
 10
245.0400545336635
 20
108.8198109277387
 30
0.0
 10
242.2203182449198
 20
108.831032597745
 30
0.0
 10
238.7824343774271
 20
108.8495216321377
 30
0.0
 10
236.1710520921305
 20
108.8684905261351
 30
0.0
 10
234.8725690563719
 20
108.8779226139614
 30
0.0
  0
SPLINE
  5
8F
330
1F
100
AcDbEntity
  8
0
  6
Continuous
 62
     8
370
    25
100
AcDbSpline
210
0.0
220
0.0
230
1.0
 70
    24
 71
     3
 72
    14
 73
    10
 74
     0
 42
0.000000001
 43
0.00000001
 40
0.0
 40
0.0
 40
0.0
 40
0.0
 40
0.0287708860144186
 40
0.1823334441871073
 40
0.3313609173460248
 40
0.4720720790370737
 40
0.6019058092045898
 40
0.8240657554157035
 40
1.0
 40
1.0
 40
1.0
 40
1.0
 10
234.872569056372
 20
111.9859710667714
 30
0.0
 10
234.8725690563719
 20
111.9905939381481
 30
0.0
 10
234.8725690563721
 20
112.0198910567603
 30
0.0
 10
234.8725690563719
 20
111.8960851760013
 30
0.0
 10
234.8725690563721
 20
111.6214077263962
 30
0.0
 10
234.8725690563717
 20
111.2090837071523
 30
0.0
 10
234.8725690563721
 20
110.6040587392093
 30
0.0
 10
234.8725690563718
 20
109.8090952595561
 30
0.0
 10
234.8725690563718
 20
109.1633181551629
 30
0.0
 10
234.8725690563719
 20
108.8779226139614
 30
0.0
  0
SPLINE
  5
90
330
1F
100
AcDbEntity
  8
0
  6
Continuous
 62
     8
370
    25
100
AcDbSpline
210
0.0
220
0.0
230
1.0
 70
     8
 71
     3
 72
    15
 73
    11
 74
     0
 42
0.000000001
 43
0.00000001
 40
0.0
 40
0.0
 40
0.0
 40
0.0
 40
0.0617677360667553
 40
0.1898068750219422
 40
0.3178460139770924
 40
0.4421138184374319
 40
0.5594643024840793
 40
0.6677641387058699
 40
0.8531374274616295
 40
1.0
 40
1.0
 40
1.0
 40
1.0
 10
250.9187077711705
 20
111.8315556725774
 30
0.0
 10
251.0313495775358
 20
111.8725678844558
 30
0.0
 10
251.3774880411489
 20
111.9985948407614
 30
0.0
 10
252.0044080468167
 20
112.0211304431554
 30
0.0
 10
252.7342859077367
 20
111.8985890604905
 30
0.0
 10
253.3945229617602
 20
111.6033098927192
 30
0.0
 10
253.9381144298076
 20
111.1893748821465
 30
0.0
 10
254.4523431814697
 20
110.5785239813142
 30
0.0
 10
254.823618779719
 20
109.7802709088687
 30
0.0
 10
254.8483567996829
 20
109.1338765563867
 30
0.0
 10
254.8592920709002
 20
108.8481423881665
 30
0.0
  0
SPLINE
  5
91
330
1F
100
AcDbEntity
  8
0
  6
Continuous
 62
     8
370
    25
100
AcDbSpline
210
0.0
220
0.0
230
1.0
 70
    24
 71
     3
 72
    14
 73
    10
 74
     0
 42
0.000000001
 43
0.00000001
 40
0.0
 40
0.0
 40
0.0
 40
0.0
 40
0.0287709477258933
 40
0.182333496104971
 40
0.3313609597653621
 40
0.4720721124981278
 40
0.6019058344121669
 40
0.8240657665360875
 40
0.9999999999999999
 40
0.9999999999999999
 40
0.9999999999999999
 40
0.9999999999999999
 10
-234.8725690564049
 20
111.9859710415293
 30
0.0
 10
-234.8725690564049
 20
111.9905939245442
 30
0.0
 10
-234.8725690564048
 20
112.0198910624148
 30
0.0
 10
-234.872569056405
 20
111.896085182621
 30
0.0
 10
-234.8725690564047
 20
111.6214077241378
 30
0.0
 10
-234.872569056405
 20
111.20908370723
 30
0.0
 10
-234.8725690564048
 20
110.6040587389809
 30
0.0
 10
-234.8725690564048
 20
109.8090952599536
 30
0.0
 10
-234.8725690564049
 20
109.1633181558187
 30
0.0
 10
-234.8725690564049
 20
108.8779226146991
 30
0.0
  0
SPLINE
  5
92
330
1F
100
AcDbEntity
  8
0
  6
Continuous
 62
     8
370
    25
100
AcDbSpline
210
0.0
220
0.0
230
1.0
 70
     8
 71
     3
 72
    19
 73
    15
 74
     0
 42
0.000000001
 43
0.00000001
 40
0.0
 40
0.0
 40
0.0
 40
0.0
 40
0.0699943432577151
 40
0.1417906290619234
 40
0.2152260020058405
 40
0.2851570142546113
 40
0.3647115206788628
 40
0.4388778888870891
 40
0.5076567210518886
 40
0.5710491050921574
 40
0.6770195160630254
 40
0.7722812564529199
 40
0.856831701555242
 40
0.9999999999999999
 40
0.9999999999999999
 40
0.9999999999999999
 40
0.9999999999999999
 10
-234.8725690564049
 20
108.877922614699
 30
0.0
 10
-235.5136049433791
 20
108.8731298568199
 30
0.0
 10
-236.8121796200595
 20
108.8634209557432
 30
0.0
 10
-238.7648657866086
 20
108.8505546913957
 30
0.0
 10
-240.6790025680829
 20
108.8396041882794
 30
0.0
 10
-242.6032514545675
 20
108.8296394799299
 30
0.0
 10
-244.4538599052357
 20
108.8220237273515
 30
0.0
 10
-246.1910640316042
 20
108.8172317201601
 30
0.0
 10
-247.6967423549287
 20
108.8139051730193
 30
0.0
 10
-249.3060968460973
 20
108.8066928672697
 30
0.0
 10
-250.8983651794796
 20
108.8015326678255
 30
0.0
 10
-252.3180438644102
 20
108.8074884827217
 30
0.0
 10
-253.6334719036491
 20
108.8156387270257
 30
0.0
 10
-254.1490698783491
 20
108.8239944239265
 30
0.0
 10
-254.4732297765179
 20
108.8292477065021
 30
0.0
  0
LINE
  5
93
330
1F
100
AcDbEntity
  8
0
  6
Continuous
 62
     7
370
    25
100
AcDbLine
 10
-254.7912469808
 20
109.5713481345
 30
0.0
 11
-254.8592924461
 21
108.8481507917
 31
0.0
  0
LINE
  5
94
330
1F
100
AcDbEntity
  8
0
  6
Continuous
 62
     7
370
    25
100
AcDbLine
 10
234.8725690564
 20
108.877922614
 30
0.0
 11
-234.8725690564
 21
108.8779226147
 31
0.0
  0
LINE
  5
95
330
1F
100
AcDbEntity
  8
0
  6
Continuous
 62
     7
370
    25
100
AcDbLine
 10
-234.8725690564
 20
108.8779226147
 30
0.0
 11
-230.1410959668
 21
2.8929254085
 31
0.0
  0
LINE
  5
96
330
1F
100
AcDbEntity
  8
0
  6
Continuous
 62
     7
370
    25
100
AcDbLine
 10
-250.1279555664
 20
2.8662046882
 30
0.0
 11
-254.859292071
 21
108.84814239
 31
0.0
  0
LINE
  5
97
330
1F
100
AcDbEntity
  8
0
  6
Continuous
 62
     7
370
    25
100
AcDbLine
 10
254.8592920709
 20
108.8481423882
 30
0.0
 11
250.1279555664
 21
2.8662046882
 31
0.0
  0
LINE
  5
98
330
1F
100
AcDbEntity
  8
0
  6
Continuous
 62
     7
370
    25
100
AcDbLine
 10
230.1410959668
 20
2.8929254085
 30
0.0
 11
234.8725690564
 21
108.877922614
 31
0.0
  0
LINE
  5
99
330
1F
100
AcDbEntity
  8
0
  6
Continuous
 62
     7
370
    25
100
AcDbLine
 10
-230.1410959668
 20
2.8929254085
 30
0.0
 11
230.1410959668
 21
2.8929254085
 31
0.0
  0
LINE
  5
9A
330
1F
100
AcDbEntity
  8
0
  6
Continuous
 62
     7
370
    25
100
AcDbLine
 10
247.1309405824
 20
0.0
 30
0.0
 11
-247.1309405824
 21
0.0
 31
0.0
  0
LINE
  5
9B
330
1F
100
AcDbEntity
  8
0
  6
Continuous
 62
     7
370
    25
100
AcDbLine
 10
-230.1410959668
 20
0.0
 30
0.0
 11
-230.1410959668
 21
2.8929254085
 31
0.0
  0
LINE
  5
9C
330
1F
100
AcDbEntity
  8
0
  6
Continuous
 62
     7
370
    25
100
AcDbLine
 10
230.1410959668
 20
0.0
 30
0.0
 11
230.1410959668
 21
2.8929254085
 31
0.0
  0
ARC
  5
9D
330
1F
100
AcDbEntity
  8
0
  6
Continuous
 62
     7
370
    25
100
AcDbCircle
 10
-241.503962316
 20
1027.2058476441
 30
0.0
 40
1024.375945339703
100
AcDbArc
 50
269.5176338774
 51
270.6355651358
  0
ARC
  5
9E
330
1F
100
AcDbEntity
  8
0
  6
Continuous
 62
     7
370
    25
100
AcDbCircle
 10
241.266811153
 20
849.8189002403
 30
0.0
 40
846.9990486318172
100
AcDbArc
 50
269.2473724052
 51
270.5994285816
  0
ARC
  5
9F
330
1F
100
AcDbEntity
  8
0
  6
Continuous
 62
     7
370
    25
100
AcDbCircle
 10
-247.1309405824
 20
3.0
 30
0.0
 40
3.00000000000003
100
AcDbArc
 50
182.5561500786
 51
270.0
  0
ARC
  5
A0
330
1F
100
AcDbEntity
  8
0
  6
Continuous
 62
     7
370
    25
100
AcDbCircle
 10
247.1309405824
 20
3.0
 30
0.0
 40
3.000000000000057
100
AcDbArc
 50
270.0
 51
357.4438499214
  0
SPLINE
  5
A1
330
1B
100
AcDbEntity
 67
     1
  8
0
  6
Continuous
 62
     7
370
    25
100
AcDbSpline
210
0.0
220
0.0
230
1.0
 70
     8
 71
     3
 72
    22
 73
    18
 74
     0
 42
0.000000001
 43
0.00000001
 40
0.0
 40
0.0
 40
0.0
 40
0.0
 40
0.0412609704778012
 40
0.0819505567881085
 40
0.1206209075192682
 40
0.1573245491129824
 40
0.284834527000064
 40
0.352686957299834
 40
0.4068308273772641
 40
0.4520356531787433
 40
0.5423725802542098
 40
0.6636285430887127
 40
0.7362190328748982
 40
0.8167966531447804
 40
0.8748292700192704
 40
0.9364558945987268
 40
1.0
 40
1.0
 40
1.0
 40
1.0
 10
-254.8447922127682
 20
-152.4065386460736
 30
0.0
 10
-254.8369090618049
 20
-152.8377829769316
 30
0.0
 10
-254.8212519261822
 20
-153.6942997436551
 30
0.0
 10
-254.6953472916072
 20
-154.9497421646344
 30
0.0
 10
-254.5047235357976
 20
-156.1481772096572
 30
0.0
 10
-254.046196703192
 20
-158.2186843766956
 30
0.0
 10
-253.2149619360237
 20
-160.5181743371764
 30
0.0
 10
-251.9611219282367
 20
-162.8085504404282
 30
0.0
 10
-250.978254644354
 20
-164.2558885772805
 30
0.0
 10
-249.739381058299
 20
-165.8050154897481
 30
0.0
 10
-247.8436568167326
 20
-167.7169145535582
 30
0.0
 10
-245.4158326317074
 20
-169.4618087944527
 30
0.0
 10
-242.8553350417061
 20
-170.7641921631097
 30
0.0
 10
-240.7763152104367
 20
-171.5249794041308
 30
0.0
 10
-238.7420510848114
 20
-172.0229846321468
 30
0.0
 10
-236.8454077465075
 20
-172.3156163567044
 30
0.0
 10
-235.5368637772011
 20
-172.3525366439043
 30
0.0
 10
-234.8725690501462
 20
-172.3712795770295
 30
0.0
  0
SPLINE
  5
A2
330
1B
100
AcDbEntity
 67
     1
  8
0
  6
Continuous
 62
     7
370
    25
100
AcDbSpline
210
0.0
220
0.0
230
1.0
 70
     8
 71
     3
 72
    22
 73
    18
 74
     0
 42
0.000000001
 43
0.00000001
 40
0.0
 40
0.0
 40
0.0
 40
0.0
 40
0.0412609704765036
 40
0.0819505567868269
 40
0.1206209075179708
 40
0.1573245491178372
 40
0.2848345269979946
 40
0.3526869572991766
 40
0.4068308273757281
 40
0.4520356531779775
 40
0.5423725802526059
 40
0.6636285430885788
 40
0.7362190328746221
 40
0.8167966531457347
 40
0.8748292700194927
 40
0.9364558945984852
 40
1.0
 40
1.0
 40
1.0
 40
1.0
 10
254.8447922252857
 20
152.406538646095
 30
0.0
 10
254.8369090743217
 20
152.8377829769395
 30
0.0
 10
254.8212519386977
 20
153.69429974365
 30
0.0
 10
254.6953473041347
 20
154.9497421646172
 30
0.0
 10
254.5047235483122
 20
156.148177209704
 30
0.0
 10
254.0461967156939
 20
158.2186843767315
 30
0.0
 10
253.2149619485627
 20
160.5181743372324
 30
0.0
 10
251.9611219407822
 20
162.8085504404158
 30
0.0
 10
250.978254656882
 20
164.255888577272
 30
0.0
 10
249.73938107084
 20
165.8050154897401
 30
0.0
 10
247.8436568292289
 20
167.7169145535225
 30
0.0
 10
245.4158326443066
 20
169.4618087945558
 30
0.0
 10
242.8553350542697
 20
170.7641921632473
 30
0.0
 10
240.7763152228992
 20
171.5249794039753
 30
0.0
 10
238.7420510973318
 20
172.0229846322127
 30
0.0
 10
236.8454077590225
 20
172.3156163567151
 30
0.0
 10
235.5368637897198
 20
172.352536643922
 30
0.0
 10
234.8725690626631
 20
172.3712795770509
 30
0.0
  0
SPLINE
  5
A3
330
1B
100
AcDbEntity
 67
     1
  8
0
  6
Continuous
 62
     7
370
    25
100
AcDbSpline
210
0.0
220
0.0
230
1.0
 70
     8
 71
     3
 72
    22
 73
    18
 74
     0
 42
0.000000001
 43
0.00000001
 40
0.0
 40
0.0
 40
0.0
 40
0.0
 40
0.0547211683918325
 40
0.1076485876304028
 40
0.1570429057573706
 40
0.2845877314113743
 40
0.3524399380940975
 40
0.4065592861336525
 40
0.4517710682198051
 40
0.5421441159397329
 40
0.6633902104428474
 40
0.7359579537999482
 40
0.8165079215480606
 40
0.8596879202431289
 40
0.9048614678465386
 40
0.9521050254641013
 40
1.0
 40
1.0
 40
1.0
 40
1.0
 10
234.8725690626306
 20
-172.3712795769965
 30
0.0
 10
235.4445650912929
 20
-172.3574162381663
 30
0.0
 10
236.5698072311316
 20
-172.3301439980302
 30
0.0
 10
238.1997206607645
 20
-172.1142955092807
 30
0.0
 10
240.5519267877249
 20
-171.6227731767308
 30
0.0
 10
242.9778101461158
 20
-170.7462820329832
 30
0.0
 10
245.2693824747945
 20
-169.494516075657
 30
0.0
 10
246.7174125514802
 20
-168.5129276374628
 30
0.0
 10
248.2676342877592
 20
-167.275100922954
 30
0.0
 10
250.1819892150392
 20
-165.3812889134051
 30
0.0
 10
251.9284449047377
 20
-162.9545088628169
 30
0.0
 10
253.2330044461195
 20
-160.3956790345726
 30
0.0
 10
253.9404802814302
 20
-158.4636691162019
 30
0.0
 10
254.3843930499085
 20
-156.7541333445555
 30
0.0
 10
254.6429497466596
 20
-155.3599810799778
 30
0.0
 10
254.8130109924795
 20
-153.9015784144633
 30
0.0
 10
254.8341502339226
 20
-152.9071548533407
 30
0.0
 10
254.8447922252138
 20
-152.4065386460081
 30
0.0
  0
SPLINE
  5
A4
330
1B
100
AcDbEntity
 67
     1
  8
0
  6
Continuous
 62
     7
370
    25
100
AcDbSpline
210
0.0
220
0.0
230
1.0
 70
     8
 71
     3
 72
    22
 73
    18
 74
     0
 42
0.000000001
 43
0.00000001
 40
0.0
 40
0.0
 40
0.0
 40
0.0
 40
0.0547211682946678
 40
0.1076485875674874
 40
0.1570429057592652
 40
0.284587731727393
 40
0.3524399386322819
 40
0.4065592869461258
 40
0.4517710691899298
 40
0.5421441171234682
 40
0.6633902166489887
 40
0.7359579608271787
 40
0.8165078959194214
 40
0.8596878972766446
 40
0.9048614640395434
 40
0.9521050600215213
 40
1.0
 40
1.0
 40
1.0
 40
1.0
 10
-234.8725690501131
 20
172.3712795770179
 30
0.0
 10
-235.4445650777013
 20
172.3574162382581
 30
0.0
 10
-236.5698072167672
 20
172.3301439982278
 30
0.0
 10
-238.1997206462705
 20
172.1142955096198
 30
0.0
 10
-240.5519267772644
 20
171.6227731764883
 30
0.0
 10
-242.9778101413048
 20
170.7462820301332
 30
0.0
 10
-245.2693824763666
 20
169.494516067421
 30
0.0
 10
-246.7174125577698
 20
168.5129276240668
 30
0.0
 10
-248.2676342965652
 20
167.2751009027802
 30
0.0
 10
-250.1819892692578
 20
165.3812888562693
 30
0.0
 10
-251.9284449442126
 20
162.9545087171209
 30
0.0
 10
-253.2330043652943
 20
160.3956791435863
 30
0.0
 10
-253.9404801209129
 20
158.4636695264529
 30
0.0
 10
-254.3843929262194
 20
156.754133881436
 30
0.0
 10
-254.6429497675021
 20
155.3599810027974
 30
0.0
 10
-254.8130110062813
 20
153.9015780920495
 30
0.0
 10
-254.8341502356089
 20
152.9071544918144
 30
0.0
 10
-254.8447922126965
 20
152.4065386460309
 30
0.0
  0
LWPOLYLINE
  5
A5
330
1B
100
AcDbEntity
 67
     1
  8
0
  6
Continuous
 62
     7
370
    25
100
AcDbPolyline
 90
       22
 70
   128
 43
0.0
 10
-234.8725690501
 20
-172.3712795795
 10
-227.2342323291
 20
-172.3712800134
 10
-220.6390791563
 20
-172.3712800203
 10
-215.0858076741
 20
-172.3712800248
 10
-210.573367677
 20
-172.3712800272
 10
-206.9746074501
 20
-172.3712800275
 10
-203.4694327658
 20
-172.3712800275
 10
-186.3479222007
 20
-172.3712800275
 10
-155.4655533495
 20
-172.3712800275
 10
-100.318454925
 20
-172.3712800275
 10
-1.8415091254
 20
-172.3712800275
 10
123.4927718177
 20
-172.3712800275
 10
178.639871197
 20
-172.3712800275
 10
184.7060429425
 20
-172.3712800275
 10
190.695576715
 20
-172.3712800275
 10
196.3179408143
 20
-172.3712800275
 10
201.6123009567
 20
-172.3712800274
 10
205.8159844697
 20
-172.3712800261
 10
211.2425382772
 20
-172.3712800231
 10
217.8931113609
 20
-172.3712800184
 10
225.7691763686
 20
-172.3712800122
 10
234.8725690626
 20
-172.3712795794
  0
LWPOLYLINE
  5
A6
330
1B
100
AcDbEntity
 67
     1
  8
0
  6
Continuous
 62
     7
370
    25
100
AcDbPolyline
 90
       22
 70
   128
 43
0.0
 10
234.8725690627
 20
172.3712795795
 10
227.2342323412
 20
172.3712800134
 10
220.6390791685
 20
172.3712800203
 10
215.0858076867
 20
172.3712800249
 10
210.57336769
 20
172.3712800272
 10
206.9746074635
 20
172.3712800275
 10
203.4694327795
 20
172.3712800275
 10
186.3479222155
 20
172.3712800275
 10
155.4655533653
 20
172.3712800275
 10
100.3184549441
 20
172.3712800275
 10
1.8415091493
 20
172.3712800275
 10
-123.4927717877
 20
172.3712800275
 10
-178.6398711641
 20
172.3712800275
 10
-184.7060429094
 20
172.3712800275
 10
-190.6955766796
 20
172.3712800275
 10
-196.3179407759
 20
172.3712800275
 10
-201.6123009189
 20
172.3712800274
 10
-205.8159844401
 20
172.3712800261
 10
-211.2425382538
 20
172.3712800231
 10
-217.8931113422
 20
172.3712800185
 10
-225.7691763534
 20
172.3712800122
 10
-234.8725690501
 20
172.3712795795
  0
SPLINE
  5
A7
330
1B
100
AcDbEntity
 67
     1
  8
0
  6
Continuous
 62
     7
370
    25
100
AcDbSpline
210
0.0
220
0.0
230
1.0
 70
    24
 71
     3
 72
    30
 73
    26
 74
     0
 42
0.000000001
 43
0.00000001
 40
0.0
 40
0.0
 40
0.0
 40
0.0
 40
0.1249999999999974
 40
0.1249999999999974
 40
0.2499999999999948
 40
0.2499999999999948
 40
0.3124999999999946
 40
0.3124999999999946
 40
0.3749999999999945
 40
0.3749999999999945
 40
0.4374999999999943
 40
0.4374999999999943
 40
0.4999999999999942
 40
0.4999999999999942
 40
0.562499999999994
 40
0.562499999999994
 40
0.6249999999999938
 40
0.6249999999999938
 40
0.6874999999999937
 40
0.6874999999999937
 40
0.7499999999999934
 40
0.7499999999999934
 40
0.8749999999999967
 40
0.8749999999999967
 40
1.0
 40
1.0
 40
1.0
 40
1.0
 10
-248.8329313406533
 20
-152.4065386460736
 30
0.0
 10
-248.8477139508953
 20
-152.4065386460736
 30
0.0
 10
-248.894969762504
 20
-152.4065386460736
 30
0.0
 10
-249.1106104814994
 20
-152.4065386460736
 30
0.0
 10
-249.2806521508351
 20
-152.4065386460737
 30
0.0
 10
-249.6681611775423
 20
-152.4065386460737
 30
0.0
 10
-249.8192267691818
 20
-152.4065386460737
 30
0.0
 10
-250.1653446560499
 20
-152.4065386460736
 30
0.0
 10
-250.3604721620816
 20
-152.4065386460736
 30
0.0
 10
-250.7870279151348
 20
-152.4065386460736
 30
0.0
 10
-251.0184223487111
 20
-152.4065386460736
 30
0.0
 10
-251.5008246178729
 20
-152.4065386460736
 30
0.0
 10
-251.7516617747864
 20
-152.4065386460736
 30
0.0
 10
-252.2503146662228
 20
-152.4065386460736
 30
0.0
 10
-252.4979008682264
 20
-152.4065386460736
 30
0.0
 10
-252.9678737236801
 20
-152.4065386460736
 30
0.0
 10
-253.190104916853
 20
-152.4065386460736
 30
0.0
 10
-253.5939190021609
 20
-152.4065386460736
 30
0.0
 10
-253.7754878888384
 20
-152.4065386460736
 30
0.0
 10
-254.0919522090189
 20
-152.4065386460737
 30
0.0
 10
-254.2269367138984
 20
-152.4065386460737
 30
0.0
 10
-254.564955994941
 20
-152.4065386460737
 30
0.0
 10
-254.7006040629911
 20
-152.4065386460736
 30
0.0
 10
-254.8526100287839
 20
-152.4065386460736
 30
0.0
 10
-254.8705056539993
 20
-152.4065386460736
 30
0.0
 10
-254.8592920647228
 20
-152.4065386460736
 30
0.0
  0
SPLINE
  5
A8
330
1B
100
AcDbEntity
 67
     1
  8
0
  6
Continuous
 62
     7
370
    25
100
AcDbSpline
210
0.0
220
0.0
230
1.0
 70
     8
 71
     3
 72
    38
 73
    34
 74
     0
 42
0.000000001
 43
0.00000001
 40
0.0
 40
0.0
 40
0.0
 40
0.0
 40
0.0173067653796302
 40
0.0352684175935931
 40
0.0538840334808279
 40
0.0731526801348841
 40
0.0930733940699224
 40
0.113645169083617
 40
0.1348669573731012
 40
0.1567376892524652
 40
0.1792563176833115
 40
0.2024218947637945
 40
0.226233688324544
 40
0.250691347843429
 40
0.3130088915622499
 40
0.3752745449949871
 40
0.4375173213558348
 40
0.4997619468635492
 40
0.5333626356491491
 40
0.5669077052023143
 40
0.6004020458688335
 40
0.6338495270227734
 40
0.6672537038366138
 40
0.7006185043208111
 40
0.7339488957355794
 40
0.7672514606517501
 40
0.8005328097719694
 40
0.8337974164748433
 40
0.8670488231343755
 40
0.900290374091677
 40
0.9335258727971293
 40
0.9667602154228961
 40
1.0
 40
1.0
 40
1.0
 40
1.0
 10
-248.8329313406533
 20
-152.4065386460736
 30
0.0
 10
-248.8318185244612
 20
-152.5329880694758
 30
0.0
 10
-248.8295507831872
 20
-152.7906717539304
 30
0.0
 10
-248.8122729251357
 20
-153.1840617246897
 30
0.0
 10
-248.7834836900725
 20
-153.5911176865149
 30
0.0
 10
-248.7409707498259
 20
-154.0113847033935
 30
0.0
 10
-248.6838012413004
 20
-154.4443324068369
 30
0.0
 10
-248.6106500339631
 20
-154.8893477764058
 30
0.0
 10
-248.520273976062
 20
-155.3457289155558
 30
0.0
 10
-248.4113809793676
 20
-155.8126778653979
 30
0.0
 10
-248.2826687110419
 20
-156.289294964669
 30
0.0
 10
-248.1328191218461
 20
-156.7745664067324
 30
0.0
 10
-247.9604919359133
 20
-157.2673770949214
 30
0.0
 10
-247.6649014506208
 20
-158.0195328131064
 30
0.0
 10
-247.1969700768652
 20
-159.0050071571483
 30
0.0
 10
-246.4927725538318
 20
-160.1768631704627
 30
0.0
 10
-245.6784237804717
 20
-161.2743915781481
 30
0.0
 10
-244.901643070768
 20
-162.1319960054477
 30
0.0
 10
-244.2153245346383
 20
-162.7827395414862
 30
0.0
 10
-243.65545832104
 20
-163.2600081162439
 30
0.0
 10
-243.0722132446132
 20
-163.7065292512712
 30
0.0
 10
-242.4672749961342
 20
-164.1213715738523
 30
0.0
 10
-241.8423303458806
 20
-164.5035948414344
 30
0.0
 10
-241.1990412973195
 20
-164.8522690411394
 30
0.0
 10
-240.539062482855
 20
-165.1664926727767
 30
0.0
 10
-239.8640165520991
 20
-165.4452928979663
 30
0.0
 10
-239.175709917545
 20
-165.6880557720592
 30
0.0
 10
-238.4760579152741
 20
-165.8945351752976
 30
0.0
 10
-237.7669288895612
 20
-166.0643293330799
 30
0.0
 10
-237.050180320089
 20
-166.1973759802045
 30
0.0
 10
-236.3276461278807
 20
-166.2924315783143
 30
0.0
 10
-235.6011480900591
 20
-166.3526606932057
 30
0.0
 10
-235.1154419843415
 20
-166.3607509270346
 30
0.0
 10
-234.8725690501462
 20
-166.3647963751054
 30
0.0
  0
SPLINE
  5
A9
330
1B
100
AcDbEntity
 67
     1
  8
0
  6
Continuous
 62
     7
370
    25
100
AcDbSpline
210
0.0
220
0.0
230
1.0
 70
    24
 71
     3
 72
    30
 73
    26
 74
     0
 42
0.000000001
 43
0.00000001
 40
0.0
 40
0.0
 40
0.0
 40
0.0
 40
0.1249999999999925
 40
0.1249999999999925
 40
0.2499999999999849
 40
0.2499999999999849
 40
0.3124999999999856
 40
0.3124999999999856
 40
0.3749999999999862
 40
0.3749999999999862
 40
0.4374999999999869
 40
0.4374999999999869
 40
0.4999999999999876
 40
0.4999999999999876
 40
0.5624999999999882
 40
0.5624999999999882
 40
0.6249999999999889
 40
0.6249999999999889
 40
0.6874999999999896
 40
0.6874999999999896
 40
0.7499999999999902
 40
0.7499999999999902
 40
0.8749999999999951
 40
0.8749999999999951
 40
1.0
 40
1.0
 40
1.0
 40
1.0
 10
248.8329313531707
 20
152.4065386460949
 30
0.0
 10
248.8477139634128
 20
152.4065386460949
 30
0.0
 10
248.8949697750214
 20
152.4065386460949
 30
0.0
 10
249.1106104940168
 20
152.4065386460949
 30
0.0
 10
249.2806521633524
 20
152.4065386460949
 30
0.0
 10
249.6681611900596
 20
152.406538646095
 30
0.0
 10
249.8192267816991
 20
152.406538646095
 30
0.0
 10
250.1653446685673
 20
152.406538646095
 30
0.0
 10
250.360472174599
 20
152.406538646095
 30
0.0
 10
250.7870279276522
 20
152.406538646095
 30
0.0
 10
251.0184223612286
 20
152.4065386460949
 30
0.0
 10
251.5008246303904
 20
152.406538646095
 30
0.0
 10
251.7516617873039
 20
152.4065386460949
 30
0.0
 10
252.2503146787402
 20
152.406538646095
 30
0.0
 10
252.4979008807437
 20
152.4065386460949
 30
0.0
 10
252.9678737361975
 20
152.406538646095
 30
0.0
 10
253.1901049293704
 20
152.406538646095
 30
0.0
 10
253.5939190146785
 20
152.406538646095
 30
0.0
 10
253.7754879013557
 20
152.406538646095
 30
0.0
 10
254.0919522215363
 20
152.4065386460949
 30
0.0
 10
254.2269367264159
 20
152.406538646095
 30
0.0
 10
254.5649560074585
 20
152.406538646095
 30
0.0
 10
254.7006040755085
 20
152.406538646095
 30
0.0
 10
254.8526100413015
 20
152.406538646095
 30
0.0
 10
254.8705056665167
 20
152.406538646095
 30
0.0
 10
254.8592920772402
 20
152.406538646095
 30
0.0
  0
SPLINE
  5
AA
330
1B
100
AcDbEntity
 67
     1
  8
0
  6
Continuous
 62
     7
370
    25
100
AcDbSpline
210
0.0
220
0.0
230
1.0
 70
     8
 71
     3
 72
    38
 73
    34
 74
     0
 42
0.000000001
 43
0.00000001
 40
0.0
 40
0.0
 40
0.0
 40
0.0
 40
0.0173067650183297
 40
0.0352684169374261
 40
0.0538840325959695
 40
0.0731526790872712
 40
0.0930733929252488
 40
0.1136451679073834
 40
0.1348669562306063
 40
0.1567376882087919
 40
0.1792563168033455
 40
0.2024218941122349
 40
0.2262336879658808
 40
0.2506913478420194
 40
0.3130088915600434
 40
0.3752745449925458
 40
0.4375173213537513
 40
0.4997619468624032
 40
0.5333626356448274
 40
0.566907705195259
 40
0.6004020458595422
 40
0.6338495270116979
 40
0.6672537038242232
 40
0.7006185043075761
 40
0.7339488957219573
 40
0.7672514606382087
 40
0.8005328097589528
 40
0.833797416462844
 40
0.8670488231238253
 40
0.9002903740830646
 40
0.9335258727909204
 40
0.966760215419563
 40
1.0
 40
1.0
 40
1.0
 40
1.0
 10
248.8329313531707
 20
152.4065386460949
 30
0.0
 10
248.831818537023
 20
152.532988066857
 30
0.0
 10
248.8295507958343
 20
152.7906717465169
 30
0.0
 10
248.8122729383938
 20
153.1840617108275
 30
0.0
 10
248.7834837041732
 20
153.5911176676836
 30
0.0
 10
248.7409707649217
 20
154.0113846810736
 30
0.0
 10
248.6838012574152
 20
154.4443323825031
 30
0.0
 10
248.6106500509951
 20
154.8893477515198
 30
0.0
 10
248.5202739937749
 20
155.3457288915572
 30
0.0
 10
248.4113809973843
 20
155.8126778436941
 30
0.0
 10
248.2826687288393
 20
156.2892949466236
 30
0.0
 10
248.1328191387483
 20
156.7745663936521
 30
0.0
 10
247.9604919510879
 20
157.2673770880419
 30
0.0
 10
247.6649014642743
 20
158.0195328107336
 30
0.0
 10
247.1969700894068
 20
159.0050071571314
 30
0.0
 10
246.4927725663809
 20
160.1768631704451
 30
0.0
 10
245.6784237930196
 20
161.2743915781387
 30
0.0
 10
244.901643083325
 20
162.131996005428
 30
0.0
 10
244.215324547223
 20
162.7827395414424
 30
0.0
 10
243.6554583336734
 20
163.2600081161649
 30
0.0
 10
243.0722132572911
 20
163.7065292511687
 30
0.0
 10
242.4672750088505
 20
164.1213715737363
 30
0.0
 10
241.8423303586283
 20
164.503594841314
 30
0.0
 10
241.1990413100908
 20
164.8522690410229
 30
0.0
 10
240.5390624956406
 20
165.1664926726705
 30
0.0
 10
239.8640165648896
 20
165.4452928978754
 30
0.0
 10
239.1757099303296
 20
165.6880557719871
 30
0.0
 10
238.4760579280421
 20
165.8945351752461
 30
0.0
 10
237.766928902301
 20
166.0643293330492
 30
0.0
 10
237.0501803327894
 20
166.1973759801935
 30
0.0
 10
236.3276461405299
 20
166.2924315783197
 30
0.0
 10
235.601148102646
 20
166.3526606932234
 30
0.0
 10
235.1154419968828
 20
166.3607509270546
 30
0.0
 10
234.8725690626631
 20
166.3647963751267
 30
0.0
  0
SPLINE
  5
AB
330
1B
100
AcDbEntity
 67
     1
  8
0
  6
Continuous
 62
     7
370
    25
100
AcDbSpline
210
0.0
220
0.0
230
1.0
 70
     8
 71
     3
 72
    30
 73
    26
 74
     0
 42
0.000000001
 43
0.00000001
 40
0.0
 40
0.0
 40
0.0
 40
0.0
 40
0.0160152977545131
 40
0.031949329456734
 40
0.0478032080612207
 40
0.0635778958915899
 40
0.0792742251704238
 40
0.0948929176098831
 40
0.1104346030670715
 40
0.1258998372722184
 40
0.1674555884512552
 40
0.2510633894488796
 40
0.3987953885547543
 40
0.5000277392678255
 40
0.5622665434947672
 40
0.6245430359324918
 40
0.6722343909480107
 40
0.7492096358500316
 40
0.7907612749077141
 40
0.8304123898656204
 40
0.868159263270094
 40
0.9039966966213738
 40
0.9379193017352051
 40
0.9699219968763877
 40
1.0
 40
1.0
 40
1.0
 40
1.0
 10
234.8725690626307
 20
-166.3647963734635
 30
0.0
 10
234.9895286033044
 20
-166.3637316833141
 30
0.0
 10
235.2228541995793
 20
-166.3616077055476
 30
0.0
 10
235.5717169266241
 20
-166.3473460094647
 30
0.0
 10
235.9183745484137
 20
-166.325172863455
 30
0.0
 10
236.2626438484419
 20
-166.2944557889754
 30
0.0
 10
236.6043488135838
 20
-166.2555665212621
 30
0.0
 10
236.9433165015143
 20
-166.2086107414633
 30
0.0
 10
237.279382711084
 20
-166.1537502741993
 30
0.0
 10
237.8001728116353
 20
-166.0558844222267
 30
0.0
 10
238.800723471519
 20
-165.8211251903589
 30
0.0
 10
240.6923878714145
 20
-165.1777126535299
 30
0.0
 10
242.8324553878857
 20
-163.9781554236131
 30
0.0
 10
244.5696420296842
 20
-162.4986505346396
 30
0.0
 10
245.6778083183254
 20
-161.2746436749799
 30
0.0
 10
246.4287418717395
 20
-160.2631459453641
 30
0.0
 10
247.1458868143934
 20
-159.1002370314634
 30
0.0
 10
247.6807360333316
 20
-158.0066357056863
 30
0.0
 10
248.0888791845119
 20
-156.9252582955091
 30
0.0
 10
248.343401633786
 20
-156.0940782843001
 30
0.0
 10
248.5373550835557
 20
-155.2897234631908
 30
0.0
 10
248.6776277036014
 20
-154.5167992604092
 30
0.0
 10
248.7697050222717
 20
-153.7790902729655
 30
0.0
 10
248.8230615072315
 20
-153.0795949248912
 30
0.0
 10
248.8297101123716
 20
-152.626205248875
 30
0.0
 10
248.8329313513678
 20
-152.4065386460082
 30
0.0
  0
SPLINE
  5
AC
330
1B
100
AcDbEntity
 67
     1
  8
0
  6
Continuous
 62
     7
370
    25
100
AcDbSpline
210
0.0
220
0.0
230
1.0
 70
    24
 71
     3
 72
    30
 73
    26
 74
     0
 42
0.000000001
 43
0.00000001
 40
0.0
 40
0.0
 40
0.0
 40
0.0
 40
0.125000000000005
 40
0.125000000000005
 40
0.25000000000001
 40
0.25000000000001
 40
0.3125000000000085
 40
0.3125000000000085
 40
0.3750000000000071
 40
0.3750000000000071
 40
0.4375000000000057
 40
0.4375000000000057
 40
0.5000000000000042
 40
0.5000000000000042
 40
0.5625000000000028
 40
0.5625000000000028
 40
0.6250000000000014
 40
0.6250000000000014
 40
0.6875
 40
0.6875
 40
0.7499999999999987
 40
0.7499999999999987
 40
0.8749999999999993
 40
0.8749999999999993
 40
1.0
 40
1.0
 40
1.0
 40
1.0
 10
248.8329313513678
 20
-152.4065386460087
 30
0.0
 10
248.8477139641054
 20
-152.4065386460087
 30
0.0
 10
248.8949697785415
 20
-152.4065386460087
 30
0.0
 10
249.1106105032269
 20
-152.4065386460087
 30
0.0
 10
249.2806521754223
 20
-152.4065386460086
 30
0.0
 10
249.6681612052807
 20
-152.4065386460086
 30
0.0
 10
249.8192267977728
 20
-152.4065386460086
 30
0.0
 10
250.1653446857504
 20
-152.4065386460086
 30
0.0
 10
250.3604721920354
 20
-152.4065386460086
 30
0.0
 10
250.7870279449077
 20
-152.4065386460087
 30
0.0
 10
251.0184223780483
 20
-152.4065386460086
 30
0.0
 10
251.500824645759
 20
-152.4065386460086
 30
0.0
 10
251.75166180166
 20
-152.4065386460086
 30
0.0
 10
252.2503146907852
 20
-152.4065386460086
 30
0.0
 10
252.4979008914956
 20
-152.4065386460086
 30
0.0
 10
252.9678737444207
 20
-152.4065386460086
 30
0.0
 10
253.1901049363617
 20
-152.4065386460087
 30
0.0
 10
253.5939190194978
 20
-152.4065386460086
 30
0.0
 10
253.7754879052351
 20
-152.4065386460086
 30
0.0
 10
254.0919522238918
 20
-152.4065386460086
 30
0.0
 10
254.2269367281846
 20
-152.4065386460086
 30
0.0
 10
254.564956007909
 20
-152.4065386460086
 30
0.0
 10
254.7006040756565
 20
-152.4065386460086
 30
0.0
 10
254.8526100411919
 20
-152.4065386460086
 30
0.0
 10
254.8705056664416
 20
-152.4065386460086
 30
0.0
 10
254.859292077159
 20
-152.4065386460086
 30
0.0
  0
SPLINE
  5
AD
330
1B
100
AcDbEntity
 67
     1
  8
0
  6
Continuous
 62
     7
370
    25
100
AcDbSpline
210
0.0
220
0.0
230
1.0
 70
     8
 71
     3
 72
    30
 73
    26
 74
     0
 42
0.000000001
 43
0.00000001
 40
0.0
 40
0.0
 40
0.0
 40
0.0
 40
0.0160152977741263
 40
0.031949329495602
 40
0.0478032081189802
 40
0.0635778959678948
 40
0.0792742252649121
 40
0.0948929177222103
 40
0.1104346031968906
 40
0.1258998374191772
 40
0.1674555885301646
 40
0.2510633899608959
 40
0.3987953877350997
 40
0.5000277406266337
 40
0.5622665449715649
 40
0.6245430375302398
 40
0.6722343854403235
 40
0.7492096374392347
 40
0.7907612700274368
 40
0.8304123805784828
 40
0.8681592516489616
 40
0.9039966847502274
 40
0.9379192917093823
 40
0.9699219908032263
 40
1.0
 40
1.0
 40
1.0
 40
1.0
 10
-234.8725690501132
 20
166.3647963734848
 30
0.0
 10
-234.9895285909297
 20
166.3637316833329
 30
0.0
 10
-235.2228541874878
 20
166.3616077055616
 30
0.0
 10
-235.5717169149523
 20
166.3473460094449
 30
0.0
 10
-235.9183745371523
 20
166.3251728633826
 30
0.0
 10
-236.2626438375809
 20
166.2944557888312
 30
0.0
 10
-236.6043488031125
 20
166.2555665210275
 30
0.0
 10
-236.9433164914216
 20
166.2086107411211
 30
0.0
 10
-237.2793827013579
 20
166.1537502737326
 30
0.0
 10
-237.8001728016471
 20
166.0558844216944
 30
0.0
 10
-238.8007234641982
 20
165.821125189016
 30
0.0
 10
-240.6923878571855
 20
165.1777126535471
 30
0.0
 10
-242.8324553816638
 20
163.9781554198585
 30
0.0
 10
-244.5696420286402
 20
162.4986505252561
 30
0.0
 10
-245.6778083264049
 20
161.2746436500639
 30
0.0
 10
-246.428741847495
 20
160.2631459589158
 30
0.0
 10
-247.1458867938032
 20
159.1002370468595
 30
0.0
 10
-247.680735995733
 20
158.0066357646646
 30
0.0
 10
-248.0888791399403
 20
156.925258381703
 30
0.0
 10
-248.3434015701658
 20
156.0940784657426
 30
0.0
 10
-248.5373550210573
 20
155.289723697516
 30
0.0
 10
-248.6776276542861
 20
154.5167995026144
 30
0.0
 10
-248.7697049904872
 20
153.7790904764989
 30
0.0
 10
-248.8230614911802
 20
153.0795950425102
 30
0.0
 10
-248.8297100986131
 20
152.6262052932586
 30
0.0
 10
-248.8329313388504
 20
152.406538646031
 30
0.0
  0
SPLINE
  5
AE
330
1B
100
AcDbEntity
 67
     1
  8
0
  6
Continuous
 62
     7
370
    25
100
AcDbSpline
210
0.0
220
0.0
230
1.0
 70
    24
 71
     3
 72
    30
 73
    26
 74
     0
 42
0.000000001
 43
0.00000001
 40
0.0
 40
0.0
 40
0.0
 40
0.0
 40
0.1250000000000049
 40
0.1250000000000049
 40
0.2500000000000099
 40
0.2500000000000099
 40
0.3125000000000107
 40
0.3125000000000107
 40
0.3750000000000115
 40
0.3750000000000115
 40
0.4375000000000123
 40
0.4375000000000123
 40
0.5000000000000131
 40
0.5000000000000131
 40
0.5625000000000139
 40
0.5625000000000139
 40
0.6250000000000147
 40
0.6250000000000147
 40
0.6875000000000155
 40
0.6875000000000155
 40
0.7500000000000163
 40
0.7500000000000163
 40
0.8750000000000081
 40
0.8750000000000081
 40
1.0
 40
1.0
 40
1.0
 40
1.0
 10
-248.8329313388504
 20
152.4065386460299
 30
0.0
 10
-248.8477139515881
 20
152.40653864603
 30
0.0
 10
-248.894969766024
 20
152.4065386460299
 30
0.0
 10
-249.1106104907094
 20
152.4065386460298
 30
0.0
 10
-249.2806521629049
 20
152.4065386460299
 30
0.0
 10
-249.6681611927635
 20
152.4065386460299
 30
0.0
 10
-249.8192267852555
 20
152.40653864603
 30
0.0
 10
-250.1653446732331
 20
152.4065386460299
 30
0.0
 10
-250.3604721795181
 20
152.4065386460299
 30
0.0
 10
-250.7870279323903
 20
152.4065386460299
 30
0.0
 10
-251.018422365531
 20
152.40653864603
 30
0.0
 10
-251.5008246332416
 20
152.40653864603
 30
0.0
 10
-251.7516617891425
 20
152.4065386460299
 30
0.0
 10
-252.2503146782679
 20
152.40653864603
 30
0.0
 10
-252.4979008789783
 20
152.40653864603
 30
0.0
 10
-252.9678737319032
 20
152.40653864603
 30
0.0
 10
-253.1901049238442
 20
152.4065386460299
 30
0.0
 10
-253.5939190069804
 20
152.4065386460298
 30
0.0
 10
-253.7754878927176
 20
152.4065386460298
 30
0.0
 10
-254.0919522113743
 20
152.4065386460299
 30
0.0
 10
-254.2269367156673
 20
152.40653864603
 30
0.0
 10
-254.5649559953917
 20
152.40653864603
 30
0.0
 10
-254.7006040631391
 20
152.4065386460299
 30
0.0
 10
-254.8526100286745
 20
152.40653864603
 30
0.0
 10
-254.8705056539242
 20
152.40653864603
 30
0.0
 10
-254.8592920646415
 20
152.4065386460299
 30
0.0
  0
SPLINE
  5
B0
330
1B
100
AcDbEntity
 67
     1
  8
0
  6
Continuous
 62
     7
370
    25
100
AcDbSpline
210
0.0
220
0.0
230
1.0
 70
     8
 71
     3
 72
    15
 73
    11
 74
     0
 42
0.000000001
 43
0.00000001
 40
0.3141654328832075
 40
0.3141654328832075
 40
0.3141654328832075
 40
0.3141654328832075
 40
0.3141782903516775
 40
0.3141782903516775
 40
0.3606337180105808
 40
0.4070891456694841
 40
0.4535445733283874
 40
0.5000000009872907
 40
0.5000000009872907
 40
0.50001285746847
 40
0.50001285746847
 40
0.50001285746847
 40
0.50001285746847
 10
248.8329313513677
 20
-152.4065386460083
 30
0.0
 10
248.8329420104221
 20
-152.3995157594597
 30
0.0
 10
248.8329473410021
 20
-152.3924926274194
 30
0.0
 10
248.8329473410022
 20
-127.0092704118148
 30
0.0
 10
248.8329473410023
 20
-76.22485389693276
 30
0.0
 10
248.8329473410023
 20
0.0000012287672628
 30
0.0
 10
248.8329473410022
 20
76.22485578578896
 30
0.0
 10
248.8329473410022
 20
127.0092711659972
 30
0.0
 10
248.8329473410022
 20
152.392493705328
 30
0.0
 10
248.8329420115781
 20
152.3995162984058
 30
0.0
 10
248.8329313548324
 20
152.4065386460977
 30
0.0
  0
SPLINE
  5
B2
330
1B
100
AcDbEntity
 67
     1
  8
0
  6
Continuous
 62
     7
370
    25
100
AcDbSpline
210
0.0
220
0.0
230
1.0
 70
     8
 71
     3
 72
    18
 73
    14
 74
     0
 42
0.000000001
 43
0.00000001
 40
0.0
 40
0.0
 40
0.0
 40
0.0
 40
0.0000691575015737
 40
0.0020341794810712
 40
0.0039982937301476
 40
0.0079260294731336
 40
0.015779944300605
 40
0.0314816629431816
 40
0.0628615811519857
 40
0.1255347410491139
 40
0.2505935530404965
 40
0.5000347320445276
 40
0.9999999999999999
 40
0.9999999999999999
 40
0.9999999999999999
 40
0.9999999999999999
 10
-248.8329313388504
 20
152.4065386460298
 30
0.0
 10
-248.832932675819
 20
152.3995122853787
 30
0.0
 10
-248.8329720010428
 20
152.1928408710305
 30
0.0
 10
-248.8327759292342
 20
151.7865849044586
 30
0.0
 10
-248.833025816795
 20
150.9883011669483
 30
0.0
 10
-248.832870949244
 20
149.5916661226384
 30
0.0
 10
-248.8329806364649
 20
146.7992397955261
 30
0.0
 10
-248.8329029728142
 20
141.2175454920954
 30
0.0
 10
-248.8329579274758
 20
130.0659814772762
 30
0.0
 10
-248.8329191206686
 20
107.8032566590531
 30
0.0
 10
-248.8329460105567
 20
63.38455920718037
 30
0.0
 10
-248.8329281277549
 20
-25.46492484445304
 30
0.0
 10
-248.832930054937
 20
-101.6078874509436
 30
0.0
 10
-248.8329313406534
 20
-152.4065386460736
 30
0.0
  0
SPLINE
  5
B3
330
1B
100
AcDbEntity
 67
     1
  8
0
  6
Continuous
 62
     7
370
    25
100
AcDbSpline
210
0.0
220
0.0
230
1.0
 70
     8
 71
     3
 72
    15
 73
    11
 74
     0
 42
0.000000001
 43
0.00000001
 40
0.5135444792706808
 40
0.5135444792706808
 40
0.5135444792706808
 40
0.5135444792706808
 40
0.5135625654919012
 40
0.5135625654919012
 40
0.5853258562284971
 40
0.657089146965093
 40
0.7288524377016892
 40
0.8006157284382851
 40
0.8006157284382851
 40
0.8006338156702776
 40
0.8006338156702776
 40
0.8006338156702776
 40
0.8006338156702776
 10
-234.8725690501461
 20
-166.3647963751054
 30
0.0
 10
-234.8627099844812
 20
-166.364817347424
 30
0.0
 10
-234.8528504594141
 20
-166.3648278363937
 30
0.0
 10
-195.7201958654019
 20
-166.3648278363937
 30
0.0
 10
-117.4480778664441
 20
-166.3648278363935
 30
0.0
 10
-0.000001252903413
 20
-166.3648278363939
 30
0.0
 10
117.4480759426483
 20
-166.3648278363935
 30
0.0
 10
195.720195104152
 20
-166.3648278363937
 30
0.0
 10
234.8528493701924
 20
-166.3648278363937
 30
0.0
 10
234.8627094461015
 20
-166.3648173469535
 30
0.0
 10
234.872569062631
 20
-166.3647963736879
 30
0.0
  0
SPLINE
  5
B4
330
1B
100
AcDbEntity
 67
     1
  8
0
  6
Continuous
 62
     7
370
    25
100
AcDbSpline
210
0.0
220
0.0
230
1.0
 70
     8
 71
     3
 72
    15
 73
    11
 74
     0
 42
0.000000001
 43
0.00000001
 40
0.0135444792706811
 40
0.0135444792706811
 40
0.0135444792706811
 40
0.0135444792706811
 40
0.0135625654919014
 40
0.0135625654919014
 40
0.0853258562284974
 40
0.1570891469650933
 40
0.2288524377016893
 40
0.3006157284382853
 40
0.3006157284382853
 40
0.3006338156702776
 40
0.3006338156702776
 40
0.3006338156702776
 40
0.3006338156702776
 10
234.8725690626636
 20
166.3647963751267
 30
0.0
 10
234.8627099969987
 20
166.3648173474453
 30
0.0
 10
234.8528504719316
 20
166.364827836415
 30
0.0
 10
195.7201958779193
 20
166.364827836415
 30
0.0
 10
117.4480778789615
 20
166.3648278364148
 30
0.0
 10
0.0000012654208968
 20
166.3648278364155
 30
0.0
 10
-117.4480759301309
 20
166.3648278364149
 30
0.0
 10
-195.7201950916347
 20
166.364827836415
 30
0.0
 10
-234.852849357675
 20
166.3648278364151
 30
0.0
 10
-234.862709433584
 20
166.3648173469749
 30
0.0
 10
-234.8725690501134
 20
166.3647963737093
 30
0.0
  0
SPLINE
  5
B5
330
1B
100
AcDbEntity
 67
     1
  8
0
  6
Continuous
 62
     7
370
    25
100
AcDbSpline
210
0.0
220
0.0
230
1.0
 70
     8
 71
     3
 72
    34
 73
    30
 74
     0
 42
0.000000001
 43
0.00000001
 40
0.0
 40
0.0
 40
0.0
 40
0.0
 40
0.0175596221064465
 40
0.0349952474883782
 40
0.05230665107402
 40
0.0694934833542732
 40
0.0865553088642037
 40
0.1034916409830434
 40
0.1203019732460971
 40
0.136985807358821
 40
0.1535426780981369
 40
0.1699721752788929
 40
0.1862739629559027
 40
0.2024477960230702
 40
0.2184935343628247
 40
0.2344111546900852
 40
0.2502007602256744
 40
0.3764358608746547
 40
0.5000082913963876
 40
0.6245246147637562
 40
0.749819629395722
 40
0.7801192311313134
 40
0.8106999249261944
 40
0.8415614139040071
 40
0.8727020291485791
 40
0.9041191493952773
 40
0.9358096956327417
 40
0.967770706385533
 40
1.0
 40
1.0
 40
1.0
 40
1.0
 10
231.693704278015
 20
163.8454021601168
 30
0.0
 10
231.8218977296659
 20
163.8440157819634
 30
0.0
 10
232.0773793989019
 20
163.8412528155226
 30
0.0
 10
232.4589484012305
 20
163.8237080077974
 30
0.0
 10
232.8372248518427
 20
163.7966953106872
 30
0.0
 10
233.2119398550912
 20
163.7595321337926
 30
0.0
 10
233.5828370970112
 20
163.7127504645819
 30
0.0
 10
233.9496725840927
 20
163.6565554227118
 30
0.0
 10
234.3122144115498
 20
163.5912339110697
 30
0.0
 10
234.6702425388197
 20
163.5170463655927
 30
0.0
 10
235.0235485194089
 20
163.4342555220674
 30
0.0
 10
235.3719354155565
 20
163.343118783594
 30
0.0
 10
235.7152170377391
 20
163.2438905592795
 30
0.0
 10
236.05321968354
 20
163.1368207504121
 30
0.0
 10
236.3857746664023
 20
163.0221587175823
 30
0.0
 10
236.712744818049
 20
162.9001393415264
 30
0.0
 10
237.7836562013441
 20
162.4696659048969
 30
0.0
 10
239.5053902682034
 20
161.5413023582666
 30
0.0
 10
241.6323324648934
 20
159.7924337364472
 30
0.0
 10
243.3741045607919
 20
157.6675472189645
 30
0.0
 10
244.350727383468
 20
155.8502474664139
 30
0.0
 10
244.8432082996835
 20
154.5810759131342
 30
0.0
 10
245.0557485655999
 20
153.9446725062238
 30
0.0
 10
245.2391631421081
 20
153.2929868855476
 30
0.0
 10
245.3922645691214
 20
152.627311056085
 30
0.0
 10
245.5140936124361
 20
151.9490912038758
 30
0.0
 10
245.6025935055966
 20
151.2598460927321
 30
0.0
 10
245.6597687456338
 20
150.5611929242421
 30
0.0
 10
245.6679830169448
 20
150.0922474879791
 30
0.0
 10
245.6721073183408
 20
149.8567947930048
 30
0.0
  0
SPLINE
  5
B7
330
1B
100
AcDbEntity
 67
     1
  8
0
  6
Continuous
 62
     7
370
    25
100
AcDbSpline
210
0.0
220
0.0
230
1.0
 70
     8
 71
     3
 72
    34
 73
    30
 74
     0
 42
0.000000001
 43
0.00000001
 40
0.0
 40
0.0
 40
0.0
 40
0.0
 40
0.0172189186350193
 40
0.0343623690462401
 40
0.0514301635035024
 40
0.0684219951064723
 40
0.0853374709938071
 40
0.1021761433592574
 40
0.1189375383533266
 40
0.1356211829505218
 40
0.1522266298616195
 40
0.1687534805683831
 40
0.185201406554813
 40
0.2015701688049212
 40
0.217859635632056
 40
0.2340697988995955
 40
0.2502007886860625
 40
0.3754574656424742
 40
0.5000085769527384
 40
0.6235483060712311
 40
0.7498196858445816
 40
0.7795201957886843
 40
0.809673159682987
 40
0.840278188917728
 40
0.8713335677256218
 40
0.902836591852487
 40
0.9347840184343551
 40
0.9671726404070964
 40
1.0
 40
1.0
 40
1.0
 40
1.0
 10
-245.6721073053693
 20
149.8567942143717
 30
0.0
 10
-245.6707683141557
 20
149.9825782747274
 30
0.0
 10
-245.6680962003485
 20
150.2335951006789
 30
0.0
 10
-245.6511589802164
 20
150.6090134041068
 30
0.0
 10
-245.6249888847541
 20
150.9822276098839
 30
0.0
 10
-245.5888451553454
 20
151.3529749189127
 30
0.0
 10
-245.5431631180057
 20
151.7210003277852
 30
0.0
 10
-245.4880624916545
 20
152.0860564763659
 30
0.0
 10
-245.4237444555203
 20
152.4479035689139
 30
0.0
 10
-245.3503859953327
 20
152.8063092887417
 30
0.0
 10
-245.2681680687553
 20
153.1610486696271
 30
0.0
 10
-245.1772680705296
 20
153.5119041486899
 30
0.0
 10
-245.0778621192076
 20
153.8586649442421
 30
0.0
 10
-244.9701235365847
 20
154.2011289383978
 30
0.0
 10
-244.8542267612817
 20
154.5390952808745
 30
0.0
 10
-244.7303334339019
 20
154.8723913728376
 30
0.0
 10
-244.3014723535778
 20
155.9417997904745
 30
0.0
 10
-243.3742049951419
 20
157.667394614054
 30
0.0
 10
-241.6327216439401
 20
159.7920460364271
 30
0.0
 10
-239.5055303003431
 20
161.541210877083
 30
0.0
 10
-237.6938470036351
 20
162.5181465842383
 30
0.0
 10
-236.426115744486
 20
163.0115332927524
 30
0.0
 10
-235.7992976586301
 20
163.222092046736
 30
0.0
 10
-235.1537755291532
 20
163.4053143540353
 30
0.0
 10
-234.4906596407439
 20
163.5595067116735
 30
0.0
 10
-233.8112626075966
 20
163.6831848816738
 30
0.0
 10
-233.1170206334252
 20
163.7737263687299
 30
0.0
 10
-232.409522836206
 20
163.8326535105287
 30
0.0
 10
-231.933377807544
 20
163.841133593793
 30
0.0
 10
-231.6937036709442
 20
163.8454021601169
 30
0.0
  0
SPLINE
  5
B8
330
1B
100
AcDbEntity
 67
     1
  8
0
  6
Continuous
 62
     7
370
    25
100
AcDbSpline
210
0.0
220
0.0
230
1.0
 70
     8
 71
     3
 72
    10
 73
     6
 74
     0
 42
0.000000001
 43
0.00000001
 40
0.0
 40
0.0
 40
0.0
 40
0.0
 40
0.4999911530600381
 40
0.9047838306711932
 40
1.0
 40
1.0
 40
1.0
 40
1.0
 10
-245.6610787784672
 20
149.8468685637929
 30
0.0
 10
-245.6629164365562
 20
149.8486497066732
 30
0.0
 10
-245.6662418620463
 20
149.8518728622597
 30
0.0
 10
-245.6699184769936
 20
149.8550527762983
 30
0.0
 10
-245.6717571657624
 20
149.8565156423057
 30
0.0
 10
-245.6721073053693
 20
149.8567942143717
 30
0.0
  0
SPLINE
  5
BB
330
1B
100
AcDbEntity
 67
     1
  8
0
  6
Continuous
 62
     7
370
    25
100
AcDbSpline
210
0.0
220
0.0
230
1.0
 70
     8
 71
     3
 72
    34
 73
    30
 74
     0
 42
0.000000001
 43
0.00000001
 40
0.0
 40
0.0
 40
0.0
 40
0.0
 40
0.0175596220958094
 40
0.0349952474686191
 40
0.0523066510466787
 40
0.0694934833208367
 40
0.0865553088261853
 40
0.1034916409419611
 40
0.1203019732034781
 40
0.1369858073161951
 40
0.1535426780570162
 40
0.1699721752408115
 40
0.1862739629223743
 40
0.2024477959956322
 40
0.2184935343430101
 40
0.2344111546794116
 40
0.2502007602256717
 40
0.3764358608358584
 40
0.500008291396388
 40
0.6245246147619052
 40
0.7498196293957243
 40
0.7801192311312984
 40
0.8106999249261696
 40
0.8415614139039868
 40
0.8727020291485607
 40
0.9041191493952624
 40
0.9358096956327246
 40
0.9677707063855294
 40
1.0
 40
1.0
 40
1.0
 40
1.0
 10
-231.6937042654976
 20
-163.8454021600955
 30
0.0
 10
-231.8218977170708
 20
-163.8440157819435
 30
0.0
 10
-232.0773793861626
 20
-163.8412528155056
 30
0.0
 10
-232.4589483882922
 20
-163.823708007799
 30
0.0
 10
-232.8372248387392
 20
-163.7966953107145
 30
0.0
 10
-233.2119398418569
 20
-163.7595321338511
 30
0.0
 10
-233.5828370836798
 20
-163.7127504646736
 30
0.0
 10
-233.9496725706986
 20
-163.6565554228366
 30
0.0
 10
-234.3122143981269
 20
-163.591233911224
 30
0.0
 10
-234.6702425254014
 20
-163.5170463657709
 30
0.0
 10
-235.0235485060283
 20
-163.4342555222611
 30
0.0
 10
-235.3719354022458
 20
-163.3431187837925
 30
0.0
 10
-235.71521702453
 20
-163.2438905594693
 30
0.0
 10
-236.0532196704631
 20
-163.1368207505776
 30
0.0
 10
-236.3857746534873
 20
-163.0221587177057
 30
0.0
 10
-236.7127448053247
 20
-162.9001393415873
 30
0.0
 10
-237.7836561884939
 20
-162.4696659050177
 30
0.0
 10
-239.5053902554405
 20
-161.5413023584083
 30
0.0
 10
-241.6323324521858
 20
-159.7924337366545
 30
0.0
 10
-243.3741045482661
 20
-157.6675472189548
 30
0.0
 10
-244.3507273709462
 20
-155.8502474664054
 30
0.0
 10
-244.8432082871659
 20
-154.581075913113
 30
0.0
 10
-245.0557485530827
 20
-153.944672506203
 30
0.0
 10
-245.2391631295906
 20
-153.2929868855267
 30
0.0
 10
-245.3922645566039
 20
-152.627311056064
 30
0.0
 10
-245.5140935999187
 20
-151.9490912038548
 30
0.0
 10
-245.6025934930792
 20
-151.259846092711
 30
0.0
 10
-245.6597687331164
 20
-150.5611929242208
 30
0.0
 10
-245.6679830044273
 20
-150.0922474879576
 30
0.0
 10
-245.6721073058233
 20
-149.8567947929834
 30
0.0
  0
SPLINE
  5
BD
330
1B
100
AcDbEntity
 67
     1
  8
0
  6
Continuous
 62
     7
370
    25
100
AcDbSpline
210
0.0
220
0.0
230
1.0
 70
     8
 71
     3
 72
    34
 73
    30
 74
     0
 42
0.000000001
 43
0.00000001
 40
0.0
 40
0.0
 40
0.0
 40
0.0
 40
0.0172189186306444
 40
0.0343623690381207
 40
0.0514301634922565
 40
0.0684219950927251
 40
0.0853374709781834
 40
0.1021761433423752
 40
0.1189375383358068
 40
0.1356211829329987
 40
0.1522266298447235
 40
0.1687534805527332
 40
0.1852014065410403
 40
0.2015701687936463
 40
0.2178596356239172
 40
0.234069798895207
 40
0.250200788686062
 40
0.375457465577714
 40
0.5000085769527393
 40
0.6235483060245187
 40
0.7498196858445637
 40
0.7795201957904442
 40
0.8096731596860146
 40
0.8402781889215137
 40
0.8713335677296558
 40
0.9028365918562749
 40
0.9347840184373803
 40
0.9671726404088585
 40
1.0
 40
1.0
 40
1.0
 40
1.0
 10
245.6721073178867
 20
-149.8567942143503
 30
0.0
 10
245.6707683266739
 20
-149.982578274674
 30
0.0
 10
245.6680962128678
 20
-150.2335951005662
 30
0.0
 10
245.6511589927429
 20
-150.609013403912
 30
0.0
 10
245.6249888972914
 20
-150.9822276096214
 30
0.0
 10
245.5888451678951
 20
-151.3529749185963
 30
0.0
 10
245.5431631305691
 20
-151.7210003274289
 30
0.0
 10
245.4880625042314
 20
-152.0860564759838
 30
0.0
 10
245.4237444681093
 20
-152.4479035685199
 30
0.0
 10
245.3503860079314
 20
-152.8063092883496
 30
0.0
 10
245.2681680813609
 20
-153.1610486692505
 30
0.0
 10
245.1772680831369
 20
-153.5119041483421
 30
0.0
 10
245.0778621318118
 20
-153.8586649439361
 30
0.0
 10
244.970123549179
 20
-154.2011289381463
 30
0.0
 10
244.8542267738588
 20
-154.5390952806896
 30
0.0
 10
244.7303334464536
 20
-154.8723913727312
 30
0.0
 10
244.3014723662865
 20
-155.9417997899851
 30
0.0
 10
243.3742050079343
 20
-157.6673946136248
 30
0.0
 10
241.6327216570409
 20
-159.7920460358395
 30
0.0
 10
239.5055303131535
 20
-161.5412108768622
 30
0.0
 10
237.6938470164591
 20
-162.5181465840992
 30
0.0
 10
236.4261157569709
 20
-163.0115332927434
 30
0.0
 10
235.7992976710879
 20
-163.2220920467337
 30
0.0
 10
235.1537755415939
 20
-163.4053143540339
 30
0.0
 10
234.4906596531784
 20
-163.5595067116694
 30
0.0
 10
233.8112626200357
 20
-163.6831848816644
 30
0.0
 10
233.1170206458804
 20
-163.7737263687148
 30
0.0
 10
232.4095228486884
 20
-163.8326535105084
 30
0.0
 10
231.9333778200486
 20
-163.841133593772
 30
0.0
 10
231.6937036834616
 20
-163.8454021600955
 30
0.0
  0
SPLINE
  5
C1
330
1B
100
AcDbEntity
 67
     1
  8
0
  6
Continuous
 62
     7
370
    25
100
AcDbSpline
210
0.0
220
0.0
230
1.0
 70
     8
 71
     3
 72
    84
 73
    80
 74
     0
 42
0.000000001
 43
0.00000001
 40
0.0
 40
0.0
 40
0.0
 40
0.0
 40
0.0348887022435335
 40
0.0348887022435335
 40
0.0697774044870669
 40
0.0697774044870669
 40
0.0872217556088337
 40
0.0872217556088337
 40
0.1046661067306005
 40
0.1046661067306005
 40
0.139554808974134
 40
0.139554808974134
 40
0.1744435112176674
 40
0.1744435112176674
 40
0.209332213461201
 40
0.209332213461201
 40
0.2442209157047345
 40
0.2442209157047345
 40
0.2616652668265012
 40
0.2616652668265012
 40
0.2703874423873845
 40
0.2703874423873845
 40
0.2791096179482679
 40
0.2791096179482679
 40
0.2950139007568306
 40
0.2950139007568306
 40
0.3109181835653932
 40
0.3109181835653932
 40
0.3427267491825186
 40
0.3427267491825186
 40
0.3745353147996437
 40
0.3745353147996437
 40
0.4063438804167691
 40
0.4063438804167691
 40
0.4222481632253317
 40
0.4222481632253317
 40
0.4381524460338944
 40
0.4381524460338944
 40
0.4699610116510197
 40
0.4699610116510197
 40
0.501769577268145
 40
0.501769577268145
 40
0.5176738600767076
 40
0.5176738600767076
 40
0.5335781428852702
 40
0.5335781428852702
 40
0.5632524888269215
 40
0.5632524888269215
 40
0.5929268347685728
 40
0.5929268347685728
 40
0.6226011807102241
 40
0.6226011807102241
 40
0.6522755266518754
 40
0.6522755266518754
 40
0.6671126996227009
 40
0.6671126996227009
 40
0.6819498725935266
 40
0.6819498725935266
 40
0.7116242185351779
 40
0.7116242185351779
 40
0.7412985644768292
 40
0.7412985644768292
 40
0.7561357374476548
 40
0.7561357374476548
 40
0.7709729104184804
 40
0.7709729104184804
 40
0.7996012966161704
 40
0.7996012966161704
 40
0.8282296828138603
 40
0.8282296828138603
 40
0.8568580690115503
 40
0.8568580690115503
 40
0.8854864552092402
 40
0.8854864552092402
 40
0.9427432276046201
 40
0.9427432276046201
 40
0.9713716138023101
 40
0.9713716138023101
 40
1.0
 40
1.0
 40
1.0
 40
1.0
 10
231.6826757187908
 20
163.8267864212041
 30
0.0
 10
231.6643434518509
 20
163.7924014590341
 30
0.0
 10
231.6371858978526
 20
163.7414632557391
 30
0.0
 10
231.5658361030456
 20
163.607635821618
 30
0.0
 10
231.5216438622369
 20
163.5247465907918
 30
0.0
 10
231.443041401395
 20
163.3773160649432
 30
0.0
 10
231.4147688285717
 20
163.3242867214022
 30
0.0
 10
231.3543303753595
 20
163.2109257062781
 30
0.0
 10
231.3221644949705
 20
163.1505940346951
 30
0.0
 10
231.2202021887357
 20
162.9593495405949
 30
0.0
 10
231.1448206731638
 20
162.8179613629117
 30
0.0
 10
230.9794845917598
 20
162.5078524783685
 30
0.0
 10
230.8895893775533
 20
162.3392430781536
 30
0.0
 10
230.6950399277106
 20
161.9743436367851
 30
0.0
 10
230.5903856920744
 20
161.7780535956317
 30
0.0
 10
230.3660135249517
 20
161.3572221473336
 30
0.0
 10
230.2460621175257
 20
161.1322428370501
 30
0.0
 10
230.0547309997479
 20
160.7733868140462
 30
0.0
 10
229.9892687731096
 20
160.6506077935521
 30
0.0
 10
229.8885492807557
 20
160.4617018959911
 30
0.0
 10
229.8545550912385
 20
160.3979437023341
 30
0.0
 10
229.7857249328504
 20
160.2688487181502
 30
0.0
 10
229.7508889639797
 20
160.2035119276231
 30
0.0
 10
229.6513440498896
 20
160.0168102387864
 30
0.0
 10
229.5857424290877
 20
159.8937713371996
 30
0.0
 10
229.4519493288657
 20
159.6428369487221
 30
0.0
 10
229.3837578494457
 20
159.5149414618313
 30
0.0
 10
229.1753541239416
 20
159.1240743622785
 30
0.0
 10
229.0313125906132
 20
158.8539221107359
 30
0.0
 10
228.733314094947
 20
158.295025179038
 30
0.0
 10
228.5793551641977
 20
158.0062768132648
 30
0.0
 10
228.26173768706
 20
157.4105931852809
 30
0.0
 10
228.0980791406717
 20
157.1036579230701
 30
0.0
 10
227.8454814220055
 20
156.6299245349831
 30
0.0
 10
227.759997738739
 20
156.4696051096873
 30
0.0
 10
227.5868141282357
 20
156.1448111675129
 30
0.0
 10
227.4991142009989
 20
155.9803366506343
 30
0.0
 10
227.2332190185111
 20
155.4816727130508
 30
0.0
 10
227.0525686447108
 20
155.1428811393139
 30
0.0
 10
226.6850895090212
 20
154.4537174605827
 30
0.0
 10
226.4982276661627
 20
154.1032833248612
 30
0.0
 10
226.2134903815853
 20
153.5693020513911
 30
0.0
 10
226.1178372000113
 20
153.3899199485864
 30
0.0
 10
225.9250891454718
 20
153.028453782122
 30
0.0
 10
225.8279942725063
 20
152.8463697184624
 30
0.0
 10
225.5477302068189
 20
152.3207870908319
 30
0.0
 10
225.3621576069854
 20
151.972783601713
 30
0.0
 10
224.9851034396131
 20
151.2657018014152
 30
0.0
 10
224.7936218720743
 20
150.9066234902362
 30
0.0
 10
224.4050494918282
 20
150.1779543058008
 30
0.0
 10
224.2079586791209
 20
149.8083634325447
 30
0.0
 10
223.8084675310754
 20
149.059231383938
 30
0.0
 10
223.6060671957372
 20
148.6796902085876
 30
0.0
 10
223.2987093426594
 20
148.1033374139787
 30
0.0
 10
223.1955335677632
 20
147.9098644928793
 30
0.0
 10
222.9881555482349
 20
147.5209953797018
 30
0.0
 10
222.8839533036027
 20
147.3255991876238
 30
0.0
 10
222.5704366321089
 20
146.7377067671429
 30
0.0
 10
222.360266418974
 20
146.3436082581428
 30
0.0
 10
221.9379390531343
 20
145.5516913506255
 30
0.0
 10
221.7257851132541
 20
145.1538790502905
 30
0.0
 10
221.4063295712764
 20
144.5548678785766
 30
0.0
 10
221.2996402852577
 20
144.3548153678034
 30
0.0
 10
221.0858969613816
 20
143.9540274472955
 30
0.0
 10
220.9788429235243
 20
143.7532920375607
 30
0.0
 10
220.6647570653279
 20
143.1643556975182
 30
0.0
 10
220.4564005915693
 20
142.7736739832337
 30
0.0
 10
220.0370721099766
 20
141.9874072757741
 30
0.0
 10
219.8261001021425
 20
141.5918222825989
 30
0.0
 10
219.4018956181202
 20
140.7964088639409
 30
0.0
 10
219.1886631419318
 20
140.3965804384579
 30
0.0
 10
218.7602927869224
 20
139.5933400017663
 30
0.0
 10
218.5451549081012
 20
139.1899279905578
 30
0.0
 10
217.8974157662705
 20
137.9753063482177
 30
0.0
 10
217.4624429768332
 20
137.1596108912012
 30
0.0
 10
216.8075742455211
 20
135.9315280165146
 30
0.0
 10
216.5888830772243
 20
135.5214104434255
 30
0.0
 10
216.1510826407733
 20
134.7003923765307
 30
0.0
 10
215.9319733726192
 20
134.2894918827249
 30
0.0
 10
215.7128475958004
 20
133.8785650830628
 30
0.0
  0
SPLINE
  5
C3
330
1B
100
AcDbEntity
 67
     1
  8
0
  6
Continuous
 62
     7
370
    25
100
AcDbSpline
210
0.0
220
0.0
230
1.0
 70
     8
 71
     3
 72
    32
 73
    28
 74
     0
 42
0.000000001
 43
0.00000001
 40
0.0
 40
0.0
 40
0.0
 40
0.0
 40
0.0133354565756459
 40
0.0255244603553678
 40
0.0365670054127976
 40
0.0464630865608164
 40
0.055212699426898
 40
0.0628158405852573
 40
0.095906921579796
 40
0.1254715112546747
 40
0.1912468040991768
 40
0.2499057643606716
 40
0.3149042333025688
 40
0.3754204480508435
 40
0.4996782490909169
 40
0.5636496267288573
 40
0.6250232710300289
 40
0.6884754801228192
 40
0.7499501687319204
 40
0.8123612137381295
 40
0.8734614377342179
 40
0.8947372871154848
 40
0.9159299421690731
 40
0.9370459200925674
 40
0.9580918093167237
 40
0.9790742642955006
 40
1.0
 40
1.0
 40
1.0
 40
1.0
 10
-215.7128475832816
 20
133.8785650830628
 30
0.0
 10
-215.8143474048164
 20
134.068925359677
 30
0.0
 10
-216.0086210808729
 20
134.4332805886197
 30
0.0
 10
-216.2868365965464
 20
134.9551391153161
 30
0.0
 10
-216.5387940584903
 20
135.427674712126
 30
0.0
 10
-216.7644861120606
 20
135.8508749858662
 30
0.0
 10
-216.9639204918051
 20
136.2247768049928
 30
0.0
 10
-217.3392768365535
 20
136.9285799861514
 30
0.0
 10
-217.8715011952464
 20
137.926857139851
 30
0.0
 10
-218.8398903430015
 20
139.7424300386994
 30
0.0
 10
-219.9897976565091
 20
141.8997214715168
 30
0.0
 10
-221.3771738161126
 20
144.4997935676756
 30
0.0
 10
-222.6897362182322
 20
146.9619841394045
 30
0.0
 10
-224.4065952514324
 20
150.1805079378585
 30
0.0
 10
-226.006768093783
 20
153.1814525535298
 30
0.0
 10
-227.4465192992146
 20
155.8819974113536
 30
0.0
 10
-228.441720067678
 20
157.7479699053075
 30
0.0
 10
-229.3176944611552
 20
159.3913330321749
 30
0.0
 10
-230.0796853529134
 20
160.8200361730474
 30
0.0
 10
-230.7028896068992
 20
161.9893525113033
 30
0.0
 10
-231.0819404531237
 20
162.6999613653527
 30
0.0
 10
-231.297323076312
 20
163.1040235741994
 30
0.0
 10
-231.4117046213142
 20
163.3186418192043
 30
0.0
 10
-231.5078157988854
 20
163.4989481561364
 30
0.0
 10
-231.5852109286957
 20
163.6440889807538
 30
0.0
 10
-231.6455662488278
 20
163.7572160486607
 30
0.0
 10
-231.6703166710507
 20
163.8036172304798
 30
0.0
 10
-231.6826751333361
 20
163.826786421306
 30
0.0
  0
SPLINE
  5
C4
330
1B
100
AcDbEntity
 67
     1
  8
0
  6
Continuous
 62
     7
370
    25
100
AcDbSpline
210
0.0
220
0.0
230
1.0
 70
     8
 71
     3
 72
     8
 73
     4
 74
     0
 42
0.000000001
 43
0.00000001
 40
0.0
 40
0.0
 40
0.0
 40
0.0
 40
1.0
 40
1.0
 40
1.0
 40
1.0
 10
-231.6826751333361
 20
163.8267864213059
 30
0.0
 10
-231.6863513125388
 20
163.8336794484792
 30
0.0
 10
-231.6900274917415
 20
163.8398848372264
 30
0.0
 10
-231.6937036709442
 20
163.8454021601169
 30
0.0
  0
SPLINE
  5
C5
330
1B
100
AcDbEntity
 67
     1
  8
0
  6
Continuous
 62
     7
370
    25
100
AcDbSpline
210
0.0
220
0.0
230
1.0
 70
     8
 71
     3
 72
     8
 73
     4
 74
     0
 42
0.000000001
 43
0.00000001
 40
0.0
 40
0.0
 40
0.0
 40
0.0
 40
1.0
 40
1.0
 40
1.0
 40
1.0
 10
231.693704278015
 20
163.8454021601168
 30
0.0
 10
231.6900268275035
 20
163.8398845906616
 30
0.0
 10
231.686350640426
 20
163.8336792971237
 30
0.0
 10
231.6826757187908
 20
163.8267864212041
 30
0.0
  0
SPLINE
  5
C6
330
1B
100
AcDbEntity
 67
     1
  8
0
  6
Continuous
 62
     7
370
    25
100
AcDbSpline
210
0.0
220
0.0
230
1.0
 70
     8
 71
     3
 72
     8
 73
     4
 74
     0
 42
0.000000001
 43
0.00000001
 40
0.0
 40
0.0
 40
0.0
 40
0.0
 40
1.0
 40
1.0
 40
1.0
 40
1.0
 10
-231.6937042654976
 20
-163.8454021600955
 30
0.0
 10
-231.6900280878157
 20
-163.8398848371778
 30
0.0
 10
-231.6863519101339
 20
-163.8336794483969
 30
0.0
 10
-231.682675732452
 20
-163.826786421183
 30
0.0
  0
SPLINE
  5
C7
330
1B
100
AcDbEntity
 67
     1
  8
0
  6
Continuous
 62
     7
370
    25
100
AcDbSpline
210
0.0
220
0.0
230
1.0
 70
     8
 71
     3
 72
    35
 73
    31
 74
     0
 42
0.000000001
 43
0.00000001
 40
0.0
 40
0.0
 40
0.0
 40
0.0
 40
0.0104567810601156
 40
0.0209268718533125
 40
0.0314111169631337
 40
0.0419103575573003
 40
0.0524254312047826
 40
0.062957171697031
 40
0.0735064088735514
 40
0.0840739684519465
 40
0.0946606718626291
 40
0.1052673360882281
 40
0.115894773507925
 40
0.1265437917467357
 40
0.1876447378268232
 40
0.2500545327448919
 40
0.3115299479342337
 40
0.3749808962935922
 40
0.4363552663370884
 40
0.5003253820407669
 40
0.6245826515826277
 40
0.685099591872037
 40
0.7500967985045673
 40
0.8087564602601377
 40
0.8745305194957084
 40
0.9040959238047318
 40
0.9371859222238239
 40
0.95353898298282
 40
0.9744770651772403
 40
1.0
 40
1.0
 40
1.0
 40
1.0
 10
-231.682675732452
 20
-163.826786421183
 30
0.0
 10
-231.6769414444736
 20
-163.816033656591
 30
0.0
 10
-231.6654655697276
 20
-163.7945144409364
 30
0.0
 10
-231.6424464506031
 20
-163.7513699914389
 30
0.0
 10
-231.615167230667
 20
-163.7002372045434
 30
0.0
 10
-231.5832102585163
 20
-163.6403267352637
 30
0.0
 10
-231.5466876808
 20
-163.5718421221138
 30
0.0
 10
-231.5055693916434
 20
-163.4947235315424
 30
0.0
 10
-231.4598634749679
 20
-163.4089850724115
 30
0.0
 10
-231.4095678000664
 20
-163.3146243518556
 30
0.0
 10
-231.3546828238976
 20
-163.211646336877
 30
0.0
 10
-231.2952088935318
 20
-163.1000586461614
 30
0.0
 10
-231.2311441964017
 20
-162.9798665361242
 30
0.0
 10
-231.0541343573765
 20
-162.6478370377816
 30
0.0
 10
-230.702880408718
 20
-161.9893319613927
 30
0.0
 10
-230.0796805458309
 20
-160.8200263622881
 30
0.0
 10
-229.3176901018605
 20
-159.3913236533438
 30
0.0
 10
-228.4417110248774
 20
-157.7479516358618
 30
0.0
 10
-227.4465142162585
 20
-155.8819869355408
 30
0.0
 10
-226.006762351573
 20
-153.1814405960102
 30
0.0
 10
-224.4065894665966
 20
-150.1804959875093
 30
0.0
 10
-222.6897294773525
 20
-146.9619710397826
 30
0.0
 10
-221.3771604381928
 20
-144.4997673826629
 30
0.0
 10
-219.989789776497
 20
-141.8997076934712
 30
0.0
 10
-218.8398792718639
 20
-139.7424048911578
 30
0.0
 10
-217.8714894258816
 20
-137.9268412803582
 30
0.0
 10
-217.2730030470337
 20
-136.8042502084201
 30
0.0
 10
-216.7384027426349
 20
-135.8019974044368
 30
0.0
 10
-216.2607225268834
 20
-134.9061747752611
 30
0.0
 10
-215.9071044435847
 20
-134.2429187275325
 30
0.0
 10
-215.7128475832829
 20
-133.8785650830413
 30
0.0
  0
SPLINE
  5
C9
330
1B
100
AcDbEntity
 67
     1
  8
0
  6
Continuous
 62
     7
370
    25
100
AcDbSpline
210
0.0
220
0.0
230
1.0
 70
     8
 71
     3
 72
    84
 73
    80
 74
     0
 42
0.000000001
 43
0.00000001
 40
0.0
 40
0.0
 40
0.0
 40
0.0
 40
0.0286283863071644
 40
0.0286283863071644
 40
0.0572567726143288
 40
0.0572567726143288
 40
0.1145135452286577
 40
0.1145135452286577
 40
0.1431419315358221
 40
0.1431419315358221
 40
0.1717703178429865
 40
0.1717703178429865
 40
0.2003987041501509
 40
0.2003987041501509
 40
0.2290270904573153
 40
0.2290270904573153
 40
0.2438642634551283
 40
0.2438642634551283
 40
0.2587014364529412
 40
0.2587014364529412
 40
0.288375782448567
 40
0.288375782448567
 40
0.3180501284441928
 40
0.3180501284441928
 40
0.3328873014420057
 40
0.3328873014420057
 40
0.3477244744398186
 40
0.3477244744398186
 40
0.3773988204354444
 40
0.3773988204354444
 40
0.4070731664310702
 40
0.4070731664310702
 40
0.436747512426696
 40
0.436747512426696
 40
0.4664218584223218
 40
0.4664218584223218
 40
0.4823261411867705
 40
0.4823261411867705
 40
0.4982304239512194
 40
0.4982304239512194
 40
0.530038989480117
 40
0.530038989480117
 40
0.5618475550090146
 40
0.5618475550090146
 40
0.5777518377734634
 40
0.5777518377734634
 40
0.5936561205379123
 40
0.5936561205379123
 40
0.6254646860668098
 40
0.6254646860668098
 40
0.6572732515957075
 40
0.6572732515957075
 40
0.6890818171246051
 40
0.6890818171246051
 40
0.7049860998890539
 40
0.7049860998890539
 40
0.7208903826535027
 40
0.7208903826535027
 40
0.7296125581955808
 40
0.7296125581955808
 40
0.7383347337376588
 40
0.7383347337376588
 40
0.7557790848218149
 40
0.7557790848218149
 40
0.7906677869901271
 40
0.7906677869901271
 40
0.8255564891584393
 40
0.8255564891584393
 40
0.8604451913267513
 40
0.8604451913267513
 40
0.8953338934950634
 40
0.8953338934950634
 40
0.9127782445792195
 40
0.9127782445792195
 40
0.9302225956633756
 40
0.9302225956633756
 40
0.9651112978316878
 40
0.9651112978316878
 40
1.0
 40
1.0
 40
1.0
 40
1.0
 10
215.7128475958001
 20
-133.8785650830414
 30
0.0
 10
215.931973362096
 20
-134.2894918876062
 30
0.0
 10
216.1510826194983
 20
-134.7003923861668
 30
0.0
 10
216.5888830342621
 20
-135.5214104623706
 30
0.0
 10
216.8075741916236
 20
-135.9315280400136
 30
0.0
 10
217.4624428902659
 20
-137.1596109282017
 30
0.0
 10
217.897415658105
 20
-137.9753063940062
 30
0.0
 10
218.5451547694574
 20
-139.189928049774
 30
0.0
 10
218.7602926378643
 20
-139.5933400654026
 30
0.0
 10
219.1886629717996
 20
-140.3965805107982
 30
0.0
 10
219.401895437328
 20
-140.7964089405651
 30
0.0
 10
219.826099900049
 20
-141.5918223676298
 30
0.0
 10
220.0370718972416
 20
-141.9874073649276
 30
0.0
 10
220.4564003578337
 20
-142.7736740804467
 30
0.0
 10
220.6647568212332
 20
-143.1643557986681
 30
0.0
 10
220.9788426639017
 20
-143.7532921441246
 30
0.0
 10
221.0858966963256
 20
-143.9540275553708
 30
0.0
 10
221.2996400093592
 20
-144.354815478773
 30
0.0
 10
221.4063292899689
 20
-144.5548679909288
 30
0.0
 10
221.7257848157658
 20
-145.1538791666168
 30
0.0
 10
221.9379387449211
 20
-145.5516914693695
 30
0.0
 10
222.360266089489
 20
-146.3436083813639
 30
0.0
 10
222.5704362920608
 20
-146.7377068923101
 30
0.0
 10
222.8839529479007
 20
-147.3255993153627
 30
0.0
 10
222.9881551873429
 20
-147.5209955082514
 30
0.0
 10
223.1955331965742
 20
-147.9098646229388
 30
0.0
 10
223.2987089663634
 20
-148.1033375447375
 30
0.0
 10
223.6060668042858
 20
-148.6796903412494
 30
0.0
 10
223.8084671297198
 20
-149.0592315176074
 30
0.0
 10
224.2079582584047
 20
-149.8083635677664
 30
0.0
 10
224.4050490616555
 20
-150.1779544415673
 30
0.0
 10
224.7936214234859
 20
-150.9066236266887
 30
0.0
 10
224.9851029820655
 20
-151.2657019380091
 30
0.0
 10
225.3621571320652
 20
-151.9727837382453
 30
0.0
 10
225.5477297234854
 20
-152.3207872271612
 30
0.0
 10
225.8279937762584
 20
-152.8463698534191
 30
0.0
 10
225.9250886445076
 20
-153.0284539160113
 30
0.0
 10
226.1178366897844
 20
-153.3899200802623
 30
0.0
 10
226.2134898668121
 20
-153.569302181921
 30
0.0
 10
226.4982271380118
 20
-154.1032834518382
 30
0.0
 10
226.6850889723011
 20
-154.4537175850377
 30
0.0
 10
227.0525680915896
 20
-155.1428812584327
 30
0.0
 10
227.2332184574631
 20
-155.4816728293414
 30
0.0
 10
227.4991136286455
 20
-155.9803367623909
 30
0.0
 10
227.5868135522042
 20
-156.1448112777168
 30
0.0
 10
227.7599971555523
 20
-156.4696052167081
 30
0.0
 10
227.8454808353416
 20
-156.6299246403738
 30
0.0
 10
228.0980785439068
 20
-157.1036580234621
 30
0.0
 10
228.2617370839824
 20
-157.4105932821628
 30
0.0
 10
228.5793545493422
 20
-158.0062769028086
 30
0.0
 10
228.7333134746264
 20
-158.2950252647536
 30
0.0
 10
229.0313119602147
 20
-158.8539221885148
 30
0.0
 10
229.1753534889656
 20
-159.1240744359888
 30
0.0
 10
229.3837572082682
 20
-159.514941529367
 30
0.0
 10
229.4519486857317
 20
-159.6428370141875
 30
0.0
 10
229.5857417822577
 20
-159.893771398514
 30
0.0
 10
229.6513434013201
 20
-160.0168102980199
 30
0.0
 10
229.7508883129029
 20
-160.2035119836773
 30
0.0
 10
229.7857242809443
 20
-160.2688487731049
 30
0.0
 10
229.8545544377592
 20
-160.3979437550966
 30
0.0
 10
229.8885486265327
 20
-160.4617019476607
 30
0.0
 10
229.9892681167769
 20
-160.6506078419628
 30
0.0
 10
230.0547303421715
 20
-160.7733868603102
 30
0.0
 10
230.2460614566575
 20
-161.1322428770279
 30
0.0
 10
230.3660128625659
 20
-161.3572221833289
 30
0.0
 10
230.5903850282579
 20
-161.778053624142
 30
0.0
 10
230.6950392638566
 20
-161.974343661844
 30
0.0
 10
230.8895887150448
 20
-162.339243096956
 30
0.0
 10
230.9794839306344
 20
-162.5078524943659
 30
0.0
 10
231.1448200162899
 20
-162.8179613740108
 30
0.0
 10
231.2202015347503
 20
-162.9593495495932
 30
0.0
 10
231.322163846305
 20
-163.1505940410854
 30
0.0
 10
231.3543297286658
 20
-163.2109257118893
 30
0.0
 10
231.4147681861845
 20
-163.3242867256278
 30
0.0
 10
231.4430407613425
 20
-163.3773160685624
 30
0.0
 10
231.521643229679
 20
-163.5247465928387
 30
0.0
 10
231.5658354761443
 20
-163.6076358229606
 30
0.0
 10
231.6371852837059
 20
-163.741463256148
 30
0.0
 10
231.6643428448023
 20
-163.7924014592135
 30
0.0
 10
231.6826751196219
 20
-163.8267864212848
 30
0.0
  0
SPLINE
  5
CA
330
1B
100
AcDbEntity
 67
     1
  8
0
  6
Continuous
 62
     7
370
    25
100
AcDbSpline
210
0.0
220
0.0
230
1.0
 70
     8
 71
     3
 72
     8
 73
     4
 74
     0
 42
0.000000001
 43
0.00000001
 40
0.0
 40
0.0
 40
0.0
 40
0.0
 40
1.0
 40
1.0
 40
1.0
 40
1.0
 10
231.6826751196219
 20
-163.8267864212848
 30
0.0
 10
231.6863513075685
 20
-163.833679448458
 30
0.0
 10
231.690027495515
 20
-163.839884837205
 30
0.0
 10
231.6937036834616
 20
-163.8454021600955
 30
0.0
  0
SPLINE
  5
CB
330
1B
100
AcDbEntity
 67
     1
  8
0
  6
Continuous
 62
     7
370
    25
100
AcDbSpline
210
0.0
220
0.0
230
1.0
 70
     8
 71
     3
 72
    22
 73
    18
 74
     0
 42
0.000000001
 43
0.00000001
 40
0.0
 40
0.0
 40
0.0
 40
0.0
 40
0.03125
 40
0.03125
 40
0.0625
 40
0.125
 40
0.125
 40
0.25
 40
0.25
 40
0.5
 40
0.5
 40
0.75
 40
0.75
 40
0.875
 40
0.9375
 40
0.9375
 40
1.0
 40
1.0
 40
1.0
 40
1.0
 10
231.6826757187908
 20
163.8267864212041
 30
0.0
 10
231.9109192089331
 20
163.8259993000844
 30
0.0
 10
232.1391529934408
 20
163.8195513983545
 30
0.0
 10
232.5950642552058
 20
163.7954416027644
 30
0.0
 10
233.2780966869777
 20
163.7424559211839
 30
0.0
 10
233.9562097042063
 20
163.6394913359243
 30
0.0
 10
235.2994337674967
 20
163.3682144562513
 30
0.0
 10
236.1775805148011
 20
163.1002329242641
 30
0.0
 10
238.7084708578387
 20
162.0452241243642
 30
0.0
 10
240.2568671255958
 20
161.0079760707214
 30
0.0
 10
242.8430181091633
 20
158.4214009479217
 30
0.0
 10
243.8800588304682
 20
156.8727818932951
 30
0.0
 10
244.9347665673154
 20
154.3417674011738
 30
0.0
 10
245.3366107086202
 20
153.0245471888069
 30
0.0
 10
245.5424682065333
 20
151.6683346030372
 30
0.0
 10
245.6352959451978
 20
150.7598142491077
 30
0.0
 10
245.6595045178912
 20
150.3033647571014
 30
0.0
 10
245.6610787910174
 20
149.8468691209456
 30
0.0
  0
SPLINE
  5
CC
330
1B
100
AcDbEntity
 67
     1
  8
0
  6
Continuous
 62
     7
370
    25
100
AcDbSpline
210
0.0
220
0.0
230
1.0
 70
     8
 71
     3
 72
    22
 73
    18
 74
     0
 42
0.000000001
 43
0.00000001
 40
0.0
 40
0.0
 40
0.0
 40
0.0
 40
0.0625
 40
0.0625
 40
0.125
 40
0.25
 40
0.25
 40
0.5
 40
0.5
 40
0.75
 40
0.75
 40
0.875
 40
0.875
 40
0.9375
 40
0.96875
 40
0.96875
 40
1.0
 40
1.0
 40
1.0
 40
1.0
 10
245.6610787910173
 20
-149.8468685375804
 30
0.0
 10
245.6595045483774
 20
-150.3033553339849
 30
0.0
 10
245.6352946039439
 20
-150.7598036002373
 30
0.0
 10
245.5424624780563
 20
-151.6683301266318
 30
0.0
 10
245.3365959336941
 20
-153.0245649070576
 30
0.0
 10
244.934740572289
 20
-154.3418164038562
 30
0.0
 10
243.8800214255563
 20
-156.8728263362708
 30
0.0
 10
242.8430273458739
 20
-158.4213813895576
 30
0.0
 10
240.2568866113346
 20
-161.0079670444867
 30
0.0
 10
238.7084259759406
 20
-162.045261881671
 30
0.0
 10
236.1775307221833
 20
-163.100259217037
 30
0.0
 10
235.2994050781411
 20
-163.3682331886991
 30
0.0
 10
233.956206372989
 20
-163.6395001847818
 30
0.0
 10
233.2781044606408
 20
-163.7424601924703
 30
0.0
 10
232.5950731961522
 20
-163.7954431675264
 30
0.0
 10
232.1391596624084
 20
-163.8195517217448
 30
0.0
 10
231.9109232168275
 20
-163.8259992842779
 30
0.0
 10
231.6826751196219
 20
-163.8267864212848
 30
0.0
  0
SPLINE
  5
CD
330
1B
100
AcDbEntity
 67
     1
  8
0
  6
Continuous
 62
     7
370
    25
100
AcDbSpline
210
0.0
220
0.0
230
1.0
 70
     8
 71
     3
 72
    16
 73
    12
 74
     0
 42
0.000000001
 43
0.00000001
 40
0.0
 40
0.0
 40
0.0
 40
0.0
 40
0.25
 40
0.25
 40
0.5
 40
0.5
 40
0.75
 40
0.75
 40
0.875
 40
0.875
 40
1.0
 40
1.0
 40
1.0
 40
1.0
 10
-245.6610787784672
 20
149.8468685637929
 30
0.0
 10
-245.654781807919
 20
151.6728157459903
 30
0.0
 10
-245.2863136093549
 20
153.4981464457576
 30
0.0
 10
-243.8800214163564
 20
156.8728263493217
 30
0.0
 10
-242.8430273386245
 20
158.4213813997074
 30
0.0
 10
-240.2568866089465
 20
161.0079670497903
 30
0.0
 10
-238.7084259764622
 20
162.0452618850308
 30
0.0
 10
-236.1775307274588
 20
163.1002592184196
 30
0.0
 10
-235.2994050850658
 20
163.3682331895796
 30
0.0
 10
-233.508473481559
 20
163.729922517012
 30
0.0
 10
-232.5956675204452
 20
163.8236378732844
 30
0.0
 10
-231.6826751333359
 20
163.826786421306
 30
0.0
  0
SPLINE
  5
CE
330
1B
100
AcDbEntity
 67
     1
  8
0
  6
Continuous
 62
     7
370
    25
100
AcDbSpline
210
0.0
220
0.0
230
1.0
 70
     8
 71
     3
 72
    22
 73
    18
 74
     0
 42
0.000000001
 43
0.00000001
 40
0.0
 40
0.0
 40
0.0
 40
0.0
 40
0.03125
 40
0.03125
 40
0.0625
 40
0.125
 40
0.125
 40
0.25
 40
0.25
 40
0.5
 40
0.5
 40
0.75
 40
0.75
 40
0.875
 40
0.9375
 40
0.9375
 40
1.0
 40
1.0
 40
1.0
 40
1.0
 10
-231.6826757324521
 20
-163.8267864211831
 30
0.0
 10
-231.9109192221669
 20
-163.8259993000649
 30
0.0
 10
-232.1391530062472
 20
-163.819551398347
 30
0.0
 10
-232.5950642671583
 20
-163.7954416028021
 30
0.0
 10
-233.2780966976509
 20
-163.7424559213209
 30
0.0
 10
-233.9562097136097
 20
-163.6394913362545
 30
0.0
 10
-235.2994337743846
 20
-163.3682144570904
 30
0.0
 10
-236.1775805200445
 20
-163.1002329256058
 30
0.0
 10
-238.7084708583422
 20
-162.0452241276846
 30
0.0
 10
-240.2568671231993
 20
-161.007976075987
 30
0.0
 10
-242.8430181019235
 20
-158.421400958038
 30
0.0
 10
-243.8800588212867
 20
-156.8727819063153
 30
0.0
 10
-244.9347665561587
 20
-154.34176741894
 30
0.0
 10
-245.3366106967107
 20
-153.0245472090427
 30
0.0
 10
-245.5424681942377
 20
-151.6683346258157
 30
0.0
 10
-245.6352959327283
 20
-150.7598142735895
 30
0.0
 10
-245.6595045053766
 20
-150.303364782439
 30
0.0
 10
-245.6610787785
 20
-149.8468691471391
 30
0.0
  0
SPLINE
  5
CF
330
1B
100
AcDbEntity
 67
     1
  8
0
  6
Continuous
 62
     7
370
    25
100
AcDbSpline
210
0.0
220
0.0
230
1.0
 70
     8
 71
     3
 72
    84
 73
    80
 74
     0
 42
0.000000001
 43
0.00000001
 40
0.0
 40
0.0
 40
0.0
 40
0.0
 40
0.0348887032716803
 40
0.0348887032716803
 40
0.0697774065433606
 40
0.0697774065433606
 40
0.0872217581792007
 40
0.0872217581792007
 40
0.104666109815041
 40
0.104666109815041
 40
0.1395548130867212
 40
0.1395548130867212
 40
0.1744435163584016
 40
0.1744435163584016
 40
0.209332219630082
 40
0.209332219630082
 40
0.2442209229017622
 40
0.2442209229017622
 40
0.2616652745376025
 40
0.2616652745376025
 40
0.2703874503555226
 40
0.2703874503555226
 40
0.2791096261734426
 40
0.2791096261734426
 40
0.2950139092180573
 40
0.2950139092180573
 40
0.310918192262672
 40
0.310918192262672
 40
0.3427267583519016
 40
0.3427267583519016
 40
0.3745353244411311
 40
0.3745353244411311
 40
0.4063438905303607
 40
0.4063438905303607
 40
0.4222481735749755
 40
0.4222481735749755
 40
0.4381524566195902
 40
0.4381524566195902
 40
0.4699610227088198
 40
0.4699610227088198
 40
0.5017695887980493
 40
0.5017695887980493
 40
0.5176738718426641
 40
0.5176738718426641
 40
0.5335781548872789
 40
0.5335781548872789
 40
0.5632525002866429
 40
0.5632525002866429
 40
0.5929268456860068
 40
0.5929268456860068
 40
0.6226011910853708
 40
0.6226011910853708
 40
0.6522755364847348
 40
0.6522755364847348
 40
0.6671127091844168
 40
0.6671127091844168
 40
0.6819498818840988
 40
0.6819498818840988
 40
0.7116242272834628
 40
0.7116242272834628
 40
0.7412985726828267
 40
0.7412985726828267
 40
0.7561357453825087
 40
0.7561357453825087
 40
0.7709729180821907
 40
0.7709729180821907
 40
0.7996013033219168
 40
0.7996013033219168
 40
0.8282296885616429
 40
0.8282296885616429
 40
0.8568580738013691
 40
0.8568580738013691
 40
0.8854864590410954
 40
0.8854864590410954
 40
0.9427432295205477
 40
0.9427432295205477
 40
0.9713716147602738
 40
0.9713716147602738
 40
1.0
 40
1.0
 40
1.0
 40
1.0
 10
-245.6610787785
 20
149.8468685637924
 30
0.0
 10
-245.6267003637972
 20
149.82853533664
 30
0.0
 10
-245.5757718770929
 20
149.801377713596
 30
0.0
 10
-245.4419697340688
 20
149.7300294062235
 30
0.0
 10
-245.3590960777489
 20
149.6858387218951
 30
0.0
 10
-245.2116929468471
 20
149.6072396973127
 30
0.0
 10
-245.1586734098126
 20
149.5789684510458
 30
0.0
 10
-245.0453332107699
 20
149.5185330206262
 30
0.0
 10
-244.9850125487618
 20
149.4863688364733
 30
0.0
 10
-244.7938026680193
 20
149.3844121845737
 30
0.0
 10
-244.6524397238958
 20
149.3090351815156
 30
0.0
 10
-244.3423849722755
 20
149.1437095736522
 30
0.0
 10
-244.17380446792
 20
149.0538203191831
 30
0.0
 10
-243.8089658451765
 20
148.859284233374
 30
0.0
 10
-243.6127077267886
 20
148.754637402034
 30
0.0
 10
-243.1919425190391
 20
148.5302814866868
 30
0.0
 10
-242.9669975928727
 20
148.4103389113163
 30
0.0
 10
-242.6081942524786
 20
148.2190222002146
 30
0.0
 10
-242.4854329047588
 20
148.1535649909002
 30
0.0
 10
-242.2965535858289
 20
148.0528533629813
 30
0.0
 10
-242.2328042632939
 20
148.0188618513504
 30
0.0
 10
-242.1037270281127
 20
147.9500371641852
 30
0.0
 10
-242.0383991154666
 20
147.9152039886508
 30
0.0
 10
-241.8517224808673
 20
147.8156671289928
 30
0.0
 10
-241.7286997232705
 20
147.7500708967438
 30
0.0
 10
-241.4777974425804
 20
147.6162889489168
 30
0.0
 10
-241.349917919487
 20
147.5481032333388
 30
0.0
 10
-240.9590982823065
 20
147.3397173657313
 30
0.0
 10
-240.6889771003192
 20
147.1956884928283
 30
0.0
 10
-240.1301403171148
 20
146.897716846666
 30
0.0
 10
-239.8414210251812
 20
146.7437721046912
 30
0.0
 10
-239.2457927379766
 20
146.4261845287021
 30
0.0
 10
-238.9388837427055
 20
146.2625416946878
 30
0.0
 10
-238.4651870452897
 20
146.0099686839478
 30
0.0
 10
-238.3048794270318
 20
145.9244934157537
 30
0.0
 10
-237.9801080646985
 20
145.7513270251323
 30
0.0
 10
-237.8156443206231
 20
145.6636359027051
 30
0.0
 10
-237.317010868302
 20
145.3977677665669
 30
0.0
 10
-236.9782370725398
 20
145.2171363008468
 30
0.0
 10
-236.2891031378554
 20
144.8496967489744
 30
0.0
 10
-235.9386809626567
 20
144.6628555794018
 30
0.0
 10
-235.4047128826942
 20
144.3781506044345
 30
0.0
 10
-235.2253343865124
 20
144.282508409344
 30
0.0
 10
-234.863873787531
 20
144.0897827572679
 30
0.0
 10
-234.6817916847313
 20
143.9926993002824
 30
0.0
 10
-234.156212238904
 20
143.7124685667307
 30
0.0
 10
-233.808207782693
 20
143.5269185026434
 30
0.0
 10
-233.1011177734144
 20
143.1499109944986
 30
0.0
 10
-232.7420322203468
 20
142.9584535504411
 30
0.0
 10
-232.0133420877135
 20
142.5699309276825
 30
0.0
 10
-231.6437375081479
 20
142.3728657489815
 30
0.0
 10
-230.8945713928771
 20
141.9734273022621
 30
0.0
 10
-230.5150098571721
 20
141.7710540342437
 30
0.0
 10
-229.9386213892788
 20
141.4637377992232
 30
0.0
 10
-229.7451357622358
 20
141.3605760536126
 30
0.0
 10
-229.3562395677477
 20
141.1532264163981
 30
0.0
 10
-229.1608290003025
 20
141.0490385247942
 30
0.0
 10
-228.5728908899944
 20
140.7355654138136
 30
0.0
 10
-228.1787584897763
 20
140.5254249158665
 30
0.0
 10
-227.3867675774138
 20
140.1031580374947
 30
0.0
 10
-226.9889150904686
 20
139.8910349003853
 30
0.0
 10
-226.3898398052
 20
139.5716260014592
 30
0.0
 10
-226.189765284302
 20
139.4649523362735
 30
0.0
 10
-225.7889322227716
 20
139.2512403337516
 30
0.0
 10
-225.5881736821392
 20
139.1442019964155
 30
0.0
 10
-224.9991681743974
 20
138.830162155258
 30
0.0
 10
-224.6084370823733
 20
138.6218370901967
 30
0.0
 10
-223.8220699828543
 20
138.2025706710791
 30
0.0
 10
-223.4264339753594
 20
137.9916293170229
 30
0.0
 10
-222.6309229004424
 20
137.5674824332806
 30
0.0
 10
-222.2310478330204
 20
137.3542769035946
 30
0.0
 10
-221.4277244937928
 20
136.9259537819573
 30
0.0
 10
-221.0242762219872
 20
136.7108361900061
 30
0.0
 10
-219.8095703833106
 20
136.0631434908025
 30
0.0
 10
-218.9938714621634
 20
135.6281790699001
 30
0.0
 10
-217.7657999761321
 20
134.9733088901726
 30
0.0
 10
-217.3556889634034
 20
134.7546149055344
 30
0.0
 10
-216.534679142965
 20
134.3168074840961
 30
0.0
 10
-216.1237803352552
 20
134.0976940472959
 30
0.0
 10
-215.7128475832829
 20
133.8785650830628
 30
0.0
  0
SPLINE
  5
D1
330
1B
100
AcDbEntity
 67
     1
  8
0
  6
Continuous
 62
     7
370
    25
100
AcDbSpline
210
0.0
220
0.0
230
1.0
 70
     8
 71
     3
 72
    32
 73
    28
 74
     0
 42
0.000000001
 43
0.00000001
 40
0.0
 40
0.0
 40
0.0
 40
0.0
 40
0.0134088069800048
 40
0.0256418606742603
 40
0.0366991547933687
 40
0.0465806838342805
 40
0.0552864431581232
 40
0.0628164291286819
 40
0.0959075740817068
 40
0.1254738956560024
 40
0.1912020393934708
 40
0.2499179279613975
 40
0.314921491675752
 40
0.3754406101474957
 40
0.4997022018938744
 40
0.5636749888024957
 40
0.6250464272735196
 40
0.6884970251171075
 40
0.7499684006105808
 40
0.812375872146216
 40
0.8734716179070993
 40
0.894745870316699
 40
0.915936889432882
 40
0.9370511917337228
 40
0.958095364965286
 40
0.9790760629335311
 40
1.0
 40
1.0
 40
1.0
 40
1.0
 10
-215.7128475832829
 20
-133.8785650830405
 30
0.0
 10
-215.9042526747628
 20
-133.98062220299
 30
0.0
 10
-216.2702794730745
 20
-134.1757875487559
 30
0.0
 10
-216.7940149449795
 20
-134.4550076189866
 30
0.0
 10
-217.2671708862575
 20
-134.7073019428286
 30
0.0
 10
-217.6897375770392
 20
-134.9326631993144
 30
0.0
 10
-218.0617554011989
 20
-135.1310994138238
 30
0.0
 10
-218.7638805213009
 20
-135.5055677352671
 30
0.0
 10
-219.7611391174645
 20
-136.0372331713857
 30
0.0
 10
-221.5760980064865
 20
-137.0051777828471
 30
0.0
 10
-223.7336464397902
 20
-138.1549390931011
 30
0.0
 10
-226.3340697196739
 20
-139.5420923441513
 30
0.0
 10
-228.797185408683
 20
-140.854842827951
 30
0.0
 10
-232.0158870865916
 20
-142.5714501290333
 30
0.0
 10
-235.0168697917587
 20
-144.1714312146242
 30
0.0
 10
-237.7173180086399
 20
-145.6110425559043
 30
0.0
 10
-239.5831477349088
 20
-146.606150021583
 30
0.0
 10
-241.2263231854629
 20
-147.4820401378455
 30
0.0
 10
-242.6548370336266
 20
-148.2439722239646
 30
0.0
 10
-243.8239705599296
 20
-148.8671310196634
 30
0.0
 10
-244.5344603032153
 20
-149.2461590674275
 30
0.0
 10
-244.9384506630205
 20
-149.461529559477
 30
0.0
 10
-245.1530298722637
 20
-149.5759052010191
 30
0.0
 10
-245.3333028221536
 20
-149.6720121448049
 30
0.0
 10
-245.4784163215109
 20
-149.7494047423076
 30
0.0
 10
-245.5915217762007
 20
-149.8097590843158
 30
0.0
 10
-245.6379140576
 20
-149.8345103015835
 30
0.0
 10
-245.6610787785327
 20
-149.8468691471384
 30
0.0
  0
SPLINE
  5
D3
330
1B
100
AcDbEntity
 67
     1
  8
0
  6
Continuous
 62
     7
370
    25
100
AcDbSpline
210
0.0
220
0.0
230
1.0
 70
     8
 71
     3
 72
    84
 73
    80
 74
     0
 42
0.000000001
 43
0.00000001
 40
0.0
 40
0.0
 40
0.0
 40
0.0
 40
0.0286283861976899
 40
0.0286283861976899
 40
0.0572567723953799
 40
0.0572567723953799
 40
0.1145135447907598
 40
0.1145135447907598
 40
0.1431419309884497
 40
0.1431419309884497
 40
0.1717703171861397
 40
0.1717703171861397
 40
0.2003987033838296
 40
0.2003987033838296
 40
0.2290270895815196
 40
0.2290270895815196
 40
0.2438642625523452
 40
0.2438642625523452
 40
0.2587014355231708
 40
0.2587014355231708
 40
0.2883757814648221
 40
0.2883757814648221
 40
0.3180501274064734
 40
0.3180501274064734
 40
0.3328873003772991
 40
0.3328873003772991
 40
0.3477244733481247
 40
0.3477244733481247
 40
0.3773988192897759
 40
0.3773988192897759
 40
0.4070731652314272
 40
0.4070731652314272
 40
0.4367475111730785
 40
0.4367475111730785
 40
0.4664218571147298
 40
0.4664218571147298
 40
0.4823261399232924
 40
0.4823261399232924
 40
0.498230422731855
 40
0.498230422731855
 40
0.5300389883489803
 40
0.5300389883489803
 40
0.5618475539661056
 40
0.5618475539661056
 40
0.5777518367746683
 40
0.5777518367746683
 40
0.593656119583231
 40
0.593656119583231
 40
0.6254646852003563
 40
0.6254646852003563
 40
0.6572732508174814
 40
0.6572732508174814
 40
0.6890818164346068
 40
0.6890818164346068
 40
0.7049860992431694
 40
0.7049860992431694
 40
0.7208903820517321
 40
0.7208903820517321
 40
0.7296125576126155
 40
0.7296125576126155
 40
0.7383347331734988
 40
0.7383347331734988
 40
0.7557790842952655
 40
0.7557790842952655
 40
0.790667786538799
 40
0.790667786538799
 40
0.8255564887823326
 40
0.8255564887823326
 40
0.860445191025866
 40
0.860445191025866
 40
0.8953338932693995
 40
0.8953338932693995
 40
0.9127782443911663
 40
0.9127782443911663
 40
0.9302225955129331
 40
0.9302225955129331
 40
0.9651112977564665
 40
0.9651112977564665
 40
1.0
 40
1.0
 40
1.0
 40
1.0
 10
215.7128475958004
 20
133.8785650830628
 30
0.0
 10
216.1237803677222
 20
134.0976940444073
 30
0.0
 10
216.5346791948656
 20
134.3168074784243
 30
0.0
 10
217.3556890534087
 20
134.7546148943344
 30
0.0
 10
217.7658000848085
 20
134.9733088762277
 30
0.0
 10
218.9938716261109
 20
135.6281790475199
 30
0.0
 10
219.8095705831172
 20
136.0631434625311
 30
0.0
 10
221.0242764757107
 20
136.7108361514631
 30
0.0
 10
221.4277247652234
 20
136.9259537401703
 30
0.0
 10
222.2310481394262
 20
137.3542768557837
 30
0.0
 10
222.6309232241162
 20
137.56748238269
 30
0.0
 10
223.4264343332214
 20
137.9916292614419
 30
0.0
 10
223.8220703576366
 20
138.2025706132873
 30
0.0
 10
224.6084374907398
 20
138.6218370286572
 30
0.0
 10
224.9991685994278
 20
138.8301620921816
 30
0.0
 10
225.5881741292911
 20
139.1442019299685
 30
0.0
 10
225.7889326752316
 20
139.2512402650605
 30
0.0
 10
226.1897657469362
 20
139.4649522631015
 30
0.0
 10
226.3898402727002
 20
139.5716259260505
 30
0.0
 10
226.9889155719365
 20
139.8910348183507
 30
0.0
 10
227.386768067353
 20
140.1031579511555
 30
0.0
 10
228.1787589951506
 20
140.5254248215394
 30
0.0
 10
228.5728914023436
 20
140.7355653156358
 30
0.0
 10
229.1608295219095
 20
141.0490384212882
 30
0.0
 10
229.3562400922941
 20
141.1532263112191
 30
0.0
 10
229.74513629235
 20
141.3605759453253
 30
0.0
 10
229.9386219220214
 20
141.4637376895005
 30
0.0
 10
230.5150103973076
 20
141.7710539206196
 30
0.0
 10
230.8945719371748
 20
141.9734271864325
 30
0.0
 10
231.6437380595267
 20
142.37286562978
 30
0.0
 10
232.0133426420115
 20
142.5699308073145
 30
0.0
 10
232.7420327795308
 20
142.9584534290271
 30
0.0
 10
233.1011183345653
 20
143.149910873205
 30
0.0
 10
233.8082083471156
 20
143.5269183831259
 30
0.0
 10
234.1562128046315
 20
143.7124684488688
 30
0.0
 10
234.6817922461042
 20
143.9926991830943
 30
0.0
 10
234.8638743433774
 20
144.0897826384357
 30
0.0
 10
235.2253349311939
 20
144.2825082876974
 30
0.0
 10
235.4047134217371
 20
144.3781504816178
 30
0.0
 10
235.9386814846073
 20
144.66285545381
 30
0.0
 10
236.2891036481747
 20
144.8496966225129
 30
0.0
 10
236.9782375590746
 20
145.217136174735
 30
0.0
 10
237.3170113425325
 20
145.3977676415338
 30
0.0
 10
237.8156447758134
 20
145.6636357806694
 30
0.0
 10
237.9801085134714
 20
145.7513269043565
 30
0.0
 10
238.304879862827
 20
145.9244932980208
 30
0.0
 10
238.4651874745248
 20
146.0099685679978
 30
0.0
 10
238.9388841520452
 20
146.2625415848725
 30
0.0
 10
239.2457931335984
 20
146.4261844239627
 30
0.0
 10
239.8414213925854
 20
146.7437720118558
 30
0.0
 10
240.1301406700194
 20
146.8977167606589
 30
0.0
 10
240.6889774235699
 20
147.1956884220098
 30
0.0
 10
240.9590985905188
 20
147.3397173022658
 30
0.0
 10
241.3499182050839
 20
147.548103183554
 30
0.0
 10
241.4777977206293
 20
147.6162889041342
 30
0.0
 10
241.7286999862472
 20
147.7500708633517
 30
0.0
 10
241.8517227363197
 20
147.8156671019889
 30
0.0
 10
242.0383993583534
 20
147.9152039724848
 30
0.0
 10
242.1037272659693
 20
147.9500371512314
 30
0.0
 10
242.2328044912003
 20
148.0188618445309
 30
0.0
 10
242.2965538088152
 20
148.0528533590837
 30
0.0
 10
242.4854331131822
 20
148.1535649957777
 30
0.0
 10
242.6081944514561
 20
148.2190222109544
 30
0.0
 10
242.9669977645509
 20
148.4103389432361
 30
0.0
 10
243.191942673827
 20
148.5302815345578
 30
0.0
 10
243.6127078506879
 20
148.754637485232
 30
0.0
 10
243.808965955041
 20
148.859284335924
 30
0.0
 10
244.1738045526467
 20
149.053820463842
 30
0.0
 10
244.3423850458992
 20
149.1437097410681
 30
0.0
 10
244.6524397783574
 20
149.3090353978788
 30
0.0
 10
244.7938027143755
 20
149.3844124269774
 30
0.0
 10
244.9850125850834
 20
149.4863691203996
 30
0.0
 10
245.0453332441097
 20
149.5185333187643
 30
0.0
 10
245.1586734378702
 20
149.5789687783844
 30
0.0
 10
245.2116929726045
 20
149.6072400396398
 30
0.0
 10
245.3590960975595
 20
149.6858391104062
 30
0.0
 10
245.4419697512125
 20
149.7300298295331
 30
0.0
 10
245.5757718907378
 20
149.801378206167
 30
0.0
 10
245.6267003766098
 20
149.8285358636741
 30
0.0
 10
245.6610787910174
 20
149.8468691209456
 30
0.0
  0
SPLINE
  5
D4
330
1B
100
AcDbEntity
 67
     1
  8
0
  6
Continuous
 62
     7
370
    25
100
AcDbSpline
210
0.0
220
0.0
230
1.0
 70
     8
 71
     3
 72
    35
 73
    31
 74
     0
 42
0.000000001
 43
0.00000001
 40
0.0
 40
0.0
 40
0.0
 40
0.0
 40
0.0104558751072219
 40
0.0209250707090077
 40
0.0314084313163765
 40
0.0419067980219511
 40
0.0524210083170785
 40
0.0629518959131172
 40
0.0735002905670684
 40
0.0840670179116754
 40
0.0946528992901791
 40
0.1052587515958083
 40
0.1158853871161656
 40
0.1265336133825808
 40
0.1876300772909162
 40
0.2500363021178956
 40
0.311508401892997
 40
0.3749577410160195
 40
0.4363298988005012
 40
0.5003014317152754
 40
0.624562493220379
 40
0.6850823004989016
 40
0.7500846394262483
 40
0.8088012268790076
 40
0.8745281407591016
 40
0.9040952861149665
 40
0.9371853397445233
 40
0.9534213516508403
 40
0.9743596310398847
 40
1.0
 40
1.0
 40
1.0
 40
1.0
 10
245.6610787910502
 20
-149.8468685375805
 30
0.0
 10
245.6503281076764
 20
-149.8411340058146
 30
0.0
 10
245.628813044857
 20
-149.8296576366485
 30
0.0
 10
245.5856769210033
 20
-149.8066383193848
 30
0.0
 10
245.5345539442145
 20
-149.779359288582
 30
0.0
 10
245.4746548917334
 20
-149.7474029313165
 30
0.0
 10
245.4061832316352
 20
-149.7108813841002
 30
0.0
 10
245.3290791100738
 20
-149.6697645437326
 30
0.0
 10
245.243356601171
 20
-149.6240604934406
 30
0.0
 10
245.149013280058
 20
-149.5737671026739
 30
0.0
 10
245.046054080082
 20
-149.518884828466
 30
0.0
 10
244.9344865852239
 20
-149.4594140174441
 30
0.0
 10
244.8143160182478
 20
-149.3953528587609
 30
0.0
 10
244.4823452319536
 20
-149.2183530991499
 30
0.0
 10
243.8239501050791
 20
-148.8671199095444
 30
0.0
 10
242.6548274006859
 20
-148.2439653940334
 30
0.0
 10
241.2263140418179
 20
-147.4820336923699
 30
0.0
 10
239.5831298429633
 20
-146.6061389314062
 30
0.0
 10
237.7173079680099
 20
-145.6110354540713
 30
0.0
 10
235.0168583250691
 20
-144.1714236238317
 30
0.0
 10
232.0158760146719
 20
-142.5714428802843
 30
0.0
 10
228.7971731809436
 20
-140.8548349936331
 30
0.0
 10
226.3340444326863
 20
-139.5420781163212
 30
0.0
 10
223.7336329980387
 20
-138.1549303525785
 30
0.0
 10
221.5760729316838
 20
-137.0051660992257
 30
0.0
 10
219.7611233745968
 20
-136.0372207750549
 30
0.0
 10
218.6401746584003
 20
-135.4396287112651
 30
0.0
 10
217.6396095107804
 20
-134.9059119255243
 30
0.0
 10
216.7438008734625
 20
-134.4282246154783
 30
0.0
 10
216.0788733796558
 20
-134.0737141412704
 30
0.0
 10
215.7128475958003
 20
-133.8785650830415
 30
0.0
  0
CIRCLE
  5
D5
330
1B
100
AcDbEntity
 67
     1
  8
0
  6
Continuous
 62
     7
370
    25
100
AcDbCircle
 10
0.0000000063
 20
0.0
 30
0.0
 40
34.48912367379658
  0
CIRCLE
  5
D6
330
1B
100
AcDbEntity
 67
     1
  8
0
  6
Continuous
 62
     7
370
    25
100
AcDbCircle
 10
0.0000000063
 20
0.0
 30
0.0
 40
30.66228935014566
  0
CIRCLE
  5
D7
330
1B
100
AcDbEntity
 67
     1
  8
0
  6
Continuous
 62
     7
370
    25
100
AcDbCircle
 10
0.0000000063
 20
0.0
 30
0.0
 40
23.73463313526982
  0
CIRCLE
  5
D8
330
1B
100
AcDbEntity
 67
     1
  8
0
  6
Continuous
 62
     7
370
    25
100
AcDbCircle
 10
0.0000000063
 20
0.0
 30
0.0
 40
22.5
  0
SPLINE
  5
D9
330
1B
100
AcDbEntity
 67
     1
  8
0
  6
Continuous
 62
     8
370
    25
100
AcDbSpline
210
0.0
220
0.0
230
1.0
 70
    24
 71
     3
 72
    19
 73
    15
 74
     0
 42
0.000000001
 43
0.00000001
 40
0.0
 40
0.0
 40
0.0
 40
0.0
 40
0.0950819160895041
 40
0.2151460537434708
 40
0.2853134044038027
 40
0.3613593549478092
 40
0.4418997734655994
 40
0.5248911336573817
 40
0.6078824938491706
 40
0.6884229123669536
 40
0.7644688629109591
 40
0.8346362135712885
 40
0.9547003512252561
 40
1.0
 40
1.0
 40
1.0
 40
1.0
 10
-234.8725690501462
 20
-166.3647963751054
 30
0.0
 10
-234.8725690501462
 20
-166.4018456448658
 30
0.0
 10
-234.8725690501462
 20
-166.4856786649693
 30
0.0
 10
-234.8725690501461
 20
-166.9285415800402
 30
0.0
 10
-234.8725690501464
 20
-167.4967018666279
 30
0.0
 10
-234.8725690501461
 20
-168.0764659640791
 30
0.0
 10
-234.8725690501462
 20
-168.7606819242587
 30
0.0
 10
-234.8725690501462
 20
-169.5020277166336
 30
0.0
 10
-234.8725690501463
 20
-170.2358933489423
 30
0.0
 10
-234.872569050146
 20
-170.8982791682689
 30
0.0
 10
-234.8725690501464
 20
-171.4472186705196
 30
0.0
 10
-234.872569050146
 20
-171.9621349727549
 30
0.0
 10
-234.8725690501461
 20
-172.2981568871471
 30
0.0
 10
-234.8725690501461
 20
-172.3319982825564
 30
0.0
 10
-234.8725690501461
 20
-172.3412687725421
 30
0.0
  0
SPLINE
  5
DA
330
1B
100
AcDbEntity
 67
     1
  8
0
  6
Continuous
 62
     8
370
    25
100
AcDbSpline
210
0.0
220
0.0
230
1.0
 70
    24
 71
     3
 72
    19
 73
    15
 74
     0
 42
0.000000001
 43
0.00000001
 40
0.0
 40
0.0
 40
0.0
 40
0.0
 40
0.0950819160895053
 40
0.2151460537434739
 40
0.2853134044038044
 40
0.3613593549478164
 40
0.4418997734655992
 40
0.5248911336573863
 40
0.6078824938491707
 40
0.6884229123669665
 40
0.7644688629109732
 40
0.8346362135713049
 40
0.9547003512252731
 40
1.0
 40
1.0
 40
1.0
 40
1.0
 10
234.8725690626636
 20
166.3647963751267
 30
0.0
 10
234.8725690626636
 20
166.401845644887
 30
0.0
 10
234.8725690626637
 20
166.4856786649906
 30
0.0
 10
234.8725690626637
 20
166.9285415800615
 30
0.0
 10
234.8725690626636
 20
167.4967018666492
 30
0.0
 10
234.8725690626637
 20
168.0764659641004
 30
0.0
 10
234.8725690626636
 20
168.76068192428
 30
0.0
 10
234.8725690626637
 20
169.5020277166549
 30
0.0
 10
234.8725690626635
 20
170.2358933489636
 30
0.0
 10
234.8725690626638
 20
170.8982791682903
 30
0.0
 10
234.8725690626635
 20
171.4472186705409
 30
0.0
 10
234.8725690626637
 20
171.9621349727764
 30
0.0
 10
234.8725690626637
 20
172.2981568871686
 30
0.0
 10
234.8725690626637
 20
172.3319982825778
 30
0.0
 10
234.8725690626636
 20
172.3412687725634
 30
0.0
  0
SPLINE
  5
DB
330
1B
100
AcDbEntity
 67
     1
  8
0
  6
Continuous
 62
     8
370
    25
100
AcDbSpline
210
0.0
220
0.0
230
1.0
 70
    24
 71
     3
 72
    19
 73
    15
 74
     0
 42
0.000000001
 43
0.00000001
 40
0.0
 40
0.0
 40
0.0
 40
0.0
 40
0.0950819089198667
 40
0.2151460375447362
 40
0.2853133829394991
 40
0.3613593277840073
 40
0.4418997402712617
 40
0.5248910942522765
 40
0.607882448233288
 40
0.6884228607205491
 40
0.7644688055650528
 40
0.8346361509598224
 40
0.9547002795846871
 40
1.0
 40
1.0
 40
1.0
 40
1.0
 10
234.8725690626307
 20
-166.3647963734635
 30
0.0
 10
234.8725690626307
 20
-166.401845642855
 30
0.0
 10
234.8725690626308
 20
-166.4856786621337
 30
0.0
 10
234.8725690626309
 20
-166.9285415764722
 30
0.0
 10
234.8725690626307
 20
-167.4967018627767
 30
0.0
 10
234.8725690626308
 20
-168.0764659603102
 30
0.0
 10
234.8725690626307
 20
-168.7606819208569
 30
0.0
 10
234.8725690626307
 20
-169.5020277139075
 30
0.0
 10
234.8725690626306
 20
-170.2358933467589
 30
0.0
 10
234.8725690626308
 20
-170.8982791674734
 30
0.0
 10
234.8725690626305
 20
-171.447218667928
 30
0.0
 10
234.8725690626307
 20
-171.9621349805049
 30
0.0
 10
234.8725690626306
 20
-172.2981569543776
 30
0.0
 10
234.8725690626306
 20
-172.3319983441164
 30
0.0
 10
234.8725690626306
 20
-172.3412688436997
 30
0.0
  0
SPLINE
  5
DC
330
1B
100
AcDbEntity
 67
     1
  8
0
  6
Continuous
 62
     8
370
    25
100
AcDbSpline
210
0.0
220
0.0
230
1.0
 70
    24
 71
     3
 72
    19
 73
    15
 74
     0
 42
0.000000001
 43
0.00000001
 40
0.0
 40
0.0
 40
0.0
 40
0.0
 40
0.0950819089198684
 40
0.215146037544731
 40
0.2853133829395001
 40
0.3613593277840023
 40
0.4418997402712606
 40
0.5248910942522701
 40
0.6078824482332855
 40
0.6884228607205448
 40
0.7644688055650449
 40
0.8346361509598113
 40
0.9547002795846755
 40
1.0
 40
1.0
 40
1.0
 40
1.0
 10
-234.8725690501132
 20
166.3647963734849
 30
0.0
 10
-234.8725690501132
 20
166.4018456428765
 30
0.0
 10
-234.8725690501131
 20
166.485678662155
 30
0.0
 10
-234.8725690501131
 20
166.9285415764935
 30
0.0
 10
-234.8725690501132
 20
167.4967018627981
 30
0.0
 10
-234.8725690501133
 20
168.0764659603316
 30
0.0
 10
-234.8725690501133
 20
168.7606819208783
 30
0.0
 10
-234.8725690501131
 20
169.5020277139288
 30
0.0
 10
-234.8725690501133
 20
170.2358933467803
 30
0.0
 10
-234.8725690501132
 20
170.8982791674947
 30
0.0
 10
-234.8725690501132
 20
171.4472186679494
 30
0.0
 10
-234.8725690501132
 20
171.9621349805261
 30
0.0
 10
-234.8725690501131
 20
172.298156954399
 30
0.0
 10
-234.8725690501132
 20
172.3319983441378
 30
0.0
 10
-234.8725690501132
 20
172.3412688437211
 30
0.0
  0
LINE
  5
DD
330
1B
100
AcDbEntity
 67
     1
  8
0
  6
Continuous
 62
     7
370
    25
100
AcDbLine
 10
254.8592920772
 20
152.4065386461
 30
0.0
 11
254.8592920772
 21
-152.406538646
 31
0.0
  0
LINE
  5
DE
330
1B
100
AcDbEntity
 67
     1
  8
0
  6
Continuous
 62
     7
370
    25
100
AcDbLine
 10
-254.8592920647
 20
-152.4065386461
 30
0.0
 11
-254.8592920646
 21
152.406538646
 31
0.0
  0
LINE
  5
DF
330
1B
100
AcDbEntity
 67
     1
  8
0
  6
Continuous
 62
     7
370
    25
100
AcDbLine
 10
-231.6937036709
 20
163.8454021601
 30
0.0
 11
231.693704278
 21
163.8454021601
 31
0.0
  0
LINE
  5
E0
330
1B
100
AcDbEntity
 67
     1
  8
0
  6
Continuous
 62
     7
370
    25
100
AcDbLine
 10
-245.6610787785
 20
-149.8468691471
 30
0.0
 11
-245.6610787785
 21
149.8468685638
 31
0.0
  0
LINE
  5
E1
330
1B
100
AcDbEntity
 67
     1
  8
0
  6
Continuous
 62
     7
370
    25
100
AcDbLine
 10
-245.6721073058
 20
-149.856794793
 30
0.0
 11
-245.6610787785
 21
-149.8468691471
 31
0.0
  0
LINE
  5
E2
330
1B
100
AcDbEntity
 67
     1
  8
0
  6
Continuous
 62
     7
370
    25
100
AcDbLine
 10
231.6937036835
 20
-163.8454021601
 30
0.0
 11
-231.6937042655
 21
-163.8454021601
 31
0.0
  0
LINE
  5
E3
330
1B
100
AcDbEntity
 67
     1
  8
0
  6
Continuous
 62
     7
370
    25
100
AcDbLine
 10
245.661078791
 20
-149.8468685376
 30
0.0
 11
245.6721073179
 21
-149.8567942144
 31
0.0
  0
LINE
  5
E4
330
1B
100
AcDbEntity
 67
     1
  8
0
  6
Continuous
 62
     7
370
    25
100
AcDbLine
 10
245.6610787911
 20
149.8468691209
 30
0.0
 11
245.6610787911
 21
-149.8468685376
 31
0.0
  0
LINE
  5
E5
330
1B
100
AcDbEntity
 67
     1
  8
0
  6
Continuous
 62
     7
370
    25
100
AcDbLine
 10
245.6721073183
 20
149.856794793
 30
0.0
 11
245.661078791
 21
149.846869121
 31
0.0
  0
LINE
  5
E6
330
1B
100
AcDbEntity
 67
     1
  8
0
  6
Continuous
 62
     7
370
    25
100
AcDbLine
 10
215.7128475958
 20
133.8785650831
 30
0.0
 11
-215.7128475833
 21
133.8785650831
 31
0.0
  0
LINE
  5
E7
330
1B
100
AcDbEntity
 67
     1
  8
0
  6
Continuous
 62
     7
370
    25
100
AcDbLine
 10
-215.7128475833
 20
-133.878565083
 30
0.0
 11
215.7128475958
 21
-133.878565083
 31
0.0
  0
LINE
  5
E8
330
1B
100
AcDbEntity
 67
     1
  8
0
  6
Continuous
 62
     7
370
    25
100
AcDbLine
 10
-215.7128475833
 20
133.8785650831
 30
0.0
 11
-215.7128475833
 21
-133.878565083
 31
0.0
  0
LINE
  5
E9
330
1B
100
AcDbEntity
 67
     1
  8
0
  6
Continuous
 62
     7
370
    25
100
AcDbLine
 10
215.7128475958
 20
-133.878565083
 30
0.0
 11
215.7128475958
 21
133.8785650831
 31
0.0
  0
VIEWPORT
  5
246
330
1B
100
AcDbEntity
 67
     1
  8
0
100
AcDbViewport
 10
0.0
 20
0.0
 30
0.0
 40
205.6
 41
156.0
 68
     1
 69
     1
 12
0.0
 22
56.0014795037
 13
0.0
 23
0.0
 14
10.0
 24
10.0
 15
10.0
 25
10.0
 16
0.0
 26
0.0
 36
1.0
 17
0.0
 27
0.0
 37
0.0
 42
50.0
 43
0.0
 44
0.0
 45
394.4864845721
 50
0.0
 51
0.0
 72
   100
 90
   557152
  1

281
     0
 71
     1
 74
     0
110
0.0
120
0.0
130
0.0
111
1.0
121
0.0
131
0.0
112
0.0
122
1.0
132
0.0
 79
     0
146
0.0
  0
ENDSEC
  0
SECTION
  2
OBJECTS
  0
DICTIONARY
  5
C
330
0
100
AcDbDictionary
281
     1
  3
ACAD_GROUP
350
D
  3
ACAD_LAYOUT
350
1A
  3
ACAD_MLINESTYLE
350
17
  3
ACAD_PLOTSETTINGS
350
19
  3
ACAD_PLOTSTYLENAME
350
E
  3
ACAD_SCALELIST
350
47
  0
DICTIONARY
  5
D
102
{ACAD_REACTORS
330
C
102
}
330
C
100
AcDbDictionary
281
     1
  0
DICTIONARY
  5
1A
102
{ACAD_REACTORS
330
C
102
}
330
C
100
AcDbDictionary
281
     1
  3
_Bottom
350
11C
  3
_Isometric
350
1E8
  3
_Left
350
26
  3
_Top
350
1E
  3
Model
350
22
  0
DICTIONARY
  5
17
102
{ACAD_REACTORS
330
C
102
}
330
C
100
AcDbDictionary
281
     1
  3
Standard
350
18
  0
DICTIONARY
  5
19
102
{ACAD_REACTORS
330
C
102
}
330
C
100
AcDbDictionary
281
     1
  0
ACDBDICTIONARYWDFLT
  5
E
102
{ACAD_REACTORS
330
C
102
}
330
C
100
AcDbDictionary
281
     1
  3
Normal
350
F
100
AcDbDictionaryWithDefault
340
F
  0
DICTIONARY
  5
47
102
{ACAD_REACTORS
330
C
102
}
330
C
100
AcDbDictionary
281
     1
  3
A0
350
48
  3
A1
350
49
  3
A2
350
4A
  3
A3
350
4B
  3
A4
350
4C
  3
A5
350
4D
  3
A6
350
4E
  3
A7
350
4F
  3
A8
350
50
  3
A9
350
51
  3
B0
350
52
  3
B1
350
53
  3
B2
350
54
  3
B3
350
55
  3
B4
350
56
  3
B5
350
57
  3
B6
350
58
  3
B7
350
59
  3
B8
350
5A
  3
B9
350
5B
  3
C0
350
5C
  3
C1
350
5D
  3
C2
350
5E
  3
C3
350
5F
  3
C4
350
60
  3
C5
350
61
  3
C6
350
62
  3
C7
350
63
  3
C8
350
64
  3
C9
350
65
  3
D0
350
66
  3
D1
350
67
  3
D2
350
68
  0
LAYOUT
  5
11C
102
{ACAD_REACTORS
330
1A
102
}
330
1A
100
AcDbPlotSettings
  1

  2
none_device
  4
ISO_A4_(210.00_x_297.00_MM)
  6

 40
7.5
 41
20.0
 42
7.5
 43
20.0
 44
210.0
 45
297.0
 46
0.0
 47
0.0
 48
0.0
 49
0.0
140
0.0
141
0.0
142
1.0
143
1.9833602427
 70
   688
 72
     1
 73
     1
 74
     1
  7

 75
     0
147
0.5041948399
148
254.861791183
149
172.3712800275
100
AcDbLayout
  1
_Bottom
 70
     1
 71
     3
 10
0.0
 20
0.0
 11
0.0
 21
0.0
 12
0.0
 22
0.0
 32
0.0
 14
0.0
 24
0.0
 34
0.0
 15
0.0
 25
0.0
 35
0.0
146
0.0
 13
0.0
 23
0.0
 33
0.0
 16
1.0
 26
0.0
 36
0.0
 17
0.0
 27
1.0
 37
0.0
 76
     0
330
11B
331
24A
  0
LAYOUT
  5
1E8
102
{ACAD_REACTORS
330
1A
102
}
330
1A
100
AcDbPlotSettings
  1

  2
none_device
  4
ISO_A4_(210.00_x_297.00_MM)
  6

 40
7.5
 41
20.0
 42
7.5
 43
20.0
 44
210.0
 45
297.0
 46
0.0
 47
0.0
 48
0.0
 49
0.0
140
0.0
141
0.0
142
1.0
143
1.9833602427
 70
   688
 72
     1
 73
     1
 74
     1
  7

 75
     0
147
0.5041948399
148
254.861791183
149
172.3712800275
100
AcDbLayout
  1
_Isometric
 70
     1
 71
     4
 10
0.0
 20
0.0
 11
0.0
 21
0.0
 12
0.0
 22
0.0
 32
0.0
 14
0.0
 24
0.0
 34
0.0
 15
0.0
 25
0.0
 35
0.0
146
0.0
 13
0.0
 23
0.0
 33
0.0
 16
1.0
 26
0.0
 36
0.0
 17
0.0
 27
1.0
 37
0.0
 76
     0
330
1E7
331
24C
  0
LAYOUT
  5
26
102
{ACAD_REACTORS
330
1A
102
}
330
1A
100
AcDbPlotSettings
  1

  2
none_device
  4
ISO_A4_(210.00_x_297.00_MM)
  6

 40
7.5
 41
20.0
 42
7.5
 43
20.0
 44
210.0
 45
297.0
 46
0.0
 47
0.0
 48
0.0
 49
0.0
140
0.0
141
0.0
142
1.0
143
1.9833602427
 70
   688
 72
     1
 73
     1
 74
     1
  7

 75
     0
147
0.5041948399
148
254.861791183
149
172.3712800275
100
AcDbLayout
  1
_Left
 70
     1
 71
     2
 10
0.0
 20
0.0
 11
0.0
 21
0.0
 12
0.0
 22
0.0
 32
0.0
 14
0.0
 24
0.0
 34
0.0
 15
0.0
 25
0.0
 35
0.0
146
0.0
 13
0.0
 23
0.0
 33
0.0
 16
1.0
 26
0.0
 36
0.0
 17
0.0
 27
1.0
 37
0.0
 76
     0
330
23
331
248
  0
LAYOUT
  5
1E
102
{ACAD_REACTORS
330
1A
102
}
330
1A
100
AcDbPlotSettings
  1

  2
none_device
  4
ISO_A4_(210.00_x_297.00_MM)
  6

 40
7.5
 41
20.0
 42
7.5
 43
20.0
 44
210.0
 45
297.0
 46
0.0
 47
0.0
 48
0.0
 49
0.0
140
0.0
141
0.0
142
1.0
143
1.9833602427
 70
   688
 72
     1
 73
     1
 74
     1
  7

 75
     0
147
0.5041948399
148
254.861791183
149
172.3712800275
100
AcDbLayout
  1
_Top
 70
     1
 71
     1
 10
-294.5289960373
 20
-187.2464818479
 11
294.5289960498
 21
229.2591691229
 12
0.0
 22
0.0
 32
0.0
 14
-254.861791183
 24
-172.3712800275
 34
0.0
 15
254.8617911955
 25
172.3712800275
 35
0.0
146
0.0
 13
0.0
 23
0.0
 33
0.0
 16
1.0
 26
0.0
 36
0.0
 17
0.0
 27
1.0
 37
0.0
 76
     0
330
1B
331
246
  0
LAYOUT
  5
22
102
{ACAD_REACTORS
330
1A
102
}
330
1A
100
AcDbPlotSettings
  1

  2
none_device
  4
ANSI_A_(11.00_x_8.50_Inches)
  6

 40
6.35
 41
19.05
 42
6.35000508
 43
19.05000254
 44
279.4
 45
215.9
 46
133.34999746
 47
58.5100037431
 48
0.0
 49
0.0
140
0.0
141
0.0
142
0.0213647301
143
1.0
 70
  1696
 72
     0
 73
     0
 74
     0
  7

 75
     0
147
0.0179189148
148
-1300.4909072572
149
0.0
100
AcDbLayout
  1
Model
 70
     1
 71
     0
 10
0.0
 20
0.0
 11
420.0
 21
297.0
 12
0.0
 22
0.0
 32
0.0
 14
-254.8592924461
 24
0.0
 34
0.0
 15
254.8592924461
 25
112.0029590075
 35
0.0
146
0.0
 13
0.0
 23
0.0
 33
0.0
 16
1.0
 26
0.0
 36
0.0
 17
0.0
 27
1.0
 37
0.0
 76
     0
330
1F
331
29
  0
MLINESTYLE
  5
18
102
{ACAD_REACTORS
330
17
102
}
330
17
100
AcDbMlineStyle
  2
Standard
 70
     0
  3

 62
   256
 51
90.0
 52
90.0
 71
     2
 49
0.5
 62
   256
  6
BYLAYER
 49
-0.5
 62
   256
  6
BYLAYER
  0
ACDBPLACEHOLDER
  5
F
102
{ACAD_REACTORS
330
E
102
}
330
E
  0
SCALE
  5
48
102
{ACAD_REACTORS
330
47
102
}
330
47
100
AcDbScale
 70
     0
300
1:1
140
1.0
141
1.0
290
     1
  0
SCALE
  5
49
102
{ACAD_REACTORS
330
47
102
}
330
47
100
AcDbScale
 70
     0
300
1:2
140
1.0
141
2.0
290
     0
  0
SCALE
  5
4A
102
{ACAD_REACTORS
330
47
102
}
330
47
100
AcDbScale
 70
     0
300
1:4
140
1.0
141
4.0
290
     0
  0
SCALE
  5
4B
102
{ACAD_REACTORS
330
47
102
}
330
47
100
AcDbScale
 70
     0
300
1:5
140
1.0
141
5.0
290
     0
  0
SCALE
  5
4C
102
{ACAD_REACTORS
330
47
102
}
330
47
100
AcDbScale
 70
     0
300
1:8
140
1.0
141
8.0
290
     0
  0
SCALE
  5
4D
102
{ACAD_REACTORS
330
47
102
}
330
47
100
AcDbScale
 70
     0
300
1:10
140
1.0
141
10.0
290
     0
  0
SCALE
  5
4E
102
{ACAD_REACTORS
330
47
102
}
330
47
100
AcDbScale
 70
     0
300
1:16
140
1.0
141
16.0
290
     0
  0
SCALE
  5
4F
102
{ACAD_REACTORS
330
47
102
}
330
47
100
AcDbScale
 70
     0
300
1:20
140
1.0
141
20.0
290
     0
  0
SCALE
  5
50
102
{ACAD_REACTORS
330
47
102
}
330
47
100
AcDbScale
 70
     0
300
1:30
140
1.0
141
30.0
290
     0
  0
SCALE
  5
51
102
{ACAD_REACTORS
330
47
102
}
330
47
100
AcDbScale
 70
     0
300
1:40
140
1.0
141
40.0
290
     0
  0
SCALE
  5
52
102
{ACAD_REACTORS
330
47
102
}
330
47
100
AcDbScale
 70
     0
300
1:50
140
1.0
141
50.0
290
     0
  0
SCALE
  5
53
102
{ACAD_REACTORS
330
47
102
}
330
47
100
AcDbScale
 70
     0
300
1:100
140
1.0
141
100.0
290
     0
  0
SCALE
  5
54
102
{ACAD_REACTORS
330
47
102
}
330
47
100
AcDbScale
 70
     0
300
2:1
140
2.0
141
1.0
290
     0
  0
SCALE
  5
55
102
{ACAD_REACTORS
330
47
102
}
330
47
100
AcDbScale
 70
     0
300
4:1
140
4.0
141
1.0
290
     0
  0
SCALE
  5
56
102
{ACAD_REACTORS
330
47
102
}
330
47
100
AcDbScale
 70
     0
300
8:1
140
8.0
141
1.0
290
     0
  0
SCALE
  5
57
102
{ACAD_REACTORS
330
47
102
}
330
47
100
AcDbScale
 70
     0
300
10:1
140
10.0
141
1.0
290
     0
  0
SCALE
  5
58
102
{ACAD_REACTORS
330
47
102
}
330
47
100
AcDbScale
 70
     0
300
100:1
140
100.0
141
1.0
290
     0
  0
SCALE
  5
59
102
{ACAD_REACTORS
330
47
102
}
330
47
100
AcDbScale
 70
     0
300
1/128" = 1'-0"
140
0.0078125
141
12.0
290
     0
  0
SCALE
  5
5A
102
{ACAD_REACTORS
330
47
102
}
330
47
100
AcDbScale
 70
     0
300
1/64" = 1'-0"
140
0.015625
141
12.0
290
     0
  0
SCALE
  5
5B
102
{ACAD_REACTORS
330
47
102
}
330
47
100
AcDbScale
 70
     0
300
1/32" = 1'-0"
140
0.03125
141
12.0
290
     0
  0
SCALE
  5
5C
102
{ACAD_REACTORS
330
47
102
}
330
47
100
AcDbScale
 70
     0
300
1/16" = 1'-0"
140
0.0625
141
12.0
290
     0
  0
SCALE
  5
5D
102
{ACAD_REACTORS
330
47
102
}
330
47
100
AcDbScale
 70
     0
300
3/32" = 1'-0"
140
0.09375
141
12.0
290
     0
  0
SCALE
  5
5E
102
{ACAD_REACTORS
330
47
102
}
330
47
100
AcDbScale
 70
     0
300
1/8" = 1'-0"
140
0.125
141
12.0
290
     0
  0
SCALE
  5
5F
102
{ACAD_REACTORS
330
47
102
}
330
47
100
AcDbScale
 70
     0
300
3/16" = 1'-0"
140
0.1875
141
12.0
290
     0
  0
SCALE
  5
60
102
{ACAD_REACTORS
330
47
102
}
330
47
100
AcDbScale
 70
     0
300
1/4" = 1'-0"
140
0.25
141
12.0
290
     0
  0
SCALE
  5
61
102
{ACAD_REACTORS
330
47
102
}
330
47
100
AcDbScale
 70
     0
300
3/8" = 1'-0"
140
0.375
141
12.0
290
     0
  0
SCALE
  5
62
102
{ACAD_REACTORS
330
47
102
}
330
47
100
AcDbScale
 70
     0
300
1/2" = 1'-0"
140
0.5
141
12.0
290
     0
  0
SCALE
  5
63
102
{ACAD_REACTORS
330
47
102
}
330
47
100
AcDbScale
 70
     0
300
3/4" = 1'-0"
140
0.75
141
12.0
290
     0
  0
SCALE
  5
64
102
{ACAD_REACTORS
330
47
102
}
330
47
100
AcDbScale
 70
     0
300
1" = 1'-0"
140
1.0
141
12.0
290
     0
  0
SCALE
  5
65
102
{ACAD_REACTORS
330
47
102
}
330
47
100
AcDbScale
 70
     0
300
1-1/2" = 1'-0"
140
1.5
141
12.0
290
     0
  0
SCALE
  5
66
102
{ACAD_REACTORS
330
47
102
}
330
47
100
AcDbScale
 70
     0
300
3" = 1'-0"
140
3.0
141
12.0
290
     0
  0
SCALE
  5
67
102
{ACAD_REACTORS
330
47
102
}
330
47
100
AcDbScale
 70
     0
300
6" = 1'-0"
140
6.0
141
12.0
290
     0
  0
SCALE
  5
68
102
{ACAD_REACTORS
330
47
102
}
330
47
100
AcDbScale
 70
     0
300
1'-0" = 1'-0"
140
12.0
141
12.0
290
     0
  0
ENDSEC
  0
EOF
