  0
SECTION
  2
HEADER
  9
$ACADVER
  1
AC1015
  9
$ACADMAINTVER
 70
     6
  9
$DWGCODEPAGE
  3
ANSI_1252
  9
$INSBASE
 10
0.0
 20
0.0
 30
0.0
  9
$EXTMIN
 10
762.5058610833
 20
23.2062649258
 30
0.0
  9
$EXTMAX
 10
785.2063275028
 20
1973.2062649258
 30
0.0
  9
$LIMMIN
 10
0.0
 20
0.0
  9
$LIMMAX
 10
420.0
 20
297.0
  9
$ORTHOMODE
 70
     0
  9
$REGENMODE
 70
     1
  9
$FILLMODE
 70
     1
  9
$QTEXTMODE
 70
     0
  9
$MIRRTEXT
 70
     1
  9
$LTSCALE
 40
1.0
  9
$ATTMODE
 70
     1
  9
$TEXTSIZE
 40
3.5
  9
$TRACEWID
 40
1.0
  9
$TEXTSTYLE
  7
Standard
  9
$CLAYER
  8
0
  9
$CELTYPE
  6
ByLayer
  9
$CECOLOR
 62
   256
  9
$CELTSCALE
 40
1.0
  9
$DISPSILH
 70
     0
  9
$DIMSCALE
 40
1.0
  9
$DIMASZ
 40
3.302
  9
$DIMEXO
 40
1.0
  9
$DIMDLI
 40
3.75
  9
$DIMRND
 40
0.0
  9
$DIMDLE
 40
0.0
  9
$DIMEXE
 40
1.0
  9
$DIMTP
 40
0.0
  9
$DIMTM
 40
0.0
  9
$DIMTXT
 40
3.5
  9
$DIMCEN
 40
2.5
  9
$DIMTSZ
 40
0.0
  9
$DIMTOL
 70
     0
  9
$DIMLIM
 70
     0
  9
$DIMTIH
 70
     1
  9
$DIMTOH
 70
     1
  9
$DIMSE1
 70
     0
  9
$DIMSE2
 70
     0
  9
$DIMTAD
 70
     1
  9
$DIMZIN
 70
     1
  9
$DIMBLK
  1

  9
$DIMASO
 70
     1
  9
$DIMSHO
 70
     1
  9
$DIMPOST
  1

  9
$DIMAPOST
  1

  9
$DIMALT
 70
     0
  9
$DIMALTD
 70
     3
  9
$DIMALTF
 40
0.0393700787
  9
$DIMLFAC
 40
1.0
  9
$DIMTOFL
 70
     1
  9
$DIMTVP
 40
0.0
  9
$DIMTIX
 70
     0
  9
$DIMSOXD
 70
     0
  9
$DIMSAH
 70
     0
  9
$DIMBLK1
  1

  9
$DIMBLK2
  1

  9
$DIMSTYLE
  2
ISO-25
  9
$DIMCLRD
 70
     0
  9
$DIMCLRE
 70
     0
  9
$DIMCLRT
 70
     0
  9
$DIMTFAC
 40
1.0
  9
$DIMGAP
 40
1.524
  9
$DIMJUST
 70
     0
  9
$DIMSD1
 70
     0
  9
$DIMSD2
 70
     0
  9
$DIMTOLJ
 70
     0
  9
$DIMTZIN
 70
     1
  9
$DIMALTZ
 70
     0
  9
$DIMALTTZ
 70
     0
  9
$DIMUPT
 70
     0
  9
$DIMDEC
 70
     2
  9
$DIMTDEC
 70
     2
  9
$DIMALTU
 70
     2
  9
$DIMALTTD
 70
     3
  9
$DIMTXSTY
  7
Standard
  9
$DIMAUNIT
 70
     0
  9
$DIMADEC
 70
     2
  9
$DIMALTRND
 40
0.0
  9
$DIMAZIN
 70
     0
  9
$DIMDSEP
 70
    44
  9
$DIMATFIT
 70
     3
  9
$DIMFRAC
 70
     0
  9
$DIMLDRBLK
  1

  9
$DIMLUNIT
 70
     2
  9
$DIMLWD
 70
    -2
  9
$DIMLWE
 70
    -2
  9
$DIMTMOVE
 70
     0
  9
$LUNITS
 70
     2
  9
$LUPREC
 70
     2
  9
$SKETCHINC
 40
1.0
  9
$FILLETRAD
 40
10.0
  9
$AUNITS
 70
     0
  9
$AUPREC
 70
     2
  9
$MENU
  1
.
  9
$ELEVATION
 40
0.0
  9
$PELEVATION
 40
0.0
  9
$THICKNESS
 40
0.0
  9
$LIMCHECK
 70
     0
  9
$CHAMFERA
 40
0.0
  9
$CHAMFERB
 40
0.0
  9
$CHAMFERC
 40
0.0
  9
$CHAMFERD
 40
0.0
  9
$SKPOLY
 70
     0
  9
$TDCREATE
 40
2458752.688926447
  9
$TDUCREATE
 40
2458752.64725978
  9
$TDUPDATE
 40
2458752.688978079
  9
$TDUUPDATE
 40
2458752.647311412
  9
$TDINDWG
 40
0.0000000116
  9
$TDUSRTIMER
 40
0.0000000116
  9
$USRTIMER
 70
     1
  9
$ANGBASE
 50
0.0
  9
$ANGDIR
 70
     0
  9
$PDMODE
 70
     0
  9
$PDSIZE
 40
-1.0
  9
$PLINEWID
 40
0.0
  9
$SPLFRAME
 70
     0
  9
$SPLINETYPE
 70
     6
  9
$SPLINESEGS
 70
     8
  9
$HANDSEED
  5
781
  9
$SURFTAB1
 70
     6
  9
$SURFTAB2
 70
     6
  9
$SURFTYPE
 70
     6
  9
$SURFU
 70
     6
  9
$SURFV
 70
     6
  9
$UCSBASE
  2

  9
$UCSNAME
  2

  9
$UCSORG
 10
0.0
 20
0.0
 30
0.0
  9
$UCSXDIR
 10
1.0
 20
0.0
 30
0.0
  9
$UCSYDIR
 10
0.0
 20
1.0
 30
0.0
  9
$UCSORTHOREF
  2

  9
$UCSORTHOVIEW
 70
     0
  9
$UCSORGTOP
 10
0.0
 20
0.0
 30
0.0
  9
$UCSORGBOTTOM
 10
0.0
 20
0.0
 30
0.0
  9
$UCSORGLEFT
 10
0.0
 20
0.0
 30
0.0
  9
$UCSORGRIGHT
 10
0.0
 20
0.0
 30
0.0
  9
$UCSORGFRONT
 10
0.0
 20
0.0
 30
0.0
  9
$UCSORGBACK
 10
0.0
 20
0.0
 30
0.0
  9
$PUCSBASE
  2

  9
$PUCSNAME
  2

  9
$PUCSORG
 10
0.0
 20
0.0
 30
0.0
  9
$PUCSXDIR
 10
1.0
 20
0.0
 30
0.0
  9
$PUCSYDIR
 10
0.0
 20
1.0
 30
0.0
  9
$PUCSORTHOREF
  2

  9
$PUCSORTHOVIEW
 70
     0
  9
$PUCSORGTOP
 10
0.0
 20
0.0
 30
0.0
  9
$PUCSORGBOTTOM
 10
0.0
 20
0.0
 30
0.0
  9
$PUCSORGLEFT
 10
0.0
 20
0.0
 30
0.0
  9
$PUCSORGRIGHT
 10
0.0
 20
0.0
 30
0.0
  9
$PUCSORGFRONT
 10
0.0
 20
0.0
 30
0.0
  9
$PUCSORGBACK
 10
0.0
 20
0.0
 30
0.0
  9
$USERI1
 70
     0
  9
$USERI2
 70
     0
  9
$USERI3
 70
     0
  9
$USERI4
 70
     0
  9
$USERI5
 70
     0
  9
$USERR1
 40
0.0
  9
$USERR2
 40
0.0
  9
$USERR3
 40
0.0
  9
$USERR4
 40
0.0
  9
$USERR5
 40
0.0
  9
$WORLDVIEW
 70
     1
  9
$SHADEDGE
 70
     3
  9
$SHADEDIF
 70
    70
  9
$TILEMODE
 70
     1
  9
$MAXACTVP
 70
    64
  9
$PINSBASE
 10
0.0
 20
0.0
 30
0.0
  9
$PLIMCHECK
 70
     0
  9
$PEXTMIN
 10
-785.2063275028
 20
23.2062649258
 30
0.0
  9
$PEXTMAX
 10
-762.5058610833
 20
1973.2062649258
 30
0.0
  9
$PLIMMIN
 10
-985.2063275028
 20
-51.7937350742
  9
$PLIMMAX
 10
1984.7936724972
 20
2048.2062649258
  9
$UNITMODE
 70
     0
  9
$VISRETAIN
 70
     1
  9
$PLINEGEN
 70
     0
  9
$PSLTSCALE
 70
     1
  9
$TREEDEPTH
 70
  3020
  9
$CMLSTYLE
  2
Standard
  9
$CMLJUST
 70
     0
  9
$CMLSCALE
 40
20.0
  9
$PROXYGRAPHICS
 70
     1
  9
$MEASUREMENT
 70
     1
  9
$CELWEIGHT
370
    -1
  9
$ENDCAPS
280
     0
  9
$JOINSTYLE
280
     0
  9
$LWDISPLAY
290
     1
  9
$INSUNITS
 70
     4
  9
$HYPERLINKBASE
  1

  9
$STYLESHEET
  1

  9
$XEDIT
290
     1
  9
$CEPSNTYPE
380
     0
  9
$PSTYLEMODE
290
     1
  9
$FINGERPRINTGUID
  2
{51fb11d3-0275-4e1d-be45-a849cd8bca67}
  9
$VERSIONGUID
  2
{FAEB1C32-E019-11D5-929B-00C0DF256EC4}
  9
$EXTNAMES
290
     1
  9
$PSVPSCALE
 40
0.0
  9
$OLESTARTUP
290
     0
  0
ENDSEC
  0
SECTION
  2
CLASSES
  0
CLASS
  1
ACDBDICTIONARYWDFLT
  2
AcDbDictionaryWithDefault
  3
ObjectDBX Classes
 90
        0
280
     0
281
     0
  0
CLASS
  1
VISUALSTYLE
  2
AcDbVisualStyle
  3
ObjectDBX Classes
 90
     4095
280
     0
281
     0
  0
CLASS
  1
MATERIAL
  2
AcDbMaterial
  3
ObjectDBX Classes
 90
     1153
280
     0
281
     0
  0
CLASS
  1
SCALE
  2
AcDbScale
  3
ObjectDBX Classes
 90
     1153
280
     0
281
     0
  0
CLASS
  1
TABLESTYLE
  2
AcDbTableStyle
  3
ObjectDBX Classes
 90
     4095
280
     0
281
     0
  0
CLASS
  1
MLEADERSTYLE
  2
AcDbMLeaderStyle
  3
ACDB_MLEADERSTYLE_CLASS
 90
     4095
280
     0
281
     0
  0
CLASS
  1
SUN
  2
AcDbSun
  3
SCENEOE
 90
     1153
280
     0
281
     0
  0
CLASS
  1
ACDBPLACEHOLDER
  2
AcDbPlaceHolder
  3
ObjectDBX Classes
 90
        0
280
     0
281
     0
  0
CLASS
  1
LAYOUT
  2
AcDbLayout
  3
ObjectDBX Classes
 90
        0
280
     0
281
     0
  0
ENDSEC
  0
SECTION
  2
TABLES
  0
TABLE
  2
VPORT
  5
8
330
0
100
AcDbSymbolTable
 70
     1
  0
VPORT
  5
29
330
8
100
AcDbSymbolTableRecord
100
AcDbViewportTableRecord
  2
*Active
 70
     0
 10
0.0
 20
0.0
 11
1.0
 21
1.0
 12
773.8560942931
 22
998.2062649258
 13
0.0
 23
0.0
 14
10.0
 24
10.0
 15
10.0
 25
10.0
 16
0.0
 26
0.0
 36
1.0
 17
0.0
 27
0.0
 37
0.0
 40
1989.0
 41
0.0116412648
 42
50.0
 43
0.0
 44
0.0
 50
0.0
 51
0.0
 71
     0
 72
   100
 73
     1
 74
     3
 75
     0
 76
     0
 77
     0
 78
     0
281
     0
 65
     1
110
0.0
120
0.0
130
0.0
111
1.0
121
0.0
131
0.0
112
0.0
122
1.0
132
0.0
 79
     0
146
0.0
  0
ENDTAB
  0
TABLE
  2
LTYPE
  5
5
330
0
100
AcDbSymbolTable
 70
     6
  0
LTYPE
  5
14
330
5
100
AcDbSymbolTableRecord
100
AcDbLinetypeTableRecord
  2
ByBlock
 70
     0
  3

 72
    65
 73
     0
 40
0.0
  0
LTYPE
  5
15
330
5
100
AcDbSymbolTableRecord
100
AcDbLinetypeTableRecord
  2
ByLayer
 70
     0
  3

 72
    65
 73
     0
 40
0.0
  0
LTYPE
  5
16
330
5
100
AcDbSymbolTableRecord
100
AcDbLinetypeTableRecord
  2
Continuous
 70
     0
  3
Solid line
 72
    65
 73
     0
 40
0.0
  0
LTYPE
  5
6E
330
5
100
AcDbSymbolTableRecord
100
AcDbLinetypeTableRecord
  2
HIDDEN
 70
     0
  3
Hidden __ __ __ __ __ __ __ __ __ __ __ __ __ __
 72
    65
 73
     2
 40
1.905
 49
1.27
 74
     0
 49
-0.635
 74
     0
  0
LTYPE
  5
6F
330
5
100
AcDbSymbolTableRecord
100
AcDbLinetypeTableRecord
  2
PHANTOM
 70
     0
  3
Phantom ______  __  __  ______  __  __  ______
 72
    65
 73
     6
 40
12.7
 49
6.35
 74
     0
 49
-1.27
 74
     0
 49
1.27
 74
     0
 49
-1.27
 74
     0
 49
1.27
 74
     0
 49
-1.27
 74
     0
  0
LTYPE
  5
70
330
5
100
AcDbSymbolTableRecord
100
AcDbLinetypeTableRecord
  2
CENTER
 70
     0
  3
Center ____ _ ____ _ ____ _ ____ _ ____ _ ____
 72
    65
 73
     4
 40
10.16
 49
6.35
 74
     0
 49
-1.27
 74
     0
 49
1.27
 74
     0
 49
-1.27
 74
     0
  0
LTYPE
  5
71
330
5
100
AcDbSymbolTableRecord
100
AcDbLinetypeTableRecord
  2
CENTERX2
 70
     0
  3
Center (2x) ________  __  ________  __  _____
 72
    65
 73
     4
 40
20.32
 49
12.7
 74
     0
 49
-2.54
 74
     0
 49
2.54
 74
     0
 49
-2.54
 74
     0
  0
LTYPE
  5
72
330
5
100
AcDbSymbolTableRecord
100
AcDbLinetypeTableRecord
  2
DOT2
 70
     0
  3
Dot (.5x) ........................................
 72
    65
 73
     2
 40
0.635
 49
0.0
 74
     0
 49
-0.635
 74
     0
  0
ENDTAB
  0
TABLE
  2
LAYER
  5
2
330
0
100
AcDbSymbolTable
 70
     1
  0
LAYER
  5
10
330
2
100
AcDbSymbolTableRecord
100
AcDbLayerTableRecord
  2
0
 70
     0
 62
     7
  6
Continuous
370
    -3
390
F
  0
ENDTAB
  0
TABLE
  2
STYLE
  5
3
330
0
100
AcDbSymbolTable
 70
     1
  0
STYLE
  5
11
330
3
100
AcDbSymbolTableRecord
100
AcDbTextStyleTableRecord
  2
Standard
 70
     0
 40
0.0
 41
1.0
 50
0.0
 71
     0
 42
3.5
  3
txt
  4

  0
ENDTAB
  0
TABLE
  2
VIEW
  5
6
330
0
100
AcDbSymbolTable
 70
     0
  0
ENDTAB
  0
TABLE
  2
UCS
  5
7
330
0
100
AcDbSymbolTable
 70
     0
  0
ENDTAB
  0
TABLE
  2
APPID
  5
9
330
0
100
AcDbSymbolTable
 70
     1
  0
APPID
  5
12
330
9
100
AcDbSymbolTableRecord
100
AcDbRegAppTableRecord
  2
ACAD
 70
     0
  0
ENDTAB
  0
TABLE
  2
DIMSTYLE
  5
A
330
0
100
AcDbSymbolTable
 70
     1
100
AcDbDimStyleTable
  0
DIMSTYLE
105
27
330
A
100
AcDbSymbolTableRecord
100
AcDbDimStyleTableRecord
  2
ISO-25
 70
     0
 41
2.5
 42
0.625
 43
3.75
 44
1.25
 73
     0
 74
     0
 77
     1
 78
     8
140
2.5
141
2.5
143
0.0393700787
147
0.625
171
     3
172
     1
178
     0
271
     2
272
     2
274
     3
278
    44
283
     0
284
     8
340
11
  0
ENDTAB
  0
TABLE
  2
BLOCK_RECORD
  5
1
330
0
100
AcDbSymbolTable
 70
     7
  0
BLOCK_RECORD
  5
1F
330
1
100
AcDbSymbolTableRecord
100
AcDbBlockTableRecord
  2
*Model_Space
340
22
  0
BLOCK_RECORD
  5
1B
330
1
100
AcDbSymbolTableRecord
100
AcDbBlockTableRecord
  2
*Paper_Space
340
1E
  0
BLOCK_RECORD
  5
23
330
1
100
AcDbSymbolTableRecord
100
AcDbBlockTableRecord
  2
*Paper_Space0
340
26
  0
BLOCK_RECORD
  5
1E9
330
1
100
AcDbSymbolTableRecord
100
AcDbBlockTableRecord
  2
*Paper_Space1
340
1EA
  0
BLOCK_RECORD
  5
2CD
330
1
100
AcDbSymbolTableRecord
100
AcDbBlockTableRecord
  2
*Paper_Space2
340
2CE
  0
BLOCK_RECORD
  5
329
330
1
100
AcDbSymbolTableRecord
100
AcDbBlockTableRecord
  2
*Paper_Space3
340
32A
  0
BLOCK_RECORD
  5
385
330
1
100
AcDbSymbolTableRecord
100
AcDbBlockTableRecord
  2
*Paper_Space4
340
386
  0
BLOCK_RECORD
  5
4E3
330
1
100
AcDbSymbolTableRecord
100
AcDbBlockTableRecord
  2
*Paper_Space5
340
4E4
  0
BLOCK_RECORD
  5
62D
330
1
100
AcDbSymbolTableRecord
100
AcDbBlockTableRecord
  2
*Paper_Space6
340
62E
  0
ENDTAB
  0
ENDSEC
  0
SECTION
  2
BLOCKS
  0
BLOCK
  5
20
330
1F
100
AcDbEntity
  8
0
100
AcDbBlockBegin
  2
*Model_Space
 70
     0
 10
0.0
 20
0.0
 30
0.0
  3
*Model_Space
  1

  0
ENDBLK
  5
21
330
1F
100
AcDbEntity
  8
0
100
AcDbBlockEnd
  0
BLOCK
  5
1C
330
1B
100
AcDbEntity
 67
     1
  8
0
100
AcDbBlockBegin
  2
*Paper_Space
 70
     0
 10
0.0
 20
0.0
 30
0.0
  3
*Paper_Space
  1

  0
ENDBLK
  5
1D
330
1B
100
AcDbEntity
 67
     1
  8
0
100
AcDbBlockEnd
  0
BLOCK
  5
24
330
23
100
AcDbEntity
  8
0
100
AcDbBlockBegin
  2
*Paper_Space0
 70
     0
 10
0.0
 20
0.0
 30
0.0
  3
*Paper_Space0
  1

  0
SPLINE
  5
18F
330
23
100
AcDbEntity
  8
0
  6
Continuous
 62
     7
370
    25
100
AcDbSpline
210
0.0
220
0.0
230
1.0
 70
     8
 71
     3
 72
    22
 73
    18
 74
     0
 42
0.000000001
 43
0.00000001
 40
0.0
 40
0.0
 40
0.0
 40
0.0
 40
0.125
 40
0.125
 40
0.25
 40
0.25
 40
0.375
 40
0.375
 40
0.5
 40
0.5
 40
0.625
 40
0.625
 40
0.75
 40
0.75
 40
0.875
 40
0.875
 40
1.0
 40
1.0
 40
1.0
 40
1.0
 10
2827.956394682771
 20
225.0486209628566
 30
0.0
 10
2827.940670636543
 20
225.2747603469224
 30
0.0
 10
2827.892990615449
 20
225.4930982740441
 30
0.0
 10
2827.741521570939
 20
225.9160761588898
 30
0.0
 10
2827.637657865189
 20
226.1182176726427
 30
0.0
 10
2827.384560252978
 20
226.4873323992614
 30
0.0
 10
2827.232243926599
 20
226.6580200155162
 30
0.0
 10
2826.893620672086
 20
226.9488981860015
 30
0.0
 10
2826.703600713714
 20
227.0728584129833
 30
0.0
 10
2826.300097550549
 20
227.2708176145932
 30
0.0
 10
2826.089006878286
 20
227.3444833836286
 30
0.0
 10
2825.648535982371
 20
227.4422406491308
 30
0.0
 10
2825.424874721825
 20
227.4647219861015
 30
0.0
 10
2824.978308019912
 20
227.4562999676099
 30
0.0
 10
2824.752049087464
 20
227.4239249447501
 30
0.0
 10
2824.32040428487
 20
227.3098921688679
 30
0.0
 10
2824.112355812381
 20
227.2288595575525
 30
0.0
 10
2823.912000173253
 20
227.1240612533765
 30
0.0
  0
SPLINE
  5
190
330
23
100
AcDbEntity
  8
0
  6
Continuous
 62
     7
370
    25
100
AcDbSpline
210
0.0
220
0.0
230
1.0
 70
     8
 71
     3
 72
    20
 73
    16
 74
     0
 42
0.000000001
 43
0.00000001
 40
0.0
 40
0.0
 40
0.0
 40
0.0
 40
0.25
 40
0.25
 40
0.375
 40
0.375
 40
0.5
 40
0.5
 40
0.625
 40
0.625
 40
0.75
 40
0.75
 40
0.875
 40
0.875
 40
1.0
 40
1.0
 40
1.0
 40
1.0
 10
2825.980159056418
 20
222.1876541788369
 30
0.0
 10
2826.299399145314
 20
222.2460302724875
 30
0.0
 10
2826.603569748712
 20
222.3708133408485
 30
0.0
 10
2827.006375194208
 20
222.6315315783165
 30
0.0
 10
2827.133814316248
 20
222.732181332148
 30
0.0
 10
2827.36612080698
 20
222.9558104540099
 30
0.0
 10
2827.469943619406
 20
223.0773436909382
 30
0.0
 10
2827.651869207793
 20
223.3406823403386
 30
0.0
 10
2827.730439970729
 20
223.4841799465997
 30
0.0
 10
2827.856469422781
 20
223.7797163310441
 30
0.0
 10
2827.904802326845
 20
223.932435863516
 30
0.0
 10
2827.972541032923
 20
224.2476303883101
 30
0.0
 10
2827.991385700596
 20
224.4092026328286
 30
0.0
 10
2827.997694795617
 20
224.7290401728311
 30
0.0
 10
2827.985569806307
 20
224.8888765423693
 30
0.0
 10
2827.956394682771
 20
225.0486209628566
 30
0.0
  0
SPLINE
  5
191
330
23
100
AcDbEntity
  8
0
  6
Continuous
 62
     7
370
    25
100
AcDbSpline
210
0.0
220
0.0
230
1.0
 70
     8
 71
     3
 72
    22
 73
    18
 74
     0
 42
0.000000001
 43
0.00000001
 40
0.0
 40
0.0
 40
0.0
 40
0.0
 40
0.125
 40
0.125
 40
0.25
 40
0.25
 40
0.375
 40
0.375
 40
0.5
 40
0.5
 40
0.625
 40
0.625
 40
0.75
 40
0.75
 40
0.875
 40
0.875
 40
1.0
 40
1.0
 40
1.0
 40
1.0
 10
2822.604935161375
 20
225.2375609691035
 30
0.0
 10
2822.577793980538
 20
225.0127997289912
 30
0.0
 10
2822.576658468103
 20
224.7893064347743
 30
0.0
 10
2822.62429639234
 20
224.3447532330238
 30
0.0
 10
2822.674148728114
 20
224.1215562683219
 30
0.0
 10
2822.823778639339
 20
223.7010114046927
 30
0.0
 10
2822.923275158445
 20
223.500588166518
 30
0.0
 10
2823.171076967855
 20
223.1221379650504
 30
0.0
 10
2823.31470456087
 20
222.9509968301188
 30
0.0
 10
2823.641303906117
 20
222.6447823694366
 30
0.0
 10
2823.825860837726
 20
222.5097753645609
 30
0.0
 10
2824.216947750832
 20
222.2959603897404
 30
0.0
 10
2824.428635628686
 20
222.2142261394755
 30
0.0
 10
2824.865583328837
 20
222.1072382390468
 30
0.0
 10
2825.08760926278
 20
222.0818540367129
 30
0.0
 10
2825.539015860586
 20
222.089287975057
 30
0.0
 10
2825.763003499979
 20
222.122365553368
 30
0.0
 10
2825.980159056519
 20
222.1876541764435
 30
0.0
  0
SPLINE
  5
192
330
23
100
AcDbEntity
  8
0
  6
Continuous
 62
     7
370
    25
100
AcDbSpline
210
0.0
220
0.0
230
1.0
 70
     8
 71
     3
 72
    22
 73
    18
 74
     0
 42
0.000000001
 43
0.00000001
 40
0.0
 40
0.0
 40
0.0
 40
0.0
 40
0.125
 40
0.125
 40
0.25
 40
0.25
 40
0.375
 40
0.375
 40
0.5
 40
0.5
 40
0.625
 40
0.625
 40
0.75
 40
0.75
 40
0.875
 40
0.875
 40
1.0
 40
1.0
 40
1.0
 40
1.0
 10
2827.956394682772
 20
1772.248620962857
 30
0.0
 10
2827.940670636543
 20
1772.474760346923
 30
0.0
 10
2827.89299061545
 20
1772.693098274044
 30
0.0
 10
2827.74152157094
 20
1773.11607615889
 30
0.0
 10
2827.637657865188
 20
1773.318217672643
 30
0.0
 10
2827.384560252977
 20
1773.687332399262
 30
0.0
 10
2827.232243926601
 20
1773.858020015517
 30
0.0
 10
2826.893620672087
 20
1774.148898186003
 30
0.0
 10
2826.703600713713
 20
1774.272858412985
 30
0.0
 10
2826.300097550549
 20
1774.470817614594
 30
0.0
 10
2826.089006878286
 20
1774.54448338363
 30
0.0
 10
2825.648535982371
 20
1774.642240649131
 30
0.0
 10
2825.424874721825
 20
1774.664721986102
 30
0.0
 10
2824.978308019912
 20
1774.65629996761
 30
0.0
 10
2824.752049087463
 20
1774.62392494475
 30
0.0
 10
2824.320404284869
 20
1774.509892168868
 30
0.0
 10
2824.112355812381
 20
1774.428859557553
 30
0.0
 10
2823.912000173254
 20
1774.324061253377
 30
0.0
  0
SPLINE
  5
193
330
23
100
AcDbEntity
  8
0
  6
Continuous
 62
     7
370
    25
100
AcDbSpline
210
0.0
220
0.0
230
1.0
 70
     8
 71
     3
 72
    20
 73
    16
 74
     0
 42
0.000000001
 43
0.00000001
 40
0.0
 40
0.0
 40
0.0
 40
0.0
 40
0.25
 40
0.25
 40
0.375
 40
0.375
 40
0.5
 40
0.5
 40
0.625
 40
0.625
 40
0.75
 40
0.75
 40
0.875
 40
0.875
 40
1.0
 40
1.0
 40
1.0
 40
1.0
 10
2825.980159056419
 20
1769.387654178837
 30
0.0
 10
2826.299399145313
 20
1769.446030272488
 30
0.0
 10
2826.603569748714
 20
1769.570813340849
 30
0.0
 10
2827.00637519421
 20
1769.831531578318
 30
0.0
 10
2827.133814316248
 20
1769.932181332149
 30
0.0
 10
2827.36612080698
 20
1770.15581045401
 30
0.0
 10
2827.469943619406
 20
1770.277343690939
 30
0.0
 10
2827.651869207793
 20
1770.540682340338
 30
0.0
 10
2827.730439970729
 20
1770.6841799466
 30
0.0
 10
2827.85646942278
 20
1770.979716331045
 30
0.0
 10
2827.904802326846
 20
1771.132435863517
 30
0.0
 10
2827.972541032923
 20
1771.447630388311
 30
0.0
 10
2827.991385700596
 20
1771.609202632829
 30
0.0
 10
2827.997694795618
 20
1771.929040172831
 30
0.0
 10
2827.985569806308
 20
1772.08887654237
 30
0.0
 10
2827.956394682772
 20
1772.248620962857
 30
0.0
  0
SPLINE
  5
194
330
23
100
AcDbEntity
  8
0
  6
Continuous
 62
     7
370
    25
100
AcDbSpline
210
0.0
220
0.0
230
1.0
 70
     8
 71
     3
 72
    22
 73
    18
 74
     0
 42
0.000000001
 43
0.00000001
 40
0.0
 40
0.0
 40
0.0
 40
0.0
 40
0.125
 40
0.125
 40
0.25
 40
0.25
 40
0.375
 40
0.375
 40
0.5
 40
0.5
 40
0.625
 40
0.625
 40
0.75
 40
0.75
 40
0.875
 40
0.875
 40
1.0
 40
1.0
 40
1.0
 40
1.0
 10
2822.604935161375
 20
1772.437560969104
 30
0.0
 10
2822.577793980539
 20
1772.212799728991
 30
0.0
 10
2822.576658468102
 20
1771.989306434775
 30
0.0
 10
2822.62429639234
 20
1771.544753233024
 30
0.0
 10
2822.674148728115
 20
1771.321556268322
 30
0.0
 10
2822.823778639339
 20
1770.901011404693
 30
0.0
 10
2822.923275158445
 20
1770.700588166519
 30
0.0
 10
2823.171076967857
 20
1770.322137965051
 30
0.0
 10
2823.314704560872
 20
1770.150996830119
 30
0.0
 10
2823.641303906119
 20
1769.844782369437
 30
0.0
 10
2823.825860837725
 20
1769.709775364561
 30
0.0
 10
2824.216947750832
 20
1769.49596038974
 30
0.0
 10
2824.428635628687
 20
1769.414226139476
 30
0.0
 10
2824.865583328836
 20
1769.307238239047
 30
0.0
 10
2825.087609262781
 20
1769.281854036713
 30
0.0
 10
2825.539015860587
 20
1769.289287975057
 30
0.0
 10
2825.763003499979
 20
1769.322365553368
 30
0.0
 10
2825.98015905652
 20
1769.387654176444
 30
0.0
  0
LINE
  5
1A5
330
23
100
AcDbEntity
  8
0
  6
Continuous
 62
     7
370
    25
100
AcDbLine
 10
2771.287760643
 20
237.5062649258
 30
0.0
 11
2771.287760643
 21
241.0062649258
 31
0.0
  0
LINE
  5
1A6
330
23
100
AcDbEntity
  8
0
  6
Continuous
 62
     7
370
    25
100
AcDbLine
 10
2771.287760643
 20
1784.7062649258
 30
0.0
 11
2771.287760643
 21
1788.2062649258
 31
0.0
  0
LINE
  5
1A7
330
23
100
AcDbEntity
  8
0
  6
Continuous
 62
     7
370
    25
100
AcDbLine
 10
2771.287760643
 20
1755.4062649258
 30
0.0
 11
2771.287760643
 21
1758.9062649258
 31
0.0
  0
LINE
  5
1A8
330
23
100
AcDbEntity
  8
0
  6
Continuous
 62
     7
370
    25
100
AcDbLine
 10
2771.287760643
 20
208.2062649258
 30
0.0
 11
2771.287760643
 21
211.7062649258
 31
0.0
  0
LINE
  5
1A9
330
23
100
AcDbEntity
  8
0
  6
Continuous
 62
     7
370
    25
100
AcDbLine
 10
2769.787760643
 20
241.0062649258
 30
0.0
 11
2769.787760643
 21
1755.4062649258
 31
0.0
  0
LINE
  5
1AA
330
23
100
AcDbEntity
  8
0
  6
Continuous
 62
     7
370
    25
100
AcDbLine
 10
2769.787760643
 20
1788.2062649258
 30
0.0
 11
2769.787760643
 21
1973.2062649258
 31
0.0
  0
LINE
  5
1AB
330
23
100
AcDbEntity
  8
0
  6
Continuous
 62
     7
370
    25
100
AcDbLine
 10
2769.787760643
 20
23.2062649258
 30
0.0
 11
2769.787760643
 21
208.2062649258
 31
0.0
  0
LINE
  5
1AC
330
23
100
AcDbEntity
  8
0
  6
Continuous
 62
     7
370
    25
100
AcDbLine
 10
2757.787760643
 20
1784.3062649258
 30
0.0
 11
2757.787760643
 21
1759.3062649258
 31
0.0
  0
LINE
  5
1AD
330
23
100
AcDbEntity
  8
0
  6
Continuous
 62
     7
370
    25
100
AcDbLine
 10
2757.787760643
 20
237.1062649258
 30
0.0
 11
2757.787760643
 21
212.1062649258
 31
0.0
  0
LINE
  5
1AE
330
23
100
AcDbEntity
  8
0
  6
Continuous
 62
     7
370
    25
100
AcDbLine
 10
2751.787760643
 20
1788.2062649258
 30
0.0
 11
2751.787760643
 21
1755.4062649258
 31
0.0
  0
LINE
  5
1AF
330
23
100
AcDbEntity
  8
0
  6
Continuous
 62
     7
370
    25
100
AcDbLine
 10
2763.787760643
 20
1973.2062649258
 30
0.0
 11
2763.787760643
 21
1784.7062649258
 31
0.0
  0
LINE
  5
1B0
330
23
100
AcDbEntity
  8
0
  6
Continuous
 62
     7
370
    25
100
AcDbLine
 10
2755.287760643
 20
1784.7062649258
 30
0.0
 11
2771.287760643
 21
1784.7062649258
 31
0.0
  0
LINE
  5
1B1
330
23
100
AcDbEntity
  8
0
  6
Continuous
 62
     7
370
    25
100
AcDbLine
 10
2755.287760643
 20
1784.7062649258
 30
0.0
 11
2755.287760643
 21
1758.9062649258
 31
0.0
  0
LINE
  5
1B2
330
23
100
AcDbEntity
  8
0
  6
Continuous
 62
     7
370
    25
100
AcDbLine
 10
2755.287760643
 20
1758.9062649258
 30
0.0
 11
2771.287760643
 21
1758.9062649258
 31
0.0
  0
LINE
  5
1B3
330
23
100
AcDbEntity
  8
0
  6
Continuous
 62
     7
370
    25
100
AcDbLine
 10
2751.787760643
 20
1755.4062649258
 30
0.0
 11
2771.287760643
 21
1755.4062649258
 31
0.0
  0
LINE
  5
1B4
330
23
100
AcDbEntity
  8
0
  6
Continuous
 62
     7
370
    25
100
AcDbLine
 10
2751.787760643
 20
1788.2062649258
 30
0.0
 11
2771.287760643
 21
1788.2062649258
 31
0.0
  0
LINE
  5
1B5
330
23
100
AcDbEntity
  8
0
  6
Continuous
 62
     7
370
    25
100
AcDbLine
 10
2763.787760643
 20
1758.9062649258
 30
0.0
 11
2763.787760643
 21
237.5062649258
 31
0.0
  0
LINE
  5
1B6
330
23
100
AcDbEntity
  8
0
  6
Continuous
 62
     7
370
    25
100
AcDbLine
 10
2755.287760643
 20
237.5062649258
 30
0.0
 11
2771.287760643
 21
237.5062649258
 31
0.0
  0
LINE
  5
1B7
330
23
100
AcDbEntity
  8
0
  6
Continuous
 62
     7
370
    25
100
AcDbLine
 10
2755.287760643
 20
211.7062649258
 30
0.0
 11
2755.287760643
 21
237.5062649258
 31
0.0
  0
LINE
  5
1B8
330
23
100
AcDbEntity
  8
0
  6
Continuous
 62
     7
370
    25
100
AcDbLine
 10
2755.287760643
 20
211.7062649258
 30
0.0
 11
2771.287760643
 21
211.7062649258
 31
0.0
  0
LINE
  5
1B9
330
23
100
AcDbEntity
  8
0
  6
Continuous
 62
     7
370
    25
100
AcDbLine
 10
2763.787760643
 20
211.7062649258
 30
0.0
 11
2763.787760643
 21
23.2062649258
 31
0.0
  0
LINE
  5
1BA
330
23
100
AcDbEntity
  8
0
  6
Continuous
 62
     7
370
    25
100
AcDbLine
 10
2751.787760643
 20
208.2062649258
 30
0.0
 11
2771.287760643
 21
208.2062649258
 31
0.0
  0
LINE
  5
1BB
330
23
100
AcDbEntity
  8
0
  6
Continuous
 62
     7
370
    25
100
AcDbLine
 10
2751.787760643
 20
241.0062649258
 30
0.0
 11
2771.287760643
 21
241.0062649258
 31
0.0
  0
LINE
  5
1BC
330
23
100
AcDbEntity
  8
0
  6
Continuous
 62
     7
370
    25
100
AcDbLine
 10
2751.787760643
 20
208.2062649258
 30
0.0
 11
2751.787760643
 21
241.0062649258
 31
0.0
  0
LINE
  5
1BD
330
23
100
AcDbEntity
  8
0
  6
Continuous
 62
     7
370
    25
100
AcDbLine
 10
2746.287760643
 20
1973.2062649258
 30
0.0
 11
2746.287760643
 21
23.2062649258
 31
0.0
  0
LINE
  5
1BE
330
23
100
AcDbEntity
  8
0
  6
Continuous
 62
     7
370
    25
100
AcDbLine
 10
2729.787760643
 20
23.2062649258
 30
0.0
 11
2769.787760643
 21
23.2062649258
 31
0.0
  0
LINE
  5
1BF
330
23
100
AcDbEntity
  8
0
  6
Continuous
 62
     7
370
    25
100
AcDbLine
 10
2729.787760643
 20
1973.2062649258
 30
0.0
 11
2769.787760643
 21
1973.2062649258
 31
0.0
  0
LINE
  5
1C0
330
23
100
AcDbEntity
  8
0
  6
Continuous
 62
     7
370
    25
100
AcDbLine
 10
2729.787760643
 20
1973.2062649258
 30
0.0
 11
2729.787760643
 21
23.2062649258
 31
0.0
  0
LINE
  5
1C1
330
23
100
AcDbEntity
  8
0
  6
Continuous
 62
     7
370
    25
100
AcDbLine
 10
2763.787760643
 20
1784.3062649258
 30
0.0
 11
2763.787760643
 21
1759.3062649258
 31
0.0
  0
LINE
  5
1C2
330
23
100
AcDbEntity
  8
0
  6
Continuous
 62
     7
370
    25
100
AcDbLine
 10
2757.787760643
 20
1759.3062649258
 30
0.0
 11
2772.787760643
 21
1759.3062649258
 31
0.0
  0
LINE
  5
1C3
330
23
100
AcDbEntity
  8
0
  6
Continuous
 62
     7
370
    25
100
AcDbLine
 10
2772.787760643
 20
1784.3062649258
 30
0.0
 11
2757.787760643
 21
1784.3062649258
 31
0.0
  0
LINE
  5
1C4
330
23
100
AcDbEntity
  8
0
  6
Continuous
 62
     7
370
    25
100
AcDbLine
 10
2772.787760643
 20
1759.3062649258
 30
0.0
 11
2772.787760643
 21
1748.8062649258
 31
0.0
  0
LINE
  5
1C5
330
23
100
AcDbEntity
  8
0
  6
Continuous
 62
     7
370
    25
100
AcDbLine
 10
2774.787760643
 20
1796.8062649258
 30
0.0
 11
2836.287760643
 21
1796.8062649258
 31
0.0
  0
LINE
  5
1C6
330
23
100
AcDbEntity
  8
0
  6
Continuous
 62
     7
370
    25
100
AcDbLine
 10
2774.787760643
 20
1746.8062649258
 30
0.0
 11
2836.287760643
 21
1746.8062649258
 31
0.0
  0
LINE
  5
1C7
330
23
100
AcDbEntity
  8
0
  6
Continuous
 62
     7
370
    25
100
AcDbLine
 10
2772.787760643
 20
1794.8062649258
 30
0.0
 11
2772.787760643
 21
1784.3062649258
 31
0.0
  0
LINE
  5
1C8
330
23
100
AcDbEntity
  8
0
  6
Continuous
 62
     7
370
    25
100
AcDbLine
 10
2838.287760643
 20
1794.8062649258
 30
0.0
 11
2838.287760643
 21
1748.8062649258
 31
0.0
  0
LINE
  5
1C9
330
23
100
AcDbEntity
  8
0
  6
Continuous
 62
     7
370
    25
100
AcDbLine
 10
2763.787760643
 20
237.1062649258
 30
0.0
 11
2763.787760643
 21
212.1062649258
 31
0.0
  0
LINE
  5
1CA
330
23
100
AcDbEntity
  8
0
  6
Continuous
 62
     7
370
    25
100
AcDbLine
 10
2757.787760643
 20
212.1062649258
 30
0.0
 11
2772.787760643
 21
212.1062649258
 31
0.0
  0
LINE
  5
1CB
330
23
100
AcDbEntity
  8
0
  6
Continuous
 62
     7
370
    25
100
AcDbLine
 10
2772.787760643
 20
237.1062649258
 30
0.0
 11
2757.787760643
 21
237.1062649258
 31
0.0
  0
LINE
  5
1CC
330
23
100
AcDbEntity
  8
0
  6
Continuous
 62
     7
370
    25
100
AcDbLine
 10
2772.787760643
 20
212.1062649258
 30
0.0
 11
2772.787760643
 21
201.6062649258
 31
0.0
  0
LINE
  5
1CD
330
23
100
AcDbEntity
  8
0
  6
Continuous
 62
     7
370
    25
100
AcDbLine
 10
2774.787760643
 20
199.6062649258
 30
0.0
 11
2836.287760643
 21
199.6062649258
 31
0.0
  0
LINE
  5
1CE
330
23
100
AcDbEntity
  8
0
  6
Continuous
 62
     7
370
    25
100
AcDbLine
 10
2774.787760643
 20
249.6062649258
 30
0.0
 11
2836.287760643
 21
249.6062649258
 31
0.0
  0
LINE
  5
1CF
330
23
100
AcDbEntity
  8
0
  6
Continuous
 62
     7
370
    25
100
AcDbLine
 10
2838.287760643
 20
247.6062649258
 30
0.0
 11
2838.287760643
 21
201.6062649258
 31
0.0
  0
LINE
  5
1D0
330
23
100
AcDbEntity
  8
0
  6
Continuous
 62
     7
370
    25
100
AcDbLine
 10
2772.787760643
 20
247.6062649258
 30
0.0
 11
2772.787760643
 21
237.1062649258
 31
0.0
  0
LINE
  5
1D1
330
23
100
AcDbEntity
  8
0
  6
Continuous
 62
     7
370
    25
100
AcDbLine
 10
2775.037760643
 20
1956.8062649258
 30
0.0
 11
3075.037760643
 21
1956.8062649258
 31
0.0
  0
LINE
  5
1D2
330
23
100
AcDbEntity
  8
0
  6
Continuous
 62
     7
370
    25
100
AcDbLine
 10
3074.037760643
 20
1955.8062649258
 30
0.0
 11
3075.037760643
 21
1956.8062649258
 31
0.0
  0
LINE
  5
1D3
330
23
100
AcDbEntity
  8
0
  6
Continuous
 62
     7
370
    25
100
AcDbLine
 10
3074.037760643
 20
1955.8062649258
 30
0.0
 11
2776.037760643
 21
1955.8062649258
 31
0.0
  0
LINE
  5
1D4
330
23
100
AcDbEntity
  8
0
  6
Continuous
 62
     7
370
    25
100
AcDbLine
 10
2775.037760643
 20
1956.8062649258
 30
0.0
 11
2776.037760643
 21
1955.8062649258
 31
0.0
  0
LINE
  5
1D5
330
23
100
AcDbEntity
  8
0
  6
Continuous
 62
     7
370
    25
100
AcDbLine
 10
3074.037760643
 20
32.8062649258
 30
0.0
 11
3074.037760643
 21
1955.8062649258
 31
0.0
  0
LINE
  5
1D6
330
23
100
AcDbEntity
  8
0
  6
Continuous
 62
     7
370
    25
100
AcDbLine
 10
3075.037760643
 20
1956.8062649258
 30
0.0
 11
3075.037760643
 21
31.8062649258
 31
0.0
  0
LINE
  5
1D7
330
23
100
AcDbEntity
  8
0
  6
Continuous
 62
     7
370
    25
100
AcDbLine
 10
3074.037760643
 20
32.8062649258
 30
0.0
 11
3075.037760643
 21
31.8062649258
 31
0.0
  0
LINE
  5
1D8
330
23
100
AcDbEntity
  8
0
  6
Continuous
 62
     7
370
    25
100
AcDbLine
 10
2776.037760643
 20
32.8062649258
 30
0.0
 11
3074.037760643
 21
32.8062649258
 31
0.0
  0
LINE
  5
1D9
330
23
100
AcDbEntity
  8
0
  6
Continuous
 62
     7
370
    25
100
AcDbLine
 10
2776.037760643
 20
1955.8062649258
 30
0.0
 11
2776.037760643
 21
1796.8062649258
 31
0.0
  0
LINE
  5
1DA
330
23
100
AcDbEntity
  8
0
  6
Continuous
 62
     7
370
    25
100
AcDbLine
 10
2776.037760643
 20
1746.8062649258
 30
0.0
 11
2776.037760643
 21
249.6062649258
 31
0.0
  0
LINE
  5
1DB
330
23
100
AcDbEntity
  8
0
  6
Continuous
 62
     7
370
    25
100
AcDbLine
 10
2776.037760643
 20
199.6062649258
 30
0.0
 11
2776.037760643
 21
32.8062649258
 31
0.0
  0
LINE
  5
1DC
330
23
100
AcDbEntity
  8
0
  6
Continuous
 62
     7
370
    25
100
AcDbLine
 10
2775.037760643
 20
31.8062649258
 30
0.0
 11
2775.037760643
 21
199.6062649258
 31
0.0
  0
LINE
  5
1DD
330
23
100
AcDbEntity
  8
0
  6
Continuous
 62
     7
370
    25
100
AcDbLine
 10
2775.037760643
 20
249.6062649258
 30
0.0
 11
2775.037760643
 21
1746.8062649258
 31
0.0
  0
LINE
  5
1DE
330
23
100
AcDbEntity
  8
0
  6
Continuous
 62
     7
370
    25
100
AcDbLine
 10
2775.037760643
 20
1796.8062649258
 30
0.0
 11
2775.037760643
 21
1956.8062649258
 31
0.0
  0
LINE
  5
1DF
330
23
100
AcDbEntity
  8
0
  6
Continuous
 62
     7
370
    25
100
AcDbLine
 10
2775.037760643
 20
31.8062649258
 30
0.0
 11
2776.037760643
 21
32.8062649258
 31
0.0
  0
LINE
  5
1E0
330
23
100
AcDbEntity
  8
0
  6
Continuous
 62
     7
370
    25
100
AcDbLine
 10
3075.037760643
 20
31.8062649258
 30
0.0
 11
2775.037760643
 21
31.8062649258
 31
0.0
  0
ARC
  5
1E1
330
23
100
AcDbEntity
  8
0
  6
Continuous
 62
     7
370
    25
100
AcDbCircle
 10
2774.787760643
 20
1748.8062649258
 30
0.0
 40
2.000000000000455
100
AcDbArc
 50
180.0
 51
270.0
  0
ARC
  5
1E2
330
23
100
AcDbEntity
  8
0
  6
Continuous
 62
     7
370
    25
100
AcDbCircle
 10
2836.287760643
 20
1748.8062649258
 30
0.0
 40
2.000000000000909
100
AcDbArc
 50
270.0
 51
360.0
  0
ARC
  5
1E3
330
23
100
AcDbEntity
  8
0
  6
Continuous
 62
     7
370
    25
100
AcDbCircle
 10
2774.787760643
 20
1794.8062649258
 30
0.0
 40
1.999999999999545
100
AcDbArc
 50
90.0
 51
180.0
  0
ARC
  5
1E4
330
23
100
AcDbEntity
  8
0
  6
Continuous
 62
     7
370
    25
100
AcDbCircle
 10
2836.287760643
 20
1794.8062649258
 30
0.0
 40
2.0
100
AcDbArc
 50
360.0
 51
90.0
  0
ARC
  5
1E5
330
23
100
AcDbEntity
  8
0
  6
Continuous
 62
     7
370
    25
100
AcDbCircle
 10
2774.787760643
 20
201.6062649258
 30
0.0
 40
2.0
100
AcDbArc
 50
180.0
 51
270.0
  0
ARC
  5
1E6
330
23
100
AcDbEntity
  8
0
  6
Continuous
 62
     7
370
    25
100
AcDbCircle
 10
2836.287760643
 20
201.6062649258
 30
0.0
 40
2.000000000000909
100
AcDbArc
 50
270.0
 51
360.0
  0
ARC
  5
1E7
330
23
100
AcDbEntity
  8
0
  6
Continuous
 62
     7
370
    25
100
AcDbCircle
 10
2836.287760643
 20
247.6062649258
 30
0.0
 40
1.999999999999716
100
AcDbArc
 50
360.0
 51
90.0
  0
ARC
  5
1E8
330
23
100
AcDbEntity
  8
0
  6
Continuous
 62
     7
370
    25
100
AcDbCircle
 10
2774.787760643
 20
247.6062649258
 30
0.0
 40
1.999999999999631
100
AcDbArc
 50
90.0
 51
180.0
  0
VIEWPORT
  5
773
330
23
100
AcDbEntity
  8
0
100
AcDbViewport
 10
0.0
 20
0.0
 30
0.0
 40
205.6
 41
156.0
 68
     1
 69
     1
 12
773.8560942931
 22
998.2062649258
 13
0.0
 23
0.0
 14
10.0
 24
10.0
 15
10.0
 25
10.0
 16
0.0
 26
0.0
 36
1.0
 17
0.0
 27
0.0
 37
0.0
 42
50.0
 43
0.0
 44
0.0
 45
1989.0
 50
0.0
 51
0.0
 72
   100
 90
   557152
  1

281
     0
 71
     1
 74
     0
110
0.0
120
0.0
130
0.0
111
1.0
121
0.0
131
0.0
112
0.0
122
1.0
132
0.0
 79
     0
146
0.0
  0
ENDBLK
  5
25
330
23
100
AcDbEntity
  8
0
100
AcDbBlockEnd
  0
BLOCK
  5
1EB
330
1E9
100
AcDbEntity
  8
0
100
AcDbBlockBegin
  2
*Paper_Space1
 70
     0
 10
0.0
 20
0.0
 30
0.0
  3
*Paper_Space1
  1

  0
CIRCLE
  5
1F6
330
1E9
100
AcDbEntity
  8
0
  6
Continuous
 62
     7
370
    25
100
AcDbCircle
 10
-2801.037760643
 20
224.6062649258
 30
0.0
 40
5.999999999999862
  0
CIRCLE
  5
22B
330
1E9
100
AcDbEntity
  8
0
  6
Continuous
 62
     7
370
    25
100
AcDbCircle
 10
-2825.537760643
 20
224.6062649258
 30
0.0
 40
6.199999999999818
  0
CIRCLE
  5
22C
330
1E9
100
AcDbEntity
  8
0
  6
Continuous
 62
     7
370
    25
100
AcDbCircle
 10
-2801.037760643
 20
224.6062649258
 30
0.0
 40
6.200000000000273
  0
CIRCLE
  5
240
330
1E9
100
AcDbEntity
  8
0
  6
Continuous
 62
     7
370
    25
100
AcDbCircle
 10
-2825.537760643
 20
1771.8062649258
 30
0.0
 40
6.200000000000273
  0
CIRCLE
  5
241
330
1E9
100
AcDbEntity
  8
0
  6
Continuous
 62
     7
370
    25
100
AcDbCircle
 10
-2801.037760643
 20
1771.8062649258
 30
0.0
 40
6.200000000000728
  0
CIRCLE
  5
24B
330
1E9
100
AcDbEntity
  8
0
  6
Continuous
 62
     7
370
    25
100
AcDbCircle
 10
-2825.537760643
 20
224.6062649258
 30
0.0
 40
5.999999999999461
  0
CIRCLE
  5
251
330
1E9
100
AcDbEntity
  8
0
  6
Continuous
 62
     7
370
    25
100
AcDbCircle
 10
-2825.537760643
 20
1771.8062649258
 30
0.0
 40
5.999999999999955
  0
CIRCLE
  5
258
330
1E9
100
AcDbEntity
  8
0
  6
Continuous
 62
     7
370
    25
100
AcDbCircle
 10
-2801.037760643
 20
1771.8062649258
 30
0.0
 40
6.000000000000112
  0
LINE
  5
26B
330
1E9
100
AcDbEntity
  8
0
  6
Continuous
 62
     7
370
    25
100
AcDbLine
 10
-2771.287760643
 20
241.0062649258
 30
0.0
 11
-2771.287760643
 21
237.5062649258
 31
0.0
  0
LINE
  5
26C
330
1E9
100
AcDbEntity
  8
0
  6
Continuous
 62
     7
370
    25
100
AcDbLine
 10
-2771.287760643
 20
1788.2062649258
 30
0.0
 11
-2771.287760643
 21
1784.7062649258
 31
0.0
  0
LINE
  5
26D
330
1E9
100
AcDbEntity
  8
0
  6
Continuous
 62
     7
370
    25
100
AcDbLine
 10
-2771.287760643
 20
1758.9062649258
 30
0.0
 11
-2771.287760643
 21
1755.4062649258
 31
0.0
  0
LINE
  5
26E
330
1E9
100
AcDbEntity
  8
0
  6
Continuous
 62
     7
370
    25
100
AcDbLine
 10
-2771.287760643
 20
211.7062649258
 30
0.0
 11
-2771.287760643
 21
208.2062649258
 31
0.0
  0
LINE
  5
26F
330
1E9
100
AcDbEntity
  8
0
  6
Continuous
 62
     7
370
    25
100
AcDbLine
 10
-2769.787760643
 20
1973.2062649258
 30
0.0
 11
-2769.787760643
 21
1788.2062649258
 31
0.0
  0
LINE
  5
270
330
1E9
100
AcDbEntity
  8
0
  6
Continuous
 62
     7
370
    25
100
AcDbLine
 10
-2769.787760643
 20
208.2062649258
 30
0.0
 11
-2769.787760643
 21
23.2062649258
 31
0.0
  0
LINE
  5
271
330
1E9
100
AcDbEntity
  8
0
  6
Continuous
 62
     7
370
    25
100
AcDbLine
 10
-2769.787760643
 20
1755.4062649258
 30
0.0
 11
-2769.787760643
 21
241.0062649258
 31
0.0
  0
LINE
  5
272
330
1E9
100
AcDbEntity
  8
0
  6
Continuous
 62
     7
370
    25
100
AcDbLine
 10
-2757.787760643
 20
1759.3062649258
 30
0.0
 11
-2757.787760643
 21
1784.3062649258
 31
0.0
  0
LINE
  5
273
330
1E9
100
AcDbEntity
  8
0
  6
Continuous
 62
     7
370
    25
100
AcDbLine
 10
-2757.787760643
 20
212.1062649258
 30
0.0
 11
-2757.787760643
 21
237.1062649258
 31
0.0
  0
LINE
  5
274
330
1E9
100
AcDbEntity
  8
0
  6
Continuous
 62
     7
370
    25
100
AcDbLine
 10
-2798.2156480075
 20
225.2137298267
 30
0.0
 11
-2800.1527843614
 21
227.3540186109
 31
0.0
  0
LINE
  5
275
330
1E9
100
AcDbEntity
  8
0
  6
Continuous
 62
     7
370
    25
100
AcDbLine
 10
-2800.1527843614
 20
227.3540186109
 30
0.0
 11
-2802.9748969969
 21
226.74655371
 31
0.0
  0
LINE
  5
276
330
1E9
100
AcDbEntity
  8
0
  6
Continuous
 62
     7
370
    25
100
AcDbLine
 10
-2802.9748969969
 20
226.74655371
 30
0.0
 11
-2803.8598732785
 21
223.9988000249
 31
0.0
  0
LINE
  5
277
330
1E9
100
AcDbEntity
  8
0
  6
Continuous
 62
     7
370
    25
100
AcDbLine
 10
-2801.9227369246
 20
221.8585112406
 30
0.0
 11
-2799.1006242891
 21
222.4659761415
 31
0.0
  0
LINE
  5
278
330
1E9
100
AcDbEntity
  8
0
  6
Continuous
 62
     7
370
    25
100
AcDbLine
 10
-2799.1006242891
 20
222.4659761415
 30
0.0
 11
-2798.2156480075
 21
225.2137298267
 31
0.0
  0
LINE
  5
279
330
1E9
100
AcDbEntity
  8
0
  6
Continuous
 62
     7
370
    25
100
AcDbLine
 10
-2803.8598732785
 20
223.9988000249
 30
0.0
 11
-2801.9227369246
 21
221.8585112406
 31
0.0
  0
LINE
  5
27A
330
1E9
100
AcDbEntity
  8
0
  6
Continuous
 62
     7
370
    25
100
AcDbLine
 10
-2771.287760643
 20
1758.9062649258
 30
0.0
 11
-2755.287760643
 21
1758.9062649258
 31
0.0
  0
LINE
  5
27B
330
1E9
100
AcDbEntity
  8
0
  6
Continuous
 62
     7
370
    25
100
AcDbLine
 10
-2755.287760643
 20
1784.7062649258
 30
0.0
 11
-2755.287760643
 21
1758.9062649258
 31
0.0
  0
LINE
  5
27C
330
1E9
100
AcDbEntity
  8
0
  6
Continuous
 62
     7
370
    25
100
AcDbLine
 10
-2771.287760643
 20
1784.7062649258
 30
0.0
 11
-2755.287760643
 21
1784.7062649258
 31
0.0
  0
LINE
  5
27D
330
1E9
100
AcDbEntity
  8
0
  6
Continuous
 62
     7
370
    25
100
AcDbLine
 10
-2763.787760643
 20
1973.2062649258
 30
0.0
 11
-2763.787760643
 21
1784.7062649258
 31
0.0
  0
LINE
  5
27E
330
1E9
100
AcDbEntity
  8
0
  6
Continuous
 62
     7
370
    25
100
AcDbLine
 10
-2751.787760643
 20
1788.2062649258
 30
0.0
 11
-2751.787760643
 21
1755.4062649258
 31
0.0
  0
LINE
  5
27F
330
1E9
100
AcDbEntity
  8
0
  6
Continuous
 62
     7
370
    25
100
AcDbLine
 10
-2771.287760643
 20
1755.4062649258
 30
0.0
 11
-2751.787760643
 21
1755.4062649258
 31
0.0
  0
LINE
  5
280
330
1E9
100
AcDbEntity
  8
0
  6
Continuous
 62
     7
370
    25
100
AcDbLine
 10
-2771.287760643
 20
1788.2062649258
 30
0.0
 11
-2751.787760643
 21
1788.2062649258
 31
0.0
  0
LINE
  5
281
330
1E9
100
AcDbEntity
  8
0
  6
Continuous
 62
     7
370
    25
100
AcDbLine
 10
-2751.787760643
 20
208.2062649258
 30
0.0
 11
-2751.787760643
 21
241.0062649258
 31
0.0
  0
LINE
  5
282
330
1E9
100
AcDbEntity
  8
0
  6
Continuous
 62
     7
370
    25
100
AcDbLine
 10
-2763.787760643
 20
211.7062649258
 30
0.0
 11
-2763.787760643
 21
23.2062649258
 31
0.0
  0
LINE
  5
283
330
1E9
100
AcDbEntity
  8
0
  6
Continuous
 62
     7
370
    25
100
AcDbLine
 10
-2771.287760643
 20
211.7062649258
 30
0.0
 11
-2755.287760643
 21
211.7062649258
 31
0.0
  0
LINE
  5
284
330
1E9
100
AcDbEntity
  8
0
  6
Continuous
 62
     7
370
    25
100
AcDbLine
 10
-2755.287760643
 20
211.7062649258
 30
0.0
 11
-2755.287760643
 21
237.5062649258
 31
0.0
  0
LINE
  5
285
330
1E9
100
AcDbEntity
  8
0
  6
Continuous
 62
     7
370
    25
100
AcDbLine
 10
-2771.287760643
 20
237.5062649258
 30
0.0
 11
-2755.287760643
 21
237.5062649258
 31
0.0
  0
LINE
  5
286
330
1E9
100
AcDbEntity
  8
0
  6
Continuous
 62
     7
370
    25
100
AcDbLine
 10
-2763.787760643
 20
1758.9062649258
 30
0.0
 11
-2763.787760643
 21
237.5062649258
 31
0.0
  0
LINE
  5
287
330
1E9
100
AcDbEntity
  8
0
  6
Continuous
 62
     7
370
    25
100
AcDbLine
 10
-2771.287760643
 20
241.0062649258
 30
0.0
 11
-2751.787760643
 21
241.0062649258
 31
0.0
  0
LINE
  5
288
330
1E9
100
AcDbEntity
  8
0
  6
Continuous
 62
     7
370
    25
100
AcDbLine
 10
-2771.287760643
 20
208.2062649258
 30
0.0
 11
-2751.787760643
 21
208.2062649258
 31
0.0
  0
LINE
  5
289
330
1E9
100
AcDbEntity
  8
0
  6
Continuous
 62
     7
370
    25
100
AcDbLine
 10
-2746.287760643
 20
1973.2062649258
 30
0.0
 11
-2746.287760643
 21
23.2062649258
 31
0.0
  0
LINE
  5
28A
330
1E9
100
AcDbEntity
  8
0
  6
Continuous
 62
     7
370
    25
100
AcDbLine
 10
-2769.787760643
 20
1973.2062649258
 30
0.0
 11
-2729.787760643
 21
1973.2062649258
 31
0.0
  0
LINE
  5
28B
330
1E9
100
AcDbEntity
  8
0
  6
Continuous
 62
     7
370
    25
100
AcDbLine
 10
-2769.787760643
 20
23.2062649258
 30
0.0
 11
-2729.787760643
 21
23.2062649258
 31
0.0
  0
LINE
  5
28C
330
1E9
100
AcDbEntity
  8
0
  6
Continuous
 62
     7
370
    25
100
AcDbLine
 10
-2729.787760643
 20
1973.2062649258
 30
0.0
 11
-2729.787760643
 21
23.2062649258
 31
0.0
  0
LINE
  5
28D
330
1E9
100
AcDbEntity
  8
0
  6
Continuous
 62
     7
370
    25
100
AcDbLine
 10
-2772.787760643
 20
1759.3062649258
 30
0.0
 11
-2757.787760643
 21
1759.3062649258
 31
0.0
  0
LINE
  5
28E
330
1E9
100
AcDbEntity
  8
0
  6
Continuous
 62
     7
370
    25
100
AcDbLine
 10
-2769.6665360257
 20
1784.3062649258
 30
0.0
 11
-2769.6665360257
 21
1759.3062649258
 31
0.0
  0
LINE
  5
28F
330
1E9
100
AcDbEntity
  8
0
  6
Continuous
 62
     7
370
    25
100
AcDbLine
 10
-2757.787760643
 20
1784.3062649258
 30
0.0
 11
-2772.787760643
 21
1784.3062649258
 31
0.0
  0
LINE
  5
290
330
1E9
100
AcDbEntity
  8
0
  6
Continuous
 62
     7
370
    25
100
AcDbLine
 10
-2775.037760643
 20
1796.8062649258
 30
0.0
 11
-2774.787760643
 21
1796.8062649258
 31
0.0
  0
LINE
  5
291
330
1E9
100
AcDbEntity
  8
0
  6
Continuous
 62
     7
370
    25
100
AcDbLine
 10
-2772.787760643
 20
1784.3062649258
 30
0.0
 11
-2772.787760643
 21
1794.8062649258
 31
0.0
  0
LINE
  5
292
330
1E9
100
AcDbEntity
  8
0
  6
Continuous
 62
     7
370
    25
100
AcDbLine
 10
-2772.787760643
 20
1748.8062649258
 30
0.0
 11
-2772.787760643
 21
1759.3062649258
 31
0.0
  0
LINE
  5
293
330
1E9
100
AcDbEntity
  8
0
  6
Continuous
 62
     7
370
    25
100
AcDbLine
 10
-2775.037760643
 20
1746.8062649258
 30
0.0
 11
-2774.787760643
 21
1746.8062649258
 31
0.0
  0
LINE
  5
294
330
1E9
100
AcDbEntity
  8
0
  6
Continuous
 62
     7
370
    25
100
AcDbLine
 10
-2836.287760643
 20
199.6062649258
 30
0.0
 11
-2790.287760643
 21
199.6062649258
 31
0.0
  0
LINE
  5
295
330
1E9
100
AcDbEntity
  8
0
  6
Continuous
 62
     7
370
    25
100
AcDbLine
 10
-2838.287760643
 20
247.6062649258
 30
0.0
 11
-2838.287760643
 21
201.6062649258
 31
0.0
  0
LINE
  5
296
330
1E9
100
AcDbEntity
  8
0
  6
Continuous
 62
     7
370
    25
100
AcDbLine
 10
-2788.287760643
 20
201.6062649258
 30
0.0
 11
-2788.287760643
 21
247.6062649258
 31
0.0
  0
LINE
  5
297
330
1E9
100
AcDbEntity
  8
0
  6
Continuous
 62
     7
370
    25
100
AcDbLine
 10
-2790.287760643
 20
249.6062649258
 30
0.0
 11
-2836.287760643
 21
249.6062649258
 31
0.0
  0
LINE
  5
298
330
1E9
100
AcDbEntity
  8
0
  6
Continuous
 62
     7
370
    25
100
AcDbLine
 10
-2772.787760643
 20
212.1062649258
 30
0.0
 11
-2757.787760643
 21
212.1062649258
 31
0.0
  0
LINE
  5
299
330
1E9
100
AcDbEntity
  8
0
  6
Continuous
 62
     7
370
    25
100
AcDbLine
 10
-2769.6665360257
 20
237.1062649258
 30
0.0
 11
-2769.6665360257
 21
212.1062649258
 31
0.0
  0
LINE
  5
29A
330
1E9
100
AcDbEntity
  8
0
  6
Continuous
 62
     7
370
    25
100
AcDbLine
 10
-2757.787760643
 20
237.1062649258
 30
0.0
 11
-2772.787760643
 21
237.1062649258
 31
0.0
  0
LINE
  5
29B
330
1E9
100
AcDbEntity
  8
0
  6
Continuous
 62
     7
370
    25
100
AcDbLine
 10
-2775.037760643
 20
249.6062649258
 30
0.0
 11
-2774.787760643
 21
249.6062649258
 31
0.0
  0
LINE
  5
29C
330
1E9
100
AcDbEntity
  8
0
  6
Continuous
 62
     7
370
    25
100
AcDbLine
 10
-2772.787760643
 20
237.1062649258
 30
0.0
 11
-2772.787760643
 21
247.6062649258
 31
0.0
  0
LINE
  5
29D
330
1E9
100
AcDbEntity
  8
0
  6
Continuous
 62
     7
370
    25
100
AcDbLine
 10
-2775.037760643
 20
199.6062649258
 30
0.0
 11
-2774.787760643
 21
199.6062649258
 31
0.0
  0
LINE
  5
29E
330
1E9
100
AcDbEntity
  8
0
  6
Continuous
 62
     7
370
    25
100
AcDbLine
 10
-2772.787760643
 20
201.6062649258
 30
0.0
 11
-2772.787760643
 21
212.1062649258
 31
0.0
  0
LINE
  5
29F
330
1E9
100
AcDbEntity
  8
0
  6
Continuous
 62
     7
370
    25
100
AcDbLine
 10
-2836.287760643
 20
1746.8062649258
 30
0.0
 11
-2790.287760643
 21
1746.8062649258
 31
0.0
  0
LINE
  5
2A0
330
1E9
100
AcDbEntity
  8
0
  6
Continuous
 62
     7
370
    25
100
AcDbLine
 10
-2790.287760643
 20
1796.8062649258
 30
0.0
 11
-2836.287760643
 21
1796.8062649258
 31
0.0
  0
LINE
  5
2A1
330
1E9
100
AcDbEntity
  8
0
  6
Continuous
 62
     7
370
    25
100
AcDbLine
 10
-2788.287760643
 20
1748.8062649258
 30
0.0
 11
-2788.287760643
 21
1794.8062649258
 31
0.0
  0
LINE
  5
2A2
330
1E9
100
AcDbEntity
  8
0
  6
Continuous
 62
     7
370
    25
100
AcDbLine
 10
-2838.287760643
 20
1794.8062649258
 30
0.0
 11
-2838.287760643
 21
1748.8062649258
 31
0.0
  0
LINE
  5
2A3
330
1E9
100
AcDbEntity
  8
0
  6
Continuous
 62
     7
370
    25
100
AcDbLine
 10
-2827.4748969969
 20
226.74655371
 30
0.0
 11
-2828.3598732785
 21
223.9988000249
 31
0.0
  0
LINE
  5
2A4
330
1E9
100
AcDbEntity
  8
0
  6
Continuous
 62
     7
370
    25
100
AcDbLine
 10
-2828.3598732785
 20
223.9988000249
 30
0.0
 11
-2826.4227369246
 21
221.8585112406
 31
0.0
  0
LINE
  5
2A5
330
1E9
100
AcDbEntity
  8
0
  6
Continuous
 62
     7
370
    25
100
AcDbLine
 10
-2826.4227369246
 20
221.8585112406
 30
0.0
 11
-2823.6006242891
 21
222.4659761415
 31
0.0
  0
LINE
  5
2A6
330
1E9
100
AcDbEntity
  8
0
  6
Continuous
 62
     7
370
    25
100
AcDbLine
 10
-2823.6006242891
 20
222.4659761415
 30
0.0
 11
-2822.7156480075
 21
225.2137298267
 31
0.0
  0
LINE
  5
2A7
330
1E9
100
AcDbEntity
  8
0
  6
Continuous
 62
     7
370
    25
100
AcDbLine
 10
-2822.7156480075
 20
225.2137298267
 30
0.0
 11
-2824.6527843614
 21
227.3540186109
 31
0.0
  0
LINE
  5
2A8
330
1E9
100
AcDbEntity
  8
0
  6
Continuous
 62
     7
370
    25
100
AcDbLine
 10
-2824.6527843614
 20
227.3540186109
 30
0.0
 11
-2827.4748969969
 21
226.74655371
 31
0.0
  0
LINE
  5
2A9
330
1E9
100
AcDbEntity
  8
0
  6
Continuous
 62
     7
370
    25
100
AcDbLine
 10
-2822.7156480075
 20
1772.4137298267
 30
0.0
 11
-2824.6527843614
 21
1774.5540186109
 31
0.0
  0
LINE
  5
2AA
330
1E9
100
AcDbEntity
  8
0
  6
Continuous
 62
     7
370
    25
100
AcDbLine
 10
-2824.6527843614
 20
1774.5540186109
 30
0.0
 11
-2827.4748969969
 21
1773.94655371
 31
0.0
  0
LINE
  5
2AB
330
1E9
100
AcDbEntity
  8
0
  6
Continuous
 62
     7
370
    25
100
AcDbLine
 10
-2827.4748969969
 20
1773.94655371
 30
0.0
 11
-2828.3598732785
 21
1771.1988000249
 31
0.0
  0
LINE
  5
2AC
330
1E9
100
AcDbEntity
  8
0
  6
Continuous
 62
     7
370
    25
100
AcDbLine
 10
-2828.3598732785
 20
1771.1988000249
 30
0.0
 11
-2826.4227369246
 21
1769.0585112406
 31
0.0
  0
LINE
  5
2AD
330
1E9
100
AcDbEntity
  8
0
  6
Continuous
 62
     7
370
    25
100
AcDbLine
 10
-2826.4227369246
 20
1769.0585112406
 30
0.0
 11
-2823.6006242891
 21
1769.6659761415
 31
0.0
  0
LINE
  5
2AE
330
1E9
100
AcDbEntity
  8
0
  6
Continuous
 62
     7
370
    25
100
AcDbLine
 10
-2823.6006242891
 20
1769.6659761415
 30
0.0
 11
-2822.7156480075
 21
1772.4137298267
 31
0.0
  0
LINE
  5
2AF
330
1E9
100
AcDbEntity
  8
0
  6
Continuous
 62
     7
370
    25
100
AcDbLine
 10
-2800.1527843614
 20
1774.5540186109
 30
0.0
 11
-2802.9748969969
 21
1773.94655371
 31
0.0
  0
LINE
  5
2B0
330
1E9
100
AcDbEntity
  8
0
  6
Continuous
 62
     7
370
    25
100
AcDbLine
 10
-2802.9748969969
 20
1773.94655371
 30
0.0
 11
-2803.8598732785
 21
1771.1988000249
 31
0.0
  0
LINE
  5
2B1
330
1E9
100
AcDbEntity
  8
0
  6
Continuous
 62
     7
370
    25
100
AcDbLine
 10
-2803.8598732785
 20
1771.1988000249
 30
0.0
 11
-2801.9227369246
 21
1769.0585112406
 31
0.0
  0
LINE
  5
2B2
330
1E9
100
AcDbEntity
  8
0
  6
Continuous
 62
     7
370
    25
100
AcDbLine
 10
-2801.9227369246
 20
1769.0585112406
 30
0.0
 11
-2799.1006242891
 21
1769.6659761415
 31
0.0
  0
LINE
  5
2B3
330
1E9
100
AcDbEntity
  8
0
  6
Continuous
 62
     7
370
    25
100
AcDbLine
 10
-2799.1006242891
 20
1769.6659761415
 30
0.0
 11
-2798.2156480075
 21
1772.4137298267
 31
0.0
  0
LINE
  5
2B4
330
1E9
100
AcDbEntity
  8
0
  6
Continuous
 62
     7
370
    25
100
AcDbLine
 10
-2798.2156480075
 20
1772.4137298267
 30
0.0
 11
-2800.1527843614
 21
1774.5540186109
 31
0.0
  0
LINE
  5
2B5
330
1E9
100
AcDbEntity
  8
0
  6
Continuous
 62
     7
370
    25
100
AcDbLine
 10
-2776.037760643
 20
1955.8062649258
 30
0.0
 11
-3074.037760643
 21
1955.8062649258
 31
0.0
  0
LINE
  5
2B6
330
1E9
100
AcDbEntity
  8
0
  6
Continuous
 62
     7
370
    25
100
AcDbLine
 10
-3075.037760643
 20
1956.8062649258
 30
0.0
 11
-3074.037760643
 21
1955.8062649258
 31
0.0
  0
LINE
  5
2B7
330
1E9
100
AcDbEntity
  8
0
  6
Continuous
 62
     7
370
    25
100
AcDbLine
 10
-3075.037760643
 20
1956.8062649258
 30
0.0
 11
-2775.037760643
 21
1956.8062649258
 31
0.0
  0
LINE
  5
2B8
330
1E9
100
AcDbEntity
  8
0
  6
Continuous
 62
     7
370
    25
100
AcDbLine
 10
-2776.037760643
 20
1955.8062649258
 30
0.0
 11
-2775.037760643
 21
1956.8062649258
 31
0.0
  0
LINE
  5
2B9
330
1E9
100
AcDbEntity
  8
0
  6
Continuous
 62
     7
370
    25
100
AcDbLine
 10
-3075.037760643
 20
31.8062649258
 30
0.0
 11
-3075.037760643
 21
1956.8062649258
 31
0.0
  0
LINE
  5
2BA
330
1E9
100
AcDbEntity
  8
0
  6
Continuous
 62
     7
370
    25
100
AcDbLine
 10
-3074.037760643
 20
1955.8062649258
 30
0.0
 11
-3074.037760643
 21
32.8062649258
 31
0.0
  0
LINE
  5
2BB
330
1E9
100
AcDbEntity
  8
0
  6
Continuous
 62
     7
370
    25
100
AcDbLine
 10
-3075.037760643
 20
31.8062649258
 30
0.0
 11
-3074.037760643
 21
32.8062649258
 31
0.0
  0
LINE
  5
2BC
330
1E9
100
AcDbEntity
  8
0
  6
Continuous
 62
     7
370
    25
100
AcDbLine
 10
-2776.037760643
 20
32.8062649258
 30
0.0
 11
-2776.037760643
 21
1955.8062649258
 31
0.0
  0
LINE
  5
2BD
330
1E9
100
AcDbEntity
  8
0
  6
Continuous
 62
     7
370
    25
100
AcDbLine
 10
-2775.037760643
 20
1956.8062649258
 30
0.0
 11
-2775.037760643
 21
31.8062649258
 31
0.0
  0
LINE
  5
2BE
330
1E9
100
AcDbEntity
  8
0
  6
Continuous
 62
     7
370
    25
100
AcDbLine
 10
-2776.037760643
 20
32.8062649258
 30
0.0
 11
-2775.037760643
 21
31.8062649258
 31
0.0
  0
LINE
  5
2BF
330
1E9
100
AcDbEntity
  8
0
  6
Continuous
 62
     7
370
    25
100
AcDbLine
 10
-3074.037760643
 20
32.8062649258
 30
0.0
 11
-2776.037760643
 21
32.8062649258
 31
0.0
  0
LINE
  5
2C0
330
1E9
100
AcDbEntity
  8
0
  6
Continuous
 62
     7
370
    25
100
AcDbLine
 10
-2775.037760643
 20
31.8062649258
 30
0.0
 11
-3075.037760643
 21
31.8062649258
 31
0.0
  0
ARC
  5
2C1
330
1E9
100
AcDbEntity
  8
0
  6
Continuous
 62
     7
370
    25
100
AcDbCircle
 10
-2774.787760643
 20
1794.8062649258
 30
0.0
 40
2.000000000000455
100
AcDbArc
 50
0.0
 51
90.0
  0
ARC
  5
2C2
330
1E9
100
AcDbEntity
  8
0
  6
Continuous
 62
     7
370
    25
100
AcDbCircle
 10
-2774.787760643
 20
1748.8062649258
 30
0.0
 40
1.999999999999773
100
AcDbArc
 50
270.0
 51
0.0
  0
ARC
  5
2C3
330
1E9
100
AcDbEntity
  8
0
  6
Continuous
 62
     7
370
    25
100
AcDbCircle
 10
-2790.287760643
 20
247.6062649258
 30
0.0
 40
2.0
100
AcDbArc
 50
360.0
 51
90.0
  0
ARC
  5
2C4
330
1E9
100
AcDbEntity
  8
0
  6
Continuous
 62
     7
370
    25
100
AcDbCircle
 10
-2836.287760643
 20
247.6062649258
 30
0.0
 40
2.0
100
AcDbArc
 50
90.0
 51
180.0
  0
ARC
  5
2C5
330
1E9
100
AcDbEntity
  8
0
  6
Continuous
 62
     7
370
    25
100
AcDbCircle
 10
-2836.287760643
 20
201.6062649258
 30
0.0
 40
2.000000000000085
100
AcDbArc
 50
180.0
 51
270.0
  0
ARC
  5
2C6
330
1E9
100
AcDbEntity
  8
0
  6
Continuous
 62
     7
370
    25
100
AcDbCircle
 10
-2790.287760643
 20
201.6062649258
 30
0.0
 40
1.999999999999659
100
AcDbArc
 50
270.0
 51
0.0
  0
ARC
  5
2C7
330
1E9
100
AcDbEntity
  8
0
  6
Continuous
 62
     7
370
    25
100
AcDbCircle
 10
-2774.787760643
 20
247.6062649258
 30
0.0
 40
2.000000000000028
100
AcDbArc
 50
0.0
 51
90.0
  0
ARC
  5
2C8
330
1E9
100
AcDbEntity
  8
0
  6
Continuous
 62
     7
370
    25
100
AcDbCircle
 10
-2774.787760643
 20
201.6062649258
 30
0.0
 40
1.999999999999602
100
AcDbArc
 50
270.0
 51
0.0
  0
ARC
  5
2C9
330
1E9
100
AcDbEntity
  8
0
  6
Continuous
 62
     7
370
    25
100
AcDbCircle
 10
-2836.287760643
 20
1748.8062649258
 30
0.0
 40
2.0
100
AcDbArc
 50
180.0
 51
270.0
  0
ARC
  5
2CA
330
1E9
100
AcDbEntity
  8
0
  6
Continuous
 62
     7
370
    25
100
AcDbCircle
 10
-2836.287760643
 20
1794.8062649258
 30
0.0
 40
2.0
100
AcDbArc
 50
90.0
 51
180.0
  0
ARC
  5
2CB
330
1E9
100
AcDbEntity
  8
0
  6
Continuous
 62
     7
370
    25
100
AcDbCircle
 10
-2790.287760643
 20
1794.8062649258
 30
0.0
 40
2.0
100
AcDbArc
 50
0.0
 51
90.0
  0
ARC
  5
2CC
330
1E9
100
AcDbEntity
  8
0
  6
Continuous
 62
     7
370
    25
100
AcDbCircle
 10
-2790.287760643
 20
1748.8062649258
 30
0.0
 40
2.0
100
AcDbArc
 50
270.0
 51
0.0
  0
VIEWPORT
  5
775
330
1E9
100
AcDbEntity
  8
0
100
AcDbViewport
 10
0.0
 20
0.0
 30
0.0
 40
205.6
 41
156.0
 68
     1
 69
     1
 12
773.8560942931
 22
998.2062649258
 13
0.0
 23
0.0
 14
10.0
 24
10.0
 15
10.0
 25
10.0
 16
0.0
 26
0.0
 36
1.0
 17
0.0
 27
0.0
 37
0.0
 42
50.0
 43
0.0
 44
0.0
 45
1989.0
 50
0.0
 51
0.0
 72
   100
 90
   557152
  1

281
     0
 71
     1
 74
     0
110
0.0
120
0.0
130
0.0
111
1.0
121
0.0
131
0.0
112
0.0
122
1.0
132
0.0
 79
     0
146
0.0
  0
ENDBLK
  5
1EC
330
1E9
100
AcDbEntity
  8
0
100
AcDbBlockEnd
  0
BLOCK
  5
2CF
330
2CD
100
AcDbEntity
  8
0
100
AcDbBlockBegin
  2
*Paper_Space2
 70
     0
 10
0.0
 20
0.0
 30
0.0
  3
*Paper_Space2
  1

  0
LINE
  5
301
330
2CD
100
AcDbEntity
  8
0
  6
Continuous
 62
     7
370
    25
100
AcDbLine
 10
777.0063275028
 20
-2729.787760643
 30
0.0
 11
777.0063275028
 21
-2744.287760643
 31
0.0
  0
LINE
  5
302
330
2CD
100
AcDbEntity
  8
0
  6
Continuous
 62
     7
370
    25
100
AcDbLine
 10
779.1063275028
 20
-2746.287760643
 30
0.0
 11
779.1063275028
 21
-2729.787760643
 31
0.0
  0
LINE
  5
303
330
2CD
100
AcDbEntity
  8
0
  6
Continuous
 62
     7
370
    25
100
AcDbLine
 10
762.9063275028
 20
-2729.787760643
 30
0.0
 11
762.9063275028
 21
-2746.287760643
 31
0.0
  0
LINE
  5
304
330
2CD
100
AcDbEntity
  8
0
  6
Continuous
 62
     7
370
    25
100
AcDbLine
 10
765.0063275028
 20
-2729.787760643
 30
0.0
 11
762.9063275028
 21
-2729.787760643
 31
0.0
  0
LINE
  5
305
330
2CD
100
AcDbEntity
  8
0
  6
Continuous
 62
     7
370
    25
100
AcDbLine
 10
765.0063275028
 20
-2744.287760643
 30
0.0
 11
765.0063275028
 21
-2729.787760643
 31
0.0
  0
LINE
  5
306
330
2CD
100
AcDbEntity
  8
0
  6
Continuous
 62
     7
370
    25
100
AcDbLine
 10
777.0659489539
 20
-2745.7909152171
 30
0.0
 11
764.9467060517
 21
-2745.7909152171
 31
0.0
  0
LINE
  5
307
330
2CD
100
AcDbEntity
  8
0
  6
Continuous
 62
     7
370
    25
100
AcDbLine
 10
777.0063275028
 20
-2744.287760643
 30
0.0
 11
765.0063275028
 21
-2744.287760643
 31
0.0
  0
LINE
  5
308
330
2CD
100
AcDbEntity
  8
0
  6
Continuous
 62
     7
370
    25
100
AcDbLine
 10
779.1063275028
 20
-2729.787760643
 30
0.0
 11
777.0063275028
 21
-2729.787760643
 31
0.0
  0
LINE
  5
309
330
2CD
100
AcDbEntity
  8
0
  6
Continuous
 62
     7
370
    25
100
AcDbLine
 10
779.5067939222
 20
-2751.787760643
 30
0.0
 11
777.9862297681
 21
-2751.787760643
 31
0.0
  0
LINE
  5
30A
330
2CD
100
AcDbEntity
  8
0
  6
Continuous
 62
     7
370
    25
100
AcDbLine
 10
764.0264252374
 20
-2751.787760643
 30
0.0
 11
762.5058610833
 21
-2751.787760643
 31
0.0
  0
LINE
  5
30B
330
2CD
100
AcDbEntity
  8
0
  6
Continuous
 62
     7
370
    25
100
AcDbLine
 10
775.8588292085
 20
-2751.787760643
 30
0.0
 11
766.153825797
 21
-2751.787760643
 31
0.0
  0
LINE
  5
30C
330
2CD
100
AcDbEntity
  8
0
  6
Continuous
 62
     7
370
    25
100
AcDbLine
 10
772.2063275028
 20
-2774.787760643
 30
0.0
 11
765.0063275028
 21
-2774.787760643
 31
0.0
  0
LINE
  5
30D
330
2CD
100
AcDbEntity
  8
0
  6
Continuous
 62
     7
370
    25
100
AcDbLine
 10
772.2063275028
 20
-3074.037760643
 30
0.0
 11
772.2063275028
 21
-2771.1911382506
 31
0.0
  0
LINE
  5
30E
330
2CD
100
AcDbEntity
  8
0
  6
Continuous
 62
     7
370
    25
100
AcDbLine
 10
765.0063275028
 20
-2836.287760643
 30
0.0
 11
772.2063275028
 21
-2836.287760643
 31
0.0
  0
LINE
  5
30F
330
2CD
100
AcDbEntity
  8
0
  6
Continuous
 62
     7
370
    25
100
AcDbLine
 10
765.0063275028
 20
-2768.287760643
 30
0.0
 11
765.0063275028
 21
-2838.287760643
 31
0.0
  0
LINE
  5
310
330
2CD
100
AcDbEntity
  8
0
  6
Continuous
 62
     7
370
    25
100
AcDbLine
 10
765.0063275028
 20
-2772.787760643
 30
0.0
 11
772.2063275028
 21
-2772.787760643
 31
0.0
  0
LINE
  5
311
330
2CD
100
AcDbEntity
  8
0
  6
Continuous
 62
     7
370
    25
100
AcDbLine
 10
772.2063275028
 20
-2838.287760643
 30
0.0
 11
765.0063275028
 21
-2838.287760643
 31
0.0
  0
LINE
  5
312
330
2CD
100
AcDbEntity
  8
0
  6
Continuous
 62
     7
370
    25
100
AcDbLine
 10
785.2063275028
 20
-2790.287760643
 30
0.0
 11
780.2063275028
 21
-2790.287760643
 31
0.0
  0
LINE
  5
313
330
2CD
100
AcDbEntity
  8
0
  6
Continuous
 62
     7
370
    25
100
AcDbLine
 10
780.2063275028
 20
-2788.287760643
 30
0.0
 11
785.2063275028
 21
-2788.287760643
 31
0.0
  0
LINE
  5
314
330
2CD
100
AcDbEntity
  8
0
  6
Continuous
 62
     7
370
    25
100
AcDbLine
 10
785.2063275028
 20
-2788.287760643
 30
0.0
 11
785.2063275028
 21
-2838.287760643
 31
0.0
  0
LINE
  5
315
330
2CD
100
AcDbEntity
  8
0
  6
Continuous
 62
     7
370
    25
100
AcDbLine
 10
780.2063275028
 20
-2836.287760643
 30
0.0
 11
785.2063275028
 21
-2836.287760643
 31
0.0
  0
LINE
  5
316
330
2CD
100
AcDbEntity
  8
0
  6
Continuous
 62
     7
370
    25
100
AcDbLine
 10
785.2063275028
 20
-2838.287760643
 30
0.0
 11
780.2063275028
 21
-2838.287760643
 31
0.0
  0
LINE
  5
317
330
2CD
100
AcDbEntity
  8
0
  6
Continuous
 62
     7
370
    25
100
AcDbLine
 10
780.2063275028
 20
-2776.037760643
 30
0.0
 11
780.2063275028
 21
-3074.037760643
 31
0.0
  0
LINE
  5
318
330
2CD
100
AcDbEntity
  8
0
  6
Continuous
 62
     7
370
    25
100
AcDbLine
 10
779.2063275028
 20
-3075.037760643
 30
0.0
 11
780.2063275028
 21
-3074.037760643
 31
0.0
  0
LINE
  5
319
330
2CD
100
AcDbEntity
  8
0
  6
Continuous
 62
     7
370
    25
100
AcDbLine
 10
779.2063275028
 20
-3075.037760643
 30
0.0
 11
779.2063275028
 21
-2775.037760643
 31
0.0
  0
LINE
  5
31A
330
2CD
100
AcDbEntity
  8
0
  6
Continuous
 62
     7
370
    25
100
AcDbLine
 10
780.2063275028
 20
-2776.037760643
 30
0.0
 11
779.2063275028
 21
-2775.037760643
 31
0.0
  0
LINE
  5
31B
330
2CD
100
AcDbEntity
  8
0
  6
Continuous
 62
     7
370
    25
100
AcDbLine
 10
779.2063275028
 20
-3075.037760643
 30
0.0
 11
773.2063275028
 21
-3075.037760643
 31
0.0
  0
LINE
  5
31C
330
2CD
100
AcDbEntity
  8
0
  6
Continuous
 62
     7
370
    25
100
AcDbLine
 10
773.2063275028
 20
-2775.037760643
 30
0.0
 11
773.2063275028
 21
-3075.037760643
 31
0.0
  0
LINE
  5
31D
330
2CD
100
AcDbEntity
  8
0
  6
Continuous
 62
     7
370
    25
100
AcDbLine
 10
779.2063275028
 20
-2775.037760643
 30
0.0
 11
773.2063275028
 21
-2775.037760643
 31
0.0
  0
LINE
  5
31E
330
2CD
100
AcDbEntity
  8
0
  6
Continuous
 62
     7
370
    25
100
AcDbLine
 10
773.2063275028
 20
-2775.037760643
 30
0.0
 11
772.2063275028
 21
-2776.037760643
 31
0.0
  0
LINE
  5
31F
330
2CD
100
AcDbEntity
  8
0
  6
Continuous
 62
     7
370
    25
100
AcDbLine
 10
772.2063275028
 20
-3074.037760643
 30
0.0
 11
773.2063275028
 21
-3075.037760643
 31
0.0
  0
ARC
  5
320
330
2CD
100
AcDbEntity
  8
0
  6
Continuous
 62
     7
370
    25
100
AcDbCircle
 10
691.0396608361
 20
-2763.787760643
 30
0.0
 40
76.06666666665869
100
AcDbArc
 50
0.0
 51
13.6855468253
  0
ARC
  5
321
330
2CD
100
AcDbEntity
  8
0
  6
Continuous
 62
     7
370
    25
100
AcDbCircle
 10
850.9729941694
 20
-2763.787760643
 30
0.0
 40
73.96666666666536
100
AcDbArc
 50
166.3144531747
 51
180.0
  0
ARC
  5
322
330
2CD
100
AcDbEntity
  8
0
  6
Continuous
 62
     7
370
    25
100
AcDbCircle
 10
691.0396608361
 20
-2763.787760643
 30
0.0
 40
73.96666666666822
100
AcDbArc
 50
0.0
 51
13.6855468253
  0
ARC
  5
323
330
2CD
100
AcDbEntity
  8
0
  6
Continuous
 62
     7
370
    25
100
AcDbCircle
 10
771.0063275028
 20
-2763.787760643
 30
0.0
 40
3.900000000000091
100
AcDbArc
 50
180.0
 51
0.0
  0
ARC
  5
324
330
2CD
100
AcDbEntity
  8
0
  6
Continuous
 62
     7
370
    25
100
AcDbCircle
 10
771.0063275028
 20
-2763.787760643
 30
0.0
 40
6.0
100
AcDbArc
 50
180.0
 51
0.0
  0
ARC
  5
325
330
2CD
100
AcDbEntity
  8
0
  6
Continuous
 62
     7
370
    25
100
AcDbCircle
 10
850.9729941694
 20
-2763.787760643
 30
0.0
 40
76.06666666665869
100
AcDbArc
 50
166.3144531747
 51
180.0
  0
ARC
  5
326
330
2CD
100
AcDbEntity
  8
0
  6
Continuous
 62
     7
370
    25
100
AcDbCircle
 10
850.9729941694
 20
-2763.787760643
 30
0.0
 40
72.46666666666344
100
AcDbArc
 50
170.4682933724
 51
180.0
  0
ARC
  5
327
330
2CD
100
AcDbEntity
  8
0
  6
Continuous
 62
     7
370
    25
100
AcDbCircle
 10
691.0396608361
 20
-2763.787760643
 30
0.0
 40
72.46666666668516
100
AcDbArc
 50
0.0
 51
9.5317066276
  0
ARC
  5
328
330
2CD
100
AcDbEntity
  8
0
  6
Continuous
 62
     7
370
    25
100
AcDbCircle
 10
771.0063275028
 20
-2763.787760643
 30
0.0
 40
7.5
100
AcDbArc
 50
180.0
 51
0.0
  0
VIEWPORT
  5
777
330
2CD
100
AcDbEntity
  8
0
100
AcDbViewport
 10
0.0
 20
0.0
 30
0.0
 40
205.6
 41
156.0
 68
     1
 69
     1
 12
773.8560942931
 22
998.2062649258
 13
0.0
 23
0.0
 14
10.0
 24
10.0
 15
10.0
 25
10.0
 16
0.0
 26
0.0
 36
1.0
 17
0.0
 27
0.0
 37
0.0
 42
50.0
 43
0.0
 44
0.0
 45
1989.0
 50
0.0
 51
0.0
 72
   100
 90
   557152
  1

281
     0
 71
     1
 74
     0
110
0.0
120
0.0
130
0.0
111
1.0
121
0.0
131
0.0
112
0.0
122
1.0
132
0.0
 79
     0
146
0.0
  0
ENDBLK
  5
2D0
330
2CD
100
AcDbEntity
  8
0
100
AcDbBlockEnd
  0
BLOCK
  5
32B
330
329
100
AcDbEntity
  8
0
100
AcDbBlockBegin
  2
*Paper_Space3
 70
     0
 10
0.0
 20
0.0
 30
0.0
  3
*Paper_Space3
  1

  0
LINE
  5
35D
330
329
100
AcDbEntity
  8
0
  6
Continuous
 62
     7
370
    25
100
AcDbLine
 10
765.0063275028
 20
2729.787760643
 30
0.0
 11
762.9063275028
 21
2729.787760643
 31
0.0
  0
LINE
  5
35E
330
329
100
AcDbEntity
  8
0
  6
Continuous
 62
     7
370
    25
100
AcDbLine
 10
777.0063275028
 20
2729.787760643
 30
0.0
 11
777.0063275028
 21
2744.287760643
 31
0.0
  0
LINE
  5
35F
330
329
100
AcDbEntity
  8
0
  6
Continuous
 62
     7
370
    25
100
AcDbLine
 10
765.0063275028
 20
2744.287760643
 30
0.0
 11
765.0063275028
 21
2729.787760643
 31
0.0
  0
LINE
  5
360
330
329
100
AcDbEntity
  8
0
  6
Continuous
 62
     7
370
    25
100
AcDbLine
 10
779.1063275028
 20
2729.787760643
 30
0.0
 11
777.0063275028
 21
2729.787760643
 31
0.0
  0
LINE
  5
361
330
329
100
AcDbEntity
  8
0
  6
Continuous
 62
     7
370
    25
100
AcDbLine
 10
779.1063275028
 20
2746.287760643
 30
0.0
 11
779.1063275028
 21
2729.787760643
 31
0.0
  0
LINE
  5
362
330
329
100
AcDbEntity
  8
0
  6
Continuous
 62
     7
370
    25
100
AcDbLine
 10
762.9063275028
 20
2729.787760643
 30
0.0
 11
762.9063275028
 21
2746.287760643
 31
0.0
  0
LINE
  5
363
330
329
100
AcDbEntity
  8
0
  6
Continuous
 62
     7
370
    25
100
AcDbLine
 10
777.0659489539
 20
2745.7909152171
 30
0.0
 11
764.9467060517
 21
2745.7909152171
 31
0.0
  0
LINE
  5
364
330
329
100
AcDbEntity
  8
0
  6
Continuous
 62
     7
370
    25
100
AcDbLine
 10
777.0063275028
 20
2744.287760643
 30
0.0
 11
765.0063275028
 21
2744.287760643
 31
0.0
  0
LINE
  5
365
330
329
100
AcDbEntity
  8
0
  6
Continuous
 62
     7
370
    25
100
AcDbLine
 10
779.5067939222
 20
2751.787760643
 30
0.0
 11
777.9862297681
 21
2751.787760643
 31
0.0
  0
LINE
  5
366
330
329
100
AcDbEntity
  8
0
  6
Continuous
 62
     7
370
    25
100
AcDbLine
 10
764.0264252374
 20
2751.787760643
 30
0.0
 11
762.5058610833
 21
2751.787760643
 31
0.0
  0
LINE
  5
367
330
329
100
AcDbEntity
  8
0
  6
Continuous
 62
     7
370
    25
100
AcDbLine
 10
775.8588292085
 20
2751.787760643
 30
0.0
 11
766.153825797
 21
2751.787760643
 31
0.0
  0
LINE
  5
368
330
329
100
AcDbEntity
  8
0
  6
Continuous
 62
     7
370
    25
100
AcDbLine
 10
785.2063275028
 20
2788.287760643
 30
0.0
 11
780.2063275028
 21
2788.287760643
 31
0.0
  0
LINE
  5
369
330
329
100
AcDbEntity
  8
0
  6
Continuous
 62
     7
370
    25
100
AcDbLine
 10
780.2063275028
 20
2790.287760643
 30
0.0
 11
785.2063275028
 21
2790.287760643
 31
0.0
  0
LINE
  5
36A
330
329
100
AcDbEntity
  8
0
  6
Continuous
 62
     7
370
    25
100
AcDbLine
 10
785.2063275028
 20
2836.287760643
 30
0.0
 11
780.2063275028
 21
2836.287760643
 31
0.0
  0
LINE
  5
36B
330
329
100
AcDbEntity
  8
0
  6
Continuous
 62
     7
370
    25
100
AcDbLine
 10
780.2063275028
 20
2838.287760643
 30
0.0
 11
785.2063275028
 21
2838.287760643
 31
0.0
  0
LINE
  5
36C
330
329
100
AcDbEntity
  8
0
  6
Continuous
 62
     7
370
    25
100
AcDbLine
 10
785.2063275028
 20
2838.287760643
 30
0.0
 11
785.2063275028
 21
2788.287760643
 31
0.0
  0
LINE
  5
36D
330
329
100
AcDbEntity
  8
0
  6
Continuous
 62
     7
370
    25
100
AcDbLine
 10
765.0063275028
 20
2838.287760643
 30
0.0
 11
772.2063275028
 21
2838.287760643
 31
0.0
  0
LINE
  5
36E
330
329
100
AcDbEntity
  8
0
  6
Continuous
 62
     7
370
    25
100
AcDbLine
 10
772.2063275028
 20
2836.287760643
 30
0.0
 11
765.0063275028
 21
2836.287760643
 31
0.0
  0
LINE
  5
36F
330
329
100
AcDbEntity
  8
0
  6
Continuous
 62
     7
370
    25
100
AcDbLine
 10
765.0063275028
 20
2768.287760643
 30
0.0
 11
765.0063275028
 21
2838.287760643
 31
0.0
  0
LINE
  5
370
330
329
100
AcDbEntity
  8
0
  6
Continuous
 62
     7
370
    25
100
AcDbLine
 10
765.0063275028
 20
2774.787760643
 30
0.0
 11
772.2063275028
 21
2774.787760643
 31
0.0
  0
LINE
  5
371
330
329
100
AcDbEntity
  8
0
  6
Continuous
 62
     7
370
    25
100
AcDbLine
 10
772.2063275028
 20
2771.1911382506
 30
0.0
 11
772.2063275028
 21
3074.037760643
 31
0.0
  0
LINE
  5
372
330
329
100
AcDbEntity
  8
0
  6
Continuous
 62
     7
370
    25
100
AcDbLine
 10
772.2063275028
 20
2772.787760643
 30
0.0
 11
765.0063275028
 21
2772.787760643
 31
0.0
  0
LINE
  5
373
330
329
100
AcDbEntity
  8
0
  6
Continuous
 62
     7
370
    25
100
AcDbLine
 10
779.2063275028
 20
2775.037760643
 30
0.0
 11
779.2063275028
 21
3075.037760643
 31
0.0
  0
LINE
  5
374
330
329
100
AcDbEntity
  8
0
  6
Continuous
 62
     7
370
    25
100
AcDbLine
 10
779.2063275028
 20
2775.037760643
 30
0.0
 11
773.2063275028
 21
2775.037760643
 31
0.0
  0
LINE
  5
375
330
329
100
AcDbEntity
  8
0
  6
Continuous
 62
     7
370
    25
100
AcDbLine
 10
773.2063275028
 20
3075.037760643
 30
0.0
 11
773.2063275028
 21
2775.037760643
 31
0.0
  0
LINE
  5
376
330
329
100
AcDbEntity
  8
0
  6
Continuous
 62
     7
370
    25
100
AcDbLine
 10
779.2063275028
 20
3075.037760643
 30
0.0
 11
773.2063275028
 21
3075.037760643
 31
0.0
  0
LINE
  5
377
330
329
100
AcDbEntity
  8
0
  6
Continuous
 62
     7
370
    25
100
AcDbLine
 10
780.2063275028
 20
3074.037760643
 30
0.0
 11
780.2063275028
 21
2776.037760643
 31
0.0
  0
LINE
  5
378
330
329
100
AcDbEntity
  8
0
  6
Continuous
 62
     7
370
    25
100
AcDbLine
 10
779.2063275028
 20
3075.037760643
 30
0.0
 11
780.2063275028
 21
3074.037760643
 31
0.0
  0
LINE
  5
379
330
329
100
AcDbEntity
  8
0
  6
Continuous
 62
     7
370
    25
100
AcDbLine
 10
780.2063275028
 20
2776.037760643
 30
0.0
 11
779.2063275028
 21
2775.037760643
 31
0.0
  0
LINE
  5
37A
330
329
100
AcDbEntity
  8
0
  6
Continuous
 62
     7
370
    25
100
AcDbLine
 10
773.2063275028
 20
2775.037760643
 30
0.0
 11
772.2063275028
 21
2776.037760643
 31
0.0
  0
LINE
  5
37B
330
329
100
AcDbEntity
  8
0
  6
Continuous
 62
     7
370
    25
100
AcDbLine
 10
772.2063275028
 20
3074.037760643
 30
0.0
 11
773.2063275028
 21
3075.037760643
 31
0.0
  0
ARC
  5
37C
330
329
100
AcDbEntity
  8
0
  6
Continuous
 62
     7
370
    25
100
AcDbCircle
 10
691.0396608361
 20
2763.787760643
 30
0.0
 40
76.06666666665869
100
AcDbArc
 50
346.3144531747
 51
0.0
  0
ARC
  5
37D
330
329
100
AcDbEntity
  8
0
  6
Continuous
 62
     7
370
    25
100
AcDbCircle
 10
691.0396608361
 20
2763.787760643
 30
0.0
 40
73.96666666666823
100
AcDbArc
 50
346.3144531747
 51
0.0
  0
ARC
  5
37E
330
329
100
AcDbEntity
  8
0
  6
Continuous
 62
     7
370
    25
100
AcDbCircle
 10
771.0063275028
 20
2763.787760643
 30
0.0
 40
6.0
100
AcDbArc
 50
0.0
 51
180.0
  0
ARC
  5
37F
330
329
100
AcDbEntity
  8
0
  6
Continuous
 62
     7
370
    25
100
AcDbCircle
 10
850.9729941694
 20
2763.787760643
 30
0.0
 40
73.96666666666535
100
AcDbArc
 50
180.0
 51
193.6855468253
  0
ARC
  5
380
330
329
100
AcDbEntity
  8
0
  6
Continuous
 62
     7
370
    25
100
AcDbCircle
 10
850.9729941694
 20
2763.787760643
 30
0.0
 40
76.06666666665868
100
AcDbArc
 50
180.0
 51
193.6855468253
  0
ARC
  5
381
330
329
100
AcDbEntity
  8
0
  6
Continuous
 62
     7
370
    25
100
AcDbCircle
 10
771.0063275028
 20
2763.787760643
 30
0.0
 40
3.900000000000091
100
AcDbArc
 50
0.0
 51
180.0
  0
ARC
  5
382
330
329
100
AcDbEntity
  8
0
  6
Continuous
 62
     7
370
    25
100
AcDbCircle
 10
691.0396608361
 20
2763.787760643
 30
0.0
 40
72.46666666668523
100
AcDbArc
 50
350.4682933724
 51
360.0
  0
ARC
  5
383
330
329
100
AcDbEntity
  8
0
  6
Continuous
 62
     7
370
    25
100
AcDbCircle
 10
771.0063275028
 20
2763.787760643
 30
0.0
 40
7.5
100
AcDbArc
 50
0.0
 51
180.0
  0
ARC
  5
384
330
329
100
AcDbEntity
  8
0
  6
Continuous
 62
     7
370
    25
100
AcDbCircle
 10
850.9729941694
 20
2763.787760643
 30
0.0
 40
72.46666666666349
100
AcDbArc
 50
180.0
 51
189.5317066276
  0
VIEWPORT
  5
779
330
329
100
AcDbEntity
  8
0
100
AcDbViewport
 10
0.0
 20
0.0
 30
0.0
 40
205.6
 41
156.0
 68
     1
 69
     1
 12
773.8560942931
 22
998.2062649258
 13
0.0
 23
0.0
 14
10.0
 24
10.0
 15
10.0
 25
10.0
 16
0.0
 26
0.0
 36
1.0
 17
0.0
 27
0.0
 37
0.0
 42
50.0
 43
0.0
 44
0.0
 45
1989.0
 50
0.0
 51
0.0
 72
   100
 90
   557152
  1

281
     0
 71
     1
 74
     0
110
0.0
120
0.0
130
0.0
111
1.0
121
0.0
131
0.0
112
0.0
122
1.0
132
0.0
 79
     0
146
0.0
  0
ENDBLK
  5
32C
330
329
100
AcDbEntity
  8
0
100
AcDbBlockEnd
  0
BLOCK
  5
387
330
385
100
AcDbEntity
  8
0
100
AcDbBlockBegin
  2
*Paper_Space4
 70
     0
 10
0.0
 20
0.0
 30
0.0
  3
*Paper_Space4
  1

  0
LWPOLYLINE
  5
398
330
385
100
AcDbEntity
  8
0
  6
Continuous
 62
     7
370
    25
100
AcDbPolyline
 90
       26
 70
   128
 43
0.0
 10
-1424.5152886761
 20
-1284.7933485411
 10
-1423.5118607202
 20
-1283.8072207784
 10
-1422.6275789506
 20
-1282.6144945997
 10
-1421.918006043
 20
-1281.2901133776
 10
-1421.4277270728
 20
-1279.9172928548
 10
-1421.1875480709
 20
-1278.5822923937
 10
-1421.2125603671
 20
-1277.3689949832
 10
-1421.5011923471
 20
-1276.3536365615
 10
-1422.0353082019
 20
-1275.6000158328
 10
-1422.7813474681
 20
-1275.1554855588
 10
-1423.6924337548
 20
-1275.0479772117
 10
-1424.7113201599
 20
-1275.2842459363
 10
-1425.7739863034
 20
-1275.8494460996
 10
-1426.8136609632
 20
-1276.7080640967
 10
-1427.7650175568
 20
-1277.8061498012
 10
-1428.5682788507
 20
-1279.0747064497
 10
-1429.1729729834
 20
-1280.4340259625
 10
-1429.5411047988
 20
-1281.7986972955
 10
-1429.649543221
 20
-1283.0829731299
 10
-1429.4914746651
 20
-1284.2061576917
 10
-1429.0768311598
 20
-1285.0976771642
 10
-1428.4316662816
 20
-1285.7015141002
 10
-1427.5965181124
 20
-1285.9797272041
 10
-1426.6238620832
 20
-1285.9148353236
 10
-1425.5748137494
 20
-1285.510915854
 10
-1424.5152886761
 20
-1284.7933485411
  0
LWPOLYLINE
  5
3A8
330
385
100
AcDbEntity
  8
0
  6
Continuous
 62
     7
370
    25
100
AcDbPolyline
 90
       11
 70
   128
 43
0.0
 10
-1411.8669812427
 20
169.878157806
 10
-1412.5841902404
 20
169.3082862219
 10
-1412.9612493244
 20
168.6383619962
 10
-1412.9612493244
 20
167.9339619797
 10
-1412.5841902404
 20
167.264037754
 10
-1411.8669812427
 20
166.6941661699
 10
-1410.8798277451
 20
166.2801302285
 10
-1409.7193592098
 20
166.0624586526
 10
-1408.4991703825
 20
166.0624586526
 10
-1407.3387018471
 20
166.2801302285
 10
-1406.3515483495
 20
166.6941661699
  0
LWPOLYLINE
  5
3AE
330
385
100
AcDbEntity
  8
0
  6
Continuous
 62
     7
370
    25
100
AcDbPolyline
 90
       13
 70
   128
 43
0.0
 10
-1413.3519054832
 20
170.7353863234
 10
-1414.3054172188
 20
170.0180251242
 10
-1414.9048197538
 20
169.1826403143
 10
-1415.1092647961
 20
168.286161988
 10
-1414.9048197538
 20
167.3896836616
 10
-1414.3054172188
 20
166.5542988517
 10
-1413.3519054832
 20
165.8369376525
 10
-1412.1092647961
 20
165.2864870442
 10
-1410.6621790667
 20
164.9404593261
 10
-1409.1092647961
 20
164.8224357154
 10
-1407.5563505255
 20
164.9404593261
 10
-1406.1092647961
 20
165.2864870442
 10
-1404.866624109
 20
165.8369376525
  0
LWPOLYLINE
  5
3DB
330
385
100
AcDbEntity
  8
0
  6
Continuous
 62
     7
370
    25
100
AcDbPolyline
 90
       10
 70
   128
 43
0.0
 10
-1411.2659404787
 20
-9.6041489452
 10
-1411.0729663357
 20
-9.6448832475
 10
-1409.6055844435
 20
-9.8237731783
 10
-1408.1071931167
 20
-9.7869954682
 10
-1406.6714099827
 20
-9.5368479429
 10
-1405.387940987
 20
-9.0889595089
 10
-1404.3369756767
 20
-8.4713136786
 10
-1403.5841770581
 20
-7.7225001959
 10
-1403.176579053
 20
-6.8893039961
 10
-1403.1092647961
 20
-6.3719176744
  0
LWPOLYLINE
  5
3E7
330
385
100
AcDbEntity
  8
0
  6
Continuous
 62
     7
370
    25
100
AcDbPolyline
 90
       27
 70
   128
 43
0.0
 10
-1429.7921381458
 20
-1283.0500654988
 10
-1429.6647452705
 20
-1281.764974915
 10
-1429.2899702556
 20
-1280.4074844419
 10
-1428.6895936626
 20
-1279.0564864914
 10
-1427.8985071968
 20
-1277.7904961537
 10
-1426.9626859281
 20
-1276.6830881856
 10
-1425.9365163872
 20
-1275.7986211129
 10
-1424.8796358177
 20
-1275.188496947
 10
-1423.8534662768
 20
-1274.8881738867
 10
-1422.9176450081
 20
-1274.9151056166
 10
-1422.1265585424
 20
-1275.2677269625
 10
-1421.5261819493
 20
-1275.9255448534
 10
-1421.1514069344
 20
-1276.8503293047
 10
-1421.0240140591
 20
-1277.9883352055
 10
-1421.1514069344
 20
-1279.2734257892
 10
-1421.5261819493
 20
-1280.6309162623
 10
-1422.1265585424
 20
-1281.9819142128
 10
-1422.9176450081
 20
-1283.2479045505
 10
-1423.8534662768
 20
-1284.3553125186
 10
-1424.8796358177
 20
-1285.2397795913
 10
-1425.9365163872
 20
-1285.8499037572
 10
-1426.9626859281
 20
-1286.1502268175
 10
-1427.8985071968
 20
-1286.1232950876
 10
-1428.6895936626
 20
-1285.7706737417
 10
-1429.2899702556
 20
-1285.1128558508
 10
-1429.6647452705
 20
-1284.1880713995
 10
-1429.7921381458
 20
-1283.0500654988
  0
LWPOLYLINE
  5
3E8
330
385
100
AcDbEntity
  8
0
  6
Continuous
 62
     7
370
    25
100
AcDbPolyline
 90
       27
 70
   128
 43
0.0
 10
-1447.1162542849
 20
-1293.0510648686
 10
-1446.9888614096
 20
-1291.7659742848
 10
-1446.6140863947
 20
-1290.4084838117
 10
-1446.0137098016
 20
-1289.0574858612
 10
-1445.2226233358
 20
-1287.7914955235
 10
-1444.2868020672
 20
-1286.6840875554
 10
-1443.2606325263
 20
-1285.7996204827
 10
-1442.2037519568
 20
-1285.1894963168
 10
-1441.1775824159
 20
-1284.8891732565
 10
-1440.2417611472
 20
-1284.9161049864
 10
-1439.4506746814
 20
-1285.2687263323
 10
-1438.8502980884
 20
-1285.9265442233
 10
-1438.4755230734
 20
-1286.8513286745
 10
-1438.3481301982
 20
-1287.9893345753
 10
-1438.4755230734
 20
-1289.274425159
 10
-1438.8502980884
 20
-1290.6319156322
 10
-1439.4506746814
 20
-1291.9829135827
 10
-1440.2417611472
 20
-1293.2489039203
 10
-1441.1775824159
 20
-1294.3563118884
 10
-1442.2037519568
 20
-1295.2407789611
 10
-1443.2606325263
 20
-1295.850903127
 10
-1444.2868020672
 20
-1296.1512261873
 10
-1445.2226233358
 20
-1296.1242944574
 10
-1446.0137098016
 20
-1295.7716731116
 10
-1446.6140863947
 20
-1295.1138552206
 10
-1446.9888614096
 20
-1294.1890707693
 10
-1447.1162542849
 20
-1293.0510648686
  0
LWPOLYLINE
  5
3EF
330
385
100
AcDbEntity
  8
0
  6
Continuous
 62
     7
370
    25
100
AcDbPolyline
 90
       10
 70
   128
 43
0.0
 10
-1411.2659404787
 20
-1272.9560930948
 10
-1411.0729663357
 20
-1272.9968273972
 10
-1409.6055844435
 20
-1273.1757173279
 10
-1408.1071931167
 20
-1273.1389396178
 10
-1406.6714099827
 20
-1272.8887920926
 10
-1405.387940987
 20
-1272.4409036585
 10
-1404.3369756767
 20
-1271.8232578283
 10
-1403.5841770581
 20
-1271.0744443455
 10
-1403.176579053
 20
-1270.2412481457
 10
-1403.1092647961
 20
-1269.723861824
  0
LWPOLYLINE
  5
3F8
330
385
100
AcDbEntity
  8
0
  6
Continuous
 62
     7
370
    25
100
AcDbPolyline
 90
       27
 70
   128
 43
0.0
 10
-1429.7921381458
 20
-19.6981213491
 10
-1429.6647452705
 20
-18.4130307654
 10
-1429.2899702556
 20
-17.0555402922
 10
-1428.6895936626
 20
-15.7045423417
 10
-1427.8985071968
 20
-14.4385520041
 10
-1426.9626859281
 20
-13.331144036
 10
-1425.9365163872
 20
-12.4466769633
 10
-1424.8796358177
 20
-11.8365527974
 10
-1423.8534662768
 20
-11.5362297371
 10
-1422.9176450081
 20
-11.563161467
 10
-1422.1265585424
 20
-11.9157828128
 10
-1421.5261819493
 20
-12.5736007038
 10
-1421.1514069344
 20
-13.4983851551
 10
-1421.0240140591
 20
-14.6363910558
 10
-1421.1514069344
 20
-15.9214816396
 10
-1421.5261819493
 20
-17.2789721127
 10
-1422.1265585424
 20
-18.6299700632
 10
-1422.9176450081
 20
-19.8959604009
 10
-1423.8534662768
 20
-21.003368369
 10
-1424.8796358177
 20
-21.8878354417
 10
-1425.9365163872
 20
-22.4979596076
 10
-1426.9626859281
 20
-22.7982826679
 10
-1427.8985071968
 20
-22.771350938
 10
-1428.6895936626
 20
-22.4187295921
 10
-1429.2899702556
 20
-21.7609117011
 10
-1429.6647452705
 20
-20.8361272499
 10
-1429.7921381458
 20
-19.6981213491
  0
LWPOLYLINE
  5
3F9
330
385
100
AcDbEntity
  8
0
  6
Continuous
 62
     7
370
    25
100
AcDbPolyline
 90
       27
 70
   128
 43
0.0
 10
-1447.1162542849
 20
-29.6991207189
 10
-1446.9888614096
 20
-28.4140301352
 10
-1446.6140863947
 20
-27.0565396621
 10
-1446.0137098016
 20
-25.7055417115
 10
-1445.2226233358
 20
-24.4395513739
 10
-1444.2868020672
 20
-23.3321434058
 10
-1443.2606325263
 20
-22.4476763331
 10
-1442.2037519568
 20
-21.8375521672
 10
-1441.1775824159
 20
-21.5372291069
 10
-1440.2417611472
 20
-21.5641608368
 10
-1439.4506746814
 20
-21.9167821827
 10
-1438.8502980884
 20
-22.5746000736
 10
-1438.4755230734
 20
-23.4993845249
 10
-1438.3481301982
 20
-24.6373904256
 10
-1438.4755230734
 20
-25.9224810094
 10
-1438.8502980884
 20
-27.2799714825
 10
-1439.4506746814
 20
-28.630969433
 10
-1440.2417611472
 20
-29.8969597707
 10
-1441.1775824159
 20
-31.0043677388
 10
-1442.2037519568
 20
-31.8888348115
 10
-1443.2606325263
 20
-32.4989589774
 10
-1444.2868020672
 20
-32.7992820377
 10
-1445.2226233358
 20
-32.7723503078
 10
-1446.0137098016
 20
-32.4197289619
 10
-1446.6140863947
 20
-31.761911071
 10
-1446.9888614096
 20
-30.8371266197
 10
-1447.1162542849
 20
-29.6991207189
  0
LWPOLYLINE
  5
403
330
385
100
AcDbEntity
  8
0
  6
Continuous
 62
     7
370
    25
100
AcDbPolyline
 90
       26
 70
   128
 43
0.0
 10
-1441.8394048152
 20
-1294.794347911
 10
-1440.8359768593
 20
-1293.8082201482
 10
-1439.9516950897
 20
-1292.6154939696
 10
-1439.2421221821
 20
-1291.2911127474
 10
-1438.7518432119
 20
-1289.9182922246
 10
-1438.5116642099
 20
-1288.5832917636
 10
-1438.5366765062
 20
-1287.369994353
 10
-1438.8253084862
 20
-1286.3546359314
 10
-1439.359424341
 20
-1285.6010152026
 10
-1440.1054636072
 20
-1285.1564849287
 10
-1441.0165498939
 20
-1285.0489765815
 10
-1442.035436299
 20
-1285.2852453061
 10
-1443.0981024424
 20
-1285.8504454694
 10
-1444.1377771023
 20
-1286.7090634666
 10
-1445.0891336959
 20
-1287.807149171
 10
-1445.8923949897
 20
-1289.0757058195
 10
-1446.4970891225
 20
-1290.4350253323
 10
-1446.8652209379
 20
-1291.7996966653
 10
-1446.9736593601
 20
-1293.0839724997
 10
-1446.8155908042
 20
-1294.2071570615
 10
-1446.4009472989
 20
-1295.0986765341
 10
-1445.7557824206
 20
-1295.70251347
 10
-1444.9206342514
 20
-1295.980726574
 10
-1443.9479782222
 20
-1295.9158346934
 10
-1442.8989298885
 20
-1295.5119152238
 10
-1441.8394048152
 20
-1294.794347911
  0
LWPOLYLINE
  5
410
330
385
100
AcDbEntity
  8
0
  6
Continuous
 62
     7
370
    25
100
AcDbPolyline
 90
       26
 70
   128
 43
0.0
 10
-1441.8394048152
 20
-31.4424037613
 10
-1440.8359768593
 20
-30.4562759986
 10
-1439.9516950897
 20
-29.2635498199
 10
-1439.2421221821
 20
-27.9391685978
 10
-1438.7518432119
 20
-26.566348075
 10
-1438.5116642099
 20
-25.2313476139
 10
-1438.5366765062
 20
-24.0180502033
 10
-1438.8253084862
 20
-23.0026917817
 10
-1439.359424341
 20
-22.249071053
 10
-1440.1054636072
 20
-21.804540779
 10
-1441.0165498939
 20
-21.6970324319
 10
-1442.035436299
 20
-21.9333011565
 10
-1443.0981024425
 20
-22.4985013198
 10
-1444.1377771023
 20
-23.3571193169
 10
-1445.0891336959
 20
-24.4552050214
 10
-1445.8923949897
 20
-25.7237616699
 10
-1446.4970891225
 20
-27.0830811827
 10
-1446.8652209379
 20
-28.4477525157
 10
-1446.9736593601
 20
-29.7320283501
 10
-1446.8155908042
 20
-30.8552129119
 10
-1446.4009472989
 20
-31.7467323844
 10
-1445.7557824206
 20
-32.3505693204
 10
-1444.9206342514
 20
-32.6287824243
 10
-1443.9479782222
 20
-32.5638905438
 10
-1442.8989298885
 20
-32.1599710742
 10
-1441.8394048152
 20
-31.4424037613
  0
LWPOLYLINE
  5
41D
330
385
100
AcDbEntity
  8
0
  6
Continuous
 62
     7
370
    25
100
AcDbPolyline
 90
       26
 70
   128
 43
0.0
 10
-1424.5152886761
 20
-21.4414043915
 10
-1423.5118607202
 20
-20.4552766287
 10
-1422.6275789506
 20
-19.2625504501
 10
-1421.918006043
 20
-17.9381692279
 10
-1421.4277270728
 20
-16.5653487052
 10
-1421.1875480709
 20
-15.2303482441
 10
-1421.2125603671
 20
-14.0170508335
 10
-1421.5011923471
 20
-13.0016924119
 10
-1422.0353082019
 20
-12.2480716831
 10
-1422.7813474681
 20
-11.8035414092
 10
-1423.6924337548
 20
-11.6960330621
 10
-1424.7113201599
 20
-11.9323017866
 10
-1425.7739863034
 20
-12.4975019499
 10
-1426.8136609632
 20
-13.3561199471
 10
-1427.7650175568
 20
-14.4542056516
 10
-1428.5682788507
 20
-15.7227623
 10
-1429.1729729834
 20
-17.0820818129
 10
-1429.5411047988
 20
-18.4467531459
 10
-1429.649543221
 20
-19.7310289802
 10
-1429.4914746651
 20
-20.8542135421
 10
-1429.0768311598
 20
-21.7457330146
 10
-1428.4316662816
 20
-22.3495699506
 10
-1427.5965181124
 20
-22.6277830545
 10
-1426.6238620832
 20
-22.5628911739
 10
-1425.5748137494
 20
-22.1589717043
 10
-1424.5152886761
 20
-21.4414043915
  0
LINE
  5
43D
330
385
100
AcDbEntity
  8
0
  6
Continuous
 62
     7
370
    25
100
AcDbLine
 10
-1422.4083199046
 20
-1275.3229071778
 30
0.0
 11
-1422.5497412608
 21
-1275.2412663666
 31
0.0
  0
LINE
  5
43E
330
385
100
AcDbEntity
  8
0
  6
Continuous
 62
     7
370
    25
100
AcDbLine
 10
-1428.5492536566
 20
-1285.6338527152
 30
0.0
 11
-1428.4078323004
 21
-1285.7154935264
 31
0.0
  0
LINE
  5
43F
330
385
100
AcDbEntity
  8
0
  6
Continuous
 62
     7
370
    25
100
AcDbLine
 10
-1415.1092647961
 20
168.286161988
 30
0.0
 11
-1415.1092647961
 21
149.1740276875
 31
0.0
  0
LINE
  5
440
330
385
100
AcDbEntity
  8
0
  6
Continuous
 62
     7
370
    25
100
AcDbLine
 10
-1403.1092647961
 20
-6.3719176744
 30
0.0
 11
-1403.1092647961
 21
11.7034888574
 31
0.0
  0
LINE
  5
441
330
385
100
AcDbEntity
  8
0
  6
Continuous
 62
     7
370
    25
100
AcDbLine
 10
-1454.8690427779
 20
-1313.3799094416
 30
0.0
 11
-1451.3335088719
 21
-1315.4209297211
 31
0.0
  0
LINE
  5
442
330
385
100
AcDbEntity
  8
0
  6
Continuous
 62
     7
370
    25
100
AcDbLine
 10
-1416.8067594721
 20
-1255.6184703529
 30
0.0
 11
-1420.342293378
 21
-1253.5774500734
 31
0.0
  0
LINE
  5
443
330
385
100
AcDbEntity
  8
0
  6
Continuous
 62
     7
370
    25
100
AcDbLine
 10
-1403.1092647961
 20
-1269.723861824
 30
0.0
 11
-1403.1092647961
 21
-1251.6484552922
 31
0.0
  0
LINE
  5
444
330
385
100
AcDbEntity
  8
0
  6
Continuous
 62
     7
370
    25
100
AcDbLine
 10
-1454.8690427779
 20
-50.0279652919
 30
0.0
 11
-1451.3335088719
 21
-52.0689855715
 31
0.0
  0
LINE
  5
445
330
385
100
AcDbEntity
  8
0
  6
Continuous
 62
     7
370
    25
100
AcDbLine
 10
-1416.8067594721
 20
7.7334737967
 30
0.0
 11
-1420.342293378
 21
9.7744940763
 31
0.0
  0
LINE
  5
446
330
385
100
AcDbEntity
  8
0
  6
Continuous
 62
     7
370
    25
100
AcDbLine
 10
-1439.7324360436
 20
-1285.3239065476
 30
0.0
 11
-1439.8738573999
 21
-1285.2422657365
 31
0.0
  0
LINE
  5
447
330
385
100
AcDbEntity
  8
0
  6
Continuous
 62
     7
370
    25
100
AcDbLine
 10
-1445.8733697957
 20
-1295.634852085
 30
0.0
 11
-1445.7319484394
 21
-1295.7164928962
 31
0.0
  0
LINE
  5
448
330
385
100
AcDbEntity
  8
0
  6
Continuous
 62
     7
370
    25
100
AcDbLine
 10
-1439.7324360436
 20
-21.971962398
 30
0.0
 11
-1439.8738573999
 21
-21.8903215868
 31
0.0
  0
LINE
  5
449
330
385
100
AcDbEntity
  8
0
  6
Continuous
 62
     7
370
    25
100
AcDbLine
 10
-1445.8733697957
 20
-32.2829079354
 30
0.0
 11
-1445.7319484394
 21
-32.3645487466
 31
0.0
  0
LINE
  5
44A
330
385
100
AcDbEntity
  8
0
  6
Continuous
 62
     7
370
    25
100
AcDbLine
 10
-1422.4083199046
 20
-11.9709630282
 30
0.0
 11
-1422.5497412608
 21
-11.889322217
 31
0.0
  0
LINE
  5
44B
330
385
100
AcDbEntity
  8
0
  6
Continuous
 62
     7
370
    25
100
AcDbLine
 10
-1428.5492536566
 20
-22.2819085656
 30
0.0
 11
-1428.4078323004
 21
-22.3635493768
 31
0.0
  0
LINE
  5
44C
330
385
100
AcDbEntity
  8
0
  6
Continuous
 62
     7
370
    25
100
AcDbLine
 10
-1423.4125411206
 20
-1278.8711826447
 30
0.0
 11
-1424.7823033725
 21
-1277.9142964196
 31
0.0
  0
LINE
  5
44D
330
385
100
AcDbEntity
  8
0
  6
Continuous
 62
     7
370
    25
100
AcDbLine
 10
-1424.7823033725
 20
-1277.9142964196
 30
0.0
 11
-1426.7778383544
 21
-1279.5623141271
 31
0.0
  0
LINE
  5
44E
330
385
100
AcDbEntity
  8
0
  6
Continuous
 62
     7
370
    25
100
AcDbLine
 10
-1426.7778383544
 20
-1279.5623141271
 30
0.0
 11
-1427.4036110843
 21
-1282.1672180595
 31
0.0
  0
LINE
  5
44F
330
385
100
AcDbEntity
  8
0
  6
Continuous
 62
     7
370
    25
100
AcDbLine
 10
-1427.4036110843
 20
-1282.1672180595
 30
0.0
 11
-1426.0338488324
 21
-1283.1241042846
 31
0.0
  0
LINE
  5
450
330
385
100
AcDbEntity
  8
0
  6
Continuous
 62
     7
370
    25
100
AcDbLine
 10
-1426.0338488324
 20
-1283.1241042846
 30
0.0
 11
-1424.0383138506
 21
-1281.4760865771
 31
0.0
  0
LINE
  5
451
330
385
100
AcDbEntity
  8
0
  6
Continuous
 62
     7
370
    25
100
AcDbLine
 10
-1424.0383138506
 20
-1281.4760865771
 30
0.0
 11
-1423.4125411206
 21
-1278.8711826447
 31
0.0
  0
LINE
  5
452
330
385
100
AcDbEntity
  8
0
  6
Continuous
 62
     7
370
    25
100
AcDbLine
 10
-1427.2860398823
 20
-1281.6778044566
 30
0.0
 11
-1425.8060808035
 21
-1280.4555764374
 31
0.0
  0
LINE
  5
453
330
385
100
AcDbEntity
  8
0
  6
Continuous
 62
     7
370
    25
100
AcDbLine
 10
-1425.8060808035
 20
-1280.4555764374
 30
0.0
 11
-1425.2978792756
 21
-1278.3400861078
 31
0.0
  0
LINE
  5
454
330
385
100
AcDbEntity
  8
0
  6
Continuous
 62
     7
370
    25
100
AcDbLine
 10
-1424.9007087165
 20
-1278.0120817781
 30
0.0
 11
-1423.4125411206
 21
-1278.8711826447
 31
0.0
  0
LINE
  5
455
330
385
100
AcDbEntity
  8
0
  6
Continuous
 62
     7
370
    25
100
AcDbLine
 10
-1425.8060808035
 20
-1280.4555764374
 30
0.0
 11
-1424.0383138506
 21
-1281.4760865771
 31
0.0
  0
LINE
  5
456
330
385
100
AcDbEntity
  8
0
  6
Continuous
 62
     7
370
    25
100
AcDbLine
 10
-1392.098773936
 20
173.1589852308
 30
0.0
 11
-1400.668372775
 21
178.106109338
 31
0.0
  0
LINE
  5
457
330
385
100
AcDbEntity
  8
0
  6
Continuous
 62
     7
370
    25
100
AcDbLine
 10
-1391.0780418759
 20
173.7969167428
 30
0.0
 11
-1399.5633232501
 21
178.6953654137
 31
0.0
  0
LINE
  5
458
330
385
100
AcDbEntity
  8
0
  6
Continuous
 62
     7
370
    25
100
AcDbLine
 10
-1380.8249935486
 20
179.7158755535
 30
0.0
 11
-1391.0780418759
 21
173.7969167428
 31
0.0
  0
LINE
  5
459
330
385
100
AcDbEntity
  8
0
  6
Continuous
 62
     7
370
    25
100
AcDbLine
 10
-1379.3400693082
 20
178.8586470361
 30
0.0
 11
-1380.8249935486
 21
179.7158755535
 31
0.0
  0
LINE
  5
45A
330
385
100
AcDbEntity
  8
0
  6
Continuous
 62
     7
370
    25
100
AcDbLine
 10
-1391.0073311977
 20
172.1232801135
 30
0.0
 11
-1379.3400693082
 21
178.8586470361
 31
0.0
  0
LINE
  5
45B
330
385
100
AcDbEntity
  8
0
  6
Continuous
 62
     7
370
    25
100
AcDbLine
 10
-1390.7951991634
 20
185.4715527418
 30
0.0
 11
-1402.462461053
 21
178.7361858193
 31
0.0
  0
LINE
  5
45C
330
385
100
AcDbEntity
  8
0
  6
Continuous
 62
     7
370
    25
100
AcDbLine
 10
-1389.3102749229
 20
184.6143242244
 30
0.0
 11
-1390.7951991634
 21
185.4715527418
 31
0.0
  0
LINE
  5
45D
330
385
100
AcDbEntity
  8
0
  6
Continuous
 62
     7
370
    25
100
AcDbLine
 10
-1399.5633232501
 20
178.6953654137
 30
0.0
 11
-1389.3102749229
 21
184.6143242244
 31
0.0
  0
LINE
  5
45E
330
385
100
AcDbEntity
  8
0
  6
Continuous
 62
     7
370
    25
100
AcDbLine
 10
-1404.866624109
 20
165.8369376525
 30
0.0
 11
-1404.866624109
 21
14.7768874536
 31
0.0
  0
LINE
  5
45F
330
385
100
AcDbEntity
  8
0
  6
Continuous
 62
     7
370
    25
100
AcDbLine
 10
-1391.0073311977
 20
172.1232801135
 30
0.0
 11
-1391.0073311977
 21
-1420.1313030637
 31
0.0
  0
LINE
  5
460
330
385
100
AcDbEntity
  8
0
  6
Continuous
 62
     7
370
    25
100
AcDbLine
 10
-1400.668372775
 20
178.106109338
 30
0.0
 11
-1400.668372775
 21
169.6600229019
 31
0.0
  0
LINE
  5
461
330
385
100
AcDbEntity
  8
0
  6
Continuous
 62
     7
370
    25
100
AcDbLine
 10
-1379.3400693082
 20
178.8586470361
 30
0.0
 11
-1379.3400693082
 21
-1413.3959361411
 31
0.0
  0
LINE
  5
462
330
385
100
AcDbEntity
  8
0
  6
Continuous
 62
     7
370
    25
100
AcDbLine
 10
-1391.0073311977
 20
-1420.1313030637
 30
0.0
 11
-1379.3400693082
 21
-1413.3959361411
 31
0.0
  0
LINE
  5
463
330
385
100
AcDbEntity
  8
0
  6
Continuous
 62
     7
370
    25
100
AcDbLine
 10
-1389.3102749229
 20
184.6143242244
 30
0.0
 11
-1389.3102749229
 21
174.8174268825
 31
0.0
  0
LINE
  5
464
330
385
100
AcDbEntity
  8
0
  6
Continuous
 62
     7
370
    25
100
AcDbLine
 10
-1394.6132459734
 20
18.6546355905
 30
0.0
 11
-1395.688447198
 21
19.2753360455
 31
0.0
  0
LINE
  5
465
330
385
100
AcDbEntity
  8
0
  6
Continuous
 62
     7
370
    25
100
AcDbLine
 10
-1403.8059639372
 20
11.3066885282
 30
0.0
 11
-1403.8059639372
 21
14.1645813698
 31
0.0
  0
LINE
  5
466
330
385
100
AcDbEntity
  8
0
  6
Continuous
 62
     7
370
    25
100
AcDbLine
 10
-1403.8059639372
 20
-9.7600644185
 30
0.0
 11
-1403.8059639372
 21
-12.6179572601
 31
0.0
  0
LINE
  5
467
330
385
100
AcDbEntity
  8
0
  6
Continuous
 62
     7
370
    25
100
AcDbLine
 10
-1397.4418391483
 20
14.5722264399
 30
0.0
 11
-1397.4418391483
 21
-6.4945265068
 31
0.0
  0
LINE
  5
468
330
385
100
AcDbEntity
  8
0
  6
Continuous
 62
     7
370
    25
100
AcDbLine
 10
-1394.6132459734
 20
18.6546355905
 30
0.0
 11
-1394.6132459734
 21
-8.1279030394
 31
0.0
  0
LINE
  5
469
330
385
100
AcDbEntity
  8
0
  6
Continuous
 62
     7
370
    25
100
AcDbLine
 10
-1403.1092647961
 20
-3.2227913212
 30
0.0
 11
-1397.4418391483
 21
-6.4945265068
 31
0.0
  0
LINE
  5
46A
330
385
100
AcDbEntity
  8
0
  6
Continuous
 62
     7
370
    25
100
AcDbLine
 10
-1394.6132459734
 20
-1244.6973085591
 30
0.0
 11
-1395.688447198
 21
-1244.0766081042
 31
0.0
  0
LINE
  5
46B
330
385
100
AcDbEntity
  8
0
  6
Continuous
 62
     7
370
    25
100
AcDbLine
 10
-1403.8059639372
 20
-1252.0452556215
 30
0.0
 11
-1403.8059639372
 21
-1249.1873627799
 31
0.0
  0
LINE
  5
46C
330
385
100
AcDbEntity
  8
0
  6
Continuous
 62
     7
370
    25
100
AcDbLine
 10
-1394.6132459734
 20
-1271.479847189
 30
0.0
 11
-1394.6132459734
 21
-1244.6973085591
 31
0.0
  0
LINE
  5
46D
330
385
100
AcDbEntity
  8
0
  6
Continuous
 62
     7
370
    25
100
AcDbLine
 10
-1403.8059639372
 20
-1273.1120085681
 30
0.0
 11
-1403.8059639372
 21
-1275.9699014097
 31
0.0
  0
LINE
  5
46E
330
385
100
AcDbEntity
  8
0
  6
Continuous
 62
     7
370
    25
100
AcDbLine
 10
-1397.4418391483
 20
-1269.8464706564
 30
0.0
 11
-1397.4418391483
 21
-1248.7797177098
 31
0.0
  0
LINE
  5
46F
330
385
100
AcDbEntity
  8
0
  6
Continuous
 62
     7
370
    25
100
AcDbLine
 10
-1397.4418391483
 20
-1269.8464706564
 30
0.0
 11
-1403.1092647961
 21
-1266.5747354708
 31
0.0
  0
LINE
  5
470
330
385
100
AcDbEntity
  8
0
  6
Continuous
 62
     7
370
    25
100
AcDbLine
 10
-1451.7478037017
 20
-1276.9443627614
 30
0.0
 11
-1455.2833376076
 21
-1274.9033424819
 31
0.0
  0
LINE
  5
471
330
385
100
AcDbEntity
  8
0
  6
Continuous
 62
     7
370
    25
100
AcDbLine
 10
-1453.8691240452
 20
-1272.4538527463
 30
0.0
 11
-1450.3335901393
 21
-1274.4948730258
 31
0.0
  0
LINE
  5
472
330
385
100
AcDbEntity
  8
0
  6
Continuous
 62
     7
370
    25
100
AcDbLine
 10
-1451.7478037017
 20
-1276.9443627614
 30
0.0
 11
-1451.7478037017
 21
-1314.5052401082
 31
0.0
  0
LINE
  5
473
330
385
100
AcDbEntity
  8
0
  6
Continuous
 62
     7
370
    25
100
AcDbLine
 10
-1417.8066782047
 20
-1255.7174864539
 30
0.0
 11
-1450.3335901393
 21
-1274.4948730258
 31
0.0
  0
LINE
  5
474
330
385
100
AcDbEntity
  8
0
  6
Continuous
 62
     7
370
    25
100
AcDbLine
 10
-1416.3924646423
 20
-1294.0950373126
 30
0.0
 11
-1416.3924646423
 21
-1256.5341599659
 31
0.0
  0
LINE
  5
475
330
385
100
AcDbEntity
  8
0
  6
Continuous
 62
     7
370
    25
100
AcDbLine
 10
-1450.3335901393
 20
-1315.3219136201
 30
0.0
 11
-1417.8066782047
 21
-1296.5445270482
 31
0.0
  0
LINE
  5
476
330
385
100
AcDbEntity
  8
0
  6
Continuous
 62
     7
370
    25
100
AcDbLine
 10
-1455.2833376076
 20
-1312.4642198286
 30
0.0
 11
-1451.7478037017
 21
-1314.5052401082
 31
0.0
  0
LINE
  5
477
330
385
100
AcDbEntity
  8
0
  6
Continuous
 62
     7
370
    25
100
AcDbLine
 10
-1455.2833376076
 20
-1274.9033424819
 30
0.0
 11
-1455.2833376076
 21
-1312.4642198286
 31
0.0
  0
LINE
  5
478
330
385
100
AcDbEntity
  8
0
  6
Continuous
 62
     7
370
    25
100
AcDbLine
 10
-1421.3422121106
 20
-1253.6764661744
 30
0.0
 11
-1453.8691240452
 21
-1272.4538527463
 31
0.0
  0
LINE
  5
479
330
385
100
AcDbEntity
  8
0
  6
Continuous
 62
     7
370
    25
100
AcDbLine
 10
-1417.8066782047
 20
-1255.7174864539
 30
0.0
 11
-1421.3422121106
 21
-1253.6764661744
 31
0.0
  0
LINE
  5
47A
330
385
100
AcDbEntity
  8
0
  6
Continuous
 62
     7
370
    25
100
AcDbLine
 10
-1451.7478037017
 20
-13.5924186118
 30
0.0
 11
-1451.7478037017
 21
-51.1532959585
 31
0.0
  0
LINE
  5
47B
330
385
100
AcDbEntity
  8
0
  6
Continuous
 62
     7
370
    25
100
AcDbLine
 10
-1417.8066782047
 20
7.6344576957
 30
0.0
 11
-1450.3335901393
 21
-11.1429288762
 31
0.0
  0
LINE
  5
47C
330
385
100
AcDbEntity
  8
0
  6
Continuous
 62
     7
370
    25
100
AcDbLine
 10
-1416.3924646423
 20
-30.743093163
 30
0.0
 11
-1416.3924646423
 21
6.8177841838
 31
0.0
  0
LINE
  5
47D
330
385
100
AcDbEntity
  8
0
  6
Continuous
 62
     7
370
    25
100
AcDbLine
 10
-1450.3335901393
 20
-51.9699694705
 30
0.0
 11
-1417.8066782047
 21
-33.1925828986
 31
0.0
  0
LINE
  5
47E
330
385
100
AcDbEntity
  8
0
  6
Continuous
 62
     7
370
    25
100
AcDbLine
 10
-1451.7478037017
 20
-13.5924186118
 30
0.0
 11
-1455.2833376076
 21
-11.5513983322
 31
0.0
  0
LINE
  5
47F
330
385
100
AcDbEntity
  8
0
  6
Continuous
 62
     7
370
    25
100
AcDbLine
 10
-1453.8691240452
 20
-9.1019085966
 30
0.0
 11
-1450.3335901393
 21
-11.1429288762
 31
0.0
  0
LINE
  5
480
330
385
100
AcDbEntity
  8
0
  6
Continuous
 62
     7
370
    25
100
AcDbLine
 10
-1455.2833376076
 20
-49.112275679
 30
0.0
 11
-1451.7478037017
 21
-51.1532959585
 31
0.0
  0
LINE
  5
481
330
385
100
AcDbEntity
  8
0
  6
Continuous
 62
     7
370
    25
100
AcDbLine
 10
-1455.2833376076
 20
-11.5513983322
 30
0.0
 11
-1455.2833376076
 21
-49.112275679
 31
0.0
  0
LINE
  5
482
330
385
100
AcDbEntity
  8
0
  6
Continuous
 62
     7
370
    25
100
AcDbLine
 10
-1421.3422121106
 20
9.6754779753
 30
0.0
 11
-1453.8691240452
 21
-9.1019085966
 31
0.0
  0
LINE
  5
483
330
385
100
AcDbEntity
  8
0
  6
Continuous
 62
     7
370
    25
100
AcDbLine
 10
-1417.8066782047
 20
7.6344576957
 30
0.0
 11
-1421.3422121106
 21
9.6754779753
 31
0.0
  0
LINE
  5
484
330
385
100
AcDbEntity
  8
0
  6
Continuous
 62
     7
370
    25
100
AcDbLine
 10
-1440.7366572597
 20
-1288.8721820145
 30
0.0
 11
-1442.1064195116
 21
-1287.9152957894
 31
0.0
  0
LINE
  5
485
330
385
100
AcDbEntity
  8
0
  6
Continuous
 62
     7
370
    25
100
AcDbLine
 10
-1442.1064195116
 20
-1287.9152957894
 30
0.0
 11
-1444.1019544934
 21
-1289.5633134969
 31
0.0
  0
LINE
  5
486
330
385
100
AcDbEntity
  8
0
  6
Continuous
 62
     7
370
    25
100
AcDbLine
 10
-1444.1019544934
 20
-1289.5633134969
 30
0.0
 11
-1444.7277272234
 21
-1292.1682174294
 31
0.0
  0
LINE
  5
487
330
385
100
AcDbEntity
  8
0
  6
Continuous
 62
     7
370
    25
100
AcDbLine
 10
-1444.7277272234
 20
-1292.1682174294
 30
0.0
 11
-1443.3579649715
 21
-1293.1251036544
 31
0.0
  0
LINE
  5
488
330
385
100
AcDbEntity
  8
0
  6
Continuous
 62
     7
370
    25
100
AcDbLine
 10
-1443.3579649715
 20
-1293.1251036544
 30
0.0
 11
-1441.3624299896
 21
-1291.477085947
 31
0.0
  0
LINE
  5
489
330
385
100
AcDbEntity
  8
0
  6
Continuous
 62
     7
370
    25
100
AcDbLine
 10
-1441.3624299896
 20
-1291.477085947
 30
0.0
 11
-1440.7366572597
 21
-1288.8721820145
 31
0.0
  0
LINE
  5
48A
330
385
100
AcDbEntity
  8
0
  6
Continuous
 62
     7
370
    25
100
AcDbLine
 10
-1444.6101560214
 20
-1291.6788038264
 30
0.0
 11
-1443.1301969426
 21
-1290.4565758072
 31
0.0
  0
LINE
  5
48B
330
385
100
AcDbEntity
  8
0
  6
Continuous
 62
     7
370
    25
100
AcDbLine
 10
-1443.1301969426
 20
-1290.4565758072
 30
0.0
 11
-1442.6219954146
 21
-1288.3410854777
 31
0.0
  0
LINE
  5
48C
330
385
100
AcDbEntity
  8
0
  6
Continuous
 62
     7
370
    25
100
AcDbLine
 10
-1442.2248248555
 20
-1288.0130811479
 30
0.0
 11
-1440.7366572597
 21
-1288.8721820145
 31
0.0
  0
LINE
  5
48D
330
385
100
AcDbEntity
  8
0
  6
Continuous
 62
     7
370
    25
100
AcDbLine
 10
-1443.1301969426
 20
-1290.4565758072
 30
0.0
 11
-1441.3624299896
 21
-1291.477085947
 31
0.0
  0
LINE
  5
48E
330
385
100
AcDbEntity
  8
0
  6
Continuous
 62
     7
370
    25
100
AcDbLine
 10
-1440.7366572597
 20
-25.5202378649
 30
0.0
 11
-1442.1064195116
 21
-24.5633516398
 31
0.0
  0
LINE
  5
48F
330
385
100
AcDbEntity
  8
0
  6
Continuous
 62
     7
370
    25
100
AcDbLine
 10
-1442.1064195116
 20
-24.5633516398
 30
0.0
 11
-1444.1019544934
 21
-26.2113693473
 31
0.0
  0
LINE
  5
490
330
385
100
AcDbEntity
  8
0
  6
Continuous
 62
     7
370
    25
100
AcDbLine
 10
-1444.1019544934
 20
-26.2113693473
 30
0.0
 11
-1444.7277272234
 21
-28.8162732797
 31
0.0
  0
LINE
  5
491
330
385
100
AcDbEntity
  8
0
  6
Continuous
 62
     7
370
    25
100
AcDbLine
 10
-1444.7277272234
 20
-28.8162732797
 30
0.0
 11
-1443.3579649715
 21
-29.7731595048
 31
0.0
  0
LINE
  5
492
330
385
100
AcDbEntity
  8
0
  6
Continuous
 62
     7
370
    25
100
AcDbLine
 10
-1443.3579649715
 20
-29.7731595048
 30
0.0
 11
-1441.3624299896
 21
-28.1251417973
 31
0.0
  0
LINE
  5
493
330
385
100
AcDbEntity
  8
0
  6
Continuous
 62
     7
370
    25
100
AcDbLine
 10
-1441.3624299896
 20
-28.1251417973
 30
0.0
 11
-1440.7366572597
 21
-25.5202378649
 31
0.0
  0
LINE
  5
494
330
385
100
AcDbEntity
  8
0
  6
Continuous
 62
     7
370
    25
100
AcDbLine
 10
-1444.6101560214
 20
-28.3268596768
 30
0.0
 11
-1443.1301969426
 21
-27.1046316576
 31
0.0
  0
LINE
  5
495
330
385
100
AcDbEntity
  8
0
  6
Continuous
 62
     7
370
    25
100
AcDbLine
 10
-1443.1301969426
 20
-27.1046316576
 30
0.0
 11
-1442.6219954146
 21
-24.989141328
 31
0.0
  0
LINE
  5
496
330
385
100
AcDbEntity
  8
0
  6
Continuous
 62
     7
370
    25
100
AcDbLine
 10
-1442.2248248555
 20
-24.6611369982
 30
0.0
 11
-1440.7366572597
 21
-25.5202378649
 31
0.0
  0
LINE
  5
497
330
385
100
AcDbEntity
  8
0
  6
Continuous
 62
     7
370
    25
100
AcDbLine
 10
-1443.1301969426
 20
-27.1046316576
 30
0.0
 11
-1441.3624299896
 21
-28.1251417973
 31
0.0
  0
LINE
  5
498
330
385
100
AcDbEntity
  8
0
  6
Continuous
 62
     7
370
    25
100
AcDbLine
 10
-1423.4125411206
 20
-15.519238495
 30
0.0
 11
-1424.7823033725
 21
-14.56235227
 31
0.0
  0
LINE
  5
499
330
385
100
AcDbEntity
  8
0
  6
Continuous
 62
     7
370
    25
100
AcDbLine
 10
-1424.7823033725
 20
-14.56235227
 30
0.0
 11
-1426.7778383544
 21
-16.2103699774
 31
0.0
  0
LINE
  5
49A
330
385
100
AcDbEntity
  8
0
  6
Continuous
 62
     7
370
    25
100
AcDbLine
 10
-1426.7778383544
 20
-16.2103699774
 30
0.0
 11
-1427.4036110843
 21
-18.8152739099
 31
0.0
  0
LINE
  5
49B
330
385
100
AcDbEntity
  8
0
  6
Continuous
 62
     7
370
    25
100
AcDbLine
 10
-1427.4036110843
 20
-18.8152739099
 30
0.0
 11
-1426.0338488324
 21
-19.772160135
 31
0.0
  0
LINE
  5
49C
330
385
100
AcDbEntity
  8
0
  6
Continuous
 62
     7
370
    25
100
AcDbLine
 10
-1426.0338488324
 20
-19.772160135
 30
0.0
 11
-1424.0383138506
 21
-18.1241424275
 31
0.0
  0
LINE
  5
49D
330
385
100
AcDbEntity
  8
0
  6
Continuous
 62
     7
370
    25
100
AcDbLine
 10
-1424.0383138506
 20
-18.1241424275
 30
0.0
 11
-1423.4125411206
 21
-15.519238495
 31
0.0
  0
LINE
  5
49E
330
385
100
AcDbEntity
  8
0
  6
Continuous
 62
     7
370
    25
100
AcDbLine
 10
-1427.2860398823
 20
-18.3258603069
 30
0.0
 11
-1425.8060808035
 21
-17.1036322877
 31
0.0
  0
LINE
  5
49F
330
385
100
AcDbEntity
  8
0
  6
Continuous
 62
     7
370
    25
100
AcDbLine
 10
-1425.8060808035
 20
-17.1036322877
 30
0.0
 11
-1425.2978792756
 21
-14.9881419582
 31
0.0
  0
LINE
  5
4A0
330
385
100
AcDbEntity
  8
0
  6
Continuous
 62
     7
370
    25
100
AcDbLine
 10
-1424.9007087165
 20
-14.6601376284
 30
0.0
 11
-1423.4125411206
 21
-15.519238495
 31
0.0
  0
LINE
  5
4A1
330
385
100
AcDbEntity
  8
0
  6
Continuous
 62
     7
370
    25
100
AcDbLine
 10
-1425.8060808035
 20
-17.1036322877
 30
0.0
 11
-1424.0383138506
 21
-18.1241424275
 31
0.0
  0
LINE
  5
4A2
330
385
100
AcDbEntity
  8
0
  6
Continuous
 62
     7
370
    25
100
AcDbLine
 10
-1411.2659404787
 20
145.3223748619
 30
0.0
 11
-1621.9837612723
 21
23.6775662003
 31
0.0
  0
LINE
  5
4A3
330
385
100
AcDbEntity
  8
0
  6
Continuous
 62
     7
370
    25
100
AcDbLine
 10
-1623.3979748347
 20
24.4941070122
 30
0.0
 11
-1621.9837612723
 21
23.6775662003
 31
0.0
  0
LINE
  5
4A4
330
385
100
AcDbEntity
  8
0
  6
Continuous
 62
     7
370
    25
100
AcDbLine
 10
-1623.3979748347
 20
24.4941070122
 30
0.0
 11
-1411.2659404787
 21
146.9553237856
 31
0.0
  0
LINE
  5
4A5
330
385
100
AcDbEntity
  8
0
  6
Continuous
 62
     7
370
    25
100
AcDbLine
 10
-1411.2659404787
 20
-1424.8857390945
 30
0.0
 11
-1411.2659404787
 21
146.9553237856
 31
0.0
  0
LINE
  5
4A6
330
385
100
AcDbEntity
  8
0
  6
Continuous
 62
     7
370
    25
100
AcDbLine
 10
-1623.3979748347
 20
-1547.3469558679
 30
0.0
 11
-1623.3979748347
 21
24.4941070122
 31
0.0
  0
LINE
  5
4A7
330
385
100
AcDbEntity
  8
0
  6
Continuous
 62
     7
370
    25
100
AcDbLine
 10
-1621.9837612723
 20
23.6775662003
 30
0.0
 11
-1621.9837612723
 21
-1546.530415056
 31
0.0
  0
LINE
  5
4A8
330
385
100
AcDbEntity
  8
0
  6
Continuous
 62
     7
370
    25
100
AcDbLine
 10
-1623.3979748347
 20
-1547.3469558679
 30
0.0
 11
-1621.9837612723
 21
-1546.530415056
 31
0.0
  0
LINE
  5
4A9
330
385
100
AcDbEntity
  8
0
  6
Continuous
 62
     7
370
    25
100
AcDbLine
 10
-1623.3979748347
 20
-1547.3469558679
 30
0.0
 11
-1627.6406155218
 21
-1544.8977315324
 31
0.0
  0
LINE
  5
4AA
330
385
100
AcDbEntity
  8
0
  6
Continuous
 62
     7
370
    25
100
AcDbLine
 10
-1627.6406155218
 20
26.9433313476
 30
0.0
 11
-1627.6406155218
 21
-1544.8977315324
 31
0.0
  0
LINE
  5
4AB
330
385
100
AcDbEntity
  8
0
  6
Continuous
 62
     7
370
    25
100
AcDbLine
 10
-1623.3979748347
 20
24.4941070122
 30
0.0
 11
-1627.6406155218
 21
26.9433313476
 31
0.0
  0
LINE
  5
4AC
330
385
100
AcDbEntity
  8
0
  6
Continuous
 62
     7
370
    25
100
AcDbLine
 10
-1415.5085811658
 20
149.404548121
 30
0.0
 11
-1627.6406155218
 21
26.9433313476
 31
0.0
  0
LINE
  5
4AD
330
385
100
AcDbEntity
  8
0
  6
Continuous
 62
     7
370
    25
100
AcDbLine
 10
-1411.2659404787
 20
146.9553237856
 30
0.0
 11
-1415.5085811658
 21
149.404548121
 31
0.0
  0
LINE
  5
4AE
330
385
100
AcDbEntity
  8
0
  6
Continuous
 62
     7
370
    25
100
AcDbLine
 10
-1621.9837612723
 20
-1546.530415056
 30
0.0
 11
-1411.2659404787
 21
-1424.8856063944
 31
0.0
  0
LINE
  5
4AF
330
385
100
AcDbEntity
  8
0
  6
Continuous
 62
     7
370
    25
100
AcDbLine
 10
-1411.2659404787
 20
-1424.8857390945
 30
0.0
 11
-1623.3979748347
 21
-1547.3469558679
 31
0.0
  0
LINE
  5
4B0
330
385
100
AcDbEntity
  8
0
  6
Continuous
 62
     8
370
    25
100
AcDbLine
 10
-1404.866624109
 20
-13.1267541607
 30
0.0
 11
-1404.866624109
 21
-1248.575056696
 31
0.0
  0
LINE
  5
4B1
330
385
100
AcDbEntity
  8
0
  6
Continuous
 62
     8
370
    25
100
AcDbLine
 10
-1404.866624109
 20
-1276.4786983103
 30
0.0
 11
-1404.866624109
 21
-1426.4176455247
 31
0.0
  0
LINE
  5
4B2
330
385
100
AcDbEntity
  8
0
  6
Continuous
 62
     8
370
    25
100
AcDbLine
 10
-1411.8669812427
 20
169.878157806
 30
0.0
 11
-1411.8669812427
 21
166.6941661699
 31
0.0
  0
ARC
  5
4B3
330
385
100
AcDbEntity
  8
0
  6
Continuous
 62
     7
370
    25
100
AcDbCircle
 10
-1423.7943598107
 20
-1277.9683593779
 30
0.0
 40
2.997684377485989
100
AcDbArc
 50
65.4685082082
 51
125.8544252506
  0
ARC
  5
4B4
330
385
100
AcDbEntity
  8
0
  6
Continuous
 62
     7
370
    25
100
AcDbCircle
 10
-1426.8062019147
 20
-1283.1905260652
 30
0.0
 40
3.001345447261
100
AcDbArc
 50
174.1916083094
 51
234.4962112972
  0
ARC
  5
4B5
330
385
100
AcDbEntity
  8
0
  6
Continuous
 62
     7
370
    25
100
AcDbCircle
 10
-1364.4173238303
 20
93.1868791421
 30
0.0
 40
84.62742127832013
100
AcDbArc
 50
109.0927229726
 51
119.7037686512
  0
ARC
  5
4B6
330
385
100
AcDbEntity
  8
0
  6
Continuous
 62
     7
370
    25
100
AcDbCircle
 10
-1441.1445836922
 20
221.4611568146
 30
0.0
 40
59.31259387266208
100
AcDbArc
 50
299.5784815148
 51
313.0331872127
  0
ARC
  5
4B7
330
385
100
AcDbEntity
  8
0
  6
Continuous
 62
     7
370
    25
100
AcDbCircle
 10
-1364.0900929047
 20
94.3589929046
 30
0.0
 40
82.29108142710614
100
AcDbArc
 50
109.0927229726
 51
119.7037686512
  0
ARC
  5
4B8
330
385
100
AcDbEntity
  8
0
  6
Continuous
 62
     7
370
    25
100
AcDbCircle
 10
-1441.8212305644
 20
220.8943148072
 30
0.0
 40
57.67512962462953
100
AcDbArc
 50
299.5784815148
 51
313.0331872127
  0
ARC
  5
4B9
330
385
100
AcDbEntity
  8
0
  6
Continuous
 62
     7
370
    25
100
AcDbCircle
 10
-1409.1256236123
 20
23.0431109291
 30
0.0
 40
9.298899252953738
100
AcDbArc
 50
256.6929876596
 51
297.2588446695
  0
ARC
  5
4BA
330
385
100
AcDbEntity
  8
0
  6
Continuous
 62
     7
370
    25
100
AcDbCircle
 10
-1365.8827368183
 20
-53.1495370505
 30
0.0
 40
78.31821380881946
100
AcDbArc
 50
112.3691111208
 51
119.8520929382
  0
ARC
  5
4BB
330
385
100
AcDbEntity
  8
0
  6
Continuous
 62
     7
370
    25
100
AcDbCircle
 10
-1364.0900929047
 20
-1497.8955902726
 30
0.0
 40
82.29108142709457
100
AcDbArc
 50
109.0927229726
 51
119.7037686512
  0
ARC
  5
4BC
330
385
100
AcDbEntity
  8
0
  6
Continuous
 62
     7
370
    25
100
AcDbCircle
 10
-1365.8827368184
 20
-1316.5014812
 30
0.0
 40
78.3182138086855
100
AcDbArc
 50
112.3691111208
 51
119.8520929382
  0
ARC
  5
4BD
330
385
100
AcDbEntity
  8
0
  6
Continuous
 62
     7
370
    25
100
AcDbCircle
 10
-1365.5319732039
 20
-52.5403318011
 30
0.0
 40
76.90542118592312
100
AcDbArc
 50
112.2187241402
 51
119.846371301
  0
ARC
  5
4BE
330
385
100
AcDbEntity
  8
0
  6
Continuous
 62
     7
370
    25
100
AcDbCircle
 10
-1409.0972844269
 20
24.3544222947
 30
0.0
 40
11.48176513438869
100
AcDbArc
 50
259.112670847
 51
297.44168345
  0
ARC
  5
4BF
330
385
100
AcDbEntity
  8
0
  6
Continuous
 62
     7
370
    25
100
AcDbCircle
 10
-1409.0972844269
 20
21.4965294531
 30
0.0
 40
11.48176513438869
100
AcDbArc
 50
259.112670847
 51
297.44168345
  0
ARC
  5
4C0
330
385
100
AcDbEntity
  8
0
  6
Continuous
 62
     7
370
    25
100
AcDbCircle
 10
-1366.7039292752
 20
-74.2330771695
 30
0.0
 40
74.38635862343034
100
AcDbArc
 50
114.4072533585
 51
119.9189687094
  0
ARC
  5
4C1
330
385
100
AcDbEntity
  8
0
  6
Continuous
 62
     7
370
    25
100
AcDbCircle
 10
-1365.5319732039
 20
-79.322870431
 30
0.0
 40
76.90542118592357
100
AcDbArc
 50
112.2187241402
 51
119.846371301
  0
ARC
  5
4C2
330
385
100
AcDbEntity
  8
0
  6
Continuous
 62
     7
370
    25
100
AcDbCircle
 10
-1366.7039292752
 20
-53.1663242229
 30
0.0
 40
74.38635862346275
100
AcDbArc
 50
114.4072533585
 51
119.9189687094
  0
ARC
  5
4C3
330
385
100
AcDbEntity
  8
0
  6
Continuous
 62
     7
370
    25
100
AcDbCircle
 10
-1409.0972844269
 20
0.4297765065
 30
0.0
 40
11.48176513439172
100
AcDbArc
 50
259.112670847
 51
297.44168345
  0
ARC
  5
4C4
330
385
100
AcDbEntity
  8
0
  6
Continuous
 62
     7
370
    25
100
AcDbCircle
 10
-1409.0972844269
 20
-2.4281163351
 30
0.0
 40
11.48176513438869
100
AcDbArc
 50
259.112670847
 51
297.44168345
  0
ARC
  5
4C5
330
385
100
AcDbEntity
  8
0
  6
Continuous
 62
     7
370
    25
100
AcDbCircle
 10
-1409.1376508857
 20
-1240.2105373765
 30
0.0
 40
9.39185035943095
100
AcDbArc
 50
256.9024150415
 51
297.0494172877
  0
ARC
  5
4C6
330
385
100
AcDbEntity
  8
0
  6
Continuous
 62
     7
370
    25
100
AcDbCircle
 10
-1365.5319732039
 20
-1315.8922759507
 30
0.0
 40
76.90542118593062
100
AcDbArc
 50
112.2187241402
 51
119.846371301
  0
ARC
  5
4C7
330
385
100
AcDbEntity
  8
0
  6
Continuous
 62
     7
370
    25
100
AcDbCircle
 10
-1409.0972844269
 20
-1238.9975218549
 30
0.0
 40
11.48176513439237
100
AcDbArc
 50
259.1126708471
 51
297.44168345
  0
ARC
  5
4C8
330
385
100
AcDbEntity
  8
0
  6
Continuous
 62
     7
370
    25
100
AcDbCircle
 10
-1409.0972844269
 20
-1241.8554146965
 30
0.0
 40
11.48176513438985
100
AcDbArc
 50
259.112670847
 51
297.44168345
  0
ARC
  5
4C9
330
385
100
AcDbEntity
  8
0
  6
Continuous
 62
     7
370
    25
100
AcDbCircle
 10
-1365.5319732039
 20
-1342.6748145806
 30
0.0
 40
76.90542118590353
100
AcDbArc
 50
112.2187241402
 51
119.846371301
  0
ARC
  5
4CA
330
385
100
AcDbEntity
  8
0
  6
Continuous
 62
     7
370
    25
100
AcDbCircle
 10
-1366.7039292752
 20
-1337.5850213192
 30
0.0
 40
74.38635862344809
100
AcDbArc
 50
114.4072533585
 51
119.9189687094
  0
ARC
  5
4CB
330
385
100
AcDbEntity
  8
0
  6
Continuous
 62
     7
370
    25
100
AcDbCircle
 10
-1366.7039292753
 20
-1316.5182683725
 30
0.0
 40
74.3863586233995
100
AcDbArc
 50
114.4072533585
 51
119.9189687094
  0
ARC
  5
4CC
330
385
100
AcDbEntity
  8
0
  6
Continuous
 62
     7
370
    25
100
AcDbCircle
 10
-1409.0972844269
 20
-1262.9221676431
 30
0.0
 40
11.48176513439141
100
AcDbArc
 50
259.112670847
 51
297.44168345
  0
ARC
  5
4CD
330
385
100
AcDbEntity
  8
0
  6
Continuous
 62
     7
370
    25
100
AcDbCircle
 10
-1409.0972844269
 20
-1265.7800604847
 30
0.0
 40
11.48176513438985
100
AcDbArc
 50
259.112670847
 51
297.44168345
  0
ARC
  5
4CE
330
385
100
AcDbEntity
  8
0
  6
Continuous
 62
     7
370
    25
100
AcDbCircle
 10
-1409.0940598077
 20
-1418.451247977
 30
0.0
 40
9.01857541274882
100
AcDbArc
 50
239.8319798419
 51
297.953032064
  0
ARC
  5
4CF
330
385
100
AcDbEntity
  8
0
  6
Continuous
 62
     7
370
    25
100
AcDbCircle
 10
-1452.2129054049
 20
-1275.0430641864
 30
0.0
 40
3.073609615144096
100
AcDbArc
 50
122.60547834
 51
177.3945215144
  0
ARC
  5
4D0
330
385
100
AcDbEntity
  8
0
  6
Continuous
 62
     7
370
    25
100
AcDbCircle
 10
-1448.6773714989
 20
-1277.0840844659
 30
0.0
 40
3.073609615144096
100
AcDbArc
 50
122.60547834
 51
177.3945215144
  0
ARC
  5
4D1
330
385
100
AcDbEntity
  8
0
  6
Continuous
 62
     7
370
    25
100
AcDbCircle
 10
-1450.8856549668
 20
-1314.645094502
 30
0.0
 40
0.8734183948572602
100
AcDbArc
 50
170.7859630095
 51
309.2032852357
  0
ARC
  5
4D2
330
385
100
AcDbEntity
  8
0
  6
Continuous
 62
     7
370
    25
100
AcDbCircle
 10
-1417.2546133772
 20
-1256.3943055721
 30
0.0
 40
0.8734183948570841
100
AcDbArc
 50
350.7859630095
 51
129.2032852357
  0
ARC
  5
4D3
330
385
100
AcDbEntity
  8
0
  6
Continuous
 62
     7
370
    25
100
AcDbCircle
 10
-1419.4628968451
 20
-1293.9553156081
 30
0.0
 40
3.0736096151432
100
AcDbArc
 50
302.60547834
 51
357.3945215144
  0
ARC
  5
4D4
330
385
100
AcDbEntity
  8
0
  6
Continuous
 62
     7
370
    25
100
AcDbCircle
 10
-1454.3033338028
 20
-1312.5723933033
 30
0.0
 40
0.9859558600946208
100
AcDbArc
 50
173.7011524846
 51
234.9866671219
  0
ARC
  5
4D5
330
385
100
AcDbEntity
  8
0
  6
Continuous
 62
     7
370
    25
100
AcDbCircle
 10
-1420.7563720009
 20
-1254.4942288326
 30
0.0
 40
1.00595447180331
100
AcDbArc
 50
65.6928809539
 51
125.6175774752
  0
ARC
  5
4D6
330
385
100
AcDbEntity
  8
0
  6
Continuous
 62
     7
370
    25
100
AcDbCircle
 10
-1450.8856549668
 20
-51.2931503523
 30
0.0
 40
0.8734183948570395
100
AcDbArc
 50
170.7859630096
 51
309.2032852357
  0
ARC
  5
4D7
330
385
100
AcDbEntity
  8
0
  6
Continuous
 62
     7
370
    25
100
AcDbCircle
 10
-1448.6773714989
 20
-13.7321403163
 30
0.0
 40
3.073609615142951
100
AcDbArc
 50
122.60547834
 51
177.3945215144
  0
ARC
  5
4D8
330
385
100
AcDbEntity
  8
0
  6
Continuous
 62
     7
370
    25
100
AcDbCircle
 10
-1417.2546133772
 20
6.9576385776
 30
0.0
 40
0.8734183948568934
100
AcDbArc
 50
350.7859630095
 51
129.2032852357
  0
ARC
  5
4D9
330
385
100
AcDbEntity
  8
0
  6
Continuous
 62
     7
370
    25
100
AcDbCircle
 10
-1419.4628968451
 20
-30.6033714585
 30
0.0
 40
3.07360961514318
100
AcDbArc
 50
302.60547834
 51
357.3945215144
  0
ARC
  5
4DA
330
385
100
AcDbEntity
  8
0
  6
Continuous
 62
     7
370
    25
100
AcDbCircle
 10
-1452.2129054049
 20
-11.6911200368
 30
0.0
 40
3.073609615145031
100
AcDbArc
 50
122.60547834
 51
177.3945215143
  0
ARC
  5
4DB
330
385
100
AcDbEntity
  8
0
  6
Continuous
 62
     7
370
    25
100
AcDbCircle
 10
-1454.3033338032
 20
-49.2204491538
 30
0.0
 40
0.9859558597052892
100
AcDbArc
 50
173.7011524713
 51
234.9866671353
  0
ARC
  5
4DC
330
385
100
AcDbEntity
  8
0
  6
Continuous
 62
     7
370
    25
100
AcDbCircle
 10
-1420.7563720009
 20
8.857715317
 30
0.0
 40
1.005954471804564
100
AcDbArc
 50
65.6928809539
 51
125.6175774752
  0
ARC
  5
4DD
330
385
100
AcDbEntity
  8
0
  6
Continuous
 62
     7
370
    25
100
AcDbCircle
 10
-1441.1184759498
 20
-1287.9693587478
 30
0.0
 40
2.997684377486431
100
AcDbArc
 50
65.4685082082
 51
125.8544252506
  0
ARC
  5
4DE
330
385
100
AcDbEntity
  8
0
  6
Continuous
 62
     7
370
    25
100
AcDbCircle
 10
-1444.1303180538
 20
-1293.191525435
 30
0.0
 40
3.001345447236137
100
AcDbArc
 50
174.1916083092
 51
234.4962112975
  0
ARC
  5
4DF
330
385
100
AcDbEntity
  8
0
  6
Continuous
 62
     7
370
    25
100
AcDbCircle
 10
-1441.1184759498
 20
-24.6174145981
 30
0.0
 40
2.997684377486599
100
AcDbArc
 50
65.4685082082
 51
125.8544252506
  0
ARC
  5
4E0
330
385
100
AcDbEntity
  8
0
  6
Continuous
 62
     7
370
    25
100
AcDbCircle
 10
-1444.1303180538
 20
-29.8395812854
 30
0.0
 40
3.001345447236809
100
AcDbArc
 50
174.1916083092
 51
234.4962112974
  0
ARC
  5
4E1
330
385
100
AcDbEntity
  8
0
  6
Continuous
 62
     7
370
    25
100
AcDbCircle
 10
-1423.7943598107
 20
-14.6164152283
 30
0.0
 40
2.997684377487139
100
AcDbArc
 50
65.4685082082
 51
125.8544252506
  0
ARC
  5
4E2
330
385
100
AcDbEntity
  8
0
  6
Continuous
 62
     7
370
    25
100
AcDbCircle
 10
-1426.8062019147
 20
-19.8385819156
 30
0.0
 40
3.001345447235787
100
AcDbArc
 50
174.1916083092
 51
234.4962112975
  0
VIEWPORT
  5
77B
330
385
100
AcDbEntity
  8
0
100
AcDbViewport
 10
0.0
 20
0.0
 30
0.0
 40
205.6
 41
156.0
 68
     1
 69
     1
 12
773.8560942931
 22
998.2062649258
 13
0.0
 23
0.0
 14
10.0
 24
10.0
 15
10.0
 25
10.0
 16
0.0
 26
0.0
 36
1.0
 17
0.0
 27
0.0
 37
0.0
 42
50.0
 43
0.0
 44
0.0
 45
1989.0
 50
0.0
 51
0.0
 72
   100
 90
   557152
  1

281
     0
 71
     1
 74
     0
110
0.0
120
0.0
130
0.0
111
1.0
121
0.0
131
0.0
112
0.0
122
1.0
132
0.0
 79
     0
146
0.0
  0
ENDBLK
  5
388
330
385
100
AcDbEntity
  8
0
100
AcDbBlockEnd
  0
BLOCK
  5
4E5
330
4E3
100
AcDbEntity
  8
0
100
AcDbBlockBegin
  2
*Paper_Space5
 70
     0
 10
0.0
 20
0.0
 30
0.0
  3
*Paper_Space5
  1

  0
LWPOLYLINE
  5
4F6
330
4E3
100
AcDbEntity
  8
0
  6
Continuous
 62
     7
370
    25
100
AcDbPolyline
 90
       26
 70
   128
 43
0.0
 10
-612.1914559069
 20
-1276.5623261019
 10
-611.5291864837
 20
-1275.4888265812
 10
-610.9455543713
 20
-1274.2029980757
 10
-610.4772313218
 20
-1272.7856339194
 10
-610.1536437948
 20
-1271.3257923148
 10
-609.9951239846
 20
-1269.9152004789
 10
-610.0116322739
 20
-1268.6424910846
 10
-610.2021313862
 20
-1267.5876331438
 10
-610.5546515617
 20
-1266.8169072605
 10
-611.0470426613
 20
-1266.3787409763
 10
-611.6483659412
 20
-1266.3006658904
 10
-612.3208380483
 20
-1266.5875877476
 10
-613.022205087
 20
-1267.2214781924
 10
-613.7083975867
 20
-1268.1625075568
 10
-614.336299549
 20
-1269.351547505
 10
-614.8664575844
 20
-1270.7138862841
 10
-615.2655599138
 20
-1272.1639231383
 10
-615.5085294699
 20
-1273.6105469191
 10
-615.580099582
 20
-1274.9628609341
 10
-615.4757732368
 20
-1276.1358943202
 10
-615.2021056421
 20
-1277.0559410758
 10
-614.7762923395
 20
-1277.6651912794
 10
-614.2250887448
 20
-1277.9253635001
 10
-613.583129007
 20
-1277.8201101604
 10
-612.8907498174
 20
-1277.3560447148
 10
-612.1914559069
 20
-1276.5623261019
  0
LWPOLYLINE
  5
4FD
330
4E3
100
AcDbEntity
  8
0
  6
Continuous
 62
     7
370
    25
100
AcDbPolyline
 90
        3
 70
   128
 43
0.0
 10
-611.3839942861
 20
-1266.2715557534
 10
-611.8252495656
 20
-1266.2525927115
 10
-612.4579798266
 20
-1266.5134186842
  0
LWPOLYLINE
  5
4FE
330
4E3
100
AcDbEntity
  8
0
  6
Continuous
 62
     7
370
    25
100
AcDbPolyline
 90
        3
 70
   128
 43
0.0
 10
-615.3349890792
 20
-1277.0993068453
 10
-614.9531759639
 20
-1277.6171181005
 10
-614.5311765862
 20
-1277.8515058211
  0
LWPOLYLINE
  5
504
330
4E3
100
AcDbEntity
  8
0
  6
Continuous
 62
     7
370
    25
100
AcDbPolyline
 90
       11
 70
   128
 43
0.0
 10
-611.4042665766
 20
248.0514712388
 10
-611.7978947561
 20
247.4566262018
 10
-611.8153571363
 20
246.8282468565
 10
-611.4549443776
 20
246.2278433513
 10
-610.751936192
 20
245.7141873645
 10
-609.7751479189
 20
245.337559123
 10
-608.6201944001
 20
245.1348256231
 10
-607.4001305331
 20
245.1258318325
 10
-606.2343846698
 20
245.3114581259
 10
-605.2370681377
 20
245.6735341085
 10
-604.5058052275
 20
246.1766172602
  0
LWPOLYLINE
  5
50A
330
4E3
100
AcDbEntity
  8
0
  6
Continuous
 62
     7
370
    25
100
AcDbPolyline
 90
       13
 70
   128
 43
0.0
 10
-613.2615446321
 20
248.5562396176
 10
-613.8054676613
 20
247.799731565
 10
-613.9506934345
 20
246.9964950551
 10
-613.687325055
 20
246.2012693285
 10
-613.0333106429
 20
245.4682477043
 10
-612.0332201994
 20
244.8473843948
 10
-610.7552082356
 20
244.3809902087
 10
-609.2863691547
 20
244.1008491388
 10
-607.7268019128
 20
244.0260523362
 10
-606.1827884401
 20
244.1616970793
 10
-604.7595507032
 20
244.4985394031
 10
-603.5540800017
 20
245.0136240598
 10
-602.648527172
 20
245.6718488814
  0
LWPOLYLINE
  5
537
330
4E3
100
AcDbEntity
  8
0
  6
Continuous
 62
     7
370
    25
100
AcDbPolyline
 90
        7
 70
   128
 43
0.0
 10
-605.535407697
 20
60.9381510328
 10
-605.2503191128
 20
61.0075218692
 10
-604.0065887181
 20
61.4391624799
 10
-603.0095523951
 20
62.0161784214
 10
-602.3215037337
 20
62.7025184552
 10
-601.9854311591
 20
63.455300909
 10
-601.955035902
 20
63.7659586293
  0
LWPOLYLINE
  5
53C
330
4E3
100
AcDbEntity
  8
0
  6
Continuous
 62
     7
370
    25
100
AcDbPolyline
 90
        9
 70
   128
 43
0.0
 10
-630.1651050495
 20
-1308.7921623858
 10
-630.1471702074
 20
-1309.1091075196
 10
-630.0940549071
 20
-1309.3788627182
 10
-630.0078003398
 20
-1309.5910614408
 10
-629.8917212202
 20
-1309.7375490093
 10
-629.7502784036
 20
-1309.8126959887
 10
-629.5889074582
 20
-1309.8136145227
 10
-629.4138097791
 20
-1309.7402693126
 10
-629.2317142716
 20
-1309.5954789736
  0
LWPOLYLINE
  5
53F
330
4E3
100
AcDbEntity
  8
0
  6
Continuous
 62
     7
370
    25
100
AcDbPolyline
 90
        9
 70
   128
 43
0.0
 10
-606.830335603
 20
-1246.5870162133
 10
-606.8482704451
 20
-1246.2700710796
 10
-606.9013857454
 20
-1246.0003158809
 10
-606.9876403127
 20
-1245.7881171584
 10
-607.1037194323
 20
-1245.6416295898
 10
-607.2451622489
 20
-1245.5664826104
 10
-607.4065331942
 20
-1245.5655640764
 10
-607.5816308734
 20
-1245.6389092865
 10
-607.7637263809
 20
-1245.7836996255
  0
LWPOLYLINE
  5
543
330
4E3
100
AcDbEntity
  8
0
  6
Continuous
 62
     7
370
    25
100
AcDbPolyline
 90
       27
 70
   128
 43
0.0
 10
-615.6742132232
 20
-1274.9337598084
 10
-615.5901330403
 20
-1273.5798668881
 10
-615.3427789263
 20
-1272.140527631
 10
-614.9465262032
 20
-1270.6993912028
 10
-614.4244036389
 20
-1269.3402112146
 10
-613.806755099
 20
-1268.1419782667
 10
-613.1294760717
 20
-1267.1743293028
 10
-612.431927552
 20
-1266.4935005633
 10
-611.7546485247
 20
-1266.1390593399
 10
-611.1369999848
 20
-1266.1316044681
 10
-610.6148774205
 20
-1266.471569198
 10
-610.2186246974
 20
-1267.1391960153
 10
-609.9712705834
 20
-1268.0956848759
 10
-609.8871904005
 20
-1269.285448124
 10
-609.9712705834
 20
-1270.6393410443
 10
-610.2186246974
 20
-1272.0786803015
 10
-610.6148774205
 20
-1273.5198167296
 10
-611.1369999848
 20
-1274.8789967179
 10
-611.7546485247
 20
-1276.0772296657
 10
-612.431927552
 20
-1277.0448786296
 10
-613.1294760717
 20
-1277.7257073691
 10
-613.806755099
 20
-1278.0801485925
 10
-614.4244036389
 20
-1278.0876034643
 10
-614.9465262032
 20
-1277.7476387344
 10
-615.3427789263
 20
-1277.0800119172
 10
-615.5901330403
 20
-1276.1235230566
 10
-615.6742132232
 20
-1274.9337598084
  0
LWPOLYLINE
  5
544
330
4E3
100
AcDbEntity
  8
0
  6
Continuous
 62
     7
370
    25
100
AcDbPolyline
 90
       27
 70
   128
 43
0.0
 10
-627.108250252
 20
-1286.0937304751
 10
-627.0241700691
 20
-1284.7398375548
 10
-626.7768159551
 20
-1283.3004982977
 10
-626.380563232
 20
-1281.8593618695
 10
-625.8584406677
 20
-1280.5001818813
 10
-625.2407921278
 20
-1279.3019489334
 10
-624.5635131004
 20
-1278.3342999695
 10
-623.8659645808
 20
-1277.65347123
 10
-623.1886855535
 20
-1277.2990300066
 10
-622.5710370136
 20
-1277.2915751348
 10
-622.0489144493
 20
-1277.6315398647
 10
-621.6526617261
 20
-1278.299166682
 10
-621.4053076121
 20
-1279.2556555426
 10
-621.3212274293
 20
-1280.4454187907
 10
-621.4053076121
 20
-1281.7993117111
 10
-621.6526617261
 20
-1283.2386509682
 10
-622.0489144493
 20
-1284.6797873963
 10
-622.5710370136
 20
-1286.0389673846
 10
-623.1886855535
 20
-1287.2372003324
 10
-623.8659645808
 20
-1288.2048492963
 10
-624.5635131004
 20
-1288.8856780358
 10
-625.2407921278
 20
-1289.2401192592
 10
-625.8584406677
 20
-1289.247574131
 10
-626.380563232
 20
-1288.9076094011
 10
-626.7768159551
 20
-1288.2399825839
 10
-627.0241700691
 20
-1287.2834937233
 10
-627.108250252
 20
-1286.0937304751
  0
LWPOLYLINE
  5
54B
330
4E3
100
AcDbEntity
  8
0
  6
Continuous
 62
     7
370
    25
100
AcDbPolyline
 90
        7
 70
   128
 43
0.0
 10
-605.535407697
 20
-1265.2710966136
 10
-605.2503191128
 20
-1265.2017257771
 10
-604.0065887181
 20
-1264.7700851665
 10
-603.0095523951
 20
-1264.1930692249
 10
-602.3215037337
 20
-1263.5067291912
 10
-601.9854311591
 20
-1262.7539467373
 10
-601.955035902
 20
-1262.443289017
  0
LWPOLYLINE
  5
54C
330
4E3
100
AcDbEntity
  8
0
  6
Continuous
 62
     7
370
    25
100
AcDbPolyline
 90
        9
 70
   128
 43
0.0
 10
-630.1651050495
 20
17.4170852605
 10
-630.1471702074
 20
17.1001401268
 10
-630.0940549071
 20
16.8303849281
 10
-630.0078003398
 20
16.6181862056
 10
-629.8917212202
 20
16.471698637
 10
-629.7502784036
 20
16.3965516576
 10
-629.5889074582
 20
16.3956331236
 10
-629.4138097791
 20
16.4689783337
 10
-629.2317142716
 20
16.6137686727
  0
LWPOLYLINE
  5
550
330
4E3
100
AcDbEntity
  8
0
  6
Continuous
 62
     7
370
    25
100
AcDbPolyline
 90
        9
 70
   128
 43
0.0
 10
-606.830335603
 20
79.622231433
 10
-606.8482704451
 20
79.9391765668
 10
-606.9013857454
 20
80.2089317654
 10
-606.9876403127
 20
80.421130488
 10
-607.1037194323
 20
80.5676180565
 10
-607.2451622489
 20
80.6427650359
 10
-607.4065331942
 20
80.6436835699
 10
-607.5816308734
 20
80.5703383598
 10
-607.7637263809
 20
80.4255480208
  0
LWPOLYLINE
  5
554
330
4E3
100
AcDbEntity
  8
0
  6
Continuous
 62
     7
370
    25
100
AcDbPolyline
 90
       27
 70
   128
 43
0.0
 10
-615.6742132232
 20
51.2754878379
 10
-615.5901330403
 20
52.6293807582
 10
-615.3427789263
 20
54.0687200154
 10
-614.9465262032
 20
55.5098564435
 10
-614.4244036389
 20
56.8690364318
 10
-613.806755099
 20
58.0672693796
 10
-613.1294760717
 20
59.0349183435
 10
-612.431927552
 20
59.715747083
 10
-611.7546485247
 20
60.0701883064
 10
-611.1369999848
 20
60.0776431782
 10
-610.6148774205
 20
59.7376784483
 10
-610.2186246974
 20
59.0700516311
 10
-609.9712705834
 20
58.1135627705
 10
-609.8871904005
 20
56.9237995223
 10
-609.9712705834
 20
55.569906602
 10
-610.2186246974
 20
54.1305673448
 10
-610.6148774205
 20
52.6894309167
 10
-611.1369999848
 20
51.3302509285
 10
-611.7546485247
 20
50.1320179806
 10
-612.431927552
 20
49.1643690167
 10
-613.1294760717
 20
48.4835402772
 10
-613.806755099
 20
48.1290990538
 10
-614.4244036389
 20
48.121644182
 10
-614.9465262032
 20
48.4616089119
 10
-615.3427789263
 20
49.1292357292
 10
-615.5901330403
 20
50.0857245898
 10
-615.6742132232
 20
51.2754878379
  0
LWPOLYLINE
  5
555
330
4E3
100
AcDbEntity
  8
0
  6
Continuous
 62
     7
370
    25
100
AcDbPolyline
 90
       27
 70
   128
 43
0.0
 10
-627.108250252
 20
40.1155171712
 10
-627.0241700691
 20
41.4694100915
 10
-626.7768159551
 20
42.9087493487
 10
-626.380563232
 20
44.3498857768
 10
-625.8584406677
 20
45.7090657651
 10
-625.2407921278
 20
46.9072987129
 10
-624.5635131004
 20
47.8749476768
 10
-623.8659645808
 20
48.5557764163
 10
-623.1886855535
 20
48.9102176397
 10
-622.5710370136
 20
48.9176725115
 10
-622.0489144493
 20
48.5777077816
 10
-621.6526617261
 20
47.9100809644
 10
-621.4053076121
 20
46.9535921038
 10
-621.3212274293
 20
45.7638288556
 10
-621.4053076121
 20
44.4099359353
 10
-621.6526617261
 20
42.9705966781
 10
-622.0489144493
 20
41.52946025
 10
-622.5710370136
 20
40.1702802618
 10
-623.1886855535
 20
38.9720473139
 10
-623.8659645808
 20
38.00439835
 10
-624.5635131004
 20
37.3235696105
 10
-625.2407921278
 20
36.9691283871
 10
-625.8584406677
 20
36.9616735153
 10
-626.380563232
 20
37.3016382452
 10
-626.7768159551
 20
37.9692650624
 10
-627.0241700691
 20
38.9257539231
 10
-627.108250252
 20
40.1155171712
  0
LWPOLYLINE
  5
55F
330
4E3
100
AcDbEntity
  8
0
  6
Continuous
 62
     7
370
    25
100
AcDbPolyline
 90
       26
 70
   128
 43
0.0
 10
-623.6254929357
 20
-1287.7222967686
 10
-622.9632235125
 20
-1286.6487972479
 10
-622.3795914001
 20
-1285.3629687424
 10
-621.9112683506
 20
-1283.9456045861
 10
-621.5876808235
 20
-1282.4857629815
 10
-621.4291610134
 20
-1281.0751711456
 10
-621.4456693027
 20
-1279.8024617513
 10
-621.636168415
 20
-1278.7476038106
 10
-621.9886885905
 20
-1277.9768779272
 10
-622.4810796901
 20
-1277.538711643
 10
-623.08240297
 20
-1277.4606365571
 10
-623.7548750771
 20
-1277.7475584143
 10
-624.4562421158
 20
-1278.3814488591
 10
-625.1424346155
 20
-1279.3224782235
 10
-625.7703365778
 20
-1280.5115181717
 10
-626.3004946132
 20
-1281.8738569508
 10
-626.6995969425
 20
-1283.323893805
 10
-626.9425664987
 20
-1284.7705175858
 10
-627.0141366108
 20
-1286.1228316008
 10
-626.9098102656
 20
-1287.2958649869
 10
-626.6361426709
 20
-1288.2159117425
 10
-626.2103293683
 20
-1288.8251619461
 10
-625.6591257736
 20
-1289.0853341668
 10
-625.0171660358
 20
-1288.9800808271
 10
-624.3247868462
 20
-1288.5160153815
 10
-623.6254929357
 20
-1287.7222967686
  0
LWPOLYLINE
  5
566
330
4E3
100
AcDbEntity
  8
0
  6
Continuous
 62
     7
370
    25
100
AcDbPolyline
 90
        3
 70
   128
 43
0.0
 10
-622.8180313149
 20
-1277.4315264201
 10
-623.2592865943
 20
-1277.4125633782
 10
-623.8937926942
 20
-1277.6745322798
  0
LWPOLYLINE
  5
567
330
4E3
100
AcDbEntity
  8
0
  6
Continuous
 62
     7
370
    25
100
AcDbPolyline
 90
        3
 70
   128
 43
0.0
 10
-626.7699942154
 20
-1288.2573631069
 10
-626.3872129927
 20
-1288.7770887672
 10
-625.965213615
 20
-1289.0114764878
  0
LWPOLYLINE
  5
56A
330
4E3
100
AcDbEntity
  8
0
  6
Continuous
 62
     7
370
    25
100
AcDbPolyline
 90
       26
 70
   128
 43
0.0
 10
-623.6254929357
 20
38.4869508778
 10
-622.9632235125
 20
39.5604503984
 10
-622.3795914001
 20
40.8462789039
 10
-621.9112683506
 20
42.2636430603
 10
-621.5876808235
 20
43.7234846648
 10
-621.4291610134
 20
45.1340765007
 10
-621.4456693027
 20
46.406785895
 10
-621.636168415
 20
47.4616438358
 10
-621.9886885905
 20
48.2323697192
 10
-622.4810796901
 20
48.6705360033
 10
-623.08240297
 20
48.7486110892
 10
-623.7548750771
 20
48.461689232
 10
-624.4562421158
 20
47.8277987873
 10
-625.1424346155
 20
46.8867694228
 10
-625.7703365778
 20
45.6977294746
 10
-626.3004946132
 20
44.3353906955
 10
-626.6995969425
 20
42.8853538414
 10
-626.9425664987
 20
41.4387300606
 10
-627.0141366108
 20
40.0864160456
 10
-626.9098102656
 20
38.9133826594
 10
-626.6361426709
 20
37.9933359038
 10
-626.2103293683
 20
37.3840857002
 10
-625.6591257736
 20
37.1239134795
 10
-625.0171660358
 20
37.2291668192
 10
-624.3247868462
 20
37.6932322648
 10
-623.6254929357
 20
38.4869508778
  0
LWPOLYLINE
  5
571
330
4E3
100
AcDbEntity
  8
0
  6
Continuous
 62
     7
370
    25
100
AcDbPolyline
 90
        3
 70
   128
 43
0.0
 10
-622.8180313149
 20
48.7777212262
 10
-623.2592865943
 20
48.7966842682
 10
-623.892650128
 20
48.5354509706
  0
LWPOLYLINE
  5
572
330
4E3
100
AcDbEntity
  8
0
  6
Continuous
 62
     7
370
    25
100
AcDbPolyline
 90
        3
 70
   128
 43
0.0
 10
-626.7693715238
 20
37.9506527055
 10
-626.3872129927
 20
37.4321588792
 10
-625.965213615
 20
37.1977711585
  0
LWPOLYLINE
  5
575
330
4E3
100
AcDbEntity
  8
0
  6
Continuous
 62
     7
370
    25
100
AcDbPolyline
 90
       26
 70
   128
 43
0.0
 10
-612.1914559069
 20
49.6469215445
 10
-611.5291864837
 20
50.7204210652
 10
-610.9455543713
 20
52.0062495706
 10
-610.4772313218
 20
53.423613727
 10
-610.1536437948
 20
54.8834553316
 10
-609.9951239846
 20
56.2940471674
 10
-610.0116322739
 20
57.5667565617
 10
-610.2021313862
 20
58.6216145025
 10
-610.5546515617
 20
59.3923403859
 10
-611.0470426613
 20
59.8305066701
 10
-611.6483659412
 20
59.9085817559
 10
-612.3208380483
 20
59.6216598987
 10
-613.022205087
 20
58.987769454
 10
-613.7083975867
 20
58.0467400896
 10
-614.336299549
 20
56.8577001413
 10
-614.8664575844
 20
55.4953613622
 10
-615.2655599138
 20
54.0453245081
 10
-615.5085294699
 20
52.5987007273
 10
-615.580099582
 20
51.2463867123
 10
-615.4757732368
 20
50.0733533261
 10
-615.2021056422
 20
49.1533065706
 10
-614.7762923396
 20
48.5440563669
 10
-614.2250887448
 20
48.2838841462
 10
-613.583129007
 20
48.3891374859
 10
-612.8907498174
 20
48.8532029316
 10
-612.1914559069
 20
49.6469215445
  0
LWPOLYLINE
  5
57C
330
4E3
100
AcDbEntity
  8
0
  6
Continuous
 62
     7
370
    25
100
AcDbPolyline
 90
        3
 70
   128
 43
0.0
 10
-611.3839942861
 20
59.9376918929
 10
-611.8252495656
 20
59.9566549349
 10
-612.4586130763
 20
59.695421652
  0
LWPOLYLINE
  5
57D
330
4E3
100
AcDbEntity
  8
0
  6
Continuous
 62
     7
370
    25
100
AcDbPolyline
 90
        3
 70
   128
 43
0.0
 10
-615.335334483
 20
49.1106233484
 10
-614.9531759639
 20
48.5921295459
 10
-614.5311765862
 20
48.3577418252
  0
LINE
  5
596
330
4E3
100
AcDbEntity
  8
0
  6
Continuous
 62
     7
370
    25
100
AcDbLine
 10
-611.2071106618
 20
-1266.3196289324
 30
0.0
 11
-611.3839942861
 21
-1266.2715557534
 31
0.0
  0
LINE
  5
597
330
4E3
100
AcDbEntity
  8
0
  6
Continuous
 62
     7
370
    25
100
AcDbLine
 10
-614.5311765862
 20
-1277.8515058211
 30
0.0
 11
-614.3542929619
 21
-1277.8995790001
 31
0.0
  0
LINE
  5
598
330
4E3
100
AcDbEntity
  8
0
  6
Continuous
 62
     7
370
    25
100
AcDbLine
 10
-613.955035902
 20
247.1140442495
 30
0.0
 11
-613.955035902
 21
225.0188471653
 31
0.0
  0
LINE
  5
599
330
4E3
100
AcDbEntity
  8
0
  6
Continuous
 62
     7
370
    25
100
AcDbLine
 10
-601.955035902
 20
63.7659586293
 30
0.0
 11
-601.955035902
 21
83.2203367301
 31
0.0
  0
LINE
  5
59A
330
4E3
100
AcDbEntity
  8
0
  6
Continuous
 62
     7
370
    25
100
AcDbLine
 10
-634.1783352634
 20
-1308.6093065768
 30
0.0
 11
-629.756244655
 21
-1309.8111360502
 31
0.0
  0
LINE
  5
59B
330
4E3
100
AcDbEntity
  8
0
  6
Continuous
 62
     7
370
    25
100
AcDbLine
 10
-607.2391959975
 20
-1245.568042549
 30
0.0
 11
-611.6612866059
 21
-1244.3662130756
 31
0.0
  0
LINE
  5
59C
330
4E3
100
AcDbEntity
  8
0
  6
Continuous
 62
     7
370
    25
100
AcDbLine
 10
-601.955035902
 20
-1262.443289017
 30
0.0
 11
-601.955035902
 21
-1242.9889109163
 31
0.0
  0
LINE
  5
59D
330
4E3
100
AcDbEntity
  8
0
  6
Continuous
 62
     7
370
    25
100
AcDbLine
 10
-634.1783352634
 20
17.5999410696
 30
0.0
 11
-629.756244655
 21
16.3981115962
 31
0.0
  0
LINE
  5
59E
330
4E3
100
AcDbEntity
  8
0
  6
Continuous
 62
     7
370
    25
100
AcDbLine
 10
-607.2391959975
 20
80.6412050974
 30
0.0
 11
-611.6612866059
 21
81.8430345708
 31
0.0
  0
LINE
  5
59F
330
4E3
100
AcDbEntity
  8
0
  6
Continuous
 62
     7
370
    25
100
AcDbLine
 10
-622.6411476906
 20
-1277.4795995991
 30
0.0
 11
-622.8180313149
 21
-1277.4315264201
 31
0.0
  0
LINE
  5
5A0
330
4E3
100
AcDbEntity
  8
0
  6
Continuous
 62
     7
370
    25
100
AcDbLine
 10
-625.965213615
 20
-1289.0114764878
 30
0.0
 11
-625.7883299907
 21
-1289.0595496668
 31
0.0
  0
LINE
  5
5A1
330
4E3
100
AcDbEntity
  8
0
  6
Continuous
 62
     7
370
    25
100
AcDbLine
 10
-622.6411476906
 20
48.7296480473
 30
0.0
 11
-622.8180313149
 21
48.7777212262
 31
0.0
  0
LINE
  5
5A2
330
4E3
100
AcDbEntity
  8
0
  6
Continuous
 62
     7
370
    25
100
AcDbLine
 10
-625.965213615
 20
37.1977711585
 30
0.0
 11
-625.7883299907
 21
37.1496979796
 31
0.0
  0
LINE
  5
5A3
330
4E3
100
AcDbEntity
  8
0
  6
Continuous
 62
     7
370
    25
100
AcDbLine
 10
-611.2071106618
 20
59.889618714
 30
0.0
 11
-611.3839942861
 21
59.9376918929
 31
0.0
  0
LINE
  5
5A4
330
4E3
100
AcDbEntity
  8
0
  6
Continuous
 62
     7
370
    25
100
AcDbLine
 10
-614.5311765862
 20
48.3577418252
 30
0.0
 11
-614.3542929619
 21
48.3096686463
 31
0.0
  0
LINE
  5
5A5
330
4E3
100
AcDbEntity
  8
0
  6
Continuous
 62
     7
370
    25
100
AcDbLine
 10
-611.4636348578
 20
-1270.3034071931
 30
0.0
 11
-612.3676874619
 21
-1269.3512046898
 31
0.0
  0
LINE
  5
5A6
330
4E3
100
AcDbEntity
  8
0
  6
Continuous
 62
     7
370
    25
100
AcDbLine
 10
-612.3676874619
 20
-1269.3512046898
 30
0.0
 11
-613.6847544159
 21
-1271.1574014629
 31
0.0
  0
LINE
  5
5A7
330
4E3
100
AcDbEntity
  8
0
  6
Continuous
 62
     7
370
    25
100
AcDbLine
 10
-613.6847544159
 20
-1271.1574014629
 30
0.0
 11
-614.0977687659
 21
-1273.9158007393
 31
0.0
  0
LINE
  5
5A8
330
4E3
100
AcDbEntity
  8
0
  6
Continuous
 62
     7
370
    25
100
AcDbLine
 10
-614.0977687659
 20
-1273.9158007393
 30
0.0
 11
-613.1937161618
 21
-1274.8680032426
 31
0.0
  0
LINE
  5
5A9
330
4E3
100
AcDbEntity
  8
0
  6
Continuous
 62
     7
370
    25
100
AcDbLine
 10
-613.1937161618
 20
-1274.8680032426
 30
0.0
 11
-611.8766492078
 21
-1273.0618064695
 31
0.0
  0
LINE
  5
5AA
330
4E3
100
AcDbEntity
  8
0
  6
Continuous
 62
     7
370
    25
100
AcDbLine
 10
-611.8766492078
 20
-1273.0618064695
 30
0.0
 11
-611.4636348578
 21
-1270.3034071931
 31
0.0
  0
LINE
  5
5AB
330
4E3
100
AcDbEntity
  8
0
  6
Continuous
 62
     7
370
    25
100
AcDbLine
 10
-612.7976527781
 20
-1269.940849707
 30
0.0
 11
-611.4636348578
 21
-1270.3034071931
 31
0.0
  0
LINE
  5
5AC
330
4E3
100
AcDbEntity
  8
0
  6
Continuous
 62
     7
370
    25
100
AcDbLine
 10
-613.8880498543
 20
-1272.5151508729
 30
0.0
 11
-611.8766492078
 21
-1273.0618064695
 31
0.0
  0
LINE
  5
5AD
330
4E3
100
AcDbEntity
  8
0
  6
Continuous
 62
     7
370
    25
100
AcDbLine
 10
-594.1967521046
 20
253.8552431035
 30
0.0
 11
-604.9152301483
 21
256.7682957666
 31
0.0
  0
LINE
  5
5AE
330
4E3
100
AcDbEntity
  8
0
  6
Continuous
 62
     7
370
    25
100
AcDbLine
 10
-593.5479670878
 20
254.5542745141
 30
0.0
 11
-604.160984548
 21
257.4386652503
 31
0.0
  0
LINE
  5
5AF
330
4E3
100
AcDbEntity
  8
0
  6
Continuous
 62
     7
370
    25
100
AcDbLine
 10
-586.7808839483
 20
261.1591551127
 30
0.0
 11
-593.5479670878
 21
254.5542745141
 31
0.0
  0
LINE
  5
5B0
330
4E3
100
AcDbEntity
  8
0
  6
Continuous
 62
     7
370
    25
100
AcDbLine
 10
-584.9236058928
 20
260.6543867339
 30
0.0
 11
-586.7808839483
 21
261.1591551127
 31
0.0
  0
LINE
  5
5B1
330
4E3
100
AcDbEntity
  8
0
  6
Continuous
 62
     7
370
    25
100
AcDbLine
 10
-592.6240798102
 20
253.1384881216
 30
0.0
 11
-584.9236058928
 21
260.6543867339
 31
0.0
  0
LINE
  5
5B2
330
4E3
100
AcDbEntity
  8
0
  6
Continuous
 62
     7
370
    25
100
AcDbLine
 10
-599.251179464
 20
264.5483142278
 30
0.0
 11
-606.9516533813
 21
257.0324156155
 31
0.0
  0
LINE
  5
5B3
330
4E3
100
AcDbEntity
  8
0
  6
Continuous
 62
     7
370
    25
100
AcDbLine
 10
-597.3939014085
 20
264.0435458489
 30
0.0
 11
-599.251179464
 21
264.5483142278
 31
0.0
  0
LINE
  5
5B4
330
4E3
100
AcDbEntity
  8
0
  6
Continuous
 62
     7
370
    25
100
AcDbLine
 10
-604.160984548
 20
257.4386652503
 30
0.0
 11
-597.3939014085
 21
264.0435458489
 31
0.0
  0
LINE
  5
5B5
330
4E3
100
AcDbEntity
  8
0
  6
Continuous
 62
     7
370
    25
100
AcDbLine
 10
-602.648527172
 20
245.6718488814
 30
0.0
 11
-602.648527172
 21
87.0958982515
 31
0.0
  0
LINE
  5
5B6
330
4E3
100
AcDbEntity
  8
0
  6
Continuous
 62
     7
370
    25
100
AcDbLine
 10
-592.6240798102
 20
253.1384881216
 30
0.0
 11
-592.6240798102
 21
-1418.3377482475
 31
0.0
  0
LINE
  5
5B7
330
4E3
100
AcDbEntity
  8
0
  6
Continuous
 62
     7
370
    25
100
AcDbLine
 10
-604.9152301483
 20
256.7682957666
 30
0.0
 11
-604.9152301483
 21
245.855665835
 31
0.0
  0
LINE
  5
5B8
330
4E3
100
AcDbEntity
  8
0
  6
Continuous
 62
     7
370
    25
100
AcDbLine
 10
-584.9236058928
 20
260.6543867339
 30
0.0
 11
-584.9236058928
 21
-1410.8218496353
 31
0.0
  0
LINE
  5
5B9
330
4E3
100
AcDbEntity
  8
0
  6
Continuous
 62
     7
370
    25
100
AcDbLine
 10
-592.6240798102
 20
-1418.3377482475
 30
0.0
 11
-584.9236058928
 21
-1410.8218496353
 31
0.0
  0
LINE
  5
5BA
330
4E3
100
AcDbEntity
  8
0
  6
Continuous
 62
     7
370
    25
100
AcDbLine
 10
-597.3939014085
 20
264.0435458489
 30
0.0
 11
-597.3939014085
 21
255.599517054
 31
0.0
  0
LINE
  5
5BB
330
4E3
100
AcDbEntity
  8
0
  6
Continuous
 62
     7
370
    25
100
AcDbLine
 10
-594.8367246908
 20
91.9609794851
 30
0.0
 11
-596.1815391839
 21
92.3264712484
 31
0.0
  0
LINE
  5
5BC
330
4E3
100
AcDbEntity
  8
0
  6
Continuous
 62
     7
370
    25
100
AcDbLine
 10
-601.3218999894
 20
83.735263857
 30
0.0
 11
-601.3218999894
 21
86.7353494095
 31
0.0
  0
LINE
  5
5BD
330
4E3
100
AcDbEntity
  8
0
  6
Continuous
 62
     7
370
    25
100
AcDbLine
 10
-601.3218999894
 20
61.6203474989
 30
0.0
 11
-601.3218999894
 21
58.6202619464
 31
0.0
  0
LINE
  5
5BE
330
4E3
100
AcDbEntity
  8
0
  6
Continuous
 62
     7
370
    25
100
AcDbLine
 10
-596.9125753011
 20
87.4868518014
 30
0.0
 11
-596.9125753011
 21
65.3719354433
 31
0.0
  0
LINE
  5
5BF
330
4E3
100
AcDbEntity
  8
0
  6
Continuous
 62
     7
370
    25
100
AcDbLine
 10
-594.8367246908
 20
91.9609794851
 30
0.0
 11
-594.8367246908
 21
63.8458920221
 31
0.0
  0
LINE
  5
5C0
330
4E3
100
AcDbEntity
  8
0
  6
Continuous
 62
     7
370
    25
100
AcDbLine
 10
-601.955035902
 20
66.7423681877
 30
0.0
 11
-596.9125753011
 21
65.3719354433
 31
0.0
  0
LINE
  5
5C1
330
4E3
100
AcDbEntity
  8
0
  6
Continuous
 62
     7
370
    25
100
AcDbLine
 10
-594.8367246908
 20
-1234.2482681612
 30
0.0
 11
-596.1815391839
 21
-1233.8827763979
 31
0.0
  0
LINE
  5
5C2
330
4E3
100
AcDbEntity
  8
0
  6
Continuous
 62
     7
370
    25
100
AcDbLine
 10
-601.3218999894
 20
-1242.4739837893
 30
0.0
 11
-601.3218999894
 21
-1239.4738982369
 31
0.0
  0
LINE
  5
5C3
330
4E3
100
AcDbEntity
  8
0
  6
Continuous
 62
     7
370
    25
100
AcDbLine
 10
-594.8367246908
 20
-1262.3633556243
 30
0.0
 11
-594.8367246908
 21
-1234.2482681612
 31
0.0
  0
LINE
  5
5C4
330
4E3
100
AcDbEntity
  8
0
  6
Continuous
 62
     7
370
    25
100
AcDbLine
 10
-601.3218999894
 20
-1264.5889001474
 30
0.0
 11
-601.3218999894
 21
-1267.5889856999
 31
0.0
  0
LINE
  5
5C5
330
4E3
100
AcDbEntity
  8
0
  6
Continuous
 62
     7
370
    25
100
AcDbLine
 10
-596.9125753011
 20
-1260.8373122031
 30
0.0
 11
-596.9125753011
 21
-1238.7223958449
 31
0.0
  0
LINE
  5
5C6
330
4E3
100
AcDbEntity
  8
0
  6
Continuous
 62
     7
370
    25
100
AcDbLine
 10
-596.9125753011
 20
-1260.8373122031
 30
0.0
 11
-601.955035902
 21
-1259.4668794586
 31
0.0
  0
LINE
  5
5C7
330
4E3
100
AcDbEntity
  8
0
  6
Continuous
 62
     7
370
    25
100
AcDbLine
 10
-630.1651050495
 20
-1269.3624665535
 30
0.0
 11
-634.5871956579
 21
-1268.1606370801
 31
0.0
  0
LINE
  5
5C8
330
4E3
100
AcDbEntity
  8
0
  6
Continuous
 62
     7
370
    25
100
AcDbLine
 10
-633.65380488
 20
-1265.5352844651
 30
0.0
 11
-629.2317142716
 21
-1266.7371139385
 31
0.0
  0
LINE
  5
5C9
330
4E3
100
AcDbEntity
  8
0
  6
Continuous
 62
     7
370
    25
100
AcDbLine
 10
-630.1651050495
 20
-1269.3624665535
 30
0.0
 11
-630.1651050495
 21
-1308.7921623858
 31
0.0
  0
LINE
  5
5CA
330
4E3
100
AcDbEntity
  8
0
  6
Continuous
 62
     7
370
    25
100
AcDbLine
 10
-607.7637263809
 20
-1245.7836996255
 30
0.0
 11
-629.2317142716
 21
-1266.7371139385
 31
0.0
  0
LINE
  5
5CB
330
4E3
100
AcDbEntity
  8
0
  6
Continuous
 62
     7
370
    25
100
AcDbLine
 10
-606.830335603
 20
-1286.0167120456
 30
0.0
 11
-606.830335603
 21
-1246.5870162133
 31
0.0
  0
LINE
  5
5CC
330
4E3
100
AcDbEntity
  8
0
  6
Continuous
 62
     7
370
    25
100
AcDbLine
 10
-629.2317142716
 20
-1309.5954789736
 30
0.0
 11
-607.7637263809
 21
-1288.6420646606
 31
0.0
  0
LINE
  5
5CD
330
4E3
100
AcDbEntity
  8
0
  6
Continuous
 62
     7
370
    25
100
AcDbLine
 10
-634.5871956579
 20
-1307.5903329124
 30
0.0
 11
-630.1651050495
 21
-1308.7921623858
 31
0.0
  0
LINE
  5
5CE
330
4E3
100
AcDbEntity
  8
0
  6
Continuous
 62
     7
370
    25
100
AcDbLine
 10
-634.5871956579
 20
-1268.1606370801
 30
0.0
 11
-634.5871956579
 21
-1307.5903329124
 31
0.0
  0
LINE
  5
5CF
330
4E3
100
AcDbEntity
  8
0
  6
Continuous
 62
     7
370
    25
100
AcDbLine
 10
-612.1858169892
 20
-1244.5818701521
 30
0.0
 11
-633.65380488
 21
-1265.5352844651
 31
0.0
  0
LINE
  5
5D0
330
4E3
100
AcDbEntity
  8
0
  6
Continuous
 62
     7
370
    25
100
AcDbLine
 10
-607.7637263809
 20
-1245.7836996255
 30
0.0
 11
-612.1858169892
 21
-1244.5818701521
 31
0.0
  0
LINE
  5
5D1
330
4E3
100
AcDbEntity
  8
0
  6
Continuous
 62
     7
370
    25
100
AcDbLine
 10
-630.1651050495
 20
56.8467810928
 30
0.0
 11
-630.1651050495
 21
17.4170852605
 31
0.0
  0
LINE
  5
5D2
330
4E3
100
AcDbEntity
  8
0
  6
Continuous
 62
     7
370
    25
100
AcDbLine
 10
-607.7637263809
 20
80.4255480208
 30
0.0
 11
-629.2317142716
 21
59.4721337078
 31
0.0
  0
LINE
  5
5D3
330
4E3
100
AcDbEntity
  8
0
  6
Continuous
 62
     7
370
    25
100
AcDbLine
 10
-606.830335603
 20
40.1925356007
 30
0.0
 11
-606.830335603
 21
79.622231433
 31
0.0
  0
LINE
  5
5D4
330
4E3
100
AcDbEntity
  8
0
  6
Continuous
 62
     7
370
    25
100
AcDbLine
 10
-629.2317142716
 20
16.6137686727
 30
0.0
 11
-607.7637263809
 21
37.5671829857
 31
0.0
  0
LINE
  5
5D5
330
4E3
100
AcDbEntity
  8
0
  6
Continuous
 62
     7
370
    25
100
AcDbLine
 10
-630.1651050495
 20
56.8467810928
 30
0.0
 11
-634.5871956579
 21
58.0486105662
 31
0.0
  0
LINE
  5
5D6
330
4E3
100
AcDbEntity
  8
0
  6
Continuous
 62
     7
370
    25
100
AcDbLine
 10
-633.65380488
 20
60.6739631812
 30
0.0
 11
-629.2317142716
 21
59.4721337078
 31
0.0
  0
LINE
  5
5D7
330
4E3
100
AcDbEntity
  8
0
  6
Continuous
 62
     7
370
    25
100
AcDbLine
 10
-634.5871956579
 20
18.6189147339
 30
0.0
 11
-630.1651050495
 21
17.4170852605
 31
0.0
  0
LINE
  5
5D8
330
4E3
100
AcDbEntity
  8
0
  6
Continuous
 62
     7
370
    25
100
AcDbLine
 10
-634.5871956579
 20
58.0486105662
 30
0.0
 11
-634.5871956579
 21
18.6189147339
 31
0.0
  0
LINE
  5
5D9
330
4E3
100
AcDbEntity
  8
0
  6
Continuous
 62
     7
370
    25
100
AcDbLine
 10
-612.1858169892
 20
81.6273774942
 30
0.0
 11
-633.65380488
 21
60.6739631812
 31
0.0
  0
LINE
  5
5DA
330
4E3
100
AcDbEntity
  8
0
  6
Continuous
 62
     7
370
    25
100
AcDbLine
 10
-607.7637263809
 20
80.4255480208
 30
0.0
 11
-612.1858169892
 21
81.6273774942
 31
0.0
  0
LINE
  5
5DB
330
4E3
100
AcDbEntity
  8
0
  6
Continuous
 62
     7
370
    25
100
AcDbLine
 10
-622.8976718866
 20
-1281.4633778598
 30
0.0
 11
-623.8017244907
 21
-1280.5111753565
 31
0.0
  0
LINE
  5
5DC
330
4E3
100
AcDbEntity
  8
0
  6
Continuous
 62
     7
370
    25
100
AcDbLine
 10
-623.8017244907
 20
-1280.5111753565
 30
0.0
 11
-625.1187914447
 21
-1282.3173721296
 31
0.0
  0
LINE
  5
5DD
330
4E3
100
AcDbEntity
  8
0
  6
Continuous
 62
     7
370
    25
100
AcDbLine
 10
-625.1187914447
 20
-1282.3173721296
 30
0.0
 11
-625.5318057947
 21
-1285.075771406
 31
0.0
  0
LINE
  5
5DE
330
4E3
100
AcDbEntity
  8
0
  6
Continuous
 62
     7
370
    25
100
AcDbLine
 10
-625.5318057947
 20
-1285.075771406
 30
0.0
 11
-624.6277531906
 21
-1286.0279739093
 31
0.0
  0
LINE
  5
5DF
330
4E3
100
AcDbEntity
  8
0
  6
Continuous
 62
     7
370
    25
100
AcDbLine
 10
-624.6277531906
 20
-1286.0279739093
 30
0.0
 11
-623.3106862366
 21
-1284.2217771362
 31
0.0
  0
LINE
  5
5E0
330
4E3
100
AcDbEntity
  8
0
  6
Continuous
 62
     7
370
    25
100
AcDbLine
 10
-623.3106862366
 20
-1284.2217771362
 30
0.0
 11
-622.8976718866
 21
-1281.4633778598
 31
0.0
  0
LINE
  5
5E1
330
4E3
100
AcDbEntity
  8
0
  6
Continuous
 62
     7
370
    25
100
AcDbLine
 10
-624.2316898069
 20
-1281.1008203737
 30
0.0
 11
-622.8976718866
 21
-1281.4633778598
 31
0.0
  0
LINE
  5
5E2
330
4E3
100
AcDbEntity
  8
0
  6
Continuous
 62
     7
370
    25
100
AcDbLine
 10
-625.322086883
 20
-1283.6751215396
 30
0.0
 11
-623.3106862366
 21
-1284.2217771362
 31
0.0
  0
LINE
  5
5E3
330
4E3
100
AcDbEntity
  8
0
  6
Continuous
 62
     7
370
    25
100
AcDbLine
 10
-622.8976718866
 20
44.7458697865
 30
0.0
 11
-623.8017244907
 21
45.6980722898
 31
0.0
  0
LINE
  5
5E4
330
4E3
100
AcDbEntity
  8
0
  6
Continuous
 62
     7
370
    25
100
AcDbLine
 10
-623.8017244907
 20
45.6980722898
 30
0.0
 11
-625.1187914447
 21
43.8918755167
 31
0.0
  0
LINE
  5
5E5
330
4E3
100
AcDbEntity
  8
0
  6
Continuous
 62
     7
370
    25
100
AcDbLine
 10
-625.1187914447
 20
43.8918755167
 30
0.0
 11
-625.5318057947
 21
41.1334762403
 31
0.0
  0
LINE
  5
5E6
330
4E3
100
AcDbEntity
  8
0
  6
Continuous
 62
     7
370
    25
100
AcDbLine
 10
-625.5318057947
 20
41.1334762403
 30
0.0
 11
-624.6277531906
 21
40.181273737
 31
0.0
  0
LINE
  5
5E7
330
4E3
100
AcDbEntity
  8
0
  6
Continuous
 62
     7
370
    25
100
AcDbLine
 10
-624.6277531906
 20
40.181273737
 30
0.0
 11
-623.3106862366
 21
41.9874705101
 31
0.0
  0
LINE
  5
5E8
330
4E3
100
AcDbEntity
  8
0
  6
Continuous
 62
     7
370
    25
100
AcDbLine
 10
-623.3106862366
 20
41.9874705101
 30
0.0
 11
-622.8976718866
 21
44.7458697865
 31
0.0
  0
LINE
  5
5E9
330
4E3
100
AcDbEntity
  8
0
  6
Continuous
 62
     7
370
    25
100
AcDbLine
 10
-624.2316898069
 20
45.1084272727
 30
0.0
 11
-622.8976718866
 21
44.7458697865
 31
0.0
  0
LINE
  5
5EA
330
4E3
100
AcDbEntity
  8
0
  6
Continuous
 62
     7
370
    25
100
AcDbLine
 10
-625.322086883
 20
42.5341261067
 30
0.0
 11
-623.3106862366
 21
41.9874705101
 31
0.0
  0
LINE
  5
5EB
330
4E3
100
AcDbEntity
  8
0
  6
Continuous
 62
     7
370
    25
100
AcDbLine
 10
-611.4636348578
 20
55.9058404532
 30
0.0
 11
-612.3676874619
 21
56.8580429565
 31
0.0
  0
LINE
  5
5EC
330
4E3
100
AcDbEntity
  8
0
  6
Continuous
 62
     7
370
    25
100
AcDbLine
 10
-612.3676874619
 20
56.8580429565
 30
0.0
 11
-613.6847544159
 21
55.0518461834
 31
0.0
  0
LINE
  5
5ED
330
4E3
100
AcDbEntity
  8
0
  6
Continuous
 62
     7
370
    25
100
AcDbLine
 10
-613.6847544159
 20
55.0518461834
 30
0.0
 11
-614.0977687659
 21
52.293446907
 31
0.0
  0
LINE
  5
5EE
330
4E3
100
AcDbEntity
  8
0
  6
Continuous
 62
     7
370
    25
100
AcDbLine
 10
-614.0977687659
 20
52.293446907
 30
0.0
 11
-613.1937161618
 21
51.3412444037
 31
0.0
  0
LINE
  5
5EF
330
4E3
100
AcDbEntity
  8
0
  6
Continuous
 62
     7
370
    25
100
AcDbLine
 10
-613.1937161618
 20
51.3412444037
 30
0.0
 11
-611.8766492078
 21
53.1474411768
 31
0.0
  0
LINE
  5
5F0
330
4E3
100
AcDbEntity
  8
0
  6
Continuous
 62
     7
370
    25
100
AcDbLine
 10
-611.8766492078
 20
53.1474411768
 30
0.0
 11
-611.4636348578
 21
55.9058404532
 31
0.0
  0
LINE
  5
5F1
330
4E3
100
AcDbEntity
  8
0
  6
Continuous
 62
     7
370
    25
100
AcDbLine
 10
-612.7976527781
 20
56.2683979394
 30
0.0
 11
-611.4636348578
 21
55.9058404532
 31
0.0
  0
LINE
  5
5F2
330
4E3
100
AcDbEntity
  8
0
  6
Continuous
 62
     7
370
    25
100
AcDbLine
 10
-613.8880498543
 20
53.6940967734
 30
0.0
 11
-611.8766492078
 21
53.1474411768
 31
0.0
  0
LINE
  5
5F3
330
4E3
100
AcDbEntity
  8
0
  6
Continuous
 62
     7
370
    25
100
AcDbLine
 10
-605.535407697
 20
224.4079816528
 30
0.0
 11
-744.6106335981
 21
88.6662976252
 31
0.0
  0
LINE
  5
5F4
330
4E3
100
AcDbEntity
  8
0
  6
Continuous
 62
     7
370
    25
100
AcDbLine
 10
-745.9617471088
 20
89.3083218137
 30
0.0
 11
-744.6106335981
 21
88.6662976252
 31
0.0
  0
LINE
  5
5F5
330
4E3
100
AcDbEntity
  8
0
  6
Continuous
 62
     7
370
    25
100
AcDbLine
 10
-745.9617471088
 20
89.3083218137
 30
0.0
 11
-605.9531304297
 21
225.961023855
 31
0.0
  0
LINE
  5
5F6
330
4E3
100
AcDbEntity
  8
0
  6
Continuous
 62
     7
370
    25
100
AcDbLine
 10
-605.535407697
 20
224.4079816528
 30
0.0
 11
-605.9531304297
 21
225.961023855
 31
0.0
  0
LINE
  5
5F7
330
4E3
100
AcDbEntity
  8
0
  6
Continuous
 62
     7
370
    25
100
AcDbLine
 10
-745.9617471088
 20
-1560.7387320379
 30
0.0
 11
-745.9617471088
 21
89.3083218137
 31
0.0
  0
LINE
  5
5F8
330
4E3
100
AcDbEntity
  8
0
  6
Continuous
 62
     7
370
    25
100
AcDbLine
 10
-744.6106335981
 20
88.6662976252
 30
0.0
 11
-744.6106335981
 21
-1559.666421625
 31
0.0
  0
LINE
  5
5F9
330
4E3
100
AcDbEntity
  8
0
  6
Continuous
 62
     7
370
    25
100
AcDbLine
 10
-745.9617471088
 20
-1560.7387320379
 30
0.0
 11
-744.6106335981
 21
-1559.666421625
 31
0.0
  0
LINE
  5
5FA
330
4E3
100
AcDbEntity
  8
0
  6
Continuous
 62
     7
370
    25
100
AcDbLine
 10
-745.9617471088
 20
-1560.7387320379
 30
0.0
 11
-751.2682558388
 21
-1559.2965366698
 31
0.0
  0
LINE
  5
5FB
330
4E3
100
AcDbEntity
  8
0
  6
Continuous
 62
     7
370
    25
100
AcDbLine
 10
-751.2682558388
 20
90.7505171819
 30
0.0
 11
-751.2682558388
 21
-1559.2965366698
 31
0.0
  0
LINE
  5
5FC
330
4E3
100
AcDbEntity
  8
0
  6
Continuous
 62
     7
370
    25
100
AcDbLine
 10
-745.9617471088
 20
89.3083218137
 30
0.0
 11
-751.2682558388
 21
90.7505171819
 31
0.0
  0
LINE
  5
5FD
330
4E3
100
AcDbEntity
  8
0
  6
Continuous
 62
     7
370
    25
100
AcDbLine
 10
-611.2596391598
 20
227.4032192231
 30
0.0
 11
-751.2682558388
 21
90.7505171819
 31
0.0
  0
LINE
  5
5FE
330
4E3
100
AcDbEntity
  8
0
  6
Continuous
 62
     7
370
    25
100
AcDbLine
 10
-605.9531304297
 20
225.961023855
 30
0.0
 11
-611.2596391598
 21
227.4032192231
 31
0.0
  0
LINE
  5
5FF
330
4E3
100
AcDbEntity
  8
0
  6
Continuous
 62
     7
370
    25
100
AcDbLine
 10
-744.6106335981
 20
-1559.666421625
 30
0.0
 11
-605.535407697
 21
-1423.9247375974
 31
0.0
  0
LINE
  5
600
330
4E3
100
AcDbEntity
  8
0
  6
Continuous
 62
     7
370
    25
100
AcDbLine
 10
-605.535407697
 20
-1423.9247375974
 30
0.0
 11
-605.535407697
 21
224.4079816528
 31
0.0
  0
LINE
  5
601
330
4E3
100
AcDbEntity
  8
0
  6
Continuous
 62
     7
370
    25
100
AcDbLine
 10
-751.6859785716
 20
-1557.7434944676
 30
0.0
 11
-751.6859785716
 21
90.5892247826
 31
0.0
  0
LINE
  5
602
330
4E3
100
AcDbEntity
  8
0
  6
Continuous
 62
     7
370
    25
100
AcDbLine
 10
-751.6859785716
 20
90.5892247826
 30
0.0
 11
-751.2682558388
 21
90.7505171819
 31
0.0
  0
LINE
  5
603
330
4E3
100
AcDbEntity
  8
0
  6
Continuous
 62
     7
370
    25
100
AcDbLine
 10
-751.6859785716
 20
-1557.7434944676
 30
0.0
 11
-751.2682558388
 21
-1559.2965366698
 31
0.0
  0
LINE
  5
604
330
4E3
100
AcDbEntity
  8
0
  6
Continuous
 62
     7
370
    25
100
AcDbLine
 10
-751.6859785716
 20
90.5892247826
 30
0.0
 11
-612.6107526704
 21
226.3309088103
 31
0.0
  0
LINE
  5
605
330
4E3
100
AcDbEntity
  8
0
  6
Continuous
 62
     7
370
    25
100
AcDbLine
 10
-611.2596391598
 20
227.4032192231
 30
0.0
 11
-612.6107526704
 21
226.3309088103
 31
0.0
  0
LINE
  5
606
330
4E3
100
AcDbEntity
  8
0
  6
Continuous
 62
     8
370
    25
100
AcDbLine
 10
-611.4042665766
 20
248.0514712388
 30
0.0
 11
-611.4042665766
 21
246.1766172602
 31
0.0
  0
LINE
  5
607
330
4E3
100
AcDbEntity
  8
0
  6
Continuous
 62
     8
370
    25
100
AcDbLine
 10
-602.648527172
 20
57.6932574673
 30
0.0
 11
-602.648527172
 21
-1239.1133493948
 31
0.0
  0
LINE
  5
608
330
4E3
100
AcDbEntity
  8
0
  6
Continuous
 62
     8
370
    25
100
AcDbLine
 10
-602.648527172
 20
-1268.515990179
 30
0.0
 11
-602.648527172
 21
-1425.8043874878
 31
0.0
  0
ARC
  5
609
330
4E3
100
AcDbEntity
  8
0
  6
Continuous
 62
     7
370
    25
100
AcDbCircle
 10
-568.1573193026
 20
208.1360169325
 30
0.0
 40
52.61463391803252
100
AcDbArc
 50
119.6637209805
 51
133.6969285089
  0
ARC
  5
60A
330
4E3
100
AcDbEntity
  8
0
  6
Continuous
 62
     7
370
    25
100
AcDbCircle
 10
-633.3912684121
 20
271.1928992923
 30
0.0
 40
31.9210579723772
100
AcDbArc
 50
313.5346415088
 51
333.135399982
  0
ARC
  5
60B
330
4E3
100
AcDbEntity
  8
0
  6
Continuous
 62
     7
370
    25
100
AcDbCircle
 10
-567.3035270548
 20
208.6814491762
 30
0.0
 40
51.16208267490939
100
AcDbArc
 50
119.6637209805
 51
133.6969285089
  0
ARC
  5
60C
330
4E3
100
AcDbEntity
  8
0
  6
Continuous
 62
     7
370
    25
100
AcDbCircle
 10
-634.6415433495
 20
271.0587938906
 30
0.0
 40
31.03980177068309
100
AcDbArc
 50
313.5346415088
 51
333.135399982
  0
ARC
  5
60D
330
4E3
100
AcDbEntity
  8
0
  6
Continuous
 62
     7
370
    25
100
AcDbCircle
 10
-606.7261754234
 20
91.8913835844
 30
0.0
 40
6.294751372410389
100
AcDbArc
 50
280.9042540022
 51
310.3748404577
  0
ARC
  5
60E
330
4E3
100
AcDbEntity
  8
0
  6
Continuous
 62
     7
370
    25
100
AcDbCircle
 10
-569.7651498444
 20
53.0525931429
 30
0.0
 40
47.33141797145385
100
AcDbArc
 50
123.9255592971
 51
134.0070878912
  0
ARC
  5
60F
330
4E3
100
AcDbEntity
  8
0
  6
Continuous
 62
     7
370
    25
100
AcDbCircle
 10
-567.3035270548
 20
-1462.794787193
 30
0.0
 40
51.16208267490237
100
AcDbArc
 50
119.6637209805
 51
133.6969285089
  0
ARC
  5
610
330
4E3
100
AcDbEntity
  8
0
  6
Continuous
 62
     7
370
    25
100
AcDbCircle
 10
-569.7651498444
 20
-1273.1566545035
 30
0.0
 40
47.33141797146664
100
AcDbArc
 50
123.9255592971
 51
134.0070878912
  0
ARC
  5
611
330
4E3
100
AcDbEntity
  8
0
  6
Continuous
 62
     7
370
    25
100
AcDbCircle
 10
-568.9982157031
 20
53.2575865002
 30
0.0
 40
46.53580530362196
100
AcDbArc
 50
123.7272002704
 51
133.9952036273
  0
ARC
  5
612
330
4E3
100
AcDbEntity
  8
0
  6
Continuous
 62
     7
370
    25
100
AcDbCircle
 10
-606.6889992187
 20
93.2202635261
 30
0.0
 40
8.417830197667694
100
AcDbArc
 50
277.8766827418
 51
309.6121237136
  0
ARC
  5
613
330
4E3
100
AcDbEntity
  8
0
  6
Continuous
 62
     7
370
    25
100
AcDbCircle
 10
-606.6889992187
 20
90.2201779736
 30
0.0
 40
8.417830197670469
100
AcDbArc
 50
277.8766827418
 51
309.6121237136
  0
ARC
  5
614
330
4E3
100
AcDbEntity
  8
0
  6
Continuous
 62
     7
370
    25
100
AcDbCircle
 10
-570.522716052
 20
29.8883647427
 30
0.0
 40
44.22113138369099
100
AcDbArc
 50
126.638938199
 51
134.1453626335
  0
ARC
  5
615
330
4E3
100
AcDbEntity
  8
0
  6
Continuous
 62
     7
370
    25
100
AcDbCircle
 10
-568.9982157031
 20
25.1424990371
 30
0.0
 40
46.53580530362274
100
AcDbArc
 50
123.7272002704
 51
133.9952036273
  0
ARC
  5
616
330
4E3
100
AcDbEntity
  8
0
  6
Continuous
 62
     7
370
    25
100
AcDbCircle
 10
-570.522716052
 20
52.0032811008
 30
0.0
 40
44.22113138368908
100
AcDbArc
 50
126.638938199
 51
134.1453626335
  0
ARC
  5
617
330
4E3
100
AcDbEntity
  8
0
  6
Continuous
 62
     7
370
    25
100
AcDbCircle
 10
-606.6889992187
 20
68.1052616155
 30
0.0
 40
8.417830197670293
100
AcDbArc
 50
277.8766827418
 51
309.6121237136
  0
ARC
  5
618
330
4E3
100
AcDbEntity
  8
0
  6
Continuous
 62
     7
370
    25
100
AcDbCircle
 10
-606.6889992187
 20
65.105176063
 30
0.0
 40
8.417830197667667
100
AcDbArc
 50
277.8766827418
 51
309.6121237136
  0
ARC
  5
619
330
4E3
100
AcDbEntity
  8
0
  6
Continuous
 62
     7
370
    25
100
AcDbCircle
 10
-606.7261754234
 20
-1234.317864062
 30
0.0
 40
6.294751372407945
100
AcDbArc
 50
280.9042540022
 51
310.3748404578
  0
ARC
  5
61A
330
4E3
100
AcDbEntity
  8
0
  6
Continuous
 62
     7
370
    25
100
AcDbCircle
 10
-568.9982157031
 20
-1272.9516611462
 30
0.0
 40
46.53580530363809
100
AcDbArc
 50
123.7272002704
 51
133.9952036273
  0
ARC
  5
61B
330
4E3
100
AcDbEntity
  8
0
  6
Continuous
 62
     7
370
    25
100
AcDbCircle
 10
-606.6889992187
 20
-1232.9889841203
 30
0.0
 40
8.417830197667763
100
AcDbArc
 50
277.8766827418
 51
309.6121237136
  0
ARC
  5
61C
330
4E3
100
AcDbEntity
  8
0
  6
Continuous
 62
     7
370
    25
100
AcDbCircle
 10
-606.6889992187
 20
-1235.9890696727
 30
0.0
 40
8.417830197661319
100
AcDbArc
 50
277.8766827418
 51
309.6121237136
  0
ARC
  5
61D
330
4E3
100
AcDbEntity
  8
0
  6
Continuous
 62
     7
370
    25
100
AcDbCircle
 10
-568.9982157031
 20
-1301.0667486092
 30
0.0
 40
46.53580530360257
100
AcDbArc
 50
123.7272002704
 51
133.9952036273
  0
ARC
  5
61E
330
4E3
100
AcDbEntity
  8
0
  6
Continuous
 62
     7
370
    25
100
AcDbCircle
 10
-570.5227160521
 20
-1296.3208829036
 30
0.0
 40
44.22113138363528
100
AcDbArc
 50
126.638938199
 51
134.1453626335
  0
ARC
  5
61F
330
4E3
100
AcDbEntity
  8
0
  6
Continuous
 62
     7
370
    25
100
AcDbCircle
 10
-570.5227160521
 20
-1274.2059665455
 30
0.0
 40
44.22113138363512
100
AcDbArc
 50
126.638938199
 51
134.1453626335
  0
ARC
  5
620
330
4E3
100
AcDbEntity
  8
0
  6
Continuous
 62
     7
370
    25
100
AcDbCircle
 10
-606.6889992187
 20
-1258.1039860308
 30
0.0
 40
8.41783019766655
100
AcDbArc
 50
277.8766827418
 51
309.6121237136
  0
ARC
  5
621
330
4E3
100
AcDbEntity
  8
0
  6
Continuous
 62
     7
370
    25
100
AcDbCircle
 10
-606.6889992187
 20
-1261.1040715833
 30
0.0
 40
8.417830197668284
100
AcDbArc
 50
277.8766827418
 51
309.6121237136
  0
ARC
  5
622
330
4E3
100
AcDbEntity
  8
0
  6
Continuous
 62
     7
370
    25
100
AcDbCircle
 10
-607.7335392996
 20
-1419.0592899123
 30
0.0
 40
8.447111319311082
100
AcDbArc
 50
260.7432894534
 51
307.0120070662
  0
ARC
  5
623
330
4E3
100
AcDbEntity
  8
0
  6
Continuous
 62
     7
370
    25
100
AcDbCircle
 10
-630.4972847611
 20
-1268.1361214265
 30
0.0
 40
4.089984371672504
100
AcDbArc
 50
140.5129436103
 51
180.3434369839
  0
ARC
  5
624
330
4E3
100
AcDbEntity
  8
0
  6
Continuous
 62
     7
370
    25
100
AcDbCircle
 10
-626.0751941528
 20
-1269.3379508999
 30
0.0
 40
4.08998437166944
100
AcDbArc
 50
140.5129436103
 51
180.3434369839
  0
ARC
  5
625
330
4E3
100
AcDbEntity
  8
0
  6
Continuous
 62
     7
370
    25
100
AcDbCircle
 10
-610.9202464997
 20
-1286.0412276993
 30
0.0
 40
4.089984371668322
100
AcDbArc
 50
320.5129436103
 51
0.3434369839
  0
ARC
  5
626
330
4E3
100
AcDbEntity
  8
0
  6
Continuous
 62
     7
370
    25
100
AcDbCircle
 10
-633.5833832386
 20
-1307.7790698154
 30
0.0
 40
1.021401484099408
100
AcDbArc
 50
169.35156043
 51
234.3744174932
  0
ARC
  5
627
330
4E3
100
AcDbEntity
  8
0
  6
Continuous
 62
     7
370
    25
100
AcDbCircle
 10
-611.7484012921
 20
-1244.9000501791
 30
0.0
 40
0.5408983468895854
100
AcDbArc
 50
80.7318299961
 51
143.9675277127
  0
ARC
  5
628
330
4E3
100
AcDbEntity
  8
0
  6
Continuous
 62
     7
370
    25
100
AcDbCircle
 10
-626.0751941528
 20
56.8712967464
 30
0.0
 40
4.08998437166944
100
AcDbArc
 50
140.5129436103
 51
180.3434369839
  0
ARC
  5
629
330
4E3
100
AcDbEntity
  8
0
  6
Continuous
 62
     7
370
    25
100
AcDbCircle
 10
-610.9202464997
 20
40.1680199471
 30
0.0
 40
4.089984371667965
100
AcDbArc
 50
320.5129436103
 51
0.3434369839
  0
ARC
  5
62A
330
4E3
100
AcDbEntity
  8
0
  6
Continuous
 62
     7
370
    25
100
AcDbCircle
 10
-630.4972847611
 20
58.0731262199
 30
0.0
 40
4.089984371671141
100
AcDbArc
 50
140.5129436103
 51
180.3434369839
  0
ARC
  5
62B
330
4E3
100
AcDbEntity
  8
0
  6
Continuous
 62
     7
370
    25
100
AcDbCircle
 10
-633.5833832386
 20
18.4301778309
 30
0.0
 40
1.021401484099041
100
AcDbArc
 50
169.35156043
 51
234.3744174932
  0
ARC
  5
62C
330
4E3
100
AcDbEntity
  8
0
  6
Continuous
 62
     7
370
    25
100
AcDbCircle
 10
-611.7484012921
 20
81.3091974672
 30
0.0
 40
0.5408983468933302
100
AcDbArc
 50
80.7318299963
 51
143.9675277125
  0
VIEWPORT
  5
77D
330
4E3
100
AcDbEntity
  8
0
100
AcDbViewport
 10
0.0
 20
0.0
 30
0.0
 40
205.6
 41
156.0
 68
     1
 69
     1
 12
773.8560942931
 22
998.2062649258
 13
0.0
 23
0.0
 14
10.0
 24
10.0
 15
10.0
 25
10.0
 16
0.0
 26
0.0
 36
1.0
 17
0.0
 27
0.0
 37
0.0
 42
50.0
 43
0.0
 44
0.0
 45
1989.0
 50
0.0
 51
0.0
 72
   100
 90
   557152
  1

281
     0
 71
     1
 74
     0
110
0.0
120
0.0
130
0.0
111
1.0
121
0.0
131
0.0
112
0.0
122
1.0
132
0.0
 79
     0
146
0.0
  0
ENDBLK
  5
4E6
330
4E3
100
AcDbEntity
  8
0
100
AcDbBlockEnd
  0
BLOCK
  5
62F
330
62D
100
AcDbEntity
  8
0
100
AcDbBlockBegin
  2
*Paper_Space6
 70
     0
 10
0.0
 20
0.0
 30
0.0
  3
*Paper_Space6
  1

  0
LWPOLYLINE
  5
640
330
62D
100
AcDbEntity
  8
0
  6
Continuous
 62
     7
370
    25
100
AcDbPolyline
 90
       26
 70
   128
 43
0.0
 10
-255.3767396302
 20
-759.290111029
 10
-254.8750256524
 20
-758.3778635691
 10
-254.4328847677
 20
-757.2001903771
 10
-254.078098314
 20
-755.831088991
 10
-253.8329588289
 20
-754.3565850859
 10
-253.712869328
 20
-752.8693271652
 10
-253.7253754761
 20
-751.4627651137
 10
-253.869691466
 20
-750.2252783981
 10
-254.1367493934
 20
-749.2346228599
 10
-254.5097690264
 20
-748.5530450299
 10
-254.9653121696
 20
-748.2233709499
 10
-255.4747553721
 20
-748.2663152547
 10
-256.0060884437
 20
-748.6791795958
 10
-256.5259257735
 20
-749.4360221882
 10
-257.0016040702
 20
-750.4892878283
 10
-257.403234717
 20
-751.7727959623
 10
-257.7055817833
 20
-753.2058990538
 10
-257.889647691
 20
-754.698549965
 10
-257.9438669021
 20
-756.1569599494
 10
-257.8648326241
 20
-757.4894917442
 10
-257.6575108715
 20
-758.6124174759
 10
-257.3349284325
 20
-759.455179591
 10
-256.917354348
 20
-759.9648242463
 10
-256.4310263335
 20
-760.1093285939
 10
-255.9065021667
 20
-759.879612894
 10
-255.3767396302
 20
-759.290111029
  0
LWPOLYLINE
  5
647
330
62D
100
AcDbEntity
  8
0
  6
Continuous
 62
     7
370
    25
100
AcDbPolyline
 90
        3
 70
   128
 43
0.0
 10
-255.260216213
 20
-748.1770938405
 10
-255.6618382414
 20
-748.2427450287
 10
-255.9175186733
 20
-748.3968320104
  0
LWPOLYLINE
  5
648
330
62D
100
AcDbEntity
  8
0
  6
Continuous
 62
     7
370
    25
100
AcDbPolyline
 90
        3
 70
   128
 43
0.0
 10
-257.3424761147
 20
-759.7070643089
 10
-257.1044372173
 20
-759.9412540203
 10
-256.7602162122
 20
-760.0829747404
  0
LWPOLYLINE
  5
64E
330
62D
100
AcDbEntity
  8
0
  6
Continuous
 62
     7
370
    25
100
AcDbPolyline
 90
       11
 70
   128
 43
0.0
 10
-259.5842692224
 20
908.1901192343
 10
-259.8318083425
 20
907.7918472505
 10
-259.6980136015
 20
907.3875701534
 10
-259.1959817608
 20
907.0168614021
 10
-258.3748551949
 20
906.716008552
 10
-257.3150114932
 20
906.5144611763
 10
-256.1201955415
 20
906.4319481363
 10
-254.90736425
 20
906.4765463833
 10
-253.7952379959
 20
906.6438903301
 10
-252.8926794454
 20
906.9175991853
 10
-252.288037318
 20
907.2708804192
  0
LWPOLYLINE
  5
654
330
62D
100
AcDbEntity
  8
0
  6
Continuous
 62
     7
370
    25
100
AcDbPolyline
 90
       13
 70
   128
 43
0.0
 10
-261.5486393505
 20
908.4376066076
 10
-261.9064366304
 20
907.9293064324
 10
-261.8573689657
 20
907.4074579156
 10
-261.4047802366
 20
906.9076241712
 10
-260.579513617
 20
906.4638680429
 10
-259.4378096634
 20
906.1064307774
 10
-258.0574736133
 20
905.8596711337
 10
-256.5325730874
 20
905.7404053738
 10
-254.9670275367
 20
905.756761262
 10
-253.4675263031
 20
905.9076241717
 10
-252.1362579177
 20
906.1827130448
 10
-251.063946121
 20
906.5632810293
 10
-250.3236671898
 20
907.0233930459
  0
LWPOLYLINE
  5
65A
330
62D
100
AcDbEntity
  8
0
  6
Continuous
 62
     7
370
    25
100
AcDbPolyline
 90
        3
 70
   128
 43
0.0
 10
-251.6613703141
 20
731.9074094485
 10
-251.063946121
 20
732.1436083314
 10
-250.3236671898
 20
732.603720348
  0
LWPOLYLINE
  5
671
330
62D
100
AcDbEntity
  8
0
  6
Continuous
 62
     7
370
    25
100
AcDbPolyline
 90
        3
 70
   128
 43
0.0
 10
-250.3236671898
 20
-726.1104288312
 10
-251.063946121
 20
-726.5705408477
 10
-251.6613703141
 20
-726.8067397307
  0
LWPOLYLINE
  5
686
330
62D
100
AcDbEntity
  8
0
  6
Continuous
 62
     7
370
    25
100
AcDbPolyline
 90
        9
 70
   128
 43
0.0
 10
-268.9929971399
 20
-787.4529406092
 10
-268.9794102813
 20
-787.8088239654
 10
-268.9391718411
 20
-788.1270659579
 10
-268.8738281599
 20
-788.3954367255
 10
-268.7858903587
 20
-788.60362293
 10
-268.6787378379
 20
-788.7436240925
 10
-268.5564884088
 20
-788.8100600466
 10
-268.4238400484
 20
-788.8003776961
 10
-268.2858903588
 20
-788.7149491281
  0
LWPOLYLINE
  5
689
330
62D
100
AcDbEntity
  8
0
  6
Continuous
 62
     7
370
    25
100
AcDbPolyline
 90
        9
 70
   128
 43
0.0
 10
-251.3153276142
 20
-728.4934855868
 10
-251.3289144728
 20
-728.1376022307
 10
-251.369152913
 20
-727.8193602381
 10
-251.4344965942
 20
-727.5509894706
 10
-251.5224343954
 20
-727.342803266
 10
-251.6295869162
 20
-727.2028021036
 10
-251.7518363453
 20
-727.1363661494
 10
-251.8844847057
 20
-727.1460484999
 10
-252.0224343953
 20
-727.2314770679
  0
LWPOLYLINE
  5
68D
330
62D
100
AcDbEntity
  8
0
  6
Continuous
 62
     7
370
    25
100
AcDbPolyline
 90
       27
 70
   128
 43
0.0
 10
-258.0151643644
 20
-756.0867941659
 10
-257.9514679268
 20
-754.6317195612
 10
-257.7640804194
 20
-753.1488586479
 10
-257.4638921229
 20
-751.7243899124
 10
-257.0683488901
 20
-750.4410982999
 10
-256.6004382559
 20
-749.3735640543
 10
-256.0873534856
 20
-748.5838283856
 10
-255.558913201
 20
-748.1177878603
 10
-255.0458284306
 20
-748.0025270597
 10
-254.5779177964
 20
-748.2447445227
 10
-254.1823745636
 20
-748.8303634507
 10
-253.8821862672
 20
-749.7253498003
 10
-253.6947987597
 20
-750.8776902179
 10
-253.6311023221
 20
-752.220414867
 10
-253.6947987597
 20
-753.6754894718
 10
-253.8821862672
 20
-755.158350385
 10
-254.1823745636
 20
-756.5828191205
 10
-254.5779177964
 20
-757.866110733
 10
-255.0458284306
 20
-758.9336449787
 10
-255.558913201
 20
-759.7233806474
 10
-256.0873534856
 20
-760.1894211727
 10
-256.6004382559
 20
-760.3046819732
 10
-257.0683488901
 20
-760.0624645102
 10
-257.4638921229
 20
-759.4768455822
 10
-257.7640804194
 20
-758.5818592327
 10
-257.9514679268
 20
-757.4295188151
 10
-258.0151643644
 20
-756.0867941659
  0
LWPOLYLINE
  5
68E
330
62D
100
AcDbEntity
  8
0
  6
Continuous
 62
     7
370
    25
100
AcDbPolyline
 90
       27
 70
   128
 43
0.0
 10
-266.677222432
 20
-763.726011329
 10
-266.6135259944
 20
-762.2709367243
 10
-266.4261384869
 20
-760.788075811
 10
-266.1259501905
 20
-759.3636070755
 10
-265.7304069577
 20
-758.080315463
 10
-265.2624963235
 20
-757.0127812174
 10
-264.7494115531
 20
-756.2230455486
 10
-264.2209712685
 20
-755.7570050234
 10
-263.7078864982
 20
-755.6417442228
 10
-263.239975864
 20
-755.8839616858
 10
-262.8444326311
 20
-756.4695806138
 10
-262.5442443347
 20
-757.3645669634
 10
-262.3568568273
 20
-758.5169073809
 10
-262.2931603896
 20
-759.8596320301
 10
-262.3568568273
 20
-761.3147066349
 10
-262.5442443347
 20
-762.7975675481
 10
-262.8444326311
 20
-764.2220362836
 10
-263.239975864
 20
-765.5053278961
 10
-263.7078864982
 20
-766.5728621418
 10
-264.2209712685
 20
-767.3625978105
 10
-264.7494115531
 20
-767.8286383358
 10
-265.2624963235
 20
-767.9438991363
 10
-265.7304069577
 20
-767.7016816733
 10
-266.1259501905
 20
-767.1160627453
 10
-266.4261384869
 20
-766.2210763958
 10
-266.6135259944
 20
-765.0687359782
 10
-266.677222432
 20
-763.726011329
  0
LWPOLYLINE
  5
693
330
62D
100
AcDbEntity
  8
0
  6
Continuous
 62
     7
370
    25
100
AcDbPolyline
 90
        8
 70
   128
 43
0.0
 10
-273.2129620923
 20
-788.2243888775
 10
-273.2335601425
 20
-788.2208043959
 10
-273.3558095716
 20
-788.1543684417
 10
-273.4629620923
 20
-788.0143672793
 10
-273.5508998935
 20
-787.8061810747
 10
-273.6162435747
 20
-787.5378103072
 10
-273.656482015
 20
-787.2195683146
 10
-273.6700688735
 20
-786.8636849585
  0
LWPOLYLINE
  5
694
330
62D
100
AcDbEntity
  8
0
  6
Continuous
 62
     7
370
    25
100
AcDbPolyline
 90
        3
 70
   128
 43
0.0
 10
-256.6995061289
 20
-726.6422214172
 10
-256.5615564393
 20
-726.5567928492
 10
-256.449506129
 20
-726.5435260171
  0
LWPOLYLINE
  5
696
330
62D
100
AcDbEntity
  8
0
  6
Continuous
 62
     7
370
    25
100
AcDbPolyline
 90
        9
 70
   128
 43
0.0
 10
-268.9929971399
 20
671.2612085699
 10
-268.9794102813
 20
670.9053252138
 10
-268.9391718411
 20
670.5870832213
 10
-268.8738281599
 20
670.3187124537
 10
-268.7858903587
 20
670.1105262491
 10
-268.6787378379
 20
669.9705250867
 10
-268.5564884088
 20
669.9040891325
 10
-268.4238400484
 20
669.9137714831
 10
-268.2858903588
 20
669.999200051
  0
LWPOLYLINE
  5
69A
330
62D
100
AcDbEntity
  8
0
  6
Continuous
 62
     7
370
    25
100
AcDbPolyline
 90
        9
 70
   128
 43
0.0
 10
-251.3153276142
 20
730.2206635924
 10
-251.3289144728
 20
730.5765469485
 10
-251.369152913
 20
730.894788941
 10
-251.4344965942
 20
731.1631597086
 10
-251.5224343954
 20
731.3713459131
 10
-251.6295869162
 20
731.5113470756
 10
-251.7518363453
 20
731.5777830298
 10
-251.8844847057
 20
731.5681006792
 10
-252.0224343953
 20
731.4826721112
  0
LWPOLYLINE
  5
69E
330
62D
100
AcDbEntity
  8
0
  6
Continuous
 62
     7
370
    25
100
AcDbPolyline
 90
       27
 70
   128
 43
0.0
 10
-258.0151643644
 20
702.6273550133
 10
-257.9514679268
 20
704.082429618
 10
-257.7640804194
 20
705.5652905313
 10
-257.4638921229
 20
706.9897592667
 10
-257.0683488901
 20
708.2730508793
 10
-256.6004382559
 20
709.3405851249
 10
-256.0873534856
 20
710.1303207936
 10
-255.558913201
 20
710.5963613189
 10
-255.0458284306
 20
710.7116221194
 10
-254.5779177964
 20
710.4694046564
 10
-254.1823745636
 20
709.8837857284
 10
-253.8821862672
 20
708.9887993789
 10
-253.6947987597
 20
707.8364589613
 10
-253.6311023221
 20
706.4937343121
 10
-253.6947987597
 20
705.0386597074
 10
-253.8821862672
 20
703.5557987941
 10
-254.1823745636
 20
702.1313300587
 10
-254.5779177964
 20
700.8480384461
 10
-255.0458284306
 20
699.7805042005
 10
-255.558913201
 20
698.9907685318
 10
-256.0873534856
 20
698.5247280065
 10
-256.6004382559
 20
698.409467206
 10
-257.0683488901
 20
698.6516846689
 10
-257.4638921229
 20
699.2373035969
 10
-257.7640804194
 20
700.1322899465
 10
-257.9514679268
 20
701.2846303641
 10
-258.0151643644
 20
702.6273550133
  0
LWPOLYLINE
  5
69F
330
62D
100
AcDbEntity
  8
0
  6
Continuous
 62
     7
370
    25
100
AcDbPolyline
 90
       27
 70
   128
 43
0.0
 10
-266.677222432
 20
694.9881378502
 10
-266.6135259944
 20
696.4432124549
 10
-266.4261384869
 20
697.9260733682
 10
-266.1259501905
 20
699.3505421036
 10
-265.7304069577
 20
700.6338337162
 10
-265.2624963235
 20
701.7013679618
 10
-264.7494115531
 20
702.4911036305
 10
-264.2209712685
 20
702.9571441558
 10
-263.7078864982
 20
703.0724049563
 10
-263.239975864
 20
702.8301874933
 10
-262.8444326311
 20
702.2445685653
 10
-262.5442443347
 20
701.3495822158
 10
-262.3568568273
 20
700.1972417982
 10
-262.2931603896
 20
698.854517149
 10
-262.3568568273
 20
697.3994425443
 10
-262.5442443347
 20
695.916581631
 10
-262.8444326311
 20
694.4921128956
 10
-263.239975864
 20
693.208821283
 10
-263.7078864982
 20
692.1412870374
 10
-264.2209712685
 20
691.3515513687
 10
-264.7494115531
 20
690.8855108434
 10
-265.2624963235
 20
690.7702500429
 10
-265.7304069577
 20
691.0124675059
 10
-266.1259501905
 20
691.5980864338
 10
-266.4261384869
 20
692.4930727834
 10
-266.6135259944
 20
693.645413201
 10
-266.677222432
 20
694.9881378502
  0
LWPOLYLINE
  5
6A7
330
62D
100
AcDbEntity
  8
0
  6
Continuous
 62
     7
370
    25
100
AcDbPolyline
 90
        8
 70
   128
 43
0.0
 10
-273.2129620923
 20
670.4897603017
 10
-273.2335601425
 20
670.4933447832
 10
-273.3558095716
 20
670.5597807374
 10
-273.4629620923
 20
670.6997818999
 10
-273.5508998935
 20
670.9079681044
 10
-273.6162435747
 20
671.176338872
 10
-273.656482015
 20
671.4945808645
 10
-273.6700688735
 20
671.8504642206
  0
LWPOLYLINE
  5
6A8
330
62D
100
AcDbEntity
  8
0
  6
Continuous
 62
     7
370
    25
100
AcDbPolyline
 90
        3
 70
   128
 43
0.0
 10
-256.6995061289
 20
732.071927762
 10
-256.5615564393
 20
732.1573563299
 10
-256.449506129
 20
732.1706231621
  0
LWPOLYLINE
  5
6A9
330
62D
100
AcDbEntity
  8
0
  6
Continuous
 62
     7
370
    25
100
AcDbPolyline
 90
       26
 70
   128
 43
0.0
 10
-264.0387976978
 20
-766.9293281921
 10
-263.5370837199
 20
-766.0170807322
 10
-263.0949428352
 20
-764.8394075402
 10
-262.7401563815
 20
-763.4703061541
 10
-262.4950168965
 20
-761.995802249
 10
-262.3749273955
 20
-760.5085443283
 10
-262.3874335436
 20
-759.1019822768
 10
-262.5317495336
 20
-757.8644955612
 10
-262.7988074609
 20
-756.873840023
 10
-263.1718270939
 20
-756.192262193
 10
-263.6273702372
 20
-755.862588113
 10
-264.1368134396
 20
-755.9055324178
 10
-264.6681465112
 20
-756.3183967589
 10
-265.187983841
 20
-757.0752393513
 10
-265.6636621377
 20
-758.1285049914
 10
-266.0652927846
 20
-759.4120131254
 10
-266.3676398509
 20
-760.8451162169
 10
-266.5517057585
 20
-762.3377671281
 10
-266.6059249696
 20
-763.7961771125
 10
-266.5268906917
 20
-765.1287089073
 10
-266.3195689391
 20
-766.251634639
 10
-265.9969865
 20
-767.0943967541
 10
-265.5794124155
 20
-767.6040414094
 10
-265.093084401
 20
-767.748545757
 10
-264.5685602343
 20
-767.5188300571
 10
-264.0387976978
 20
-766.9293281921
  0
LWPOLYLINE
  5
6B0
330
62D
100
AcDbEntity
  8
0
  6
Continuous
 62
     7
370
    25
100
AcDbPolyline
 90
        3
 70
   128
 43
0.0
 10
-263.9222742805
 20
-755.8163110036
 10
-264.323896309
 20
-755.8819621918
 10
-264.5793635635
 20
-756.0358860623
  0
LWPOLYLINE
  5
6B1
330
62D
100
AcDbEntity
  8
0
  6
Continuous
 62
     7
370
    25
100
AcDbPolyline
 90
        3
 70
   128
 43
0.0
 10
-266.0043631004
 20
-767.3464987427
 10
-265.7664952849
 20
-767.5804711834
 10
-265.4222742798
 20
-767.7221919035
  0
LWPOLYLINE
  5
6B4
330
62D
100
AcDbEntity
  8
0
  6
Continuous
 62
     7
370
    25
100
AcDbPolyline
 90
       26
 70
   128
 43
0.0
 10
-264.0387976978
 20
691.7848209871
 10
-263.5370837199
 20
692.697068447
 10
-263.0949428352
 20
693.874741639
 10
-262.7401563815
 20
695.2438430251
 10
-262.4950168965
 20
696.7183469301
 10
-262.3749273955
 20
698.2056048508
 10
-262.3874335436
 20
699.6121669023
 10
-262.5317495336
 20
700.8496536179
 10
-262.7988074609
 20
701.8403091562
 10
-263.1718270939
 20
702.5218869862
 10
-263.6273702372
 20
702.8515610662
 10
-264.1368134396
 20
702.8086167614
 10
-264.6681465112
 20
702.3957524203
 10
-265.187983841
 20
701.6389098279
 10
-265.6636621377
 20
700.5856441878
 10
-266.0652927846
 20
699.3021360537
 10
-266.3676398509
 20
697.8690329622
 10
-266.5517057585
 20
696.3763820511
 10
-266.6059249696
 20
694.9179720666
 10
-266.5268906917
 20
693.5854402719
 10
-266.3195689391
 20
692.4625145402
 10
-265.9969865
 20
691.6197524251
 10
-265.5794124155
 20
691.1101077697
 10
-265.093084401
 20
690.9656034222
 10
-264.5685602343
 20
691.195319122
 10
-264.0387976978
 20
691.7848209871
  0
LWPOLYLINE
  5
6BB
330
62D
100
AcDbEntity
  8
0
  6
Continuous
 62
     7
370
    25
100
AcDbPolyline
 90
        3
 70
   128
 43
0.0
 10
-263.9222742805
 20
702.8978381756
 10
-264.323896309
 20
702.8321869874
 10
-264.5796043995
 20
702.6780788386
  0
LWPOLYLINE
  5
6BC
330
62D
100
AcDbEntity
  8
0
  6
Continuous
 62
     7
370
    25
100
AcDbPolyline
 90
        3
 70
   128
 43
0.0
 10
-266.0045513087
 20
691.3678894617
 10
-265.7664952849
 20
691.1336779958
 10
-265.4222742798
 20
690.9919572757
  0
LWPOLYLINE
  5
6BF
330
62D
100
AcDbEntity
  8
0
  6
Continuous
 62
     7
370
    25
100
AcDbPolyline
 90
       26
 70
   128
 43
0.0
 10
-255.3767396302
 20
699.4240381502
 10
-254.8750256524
 20
700.3362856101
 10
-254.4328847677
 20
701.5139588021
 10
-254.078098314
 20
702.8830601882
 10
-253.8329588289
 20
704.3575640932
 10
-253.712869328
 20
705.8448220139
 10
-253.7253754761
 20
707.2513840654
 10
-253.869691466
 20
708.488870781
 10
-254.1367493934
 20
709.4795263193
 10
-254.5097690264
 20
710.1611041493
 10
-254.9653121696
 20
710.4907782293
 10
-255.4747553721
 20
710.4478339245
 10
-256.0060884437
 20
710.0349695834
 10
-256.5259257735
 20
709.278126991
 10
-257.0016040702
 20
708.2248613509
 10
-257.403234717
 20
706.9413532168
 10
-257.7055817833
 20
705.5082501253
 10
-257.889647691
 20
704.0155992142
 10
-257.9438669021
 20
702.5571892297
 10
-257.8648326241
 20
701.224657435
 10
-257.6575108715
 20
700.1017317033
 10
-257.3349284325
 20
699.2589695882
 10
-256.917354348
 20
698.7493249328
 10
-256.4310263335
 20
698.6048205853
 10
-255.9065021667
 20
698.8345362851
 10
-255.3767396302
 20
699.4240381502
  0
LWPOLYLINE
  5
6C6
330
62D
100
AcDbEntity
  8
0
  6
Continuous
 62
     7
370
    25
100
AcDbPolyline
 90
        3
 70
   128
 43
0.0
 10
-255.260216213
 20
710.5370553387
 10
-255.6618382414
 20
710.4714041505
 10
-255.917452086
 20
710.3173681237
  0
LWPOLYLINE
  5
6C7
330
62D
100
AcDbEntity
  8
0
  6
Continuous
 62
     7
370
    25
100
AcDbPolyline
 90
        3
 70
   128
 43
0.0
 10
-257.3424221764
 20
699.0070163612
 10
-257.1044372173
 20
698.7728951589
 10
-256.7602162123
 20
698.6311744388
  0
LINE
  5
6E0
330
62D
100
AcDbEntity
  8
0
  6
Continuous
 62
     7
370
    25
100
AcDbLine
 10
-255.0731333436
 20
-748.2006640665
 30
0.0
 11
-255.260216213
 21
-748.1770938405
 31
0.0
  0
LINE
  5
6E1
330
62D
100
AcDbEntity
  8
0
  6
Continuous
 62
     7
370
    25
100
AcDbLine
 10
-256.7602162122
 20
-760.0829747404
 30
0.0
 11
-256.5731333429
 21
-760.1065449664
 31
0.0
  0
LINE
  5
6E2
330
62D
100
AcDbEntity
  8
0
  6
Continuous
 62
     7
370
    25
100
AcDbLine
 10
-261.9361532702
 20
907.7304998267
 30
0.0
 11
-261.9361532702
 21
884.9027490306
 31
0.0
  0
LINE
  5
6E3
330
62D
100
AcDbEntity
  8
0
  6
Continuous
 62
     7
370
    25
100
AcDbLine
 10
-249.9361532702
 20
706.0636458263
 30
0.0
 11
-249.9361532702
 21
728.5109954836
 31
0.0
  0
LINE
  5
6E4
330
62D
100
AcDbEntity
  8
0
  6
Continuous
 62
     7
370
    25
100
AcDbLine
 10
-273.2129620923
 20
-788.2243888775
 30
0.0
 11
-268.5358903587
 21
-788.8136445282
 31
0.0
  0
LINE
  5
6E5
330
62D
100
AcDbEntity
  8
0
  6
Continuous
 62
     7
370
    25
100
AcDbLine
 10
-251.7724343954
 20
-727.1327816678
 30
0.0
 11
-256.449506129
 21
-726.5435260171
 31
0.0
  0
LINE
  5
6E6
330
62D
100
AcDbEntity
  8
0
  6
Continuous
 62
     7
370
    25
100
AcDbLine
 10
-249.9361532702
 20
-752.6505033528
 30
0.0
 11
-249.9361532702
 21
-730.2031536956
 31
0.0
  0
LINE
  5
6E7
330
62D
100
AcDbEntity
  8
0
  6
Continuous
 62
     7
370
    25
100
AcDbLine
 10
-273.2129620923
 20
670.4897603017
 30
0.0
 11
-268.5358903587
 21
669.900504651
 31
0.0
  0
LINE
  5
6E8
330
62D
100
AcDbEntity
  8
0
  6
Continuous
 62
     7
370
    25
100
AcDbLine
 10
-251.7724343954
 20
731.5813675113
 30
0.0
 11
-256.449506129
 21
732.1706231621
 31
0.0
  0
LINE
  5
6E9
330
62D
100
AcDbEntity
  8
0
  6
Continuous
 62
     7
370
    25
100
AcDbLine
 10
-263.7351914112
 20
-755.8398812296
 30
0.0
 11
-263.9222742805
 21
-755.8163110036
 31
0.0
  0
LINE
  5
6EA
330
62D
100
AcDbEntity
  8
0
  6
Continuous
 62
     7
370
    25
100
AcDbLine
 10
-265.4222742798
 20
-767.7221919035
 30
0.0
 11
-265.2351914105
 21
-767.7457621295
 31
0.0
  0
LINE
  5
6EB
330
62D
100
AcDbEntity
  8
0
  6
Continuous
 62
     7
370
    25
100
AcDbLine
 10
-263.7351914112
 20
702.8742679495
 30
0.0
 11
-263.9222742805
 21
702.8978381756
 31
0.0
  0
LINE
  5
6EC
330
62D
100
AcDbEntity
  8
0
  6
Continuous
 62
     7
370
    25
100
AcDbLine
 10
-265.4222742798
 20
690.9919572757
 30
0.0
 11
-265.2351914105
 21
690.9683870497
 31
0.0
  0
LINE
  5
6ED
330
62D
100
AcDbEntity
  8
0
  6
Continuous
 62
     7
370
    25
100
AcDbLine
 10
-255.0731333436
 20
710.5134851126
 30
0.0
 11
-255.260216213
 21
710.5370553387
 31
0.0
  0
LINE
  5
6EE
330
62D
100
AcDbEntity
  8
0
  6
Continuous
 62
     7
370
    25
100
AcDbLine
 10
-256.7602162123
 20
698.6311744388
 30
0.0
 11
-256.5731333429
 21
698.6076042128
 31
0.0
  0
LINE
  5
6EF
330
62D
100
AcDbEntity
  8
0
  6
Continuous
 62
     7
370
    25
100
AcDbLine
 10
-254.8253658526
 20
-752.7009328998
 30
0.0
 11
-255.5102469784
 21
-751.2870576613
 31
0.0
  0
LINE
  5
6F0
330
62D
100
AcDbEntity
  8
0
  6
Continuous
 62
     7
370
    25
100
AcDbLine
 10
-255.5102469784
 20
-751.2870576613
 30
0.0
 11
-256.5080144691
 21
-752.7397292779
 31
0.0
  0
LINE
  5
6F1
330
62D
100
AcDbEntity
  8
0
  6
Continuous
 62
     7
370
    25
100
AcDbLine
 10
-256.5080144691
 20
-752.7397292779
 30
0.0
 11
-256.820900834
 21
-755.6062761331
 31
0.0
  0
LINE
  5
6F2
330
62D
100
AcDbEntity
  8
0
  6
Continuous
 62
     7
370
    25
100
AcDbLine
 10
-256.820900834
 20
-755.6062761331
 30
0.0
 11
-256.1360197082
 21
-757.0201513717
 31
0.0
  0
LINE
  5
6F3
330
62D
100
AcDbEntity
  8
0
  6
Continuous
 62
     7
370
    25
100
AcDbLine
 10
-256.1360197082
 20
-757.0201513717
 30
0.0
 11
-255.1382522175
 21
-755.567479755
 31
0.0
  0
LINE
  5
6F4
330
62D
100
AcDbEntity
  8
0
  6
Continuous
 62
     7
370
    25
100
AcDbLine
 10
-255.1382522175
 20
-755.567479755
 30
0.0
 11
-254.8253658526
 21
-752.7009328998
 31
0.0
  0
LINE
  5
6F5
330
62D
100
AcDbEntity
  8
0
  6
Continuous
 62
     7
370
    25
100
AcDbLine
 10
-256.3494781706
 20
-752.5089127969
 30
0.0
 11
-254.8253658526
 21
-752.7009328998
 31
0.0
  0
LINE
  5
6F6
330
62D
100
AcDbEntity
  8
0
  6
Continuous
 62
     7
370
    25
100
AcDbLine
 10
-256.7938981765
 20
-755.358887971
 30
0.0
 11
-255.1382522175
 21
-755.567479755
 31
0.0
  0
LINE
  5
6F7
330
62D
100
AcDbEntity
  8
0
  6
Continuous
 62
     7
370
    25
100
AcDbLine
 10
-243.9050507103
 20
912.6278690582
 30
0.0
 11
-255.2415643924
 21
914.0561355307
 31
0.0
  0
LINE
  5
6F8
330
62D
100
AcDbEntity
  8
0
  6
Continuous
 62
     7
370
    25
100
AcDbLine
 10
-243.4293760748
 20
913.1035862981
 30
0.0
 11
-254.6543482355
 21
914.5177998598
 31
0.0
  0
LINE
  5
6F9
330
62D
100
AcDbEntity
  8
0
  6
Continuous
 62
     7
370
    25
100
AcDbLine
 10
-238.3028519124
 20
917.6247556396
 30
0.0
 11
-243.4293760748
 21
913.1035862981
 31
0.0
  0
LINE
  5
6FA
330
62D
100
AcDbEntity
  8
0
  6
Continuous
 62
     7
370
    25
100
AcDbLine
 10
-236.3384817843
 20
917.3772682663
 30
0.0
 11
-238.3028519124
 21
917.6247556396
 31
0.0
  0
LINE
  5
6FB
330
62D
100
AcDbEntity
  8
0
  6
Continuous
 62
     7
370
    25
100
AcDbLine
 10
-242.1721127278
 20
912.2324893605
 30
0.0
 11
-236.3384817843
 21
917.3772682663
 31
0.0
  0
LINE
  5
6FC
330
62D
100
AcDbEntity
  8
0
  6
Continuous
 62
     7
370
    25
100
AcDbLine
 10
-251.4921942012
 20
919.2864565746
 30
0.0
 11
-257.3258251447
 21
914.1416776688
 31
0.0
  0
LINE
  5
6FD
330
62D
100
AcDbEntity
  8
0
  6
Continuous
 62
     7
370
    25
100
AcDbLine
 10
-249.5278240731
 20
919.0389692013
 30
0.0
 11
-251.4921942012
 21
919.2864565746
 31
0.0
  0
LINE
  5
6FE
330
62D
100
AcDbEntity
  8
0
  6
Continuous
 62
     7
370
    25
100
AcDbLine
 10
-254.6543482355
 20
914.5177998598
 30
0.0
 11
-249.5278240731
 21
919.0389692013
 31
0.0
  0
LINE
  5
6FF
330
62D
100
AcDbEntity
  8
0
  6
Continuous
 62
     7
370
    25
100
AcDbLine
 10
-250.3236671898
 20
907.0233930459
 30
0.0
 11
-250.3236671898
 21
732.603720348
 31
0.0
  0
LINE
  5
700
330
62D
100
AcDbEntity
  8
0
  6
Continuous
 62
     7
370
    25
100
AcDbLine
 10
-242.1721127278
 20
912.2324893605
 30
0.0
 11
-242.1721127278
 21
-926.2451417792
 31
0.0
  0
LINE
  5
701
330
62D
100
AcDbEntity
  8
0
  6
Continuous
 62
     7
370
    25
100
AcDbLine
 10
-255.2415643924
 20
914.0561355307
 30
0.0
 11
-255.2415643924
 21
906.4512836481
 31
0.0
  0
LINE
  5
702
330
62D
100
AcDbEntity
  8
0
  6
Continuous
 62
     7
370
    25
100
AcDbLine
 10
-236.3384817843
 20
917.3772682663
 30
0.0
 11
-236.3384817843
 21
-921.1003628735
 31
0.0
  0
LINE
  5
703
330
62D
100
AcDbEntity
  8
0
  6
Continuous
 62
     7
370
    25
100
AcDbLine
 10
-242.1721127278
 20
-926.2451417792
 30
0.0
 11
-236.3384817843
 21
-921.1003628735
 31
0.0
  0
LINE
  5
704
330
62D
100
AcDbEntity
  8
0
  6
Continuous
 62
     7
370
    25
100
AcDbLine
 10
-249.5278240731
 20
919.0389692013
 30
0.0
 11
-249.5278240731
 21
913.8719185257
 31
0.0
  0
LINE
  5
705
330
62D
100
AcDbEntity
  8
0
  6
Continuous
 62
     7
370
    25
100
AcDbLine
 10
-243.7420543414
 20
736.0506949406
 30
0.0
 11
-245.1644118663
 21
736.2298951446
 31
0.0
  0
LINE
  5
706
330
62D
100
AcDbEntity
  8
0
  6
Continuous
 62
     7
370
    25
100
AcDbLine
 10
-248.9205456697
 20
729.1271120071
 30
0.0
 11
-248.9205456697
 21
732.4269436528
 31
0.0
  0
LINE
  5
707
330
62D
100
AcDbEntity
  8
0
  6
Continuous
 62
     7
370
    25
100
AcDbLine
 10
-248.9205456697
 20
704.8026387336
 30
0.0
 11
-248.9205456697
 21
701.502807088
 31
0.0
  0
LINE
  5
708
330
62D
100
AcDbEntity
  8
0
  6
Continuous
 62
     7
370
    25
100
AcDbLine
 10
-245.4474180453
 20
731.7184997975
 30
0.0
 11
-245.4474180453
 21
707.3940265239
 31
0.0
  0
LINE
  5
709
330
62D
100
AcDbEntity
  8
0
  6
Continuous
 62
     7
370
    25
100
AcDbLine
 10
-243.7420543414
 20
736.0506949406
 30
0.0
 11
-243.7420543414
 21
705.1265583758
 31
0.0
  0
LINE
  5
70A
330
62D
100
AcDbEntity
  8
0
  6
Continuous
 62
     7
370
    25
100
AcDbLine
 10
-249.9361532702
 20
707.9595540049
 30
0.0
 11
-245.4474180453
 21
707.3940265239
 31
0.0
  0
LINE
  5
70B
330
62D
100
AcDbEntity
  8
0
  6
Continuous
 62
     7
370
    25
100
AcDbLine
 10
-243.7420543414
 20
-722.6634542386
 30
0.0
 11
-245.1644118663
 21
-722.4842540345
 31
0.0
  0
LINE
  5
70C
330
62D
100
AcDbEntity
  8
0
  6
Continuous
 62
     7
370
    25
100
AcDbLine
 10
-248.9205456697
 20
-729.587037172
 30
0.0
 11
-248.9205456697
 21
-726.2872055264
 31
0.0
  0
LINE
  5
70D
330
62D
100
AcDbEntity
  8
0
  6
Continuous
 62
     7
370
    25
100
AcDbLine
 10
-243.7420543414
 20
-753.5875908034
 30
0.0
 11
-243.7420543414
 21
-722.6634542386
 31
0.0
  0
LINE
  5
70E
330
62D
100
AcDbEntity
  8
0
  6
Continuous
 62
     7
370
    25
100
AcDbLine
 10
-248.9205456697
 20
-753.9115104455
 30
0.0
 11
-248.9205456697
 21
-757.2113420912
 31
0.0
  0
LINE
  5
70F
330
62D
100
AcDbEntity
  8
0
  6
Continuous
 62
     7
370
    25
100
AcDbLine
 10
-245.4474180453
 20
-751.3201226552
 30
0.0
 11
-245.4474180453
 21
-726.9956493817
 31
0.0
  0
LINE
  5
710
330
62D
100
AcDbEntity
  8
0
  6
Continuous
 62
     7
370
    25
100
AcDbLine
 10
-245.4474180453
 20
-751.3201226552
 30
0.0
 11
-249.9361532702
 21
-750.7545951743
 31
0.0
  0
LINE
  5
711
330
62D
100
AcDbEntity
  8
0
  6
Continuous
 62
     7
370
    25
100
AcDbLine
 10
-268.9929971399
 20
-744.0837246952
 30
0.0
 11
-273.6700688735
 21
-743.4944690444
 31
0.0
  0
LINE
  5
712
330
62D
100
AcDbEntity
  8
0
  6
Continuous
 62
     7
370
    25
100
AcDbLine
 10
-272.9629620924
 20
-740.9852413969
 30
0.0
 11
-268.2858903588
 21
-741.5744970476
 31
0.0
  0
LINE
  5
713
330
62D
100
AcDbEntity
  8
0
  6
Continuous
 62
     7
370
    25
100
AcDbLine
 10
-268.9929971399
 20
-744.0837246952
 30
0.0
 11
-268.9929971399
 21
-787.4529406092
 31
0.0
  0
LINE
  5
714
330
62D
100
AcDbEntity
  8
0
  6
Continuous
 62
     7
370
    25
100
AcDbLine
 10
-252.0224343953
 20
-727.2314770679
 30
0.0
 11
-268.2858903588
 21
-741.5744970476
 31
0.0
  0
LINE
  5
715
330
62D
100
AcDbEntity
  8
0
  6
Continuous
 62
     7
370
    25
100
AcDbLine
 10
-251.3153276142
 20
-771.8627015009
 30
0.0
 11
-251.3153276142
 21
-728.4934855868
 31
0.0
  0
LINE
  5
716
330
62D
100
AcDbEntity
  8
0
  6
Continuous
 62
     7
370
    25
100
AcDbLine
 10
-268.2858903588
 20
-788.7149491281
 30
0.0
 11
-252.0224343953
 21
-774.3719291484
 31
0.0
  0
LINE
  5
717
330
62D
100
AcDbEntity
  8
0
  6
Continuous
 62
     7
370
    25
100
AcDbLine
 10
-273.6700688735
 20
-786.8636849585
 30
0.0
 11
-268.9929971399
 21
-787.4529406092
 31
0.0
  0
LINE
  5
718
330
62D
100
AcDbEntity
  8
0
  6
Continuous
 62
     7
370
    25
100
AcDbLine
 10
-273.6700688735
 20
-743.4944690444
 30
0.0
 11
-273.6700688735
 21
-786.8636849585
 31
0.0
  0
LINE
  5
719
330
62D
100
AcDbEntity
  8
0
  6
Continuous
 62
     7
370
    25
100
AcDbLine
 10
-252.0224343953
 20
-727.2314770679
 30
0.0
 11
-256.6995061289
 21
-726.6422214172
 31
0.0
  0
LINE
  5
71A
330
62D
100
AcDbEntity
  8
0
  6
Continuous
 62
     7
370
    25
100
AcDbLine
 10
-256.6995061289
 20
-726.6422214172
 30
0.0
 11
-272.9629620924
 21
-740.9852413969
 31
0.0
  0
LINE
  5
71B
330
62D
100
AcDbEntity
  8
0
  6
Continuous
 62
     7
370
    25
100
AcDbLine
 10
-268.9929971399
 20
714.630424484
 30
0.0
 11
-268.9929971399
 21
671.2612085699
 31
0.0
  0
LINE
  5
71C
330
62D
100
AcDbEntity
  8
0
  6
Continuous
 62
     7
370
    25
100
AcDbLine
 10
-252.0224343953
 20
731.4826721112
 30
0.0
 11
-268.2858903588
 21
717.1396521316
 31
0.0
  0
LINE
  5
71D
330
62D
100
AcDbEntity
  8
0
  6
Continuous
 62
     7
370
    25
100
AcDbLine
 10
-251.3153276142
 20
686.8514476783
 30
0.0
 11
-251.3153276142
 21
730.2206635924
 31
0.0
  0
LINE
  5
71E
330
62D
100
AcDbEntity
  8
0
  6
Continuous
 62
     7
370
    25
100
AcDbLine
 10
-268.2858903588
 20
669.999200051
 30
0.0
 11
-252.0224343953
 21
684.3422200307
 31
0.0
  0
LINE
  5
71F
330
62D
100
AcDbEntity
  8
0
  6
Continuous
 62
     7
370
    25
100
AcDbLine
 10
-268.9929971399
 20
714.630424484
 30
0.0
 11
-273.6700688735
 21
715.2196801347
 31
0.0
  0
LINE
  5
720
330
62D
100
AcDbEntity
  8
0
  6
Continuous
 62
     7
370
    25
100
AcDbLine
 10
-272.9629620924
 20
717.7289077823
 30
0.0
 11
-268.2858903588
 21
717.1396521316
 31
0.0
  0
LINE
  5
721
330
62D
100
AcDbEntity
  8
0
  6
Continuous
 62
     7
370
    25
100
AcDbLine
 10
-273.6700688735
 20
671.8504642206
 30
0.0
 11
-268.9929971399
 21
671.2612085699
 31
0.0
  0
LINE
  5
722
330
62D
100
AcDbEntity
  8
0
  6
Continuous
 62
     7
370
    25
100
AcDbLine
 10
-273.6700688735
 20
715.2196801347
 30
0.0
 11
-273.6700688735
 21
671.8504642206
 31
0.0
  0
LINE
  5
723
330
62D
100
AcDbEntity
  8
0
  6
Continuous
 62
     7
370
    25
100
AcDbLine
 10
-252.0224343953
 20
731.4826721112
 30
0.0
 11
-256.6995061289
 21
732.071927762
 31
0.0
  0
LINE
  5
724
330
62D
100
AcDbEntity
  8
0
  6
Continuous
 62
     7
370
    25
100
AcDbLine
 10
-256.6995061289
 20
732.071927762
 30
0.0
 11
-272.9629620924
 21
717.7289077823
 31
0.0
  0
LINE
  5
725
330
62D
100
AcDbEntity
  8
0
  6
Continuous
 62
     7
370
    25
100
AcDbLine
 10
-263.4874239201
 20
-760.3401500629
 30
0.0
 11
-264.1723050459
 21
-758.9262748244
 31
0.0
  0
LINE
  5
726
330
62D
100
AcDbEntity
  8
0
  6
Continuous
 62
     7
370
    25
100
AcDbLine
 10
-264.1723050459
 20
-758.9262748244
 30
0.0
 11
-265.1700725366
 21
-760.378946441
 31
0.0
  0
LINE
  5
727
330
62D
100
AcDbEntity
  8
0
  6
Continuous
 62
     7
370
    25
100
AcDbLine
 10
-265.1700725366
 20
-760.378946441
 30
0.0
 11
-265.4829589015
 21
-763.2454932962
 31
0.0
  0
LINE
  5
728
330
62D
100
AcDbEntity
  8
0
  6
Continuous
 62
     7
370
    25
100
AcDbLine
 10
-265.4829589015
 20
-763.2454932962
 30
0.0
 11
-264.7980777757
 21
-764.6593685348
 31
0.0
  0
LINE
  5
729
330
62D
100
AcDbEntity
  8
0
  6
Continuous
 62
     7
370
    25
100
AcDbLine
 10
-264.7980777757
 20
-764.6593685348
 30
0.0
 11
-263.800310285
 21
-763.2066969181
 31
0.0
  0
LINE
  5
72A
330
62D
100
AcDbEntity
  8
0
  6
Continuous
 62
     7
370
    25
100
AcDbLine
 10
-263.800310285
 20
-763.2066969181
 30
0.0
 11
-263.4874239201
 21
-760.3401500629
 31
0.0
  0
LINE
  5
72B
330
62D
100
AcDbEntity
  8
0
  6
Continuous
 62
     7
370
    25
100
AcDbLine
 10
-265.0115362381
 20
-760.14812996
 30
0.0
 11
-263.4874239201
 21
-760.3401500629
 31
0.0
  0
LINE
  5
72C
330
62D
100
AcDbEntity
  8
0
  6
Continuous
 62
     7
370
    25
100
AcDbLine
 10
-265.4559562441
 20
-762.9981051341
 30
0.0
 11
-263.800310285
 21
-763.2066969181
 31
0.0
  0
LINE
  5
72D
330
62D
100
AcDbEntity
  8
0
  6
Continuous
 62
     7
370
    25
100
AcDbLine
 10
-263.4874239201
 20
698.3739991162
 30
0.0
 11
-264.1723050459
 21
699.7878743548
 31
0.0
  0
LINE
  5
72E
330
62D
100
AcDbEntity
  8
0
  6
Continuous
 62
     7
370
    25
100
AcDbLine
 10
-264.1723050459
 20
699.7878743548
 30
0.0
 11
-265.1700725366
 21
698.3352027382
 31
0.0
  0
LINE
  5
72F
330
62D
100
AcDbEntity
  8
0
  6
Continuous
 62
     7
370
    25
100
AcDbLine
 10
-265.1700725366
 20
698.3352027382
 30
0.0
 11
-265.4829589015
 21
695.468655883
 31
0.0
  0
LINE
  5
730
330
62D
100
AcDbEntity
  8
0
  6
Continuous
 62
     7
370
    25
100
AcDbLine
 10
-265.4829589015
 20
695.468655883
 30
0.0
 11
-264.7980777757
 21
694.0547806444
 31
0.0
  0
LINE
  5
731
330
62D
100
AcDbEntity
  8
0
  6
Continuous
 62
     7
370
    25
100
AcDbLine
 10
-264.7980777757
 20
694.0547806444
 30
0.0
 11
-263.800310285
 21
695.507452261
 31
0.0
  0
LINE
  5
732
330
62D
100
AcDbEntity
  8
0
  6
Continuous
 62
     7
370
    25
100
AcDbLine
 10
-263.800310285
 20
695.507452261
 30
0.0
 11
-263.4874239201
 21
698.3739991162
 31
0.0
  0
LINE
  5
733
330
62D
100
AcDbEntity
  8
0
  6
Continuous
 62
     7
370
    25
100
AcDbLine
 10
-265.0115362381
 20
698.5660192191
 30
0.0
 11
-263.4874239201
 21
698.3739991162
 31
0.0
  0
LINE
  5
734
330
62D
100
AcDbEntity
  8
0
  6
Continuous
 62
     7
370
    25
100
AcDbLine
 10
-265.4559562441
 20
695.716044045
 30
0.0
 11
-263.800310285
 21
695.507452261
 31
0.0
  0
LINE
  5
735
330
62D
100
AcDbEntity
  8
0
  6
Continuous
 62
     7
370
    25
100
AcDbLine
 10
-254.8253658526
 20
706.0132162793
 30
0.0
 11
-255.5102469784
 21
707.4270915179
 31
0.0
  0
LINE
  5
736
330
62D
100
AcDbEntity
  8
0
  6
Continuous
 62
     7
370
    25
100
AcDbLine
 10
-255.5102469784
 20
707.4270915179
 30
0.0
 11
-256.5080144691
 21
705.9744199013
 31
0.0
  0
LINE
  5
737
330
62D
100
AcDbEntity
  8
0
  6
Continuous
 62
     7
370
    25
100
AcDbLine
 10
-256.5080144691
 20
705.9744199013
 30
0.0
 11
-256.820900834
 21
703.1078730461
 31
0.0
  0
LINE
  5
738
330
62D
100
AcDbEntity
  8
0
  6
Continuous
 62
     7
370
    25
100
AcDbLine
 10
-256.820900834
 20
703.1078730461
 30
0.0
 11
-256.1360197082
 21
701.6939978075
 31
0.0
  0
LINE
  5
739
330
62D
100
AcDbEntity
  8
0
  6
Continuous
 62
     7
370
    25
100
AcDbLine
 10
-256.1360197082
 20
701.6939978075
 30
0.0
 11
-255.1382522175
 21
703.1466694241
 31
0.0
  0
LINE
  5
73A
330
62D
100
AcDbEntity
  8
0
  6
Continuous
 62
     7
370
    25
100
AcDbLine
 10
-255.1382522175
 20
703.1466694241
 30
0.0
 11
-254.8253658526
 21
706.0132162793
 31
0.0
  0
LINE
  5
73B
330
62D
100
AcDbEntity
  8
0
  6
Continuous
 62
     7
370
    25
100
AcDbLine
 10
-256.3494781706
 20
706.2052363822
 30
0.0
 11
-254.8253658526
 21
706.0132162793
 31
0.0
  0
LINE
  5
73C
330
62D
100
AcDbEntity
  8
0
  6
Continuous
 62
     7
370
    25
100
AcDbLine
 10
-256.7938981765
 20
703.3552612081
 30
0.0
 11
-255.1382522175
 21
703.1466694241
 31
0.0
  0
LINE
  5
73D
330
62D
100
AcDbEntity
  8
0
  6
Continuous
 62
     7
370
    25
100
AcDbLine
 10
-251.6613703141
 20
886.4217835238
 30
0.0
 11
-357.0202806867
 21
793.503958438
 31
0.0
  0
LINE
  5
73E
330
62D
100
AcDbEntity
  8
0
  6
Continuous
 62
     7
370
    25
100
AcDbLine
 10
-358.309248424
 20
794.2528138276
 30
0.0
 11
-357.0202806867
 21
793.503958438
 31
0.0
  0
LINE
  5
73F
330
62D
100
AcDbEntity
  8
0
  6
Continuous
 62
     7
370
    25
100
AcDbLine
 10
-358.309248424
 20
794.2528138276
 30
0.0
 11
-252.2432312703
 21
887.7942484778
 31
0.0
  0
LINE
  5
740
330
62D
100
AcDbEntity
  8
0
  6
Continuous
 62
     7
370
    25
100
AcDbLine
 10
-251.6613703141
 20
886.4217835238
 30
0.0
 11
-252.2432312703
 21
887.7942484778
 31
0.0
  0
LINE
  5
741
330
62D
100
AcDbEntity
  8
0
  6
Continuous
 62
     7
370
    25
100
AcDbLine
 10
-358.309248424
 20
-1020.6545912718
 30
0.0
 11
-358.309248424
 21
794.2528138276
 31
0.0
  0
LINE
  5
742
330
62D
100
AcDbEntity
  8
0
  6
Continuous
 62
     7
370
    25
100
AcDbLine
 10
-357.0202806867
 20
793.503958438
 30
0.0
 11
-357.0202806867
 21
-1019.5178285782
 31
0.0
  0
LINE
  5
743
330
62D
100
AcDbEntity
  8
0
  6
Continuous
 62
     7
370
    25
100
AcDbLine
 10
-358.309248424
 20
-1020.6545912718
 30
0.0
 11
-251.6613703141
 21
-926.6000034924
 31
0.0
  0
LINE
  5
744
330
62D
100
AcDbEntity
  8
0
  6
Continuous
 62
     7
370
    25
100
AcDbLine
 10
-358.309248424
 20
-1020.6545912718
 30
0.0
 11
-363.9217345043
 21
-1019.947484491
 31
0.0
  0
LINE
  5
745
330
62D
100
AcDbEntity
  8
0
  6
Continuous
 62
     7
370
    25
100
AcDbLine
 10
-363.9217345043
 20
794.9599206085
 30
0.0
 11
-363.9217345043
 21
-1019.947484491
 31
0.0
  0
LINE
  5
746
330
62D
100
AcDbEntity
  8
0
  6
Continuous
 62
     7
370
    25
100
AcDbLine
 10
-358.309248424
 20
794.2528138276
 30
0.0
 11
-363.9217345043
 21
794.9599206085
 31
0.0
  0
LINE
  5
747
330
62D
100
AcDbEntity
  8
0
  6
Continuous
 62
     7
370
    25
100
AcDbLine
 10
-257.8557173506
 20
888.5013552586
 30
0.0
 11
-364.5035954605
 21
794.4467674792
 31
0.0
  0
LINE
  5
748
330
62D
100
AcDbEntity
  8
0
  6
Continuous
 62
     7
370
    25
100
AcDbLine
 10
-252.2432312703
 20
887.7942484778
 30
0.0
 11
-257.8557173506
 21
888.5013552586
 31
0.0
  0
LINE
  5
749
330
62D
100
AcDbEntity
  8
0
  6
Continuous
 62
     7
370
    25
100
AcDbLine
 10
-251.6613703141
 20
-926.6000034924
 30
0.0
 11
-251.6613703141
 21
-773.7891472321
 31
0.0
  0
LINE
  5
74A
330
62D
100
AcDbEntity
  8
0
  6
Continuous
 62
     7
370
    25
100
AcDbLine
 10
-251.6613703141
 20
-727.1774018067
 30
0.0
 11
-251.6613703141
 21
684.925001947
 31
0.0
  0
LINE
  5
74B
330
62D
100
AcDbEntity
  8
0
  6
Continuous
 62
     7
370
    25
100
AcDbLine
 10
-251.6613703141
 20
731.5367473724
 30
0.0
 11
-251.6613703141
 21
886.4217835238
 31
0.0
  0
LINE
  5
74C
330
62D
100
AcDbEntity
  8
0
  6
Continuous
 62
     7
370
    25
100
AcDbLine
 10
-364.5035954605
 20
-1018.5750195371
 30
0.0
 11
-364.5035954605
 21
794.4467674792
 31
0.0
  0
LINE
  5
74D
330
62D
100
AcDbEntity
  8
0
  6
Continuous
 62
     7
370
    25
100
AcDbLine
 10
-364.5035954605
 20
-1018.5750195371
 30
0.0
 11
-363.9217345043
 21
-1019.947484491
 31
0.0
  0
LINE
  5
74E
330
62D
100
AcDbEntity
  8
0
  6
Continuous
 62
     8
370
    25
100
AcDbLine
 10
-259.5842692224
 20
908.1901192343
 30
0.0
 11
-259.5842692224
 21
907.2708804192
 31
0.0
  0
LINE
  5
74F
330
62D
100
AcDbEntity
  8
0
  6
Continuous
 62
     8
370
    25
100
AcDbLine
 10
-250.3236671898
 20
700.7283781693
 30
0.0
 11
-250.3236671898
 21
-726.1104288312
 31
0.0
  0
LINE
  5
750
330
62D
100
AcDbEntity
  8
0
  6
Continuous
 62
     8
370
    25
100
AcDbLine
 10
-250.3236671898
 20
-757.9857710098
 30
0.0
 11
-250.3236671898
 21
-931.4542380938
 31
0.0
  0
ARC
  5
751
330
62D
100
AcDbEntity
  8
0
  6
Continuous
 62
     7
370
    25
100
AcDbCircle
 10
-228.0267477775
 20
878.5427684514
 30
0.0
 40
37.6020556273269
100
AcDbArc
 50
114.978124605
 51
130.1815564561
  0
ARC
  5
752
330
62D
100
AcDbEntity
  8
0
  6
Continuous
 62
     7
370
    25
100
AcDbCircle
 10
-269.1289975597
 20
919.7967276421
 30
0.0
 40
15.02714869050035
100
AcDbArc
 50
309.4322698799
 51
337.5414645301
  0
ARC
  5
753
330
62D
100
AcDbEntity
  8
0
  6
Continuous
 62
     7
370
    25
100
AcDbCircle
 10
-226.7321678514
 20
879.0883884637
 30
0.0
 40
36.5639620670436
100
AcDbArc
 50
114.978124605
 51
130.1815564561
  0
ARC
  5
754
330
62D
100
AcDbEntity
  8
0
  6
Continuous
 62
     7
370
    25
100
AcDbCircle
 10
-270.8298629178
 20
919.7237871759
 30
0.0
 40
14.61228875733365
100
AcDbArc
 50
309.4322698799
 51
337.5414645301
  0
ARC
  5
755
330
62D
100
AcDbEntity
  8
0
  6
Continuous
 62
     7
370
    25
100
AcDbCircle
 10
-229.5228556764
 20
708.4920398958
 30
0.0
 40
31.84410296816978
100
AcDbArc
 50
119.4189327382
 51
130.7838834366
  0
ARC
  5
756
330
62D
100
AcDbEntity
  8
0
  6
Continuous
 62
     7
370
    25
100
AcDbCircle
 10
-226.7321678514
 20
-959.389242676
 30
0.0
 40
36.5639620670396
100
AcDbArc
 50
114.978124605
 51
130.1815564561
  0
ARC
  5
757
330
62D
100
AcDbEntity
  8
0
  6
Continuous
 62
     7
370
    25
100
AcDbCircle
 10
-229.5228556764
 20
-750.2221092834
 30
0.0
 40
31.84410296814827
100
AcDbArc
 50
119.4189327382
 51
130.7838834367
  0
ARC
  5
758
330
62D
100
AcDbEntity
  8
0
  6
Continuous
 62
     7
370
    25
100
AcDbCircle
 10
-228.4220149709
 20
708.6457060054
 30
0.0
 40
31.39644923961773
100
AcDbArc
 50
119.206226658
 51
130.7600995941
  0
ARC
  5
759
330
62D
100
AcDbEntity
  8
0
  6
Continuous
 62
     7
370
    25
100
AcDbCircle
 10
-252.8008257462
 20
737.7679764267
 30
0.0
 40
6.601757687460726
100
AcDbArc
 50
281.4886874971
 51
305.9985439317
  0
ARC
  5
75A
330
62D
100
AcDbEntity
  8
0
  6
Continuous
 62
     7
370
    25
100
AcDbCircle
 10
-252.7195283848
 20
734.3252290175
 30
0.0
 40
6.438376357630954
100
AcDbArc
 50
282.5973782252
 51
306.1607630506
  0
ARC
  5
75B
330
62D
100
AcDbEntity
  8
0
  6
Continuous
 62
     7
370
    25
100
AcDbCircle
 10
-230.1050096577
 20
683.2081074119
 30
0.0
 40
28.64172094037472
100
AcDbArc
 50
122.3891183062
 51
131.0659702899
  0
ARC
  5
75C
330
62D
100
AcDbEntity
  8
0
  6
Continuous
 62
     7
370
    25
100
AcDbCircle
 10
-228.4220149709
 20
677.7215694405
 30
0.0
 40
31.39644923963889
100
AcDbArc
 50
119.206226658
 51
130.7600995941
  0
ARC
  5
75D
330
62D
100
AcDbEntity
  8
0
  6
Continuous
 62
     7
370
    25
100
AcDbCircle
 10
-230.1050096576
 20
707.5325806854
 30
0.0
 40
28.64172094044407
100
AcDbArc
 50
122.3891183062
 51
131.0659702899
  0
ARC
  5
75E
330
62D
100
AcDbEntity
  8
0
  6
Continuous
 62
     7
370
    25
100
AcDbCircle
 10
-252.7195283848
 20
710.0007557439
 30
0.0
 40
6.438376357633025
100
AcDbArc
 50
282.5973782252
 51
306.1607630506
  0
ARC
  5
75F
330
62D
100
AcDbEntity
  8
0
  6
Continuous
 62
     7
370
    25
100
AcDbCircle
 10
-252.7195283848
 20
706.7009240983
 30
0.0
 40
6.438376357630847
100
AcDbArc
 50
282.5973782252
 51
306.1607630506
  0
ARC
  5
760
330
62D
100
AcDbEntity
  8
0
  6
Continuous
 62
     7
370
    25
100
AcDbCircle
 10
-228.4220149709
 20
-750.0684431738
 30
0.0
 40
31.39644923962418
100
AcDbArc
 50
119.206226658
 51
130.7600995941
  0
ARC
  5
761
330
62D
100
AcDbEntity
  8
0
  6
Continuous
 62
     7
370
    25
100
AcDbCircle
 10
-252.8008257455
 20
-720.9461727538
 30
0.0
 40
6.601757685972951
100
AcDbArc
 50
281.488687507
 51
305.9985439331
  0
ARC
  5
762
330
62D
100
AcDbEntity
  8
0
  6
Continuous
 62
     7
370
    25
100
AcDbCircle
 10
-252.7195283848
 20
-724.3889201617
 30
0.0
 40
6.438376357639466
100
AcDbArc
 50
282.5973782252
 51
306.1607630506
  0
ARC
  5
763
330
62D
100
AcDbEntity
  8
0
  6
Continuous
 62
     7
370
    25
100
AcDbCircle
 10
-228.4220149709
 20
-780.9925797386
 30
0.0
 40
31.39644923962078
100
AcDbArc
 50
119.206226658
 51
130.7600995941
  0
ARC
  5
764
330
62D
100
AcDbEntity
  8
0
  6
Continuous
 62
     7
370
    25
100
AcDbCircle
 10
-230.1050096577
 20
-775.5060417673
 30
0.0
 40
28.64172094040137
100
AcDbArc
 50
122.3891183062
 51
131.0659702899
  0
ARC
  5
765
330
62D
100
AcDbEntity
  8
0
  6
Continuous
 62
     7
370
    25
100
AcDbCircle
 10
-230.1050096576
 20
-751.1815684938
 30
0.0
 40
28.64172094042856
100
AcDbArc
 50
122.3891183062
 51
131.0659702899
  0
ARC
  5
766
330
62D
100
AcDbEntity
  8
0
  6
Continuous
 62
     7
370
    25
100
AcDbCircle
 10
-252.7195283848
 20
-748.7133934352
 30
0.0
 40
6.438376357635441
100
AcDbArc
 50
282.5973782252
 51
306.1607630506
  0
ARC
  5
767
330
62D
100
AcDbEntity
  8
0
  6
Continuous
 62
     7
370
    25
100
AcDbCircle
 10
-252.7195283848
 20
-752.0132250809
 30
0.0
 40
6.43837635763296
100
AcDbArc
 50
282.5973782252
 51
306.1607630506
  0
ARC
  5
768
330
62D
100
AcDbEntity
  8
0
  6
Continuous
 62
     7
370
    25
100
AcDbCircle
 10
-255.8769246912
 20
-921.0720410462
 30
0.0
 40
11.77406830339184
100
AcDbArc
 50
257.4919222819
 51
298.1415553748
  0
ARC
  5
769
330
62D
100
AcDbEntity
  8
0
  6
Continuous
 62
     7
370
    25
100
AcDbCircle
 10
-251.6695012953
 20
706.5541410938
 30
0.0
 40
1.801410831383452
100
AcDbArc
 50
281.3387354503
 51
344.1997791513
  0
ARC
  5
76A
330
62D
100
AcDbEntity
  8
0
  6
Continuous
 62
     7
370
    25
100
AcDbCircle
 10
-269.7401218561
 20
-743.2476921093
 30
0.0
 40
3.937687445095385
100
AcDbArc
 50
144.9309440897
 51
183.5931111895
  0
ARC
  5
76B
330
62D
100
AcDbEntity
  8
0
  6
Continuous
 62
     7
370
    25
100
AcDbCircle
 10
-265.0630501225
 20
-743.83694776
 30
0.0
 40
3.937687445095132
100
AcDbArc
 50
144.9309440897
 51
183.5931111895
  0
ARC
  5
76C
330
62D
100
AcDbEntity
  8
0
  6
Continuous
 62
     7
370
    25
100
AcDbCircle
 10
-255.2452746316
 20
-772.109478436
 30
0.0
 40
3.937687445095248
100
AcDbArc
 50
324.9309440897
 51
3.5931111895
  0
ARC
  5
76D
330
62D
100
AcDbEntity
  8
0
  6
Continuous
 62
     7
370
    25
100
AcDbCircle
 10
-251.6695012953
 20
-752.1600080854
 30
0.0
 40
1.801410831383524
100
AcDbArc
 50
281.3387354503
 51
344.1997791513
  0
ARC
  5
76E
330
62D
100
AcDbEntity
  8
0
  6
Continuous
 62
     7
370
    25
100
AcDbCircle
 10
-265.0630501225
 20
714.8772014191
 30
0.0
 40
3.937687445094834
100
AcDbArc
 50
144.9309440897
 51
183.5931111895
  0
ARC
  5
76F
330
62D
100
AcDbEntity
  8
0
  6
Continuous
 62
     7
370
    25
100
AcDbCircle
 10
-255.2452746316
 20
686.6046707431
 30
0.0
 40
3.93768744509552
100
AcDbArc
 50
324.9309440897
 51
3.5931111895
  0
ARC
  5
770
330
62D
100
AcDbEntity
  8
0
  6
Continuous
 62
     7
370
    25
100
AcDbCircle
 10
-269.7401218561
 20
715.4664570699
 30
0.0
 40
3.937687445095504
100
AcDbArc
 50
144.9309440897
 51
183.5931111895
  0
VIEWPORT
  5
77F
330
62D
100
AcDbEntity
  8
0
100
AcDbViewport
 10
0.0
 20
0.0
 30
0.0
 40
205.6
 41
156.0
 68
     1
 69
     1
 12
773.8560942931
 22
998.2062649258
 13
0.0
 23
0.0
 14
10.0
 24
10.0
 15
10.0
 25
10.0
 16
0.0
 26
0.0
 36
1.0
 17
0.0
 27
0.0
 37
0.0
 42
50.0
 43
0.0
 44
0.0
 45
1989.0
 50
0.0
 51
0.0
 72
   100
 90
   557152
  1

281
     0
 71
     1
 74
     0
110
0.0
120
0.0
130
0.0
111
1.0
121
0.0
131
0.0
112
0.0
122
1.0
132
0.0
 79
     0
146
0.0
  0
ENDBLK
  5
630
330
62D
100
AcDbEntity
  8
0
100
AcDbBlockEnd
  0
ENDSEC
  0
SECTION
  2
ENTITIES
  0
LINE
  5
C1
330
1F
100
AcDbEntity
  8
0
  6
Continuous
 62
     7
370
    25
100
AcDbLine
 10
763.5063275028
 20
1784.7062649258
 30
0.0
 11
763.5063275028
 21
1788.2062649258
 31
0.0
  0
LINE
  5
C2
330
1F
100
AcDbEntity
  8
0
  6
Continuous
 62
     7
370
    25
100
AcDbLine
 10
762.5058610833
 20
1788.2062649258
 30
0.0
 11
765.0063275028
 21
1788.2062649258
 31
0.0
  0
LINE
  5
C3
330
1F
100
AcDbEntity
  8
0
  6
Continuous
 62
     7
370
    25
100
AcDbLine
 10
763.0060959137
 20
1784.7062649258
 30
0.0
 11
765.0063275028
 21
1784.7062649258
 31
0.0
  0
LINE
  5
C4
330
1F
100
AcDbEntity
  8
0
  6
Continuous
 62
     7
370
    25
100
AcDbLine
 10
763.5063275028
 20
237.5062649258
 30
0.0
 11
763.5063275028
 21
241.0062649258
 31
0.0
  0
LINE
  5
C5
330
1F
100
AcDbEntity
  8
0
  6
Continuous
 62
     7
370
    25
100
AcDbLine
 10
762.5058610833
 20
241.0062649258
 30
0.0
 11
765.0063275028
 21
241.0062649258
 31
0.0
  0
LINE
  5
C6
330
1F
100
AcDbEntity
  8
0
  6
Continuous
 62
     7
370
    25
100
AcDbLine
 10
763.0060959137
 20
237.5062649258
 30
0.0
 11
765.0063275028
 21
237.5062649258
 31
0.0
  0
LINE
  5
C7
330
1F
100
AcDbEntity
  8
0
  6
Continuous
 62
     7
370
    25
100
AcDbLine
 10
763.5063275028
 20
211.7062649258
 30
0.0
 11
763.5063275028
 21
208.2062649258
 31
0.0
  0
LINE
  5
C8
330
1F
100
AcDbEntity
  8
0
  6
Continuous
 62
     7
370
    25
100
AcDbLine
 10
762.5058610833
 20
208.2062649258
 30
0.0
 11
765.0063275028
 21
208.2062649258
 31
0.0
  0
LINE
  5
C9
330
1F
100
AcDbEntity
  8
0
  6
Continuous
 62
     7
370
    25
100
AcDbLine
 10
763.0060959137
 20
211.7062649258
 30
0.0
 11
765.0063275028
 21
211.7062649258
 31
0.0
  0
LINE
  5
CA
330
1F
100
AcDbEntity
  8
0
  6
Continuous
 62
     7
370
    25
100
AcDbLine
 10
763.5063275028
 20
1758.9062649258
 30
0.0
 11
763.5063275028
 21
1755.4062649258
 31
0.0
  0
LINE
  5
CB
330
1F
100
AcDbEntity
  8
0
  6
Continuous
 62
     7
370
    25
100
AcDbLine
 10
762.5058610833
 20
1755.4062649258
 30
0.0
 11
765.0063275028
 21
1755.4062649258
 31
0.0
  0
LINE
  5
CC
330
1F
100
AcDbEntity
  8
0
  6
Continuous
 62
     7
370
    25
100
AcDbLine
 10
763.0060959137
 20
1758.9062649258
 30
0.0
 11
765.0063275028
 21
1758.9062649258
 31
0.0
  0
LINE
  5
CD
330
1F
100
AcDbEntity
  8
0
  6
Continuous
 62
     7
370
    25
100
AcDbLine
 10
777.0063275028
 20
31.8062649258
 30
0.0
 11
777.0063275028
 21
23.2062649258
 31
0.0
  0
LINE
  5
CE
330
1F
100
AcDbEntity
  8
0
  6
Continuous
 62
     7
370
    25
100
AcDbLine
 10
762.9063275028
 20
23.2062649258
 30
0.0
 11
779.1063275028
 21
23.2062649258
 31
0.0
  0
LINE
  5
CF
330
1F
100
AcDbEntity
  8
0
  6
Continuous
 62
     7
370
    25
100
AcDbLine
 10
762.9063275028
 20
1973.2062649258
 30
0.0
 11
779.1063275028
 21
1973.2062649258
 31
0.0
  0
LINE
  5
D0
330
1F
100
AcDbEntity
  8
0
  6
Continuous
 62
     7
370
    25
100
AcDbLine
 10
777.0063275028
 20
1973.2062649258
 30
0.0
 11
777.0063275028
 21
1956.8062649258
 31
0.0
  0
LINE
  5
D1
330
1F
100
AcDbEntity
  8
0
  6
Continuous
 62
     7
370
    25
100
AcDbLine
 10
765.0063275028
 20
1973.2062649258
 30
0.0
 11
765.0063275028
 21
23.2062649258
 31
0.0
  0
LINE
  5
D2
330
1F
100
AcDbEntity
  8
0
  6
Continuous
 62
     7
370
    25
100
AcDbLine
 10
779.1063275028
 20
1973.2062649258
 30
0.0
 11
779.1063275028
 21
1956.8062649258
 31
0.0
  0
LINE
  5
D3
330
1F
100
AcDbEntity
  8
0
  6
Continuous
 62
     7
370
    25
100
AcDbLine
 10
779.1063275028
 20
31.8062649258
 30
0.0
 11
779.1063275028
 21
23.2062649258
 31
0.0
  0
LINE
  5
D4
330
1F
100
AcDbEntity
  8
0
  6
Continuous
 62
     7
370
    25
100
AcDbLine
 10
763.0060959137
 20
211.7062649258
 30
0.0
 11
763.0060959137
 21
237.5062649258
 31
0.0
  0
LINE
  5
D5
330
1F
100
AcDbEntity
  8
0
  6
Continuous
 62
     7
370
    25
100
AcDbLine
 10
762.5058610833
 20
208.2062649258
 30
0.0
 11
762.5058610833
 21
241.0062649258
 31
0.0
  0
LINE
  5
D6
330
1F
100
AcDbEntity
  8
0
  6
Continuous
 62
     7
370
    25
100
AcDbLine
 10
762.9063275028
 20
1973.2062649258
 30
0.0
 11
762.9063275028
 21
1788.2062649258
 31
0.0
  0
LINE
  5
D7
330
1F
100
AcDbEntity
  8
0
  6
Continuous
 62
     7
370
    25
100
AcDbLine
 10
762.9063275028
 20
1755.4062649258
 30
0.0
 11
762.9063275028
 21
241.0062649258
 31
0.0
  0
LINE
  5
D8
330
1F
100
AcDbEntity
  8
0
  6
Continuous
 62
     7
370
    25
100
AcDbLine
 10
762.9063275028
 20
208.2062649258
 30
0.0
 11
762.9063275028
 21
23.2062649258
 31
0.0
  0
LINE
  5
D9
330
1F
100
AcDbEntity
  8
0
  6
Continuous
 62
     7
370
    25
100
AcDbLine
 10
762.5058610833
 20
1788.2062649258
 30
0.0
 11
762.5058610833
 21
1755.4062649258
 31
0.0
  0
LINE
  5
DA
330
1F
100
AcDbEntity
  8
0
  6
Continuous
 62
     7
370
    25
100
AcDbLine
 10
763.0060959137
 20
1784.7062649258
 30
0.0
 11
763.0060959137
 21
1758.9062649258
 31
0.0
  0
LINE
  5
DB
330
1F
100
AcDbEntity
  8
0
  6
Continuous
 62
     7
370
    25
100
AcDbLine
 10
765.0063275028
 20
1796.8062649258
 30
0.0
 11
772.2063275028
 21
1796.8062649258
 31
0.0
  0
LINE
  5
DC
330
1F
100
AcDbEntity
  8
0
  6
Continuous
 62
     7
370
    25
100
AcDbLine
 10
772.2063275028
 20
1794.8062649258
 30
0.0
 11
765.0063275028
 21
1794.8062649258
 31
0.0
  0
LINE
  5
DD
330
1F
100
AcDbEntity
  8
0
  6
Continuous
 62
     7
370
    25
100
AcDbLine
 10
765.0063275028
 20
1748.8062649258
 30
0.0
 11
772.2063275028
 21
1748.8062649258
 31
0.0
  0
LINE
  5
DE
330
1F
100
AcDbEntity
  8
0
  6
Continuous
 62
     7
370
    25
100
AcDbLine
 10
772.2063275028
 20
1746.8062649258
 30
0.0
 11
765.0063275028
 21
1746.8062649258
 31
0.0
  0
LINE
  5
DF
330
1F
100
AcDbEntity
  8
0
  6
Continuous
 62
     7
370
    25
100
AcDbLine
 10
785.2063275028
 20
247.6062649258
 30
0.0
 11
780.2063275028
 21
247.6062649258
 31
0.0
  0
LINE
  5
E0
330
1F
100
AcDbEntity
  8
0
  6
Continuous
 62
     7
370
    25
100
AcDbLine
 10
785.2063275028
 20
249.6062649258
 30
0.0
 11
785.2063275028
 21
199.6062649258
 31
0.0
  0
LINE
  5
E1
330
1F
100
AcDbEntity
  8
0
  6
Continuous
 62
     7
370
    25
100
AcDbLine
 10
780.2063275028
 20
201.6062649258
 30
0.0
 11
785.2063275028
 21
201.6062649258
 31
0.0
  0
LINE
  5
E2
330
1F
100
AcDbEntity
  8
0
  6
Continuous
 62
     7
370
    25
100
AcDbLine
 10
780.2063275028
 20
249.6062649258
 30
0.0
 11
785.2063275028
 21
249.6062649258
 31
0.0
  0
LINE
  5
E3
330
1F
100
AcDbEntity
  8
0
  6
Continuous
 62
     7
370
    25
100
AcDbLine
 10
785.2063275028
 20
199.6062649258
 30
0.0
 11
780.2063275028
 21
199.6062649258
 31
0.0
  0
LINE
  5
E4
330
1F
100
AcDbEntity
  8
0
  6
Continuous
 62
     7
370
    25
100
AcDbLine
 10
765.0063275028
 20
249.6062649258
 30
0.0
 11
772.2063275028
 21
249.6062649258
 31
0.0
  0
LINE
  5
E5
330
1F
100
AcDbEntity
  8
0
  6
Continuous
 62
     7
370
    25
100
AcDbLine
 10
772.2063275028
 20
247.6062649258
 30
0.0
 11
765.0063275028
 21
247.6062649258
 31
0.0
  0
LINE
  5
E6
330
1F
100
AcDbEntity
  8
0
  6
Continuous
 62
     7
370
    25
100
AcDbLine
 10
765.0063275028
 20
201.6062649258
 30
0.0
 11
772.2063275028
 21
201.6062649258
 31
0.0
  0
LINE
  5
E7
330
1F
100
AcDbEntity
  8
0
  6
Continuous
 62
     7
370
    25
100
AcDbLine
 10
772.2063275028
 20
199.6062649258
 30
0.0
 11
765.0063275028
 21
199.6062649258
 31
0.0
  0
LINE
  5
E8
330
1F
100
AcDbEntity
  8
0
  6
Continuous
 62
     7
370
    25
100
AcDbLine
 10
785.2063275028
 20
1794.8062649258
 30
0.0
 11
780.2063275028
 21
1794.8062649258
 31
0.0
  0
LINE
  5
E9
330
1F
100
AcDbEntity
  8
0
  6
Continuous
 62
     7
370
    25
100
AcDbLine
 10
785.2063275028
 20
1796.8062649258
 30
0.0
 11
785.2063275028
 21
1746.8062649258
 31
0.0
  0
LINE
  5
EA
330
1F
100
AcDbEntity
  8
0
  6
Continuous
 62
     7
370
    25
100
AcDbLine
 10
780.2063275028
 20
1748.8062649258
 30
0.0
 11
785.2063275028
 21
1748.8062649258
 31
0.0
  0
LINE
  5
EB
330
1F
100
AcDbEntity
  8
0
  6
Continuous
 62
     7
370
    25
100
AcDbLine
 10
780.2063275028
 20
1796.8062649258
 30
0.0
 11
785.2063275028
 21
1796.8062649258
 31
0.0
  0
LINE
  5
EC
330
1F
100
AcDbEntity
  8
0
  6
Continuous
 62
     7
370
    25
100
AcDbLine
 10
785.2063275028
 20
1746.8062649258
 30
0.0
 11
780.2063275028
 21
1746.8062649258
 31
0.0
  0
LINE
  5
ED
330
1F
100
AcDbEntity
  8
0
  6
Continuous
 62
     7
370
    25
100
AcDbLine
 10
779.2063275028
 20
31.8062649258
 30
0.0
 11
779.2063275028
 21
1956.8062649258
 31
0.0
  0
LINE
  5
EE
330
1F
100
AcDbEntity
  8
0
  6
Continuous
 62
     7
370
    25
100
AcDbLine
 10
780.2063275028
 20
1955.8062649258
 30
0.0
 11
780.2063275028
 21
32.8062649258
 31
0.0
  0
LINE
  5
EF
330
1F
100
AcDbEntity
  8
0
  6
Continuous
 62
     7
370
    25
100
AcDbLine
 10
779.2063275028
 20
31.8062649258
 30
0.0
 11
780.2063275028
 21
32.8062649258
 31
0.0
  0
LINE
  5
F0
330
1F
100
AcDbEntity
  8
0
  6
Continuous
 62
     7
370
    25
100
AcDbLine
 10
779.2063275028
 20
1956.8062649258
 30
0.0
 11
780.2063275028
 21
1955.8062649258
 31
0.0
  0
LINE
  5
F1
330
1F
100
AcDbEntity
  8
0
  6
Continuous
 62
     7
370
    25
100
AcDbLine
 10
779.2063275028
 20
31.8062649258
 30
0.0
 11
773.2063275028
 21
31.8062649258
 31
0.0
  0
LINE
  5
F2
330
1F
100
AcDbEntity
  8
0
  6
Continuous
 62
     7
370
    25
100
AcDbLine
 10
773.2063275028
 20
1956.8062649258
 30
0.0
 11
773.2063275028
 21
31.8062649258
 31
0.0
  0
LINE
  5
F3
330
1F
100
AcDbEntity
  8
0
  6
Continuous
 62
     7
370
    25
100
AcDbLine
 10
779.2063275028
 20
1956.8062649258
 30
0.0
 11
773.2063275028
 21
1956.8062649258
 31
0.0
  0
LINE
  5
F4
330
1F
100
AcDbEntity
  8
0
  6
Continuous
 62
     7
370
    25
100
AcDbLine
 10
772.2063275028
 20
32.8062649258
 30
0.0
 11
772.2063275028
 21
1955.8062649258
 31
0.0
  0
LINE
  5
F5
330
1F
100
AcDbEntity
  8
0
  6
Continuous
 62
     7
370
    25
100
AcDbLine
 10
772.2063275028
 20
1955.8062649258
 30
0.0
 11
773.2063275028
 21
1956.8062649258
 31
0.0
  0
LINE
  5
F6
330
1F
100
AcDbEntity
  8
0
  6
Continuous
 62
     7
370
    25
100
AcDbLine
 10
772.2063275028
 20
32.8062649258
 30
0.0
 11
773.2063275028
 21
31.8062649258
 31
0.0
  0
LINE
  5
123
330
1B
100
AcDbEntity
 67
     1
  8
0
  6
Continuous
 62
     7
370
    25
100
AcDbLine
 10
-779.1063275028
 20
1973.2062649258
 30
0.0
 11
-779.1063275028
 21
23.2062649258
 31
0.0
  0
LINE
  5
124
330
1B
100
AcDbEntity
 67
     1
  8
0
  6
Continuous
 62
     7
370
    25
100
AcDbLine
 10
-777.0063275028
 20
1973.2062649258
 30
0.0
 11
-777.0063275028
 21
23.2062649258
 31
0.0
  0
LINE
  5
125
330
1B
100
AcDbEntity
 67
     1
  8
0
  6
Continuous
 62
     7
370
    25
100
AcDbLine
 10
-779.1063275028
 20
1973.2062649258
 30
0.0
 11
-762.9063275028
 21
1973.2062649258
 31
0.0
  0
LINE
  5
126
330
1B
100
AcDbEntity
 67
     1
  8
0
  6
Continuous
 62
     7
370
    25
100
AcDbLine
 10
-762.9063275028
 20
1973.2062649258
 30
0.0
 11
-762.9063275028
 21
23.2062649258
 31
0.0
  0
LINE
  5
127
330
1B
100
AcDbEntity
 67
     1
  8
0
  6
Continuous
 62
     7
370
    25
100
AcDbLine
 10
-779.1063275028
 20
23.2062649258
 30
0.0
 11
-762.9063275028
 21
23.2062649258
 31
0.0
  0
LINE
  5
128
330
1B
100
AcDbEntity
 67
     1
  8
0
  6
Continuous
 62
     7
370
    25
100
AcDbLine
 10
-765.0063275028
 20
1973.2062649258
 30
0.0
 11
-765.0063275028
 21
23.2062649258
 31
0.0
  0
LINE
  5
129
330
1B
100
AcDbEntity
 67
     1
  8
0
  6
Continuous
 62
     7
370
    25
100
AcDbLine
 10
-762.9063275028
 20
241.0062649258
 30
0.0
 11
-762.5058610833
 21
241.0062649258
 31
0.0
  0
LINE
  5
12A
330
1B
100
AcDbEntity
 67
     1
  8
0
  6
Continuous
 62
     7
370
    25
100
AcDbLine
 10
-762.5058610833
 20
208.2062649258
 30
0.0
 11
-762.5058610833
 21
241.0062649258
 31
0.0
  0
LINE
  5
12B
330
1B
100
AcDbEntity
 67
     1
  8
0
  6
Continuous
 62
     7
370
    25
100
AcDbLine
 10
-762.9063275028
 20
208.2062649258
 30
0.0
 11
-762.5058610833
 21
208.2062649258
 31
0.0
  0
LINE
  5
12C
330
1B
100
AcDbEntity
 67
     1
  8
0
  6
Continuous
 62
     7
370
    25
100
AcDbLine
 10
-779.5067939222
 20
208.2062649258
 30
0.0
 11
-779.1063275028
 21
208.2062649258
 31
0.0
  0
LINE
  5
12D
330
1B
100
AcDbEntity
 67
     1
  8
0
  6
Continuous
 62
     7
370
    25
100
AcDbLine
 10
-779.5067939222
 20
208.2062649258
 30
0.0
 11
-779.5067939222
 21
241.0062649258
 31
0.0
  0
LINE
  5
12E
330
1B
100
AcDbEntity
 67
     1
  8
0
  6
Continuous
 62
     7
370
    25
100
AcDbLine
 10
-779.5067939222
 20
241.0062649258
 30
0.0
 11
-779.1063275028
 21
241.0062649258
 31
0.0
  0
LINE
  5
12F
330
1B
100
AcDbEntity
 67
     1
  8
0
  6
Continuous
 62
     7
370
    25
100
AcDbLine
 10
-779.5067939222
 20
1788.2062649258
 30
0.0
 11
-779.5067939222
 21
1755.4062649258
 31
0.0
  0
LINE
  5
130
330
1B
100
AcDbEntity
 67
     1
  8
0
  6
Continuous
 62
     7
370
    25
100
AcDbLine
 10
-779.5067939222
 20
1788.2062649258
 30
0.0
 11
-779.1063275028
 21
1788.2062649258
 31
0.0
  0
LINE
  5
131
330
1B
100
AcDbEntity
 67
     1
  8
0
  6
Continuous
 62
     7
370
    25
100
AcDbLine
 10
-779.5067939222
 20
1755.4062649258
 30
0.0
 11
-779.1063275028
 21
1755.4062649258
 31
0.0
  0
LINE
  5
132
330
1B
100
AcDbEntity
 67
     1
  8
0
  6
Continuous
 62
     7
370
    25
100
AcDbLine
 10
-762.9063275028
 20
1788.2062649258
 30
0.0
 11
-762.5058610833
 21
1788.2062649258
 31
0.0
  0
LINE
  5
133
330
1B
100
AcDbEntity
 67
     1
  8
0
  6
Continuous
 62
     7
370
    25
100
AcDbLine
 10
-762.5058610833
 20
1788.2062649258
 30
0.0
 11
-762.5058610833
 21
1755.4062649258
 31
0.0
  0
LINE
  5
134
330
1B
100
AcDbEntity
 67
     1
  8
0
  6
Continuous
 62
     7
370
    25
100
AcDbLine
 10
-762.9063275028
 20
1755.4062649258
 30
0.0
 11
-762.5058610833
 21
1755.4062649258
 31
0.0
  0
LINE
  5
135
330
1B
100
AcDbEntity
 67
     1
  8
0
  6
Continuous
 62
     7
370
    25
100
AcDbLine
 10
-785.2063275028
 20
201.6062649258
 30
0.0
 11
-780.2063275028
 21
201.6062649258
 31
0.0
  0
LINE
  5
136
330
1B
100
AcDbEntity
 67
     1
  8
0
  6
Continuous
 62
     7
370
    25
100
AcDbLine
 10
-780.2063275028
 20
199.6062649258
 30
0.0
 11
-785.2063275028
 21
199.6062649258
 31
0.0
  0
LINE
  5
137
330
1B
100
AcDbEntity
 67
     1
  8
0
  6
Continuous
 62
     7
370
    25
100
AcDbLine
 10
-785.2063275028
 20
249.6062649258
 30
0.0
 11
-780.2063275028
 21
249.6062649258
 31
0.0
  0
LINE
  5
138
330
1B
100
AcDbEntity
 67
     1
  8
0
  6
Continuous
 62
     7
370
    25
100
AcDbLine
 10
-780.2063275028
 20
247.6062649258
 30
0.0
 11
-785.2063275028
 21
247.6062649258
 31
0.0
  0
LINE
  5
139
330
1B
100
AcDbEntity
 67
     1
  8
0
  6
Continuous
 62
     7
370
    25
100
AcDbLine
 10
-785.2063275028
 20
199.6062649258
 30
0.0
 11
-785.2063275028
 21
249.6062649258
 31
0.0
  0
LINE
  5
13A
330
1B
100
AcDbEntity
 67
     1
  8
0
  6
Continuous
 62
     7
370
    25
100
AcDbLine
 10
-785.2063275028
 20
1748.8062649258
 30
0.0
 11
-780.2063275028
 21
1748.8062649258
 31
0.0
  0
LINE
  5
13B
330
1B
100
AcDbEntity
 67
     1
  8
0
  6
Continuous
 62
     7
370
    25
100
AcDbLine
 10
-780.2063275028
 20
1746.8062649258
 30
0.0
 11
-785.2063275028
 21
1746.8062649258
 31
0.0
  0
LINE
  5
13C
330
1B
100
AcDbEntity
 67
     1
  8
0
  6
Continuous
 62
     7
370
    25
100
AcDbLine
 10
-785.2063275028
 20
1746.8062649258
 30
0.0
 11
-785.2063275028
 21
1796.8062649258
 31
0.0
  0
LINE
  5
13D
330
1B
100
AcDbEntity
 67
     1
  8
0
  6
Continuous
 62
     7
370
    25
100
AcDbLine
 10
-780.2063275028
 20
1794.8062649258
 30
0.0
 11
-785.2063275028
 21
1794.8062649258
 31
0.0
  0
LINE
  5
13E
330
1B
100
AcDbEntity
 67
     1
  8
0
  6
Continuous
 62
     7
370
    25
100
AcDbLine
 10
-785.2063275028
 20
1796.8062649258
 30
0.0
 11
-780.2063275028
 21
1796.8062649258
 31
0.0
  0
LINE
  5
13F
330
1B
100
AcDbEntity
 67
     1
  8
0
  6
Continuous
 62
     7
370
    25
100
AcDbLine
 10
-779.2063275028
 20
1956.8062649258
 30
0.0
 11
-779.2063275028
 21
1788.2062649258
 31
0.0
  0
LINE
  5
140
330
1B
100
AcDbEntity
 67
     1
  8
0
  6
Continuous
 62
     7
370
    25
100
AcDbLine
 10
-779.2063275028
 20
1755.4062649258
 30
0.0
 11
-779.2063275028
 21
241.0062649258
 31
0.0
  0
LINE
  5
141
330
1B
100
AcDbEntity
 67
     1
  8
0
  6
Continuous
 62
     7
370
    25
100
AcDbLine
 10
-779.2063275028
 20
208.2062649258
 30
0.0
 11
-779.2063275028
 21
31.8062649258
 31
0.0
  0
LINE
  5
142
330
1B
100
AcDbEntity
 67
     1
  8
0
  6
Continuous
 62
     7
370
    25
100
AcDbLine
 10
-779.2063275028
 20
1956.8062649258
 30
0.0
 11
-779.1063275028
 21
1956.8062649258
 31
0.0
  0
LINE
  5
143
330
1B
100
AcDbEntity
 67
     1
  8
0
  6
Continuous
 62
     7
370
    25
100
AcDbLine
 10
-779.2063275028
 20
31.8062649258
 30
0.0
 11
-779.1063275028
 21
31.8062649258
 31
0.0
  0
LINE
  5
144
330
1B
100
AcDbEntity
 67
     1
  8
0
  6
Continuous
 62
     7
370
    25
100
AcDbLine
 10
-780.2063275028
 20
32.8062649258
 30
0.0
 11
-780.2063275028
 21
1955.8062649258
 31
0.0
  0
LINE
  5
145
330
1B
100
AcDbEntity
 67
     1
  8
0
  6
Continuous
 62
     7
370
    25
100
AcDbLine
 10
-780.2063275028
 20
32.8062649258
 30
0.0
 11
-779.2063275028
 21
31.8062649258
 31
0.0
  0
LINE
  5
146
330
1B
100
AcDbEntity
 67
     1
  8
0
  6
Continuous
 62
     7
370
    25
100
AcDbLine
 10
-780.2063275028
 20
1955.8062649258
 30
0.0
 11
-779.2063275028
 21
1956.8062649258
 31
0.0
  0
VIEWPORT
  5
771
330
1B
100
AcDbEntity
 67
     1
  8
0
100
AcDbViewport
 10
0.0
 20
0.0
 30
0.0
 40
205.6
 41
156.0
 68
     1
 69
     1
 12
773.8560942931
 22
998.2062649258
 13
0.0
 23
0.0
 14
10.0
 24
10.0
 15
10.0
 25
10.0
 16
0.0
 26
0.0
 36
1.0
 17
0.0
 27
0.0
 37
0.0
 42
50.0
 43
0.0
 44
0.0
 45
1989.0
 50
0.0
 51
0.0
 72
   100
 90
   557152
  1

281
     0
 71
     1
 74
     0
110
0.0
120
0.0
130
0.0
111
1.0
121
0.0
131
0.0
112
0.0
122
1.0
132
0.0
 79
     0
146
0.0
  0
ENDSEC
  0
SECTION
  2
OBJECTS
  0
DICTIONARY
  5
C
330
0
100
AcDbDictionary
281
     1
  3
ACAD_GROUP
350
D
  3
ACAD_LAYOUT
350
1A
  3
ACAD_MLINESTYLE
350
17
  3
ACAD_PLOTSETTINGS
350
19
  3
ACAD_PLOTSTYLENAME
350
E
  3
ACAD_SCALELIST
350
47
  0
DICTIONARY
  5
D
102
{ACAD_REACTORS
330
C
102
}
330
C
100
AcDbDictionary
281
     1
  0
DICTIONARY
  5
1A
102
{ACAD_REACTORS
330
C
102
}
330
C
100
AcDbDictionary
281
     1
  3
_Back
350
1E
  3
_Bottom
350
32A
  3
_Dimetric
350
62E
  3
_Isometric
350
386
  3
_Left
350
26
  3
_Right
350
1EA
  3
_Top
350
2CE
  3
_Trimetric
350
4E4
  3
Model
350
22
  0
DICTIONARY
  5
17
102
{ACAD_REACTORS
330
C
102
}
330
C
100
AcDbDictionary
281
     1
  3
Standard
350
18
  0
DICTIONARY
  5
19
102
{ACAD_REACTORS
330
C
102
}
330
C
100
AcDbDictionary
281
     1
  0
ACDBDICTIONARYWDFLT
  5
E
102
{ACAD_REACTORS
330
C
102
}
330
C
100
AcDbDictionary
281
     1
  3
Normal
350
F
100
AcDbDictionaryWithDefault
340
F
  0
DICTIONARY
  5
47
102
{ACAD_REACTORS
330
C
102
}
330
C
100
AcDbDictionary
281
     1
  3
A0
350
48
  3
A1
350
49
  3
A2
350
4A
  3
A3
350
4B
  3
A4
350
4C
  3
A5
350
4D
  3
A6
350
4E
  3
A7
350
4F
  3
A8
350
50
  3
A9
350
51
  3
B0
350
52
  3
B1
350
53
  3
B2
350
54
  3
B3
350
55
  3
B4
350
56
  3
B5
350
57
  3
B6
350
58
  3
B7
350
59
  3
B8
350
5A
  3
B9
350
5B
  3
C0
350
5C
  3
C1
350
5D
  3
C2
350
5E
  3
C3
350
5F
  3
C4
350
60
  3
C5
350
61
  3
C6
350
62
  3
C7
350
63
  3
C8
350
64
  3
C9
350
65
  3
D0
350
66
  3
D1
350
67
  3
D2
350
68
  0
LAYOUT
  5
1E
102
{ACAD_REACTORS
330
1A
102
}
330
1A
100
AcDbPlotSettings
  1

  2
none_device
  4
ISO_A4_(210.00_x_297.00_MM)
  6

 40
7.5
 41
20.0
 42
7.5
 43
20.0
 44
210.0
 45
297.0
 46
0.0
 47
0.0
 48
0.0
 49
0.0
140
0.0
141
0.0
142
1.0
143
10.0
 70
   688
 72
     1
 73
     1
 74
     1
  7

 75
     0
147
0.1
148
785.2063275028
149
-23.2062649258
100
AcDbLayout
  1
_Back
 70
     1
 71
     1
 10
-985.2063275028
 20
-51.7937350742
 11
1984.7936724972
 21
2048.2062649258
 12
0.0
 22
0.0
 32
0.0
 14
-785.2063275028
 24
23.2062649258
 34
0.0
 15
-762.5058610833
 25
1973.2062649258
 35
0.0
146
0.0
 13
0.0
 23
0.0
 33
0.0
 16
1.0
 26
0.0
 36
0.0
 17
0.0
 27
1.0
 37
0.0
 76
     0
330
1B
331
771
  0
LAYOUT
  5
32A
102
{ACAD_REACTORS
330
1A
102
}
330
1A
100
AcDbPlotSettings
  1

  2
none_device
  4
ISO_A4_(210.00_x_297.00_MM)
  6

 40
7.5
 41
20.0
 42
7.5
 43
20.0
 44
210.0
 45
297.0
 46
0.0
 47
0.0
 48
0.0
 49
0.0
140
0.0
141
0.0
142
1.0
143
10.0
 70
   688
 72
     1
 73
     1
 74
     1
  7

 75
     0
147
0.1
148
785.2063275028
149
-23.2062649258
100
AcDbLayout
  1
_Bottom
 70
     1
 71
     5
 10
0.0
 20
0.0
 11
0.0
 21
0.0
 12
0.0
 22
0.0
 32
0.0
 14
0.0
 24
0.0
 34
0.0
 15
0.0
 25
0.0
 35
0.0
146
0.0
 13
0.0
 23
0.0
 33
0.0
 16
1.0
 26
0.0
 36
0.0
 17
0.0
 27
1.0
 37
0.0
 76
     0
330
329
331
779
  0
LAYOUT
  5
62E
102
{ACAD_REACTORS
330
1A
102
}
330
1A
100
AcDbPlotSettings
  1

  2
none_device
  4
ISO_A4_(210.00_x_297.00_MM)
  6

 40
7.5
 41
20.0
 42
7.5
 43
20.0
 44
210.0
 45
297.0
 46
0.0
 47
0.0
 48
0.0
 49
0.0
140
0.0
141
0.0
142
1.0
143
10.0
 70
   688
 72
     1
 73
     1
 74
     1
  7

 75
     0
147
0.1
148
785.2063275028
149
-23.2062649258
100
AcDbLayout
  1
_Dimetric
 70
     1
 71
     8
 10
0.0
 20
0.0
 11
0.0
 21
0.0
 12
0.0
 22
0.0
 32
0.0
 14
0.0
 24
0.0
 34
0.0
 15
0.0
 25
0.0
 35
0.0
146
0.0
 13
0.0
 23
0.0
 33
0.0
 16
1.0
 26
0.0
 36
0.0
 17
0.0
 27
1.0
 37
0.0
 76
     0
330
62D
331
77F
  0
LAYOUT
  5
386
102
{ACAD_REACTORS
330
1A
102
}
330
1A
100
AcDbPlotSettings
  1

  2
none_device
  4
ISO_A4_(210.00_x_297.00_MM)
  6

 40
7.5
 41
20.0
 42
7.5
 43
20.0
 44
210.0
 45
297.0
 46
0.0
 47
0.0
 48
0.0
 49
0.0
140
0.0
141
0.0
142
1.0
143
10.0
 70
   688
 72
     1
 73
     1
 74
     1
  7

 75
     0
147
0.1
148
785.2063275028
149
-23.2062649258
100
AcDbLayout
  1
_Isometric
 70
     1
 71
     6
 10
0.0
 20
0.0
 11
0.0
 21
0.0
 12
0.0
 22
0.0
 32
0.0
 14
0.0
 24
0.0
 34
0.0
 15
0.0
 25
0.0
 35
0.0
146
0.0
 13
0.0
 23
0.0
 33
0.0
 16
1.0
 26
0.0
 36
0.0
 17
0.0
 27
1.0
 37
0.0
 76
     0
330
385
331
77B
  0
LAYOUT
  5
26
102
{ACAD_REACTORS
330
1A
102
}
330
1A
100
AcDbPlotSettings
  1

  2
none_device
  4
ISO_A4_(210.00_x_297.00_MM)
  6

 40
7.5
 41
20.0
 42
7.5
 43
20.0
 44
210.0
 45
297.0
 46
0.0
 47
0.0
 48
0.0
 49
0.0
140
0.0
141
0.0
142
1.0
143
10.0
 70
   688
 72
     1
 73
     1
 74
     1
  7

 75
     0
147
0.1
148
785.2063275028
149
-23.2062649258
100
AcDbLayout
  1
_Left
 70
     1
 71
     2
 10
0.0
 20
0.0
 11
0.0
 21
0.0
 12
0.0
 22
0.0
 32
0.0
 14
0.0
 24
0.0
 34
0.0
 15
0.0
 25
0.0
 35
0.0
146
0.0
 13
0.0
 23
0.0
 33
0.0
 16
1.0
 26
0.0
 36
0.0
 17
0.0
 27
1.0
 37
0.0
 76
     0
330
23
331
773
  0
LAYOUT
  5
1EA
102
{ACAD_REACTORS
330
1A
102
}
330
1A
100
AcDbPlotSettings
  1

  2
none_device
  4
ISO_A4_(210.00_x_297.00_MM)
  6

 40
7.5
 41
20.0
 42
7.5
 43
20.0
 44
210.0
 45
297.0
 46
0.0
 47
0.0
 48
0.0
 49
0.0
140
0.0
141
0.0
142
1.0
143
10.0
 70
   688
 72
     1
 73
     1
 74
     1
  7

 75
     0
147
0.1
148
785.2063275028
149
-23.2062649258
100
AcDbLayout
  1
_Right
 70
     1
 71
     3
 10
0.0
 20
0.0
 11
0.0
 21
0.0
 12
0.0
 22
0.0
 32
0.0
 14
0.0
 24
0.0
 34
0.0
 15
0.0
 25
0.0
 35
0.0
146
0.0
 13
0.0
 23
0.0
 33
0.0
 16
1.0
 26
0.0
 36
0.0
 17
0.0
 27
1.0
 37
0.0
 76
     0
330
1E9
331
775
  0
LAYOUT
  5
2CE
102
{ACAD_REACTORS
330
1A
102
}
330
1A
100
AcDbPlotSettings
  1

  2
none_device
  4
ISO_A4_(210.00_x_297.00_MM)
  6

 40
7.5
 41
20.0
 42
7.5
 43
20.0
 44
210.0
 45
297.0
 46
0.0
 47
0.0
 48
0.0
 49
0.0
140
0.0
141
0.0
142
1.0
143
10.0
 70
   688
 72
     1
 73
     1
 74
     1
  7

 75
     0
147
0.1
148
785.2063275028
149
-23.2062649258
100
AcDbLayout
  1
_Top
 70
     1
 71
     4
 10
0.0
 20
0.0
 11
0.0
 21
0.0
 12
0.0
 22
0.0
 32
0.0
 14
0.0
 24
0.0
 34
0.0
 15
0.0
 25
0.0
 35
0.0
146
0.0
 13
0.0
 23
0.0
 33
0.0
 16
1.0
 26
0.0
 36
0.0
 17
0.0
 27
1.0
 37
0.0
 76
     0
330
2CD
331
777
  0
LAYOUT
  5
4E4
102
{ACAD_REACTORS
330
1A
102
}
330
1A
100
AcDbPlotSettings
  1

  2
none_device
  4
ISO_A4_(210.00_x_297.00_MM)
  6

 40
7.5
 41
20.0
 42
7.5
 43
20.0
 44
210.0
 45
297.0
 46
0.0
 47
0.0
 48
0.0
 49
0.0
140
0.0
141
0.0
142
1.0
143
10.0
 70
   688
 72
     1
 73
     1
 74
     1
  7

 75
     0
147
0.1
148
785.2063275028
149
-23.2062649258
100
AcDbLayout
  1
_Trimetric
 70
     1
 71
     7
 10
0.0
 20
0.0
 11
0.0
 21
0.0
 12
0.0
 22
0.0
 32
0.0
 14
0.0
 24
0.0
 34
0.0
 15
0.0
 25
0.0
 35
0.0
146
0.0
 13
0.0
 23
0.0
 33
0.0
 16
1.0
 26
0.0
 36
0.0
 17
0.0
 27
1.0
 37
0.0
 76
     0
330
4E3
331
77D
  0
LAYOUT
  5
22
102
{ACAD_REACTORS
330
1A
102
}
330
1A
100
AcDbPlotSettings
  1

  2
none_device
  4
ANSI_A_(11.00_x_8.50_Inches)
  6

 40
6.35
 41
19.05
 42
6.35000508
 43
19.05000254
 44
279.4
 45
215.9
 46
48.5270356906
 47
-20.5141578195
 48
0.0
 49
0.0
140
0.0
141
0.0
142
0.0043153846
143
1.0
 70
  1696
 72
     0
 73
     0
 74
     0
  7

 75
     0
147
0.0179189148
148
-1300.4909072572
149
0.0
100
AcDbLayout
  1
Model
 70
     1
 71
     0
 10
0.0
 20
0.0
 11
420.0
 21
297.0
 12
0.0
 22
0.0
 32
0.0
 14
762.5058610833
 24
23.2062649258
 34
0.0
 15
785.2063275028
 25
1973.2062649258
 35
0.0
146
0.0
 13
0.0
 23
0.0
 33
0.0
 16
1.0
 26
0.0
 36
0.0
 17
0.0
 27
1.0
 37
0.0
 76
     0
330
1F
331
29
  0
MLINESTYLE
  5
18
102
{ACAD_REACTORS
330
17
102
}
330
17
100
AcDbMlineStyle
  2
Standard
 70
     0
  3

 62
   256
 51
90.0
 52
90.0
 71
     2
 49
0.5
 62
   256
  6
BYLAYER
 49
-0.5
 62
   256
  6
BYLAYER
  0
ACDBPLACEHOLDER
  5
F
102
{ACAD_REACTORS
330
E
102
}
330
E
  0
SCALE
  5
48
102
{ACAD_REACTORS
330
47
102
}
330
47
100
AcDbScale
 70
     0
300
1:1
140
1.0
141
1.0
290
     1
  0
SCALE
  5
49
102
{ACAD_REACTORS
330
47
102
}
330
47
100
AcDbScale
 70
     0
300
1:2
140
1.0
141
2.0
290
     0
  0
SCALE
  5
4A
102
{ACAD_REACTORS
330
47
102
}
330
47
100
AcDbScale
 70
     0
300
1:4
140
1.0
141
4.0
290
     0
  0
SCALE
  5
4B
102
{ACAD_REACTORS
330
47
102
}
330
47
100
AcDbScale
 70
     0
300
1:5
140
1.0
141
5.0
290
     0
  0
SCALE
  5
4C
102
{ACAD_REACTORS
330
47
102
}
330
47
100
AcDbScale
 70
     0
300
1:8
140
1.0
141
8.0
290
     0
  0
SCALE
  5
4D
102
{ACAD_REACTORS
330
47
102
}
330
47
100
AcDbScale
 70
     0
300
1:10
140
1.0
141
10.0
290
     0
  0
SCALE
  5
4E
102
{ACAD_REACTORS
330
47
102
}
330
47
100
AcDbScale
 70
     0
300
1:16
140
1.0
141
16.0
290
     0
  0
SCALE
  5
4F
102
{ACAD_REACTORS
330
47
102
}
330
47
100
AcDbScale
 70
     0
300
1:20
140
1.0
141
20.0
290
     0
  0
SCALE
  5
50
102
{ACAD_REACTORS
330
47
102
}
330
47
100
AcDbScale
 70
     0
300
1:30
140
1.0
141
30.0
290
     0
  0
SCALE
  5
51
102
{ACAD_REACTORS
330
47
102
}
330
47
100
AcDbScale
 70
     0
300
1:40
140
1.0
141
40.0
290
     0
  0
SCALE
  5
52
102
{ACAD_REACTORS
330
47
102
}
330
47
100
AcDbScale
 70
     0
300
1:50
140
1.0
141
50.0
290
     0
  0
SCALE
  5
53
102
{ACAD_REACTORS
330
47
102
}
330
47
100
AcDbScale
 70
     0
300
1:100
140
1.0
141
100.0
290
     0
  0
SCALE
  5
54
102
{ACAD_REACTORS
330
47
102
}
330
47
100
AcDbScale
 70
     0
300
2:1
140
2.0
141
1.0
290
     0
  0
SCALE
  5
55
102
{ACAD_REACTORS
330
47
102
}
330
47
100
AcDbScale
 70
     0
300
4:1
140
4.0
141
1.0
290
     0
  0
SCALE
  5
56
102
{ACAD_REACTORS
330
47
102
}
330
47
100
AcDbScale
 70
     0
300
8:1
140
8.0
141
1.0
290
     0
  0
SCALE
  5
57
102
{ACAD_REACTORS
330
47
102
}
330
47
100
AcDbScale
 70
     0
300
10:1
140
10.0
141
1.0
290
     0
  0
SCALE
  5
58
102
{ACAD_REACTORS
330
47
102
}
330
47
100
AcDbScale
 70
     0
300
100:1
140
100.0
141
1.0
290
     0
  0
SCALE
  5
59
102
{ACAD_REACTORS
330
47
102
}
330
47
100
AcDbScale
 70
     0
300
1/128" = 1'-0"
140
0.0078125
141
12.0
290
     0
  0
SCALE
  5
5A
102
{ACAD_REACTORS
330
47
102
}
330
47
100
AcDbScale
 70
     0
300
1/64" = 1'-0"
140
0.015625
141
12.0
290
     0
  0
SCALE
  5
5B
102
{ACAD_REACTORS
330
47
102
}
330
47
100
AcDbScale
 70
     0
300
1/32" = 1'-0"
140
0.03125
141
12.0
290
     0
  0
SCALE
  5
5C
102
{ACAD_REACTORS
330
47
102
}
330
47
100
AcDbScale
 70
     0
300
1/16" = 1'-0"
140
0.0625
141
12.0
290
     0
  0
SCALE
  5
5D
102
{ACAD_REACTORS
330
47
102
}
330
47
100
AcDbScale
 70
     0
300
3/32" = 1'-0"
140
0.09375
141
12.0
290
     0
  0
SCALE
  5
5E
102
{ACAD_REACTORS
330
47
102
}
330
47
100
AcDbScale
 70
     0
300
1/8" = 1'-0"
140
0.125
141
12.0
290
     0
  0
SCALE
  5
5F
102
{ACAD_REACTORS
330
47
102
}
330
47
100
AcDbScale
 70
     0
300
3/16" = 1'-0"
140
0.1875
141
12.0
290
     0
  0
SCALE
  5
60
102
{ACAD_REACTORS
330
47
102
}
330
47
100
AcDbScale
 70
     0
300
1/4" = 1'-0"
140
0.25
141
12.0
290
     0
  0
SCALE
  5
61
102
{ACAD_REACTORS
330
47
102
}
330
47
100
AcDbScale
 70
     0
300
3/8" = 1'-0"
140
0.375
141
12.0
290
     0
  0
SCALE
  5
62
102
{ACAD_REACTORS
330
47
102
}
330
47
100
AcDbScale
 70
     0
300
1/2" = 1'-0"
140
0.5
141
12.0
290
     0
  0
SCALE
  5
63
102
{ACAD_REACTORS
330
47
102
}
330
47
100
AcDbScale
 70
     0
300
3/4" = 1'-0"
140
0.75
141
12.0
290
     0
  0
SCALE
  5
64
102
{ACAD_REACTORS
330
47
102
}
330
47
100
AcDbScale
 70
     0
300
1" = 1'-0"
140
1.0
141
12.0
290
     0
  0
SCALE
  5
65
102
{ACAD_REACTORS
330
47
102
}
330
47
100
AcDbScale
 70
     0
300
1-1/2" = 1'-0"
140
1.5
141
12.0
290
     0
  0
SCALE
  5
66
102
{ACAD_REACTORS
330
47
102
}
330
47
100
AcDbScale
 70
     0
300
3" = 1'-0"
140
3.0
141
12.0
290
     0
  0
SCALE
  5
67
102
{ACAD_REACTORS
330
47
102
}
330
47
100
AcDbScale
 70
     0
300
6" = 1'-0"
140
6.0
141
12.0
290
     0
  0
SCALE
  5
68
102
{ACAD_REACTORS
330
47
102
}
330
47
100
AcDbScale
 70
     0
300
1'-0" = 1'-0"
140
12.0
141
12.0
290
     0
  0
ENDSEC
  0
EOF
