  0
SECTION
  2
HEADER
  9
$ACADVER
  1
AC1015
  9
$ACADMAINTVER
 70
     6
  9
$DWGCODEPAGE
  3
ANSI_1252
  9
$INSBASE
 10
0.0
 20
0.0
 30
0.0
  9
$EXTMIN
 10
-200.0
 20
0.0
 30
0.0
  9
$EXTMAX
 10
200.0
 20
682.0
 30
0.0
  9
$LIMMIN
 10
0.0
 20
0.0
  9
$LIMMAX
 10
420.0
 20
297.0
  9
$ORTHOMODE
 70
     0
  9
$REGENMODE
 70
     1
  9
$FILLMODE
 70
     1
  9
$QTEXTMODE
 70
     0
  9
$MIRRTEXT
 70
     1
  9
$LTSCALE
 40
1.0
  9
$ATTMODE
 70
     1
  9
$TEXTSIZE
 40
3.5
  9
$TRACEWID
 40
1.0
  9
$TEXTSTYLE
  7
Standard
  9
$CLAYER
  8
0
  9
$CELTYPE
  6
ByLayer
  9
$CECOLOR
 62
   256
  9
$CELTSCALE
 40
1.0
  9
$DISPSILH
 70
     0
  9
$DIMSCALE
 40
1.0
  9
$DIMASZ
 40
3.302
  9
$DIMEXO
 40
1.0
  9
$DIMDLI
 40
3.75
  9
$DIMRND
 40
0.0
  9
$DIMDLE
 40
0.0
  9
$DIMEXE
 40
1.0
  9
$DIMTP
 40
0.0
  9
$DIMTM
 40
0.0
  9
$DIMTXT
 40
3.5
  9
$DIMCEN
 40
2.5
  9
$DIMTSZ
 40
0.0
  9
$DIMTOL
 70
     0
  9
$DIMLIM
 70
     0
  9
$DIMTIH
 70
     1
  9
$DIMTOH
 70
     1
  9
$DIMSE1
 70
     0
  9
$DIMSE2
 70
     0
  9
$DIMTAD
 70
     1
  9
$DIMZIN
 70
     1
  9
$DIMBLK
  1

  9
$DIMASO
 70
     1
  9
$DIMSHO
 70
     1
  9
$DIMPOST
  1

  9
$DIMAPOST
  1

  9
$DIMALT
 70
     0
  9
$DIMALTD
 70
     3
  9
$DIMALTF
 40
0.0393700787
  9
$DIMLFAC
 40
1.0
  9
$DIMTOFL
 70
     1
  9
$DIMTVP
 40
0.0
  9
$DIMTIX
 70
     0
  9
$DIMSOXD
 70
     0
  9
$DIMSAH
 70
     0
  9
$DIMBLK1
  1

  9
$DIMBLK2
  1

  9
$DIMSTYLE
  2
ISO-25
  9
$DIMCLRD
 70
     0
  9
$DIMCLRE
 70
     0
  9
$DIMCLRT
 70
     0
  9
$DIMTFAC
 40
1.0
  9
$DIMGAP
 40
1.524
  9
$DIMJUST
 70
     0
  9
$DIMSD1
 70
     0
  9
$DIMSD2
 70
     0
  9
$DIMTOLJ
 70
     0
  9
$DIMTZIN
 70
     1
  9
$DIMALTZ
 70
     0
  9
$DIMALTTZ
 70
     0
  9
$DIMUPT
 70
     0
  9
$DIMDEC
 70
     2
  9
$DIMTDEC
 70
     2
  9
$DIMALTU
 70
     2
  9
$DIMALTTD
 70
     3
  9
$DIMTXSTY
  7
Standard
  9
$DIMAUNIT
 70
     0
  9
$DIMADEC
 70
     2
  9
$DIMALTRND
 40
0.0
  9
$DIMAZIN
 70
     0
  9
$DIMDSEP
 70
    44
  9
$DIMATFIT
 70
     3
  9
$DIMFRAC
 70
     0
  9
$DIMLDRBLK
  1

  9
$DIMLUNIT
 70
     2
  9
$DIMLWD
 70
    -2
  9
$DIMLWE
 70
    -2
  9
$DIMTMOVE
 70
     0
  9
$LUNITS
 70
     2
  9
$LUPREC
 70
     2
  9
$SKETCHINC
 40
1.0
  9
$FILLETRAD
 40
10.0
  9
$AUNITS
 70
     0
  9
$AUPREC
 70
     2
  9
$MENU
  1
.
  9
$ELEVATION
 40
0.0
  9
$PELEVATION
 40
0.0
  9
$THICKNESS
 40
0.0
  9
$LIMCHECK
 70
     0
  9
$CHAMFERA
 40
0.0
  9
$CHAMFERB
 40
0.0
  9
$CHAMFERC
 40
0.0
  9
$CHAMFERD
 40
0.0
  9
$SKPOLY
 70
     0
  9
$TDCREATE
 40
2459718.440311702
  9
$TDUCREATE
 40
2459718.398645035
  9
$TDUPDATE
 40
2459718.440339502
  9
$TDUUPDATE
 40
2459718.398672835
  9
$TDINDWG
 40
0.0000000116
  9
$TDUSRTIMER
 40
0.0000000116
  9
$USRTIMER
 70
     1
  9
$ANGBASE
 50
0.0
  9
$ANGDIR
 70
     0
  9
$PDMODE
 70
     0
  9
$PDSIZE
 40
-1.0
  9
$PLINEWID
 40
0.0
  9
$SPLFRAME
 70
     0
  9
$SPLINETYPE
 70
     6
  9
$SPLINESEGS
 70
     8
  9
$HANDSEED
  5
1F3
  9
$SURFTAB1
 70
     6
  9
$SURFTAB2
 70
     6
  9
$SURFTYPE
 70
     6
  9
$SURFU
 70
     6
  9
$SURFV
 70
     6
  9
$UCSBASE
  2

  9
$UCSNAME
  2

  9
$UCSORG
 10
0.0
 20
0.0
 30
0.0
  9
$UCSXDIR
 10
1.0
 20
0.0
 30
0.0
  9
$UCSYDIR
 10
0.0
 20
1.0
 30
0.0
  9
$UCSORTHOREF
  2

  9
$UCSORTHOVIEW
 70
     0
  9
$UCSORGTOP
 10
0.0
 20
0.0
 30
0.0
  9
$UCSORGBOTTOM
 10
0.0
 20
0.0
 30
0.0
  9
$UCSORGLEFT
 10
0.0
 20
0.0
 30
0.0
  9
$UCSORGRIGHT
 10
0.0
 20
0.0
 30
0.0
  9
$UCSORGFRONT
 10
0.0
 20
0.0
 30
0.0
  9
$UCSORGBACK
 10
0.0
 20
0.0
 30
0.0
  9
$PUCSBASE
  2

  9
$PUCSNAME
  2

  9
$PUCSORG
 10
0.0
 20
0.0
 30
0.0
  9
$PUCSXDIR
 10
1.0
 20
0.0
 30
0.0
  9
$PUCSYDIR
 10
0.0
 20
1.0
 30
0.0
  9
$PUCSORTHOREF
  2

  9
$PUCSORTHOVIEW
 70
     0
  9
$PUCSORGTOP
 10
0.0
 20
0.0
 30
0.0
  9
$PUCSORGBOTTOM
 10
0.0
 20
0.0
 30
0.0
  9
$PUCSORGLEFT
 10
0.0
 20
0.0
 30
0.0
  9
$PUCSORGRIGHT
 10
0.0
 20
0.0
 30
0.0
  9
$PUCSORGFRONT
 10
0.0
 20
0.0
 30
0.0
  9
$PUCSORGBACK
 10
0.0
 20
0.0
 30
0.0
  9
$USERI1
 70
     0
  9
$USERI2
 70
     0
  9
$USERI3
 70
     0
  9
$USERI4
 70
     0
  9
$USERI5
 70
     0
  9
$USERR1
 40
0.0
  9
$USERR2
 40
0.0
  9
$USERR3
 40
0.0
  9
$USERR4
 40
0.0
  9
$USERR5
 40
0.0
  9
$WORLDVIEW
 70
     1
  9
$SHADEDGE
 70
     3
  9
$SHADEDIF
 70
    70
  9
$TILEMODE
 70
     1
  9
$MAXACTVP
 70
    64
  9
$PINSBASE
 10
0.0
 20
0.0
 30
0.0
  9
$PLIMCHECK
 70
     0
  9
$PEXTMIN
 10
-200.0
 20
0.0
 30
0.0
  9
$PEXTMAX
 10
200.0
 20
682.0
 30
0.0
  9
$PLIMMIN
 10
-269.9487179487
 20
-26.2307692308
  9
$PLIMMAX
 10
768.7897435897
 20
708.2307692308
  9
$UNITMODE
 70
     0
  9
$VISRETAIN
 70
     1
  9
$PLINEGEN
 70
     0
  9
$PSLTSCALE
 70
     1
  9
$TREEDEPTH
 70
  3020
  9
$CMLSTYLE
  2
Standard
  9
$CMLJUST
 70
     0
  9
$CMLSCALE
 40
20.0
  9
$PROXYGRAPHICS
 70
     1
  9
$MEASUREMENT
 70
     1
  9
$CELWEIGHT
370
    -1
  9
$ENDCAPS
280
     0
  9
$JOINSTYLE
280
     0
  9
$LWDISPLAY
290
     1
  9
$INSUNITS
 70
     4
  9
$HYPERLINKBASE
  1

  9
$STYLESHEET
  1

  9
$XEDIT
290
     1
  9
$CEPSNTYPE
380
     0
  9
$PSTYLEMODE
290
     1
  9
$FINGERPRINTGUID
  2
{73bd2c91-c097-4b03-993e-75fb7fb007e2}
  9
$VERSIONGUID
  2
{FAEB1C32-E019-11D5-929B-00C0DF256EC4}
  9
$EXTNAMES
290
     1
  9
$PSVPSCALE
 40
0.0
  9
$OLESTARTUP
290
     0
  0
ENDSEC
  0
SECTION
  2
CLASSES
  0
CLASS
  1
ACDBDICTIONARYWDFLT
  2
AcDbDictionaryWithDefault
  3
ObjectDBX Classes
 90
        0
280
     0
281
     0
  0
CLASS
  1
VISUALSTYLE
  2
AcDbVisualStyle
  3
ObjectDBX Classes
 90
     4095
280
     0
281
     0
  0
CLASS
  1
MATERIAL
  2
AcDbMaterial
  3
ObjectDBX Classes
 90
     1153
280
     0
281
     0
  0
CLASS
  1
SCALE
  2
AcDbScale
  3
ObjectDBX Classes
 90
     1153
280
     0
281
     0
  0
CLASS
  1
TABLESTYLE
  2
AcDbTableStyle
  3
ObjectDBX Classes
 90
     4095
280
     0
281
     0
  0
CLASS
  1
MLEADERSTYLE
  2
AcDbMLeaderStyle
  3
ACDB_MLEADERSTYLE_CLASS
 90
     4095
280
     0
281
     0
  0
CLASS
  1
SUN
  2
AcDbSun
  3
SCENEOE
 90
     1153
280
     0
281
     0
  0
CLASS
  1
ACDBPLACEHOLDER
  2
AcDbPlaceHolder
  3
ObjectDBX Classes
 90
        0
280
     0
281
     0
  0
CLASS
  1
LAYOUT
  2
AcDbLayout
  3
ObjectDBX Classes
 90
        0
280
     0
281
     0
  0
ENDSEC
  0
SECTION
  2
TABLES
  0
TABLE
  2
VPORT
  5
8
330
0
100
AcDbSymbolTable
 70
     1
  0
VPORT
  5
29
330
8
100
AcDbSymbolTableRecord
100
AcDbViewportTableRecord
  2
*Active
 70
     0
 10
0.0
 20
0.0
 11
1.0
 21
1.0
 12
0.0
 22
341.0
 13
0.0
 23
0.0
 14
10.0
 24
10.0
 15
10.0
 25
10.0
 16
0.0
 26
0.0
 36
1.0
 17
0.0
 27
0.0
 37
0.0
 40
695.64
 41
0.5865102639
 42
50.0
 43
0.0
 44
0.0
 50
0.0
 51
0.0
 71
     0
 72
   100
 73
     1
 74
     3
 75
     0
 76
     0
 77
     0
 78
     0
281
     0
 65
     1
110
0.0
120
0.0
130
0.0
111
1.0
121
0.0
131
0.0
112
0.0
122
1.0
132
0.0
 79
     0
146
0.0
  0
ENDTAB
  0
TABLE
  2
LTYPE
  5
5
330
0
100
AcDbSymbolTable
 70
     6
  0
LTYPE
  5
14
330
5
100
AcDbSymbolTableRecord
100
AcDbLinetypeTableRecord
  2
ByBlock
 70
     0
  3

 72
    65
 73
     0
 40
0.0
  0
LTYPE
  5
15
330
5
100
AcDbSymbolTableRecord
100
AcDbLinetypeTableRecord
  2
ByLayer
 70
     0
  3

 72
    65
 73
     0
 40
0.0
  0
LTYPE
  5
16
330
5
100
AcDbSymbolTableRecord
100
AcDbLinetypeTableRecord
  2
Continuous
 70
     0
  3
Solid line
 72
    65
 73
     0
 40
0.0
  0
LTYPE
  5
6E
330
5
100
AcDbSymbolTableRecord
100
AcDbLinetypeTableRecord
  2
HIDDEN
 70
     0
  3
Hidden __ __ __ __ __ __ __ __ __ __ __ __ __ __
 72
    65
 73
     2
 40
1.905
 49
1.27
 74
     0
 49
-0.635
 74
     0
  0
LTYPE
  5
6F
330
5
100
AcDbSymbolTableRecord
100
AcDbLinetypeTableRecord
  2
PHANTOM
 70
     0
  3
Phantom ______  __  __  ______  __  __  ______
 72
    65
 73
     6
 40
12.7
 49
6.35
 74
     0
 49
-1.27
 74
     0
 49
1.27
 74
     0
 49
-1.27
 74
     0
 49
1.27
 74
     0
 49
-1.27
 74
     0
  0
LTYPE
  5
70
330
5
100
AcDbSymbolTableRecord
100
AcDbLinetypeTableRecord
  2
CENTER
 70
     0
  3
Center ____ _ ____ _ ____ _ ____ _ ____ _ ____
 72
    65
 73
     4
 40
10.16
 49
6.35
 74
     0
 49
-1.27
 74
     0
 49
1.27
 74
     0
 49
-1.27
 74
     0
  0
LTYPE
  5
71
330
5
100
AcDbSymbolTableRecord
100
AcDbLinetypeTableRecord
  2
CENTERX2
 70
     0
  3
Center (2x) ________  __  ________  __  _____
 72
    65
 73
     4
 40
20.32
 49
12.7
 74
     0
 49
-2.54
 74
     0
 49
2.54
 74
     0
 49
-2.54
 74
     0
  0
LTYPE
  5
72
330
5
100
AcDbSymbolTableRecord
100
AcDbLinetypeTableRecord
  2
DOT2
 70
     0
  3
Dot (.5x) ........................................
 72
    65
 73
     2
 40
0.635
 49
0.0
 74
     0
 49
-0.635
 74
     0
  0
ENDTAB
  0
TABLE
  2
LAYER
  5
2
330
0
100
AcDbSymbolTable
 70
     1
  0
LAYER
  5
10
330
2
100
AcDbSymbolTableRecord
100
AcDbLayerTableRecord
  2
0
 70
     0
 62
     7
  6
Continuous
370
    -3
390
F
  0
ENDTAB
  0
TABLE
  2
STYLE
  5
3
330
0
100
AcDbSymbolTable
 70
     1
  0
STYLE
  5
11
330
3
100
AcDbSymbolTableRecord
100
AcDbTextStyleTableRecord
  2
Standard
 70
     0
 40
0.0
 41
1.0
 50
0.0
 71
     0
 42
3.5
  3
txt
  4

  0
ENDTAB
  0
TABLE
  2
VIEW
  5
6
330
0
100
AcDbSymbolTable
 70
     0
  0
ENDTAB
  0
TABLE
  2
UCS
  5
7
330
0
100
AcDbSymbolTable
 70
     0
  0
ENDTAB
  0
TABLE
  2
APPID
  5
9
330
0
100
AcDbSymbolTable
 70
     1
  0
APPID
  5
12
330
9
100
AcDbSymbolTableRecord
100
AcDbRegAppTableRecord
  2
ACAD
 70
     0
  0
ENDTAB
  0
TABLE
  2
DIMSTYLE
  5
A
330
0
100
AcDbSymbolTable
 70
     1
100
AcDbDimStyleTable
  0
DIMSTYLE
105
27
330
A
100
AcDbSymbolTableRecord
100
AcDbDimStyleTableRecord
  2
ISO-25
 70
     0
 41
2.5
 42
0.625
 43
3.75
 44
1.25
 73
     0
 74
     0
 77
     1
 78
     8
140
2.5
141
2.5
143
0.0393700787
147
0.625
171
     3
172
     1
178
     0
271
     2
272
     2
274
     3
278
    44
283
     0
284
     8
340
11
  0
ENDTAB
  0
TABLE
  2
BLOCK_RECORD
  5
1
330
0
100
AcDbSymbolTable
 70
     2
  0
BLOCK_RECORD
  5
1F
330
1
100
AcDbSymbolTableRecord
100
AcDbBlockTableRecord
  2
*Model_Space
340
22
  0
BLOCK_RECORD
  5
1B
330
1
100
AcDbSymbolTableRecord
100
AcDbBlockTableRecord
  2
*Paper_Space
340
1E
  0
BLOCK_RECORD
  5
23
330
1
100
AcDbSymbolTableRecord
100
AcDbBlockTableRecord
  2
*Paper_Space0
340
26
  0
BLOCK_RECORD
  5
112
330
1
100
AcDbSymbolTableRecord
100
AcDbBlockTableRecord
  2
*Paper_Space1
340
113
  0
ENDTAB
  0
ENDSEC
  0
SECTION
  2
BLOCKS
  0
BLOCK
  5
20
330
1F
100
AcDbEntity
  8
0
100
AcDbBlockBegin
  2
*Model_Space
 70
     0
 10
0.0
 20
0.0
 30
0.0
  3
*Model_Space
  1

  0
ENDBLK
  5
21
330
1F
100
AcDbEntity
  8
0
100
AcDbBlockEnd
  0
BLOCK
  5
1C
330
1B
100
AcDbEntity
 67
     1
  8
0
100
AcDbBlockBegin
  2
*Paper_Space
 70
     0
 10
0.0
 20
0.0
 30
0.0
  3
*Paper_Space
  1

  0
ENDBLK
  5
1D
330
1B
100
AcDbEntity
 67
     1
  8
0
100
AcDbBlockEnd
  0
BLOCK
  5
24
330
23
100
AcDbEntity
  8
0
100
AcDbBlockBegin
  2
*Paper_Space0
 70
     0
 10
0.0
 20
0.0
 30
0.0
  3
*Paper_Space0
  1

  0
LWPOLYLINE
  5
EA
330
23
100
AcDbEntity
  8
0
  6
Continuous
 62
     7
370
    25
100
AcDbPolyline
 90
        9
 70
   128
 43
0.0
 10
-115.0
 20
675.0
 10
-114.9615705608
 20
676.3656322541
 10
-114.847759065
 20
677.6787840266
 10
-114.6629392246
 20
678.8889916311
 10
-114.4142135624
 20
679.9497474683
 10
-114.111140466
 20
680.8202872861
 10
-113.7653668647
 20
681.4671567276
 10
-113.390180644
 20
681.8654969628
 10
-113.0
 20
682.0
  0
LWPOLYLINE
  5
ED
330
23
100
AcDbEntity
  8
0
  6
Continuous
 62
     7
370
    25
100
AcDbPolyline
 90
        9
 70
   128
 43
0.0
 10
95.0
 20
675.0
 10
94.9615705608
 20
676.3656322541
 10
94.847759065
 20
677.6787840266
 10
94.6629392246
 20
678.8889916311
 10
94.4142135624
 20
679.9497474683
 10
94.111140466
 20
680.8202872861
 10
93.7653668647
 20
681.4671567276
 10
93.390180644
 20
681.8654969628
 10
93.0
 20
682.0
  0
SPLINE
  5
F8
330
23
100
AcDbEntity
  8
0
  6
Continuous
 62
     7
370
    25
100
AcDbSpline
210
0.0
220
0.0
230
1.0
 70
     8
 71
     3
 72
    14
 73
    10
 74
     0
 42
0.000000001
 43
0.00000001
 40
0.0
 40
0.0
 40
0.0
 40
0.0
 40
0.1249999999999994
 40
0.1249999999999994
 40
0.2499999999999988
 40
0.2499999999999988
 40
0.499999999999999
 40
0.499999999999999
 40
1.0
 40
1.0
 40
1.0
 40
1.0
 10
-106.5839868725033
 20
681.9999999999999
 30
0.0
 10
-106.2650058062958
 20
681.9999999999999
 30
0.0
 10
-105.9407459858197
 20
681.9986481259838
 30
0.0
 10
-105.2955018263889
 20
681.9942172349886
 30
0.0
 10
-104.9722722008332
 20
681.9911385582844
 30
0.0
 10
-104.000762377442
 20
681.9805679452539
 30
0.0
 10
-103.3506597031437
 20
681.971809377575
 30
0.0
 10
-101.3931391677089
 20
681.9479516125767
 30
0.0
 10
-100.0784984500568
 20
681.9362894391539
 30
0.0
 10
-98.75465168078557
 20
681.9362894391539
 30
0.0
  0
SPLINE
  5
FA
330
23
100
AcDbEntity
  8
0
  6
Continuous
 62
     7
370
    25
100
AcDbSpline
210
0.0
220
0.0
230
1.0
 70
     8
 71
     3
 72
    14
 73
    10
 74
     0
 42
0.000000001
 43
0.00000001
 40
0.0
 40
0.0
 40
0.0
 40
0.0
 40
0.4999999999999964
 40
0.4999999999999964
 40
0.7499999999999944
 40
0.7499999999999944
 40
0.8749999999999972
 40
0.8749999999999972
 40
1.0
 40
1.0
 40
1.0
 40
1.0
 10
78.75465168078664
 20
681.9362894391539
 30
0.0
 10
80.07849845005772
 20
681.9362894391538
 30
0.0
 10
81.39313916770965
 20
681.9479516125765
 30
0.0
 10
83.35065970314434
 20
681.9718093775747
 30
0.0
 10
84.00076237744248
 20
681.9805679452544
 30
0.0
 10
84.97227220083354
 20
681.9911385582843
 30
0.0
 10
85.29550182638911
 20
681.9942172349885
 30
0.0
 10
85.9407459858199
 20
681.998648125984
 30
0.0
 10
86.26500580629695
 20
682.0
 30
0.0
 10
86.58398687250342
 20
681.9999999999999
 30
0.0
  0
LINE
  5
103
330
23
100
AcDbEntity
  8
0
  6
Continuous
 62
     7
370
    25
100
AcDbLine
 10
100.0
 20
675.0
 30
0.0
 11
-120.0
 21
675.0
 31
0.0
  0
LINE
  5
104
330
23
100
AcDbEntity
  8
0
  6
Continuous
 62
     7
370
    25
100
AcDbLine
 10
-120.0
 20
600.0
 30
0.0
 11
100.0
 21
600.0
 31
0.0
  0
LINE
  5
105
330
23
100
AcDbEntity
  8
0
  6
Continuous
 62
     7
370
    25
100
AcDbLine
 10
-120.0
 20
600.0
 30
0.0
 11
-120.0
 21
675.0
 31
0.0
  0
LINE
  5
106
330
23
100
AcDbEntity
  8
0
  6
Continuous
 62
     7
370
    25
100
AcDbLine
 10
-115.0
 20
675.0
 30
0.0
 11
-115.0
 21
600.0
 31
0.0
  0
LINE
  5
107
330
23
100
AcDbEntity
  8
0
  6
Continuous
 62
     7
370
    25
100
AcDbLine
 10
95.0
 20
600.0
 30
0.0
 11
95.0
 21
675.0
 31
0.0
  0
LINE
  5
108
330
23
100
AcDbEntity
  8
0
  6
Continuous
 62
     7
370
    25
100
AcDbLine
 10
100.0
 20
675.0
 30
0.0
 11
100.0
 21
0.0
 31
0.0
  0
LINE
  5
109
330
23
100
AcDbEntity
  8
0
  6
Continuous
 62
     7
370
    25
100
AcDbLine
 10
86.5839868725
 20
682.0
 30
0.0
 11
93.0
 21
682.0
 31
0.0
  0
LINE
  5
10A
330
23
100
AcDbEntity
  8
0
  6
Continuous
 62
     7
370
    25
100
AcDbLine
 10
-113.0
 20
682.0
 30
0.0
 11
-106.5839868725
 21
682.0
 31
0.0
  0
LINE
  5
10B
330
23
100
AcDbEntity
  8
0
  6
Continuous
 62
     7
370
    25
100
AcDbLine
 10
78.7546516808
 20
681.9362894392
 30
0.0
 11
-98.7546516808
 21
681.9362894392
 31
0.0
  0
LINE
  5
10C
330
23
100
AcDbEntity
  8
0
  6
Continuous
 62
     7
370
    25
100
AcDbLine
 10
-100.0
 20
600.0
 30
0.0
 11
-100.0
 21
0.0
 31
0.0
  0
LINE
  5
10D
330
23
100
AcDbEntity
  8
0
  6
Continuous
 62
     7
370
    25
100
AcDbLine
 10
-116.0
 20
0.0
 30
0.0
 11
100.0
 21
0.0
 31
0.0
  0
LINE
  5
10E
330
23
100
AcDbEntity
  8
0
  6
Continuous
 62
     7
370
    25
100
AcDbLine
 10
-116.0
 20
0.0
 30
0.0
 11
-116.0
 21
596.0
 31
0.0
  0
LINE
  5
10F
330
23
100
AcDbEntity
  8
0
  6
Continuous
 62
     7
370
    25
100
AcDbLine
 10
-116.0
 20
596.0
 30
0.0
 11
-100.0
 21
596.0
 31
0.0
  0
ARC
  5
110
330
23
100
AcDbEntity
  8
0
  6
Continuous
 62
     7
370
    25
100
AcDbCircle
 10
-113.0
 20
675.0
 30
0.0
 40
6.999999999999886
100
AcDbArc
 50
90.0
 51
180.0
  0
ARC
  5
111
330
23
100
AcDbEntity
  8
0
  6
Continuous
 62
     7
370
    25
100
AcDbCircle
 10
93.0
 20
675.0
 30
0.0
 40
6.999999999999886
100
AcDbArc
 50
0.0
 51
90.0
  0
VIEWPORT
  5
1EF
330
23
100
AcDbEntity
  8
0
100
AcDbViewport
 10
0.0
 20
0.0
 30
0.0
 40
205.6
 41
156.0
 68
     1
 69
     1
 12
0.0
 22
341.0
 13
0.0
 23
0.0
 14
10.0
 24
10.0
 15
10.0
 25
10.0
 16
0.0
 26
0.0
 36
1.0
 17
0.0
 27
0.0
 37
0.0
 42
50.0
 43
0.0
 44
0.0
 45
695.64
 50
0.0
 51
0.0
 72
   100
 90
   557152
  1

281
     0
 71
     1
 74
     0
110
0.0
120
0.0
130
0.0
111
1.0
121
0.0
131
0.0
112
0.0
122
1.0
132
0.0
 79
     0
146
0.0
  0
ENDBLK
  5
25
330
23
100
AcDbEntity
  8
0
100
AcDbBlockEnd
  0
BLOCK
  5
114
330
112
100
AcDbEntity
  8
0
100
AcDbBlockBegin
  2
*Paper_Space1
 70
     0
 10
0.0
 20
0.0
 30
0.0
  3
*Paper_Space1
  1

  0
SPLINE
  5
116
330
112
100
AcDbEntity
  8
0
  6
Continuous
 62
     7
370
    25
100
AcDbSpline
210
0.0
220
0.0
230
1.0
 70
     8
 71
     3
 72
    18
 73
    14
 74
     0
 42
0.000000001
 43
0.00000001
 40
0.0
 40
0.0
 40
0.0
 40
0.0
 40
0.062053946543107
 40
0.1626117356700237
 40
0.263588403500801
 40
0.3652502489323465
 40
0.4676816541251808
 40
0.5706943106690661
 40
0.67371635232459
 40
0.7758872720145918
 40
0.8776275776458496
 40
0.9823348062764007
 40
1.0
 40
1.0
 40
1.0
 40
1.0
 10
63.06715389923645
 20
10.16866045861472
 30
0.0
 10
63.07025639741287
 20
9.807668173008787
 30
0.0
 10
63.0783864623239
 20
8.86169156078653
 30
0.0
 10
62.97203849762782
 20
7.348446537534732
 30
0.0
 10
62.76485613914166
 20
5.694796252890681
 30
0.0
 10
62.45866126043128
 20
4.170437884669996
 30
0.0
 10
62.0716109678086
 20
2.823947408351261
 30
0.0
 10
61.62139267259221
 20
1.701637102148847
 30
0.0
 10
61.13739789596287
 20
0.8479133233362194
 30
0.0
 10
60.66760266600953
 20
0.2871630964176968
 30
0.0
 10
60.27106946771917
 20
0.0406403527726633
 30
0.0
 10
60.12186878742337
 20
-0.0230312749518857
 30
0.0
 10
60.01970951862849
 20
0.0076649753335371
 30
0.0
 10
60.00496221495333
 20
0.012096163320572
 30
0.0
  0
SPLINE
  5
117
330
112
100
AcDbEntity
  8
0
  6
Continuous
 62
     7
370
    25
100
AcDbSpline
210
0.0
220
0.0
230
1.0
 70
     8
 71
     3
 72
    17
 73
    13
 74
     0
 42
0.000000001
 43
0.00000001
 40
0.0
 40
0.0
 40
0.0
 40
0.0
 40
0.122182867096375
 40
0.223307782098335
 40
0.3304661635024764
 40
0.4354205560619023
 40
0.540571509041741
 40
0.6461215371854018
 40
0.7513773099480187
 40
0.8560710265153498
 40
0.9602868489843871
 40
1.0
 40
1.0
 40
1.0
 40
1.0
 10
60.04906083776073
 20
19.99279107912378
 30
0.0
 10
60.13375079330781
 20
19.98513661749628
 30
0.0
 10
60.28853457428019
 20
19.97114692409806
 30
0.0
 10
60.70654690791126
 20
19.67094290853363
 30
0.0
 10
61.17281172726235
 20
19.10074608240987
 30
0.0
 10
61.65185850881979
 20
18.23133451108244
 30
0.0
 10
62.0935264180988
 20
17.10986006342421
 30
0.0
 10
62.47422213347149
 20
15.7636150076576
 30
0.0
 10
62.77645139487544
 20
14.23561104643108
 30
0.0
 10
62.97749695492625
 20
12.57734095920066
 30
0.0
 10
63.07602487513152
 20
11.19876292443691
 30
0.0
 10
63.06907227393581
 20
10.39142315479935
 30
0.0
 10
63.06715389923645
 20
10.16866045861472
 30
0.0
  0
SPLINE
  5
118
330
112
100
AcDbEntity
  8
0
  6
Continuous
 62
     7
370
    25
100
AcDbSpline
210
0.0
220
0.0
230
1.0
 70
     8
 71
     3
 72
    14
 73
    10
 74
     0
 42
0.000000001
 43
0.00000001
 40
0.0
 40
0.0
 40
0.0
 40
0.0
 40
0.4999999999999932
 40
0.4999999999999932
 40
0.7499999999999905
 40
0.7499999999999905
 40
0.8749999999999952
 40
0.8749999999999952
 40
1.0
 40
1.0
 40
1.0
 40
1.0
 10
180.0000000000001
 20
-93.8525705558594
 30
0.0
 10
181.1947988990141
 20
-93.85257055585942
 30
0.0
 10
182.3807314418026
 20
-93.77945623179392
 30
0.0
 10
184.1469734647411
 20
-93.56480588873153
 30
0.0
 10
184.7336123690562
 20
-93.47575529373755
 30
0.0
 10
185.6104963755516
 20
-93.31647766415692
 30
0.0
 10
185.9022787008516
 20
-93.25910122902981
 30
0.0
 10
186.4848339316869
 20
-93.13586879495234
 30
0.0
 10
186.7774104691186
 20
-93.06945729430277
 30
0.0
 10
187.0657171481798
 20
-93.00000000000001
 30
0.0
  0
SPLINE
  5
11E
330
112
100
AcDbEntity
  8
0
  6
Continuous
 62
     7
370
    25
100
AcDbSpline
210
0.0
220
0.0
230
1.0
 70
     8
 71
     3
 72
    14
 73
    10
 74
     0
 42
0.000000001
 43
0.00000001
 40
0.0
 40
0.0
 40
0.0
 40
0.0
 40
0.1249999999999998
 40
0.1249999999999998
 40
0.2499999999999996
 40
0.2499999999999996
 40
0.5000000000000001
 40
0.5000000000000001
 40
1.0
 40
1.0
 40
1.0
 40
1.0
 10
-186.4896005546968
 20
-93.00000000000001
 30
0.0
 10
-186.1886942136524
 20
-93.07183004531504
 30
0.0
 10
-185.8831822342931
 20
-93.14025298058644
 30
0.0
 10
-185.2749955317802
 20
-93.26665021285498
 30
0.0
 10
-184.9703693253988
 20
-93.32521888710905
 30
0.0
 10
-184.0548907800847
 20
-93.48708778725414
 30
0.0
 10
-183.4424371219604
 20
-93.57654236018328
 30
0.0
 10
-181.5987158066891
 20
-93.7902966955357
 30
0.0
 10
-180.3610757321364
 20
-93.85993611911853
 30
0.0
 10
-179.1152728229202
 20
-93.8599361191185
 30
0.0
  0
SPLINE
  5
120
330
112
100
AcDbEntity
  8
0
  6
Continuous
 62
     7
370
    25
100
AcDbSpline
210
0.0
220
0.0
230
1.0
 70
     8
 71
     3
 72
     8
 73
     4
 74
     0
 42
0.000000001
 43
0.00000001
 40
0.0000001999997767
 40
0.0000001999997767
 40
0.0000001999997767
 40
0.0000001999997767
 40
0.0049667068023436
 40
0.0049667068023436
 40
0.0049667068023436
 40
0.0049667068023436
 10
68.3349667931263
 20
-93.8599361191184
 30
0.0
 10
69.9904690606486
 20
-93.8599361191184
 30
0.0
 10
71.64596578346597
 20
-93.85257055585924
 30
0.0
 10
73.30146805098828
 20
-93.85257055585924
 30
0.0
  0
SPLINE
  5
125
330
112
100
AcDbEntity
  8
0
  6
Continuous
 62
     7
370
    25
100
AcDbSpline
210
0.0
220
0.0
230
1.0
 70
     8
 71
     3
 72
    14
 73
    10
 74
     0
 42
0.000000001
 43
0.00000001
 40
0.0
 40
0.0
 40
0.0
 40
0.0
 40
0.1250000000000029
 40
0.1250000000000029
 40
0.2500000000000059
 40
0.2500000000000059
 40
0.5000000000000042
 40
0.5000000000000042
 40
1.0
 40
1.0
 40
1.0
 40
1.0
 10
-193.0
 20
106.5839868725033
 30
0.0
 10
-193.0789029127589
 20
106.2650058062958
 30
0.0
 10
-193.1540818331123
 20
105.9407459858197
 30
0.0
 10
-193.2928174728775
 20
105.2955018263889
 30
0.0
 10
-193.3570620941524
 20
104.9722722008332
 30
0.0
 10
-193.5345258483306
 20
104.000762377442
 30
0.0
 10
-193.6324667428759
 20
103.3506597031438
 30
0.0
 10
-193.8663308268952
 20
101.393139167709
 30
0.0
 10
-193.9422785237283
 20
100.0784984500568
 30
0.0
 10
-193.9422785237283
 20
98.75465168078557
 30
0.0
  0
SPLINE
  5
127
330
112
100
AcDbEntity
  8
0
  6
Continuous
 62
     7
370
    25
100
AcDbSpline
210
0.0
220
0.0
230
1.0
 70
     8
 71
     3
 72
    14
 73
    10
 74
     0
 42
0.000000001
 43
0.00000001
 40
0.0
 40
0.0
 40
0.0
 40
0.0
 40
0.5000000000000046
 40
0.5000000000000046
 40
0.7500000000000074
 40
0.7500000000000074
 40
0.8750000000000038
 40
0.8750000000000038
 40
1.0
 40
1.0
 40
1.0
 40
1.0
 10
-179.1152728229212
 20
113.8599361191184
 30
0.0
 10
-180.3610757321372
 20
113.8599361191185
 30
0.0
 10
-181.5987158066898
 20
113.7902966955356
 30
0.0
 10
-183.4424371219607
 20
113.5765423601832
 30
0.0
 10
-184.054890780085
 20
113.4870877872541
 30
0.0
 10
-184.970369325399
 20
113.325218887109
 30
0.0
 10
-185.2749955317803
 20
113.2666502128549
 30
0.0
 10
-185.8831822342931
 20
113.1402529805863
 30
0.0
 10
-186.1886942136528
 20
113.0718300453166
 30
0.0
 10
-186.4896005546968
 20
113.0
 30
0.0
  0
SPLINE
  5
134
330
112
100
AcDbEntity
  8
0
  6
Continuous
 62
     7
370
    25
100
AcDbSpline
210
0.0
220
0.0
230
1.0
 70
     8
 71
     3
 72
    14
 73
    10
 74
     0
 42
0.000000001
 43
0.00000001
 40
0.0
 40
0.0
 40
0.0
 40
0.0
 40
0.4999999999999964
 40
0.4999999999999964
 40
0.7499999999999944
 40
0.7499999999999944
 40
0.8749999999999972
 40
0.8749999999999972
 40
1.0
 40
1.0
 40
1.0
 40
1.0
 10
-193.9422785237283
 20
-78.75465168078664
 30
0.0
 10
-193.9422785237283
 20
-80.07849845005772
 30
0.0
 10
-193.8663308268952
 20
-81.39313916770965
 30
0.0
 10
-193.6324667428759
 20
-83.35065970314434
 30
0.0
 10
-193.5345258483305
 20
-84.00076237744248
 30
0.0
 10
-193.3570620941523
 20
-84.97227220083354
 30
0.0
 10
-193.2928174728775
 20
-85.29550182638911
 30
0.0
 10
-193.1540818331122
 20
-85.9407459858199
 30
0.0
 10
-193.0789029127631
 20
-86.26500580629695
 30
0.0
 10
-193.0
 20
-86.58398687250342
 30
0.0
  0
SPLINE
  5
13B
330
112
100
AcDbEntity
  8
0
  6
Continuous
 62
     7
370
    25
100
AcDbSpline
210
0.0
220
0.0
230
1.0
 70
     8
 71
     3
 72
    16
 73
    12
 74
     0
 42
0.000000001
 43
0.00000001
 40
0.0
 40
0.0
 40
0.0
 40
0.0
 40
0.499999999999998
 40
0.499999999999998
 40
0.7499999999999966
 40
0.7499999999999966
 40
0.8749999999999948
 40
0.8749999999999948
 40
0.9374999999999973
 40
0.9374999999999973
 40
1.0
 40
1.0
 40
1.0
 40
1.0
 10
194.2459666924152
 20
99.21320772688883
 30
0.0
 10
194.2459666924152
 20
100.6484785499622
 30
0.0
 10
194.1375895027591
 20
102.0674733285368
 30
0.0
 10
193.822851353672
 20
104.1734010989514
 30
0.0
 10
193.6925624399095
 20
104.8716200236726
 30
0.0
 10
193.4602315465685
 20
105.9135700863899
 30
0.0
 10
193.3766373840723
 20
106.2599905246992
 30
0.0
 10
193.2421575981218
 20
106.7783101234101
 30
0.0
 10
193.1958161856206
 20
106.950864820929
 30
0.0
 10
193.1001258751484
 20
107.2955428602552
 30
0.0
 10
193.0502710576453
 20
107.4691526684169
 30
0.0
 10
193.0
 20
107.6393575000651
 30
0.0
  0
SPLINE
  5
13E
330
112
100
AcDbEntity
  8
0
  6
Continuous
 62
     7
370
    25
100
AcDbSpline
210
0.0
220
0.0
230
1.0
 70
     8
 71
     3
 72
    16
 73
    12
 74
     0
 42
0.000000001
 43
0.00000001
 40
0.0
 40
0.0
 40
0.0
 40
0.0
 40
0.0624999999999957
 40
0.0624999999999957
 40
0.1249999999999915
 40
0.1249999999999915
 40
0.24999999999999
 40
0.24999999999999
 40
0.499999999999994
 40
0.499999999999994
 40
1.0
 40
1.0
 40
1.0
 40
1.0
 10
193.0
 20
-87.63935750006516
 30
0.0
 10
193.0502710564778
 20
-87.46915266807257
 30
0.0
 10
193.100125875154
 20
-87.29554286023537
 30
0.0
 10
193.1958161856255
 20
-86.95086482091082
 30
0.0
 10
193.2421575981265
 20
-86.77831012339276
 30
0.0
 10
193.376637384076
 20
-86.25999052468416
 30
0.0
 10
193.4602315465716
 20
-85.91357008637637
 30
0.0
 10
193.6925624399113
 20
-84.8716200236632
 30
0.0
 10
193.8228513536733
 20
-84.17340109894441
 30
0.0
 10
194.1375895027591
 20
-82.0674733285353
 30
0.0
 10
194.2459666924152
 20
-80.64847854996255
 30
0.0
 10
194.2459666924152
 20
-79.21320772688891
 30
0.0
  0
SPLINE
  5
142
330
112
100
AcDbEntity
  8
0
  6
Continuous
 62
     7
370
    25
100
AcDbSpline
210
0.0
220
0.0
230
1.0
 70
     8
 71
     3
 72
    14
 73
    10
 74
     0
 42
0.000000001
 43
0.00000001
 40
0.0
 40
0.0
 40
0.0
 40
0.0
 40
0.1249999999999994
 40
0.1249999999999994
 40
0.2499999999999988
 40
0.2499999999999988
 40
0.4999999999999992
 40
0.4999999999999992
 40
1.0
 40
1.0
 40
1.0
 40
1.0
 10
187.0657171481797
 20
113.0
 30
0.0
 10
186.7774104691164
 20
113.0694572942939
 30
0.0
 10
186.4848339316867
 20
113.1358687949523
 30
0.0
 10
185.9022787008515
 20
113.2591012290298
 30
0.0
 10
185.6104963755515
 20
113.3164776641569
 30
0.0
 10
184.7336123690561
 20
113.4757552937375
 30
0.0
 10
184.146973464741
 20
113.5648058887315
 30
0.0
 10
182.3807314418026
 20
113.7794562317938
 30
0.0
 10
181.1947988990141
 20
113.8525705558593
 30
0.0
 10
180.0000000000001
 20
113.8525705558593
 30
0.0
  0
SPLINE
  5
144
330
112
100
AcDbEntity
  8
0
  6
Continuous
 62
     7
370
    25
100
AcDbSpline
210
0.0
220
0.0
230
1.0
 70
     8
 71
     3
 72
     8
 73
     4
 74
     0
 42
0.000000001
 43
0.00000001
 40
0.0000001999997767
 40
0.0000001999997767
 40
0.0000001999997767
 40
0.0000001999997767
 40
0.0049667068023437
 40
0.0049667068023437
 40
0.0049667068023437
 40
0.0049667068023437
 10
73.30146805098829
 20
113.8525705558592
 30
0.0
 10
71.64596578346595
 20
113.8525705558592
 30
0.0
 10
69.99046906064859
 20
113.8599361191183
 30
0.0
 10
68.33496679312626
 20
113.8599361191183
 30
0.0
  0
SPLINE
  5
152
330
112
100
AcDbEntity
  8
0
  6
Continuous
 62
     7
370
    25
100
AcDbSpline
210
0.0
220
0.0
230
1.0
 70
     8
 71
     3
 72
     8
 73
     4
 74
     0
 42
0.000000001
 43
0.00000001
 40
0.0
 40
0.0
 40
0.0
 40
0.0
 40
1.0
 40
1.0
 40
1.0
 40
1.0
 10
68.3349667931263
 20
-88.23045460344164
 30
0.0
 10
69.98535405475536
 20
-88.29787518203605
 30
0.0
 10
71.641160036086
 20
-88.32610971796511
 30
0.0
 10
73.30146805098828
 20
-88.32610971796511
 30
0.0
  0
SPLINE
  5
154
330
112
100
AcDbEntity
  8
0
  6
Continuous
 62
     7
370
    25
100
AcDbSpline
210
0.0
220
0.0
230
1.0
 70
     8
 71
     3
 72
     8
 73
     4
 74
     0
 42
0.000000001
 43
0.00000001
 40
0.0
 40
0.0
 40
0.0
 40
0.0
 40
1.0
 40
1.0
 40
1.0
 40
1.0
 10
73.30146805098828
 20
108.326109717965
 30
0.0
 10
71.64088751269452
 20
108.326109717965
 30
0.0
 10
69.98558846819475
 20
108.2978847581458
 30
0.0
 10
68.33496679312628
 20
108.2304546034416
 30
0.0
  0
LWPOLYLINE
  5
164
330
112
100
AcDbEntity
  8
0
  6
Continuous
 62
     7
370
    25
100
AcDbPolyline
 90
        8
 70
   128
 43
0.0
 10
68.3349667931
 20
108.2304546034
 10
65.7130499373
 20
107.8789998913
 10
63.2358764424
 20
107.3848043714
 10
60.9506965273
 20
106.7572944513
 10
58.9010982781
 20
106.00843941
 10
57.1261762378
 20
105.1525230935
 10
55.6597857078
 20
104.2058714611
 10
54.5298969831
 20
103.1865411796
  0
LWPOLYLINE
  5
169
330
112
100
AcDbEntity
  8
0
  6
Continuous
 62
     7
370
    25
100
AcDbPolyline
 90
        8
 70
   128
 43
0.0
 10
54.5298969831
 20
-83.1865411796
 10
55.6597857078
 20
-84.2058714611
 10
57.1261762378
 20
-85.1525230935
 10
58.9010982781
 20
-86.00843941
 10
60.9506965273
 20
-86.7572944513
 10
63.2358764424
 20
-87.3848043714
 10
65.7130499373
 20
-87.8789998913
 10
68.3349667931
 20
-88.2304546034
  0
CIRCLE
  5
178
330
112
100
AcDbEntity
  8
0
  6
Continuous
 62
     7
370
    25
100
AcDbCircle
 10
130.0
 20
10.0
 30
0.0
 40
17.50000000000003
  0
CIRCLE
  5
179
330
112
100
AcDbEntity
  8
0
  6
Continuous
 62
     7
370
    25
100
AcDbCircle
 10
130.0
 20
10.0
 30
0.0
 40
18.49999999999995
  0
LWPOLYLINE
  5
17D
330
112
100
AcDbEntity
  8
0
  6
Continuous
 62
     7
370
    25
100
AcDbPolyline
 90
       37
 70
   128
 43
0.0
 10
55.0533329576
 20
10.0
 10
55.1147721917
 20
11.9101299543
 10
55.2972230941
 20
13.7622215766
 10
55.5951419864
 20
15.5
 10
55.9994767538
 20
17.0706637066
 10
56.497941889
 20
18.4264888743
 10
57.0753917811
 20
19.5262794416
 10
57.7142809074
 20
20.3366188286
 10
58.395196945
 20
20.8328852831
 10
59.0974506046
 20
21.0
 10
59.7997042643
 20
20.8328852831
 10
60.4806203019
 20
20.3366188286
 10
61.1195094282
 20
19.5262794416
 10
61.6969593203
 20
18.4264888743
 10
62.1954244555
 20
17.0706637066
 10
62.5997592229
 20
15.5
 10
62.8976781152
 20
13.7622215766
 10
63.0801290176
 20
11.9101299543
 10
63.1415682517
 20
10.0
 10
63.0801290176
 20
8.0898700457
 10
62.8976781152
 20
6.2377784234
 10
62.5997592229
 20
4.5
 10
62.1954244555
 20
2.9293362934
 10
61.6969593203
 20
1.5735111257
 10
61.1195094282
 20
0.4737205584
 10
60.4806203019
 20
-0.3366188286
 10
59.7997042643
 20
-0.8328852831
 10
59.0974506046
 20
-1.0
 10
58.395196945
 20
-0.8328852831
 10
57.7142809074
 20
-0.3366188286
 10
57.0753917811
 20
0.4737205584
 10
56.497941889
 20
1.5735111257
 10
55.9994767538
 20
2.9293362934
 10
55.5951419864
 20
4.5
 10
55.2972230941
 20
6.2377784234
 10
55.1147721917
 20
8.0898700457
 10
55.0533329576
 20
10.0
  0
CIRCLE
  5
18E
330
112
100
AcDbEntity
  8
0
  6
Continuous
 62
     7
370
    25
100
AcDbCircle
 10
-50.0
 20
10.0
 30
0.0
 40
22.49999999999998
  0
CIRCLE
  5
18F
330
112
100
AcDbEntity
  8
0
  6
Continuous
 62
     7
370
    25
100
AcDbCircle
 10
-50.0
 20
10.0
 30
0.0
 40
32.50000000000024
  0
LWPOLYLINE
  5
198
330
112
100
AcDbEntity
  8
0
  6
Continuous
 62
     8
370
    25
100
AcDbPolyline
 90
       10
 70
   128
 43
0.0
 10
55.991911511
 20
10.0
 10
56.0533507451
 20
8.2635182233
 10
56.2358016475
 20
6.5797985667
 10
56.5337205398
 20
5.0
 10
56.9380553072
 20
3.5721239031
 10
57.4365204424
 20
2.3395555688
 10
58.0139703345
 20
1.3397459622
 10
58.6528594608
 20
0.6030737921
 10
59.3337754984
 20
0.1519224699
 10
59.9619180351
 20
0.00167929
  0
LWPOLYLINE
  5
199
330
112
100
AcDbEntity
  8
0
  6
Continuous
 62
     8
370
    25
100
AcDbPolyline
 90
       11
 70
   128
 43
0.0
 10
60.0632837593
 20
19.9997729053
 10
60.036029158
 20
20.0
 10
59.3337754984
 20
19.8480775301
 10
58.6528594608
 20
19.3969262079
 10
58.0139703345
 20
18.6602540378
 10
57.4365204424
 20
17.6604444312
 10
56.9380553072
 20
16.4278760969
 10
56.5337205398
 20
15.0
 10
56.2358016475
 20
13.4202014333
 10
56.0533507451
 20
11.7364817767
 10
55.991911511
 20
10.0
  0
LINE
  5
19A
330
112
100
AcDbEntity
  8
0
  6
Continuous
 62
     7
370
    25
100
AcDbLine
 10
187.0657171482
 20
-93.0
 30
0.0
 11
193.0
 21
-93.0
 31
0.0
  0
LINE
  5
19B
330
112
100
AcDbEntity
  8
0
  6
Continuous
 62
     7
370
    25
100
AcDbLine
 10
193.0
 20
-93.0
 30
0.0
 11
195.0
 21
-100.0
 31
0.0
  0
LINE
  5
19C
330
112
100
AcDbEntity
  8
0
  6
Continuous
 62
     7
370
    25
100
AcDbLine
 10
200.0
 20
-100.0
 30
0.0
 11
-200.0
 21
-100.0
 31
0.0
  0
LINE
  5
19D
330
112
100
AcDbEntity
  8
0
  6
Continuous
 62
     7
370
    25
100
AcDbLine
 10
-193.0
 20
-93.0
 30
0.0
 11
-195.0
 21
-100.0
 31
0.0
  0
LINE
  5
19E
330
112
100
AcDbEntity
  8
0
  6
Continuous
 62
     7
370
    25
100
AcDbLine
 10
-193.0
 20
-93.0
 30
0.0
 11
-186.4896005547
 21
-93.0
 31
0.0
  0
LINE
  5
19F
330
112
100
AcDbEntity
  8
0
  6
Continuous
 62
     7
370
    25
100
AcDbLine
 10
68.3349667931
 20
-93.8599361191
 30
0.0
 11
-179.1152728229
 21
-93.8599361191
 31
0.0
  0
LINE
  5
1A0
330
112
100
AcDbEntity
  8
0
  6
Continuous
 62
     7
370
    25
100
AcDbLine
 10
73.301468051
 20
-93.8525705559
 30
0.0
 11
180.0
 21
-93.8525705559
 31
0.0
  0
LINE
  5
1A1
330
112
100
AcDbEntity
  8
0
  6
Continuous
 62
     7
370
    25
100
AcDbLine
 10
193.0
 20
-93.0
 30
0.0
 11
193.0
 21
-87.6393575001
 31
0.0
  0
LINE
  5
1A2
330
112
100
AcDbEntity
  8
0
  6
Continuous
 62
     7
370
    25
100
AcDbLine
 10
-193.9422785237
 20
98.7546516808
 30
0.0
 11
-188.3145071737
 21
98.7546516808
 31
0.0
  0
LINE
  5
1A3
330
112
100
AcDbEntity
  8
0
  6
Continuous
 62
     7
370
    25
100
AcDbLine
 10
-179.1152728229
 20
108.2304546034
 30
0.0
 11
-179.1152728229
 21
113.8599361191
 31
0.0
  0
LINE
  5
1A4
330
112
100
AcDbEntity
  8
0
  6
Continuous
 62
     7
370
    25
100
AcDbLine
 10
-195.0
 20
120.0
 30
0.0
 11
-193.0
 21
113.0
 31
0.0
  0
LINE
  5
1A5
330
112
100
AcDbEntity
  8
0
  6
Continuous
 62
     7
370
    25
100
AcDbLine
 10
-200.0
 20
115.0
 30
0.0
 11
-193.0
 21
113.0
 31
0.0
  0
LINE
  5
1A6
330
112
100
AcDbEntity
  8
0
  6
Continuous
 62
     7
370
    25
100
AcDbLine
 10
193.0
 20
113.0
 30
0.0
 11
195.0
 21
120.0
 31
0.0
  0
LINE
  5
1A7
330
112
100
AcDbEntity
  8
0
  6
Continuous
 62
     7
370
    25
100
AcDbLine
 10
200.0
 20
115.0
 30
0.0
 11
193.0
 21
113.0
 31
0.0
  0
LINE
  5
1A8
330
112
100
AcDbEntity
  8
0
  6
Continuous
 62
     7
370
    25
100
AcDbLine
 10
-193.0
 20
-86.5839868725
 30
0.0
 11
-193.0
 21
-93.0
 31
0.0
  0
LINE
  5
1A9
330
112
100
AcDbEntity
  8
0
  6
Continuous
 62
     7
370
    25
100
AcDbLine
 10
-186.4896005547
 20
113.0
 30
0.0
 11
-193.0
 21
113.0
 31
0.0
  0
LINE
  5
1AA
330
112
100
AcDbEntity
  8
0
  6
Continuous
 62
     7
370
    25
100
AcDbLine
 10
-193.0
 20
113.0
 30
0.0
 11
-193.0
 21
106.5839868725
 31
0.0
  0
LINE
  5
1AB
330
112
100
AcDbEntity
  8
0
  6
Continuous
 62
     7
370
    25
100
AcDbLine
 10
-193.9422785237
 20
-78.7546516808
 30
0.0
 11
-188.3145071737
 21
-78.7546516808
 31
0.0
  0
LINE
  5
1AC
330
112
100
AcDbEntity
  8
0
  6
Continuous
 62
     7
370
    25
100
AcDbLine
 10
-179.1152728229
 20
-88.2304546034
 30
0.0
 11
-179.1152728229
 21
-93.8599361191
 31
0.0
  0
LINE
  5
1AD
330
112
100
AcDbEntity
  8
0
  6
Continuous
 62
     7
370
    25
100
AcDbLine
 10
193.0
 20
107.6393575001
 30
0.0
 11
193.0
 21
113.0
 31
0.0
  0
LINE
  5
1AE
330
112
100
AcDbEntity
  8
0
  6
Continuous
 62
     7
370
    25
100
AcDbLine
 10
193.0
 20
113.0
 30
0.0
 11
187.0657171482
 21
113.0
 31
0.0
  0
LINE
  5
1AF
330
112
100
AcDbEntity
  8
0
  6
Continuous
 62
     7
370
    25
100
AcDbLine
 10
200.0
 20
116.0
 30
0.0
 11
200.0
 21
-100.0
 31
0.0
  0
LINE
  5
1B0
330
112
100
AcDbEntity
  8
0
  6
Continuous
 62
     7
370
    25
100
AcDbLine
 10
193.0
 20
-93.0
 30
0.0
 11
200.0
 21
-95.0
 31
0.0
  0
LINE
  5
1B1
330
112
100
AcDbEntity
  8
0
  6
Continuous
 62
     7
370
    25
100
AcDbLine
 10
194.2459666924
 20
-79.2132077269
 30
0.0
 11
194.2459666924
 21
99.2132077269
 31
0.0
  0
LINE
  5
1B2
330
112
100
AcDbEntity
  8
0
  6
Continuous
 62
     7
370
    25
100
AcDbLine
 10
-179.1152728229
 20
113.8599361191
 30
0.0
 11
68.3349667931
 21
113.8599361191
 31
0.0
  0
LINE
  5
1B3
330
112
100
AcDbEntity
  8
0
  6
Continuous
 62
     7
370
    25
100
AcDbLine
 10
-195.0
 20
120.0
 30
0.0
 11
195.0
 21
120.0
 31
0.0
  0
LINE
  5
1B4
330
112
100
AcDbEntity
  8
0
  6
Continuous
 62
     7
370
    25
100
AcDbLine
 10
73.301468051
 20
113.8525705559
 30
0.0
 11
180.0
 21
113.8525705559
 31
0.0
  0
LINE
  5
1B5
330
112
100
AcDbEntity
  8
0
  6
Continuous
 62
     7
370
    25
100
AcDbLine
 10
194.2459666924
 20
99.2132077269
 30
0.0
 11
73.301468051
 21
99.2132077269
 31
0.0
  0
LINE
  5
1B6
330
112
100
AcDbEntity
  8
0
  6
Continuous
 62
     7
370
    25
100
AcDbLine
 10
-200.0
 20
-95.0
 30
0.0
 11
-193.0
 21
-93.0
 31
0.0
  0
LINE
  5
1B7
330
112
100
AcDbEntity
  8
0
  6
Continuous
 62
     7
370
    25
100
AcDbLine
 10
180.0
 20
-93.8525705559
 30
0.0
 11
180.0
 21
113.8525705559
 31
0.0
  0
LINE
  5
1B8
330
112
100
AcDbEntity
  8
0
  6
Continuous
 62
     7
370
    25
100
AcDbLine
 10
73.301468051
 20
-79.2132077269
 30
0.0
 11
194.2459666924
 21
-79.2132077269
 31
0.0
  0
LINE
  5
1B9
330
112
100
AcDbEntity
  8
0
  6
Continuous
 62
     7
370
    25
100
AcDbLine
 10
-200.0
 20
-100.0
 30
0.0
 11
-200.0
 21
116.0
 31
0.0
  0
LINE
  5
1BA
330
112
100
AcDbEntity
  8
0
  6
Continuous
 62
     7
370
    25
100
AcDbLine
 10
-193.9422785237
 20
-78.7546516808
 30
0.0
 11
-193.9422785237
 21
98.7546516808
 31
0.0
  0
LINE
  5
1BB
330
112
100
AcDbEntity
  8
0
  6
Continuous
 62
     7
370
    25
100
AcDbLine
 10
68.3349667931
 20
-88.2304546034
 30
0.0
 11
68.3349667931
 21
-93.8599361191
 31
0.0
  0
LINE
  5
1BC
330
112
100
AcDbEntity
  8
0
  6
Continuous
 62
     7
370
    25
100
AcDbLine
 10
73.301468051
 20
113.8525705559
 30
0.0
 11
73.301468051
 21
-93.8525705559
 31
0.0
  0
LINE
  5
1BD
330
112
100
AcDbEntity
  8
0
  6
Continuous
 62
     7
370
    25
100
AcDbLine
 10
68.3349667931
 20
108.2304546034
 30
0.0
 11
68.3349667931
 21
113.8599361191
 31
0.0
  0
LINE
  5
1BE
330
112
100
AcDbEntity
  8
0
  6
Continuous
 62
     7
370
    25
100
AcDbLine
 10
73.301468051
 20
-88.326109718
 30
0.0
 11
180.0
 21
-88.326109718
 31
0.0
  0
LINE
  5
1BF
330
112
100
AcDbEntity
  8
0
  6
Continuous
 62
     7
370
    25
100
AcDbLine
 10
180.0
 20
108.326109718
 30
0.0
 11
73.301468051
 21
108.326109718
 31
0.0
  0
LINE
  5
1C0
330
112
100
AcDbEntity
  8
0
  6
Continuous
 62
     7
370
    25
100
AcDbLine
 10
68.3349667931
 20
108.2304546034
 30
0.0
 11
-179.1152728229
 21
108.2304546034
 31
0.0
  0
LINE
  5
1C1
330
112
100
AcDbEntity
  8
0
  6
Continuous
 62
     7
370
    25
100
AcDbLine
 10
-179.1152728229
 20
-88.2304546034
 30
0.0
 11
68.3349667931
 21
-88.2304546034
 31
0.0
  0
LINE
  5
1C2
330
112
100
AcDbEntity
  8
0
  6
Continuous
 62
     7
370
    25
100
AcDbLine
 10
-188.3145071737
 20
98.7546516808
 30
0.0
 11
-188.3145071737
 21
-78.7546516808
 31
0.0
  0
LINE
  5
1C3
330
112
100
AcDbEntity
  8
0
  6
Continuous
 62
     7
370
    25
100
AcDbLine
 10
189.1129019911
 20
-79.2132077269
 30
0.0
 11
189.1129019911
 21
99.2132077269
 31
0.0
  0
LINE
  5
1C4
330
112
100
AcDbEntity
  8
0
  6
Continuous
 62
     7
370
    25
100
AcDbLine
 10
-158.0220613608
 20
-65.0279219951
 30
0.0
 11
-179.1152728229
 21
-88.2304546034
 31
0.0
  0
LINE
  5
1C5
330
112
100
AcDbEntity
  8
0
  6
Continuous
 62
     7
370
    25
100
AcDbLine
 10
-188.3145071737
 20
-78.7546516808
 30
0.0
 11
-167.4078468947
 21
-55.7573253739
 31
0.0
  0
LINE
  5
1C6
330
112
100
AcDbEntity
  8
0
  6
Continuous
 62
     7
370
    25
100
AcDbLine
 10
-167.4078468947
 20
75.7573253739
 30
0.0
 11
-188.3145071737
 21
98.7546516808
 31
0.0
  0
LINE
  5
1C7
330
112
100
AcDbEntity
  8
0
  6
Continuous
 62
     7
370
    25
100
AcDbLine
 10
-179.1152728229
 20
108.2304546034
 30
0.0
 11
-158.0220613608
 21
85.0279219951
 31
0.0
  0
LINE
  5
1C8
330
112
100
AcDbEntity
  8
0
  6
Continuous
 62
     7
370
    25
100
AcDbLine
 10
38.0220613608
 20
85.0279219951
 30
0.0
 11
54.5298969831
 21
103.1865411796
 31
0.0
  0
LINE
  5
1C9
330
112
100
AcDbEntity
  8
0
  6
Continuous
 62
     7
370
    25
100
AcDbLine
 10
-158.0220613608
 20
85.0279219951
 30
0.0
 11
38.0220613608
 21
85.0279219951
 31
0.0
  0
LINE
  5
1CA
330
112
100
AcDbEntity
  8
0
  6
Continuous
 62
     7
370
    25
100
AcDbLine
 10
38.0220613608
 20
-65.0279219951
 30
0.0
 11
-158.0220613608
 21
-65.0279219951
 31
0.0
  0
LINE
  5
1CB
330
112
100
AcDbEntity
  8
0
  6
Continuous
 62
     7
370
    25
100
AcDbLine
 10
54.5298969831
 20
-83.1865411796
 30
0.0
 11
38.0220613608
 21
-65.0279219951
 31
0.0
  0
LINE
  5
1CC
330
112
100
AcDbEntity
  8
0
  6
Continuous
 62
     7
370
    25
100
AcDbLine
 10
-167.4078468947
 20
-55.7573253739
 30
0.0
 11
-167.4078468947
 21
75.7573253739
 31
0.0
  0
LINE
  5
1CD
330
112
100
AcDbEntity
  8
0
  6
Continuous
 62
     7
370
    25
100
AcDbLine
 10
63.915682517
 20
-73.9159445585
 30
0.0
 11
63.915682517
 21
93.9159445585
 31
0.0
  0
LINE
  5
1CE
330
112
100
AcDbEntity
  8
0
  6
Continuous
 62
     7
370
    25
100
AcDbLine
 10
63.915682517
 20
93.9159445585
 30
0.0
 11
47.4078468947
 21
75.7573253739
 31
0.0
  0
LINE
  5
1CF
330
112
100
AcDbEntity
  8
0
  6
Continuous
 62
     7
370
    25
100
AcDbLine
 10
47.4078468947
 20
-55.7573253739
 30
0.0
 11
63.915682517
 21
-73.9159445585
 31
0.0
  0
LINE
  5
1D0
330
112
100
AcDbEntity
  8
0
  6
Continuous
 62
     7
370
    25
100
AcDbLine
 10
47.4078468947
 20
75.7573253739
 30
0.0
 11
47.4078468947
 21
-55.7573253739
 31
0.0
  0
LINE
  5
1D1
330
112
100
AcDbEntity
  8
0
  6
Continuous
 62
     7
370
    25
100
AcDbLine
 10
59.9619180351
 20
0.00167929
 30
0.0
 11
60.036029158
 21
0.0
 31
0.0
  0
LINE
  5
1D2
330
112
100
AcDbEntity
  8
0
  6
Continuous
 62
     7
370
    25
100
AcDbLine
 10
-158.0220613608
 20
85.0279219951
 30
0.0
 11
-158.0220613608
 21
-65.0279219951
 31
0.0
  0
LINE
  5
1D3
330
112
100
AcDbEntity
  8
0
  6
Continuous
 62
     7
370
    25
100
AcDbLine
 10
47.4078468947
 20
75.7573253739
 30
0.0
 11
-167.4078468947
 21
75.7573253739
 31
0.0
  0
LINE
  5
1D4
330
112
100
AcDbEntity
  8
0
  6
Continuous
 62
     7
370
    25
100
AcDbLine
 10
38.0220613608
 20
-65.0279219951
 30
0.0
 11
38.0220613608
 21
85.0279219951
 31
0.0
  0
LINE
  5
1D5
330
112
100
AcDbEntity
  8
0
  6
Continuous
 62
     7
370
    25
100
AcDbLine
 10
-167.4078468947
 20
-55.7573253739
 30
0.0
 11
47.4078468947
 21
-55.7573253739
 31
0.0
  0
LINE
  5
1D6
330
112
100
AcDbEntity
  8
0
  6
Continuous
 62
     7
370
    25
100
AcDbLine
 10
-200.0
 20
116.0
 30
0.0
 11
-199.8989794856
 21
116.0
 31
0.0
  0
LINE
  5
1D7
330
112
100
AcDbEntity
  8
0
  6
Continuous
 62
     7
370
    25
100
AcDbLine
 10
199.8989794856
 20
116.0
 30
0.0
 11
200.0
 21
116.0
 31
0.0
  0
ARC
  5
1D8
330
112
100
AcDbEntity
  8
0
  6
Continuous
 62
     7
370
    25
100
AcDbCircle
 10
180.0
 20
-79.2132077269
 30
0.0
 40
15.49193338482963
100
AcDbArc
 50
297.1350938993
 51
327.0500901632
  0
ARC
  5
1D9
330
112
100
AcDbEntity
  8
0
  6
Continuous
 62
     7
370
    25
100
AcDbCircle
 10
-179.7014300699
 20
99.6008746639
 30
0.0
 40
15.02051325032031
100
AcDbArc
 50
116.8673642334
 51
152.2959238767
  0
ARC
  5
1DA
330
112
100
AcDbEntity
  8
0
  6
Continuous
 62
     7
370
    25
100
AcDbCircle
 10
-180.046828166
 20
99.9315503771
 30
0.0
 40
8.351024291412823
100
AcDbArc
 50
83.5953357882
 51
188.1015875818
  0
ARC
  5
1DB
330
112
100
AcDbEntity
  8
0
  6
Continuous
 62
     7
370
    25
100
AcDbCircle
 10
-195.0
 20
115.0
 30
0.0
 40
5.0
100
AcDbArc
 50
90.0
 51
180.0
  0
ARC
  5
1DC
330
112
100
AcDbEntity
  8
0
  6
Continuous
 62
     7
370
    25
100
AcDbCircle
 10
195.0
 20
115.0
 30
0.0
 40
5.0
100
AcDbArc
 50
0.0
 51
90.0
  0
ARC
  5
1DD
330
112
100
AcDbEntity
  8
0
  6
Continuous
 62
     7
370
    25
100
AcDbCircle
 10
-179.7014300699
 20
-79.6008746639
 30
0.0
 40
15.02051325032011
100
AcDbArc
 50
207.7040761233
 51
243.1326357666
  0
ARC
  5
1DE
330
112
100
AcDbEntity
  8
0
  6
Continuous
 62
     7
370
    25
100
AcDbCircle
 10
-180.046828166
 20
-79.9315503771
 30
0.0
 40
8.35102429141281
100
AcDbArc
 50
171.8984124182
 51
276.4046642118
  0
ARC
  5
1DF
330
112
100
AcDbEntity
  8
0
  6
Continuous
 62
     7
370
    25
100
AcDbCircle
 10
180.0
 20
99.2132077269
 30
0.0
 40
15.49193338482991
100
AcDbArc
 50
32.9499098368
 51
62.8649061007
  0
ARC
  5
1E0
330
112
100
AcDbEntity
  8
0
  6
Continuous
 62
     7
370
    25
100
AcDbCircle
 10
180.0
 20
99.2132077269
 30
0.0
 40
9.112901991076285
100
AcDbArc
 50
0.0
 51
90.0
  0
ARC
  5
1E1
330
112
100
AcDbEntity
  8
0
  6
Continuous
 62
     7
370
    25
100
AcDbCircle
 10
-195.0
 20
-95.0
 30
0.0
 40
4.999999999999972
100
AcDbArc
 50
180.0
 51
270.0
  0
ARC
  5
1E2
330
112
100
AcDbEntity
  8
0
  6
Continuous
 62
     7
370
    25
100
AcDbCircle
 10
195.0
 20
-95.0
 30
0.0
 40
4.999999999999972
100
AcDbArc
 50
270.0
 51
0.0
  0
ARC
  5
1E3
330
112
100
AcDbEntity
  8
0
  6
Continuous
 62
     7
370
    25
100
AcDbCircle
 10
180.0
 20
-79.2132077269
 30
0.0
 40
9.112901991076328
100
AcDbArc
 50
270.0
 51
0.0
  0
ARC
  5
1E4
330
112
100
AcDbEntity
  8
0
  6
Continuous
 62
     7
370
    25
100
AcDbCircle
 10
-156.5130484578
 20
-54.1136581661
 30
0.0
 40
11.01808853072345
100
AcDbArc
 50
188.5793502533
 51
262.1281561254
  0
ARC
  5
1E5
330
112
100
AcDbEntity
  8
0
  6
Continuous
 62
     7
370
    25
100
AcDbCircle
 10
-156.5130484578
 20
74.1136581661
 30
0.0
 40
11.01808853072355
100
AcDbArc
 50
97.8718438746
 51
171.4206497467
  0
ARC
  5
1E6
330
112
100
AcDbEntity
  8
0
  6
Continuous
 62
     7
370
    25
100
AcDbCircle
 10
72.8940739563
 20
88.9714530212
 30
0.0
 40
10.24985411599489
100
AcDbArc
 50
87.7221029532
 51
151.1579755985
  0
ARC
  5
1E7
330
112
100
AcDbEntity
  8
0
  6
Continuous
 62
     7
370
    25
100
AcDbCircle
 10
53.0208840801
 20
92.2722773506
 30
0.0
 40
11.0180885307235
100
AcDbArc
 50
8.5793502533
 51
82.1281561254
  0
ARC
  5
1E8
330
112
100
AcDbEntity
  8
0
  6
Continuous
 62
     7
370
    25
100
AcDbCircle
 10
53.0208840801
 20
-72.2722773506
 30
0.0
 40
11.01808853072352
100
AcDbArc
 50
277.8718438746
 51
351.4206497467
  0
ARC
  5
1E9
330
112
100
AcDbEntity
  8
0
  6
Continuous
 62
     7
370
    25
100
AcDbCircle
 10
72.8940739563
 20
-68.9714530212
 30
0.0
 40
10.24985411599488
100
AcDbArc
 50
208.8420244015
 51
272.2778970468
  0
ARC
  5
1EA
330
112
100
AcDbEntity
  8
0
  6
Continuous
 62
     7
370
    25
100
AcDbCircle
 10
36.5130484578
 20
-54.1136581661
 30
0.0
 40
11.01808853072352
100
AcDbArc
 50
277.8718438746
 51
351.4206497467
  0
ARC
  5
1EB
330
112
100
AcDbEntity
  8
0
  6
Continuous
 62
     7
370
    25
100
AcDbCircle
 10
36.5130484578
 20
74.1136581661
 30
0.0
 40
11.01808853072352
100
AcDbArc
 50
8.5793502533
 51
82.1281561254
  0
ARC
  5
1EC
330
112
100
AcDbEntity
  8
0
  6
Continuous
 62
     7
370
    25
100
AcDbCircle
 10
87.9985953214
 20
10.0
 30
0.0
 40
26.27088306659637
100
AcDbArc
 50
166.797712813
 51
193.202287187
  0
VIEWPORT
  5
1F1
330
112
100
AcDbEntity
  8
0
100
AcDbViewport
 10
0.0
 20
0.0
 30
0.0
 40
205.6
 41
156.0
 68
     1
 69
     1
 12
0.0
 22
341.0
 13
0.0
 23
0.0
 14
10.0
 24
10.0
 15
10.0
 25
10.0
 16
0.0
 26
0.0
 36
1.0
 17
0.0
 27
0.0
 37
0.0
 42
50.0
 43
0.0
 44
0.0
 45
695.64
 50
0.0
 51
0.0
 72
   100
 90
   557152
  1

281
     0
 71
     1
 74
     0
110
0.0
120
0.0
130
0.0
111
1.0
121
0.0
131
0.0
112
0.0
122
1.0
132
0.0
 79
     0
146
0.0
  0
ENDBLK
  5
115
330
112
100
AcDbEntity
  8
0
100
AcDbBlockEnd
  0
ENDSEC
  0
SECTION
  2
ENTITIES
  0
LWPOLYLINE
  5
75
330
1F
100
AcDbEntity
  8
0
  6
Continuous
 62
     7
370
    25
100
AcDbPolyline
 90
        9
 70
   128
 43
0.0
 10
193.0
 20
682.0
 10
193.390180644
 20
681.8654969628
 10
193.7653668647
 20
681.4671567276
 10
194.111140466
 20
680.8202872861
 10
194.4142135624
 20
679.9497474683
 10
194.6629392246
 20
678.8889916311
 10
194.847759065
 20
677.6787840266
 10
194.9615705608
 20
676.3656322541
 10
195.0
 20
675.0
  0
LWPOLYLINE
  5
7E
330
1F
100
AcDbEntity
  8
0
  6
Continuous
 62
     7
370
    25
100
AcDbPolyline
 90
        9
 70
   128
 43
0.0
 10
-193.0
 20
682.0
 10
-193.390180644
 20
681.8654969628
 10
-193.7653668647
 20
681.4671567276
 10
-194.111140466
 20
680.8202872861
 10
-194.4142135624
 20
679.9497474683
 10
-194.6629392246
 20
678.8889916311
 10
-194.847759065
 20
677.6787840266
 10
-194.9615705608
 20
676.3656322541
 10
-195.0
 20
675.0
  0
SPLINE
  5
7F
330
1F
100
AcDbEntity
  8
0
  6
Continuous
 62
     7
370
    25
100
AcDbSpline
210
0.0
220
0.0
230
1.0
 70
     8
 71
     3
 72
    14
 73
    10
 74
     0
 42
0.000000001
 43
0.00000001
 40
0.0
 40
0.0
 40
0.0
 40
0.0
 40
0.4999999999999932
 40
0.4999999999999932
 40
0.7499999999999905
 40
0.7499999999999905
 40
0.8749999999999952
 40
0.8749999999999952
 40
1.0
 40
1.0
 40
1.0
 40
1.0
 10
180.0000000000001
 20
681.9478862575089
 30
0.0
 10
181.1947988990141
 20
681.9478862575093
 30
0.0
 10
182.3807314418026
 20
681.9579520191894
 30
0.0
 10
184.1469734647411
 20
681.9775465879999
 30
0.0
 10
184.7336123690562
 20
681.9846233749206
 30
0.0
 10
185.6104963755516
 20
681.9930443002555
 30
0.0
 10
185.9022787008516
 20
681.9954746897904
 30
0.0
 10
186.4848339316869
 20
681.9989527254398
 30
0.0
 10
186.7774104691186
 20
681.9999999999998
 30
0.0
 10
187.0657171481798
 20
681.9999999999999
 30
0.0
  0
SPLINE
  5
82
330
1F
100
AcDbEntity
  8
0
  6
Continuous
 62
     7
370
    25
100
AcDbSpline
210
0.0
220
0.0
230
1.0
 70
     8
 71
     3
 72
    14
 73
    10
 74
     0
 42
0.000000001
 43
0.00000001
 40
0.0
 40
0.0
 40
0.0
 40
0.0
 40
0.1249999999999998
 40
0.1249999999999998
 40
0.2499999999999996
 40
0.2499999999999996
 40
0.5000000000000001
 40
0.5000000000000001
 40
1.0
 40
1.0
 40
1.0
 40
1.0
 10
-186.4896005546968
 20
681.9999999999999
 30
0.0
 10
-186.1886942136524
 20
682.0
 30
0.0
 10
-185.8831822342931
 20
681.9988803778419
 30
0.0
 10
-185.2749955317802
 20
681.9952051510937
 30
0.0
 10
-184.9703693253988
 20
681.9926498929294
 30
0.0
 10
-184.0548907800847
 20
681.9838689052694
 30
0.0
 10
-183.4424371219604
 20
681.9765836573808
 30
0.0
 10
-181.5987158066891
 20
681.9567171581938
 30
0.0
 10
-180.3610757321364
 20
681.946978470604
 30
0.0
 10
-179.1152728229202
 20
681.9469784706039
 30
0.0
  0
SPLINE
  5
84
330
1F
100
AcDbEntity
  8
0
  6
Continuous
 62
     7
370
    25
100
AcDbSpline
210
0.0
220
0.0
230
1.0
 70
     8
 71
     3
 72
     8
 73
     4
 74
     0
 42
0.000000001
 43
0.00000001
 40
0.0000001999997767
 40
0.0000001999997767
 40
0.0000001999997767
 40
0.0000001999997767
 40
0.0049667068023436
 40
0.0049667068023436
 40
0.0049667068023436
 40
0.0049667068023436
 10
68.3349667931263
 20
681.9469784706039
 30
0.0
 10
69.9904690606486
 20
681.9469784706039
 30
0.0
 10
71.64596578346597
 20
681.9478862575089
 30
0.0
 10
73.30146805098828
 20
681.9478862575089
 30
0.0
  0
LINE
  5
9E
330
1F
100
AcDbEntity
  8
0
  6
Continuous
 62
     7
370
    25
100
AcDbLine
 10
200.0
 20
675.0
 30
0.0
 11
-200.0
 21
675.0
 31
0.0
  0
LINE
  5
9F
330
1F
100
AcDbEntity
  8
0
  6
Continuous
 62
     7
370
    25
100
AcDbLine
 10
-200.0
 20
600.0
 30
0.0
 11
200.0
 21
600.0
 31
0.0
  0
LINE
  5
A0
330
1F
100
AcDbEntity
  8
0
  6
Continuous
 62
     7
370
    25
100
AcDbLine
 10
-195.0
 20
675.0
 30
0.0
 11
-195.0
 21
600.0
 31
0.0
  0
LINE
  5
A1
330
1F
100
AcDbEntity
  8
0
  6
Continuous
 62
     7
370
    25
100
AcDbLine
 10
195.0
 20
600.0
 30
0.0
 11
195.0
 21
675.0
 31
0.0
  0
LINE
  5
A2
330
1F
100
AcDbEntity
  8
0
  6
Continuous
 62
     7
370
    25
100
AcDbLine
 10
-200.0
 20
675.0
 30
0.0
 11
-200.0
 21
0.0
 31
0.0
  0
LINE
  5
A3
330
1F
100
AcDbEntity
  8
0
  6
Continuous
 62
     7
370
    25
100
AcDbLine
 10
200.0
 20
675.0
 30
0.0
 11
200.0
 21
0.0
 31
0.0
  0
LINE
  5
A4
330
1F
100
AcDbEntity
  8
0
  6
Continuous
 62
     7
370
    25
100
AcDbLine
 10
187.0657171482
 20
682.0
 30
0.0
 11
193.0
 21
682.0
 31
0.0
  0
LINE
  5
A5
330
1F
100
AcDbEntity
  8
0
  6
Continuous
 62
     7
370
    25
100
AcDbLine
 10
-193.0
 20
682.0
 30
0.0
 11
-186.4896005547
 21
682.0
 31
0.0
  0
LINE
  5
A6
330
1F
100
AcDbEntity
  8
0
  6
Continuous
 62
     7
370
    25
100
AcDbLine
 10
68.3349667931
 20
681.9469784706
 30
0.0
 11
-179.1152728229
 21
681.9469784706
 31
0.0
  0
LINE
  5
A7
330
1F
100
AcDbEntity
  8
0
  6
Continuous
 62
     7
370
    25
100
AcDbLine
 10
73.301468051
 20
681.9478862575
 30
0.0
 11
180.0
 21
681.9478862575
 31
0.0
  0
LINE
  5
A8
330
1F
100
AcDbEntity
  8
0
  6
Continuous
 62
     7
370
    25
100
AcDbLine
 10
184.0
 20
600.0
 30
0.0
 11
184.0
 21
0.0
 31
0.0
  0
LINE
  5
A9
330
1F
100
AcDbEntity
  8
0
  6
Continuous
 62
     7
370
    25
100
AcDbLine
 10
200.0
 20
0.0
 30
0.0
 11
-200.0
 21
0.0
 31
0.0
  0
LINE
  5
AA
330
1F
100
AcDbEntity
  8
0
  6
Continuous
 62
     7
370
    25
100
AcDbLine
 10
-184.0
 20
600.0
 30
0.0
 11
-184.0
 21
0.0
 31
0.0
  0
LINE
  5
AB
330
1F
100
AcDbEntity
  8
0
  6
Continuous
 62
     7
370
    25
100
AcDbLine
 10
184.0
 20
16.0
 30
0.0
 11
-184.0
 21
16.0
 31
0.0
  0
LINE
  5
AC
330
1F
100
AcDbEntity
  8
0
  6
Continuous
 62
     7
370
    25
100
AcDbLine
 10
184.0
 20
66.0
 30
0.0
 11
-184.0
 21
66.0
 31
0.0
  0
LINE
  5
AD
330
1F
100
AcDbEntity
  8
0
  6
Continuous
 62
     7
370
    25
100
AcDbLine
 10
184.0
 20
241.0
 30
0.0
 11
-184.0
 21
241.0
 31
0.0
  0
LINE
  5
AE
330
1F
100
AcDbEntity
  8
0
  6
Continuous
 62
     7
370
    25
100
AcDbLine
 10
184.0
 20
257.0
 30
0.0
 11
-184.0
 21
257.0
 31
0.0
  0
LINE
  5
AF
330
1F
100
AcDbEntity
  8
0
  6
Continuous
 62
     7
370
    25
100
AcDbLine
 10
184.0
 20
550.0
 30
0.0
 11
-184.0
 21
550.0
 31
0.0
  0
ARC
  5
B0
330
1F
100
AcDbEntity
  8
0
  6
Continuous
 62
     7
370
    25
100
AcDbCircle
 10
193.0
 20
675.0
 30
0.0
 40
6.999999999999886
100
AcDbArc
 50
0.0
 51
90.0
  0
ARC
  5
B1
330
1F
100
AcDbEntity
  8
0
  6
Continuous
 62
     7
370
    25
100
AcDbCircle
 10
-193.0
 20
675.0
 30
0.0
 40
6.999999999999886
100
AcDbArc
 50
90.0
 51
180.0
  0
LWPOLYLINE
  5
B3
330
1B
100
AcDbEntity
 67
     1
  8
0
  6
Continuous
 62
     7
370
    25
100
AcDbPolyline
 90
        9
 70
   128
 43
0.0
 10
195.0
 20
675.0
 10
194.9615705608
 20
676.3656322541
 10
194.847759065
 20
677.6787840266
 10
194.6629392246
 20
678.8889916311
 10
194.4142135624
 20
679.9497474683
 10
194.111140466
 20
680.8202872861
 10
193.7653668647
 20
681.4671567276
 10
193.390180644
 20
681.8654969628
 10
193.0
 20
682.0
  0
LWPOLYLINE
  5
BD
330
1B
100
AcDbEntity
 67
     1
  8
0
  6
Continuous
 62
     7
370
    25
100
AcDbPolyline
 90
        9
 70
   128
 43
0.0
 10
-193.0
 20
682.0
 10
-193.390180644
 20
681.8654969628
 10
-193.7653668647
 20
681.4671567276
 10
-194.111140466
 20
680.8202872861
 10
-194.4142135624
 20
679.9497474683
 10
-194.6629392246
 20
678.8889916311
 10
-194.847759065
 20
677.6787840266
 10
-194.9615705608
 20
676.3656322541
 10
-195.0
 20
675.0
  0
SPLINE
  5
C2
330
1B
100
AcDbEntity
 67
     1
  8
0
  6
Continuous
 62
     7
370
    25
100
AcDbSpline
210
0.0
220
0.0
230
1.0
 70
     8
 71
     3
 72
    14
 73
    10
 74
     0
 42
0.000000001
 43
0.00000001
 40
0.0
 40
0.0
 40
0.0
 40
0.0
 40
0.5000000000000046
 40
0.5000000000000046
 40
0.7500000000000074
 40
0.7500000000000074
 40
0.8750000000000038
 40
0.8750000000000038
 40
1.0
 40
1.0
 40
1.0
 40
1.0
 10
179.1152728229212
 20
681.9469784706039
 30
0.0
 10
180.3610757321372
 20
681.946978470604
 30
0.0
 10
181.5987158066898
 20
681.9567171581936
 30
0.0
 10
183.4424371219607
 20
681.9765836573808
 30
0.0
 10
184.054890780085
 20
681.9838689052692
 30
0.0
 10
184.970369325399
 20
681.9926498929294
 30
0.0
 10
185.2749955317803
 20
681.9952051510938
 30
0.0
 10
185.8831822342931
 20
681.998880377842
 30
0.0
 10
186.1886942136528
 20
682.0
 30
0.0
 10
186.4896005546968
 20
681.9999999999999
 30
0.0
  0
SPLINE
  5
C5
330
1B
100
AcDbEntity
 67
     1
  8
0
  6
Continuous
 62
     7
370
    25
100
AcDbSpline
210
0.0
220
0.0
230
1.0
 70
     8
 71
     3
 72
    14
 73
    10
 74
     0
 42
0.000000001
 43
0.00000001
 40
0.0
 40
0.0
 40
0.0
 40
0.0
 40
0.1249999999999994
 40
0.1249999999999994
 40
0.2499999999999988
 40
0.2499999999999988
 40
0.4999999999999992
 40
0.4999999999999992
 40
1.0
 40
1.0
 40
1.0
 40
1.0
 10
-187.0657171481797
 20
681.9999999999999
 30
0.0
 10
-186.7774104691164
 20
682.0
 30
0.0
 10
-186.4848339316867
 20
681.9989527254398
 30
0.0
 10
-185.9022787008515
 20
681.9954746897906
 30
0.0
 10
-185.6104963755515
 20
681.9930443002559
 30
0.0
 10
-184.7336123690561
 20
681.9846233749206
 30
0.0
 10
-184.146973464741
 20
681.9775465879997
 30
0.0
 10
-182.3807314418026
 20
681.9579520191891
 30
0.0
 10
-181.1947988990141
 20
681.9478862575088
 30
0.0
 10
-180.0000000000001
 20
681.9478862575089
 30
0.0
  0
SPLINE
  5
C7
330
1B
100
AcDbEntity
 67
     1
  8
0
  6
Continuous
 62
     7
370
    25
100
AcDbSpline
210
0.0
220
0.0
230
1.0
 70
     8
 71
     3
 72
     8
 73
     4
 74
     0
 42
0.000000001
 43
0.00000001
 40
0.0000001999997767
 40
0.0000001999997767
 40
0.0000001999997767
 40
0.0000001999997767
 40
0.0049667068023437
 40
0.0049667068023437
 40
0.0049667068023437
 40
0.0049667068023437
 10
-73.30146805098829
 20
681.9478862575089
 30
0.0
 10
-71.64596578346595
 20
681.9478862575089
 30
0.0
 10
-69.99046906064859
 20
681.9469784706039
 30
0.0
 10
-68.33496679312626
 20
681.9469784706039
 30
0.0
  0
LINE
  5
D4
330
1B
100
AcDbEntity
 67
     1
  8
0
  6
Continuous
 62
     7
370
    25
100
AcDbLine
 10
86.0884572681
 20
596.0
 30
0.0
 11
87.1602540378
 21
600.0
 31
0.0
  0
LINE
  5
D5
330
1B
100
AcDbEntity
 67
     1
  8
0
  6
Continuous
 62
     7
370
    25
100
AcDbLine
 10
200.0
 20
675.0
 30
0.0
 11
-200.0
 21
675.0
 31
0.0
  0
LINE
  5
D6
330
1B
100
AcDbEntity
 67
     1
  8
0
  6
Continuous
 62
     7
370
    25
100
AcDbLine
 10
-200.0
 20
600.0
 30
0.0
 11
200.0
 21
600.0
 31
0.0
  0
LINE
  5
D7
330
1B
100
AcDbEntity
 67
     1
  8
0
  6
Continuous
 62
     7
370
    25
100
AcDbLine
 10
-195.0
 20
675.0
 30
0.0
 11
-195.0
 21
600.0
 31
0.0
  0
LINE
  5
D8
330
1B
100
AcDbEntity
 67
     1
  8
0
  6
Continuous
 62
     7
370
    25
100
AcDbLine
 10
195.0
 20
600.0
 30
0.0
 11
195.0
 21
675.0
 31
0.0
  0
LINE
  5
D9
330
1B
100
AcDbEntity
 67
     1
  8
0
  6
Continuous
 62
     7
370
    25
100
AcDbLine
 10
-200.0
 20
675.0
 30
0.0
 11
-200.0
 21
0.0
 31
0.0
  0
LINE
  5
DA
330
1B
100
AcDbEntity
 67
     1
  8
0
  6
Continuous
 62
     7
370
    25
100
AcDbLine
 10
200.0
 20
0.0
 30
0.0
 11
200.0
 21
675.0
 31
0.0
  0
LINE
  5
DB
330
1B
100
AcDbEntity
 67
     1
  8
0
  6
Continuous
 62
     7
370
    25
100
AcDbLine
 10
179.1152728229
 20
681.9469784706
 30
0.0
 11
-68.3349667931
 21
681.9469784706
 31
0.0
  0
LINE
  5
DC
330
1B
100
AcDbEntity
 67
     1
  8
0
  6
Continuous
 62
     7
370
    25
100
AcDbLine
 10
186.4896005547
 20
682.0
 30
0.0
 11
193.0
 21
682.0
 31
0.0
  0
LINE
  5
DD
330
1B
100
AcDbEntity
 67
     1
  8
0
  6
Continuous
 62
     7
370
    25
100
AcDbLine
 10
-193.0
 20
682.0
 30
0.0
 11
-187.0657171482
 21
682.0
 31
0.0
  0
LINE
  5
DE
330
1B
100
AcDbEntity
 67
     1
  8
0
  6
Continuous
 62
     7
370
    25
100
AcDbLine
 10
-73.301468051
 20
681.9478862575
 30
0.0
 11
-180.0
 21
681.9478862575
 31
0.0
  0
LINE
  5
DF
330
1B
100
AcDbEntity
 67
     1
  8
0
  6
Continuous
 62
     7
370
    25
100
AcDbLine
 10
-80.9380086472
 20
596.0
 30
0.0
 11
-81.64331657
 21
600.0
 31
0.0
  0
LINE
  5
E0
330
1B
100
AcDbEntity
 67
     1
  8
0
  6
Continuous
 62
     7
370
    25
100
AcDbLine
 10
-184.0
 20
600.0
 30
0.0
 11
-184.0
 21
596.0
 31
0.0
  0
LINE
  5
E1
330
1B
100
AcDbEntity
 67
     1
  8
0
  6
Continuous
 62
     7
370
    25
100
AcDbLine
 10
184.0
 20
600.0
 30
0.0
 11
184.0
 21
596.0
 31
0.0
  0
LINE
  5
E2
330
1B
100
AcDbEntity
 67
     1
  8
0
  6
Continuous
 62
     7
370
    25
100
AcDbLine
 10
-200.0
 20
0.0
 30
0.0
 11
200.0
 21
0.0
 31
0.0
  0
LINE
  5
E3
330
1B
100
AcDbEntity
 67
     1
  8
0
  6
Continuous
 62
     7
370
    25
100
AcDbLine
 10
200.0
 20
596.0
 30
0.0
 11
-200.0
 21
596.0
 31
0.0
  0
LINE
  5
E4
330
1B
100
AcDbEntity
 67
     1
  8
0
  6
Continuous
 62
     8
370
    25
100
AcDbLine
 10
28.2360106031
 20
600.0
 30
0.0
 11
30.0442346101
 21
596.0
 31
0.0
  0
LINE
  5
E5
330
1B
100
AcDbEntity
 67
     1
  8
0
  6
Continuous
 62
     8
370
    25
100
AcDbLine
 10
26.648285652
 20
596.0
 30
0.0
 11
24.7732154638
 21
600.0
 31
0.0
  0
LINE
  5
E6
330
1B
100
AcDbEntity
 67
     1
  8
0
  6
Continuous
 62
     8
370
    25
100
AcDbLine
 10
-76.5661835106
 20
600.0
 30
0.0
 11
-75.8608755878
 21
596.0
 31
0.0
  0
ARC
  5
E7
330
1B
100
AcDbEntity
 67
     1
  8
0
  6
Continuous
 62
     7
370
    25
100
AcDbCircle
 10
193.0
 20
675.0
 30
0.0
 40
6.999999999999886
100
AcDbArc
 50
0.0
 51
90.0
  0
ARC
  5
E8
330
1B
100
AcDbEntity
 67
     1
  8
0
  6
Continuous
 62
     7
370
    25
100
AcDbCircle
 10
-193.0
 20
675.0
 30
0.0
 40
6.999999999999886
100
AcDbArc
 50
90.0
 51
180.0
  0
VIEWPORT
  5
1ED
330
1B
100
AcDbEntity
 67
     1
  8
0
100
AcDbViewport
 10
0.0
 20
0.0
 30
0.0
 40
205.6
 41
156.0
 68
     1
 69
     1
 12
0.0
 22
341.0
 13
0.0
 23
0.0
 14
10.0
 24
10.0
 15
10.0
 25
10.0
 16
0.0
 26
0.0
 36
1.0
 17
0.0
 27
0.0
 37
0.0
 42
50.0
 43
0.0
 44
0.0
 45
695.64
 50
0.0
 51
0.0
 72
   100
 90
   557152
  1

281
     0
 71
     1
 74
     0
110
0.0
120
0.0
130
0.0
111
1.0
121
0.0
131
0.0
112
0.0
122
1.0
132
0.0
 79
     0
146
0.0
  0
ENDSEC
  0
SECTION
  2
OBJECTS
  0
DICTIONARY
  5
C
330
0
100
AcDbDictionary
281
     1
  3
ACAD_GROUP
350
D
  3
ACAD_LAYOUT
350
1A
  3
ACAD_MLINESTYLE
350
17
  3
ACAD_PLOTSETTINGS
350
19
  3
ACAD_PLOTSTYLENAME
350
E
  3
ACAD_SCALELIST
350
47
  0
DICTIONARY
  5
D
102
{ACAD_REACTORS
330
C
102
}
330
C
100
AcDbDictionary
281
     1
  0
DICTIONARY
  5
1A
102
{ACAD_REACTORS
330
C
102
}
330
C
100
AcDbDictionary
281
     1
  3
_Back
350
1E
  3
_Left
350
26
  3
_Top
350
113
  3
Model
350
22
  0
DICTIONARY
  5
17
102
{ACAD_REACTORS
330
C
102
}
330
C
100
AcDbDictionary
281
     1
  3
Standard
350
18
  0
DICTIONARY
  5
19
102
{ACAD_REACTORS
330
C
102
}
330
C
100
AcDbDictionary
281
     1
  0
ACDBDICTIONARYWDFLT
  5
E
102
{ACAD_REACTORS
330
C
102
}
330
C
100
AcDbDictionary
281
     1
  3
Normal
350
F
100
AcDbDictionaryWithDefault
340
F
  0
DICTIONARY
  5
47
102
{ACAD_REACTORS
330
C
102
}
330
C
100
AcDbDictionary
281
     1
  3
A0
350
48
  3
A1
350
49
  3
A2
350
4A
  3
A3
350
4B
  3
A4
350
4C
  3
A5
350
4D
  3
A6
350
4E
  3
A7
350
4F
  3
A8
350
50
  3
A9
350
51
  3
B0
350
52
  3
B1
350
53
  3
B2
350
54
  3
B3
350
55
  3
B4
350
56
  3
B5
350
57
  3
B6
350
58
  3
B7
350
59
  3
B8
350
5A
  3
B9
350
5B
  3
C0
350
5C
  3
C1
350
5D
  3
C2
350
5E
  3
C3
350
5F
  3
C4
350
60
  3
C5
350
61
  3
C6
350
62
  3
C7
350
63
  3
C8
350
64
  3
C9
350
65
  3
D0
350
66
  3
D1
350
67
  3
D2
350
68
  0
LAYOUT
  5
1E
102
{ACAD_REACTORS
330
1A
102
}
330
1A
100
AcDbPlotSettings
  1

  2
none_device
  4
ISO_A4_(210.00_x_297.00_MM)
  6

 40
7.5
 41
20.0
 42
7.5
 43
20.0
 44
210.0
 45
297.0
 46
0.0
 47
0.0
 48
0.0
 49
0.0
140
0.0
141
0.0
142
1.0
143
3.4974358974
 70
   688
 72
     1
 73
     1
 74
     1
  7

 75
     0
147
0.2859237537
148
200.0
149
0.0
100
AcDbLayout
  1
_Back
 70
     1
 71
     1
 10
-269.9487179487
 20
-26.2307692308
 11
768.7897435897
 21
708.2307692308
 12
0.0
 22
0.0
 32
0.0
 14
-200.0
 24
0.0
 34
0.0
 15
200.0
 25
682.0
 35
0.0
146
0.0
 13
0.0
 23
0.0
 33
0.0
 16
1.0
 26
0.0
 36
0.0
 17
0.0
 27
1.0
 37
0.0
 76
     0
330
1B
331
1ED
  0
LAYOUT
  5
26
102
{ACAD_REACTORS
330
1A
102
}
330
1A
100
AcDbPlotSettings
  1

  2
none_device
  4
ISO_A4_(210.00_x_297.00_MM)
  6

 40
7.5
 41
20.0
 42
7.5
 43
20.0
 44
210.0
 45
297.0
 46
0.0
 47
0.0
 48
0.0
 49
0.0
140
0.0
141
0.0
142
1.0
143
3.4974358974
 70
   688
 72
     1
 73
     1
 74
     1
  7

 75
     0
147
0.2859237537
148
200.0
149
0.0
100
AcDbLayout
  1
_Left
 70
     1
 71
     2
 10
0.0
 20
0.0
 11
0.0
 21
0.0
 12
0.0
 22
0.0
 32
0.0
 14
0.0
 24
0.0
 34
0.0
 15
0.0
 25
0.0
 35
0.0
146
0.0
 13
0.0
 23
0.0
 33
0.0
 16
1.0
 26
0.0
 36
0.0
 17
0.0
 27
1.0
 37
0.0
 76
     0
330
23
331
1EF
  0
LAYOUT
  5
113
102
{ACAD_REACTORS
330
1A
102
}
330
1A
100
AcDbPlotSettings
  1

  2
none_device
  4
ISO_A4_(210.00_x_297.00_MM)
  6

 40
7.5
 41
20.0
 42
7.5
 43
20.0
 44
210.0
 45
297.0
 46
0.0
 47
0.0
 48
0.0
 49
0.0
140
0.0
141
0.0
142
1.0
143
3.4974358974
 70
   688
 72
     1
 73
     1
 74
     1
  7

 75
     0
147
0.2859237537
148
200.0
149
0.0
100
AcDbLayout
  1
_Top
 70
     1
 71
     3
 10
0.0
 20
0.0
 11
0.0
 21
0.0
 12
0.0
 22
0.0
 32
0.0
 14
0.0
 24
0.0
 34
0.0
 15
0.0
 25
0.0
 35
0.0
146
0.0
 13
0.0
 23
0.0
 33
0.0
 16
1.0
 26
0.0
 36
0.0
 17
0.0
 27
1.0
 37
0.0
 76
     0
330
112
331
1F1
  0
LAYOUT
  5
22
102
{ACAD_REACTORS
330
1A
102
}
330
1A
100
AcDbPlotSettings
  1

  2
none_device
  4
ANSI_A_(11.00_x_8.50_Inches)
  6

 40
6.35
 41
19.05
 42
6.35000508
 43
19.05000254
 44
279.4
 45
215.9
 46
133.34999746
 47
-17.97050127
 48
0.0
 49
0.0
140
0.0
141
0.0
142
0.0123387097
143
1.0
 70
  1696
 72
     0
 73
     0
 74
     0
  7

 75
     0
147
0.0179189148
148
-1300.4909072572
149
0.0
100
AcDbLayout
  1
Model
 70
     1
 71
     0
 10
0.0
 20
0.0
 11
420.0
 21
297.0
 12
0.0
 22
0.0
 32
0.0
 14
-200.0
 24
0.0
 34
0.0
 15
200.0
 25
682.0
 35
0.0
146
0.0
 13
0.0
 23
0.0
 33
0.0
 16
1.0
 26
0.0
 36
0.0
 17
0.0
 27
1.0
 37
0.0
 76
     0
330
1F
331
29
  0
MLINESTYLE
  5
18
102
{ACAD_REACTORS
330
17
102
}
330
17
100
AcDbMlineStyle
  2
Standard
 70
     0
  3

 62
   256
 51
90.0
 52
90.0
 71
     2
 49
0.5
 62
   256
  6
BYLAYER
 49
-0.5
 62
   256
  6
BYLAYER
  0
ACDBPLACEHOLDER
  5
F
102
{ACAD_REACTORS
330
E
102
}
330
E
  0
SCALE
  5
48
102
{ACAD_REACTORS
330
47
102
}
330
47
100
AcDbScale
 70
     0
300
1:1
140
1.0
141
1.0
290
     1
  0
SCALE
  5
49
102
{ACAD_REACTORS
330
47
102
}
330
47
100
AcDbScale
 70
     0
300
1:2
140
1.0
141
2.0
290
     0
  0
SCALE
  5
4A
102
{ACAD_REACTORS
330
47
102
}
330
47
100
AcDbScale
 70
     0
300
1:4
140
1.0
141
4.0
290
     0
  0
SCALE
  5
4B
102
{ACAD_REACTORS
330
47
102
}
330
47
100
AcDbScale
 70
     0
300
1:5
140
1.0
141
5.0
290
     0
  0
SCALE
  5
4C
102
{ACAD_REACTORS
330
47
102
}
330
47
100
AcDbScale
 70
     0
300
1:8
140
1.0
141
8.0
290
     0
  0
SCALE
  5
4D
102
{ACAD_REACTORS
330
47
102
}
330
47
100
AcDbScale
 70
     0
300
1:10
140
1.0
141
10.0
290
     0
  0
SCALE
  5
4E
102
{ACAD_REACTORS
330
47
102
}
330
47
100
AcDbScale
 70
     0
300
1:16
140
1.0
141
16.0
290
     0
  0
SCALE
  5
4F
102
{ACAD_REACTORS
330
47
102
}
330
47
100
AcDbScale
 70
     0
300
1:20
140
1.0
141
20.0
290
     0
  0
SCALE
  5
50
102
{ACAD_REACTORS
330
47
102
}
330
47
100
AcDbScale
 70
     0
300
1:30
140
1.0
141
30.0
290
     0
  0
SCALE
  5
51
102
{ACAD_REACTORS
330
47
102
}
330
47
100
AcDbScale
 70
     0
300
1:40
140
1.0
141
40.0
290
     0
  0
SCALE
  5
52
102
{ACAD_REACTORS
330
47
102
}
330
47
100
AcDbScale
 70
     0
300
1:50
140
1.0
141
50.0
290
     0
  0
SCALE
  5
53
102
{ACAD_REACTORS
330
47
102
}
330
47
100
AcDbScale
 70
     0
300
1:100
140
1.0
141
100.0
290
     0
  0
SCALE
  5
54
102
{ACAD_REACTORS
330
47
102
}
330
47
100
AcDbScale
 70
     0
300
2:1
140
2.0
141
1.0
290
     0
  0
SCALE
  5
55
102
{ACAD_REACTORS
330
47
102
}
330
47
100
AcDbScale
 70
     0
300
4:1
140
4.0
141
1.0
290
     0
  0
SCALE
  5
56
102
{ACAD_REACTORS
330
47
102
}
330
47
100
AcDbScale
 70
     0
300
8:1
140
8.0
141
1.0
290
     0
  0
SCALE
  5
57
102
{ACAD_REACTORS
330
47
102
}
330
47
100
AcDbScale
 70
     0
300
10:1
140
10.0
141
1.0
290
     0
  0
SCALE
  5
58
102
{ACAD_REACTORS
330
47
102
}
330
47
100
AcDbScale
 70
     0
300
100:1
140
100.0
141
1.0
290
     0
  0
SCALE
  5
59
102
{ACAD_REACTORS
330
47
102
}
330
47
100
AcDbScale
 70
     0
300
1/128" = 1'-0"
140
0.0078125
141
12.0
290
     0
  0
SCALE
  5
5A
102
{ACAD_REACTORS
330
47
102
}
330
47
100
AcDbScale
 70
     0
300
1/64" = 1'-0"
140
0.015625
141
12.0
290
     0
  0
SCALE
  5
5B
102
{ACAD_REACTORS
330
47
102
}
330
47
100
AcDbScale
 70
     0
300
1/32" = 1'-0"
140
0.03125
141
12.0
290
     0
  0
SCALE
  5
5C
102
{ACAD_REACTORS
330
47
102
}
330
47
100
AcDbScale
 70
     0
300
1/16" = 1'-0"
140
0.0625
141
12.0
290
     0
  0
SCALE
  5
5D
102
{ACAD_REACTORS
330
47
102
}
330
47
100
AcDbScale
 70
     0
300
3/32" = 1'-0"
140
0.09375
141
12.0
290
     0
  0
SCALE
  5
5E
102
{ACAD_REACTORS
330
47
102
}
330
47
100
AcDbScale
 70
     0
300
1/8" = 1'-0"
140
0.125
141
12.0
290
     0
  0
SCALE
  5
5F
102
{ACAD_REACTORS
330
47
102
}
330
47
100
AcDbScale
 70
     0
300
3/16" = 1'-0"
140
0.1875
141
12.0
290
     0
  0
SCALE
  5
60
102
{ACAD_REACTORS
330
47
102
}
330
47
100
AcDbScale
 70
     0
300
1/4" = 1'-0"
140
0.25
141
12.0
290
     0
  0
SCALE
  5
61
102
{ACAD_REACTORS
330
47
102
}
330
47
100
AcDbScale
 70
     0
300
3/8" = 1'-0"
140
0.375
141
12.0
290
     0
  0
SCALE
  5
62
102
{ACAD_REACTORS
330
47
102
}
330
47
100
AcDbScale
 70
     0
300
1/2" = 1'-0"
140
0.5
141
12.0
290
     0
  0
SCALE
  5
63
102
{ACAD_REACTORS
330
47
102
}
330
47
100
AcDbScale
 70
     0
300
3/4" = 1'-0"
140
0.75
141
12.0
290
     0
  0
SCALE
  5
64
102
{ACAD_REACTORS
330
47
102
}
330
47
100
AcDbScale
 70
     0
300
1" = 1'-0"
140
1.0
141
12.0
290
     0
  0
SCALE
  5
65
102
{ACAD_REACTORS
330
47
102
}
330
47
100
AcDbScale
 70
     0
300
1-1/2" = 1'-0"
140
1.5
141
12.0
290
     0
  0
SCALE
  5
66
102
{ACAD_REACTORS
330
47
102
}
330
47
100
AcDbScale
 70
     0
300
3" = 1'-0"
140
3.0
141
12.0
290
     0
  0
SCALE
  5
67
102
{ACAD_REACTORS
330
47
102
}
330
47
100
AcDbScale
 70
     0
300
6" = 1'-0"
140
6.0
141
12.0
290
     0
  0
SCALE
  5
68
102
{ACAD_REACTORS
330
47
102
}
330
47
100
AcDbScale
 70
     0
300
1'-0" = 1'-0"
140
12.0
141
12.0
290
     0
  0
ENDSEC
  0
EOF
