  0
SECTION
  2
HEADER
  9
$ACADVER
  1
AC1015
  9
$ACADMAINTVER
 70
     6
  9
$DWGCODEPAGE
  3
ANSI_1252
  9
$INSBASE
 10
0.0
 20
0.0
 30
0.0
  9
$EXTMIN
 10
-177.5
 20
0.0
 30
0.0
  9
$EXTMAX
 10
177.5
 20
59.0
 30
0.0
  9
$LIMMIN
 10
0.0
 20
0.0
  9
$LIMMAX
 10
420.0
 20
297.0
  9
$ORTHOMODE
 70
     0
  9
$REGENMODE
 70
     1
  9
$FILLMODE
 70
     1
  9
$QTEXTMODE
 70
     0
  9
$MIRRTEXT
 70
     1
  9
$LTSCALE
 40
1.0
  9
$ATTMODE
 70
     1
  9
$TEXTSIZE
 40
3.5
  9
$TRACEWID
 40
1.0
  9
$TEXTSTYLE
  7
Standard
  9
$CLAYER
  8
0
  9
$CELTYPE
  6
ByLayer
  9
$CECOLOR
 62
   256
  9
$CELTSCALE
 40
1.0
  9
$DISPSILH
 70
     0
  9
$DIMSCALE
 40
1.0
  9
$DIMASZ
 40
3.302
  9
$DIMEXO
 40
1.0
  9
$DIMDLI
 40
3.75
  9
$DIMRND
 40
0.0
  9
$DIMDLE
 40
0.0
  9
$DIMEXE
 40
1.0
  9
$DIMTP
 40
0.0
  9
$DIMTM
 40
0.0
  9
$DIMTXT
 40
3.5
  9
$DIMCEN
 40
2.5
  9
$DIMTSZ
 40
0.0
  9
$DIMTOL
 70
     0
  9
$DIMLIM
 70
     0
  9
$DIMTIH
 70
     1
  9
$DIMTOH
 70
     1
  9
$DIMSE1
 70
     0
  9
$DIMSE2
 70
     0
  9
$DIMTAD
 70
     1
  9
$DIMZIN
 70
     1
  9
$DIMBLK
  1

  9
$DIMASO
 70
     1
  9
$DIMSHO
 70
     1
  9
$DIMPOST
  1

  9
$DIMAPOST
  1

  9
$DIMALT
 70
     0
  9
$DIMALTD
 70
     3
  9
$DIMALTF
 40
0.0393700787
  9
$DIMLFAC
 40
1.0
  9
$DIMTOFL
 70
     1
  9
$DIMTVP
 40
0.0
  9
$DIMTIX
 70
     0
  9
$DIMSOXD
 70
     0
  9
$DIMSAH
 70
     0
  9
$DIMBLK1
  1

  9
$DIMBLK2
  1

  9
$DIMSTYLE
  2
ISO-25
  9
$DIMCLRD
 70
     0
  9
$DIMCLRE
 70
     0
  9
$DIMCLRT
 70
     0
  9
$DIMTFAC
 40
1.0
  9
$DIMGAP
 40
1.524
  9
$DIMJUST
 70
     0
  9
$DIMSD1
 70
     0
  9
$DIMSD2
 70
     0
  9
$DIMTOLJ
 70
     0
  9
$DIMTZIN
 70
     1
  9
$DIMALTZ
 70
     0
  9
$DIMALTTZ
 70
     0
  9
$DIMUPT
 70
     0
  9
$DIMDEC
 70
     2
  9
$DIMTDEC
 70
     2
  9
$DIMALTU
 70
     2
  9
$DIMALTTD
 70
     3
  9
$DIMTXSTY
  7
Standard
  9
$DIMAUNIT
 70
     0
  9
$DIMADEC
 70
     2
  9
$DIMALTRND
 40
0.0
  9
$DIMAZIN
 70
     0
  9
$DIMDSEP
 70
    44
  9
$DIMATFIT
 70
     3
  9
$DIMFRAC
 70
     0
  9
$DIMLDRBLK
  1

  9
$DIMLUNIT
 70
     2
  9
$DIMLWD
 70
    -2
  9
$DIMLWE
 70
    -2
  9
$DIMTMOVE
 70
     0
  9
$LUNITS
 70
     2
  9
$LUPREC
 70
     2
  9
$SKETCHINC
 40
1.0
  9
$FILLETRAD
 40
10.0
  9
$AUNITS
 70
     0
  9
$AUPREC
 70
     2
  9
$MENU
  1
.
  9
$ELEVATION
 40
0.0
  9
$PELEVATION
 40
0.0
  9
$THICKNESS
 40
0.0
  9
$LIMCHECK
 70
     0
  9
$CHAMFERA
 40
0.0
  9
$CHAMFERB
 40
0.0
  9
$CHAMFERC
 40
0.0
  9
$CHAMFERD
 40
0.0
  9
$SKPOLY
 70
     0
  9
$TDCREATE
 40
2459144.568572604
  9
$TDUCREATE
 40
2459144.526905938
  9
$TDUPDATE
 40
2459144.56861978
  9
$TDUUPDATE
 40
2459144.526953113
  9
$TDINDWG
 40
0.0000000116
  9
$TDUSRTIMER
 40
0.0000000116
  9
$USRTIMER
 70
     1
  9
$ANGBASE
 50
0.0
  9
$ANGDIR
 70
     0
  9
$PDMODE
 70
     0
  9
$PDSIZE
 40
-1.0
  9
$PLINEWID
 40
0.0
  9
$SPLFRAME
 70
     0
  9
$SPLINETYPE
 70
     6
  9
$SPLINESEGS
 70
     8
  9
$HANDSEED
  5
368
  9
$SURFTAB1
 70
     6
  9
$SURFTAB2
 70
     6
  9
$SURFTYPE
 70
     6
  9
$SURFU
 70
     6
  9
$SURFV
 70
     6
  9
$UCSBASE
  2

  9
$UCSNAME
  2

  9
$UCSORG
 10
0.0
 20
0.0
 30
0.0
  9
$UCSXDIR
 10
1.0
 20
0.0
 30
0.0
  9
$UCSYDIR
 10
0.0
 20
1.0
 30
0.0
  9
$UCSORTHOREF
  2

  9
$UCSORTHOVIEW
 70
     0
  9
$UCSORGTOP
 10
0.0
 20
0.0
 30
0.0
  9
$UCSORGBOTTOM
 10
0.0
 20
0.0
 30
0.0
  9
$UCSORGLEFT
 10
0.0
 20
0.0
 30
0.0
  9
$UCSORGRIGHT
 10
0.0
 20
0.0
 30
0.0
  9
$UCSORGFRONT
 10
0.0
 20
0.0
 30
0.0
  9
$UCSORGBACK
 10
0.0
 20
0.0
 30
0.0
  9
$PUCSBASE
  2

  9
$PUCSNAME
  2

  9
$PUCSORG
 10
0.0
 20
0.0
 30
0.0
  9
$PUCSXDIR
 10
1.0
 20
0.0
 30
0.0
  9
$PUCSYDIR
 10
0.0
 20
1.0
 30
0.0
  9
$PUCSORTHOREF
  2

  9
$PUCSORTHOVIEW
 70
     0
  9
$PUCSORGTOP
 10
0.0
 20
0.0
 30
0.0
  9
$PUCSORGBOTTOM
 10
0.0
 20
0.0
 30
0.0
  9
$PUCSORGLEFT
 10
0.0
 20
0.0
 30
0.0
  9
$PUCSORGRIGHT
 10
0.0
 20
0.0
 30
0.0
  9
$PUCSORGFRONT
 10
0.0
 20
0.0
 30
0.0
  9
$PUCSORGBACK
 10
0.0
 20
0.0
 30
0.0
  9
$USERI1
 70
     0
  9
$USERI2
 70
     0
  9
$USERI3
 70
     0
  9
$USERI4
 70
     0
  9
$USERI5
 70
     0
  9
$USERR1
 40
0.0
  9
$USERR2
 40
0.0
  9
$USERR3
 40
0.0
  9
$USERR4
 40
0.0
  9
$USERR5
 40
0.0
  9
$WORLDVIEW
 70
     1
  9
$SHADEDGE
 70
     3
  9
$SHADEDIF
 70
    70
  9
$TILEMODE
 70
     1
  9
$MAXACTVP
 70
    64
  9
$PINSBASE
 10
0.0
 20
0.0
 30
0.0
  9
$PLIMCHECK
 70
     0
  9
$PEXTMIN
 10
0.0
 20
-0.0118441712
 30
0.0
  9
$PEXTMAX
 10
445.0
 20
59.0
 30
0.0
  9
$PLIMMIN
 10
-34.6303501946
 20
-12.9982254942
  9
$PLIMMAX
 10
479.6303501946
 20
350.6204515486
  9
$UNITMODE
 70
     0
  9
$VISRETAIN
 70
     1
  9
$PLINEGEN
 70
     0
  9
$PSLTSCALE
 70
     1
  9
$TREEDEPTH
 70
  3020
  9
$CMLSTYLE
  2
Standard
  9
$CMLJUST
 70
     0
  9
$CMLSCALE
 40
20.0
  9
$PROXYGRAPHICS
 70
     1
  9
$MEASUREMENT
 70
     1
  9
$CELWEIGHT
370
    -1
  9
$ENDCAPS
280
     0
  9
$JOINSTYLE
280
     0
  9
$LWDISPLAY
290
     1
  9
$INSUNITS
 70
     4
  9
$HYPERLINKBASE
  1

  9
$STYLESHEET
  1

  9
$XEDIT
290
     1
  9
$CEPSNTYPE
380
     0
  9
$PSTYLEMODE
290
     1
  9
$FINGERPRINTGUID
  2
{5d39f29c-634f-4d0c-9b65-5a0ca81a5957}
  9
$VERSIONGUID
  2
{FAEB1C32-E019-11D5-929B-00C0DF256EC4}
  9
$EXTNAMES
290
     1
  9
$PSVPSCALE
 40
0.0
  9
$OLESTARTUP
290
     0
  0
ENDSEC
  0
SECTION
  2
CLASSES
  0
CLASS
  1
ACDBDICTIONARYWDFLT
  2
AcDbDictionaryWithDefault
  3
ObjectDBX Classes
 90
        0
280
     0
281
     0
  0
CLASS
  1
VISUALSTYLE
  2
AcDbVisualStyle
  3
ObjectDBX Classes
 90
     4095
280
     0
281
     0
  0
CLASS
  1
MATERIAL
  2
AcDbMaterial
  3
ObjectDBX Classes
 90
     1153
280
     0
281
     0
  0
CLASS
  1
SCALE
  2
AcDbScale
  3
ObjectDBX Classes
 90
     1153
280
     0
281
     0
  0
CLASS
  1
TABLESTYLE
  2
AcDbTableStyle
  3
ObjectDBX Classes
 90
     4095
280
     0
281
     0
  0
CLASS
  1
MLEADERSTYLE
  2
AcDbMLeaderStyle
  3
ACDB_MLEADERSTYLE_CLASS
 90
     4095
280
     0
281
     0
  0
CLASS
  1
SUN
  2
AcDbSun
  3
SCENEOE
 90
     1153
280
     0
281
     0
  0
CLASS
  1
ACDBPLACEHOLDER
  2
AcDbPlaceHolder
  3
ObjectDBX Classes
 90
        0
280
     0
281
     0
  0
CLASS
  1
LAYOUT
  2
AcDbLayout
  3
ObjectDBX Classes
 90
        0
280
     0
281
     0
  0
ENDSEC
  0
SECTION
  2
TABLES
  0
TABLE
  2
VPORT
  5
8
330
0
100
AcDbSymbolTable
 70
     1
  0
VPORT
  5
29
330
8
100
AcDbSymbolTableRecord
100
AcDbViewportTableRecord
  2
*Active
 70
     0
 10
0.0
 20
0.0
 11
1.0
 21
1.0
 12
0.0
 22
29.5
 13
0.0
 23
0.0
 14
10.0
 24
10.0
 15
10.0
 25
10.0
 16
0.0
 26
0.0
 36
1.0
 17
0.0
 27
0.0
 37
0.0
 40
60.18
 41
6.0169491525
 42
50.0
 43
0.0
 44
0.0
 50
0.0
 51
0.0
 71
     0
 72
   100
 73
     1
 74
     3
 75
     0
 76
     0
 77
     0
 78
     0
281
     0
 65
     1
110
0.0
120
0.0
130
0.0
111
1.0
121
0.0
131
0.0
112
0.0
122
1.0
132
0.0
 79
     0
146
0.0
  0
ENDTAB
  0
TABLE
  2
LTYPE
  5
5
330
0
100
AcDbSymbolTable
 70
     6
  0
LTYPE
  5
14
330
5
100
AcDbSymbolTableRecord
100
AcDbLinetypeTableRecord
  2
ByBlock
 70
     0
  3

 72
    65
 73
     0
 40
0.0
  0
LTYPE
  5
15
330
5
100
AcDbSymbolTableRecord
100
AcDbLinetypeTableRecord
  2
ByLayer
 70
     0
  3

 72
    65
 73
     0
 40
0.0
  0
LTYPE
  5
16
330
5
100
AcDbSymbolTableRecord
100
AcDbLinetypeTableRecord
  2
Continuous
 70
     0
  3
Solid line
 72
    65
 73
     0
 40
0.0
  0
LTYPE
  5
6E
330
5
100
AcDbSymbolTableRecord
100
AcDbLinetypeTableRecord
  2
HIDDEN
 70
     0
  3
Hidden __ __ __ __ __ __ __ __ __ __ __ __ __ __
 72
    65
 73
     2
 40
1.905
 49
1.27
 74
     0
 49
-0.635
 74
     0
  0
LTYPE
  5
6F
330
5
100
AcDbSymbolTableRecord
100
AcDbLinetypeTableRecord
  2
PHANTOM
 70
     0
  3
Phantom ______  __  __  ______  __  __  ______
 72
    65
 73
     6
 40
12.7
 49
6.35
 74
     0
 49
-1.27
 74
     0
 49
1.27
 74
     0
 49
-1.27
 74
     0
 49
1.27
 74
     0
 49
-1.27
 74
     0
  0
LTYPE
  5
70
330
5
100
AcDbSymbolTableRecord
100
AcDbLinetypeTableRecord
  2
CENTER
 70
     0
  3
Center ____ _ ____ _ ____ _ ____ _ ____ _ ____
 72
    65
 73
     4
 40
10.16
 49
6.35
 74
     0
 49
-1.27
 74
     0
 49
1.27
 74
     0
 49
-1.27
 74
     0
  0
LTYPE
  5
71
330
5
100
AcDbSymbolTableRecord
100
AcDbLinetypeTableRecord
  2
CENTERX2
 70
     0
  3
Center (2x) ________  __  ________  __  _____
 72
    65
 73
     4
 40
20.32
 49
12.7
 74
     0
 49
-2.54
 74
     0
 49
2.54
 74
     0
 49
-2.54
 74
     0
  0
LTYPE
  5
72
330
5
100
AcDbSymbolTableRecord
100
AcDbLinetypeTableRecord
  2
DOT2
 70
     0
  3
Dot (.5x) ........................................
 72
    65
 73
     2
 40
0.635
 49
0.0
 74
     0
 49
-0.635
 74
     0
  0
ENDTAB
  0
TABLE
  2
LAYER
  5
2
330
0
100
AcDbSymbolTable
 70
     1
  0
LAYER
  5
10
330
2
100
AcDbSymbolTableRecord
100
AcDbLayerTableRecord
  2
0
 70
     0
 62
     7
  6
Continuous
370
    -3
390
F
  0
ENDTAB
  0
TABLE
  2
STYLE
  5
3
330
0
100
AcDbSymbolTable
 70
     1
  0
STYLE
  5
11
330
3
100
AcDbSymbolTableRecord
100
AcDbTextStyleTableRecord
  2
Standard
 70
     0
 40
0.0
 41
1.0
 50
0.0
 71
     0
 42
3.5
  3
txt
  4

  0
ENDTAB
  0
TABLE
  2
VIEW
  5
6
330
0
100
AcDbSymbolTable
 70
     0
  0
ENDTAB
  0
TABLE
  2
UCS
  5
7
330
0
100
AcDbSymbolTable
 70
     0
  0
ENDTAB
  0
TABLE
  2
APPID
  5
9
330
0
100
AcDbSymbolTable
 70
     1
  0
APPID
  5
12
330
9
100
AcDbSymbolTableRecord
100
AcDbRegAppTableRecord
  2
ACAD
 70
     0
  0
ENDTAB
  0
TABLE
  2
DIMSTYLE
  5
A
330
0
100
AcDbSymbolTable
 70
     1
100
AcDbDimStyleTable
  0
DIMSTYLE
105
27
330
A
100
AcDbSymbolTableRecord
100
AcDbDimStyleTableRecord
  2
ISO-25
 70
     0
 41
2.5
 42
0.625
 43
3.75
 44
1.25
 73
     0
 74
     0
 77
     1
 78
     8
140
2.5
141
2.5
143
0.0393700787
147
0.625
171
     3
172
     1
178
     0
271
     2
272
     2
274
     3
278
    44
283
     0
284
     8
340
11
  0
ENDTAB
  0
TABLE
  2
BLOCK_RECORD
  5
1
330
0
100
AcDbSymbolTable
 70
     2
  0
BLOCK_RECORD
  5
1F
330
1
100
AcDbSymbolTableRecord
100
AcDbBlockTableRecord
  2
*Model_Space
340
22
  0
BLOCK_RECORD
  5
1B
330
1
100
AcDbSymbolTableRecord
100
AcDbBlockTableRecord
  2
*Paper_Space
340
1E
  0
BLOCK_RECORD
  5
23
330
1
100
AcDbSymbolTableRecord
100
AcDbBlockTableRecord
  2
*Paper_Space0
340
26
  0
BLOCK_RECORD
  5
312
330
1
100
AcDbSymbolTableRecord
100
AcDbBlockTableRecord
  2
*Paper_Space1
340
313
  0
ENDTAB
  0
ENDSEC
  0
SECTION
  2
BLOCKS
  0
BLOCK
  5
20
330
1F
100
AcDbEntity
  8
0
100
AcDbBlockBegin
  2
*Model_Space
 70
     0
 10
0.0
 20
0.0
 30
0.0
  3
*Model_Space
  1

  0
ENDBLK
  5
21
330
1F
100
AcDbEntity
  8
0
100
AcDbBlockEnd
  0
BLOCK
  5
1C
330
1B
100
AcDbEntity
 67
     1
  8
0
100
AcDbBlockBegin
  2
*Paper_Space
 70
     0
 10
0.0
 20
0.0
 30
0.0
  3
*Paper_Space
  1

  0
ENDBLK
  5
1D
330
1B
100
AcDbEntity
 67
     1
  8
0
100
AcDbBlockEnd
  0
BLOCK
  5
24
330
23
100
AcDbEntity
  8
0
100
AcDbBlockBegin
  2
*Paper_Space0
 70
     0
 10
0.0
 20
0.0
 30
0.0
  3
*Paper_Space0
  1

  0
SPLINE
  5
16D
330
23
100
AcDbEntity
  8
0
  6
Continuous
 62
     7
370
    25
100
AcDbSpline
210
0.0
220
0.0
230
1.0
 70
     8
 71
     3
 72
    36
 73
    32
 74
     0
 42
0.000000001
 43
0.00000001
 40
0.0
 40
0.0
 40
0.0
 40
0.0
 40
0.1249999999999995
 40
0.1249999999999995
 40
0.1874999999999993
 40
0.1874999999999993
 40
0.2499999999999991
 40
0.2499999999999991
 40
0.312499999999999
 40
0.312499999999999
 40
0.3749999999999989
 40
0.3749999999999989
 40
0.4999999999999992
 40
0.4999999999999992
 40
0.5312499999999992
 40
0.5312499999999992
 40
0.5624999999999991
 40
0.5624999999999991
 40
0.6249999999999992
 40
0.6249999999999992
 40
0.6874999999999994
 40
0.6874999999999994
 40
0.7499999999999997
 40
0.7499999999999997
 40
0.8124999999999999
 40
0.8124999999999999
 40
0.875
 40
0.875
 40
0.9375
 40
0.9375
 40
1.0
 40
1.0
 40
1.0
 40
1.0
 10
-22.47426332569487
 20
24.9630005637696
 30
0.0
 10
-23.15314079374215
 20
24.54179285468763
 30
0.0
 10
-23.7631723358099
 20
24.05136626320722
 30
0.0
 10
-24.58731489045935
 20
23.20295873899136
 30
0.0
 10
-24.84767327691718
 20
22.89927359052998
 30
0.0
 10
-25.32486608234343
 20
22.26545575120517
 30
0.0
 10
-25.5431734542737
 20
21.93415868201953
 30
0.0
 10
-25.93919754946369
 20
21.24106831730763
 30
0.0
 10
-26.11692340597472
 20
20.87928969825922
 30
0.0
 10
-26.42928188037934
 20
20.12196814230835
 30
0.0
 10
-26.56441211440465
 20
19.72318618628702
 30
0.0
 10
-26.88694803754515
 20
18.51382736630547
 30
0.0
 10
-26.99860296464897
 20
17.68066246672659
 30
0.0
 10
-27.00033325225456
 20
16.60240104672797
 30
0.0
 10
-26.99358616705468
 20
16.38499648384853
 30
0.0
 10
-26.96632240829888
 20
15.95487579909072
 30
0.0
 10
-26.9458273844197
 20
15.74109575670582
 30
0.0
 10
-26.86428601951364
 20
15.1034922032896
 30
0.0
 10
-26.78326606311047
 20
14.68339097512778
 30
0.0
 10
-26.56864579106053
 20
13.85293476867799
 30
0.0
 10
-26.43423869692884
 20
13.44173178794622
 30
0.0
 10
-26.12204060889623
 20
12.65280908951222
 30
0.0
 10
-25.94358851712851
 20
12.2718481300596
 30
0.0
 10
-25.54361922830659
 20
11.53518735617212
 30
0.0
 10
-25.32057747067723
 20
11.17756372484202
 30
0.0
 10
-24.84030331686726
 20
10.50010692445511
 30
0.0
 10
-24.5830027535547
 20
10.1794325281169
 30
0.0
 10
-24.03442388550427
 20
9.571719377226644
 30
0.0
 10
-23.7431526025423
 20
9.284685909826312
 30
0.0
 10
-23.12461236828477
 20
8.74378857942862
 30
0.0
 10
-22.79981730432149
 20
8.492374383824414
 30
0.0
 10
-22.46315920978839
 20
8.262622978099627
 30
0.0
  0
SPLINE
  5
16E
330
23
100
AcDbEntity
  8
0
  6
Continuous
 62
     7
370
    25
100
AcDbSpline
210
0.0
220
0.0
230
1.0
 70
     8
 71
     3
 72
    30
 73
    26
 74
     0
 42
0.000000001
 43
0.00000001
 40
0.0
 40
0.0
 40
0.0
 40
0.0
 40
0.0625
 40
0.0625
 40
0.125
 40
0.125
 40
0.25
 40
0.25
 40
0.3125
 40
0.3125
 40
0.375
 40
0.375
 40
0.5
 40
0.5
 40
0.625
 40
0.625
 40
0.6875
 40
0.6875
 40
0.75
 40
0.75
 40
0.875
 40
0.875
 40
0.9375
 40
0.9375
 40
1.0
 40
1.0
 40
1.0
 40
1.0
 10
-22.47426332569485
 20
24.96300056376957
 30
0.0
 10
-22.39052999774318
 20
24.87240780292316
 30
0.0
 10
-22.3033337485914
 20
24.7789029200497
 30
0.0
 10
-22.12213773302955
 20
24.58617220202419
 30
0.0
 10
-22.02813796661949
 20
24.48694636687218
 30
0.0
 10
-21.7361168792147
 20
24.18084237066176
 30
0.0
 10
-21.5280687792552
 20
23.96553294440382
 30
0.0
 10
-21.19574406404168
 20
23.62553922617899
 30
0.0
 10
-21.0815844381926
 20
23.50936190932071
 30
0.0
 10
-20.84634404912607
 20
23.27118756571228
 30
0.0
 10
-20.72595283959281
 20
23.14989110697677
 30
0.0
 10
-20.35880935199811
 20
22.78169992959028
 30
0.0
 10
-20.10521253005825
 20
22.52961082795302
 30
0.0
 10
-19.58069054984433
 20
22.0124315785597
 30
0.0
 10
-19.30976578410004
 20
21.74734172530954
 30
0.0
 10
-18.89004572329595
 20
21.33970357275575
 30
0.0
 10
-18.7474177354212
 20
21.20167847078858
 30
0.0
 10
-18.46088897065757
 20
20.92537794444066
 30
0.0
 10
-18.31685480269855
 20
20.7869690960942
 30
0.0
 10
-17.88248993371762
 20
20.37098258089182
 30
0.0
 10
-17.58990508164073
 20
20.09264770312335
 30
0.0
 10
-17.14654747453736
 20
19.67364036133318
 30
0.0
 10
-16.99801390076658
 20
19.53371941763102
 30
0.0
 10
-16.69942605623533
 20
19.25336736202305
 30
0.0
 10
-16.54937178547486
 20
19.11293625011723
 30
0.0
 10
-16.39854452246103
 20
18.97224679977985
 30
0.0
  0
SPLINE
  5
16F
330
23
100
AcDbEntity
  8
0
  6
Continuous
 62
     7
370
    25
100
AcDbSpline
210
0.0
220
0.0
230
1.0
 70
     8
 71
     3
 72
    24
 73
    20
 74
     0
 42
0.000000001
 43
0.00000001
 40
0.0
 40
0.0
 40
0.0
 40
0.0
 40
0.1250000000000011
 40
0.1250000000000011
 40
0.2500000000000023
 40
0.2500000000000023
 40
0.3750000000000034
 40
0.3750000000000034
 40
0.5000000000000046
 40
0.5000000000000046
 40
0.5625000000000042
 40
0.5625000000000042
 40
0.6250000000000039
 40
0.6250000000000039
 40
0.7500000000000026
 40
0.7500000000000026
 40
0.8750000000000013
 40
0.8750000000000013
 40
1.0
 40
1.0
 40
1.0
 40
1.0
 10
-16.39854452246106
 20
18.97224679977982
 30
0.0
 10
-16.56134604689155
 20
18.78561704881146
 30
0.0
 10
-16.70032253921142
 20
18.5827920804216
 30
0.0
 10
-16.94939295093132
 20
18.16433064816786
 30
0.0
 10
-17.05884815823528
 20
17.94689997068139
 30
0.0
 10
-17.24600548840757
 20
17.49477242934541
 30
0.0
 10
-17.3235918214658
 20
17.25868765464433
 30
0.0
 10
-17.43049178904102
 20
16.78348482612441
 30
0.0
 10
-17.46032044839722
 20
16.5423492174063
 30
0.0
 10
-17.4607486159758
 20
16.17401547346608
 30
0.0
 10
-17.45337940430856
 20
16.04954741111858
 30
0.0
 10
-17.42497206636092
 20
15.80575882825785
 30
0.0
 10
-17.40404536137633
 20
15.68557621308395
 30
0.0
 10
-17.32408063812522
 20
15.32940354656645
 30
0.0
 10
-17.24822330739236
 20
15.09769567038191
 30
0.0
 10
-17.06075395496965
 20
14.64338301599869
 30
0.0
 10
-16.94990657917975
 20
14.42292110124588
 30
0.0
 10
-16.69982991091085
 20
14.00276514755724
 30
0.0
 10
-16.56145740094829
 20
13.80089745111462
 30
0.0
 10
-16.39854452246104
 20
13.61414004790248
 30
0.0
  0
SPLINE
  5
170
330
23
100
AcDbEntity
  8
0
  6
Continuous
 62
     7
370
    25
100
AcDbSpline
210
0.0
220
0.0
230
1.0
 70
     8
 71
     3
 72
    32
 73
    28
 74
     0
 42
0.000000001
 43
0.00000001
 40
0.0
 40
0.0
 40
0.0
 40
0.0
 40
0.032421934311736
 40
0.0641653493997608
 40
0.0952305402923439
 40
0.1256177817208483
 40
0.1553273281153017
 40
0.1843594136099004
 40
0.2127142520581536
 40
0.240392037057385
 40
0.2673929419822651
 40
0.2937171200272168
 40
0.3193647042574482
 40
0.3443358076684775
 40
0.3686305232540915
 40
0.3922489240827131
 40
0.4151910633822667
 40
0.43745697463374
 40
0.4590466716737466
 40
0.4799601488065642
 40
0.5001973809263321
 40
0.6376938275243348
 40
0.7503129733066526
 40
0.8267222982107144
 40
0.8938011218750608
 40
0.9515636623884409
 40
1.0
 40
1.0
 40
1.0
 40
1.0
 10
-22.4631592097884
 20
8.262622978099653
 30
0.0
 10
-22.41957930606579
 20
8.297027596222778
 30
0.0
 10
-22.33333152941303
 20
8.365116820067687
 30
0.0
 10
-22.19789842992257
 20
8.47365208211215
 30
0.0
 10
-22.06032944057979
 20
8.584964985975107
 30
0.0
 10
-21.92056413237034
 20
8.69913540582945
 30
0.0
 10
-21.77919662129715
 20
8.815583346952899
 30
0.0
 10
-21.63662651240809
 20
8.933921165617281
 30
0.0
 10
-21.49327898583529
 20
9.053732935500463
 30
0.0
 10
-21.34954786263563
 20
9.174631790605014
 30
0.0
 10
-21.20581053504497
 20
9.296245149453263
 30
0.0
 10
-21.06242439425015
 20
9.418218500231113
 30
0.0
 10
-20.91972813277718
 20
9.540214288399628
 30
0.0
 10
-20.77804186149947
 20
9.661911986851873
 30
0.0
 10
-20.6376676182195
 20
9.783007767895203
 30
0.0
 10
-20.49888977867785
 20
9.903214260542692
 30
0.0
 10
-20.36197575056338
 20
10.02226003664572
 30
0.0
 10
-20.2271759058558
 20
10.13988978267746
 30
0.0
 10
-20.09472636426721
 20
10.25586185810873
 30
0.0
 10
-19.96484174598577
 20
10.36995500380336
 30
0.0
 10
-19.59084926701856
 20
10.69948354676331
 30
0.0
 10
-19.00057696714265
 20
11.22545397537012
 30
0.0
 10
-18.2546802048971
 20
11.90009933874531
 30
0.0
 10
-17.65628034955981
 20
12.44778538863237
 30
0.0
 10
-17.18035926838908
 20
12.88689922435043
 30
0.0
 10
-16.76770489022591
 20
13.26949467241392
 30
0.0
 10
-16.51417650267141
 20
13.50618689063543
 30
0.0
 10
-16.39854452246106
 20
13.61414004790248
 30
0.0
  0
SPLINE
  5
171
330
23
100
AcDbEntity
  8
0
  6
Continuous
 62
     7
370
    25
100
AcDbSpline
210
0.0
220
0.0
230
1.0
 70
     8
 71
     3
 72
    24
 73
    20
 74
     0
 42
0.000000001
 43
0.00000001
 40
0.0
 40
0.0
 40
0.0
 40
0.0
 40
0.1250000000000008
 40
0.1250000000000008
 40
0.2500000000000016
 40
0.2500000000000016
 40
0.3750000000000024
 40
0.3750000000000024
 40
0.5000000000000041
 40
0.5000000000000041
 40
0.5625000000000041
 40
0.5625000000000041
 40
0.625000000000004
 40
0.625000000000004
 40
0.7500000000000027
 40
0.7500000000000027
 40
0.8750000000000014
 40
0.8750000000000014
 40
1.0
 40
1.0
 40
1.0
 40
1.0
 10
16.39854452246107
 20
13.61414004790254
 30
0.0
 10
16.56134604689156
 20
13.8007697988709
 30
0.0
 10
16.70032253921144
 20
14.00359476726076
 30
0.0
 10
16.94939295093134
 20
14.4220561995145
 30
0.0
 10
17.05884815823529
 20
14.63948687700101
 30
0.0
 10
17.24600548840758
 20
15.09161441833698
 30
0.0
 10
17.3235918214658
 20
15.32769919303803
 30
0.0
 10
17.43049178904102
 20
15.80290202155793
 30
0.0
 10
17.46032044839723
 20
16.04403763027604
 30
0.0
 10
17.4607486159758
 20
16.41237137421625
 30
0.0
 10
17.45337940430857
 20
16.53683943656376
 30
0.0
 10
17.42497206636092
 20
16.78062801942451
 30
0.0
 10
17.40404536137633
 20
16.90081063459842
 30
0.0
 10
17.32408063812523
 20
17.25698330111588
 30
0.0
 10
17.24822330739236
 20
17.48869117730042
 30
0.0
 10
17.06075395496965
 20
17.94300383168368
 30
0.0
 10
16.94990657917975
 20
18.16346574643651
 30
0.0
 10
16.69982991091085
 20
18.58362170012515
 30
0.0
 10
16.5614574009483
 20
18.78548939656771
 30
0.0
 10
16.39854452246105
 20
18.97224679977985
 30
0.0
  0
SPLINE
  5
172
330
23
100
AcDbEntity
  8
0
  6
Continuous
 62
     7
370
    25
100
AcDbSpline
210
0.0
220
0.0
230
1.0
 70
     8
 71
     3
 72
    30
 73
    26
 74
     0
 42
0.000000001
 43
0.00000001
 40
0.0
 40
0.0
 40
0.0
 40
0.0
 40
0.0625
 40
0.0625
 40
0.125
 40
0.125
 40
0.25
 40
0.25
 40
0.3125
 40
0.3125
 40
0.375
 40
0.375
 40
0.5
 40
0.5
 40
0.625
 40
0.625
 40
0.6875
 40
0.6875
 40
0.75
 40
0.75
 40
0.875
 40
0.875
 40
0.9375
 40
0.9375
 40
1.0
 40
1.0
 40
1.0
 40
1.0
 10
22.46315920978839
 20
24.96987989088417
 30
0.0
 10
22.37952347926906
 20
24.87914790149923
 30
0.0
 10
22.29243504418051
 20
24.78550301536384
 30
0.0
 10
22.11147433786716
 20
24.59249043695616
 30
0.0
 10
22.01760206664238
 20
24.49312274468391
 30
0.0
 10
21.72599185826699
 20
24.18658993970796
 30
0.0
 10
21.5182555760981
 20
23.97099034737105
 30
0.0
 10
21.18645471667368
 20
23.6305537868759
 30
0.0
 10
21.07247910015083
 20
23.5142275954579
 30
0.0
 10
20.83762583495199
 20
23.27575284337441
 30
0.0
 10
20.71746283690868
 20
23.15433223463001
 30
0.0
 10
20.35098839616501
 20
22.78573237233089
 30
0.0
 10
20.09786212639672
 20
22.53336601648837
 30
0.0
 10
19.57432704000248
 20
22.01562111161898
 30
0.0
 10
19.30391862725988
 20
21.7502428666797
 30
0.0
 10
18.88500730932635
 20
21.34216278299889
 30
0.0
 10
18.74265739822789
 20
21.2039900748672
 30
0.0
 10
18.45670429954777
 20
20.92740822803024
 30
0.0
 10
18.3129601016016
 20
20.7888579001661
 30
0.0
 10
17.87947133474206
 20
20.37244450873882
 30
0.0
 10
17.58747876998664
 20
20.09382180057973
 30
0.0
 10
17.14502173080211
 20
19.6743778432239
 30
0.0
 10
16.99679037134207
 20
19.53431055143823
 30
0.0
 10
16.69881112972881
 20
19.25366416190458
 30
0.0
 10
16.54906324757558
 20
19.11308506415654
 30
0.0
 10
16.39854452246103
 20
18.97224679977985
 30
0.0
  0
SPLINE
  5
173
330
23
100
AcDbEntity
  8
0
  6
Continuous
 62
     7
370
    25
100
AcDbSpline
210
0.0
220
0.0
230
1.0
 70
     8
 71
     3
 72
    36
 73
    32
 74
     0
 42
0.000000001
 43
0.00000001
 40
0.0
 40
0.0
 40
0.0
 40
0.0
 40
0.1250000000000002
 40
0.1250000000000002
 40
0.1875000000000001
 40
0.1875000000000001
 40
0.2500000000000001
 40
0.2500000000000001
 40
0.3125000000000001
 40
0.3125000000000001
 40
0.375
 40
0.375
 40
0.5000000000000001
 40
0.5000000000000001
 40
0.53125
 40
0.53125
 40
0.5625
 40
0.5625
 40
0.6249999999999999
 40
0.6249999999999999
 40
0.6874999999999998
 40
0.6874999999999998
 40
0.7499999999999996
 40
0.7499999999999996
 40
0.8124999999999997
 40
0.8124999999999997
 40
0.8749999999999998
 40
0.8749999999999998
 40
0.9374999999999999
 40
0.9374999999999999
 40
1.0
 40
1.0
 40
1.0
 40
1.0
 10
22.47426332569488
 20
8.270211715948772
 30
0.0
 10
23.15314079374216
 20
8.734826521649891
 30
0.0
 10
23.7631723358099
 20
9.2705517910677
 30
0.0
 10
24.58731489045937
 20
10.1845512768747
 30
0.0
 10
24.84767327691719
 20
10.50982643332118
 30
0.0
 10
25.32486608234343
 20
11.18430607775672
 30
0.0
 10
25.5431734542737
 20
11.53478777289549
 30
0.0
 10
25.93919754946371
 20
12.26334455285888
 30
0.0
 10
26.11692340597473
 20
12.64140839843511
 30
0.0
 10
26.42928188037934
 20
13.42772414794788
 30
0.0
 10
26.56441211440464
 20
13.83926512512559
 30
0.0
 10
26.88694803754514
 20
15.07930593204679
 30
0.0
 10
26.99860296464896
 20
15.9233881385385
 30
0.0
 10
27.00033325225457
 20
17.00181728082739
 30
0.0
 10
26.99358616705468
 20
17.21856743620365
 30
0.0
 10
26.96632240829887
 20
17.64604830313715
 30
0.0
 10
26.9458273844197
 20
17.85784505213459
 30
0.0
 10
26.86428601951364
 20
18.48758045338228
 30
0.0
 10
26.78326606311046
 20
18.89988181094823
 30
0.0
 10
26.56864579106053
 20
19.70991689362953
 30
0.0
 10
26.43423869692884
 20
20.10842534769242
 30
0.0
 10
26.12204060889624
 20
20.86835941754578
 30
0.0
 10
25.94358851712852
 20
21.23296107184663
 30
0.0
 10
25.5436192283066
 20
21.93379596442077
 30
0.0
 10
25.32057747067724
 20
22.27182309885917
 30
0.0
 10
24.84030331686726
 20
22.90837490787878
 30
0.0
 10
24.5830027535547
 20
23.20772622062523
 30
0.0
 10
24.03442388550428
 20
23.77179526703871
 30
0.0
 10
23.74315260254229
 20
24.03650370169971
 30
0.0
 10
23.12461236828477
 20
24.53254351805706
 30
0.0
 10
22.79981730432149
 20
24.7616190002817
 30
0.0
 10
22.46315920978838
 20
24.96987989088417
 30
0.0
  0
SPLINE
  5
174
330
23
100
AcDbEntity
  8
0
  6
Continuous
 62
     7
370
    25
100
AcDbSpline
210
0.0
220
0.0
230
1.0
 70
     8
 71
     3
 72
    32
 73
    28
 74
     0
 42
0.000000001
 43
0.00000001
 40
0.0
 40
0.0
 40
0.0
 40
0.0
 40
0.0324006173692819
 40
0.0641251165182736
 40
0.0951737797346089
 40
0.1255468699784904
 40
0.1552446308790196
 40
0.1842672867393754
 40
0.2126150425505014
 40
0.2402880840129719
 40
0.2672865775670881
 40
0.2936106704304803
 40
0.319260490643642
 40
0.3442361471228182
 40
0.3685377297203975
 40
0.39216530929278
 40
0.4151189377757883
 40
0.4373986482677911
 40
0.459004455120878
 40
0.4799363540404832
 40
0.5001943221940717
 40
0.6376502198035299
 40
0.7503107416270095
 40
0.8267008105286513
 40
0.8937737800305093
 40
0.9515432472999245
 40
1.0
 40
1.0
 40
1.0
 40
1.0
 10
22.47426332569483
 20
8.27021171594891
 30
0.0
 10
22.43066093543465
 20
8.304508755485774
 30
0.0
 10
22.34436602555555
 20
8.372387142846938
 30
0.0
 10
22.20884533957604
 20
8.480602914382379
 30
0.0
 10
22.07117205276318
 20
8.591604289480914
 30
0.0
 10
21.93128461084318
 20
8.705472159732025
 30
0.0
 10
21.78977734643449
 20
8.821628272831173
 30
0.0
 10
21.64704980240391
 20
8.93968639331219
 30
0.0
 10
21.50352725125097
 20
9.059231925993089
 30
0.0
 10
21.35960363423917
 20
9.179879203114915
 30
0.0
 10
21.21565651760915
 20
9.30125672684995
 30
0.0
 10
21.07204350499144
 20
9.423010956055911
 30
0.0
 10
20.92910353590567
 20
9.54480519962464
 30
0.0
 10
20.78715699604244
 20
9.666319691730706
 30
0.0
 10
20.64650622027814
 20
9.787251269253783
 30
0.0
 10
20.50743589790327
 20
9.907313134485257
 30
0.0
 10
20.37021376221349
 20
10.02623434697794
 30
0.0
 10
20.23509051501343
 20
10.14376000025288
 30
0.0
 10
20.10230261630359
 20
10.2596487874059
 30
0.0
 10
19.97206499265587
 20
10.37367970999001
 30
0.0
 10
19.59737876267995
 20
10.70274798613352
 30
0.0
 10
19.0059251532354
 20
11.22806402001436
 30
0.0
 10
18.25860265626616
 20
11.90186302395602
 30
0.0
 10
17.65895210471141
 20
12.44894367826385
 30
0.0
 10
17.18210147654396
 20
12.88751803279015
 30
0.0
 10
16.76856451598562
 20
13.26975019105514
 30
0.0
 10
16.51445881484156
 20
13.50625477884118
 30
0.0
 10
16.39854452246107
 20
13.61414004790254
 30
0.0
  0
SPLINE
  5
175
330
23
100
AcDbEntity
  8
0
  6
Continuous
 62
     7
370
    25
100
AcDbSpline
210
0.0
220
0.0
230
1.0
 70
    11
 71
     3
 72
    74
 73
    70
 74
     0
 42
0.000000001
 43
0.00000001
 40
0.0
 40
0.0
 40
0.0
 40
0.0
 40
0.0312499999999999
 40
0.0312499999999999
 40
0.0624999999999998
 40
0.0624999999999998
 40
0.0937499999999996
 40
0.0937499999999996
 40
0.1249999999999995
 40
0.1249999999999995
 40
0.1562499999999994
 40
0.1562499999999994
 40
0.1874999999999993
 40
0.1874999999999993
 40
0.2187499999999991
 40
0.2187499999999991
 40
0.249999999999999
 40
0.249999999999999
 40
0.2812499999999989
 40
0.2812499999999989
 40
0.3124999999999988
 40
0.3124999999999988
 40
0.3437499999999986
 40
0.3437499999999986
 40
0.3749999999999985
 40
0.3749999999999985
 40
0.4062499999999984
 40
0.4062499999999984
 40
0.4374999999999982
 40
0.4374999999999982
 40
0.4687499999999981
 40
0.4687499999999981
 40
0.4843749999999981
 40
0.4843749999999981
 40
0.499999999999998
 40
0.499999999999998
 40
0.5312499999999979
 40
0.5312499999999979
 40
0.5624999999999978
 40
0.5624999999999978
 40
0.5937499999999977
 40
0.5937499999999977
 40
0.6249999999999976
 40
0.6249999999999976
 40
0.6562499999999979
 40
0.6562499999999979
 40
0.6874999999999983
 40
0.6874999999999983
 40
0.7187499999999988
 40
0.7187499999999988
 40
0.7343749999999997
 40
0.7343749999999997
 40
0.7500000000000004
 40
0.7500000000000004
 40
0.7812500000000007
 40
0.7812500000000007
 40
0.8125000000000009
 40
0.8125000000000009
 40
0.8437500000000011
 40
0.8437500000000011
 40
0.8750000000000012
 40
0.8750000000000012
 40
0.9062500000000009
 40
0.9062500000000009
 40
0.9375000000000006
 40
0.9375000000000006
 40
0.9687500000000002
 40
0.9687500000000002
 40
1.0
 40
1.0
 40
1.0
 40
1.0
 10
-69.99999999999999
 20
0.7512860206801419
 30
0.0
 10
-69.99999999999999
 20
0.7730336695346562
 30
0.0
 10
-69.97047087596638
 20
0.8033037308093349
 30
0.0
 10
-69.85508339503316
 20
0.8792017544977659
 30
0.0
 10
-69.76771768478913
 20
0.9254805909832686
 30
0.0
 10
-69.54118685504979
 20
1.028039481285908
 30
0.0
 10
-69.40281694491574
 20
1.084137501595139
 30
0.0
 10
-69.07624580635581
 20
1.201959786337553
 30
0.0
 10
-68.88741198784211
 20
1.263706747195836
 30
0.0
 10
-68.47480391385129
 20
1.382992356749935
 30
0.0
 10
-68.2493878377882
 20
1.441200091039957
 30
0.0
 10
-67.75817500174604
 20
1.549554115912316
 30
0.0
 10
-67.49916868470817
 20
1.598108101430712
 30
0.0
 10
-66.9585274781441
 20
1.6791416439291
 30
0.0
 10
-66.673170148911
 20
1.711982910953869
 30
0.0
 10
-66.09153164207768
 20
1.756141461040667
 30
0.0
 10
-65.79841649512917
 20
1.767442499840982
 30
0.0
 10
-65.207623522581
 20
1.767595684603995
 30
0.0
 10
-64.90748228174874
 20
1.756052935679486
 30
0.0
 10
-64.32890757210949
 20
1.71215428928076
 30
0.0
 10
-64.04753361605121
 20
1.679979470475879
 30
0.0
 10
-63.50056161485795
 20
1.598137568985997
 30
0.0
 10
-63.24016571641273
 20
1.549161590353537
 30
0.0
 10
-62.75457048169135
 20
1.442099623840232
 30
0.0
 10
-62.52562511283536
 20
1.383137213982477
 30
0.0
 10
-62.11033993049176
 20
1.263035907041854
 30
0.0
 10
-61.92527018070086
 20
1.202459254284194
 30
0.0
 10
-61.59936170193849
 20
1.084970470346253
 30
0.0
 10
-61.45788392383162
 20
1.027636579794516
 30
0.0
 10
-61.23229969151789
 20
0.9254705945400676
 30
0.0
 10
-61.14638346505458
 20
0.8800604487615993
 30
0.0
 10
-61.05887812053916
 20
0.8226604783844182
 30
0.0
 10
-61.03665543212821
 20
0.8052641817891115
 30
0.0
 10
-61.00734785078615
 20
0.775066753783471
 30
0.0
 10
-61.00006278748141
 20
0.7621580100933278
 30
0.0
 10
-60.99987563441232
 20
0.7299578323573808
 30
0.0
 10
-61.0287100843773
 20
0.717171240691955
 30
0.0
 10
-61.14531587056364
 20
0.708965036701481
 30
0.0
 10
-61.2313466363948
 20
0.7135451808293614
 30
0.0
 10
-61.45665378143136
 20
0.7367712422210182
 30
0.0
 10
-61.59785645281845
 20
0.7557380155539528
 30
0.0
 10
-61.92398918881884
 20
0.8025658343184805
 30
0.0
 10
-62.10911455690529
 20
0.830392083525755
 30
0.0
 10
-62.52418172044614
 20
0.8900888018818776
 30
0.0
 10
-62.7531561184793
 20
0.9217519336569835
 30
0.0
 10
-63.23807727419469
 20
0.9815163696109686
 30
0.0
 10
-63.49646190151827
 20
1.009982009605948
 30
0.0
 10
-64.04491245334742
 20
1.059014536676312
 30
0.0
 10
-64.32626522711794
 20
1.078767868586405
 30
0.0
 10
-64.75882898524037
 20
1.099099999936182
 30
0.0
 10
-64.90478467302962
 20
1.10433299303328
 30
0.0
 10
-65.20035256028022
 20
1.11139900545687
 30
0.0
 10
-65.35037529627995
 20
1.113209621991157
 30
0.0
 10
-65.79534143826596
 20
1.113240658814463
 30
0.0
 10
-66.088616316234
 20
1.106166809574122
 30
0.0
 10
-66.66853217449935
 20
1.07911384666709
 30
0.0
 10
-66.95554800406777
 20
1.058938532960935
 30
0.0
 10
-67.49771351799443
 20
1.010537233210679
 30
0.0
 10
-67.75630834941126
 20
0.9821888478596663
 30
0.0
 10
-68.24836057464239
 20
0.9215843157172887
 30
0.0
 10
-68.47399922080984
 20
0.8903386262114066
 30
0.0
 10
-68.88677350170323
 20
0.8309951126211357
 30
0.0
 10
-69.07560298246575
 20
0.8026248532638225
 30
0.0
 10
-69.40236739362744
 20
0.7557054139903374
 30
0.0
 10
-69.54060441702788
 20
0.7371123677823999
 30
0.0
 10
-69.76681282979546
 20
0.713677606086871
 30
0.0
 10
-69.85462227197581
 20
0.7090149958675906
 30
0.0
 10
-69.97045634321817
 20
0.7170586838763648
 30
0.0
 10
-69.99999999999999
 20
0.7295383718256276
 30
0.0
 10
-69.99999999999999
 20
0.7512860206801419
 30
0.0
  0
SPLINE
  5
176
330
23
100
AcDbEntity
  8
0
  6
Continuous
 62
     7
370
    25
100
AcDbSpline
210
0.0
220
0.0
230
1.0
 70
    11
 71
     3
 72
    74
 73
    70
 74
     0
 42
0.000000001
 43
0.00000001
 40
0.0
 40
0.0
 40
0.0
 40
0.0
 40
0.0312500000000007
 40
0.0312500000000007
 40
0.0625000000000014
 40
0.0625000000000014
 40
0.0937500000000021
 40
0.0937500000000021
 40
0.1250000000000028
 40
0.1250000000000028
 40
0.1562500000000036
 40
0.1562500000000036
 40
0.1875000000000042
 40
0.1875000000000042
 40
0.2187500000000049
 40
0.2187500000000049
 40
0.2500000000000057
 40
0.2500000000000057
 40
0.2812500000000064
 40
0.2812500000000064
 40
0.3125000000000071
 40
0.3125000000000071
 40
0.3437500000000078
 40
0.3437500000000078
 40
0.3750000000000085
 40
0.3750000000000085
 40
0.4062500000000092
 40
0.4062500000000092
 40
0.4375000000000099
 40
0.4375000000000099
 40
0.4687500000000106
 40
0.4687500000000106
 40
0.4843750000000108
 40
0.4843750000000108
 40
0.500000000000011
 40
0.500000000000011
 40
0.5312500000000113
 40
0.5312500000000113
 40
0.5625000000000118
 40
0.5625000000000118
 40
0.5937500000000121
 40
0.5937500000000121
 40
0.6250000000000124
 40
0.6250000000000124
 40
0.6562500000000134
 40
0.6562500000000134
 40
0.6875000000000143
 40
0.6875000000000143
 40
0.7187500000000153
 40
0.7187500000000153
 40
0.7343750000000151
 40
0.7343750000000151
 40
0.7500000000000149
 40
0.7500000000000149
 40
0.781250000000013
 40
0.781250000000013
 40
0.8125000000000112
 40
0.8125000000000112
 40
0.8437500000000093
 40
0.8437500000000093
 40
0.8750000000000074
 40
0.8750000000000074
 40
0.9062500000000057
 40
0.9062500000000057
 40
0.9375000000000038
 40
0.9375000000000038
 40
0.968750000000002
 40
0.968750000000002
 40
1.0
 40
1.0
 40
1.0
 40
1.0
 10
61.0
 20
0.7512860206801549
 30
0.0
 10
60.99999999999999
 20
0.7730336695346562
 30
0.0
 10
61.02952912403356
 20
0.8033037308093349
 30
0.0
 10
61.14491660496682
 20
0.8792017544977659
 30
0.0
 10
61.2322823152109
 20
0.9254805909832686
 30
0.0
 10
61.45881314495021
 20
1.028039481285908
 30
0.0
 10
61.59718305508431
 20
1.084137501595139
 30
0.0
 10
61.92375419364419
 20
1.201959786337553
 30
0.0
 10
62.11258801215791
 20
1.263706747195836
 30
0.0
 10
62.52519608614872
 20
1.382992356749935
 30
0.0
 10
62.75061216221178
 20
1.441200091039957
 30
0.0
 10
63.24182499825397
 20
1.549554115912316
 30
0.0
 10
63.50083131529184
 20
1.598108101430712
 30
0.0
 10
64.04147252185588
 20
1.6791416439291
 30
0.0
 10
64.32682985108899
 20
1.711982910953869
 30
0.0
 10
64.90846835792236
 20
1.756141461040667
 30
0.0
 10
65.20158350487085
 20
1.767442499840982
 30
0.0
 10
65.79237647741904
 20
1.767595684603995
 30
0.0
 10
66.09251771825129
 20
1.756052935679486
 30
0.0
 10
66.67109242789054
 20
1.71215428928076
 30
0.0
 10
66.95246638394879
 20
1.679979470475879
 30
0.0
 10
67.49943838514204
 20
1.598137568985997
 30
0.0
 10
67.75983428358732
 20
1.549161590353537
 30
0.0
 10
68.24542951830868
 20
1.442099623840232
 30
0.0
 10
68.4743748871647
 20
1.383137213982477
 30
0.0
 10
68.88966006950824
 20
1.263035907041854
 30
0.0
 10
69.07472981929915
 20
1.202459254284194
 30
0.0
 10
69.40063829806147
 20
1.084970470346253
 30
0.0
 10
69.54211607616838
 20
1.027636579794516
 30
0.0
 10
69.76770030848215
 20
0.9254705945400676
 30
0.0
 10
69.85361653494544
 20
0.8800604487615993
 30
0.0
 10
69.94112187946091
 20
0.8226604783844182
 30
0.0
 10
69.96334456787179
 20
0.8052641817891115
 30
0.0
 10
69.99265214921384
 20
0.775066753783471
 30
0.0
 10
69.9999372125186
 20
0.7621580100933278
 30
0.0
 10
70.00012436558768
 20
0.7299578323573808
 30
0.0
 10
69.97128991562269
 20
0.717171240691955
 30
0.0
 10
69.85468412943638
 20
0.708965036701481
 30
0.0
 10
69.76865336360517
 20
0.7135451808293614
 30
0.0
 10
69.54334621856869
 20
0.7367712422210182
 30
0.0
 10
69.40214354718155
 20
0.7557380155539528
 30
0.0
 10
69.07601081118118
 20
0.8025658343184805
 30
0.0
 10
68.89088544309475
 20
0.830392083525755
 30
0.0
 10
68.47581827955388
 20
0.8900888018818776
 30
0.0
 10
68.24684388152069
 20
0.9217519336569835
 30
0.0
 10
67.76192272580533
 20
0.9815163696109686
 30
0.0
 10
67.50353809848178
 20
1.009982009605948
 30
0.0
 10
66.95508754665259
 20
1.059014536676312
 30
0.0
 10
66.67373477288206
 20
1.078767868586405
 30
0.0
 10
66.24117101475966
 20
1.099099999936182
 30
0.0
 10
66.09521532697042
 20
1.10433299303328
 30
0.0
 10
65.79964743971983
 20
1.11139900545687
 30
0.0
 10
65.64962470372005
 20
1.113209621991157
 30
0.0
 10
65.20465856173409
 20
1.113240658814463
 30
0.0
 10
64.91138368376602
 20
1.106166809574122
 30
0.0
 10
64.33146782550068
 20
1.07911384666709
 30
0.0
 10
64.04445199593225
 20
1.058938532960935
 30
0.0
 10
63.50228648200557
 20
1.010537233210679
 30
0.0
 10
63.24369165058874
 20
0.9821888478596663
 30
0.0
 10
62.75163942535757
 20
0.9215843157172887
 30
0.0
 10
62.52600077919021
 20
0.8903386262114066
 30
0.0
 10
62.11322649829678
 20
0.8309951126211357
 30
0.0
 10
61.92439701753429
 20
0.8026248532638225
 30
0.0
 10
61.59763260637254
 20
0.7557054139903374
 30
0.0
 10
61.45939558297214
 20
0.7371123677823999
 30
0.0
 10
61.23318717020454
 20
0.713677606086871
 30
0.0
 10
61.1453777280242
 20
0.7090149958675906
 30
0.0
 10
61.02954365678181
 20
0.7170586838763648
 30
0.0
 10
61.00000000000001
 20
0.7295383718256554
 30
0.0
 10
61.0
 20
0.7512860206801548
 30
0.0
  0
SPLINE
  5
179
330
23
100
AcDbEntity
  8
0
  6
Continuous
 62
     7
370
    25
100
AcDbSpline
210
0.0
220
0.0
230
1.0
 70
     8
 71
     3
 72
    18
 73
    14
 74
     0
 42
0.000000001
 43
0.00000001
 40
0.0
 40
0.0
 40
0.0
 40
0.0
 40
0.25
 40
0.25
 40
0.375
 40
0.375
 40
0.5
 40
0.5
 40
0.75
 40
0.75
 40
0.875
 40
0.875
 40
1.0
 40
1.0
 40
1.0
 40
1.0
 10
-22.46315920978839
 20
8.262622978099653
 30
0.0
 10
-22.07538720020932
 20
7.997989019349672
 30
0.0
 10
-21.67023869957455
 20
7.760536625692843
 30
0.0
 10
-21.03296152787007
 20
7.446067031428916
 30
0.0
 10
-20.81558078817131
 20
7.34823130847087
 30
0.0
 10
-20.36991970924868
 20
7.167202728442678
 30
0.0
 10
-20.14053320898595
 20
7.083695257651401
 30
0.0
 10
-19.44559107586731
 20
6.860245613753479
 30
0.0
 10
-18.97196391127712
 20
6.746276391626671
 30
0.0
 10
-18.24426482440341
 20
6.630179147754822
 30
0.0
 10
-17.99881356803995
 20
6.600664583929216
 30
0.0
 10
-17.50174259948641
 20
6.560944387777296
 30
0.0
 10
-17.25026201853434
 20
6.550865364205682
 30
0.0
 10
-17.0
 20
6.550865364205682
 30
0.0
  0
SPLINE
  5
17B
330
23
100
AcDbEntity
  8
0
  6
Continuous
 62
     7
370
    25
100
AcDbSpline
210
0.0
220
0.0
230
1.0
 70
     8
 71
     3
 72
    16
 73
    12
 74
     0
 42
0.000000001
 43
0.00000001
 40
0.0
 40
0.0
 40
0.0
 40
0.0
 40
0.25
 40
0.25
 40
0.375
 40
0.375
 40
0.5
 40
0.5
 40
0.75
 40
0.75
 40
1.0
 40
1.0
 40
1.0
 40
1.0
 10
17.00000000000001
 20
6.550865364205682
 30
0.0
 10
17.50244367639584
 20
6.550865364205682
 30
0.0
 10
17.99513347009483
 20
6.590849924877018
 30
0.0
 10
18.72095766102795
 20
6.706027203592035
 30
0.0
 10
18.96069484218565
 20
6.753664864763309
 30
0.0
 10
19.43594462056029
 20
6.867142195578962
 30
0.0
 10
19.67182256486321
 20
6.933099862305919
 30
0.0
 10
20.37102899406536
 20
7.157586173243163
 30
0.0
 10
20.81605025862156
 20
7.339145795628054
 30
0.0
 10
21.67086691126196
 20
7.760731750345529
 30
0.0
 10
22.08075900620686
 20
8.000902537862038
 30
0.0
 10
22.47426332569485
 20
8.270211715948827
 30
0.0
  0
SPLINE
  5
17C
330
23
100
AcDbEntity
  8
0
  6
Continuous
 62
     7
370
    25
100
AcDbSpline
210
0.0
220
0.0
230
1.0
 70
     8
 71
     3
 72
    18
 73
    14
 74
     0
 42
0.000000001
 43
0.00000001
 40
0.0
 40
0.0
 40
0.0
 40
0.0
 40
0.25
 40
0.25
 40
0.375
 40
0.375
 40
0.5
 40
0.5
 40
0.75
 40
0.75
 40
0.875
 40
0.875
 40
1.0
 40
1.0
 40
1.0
 40
1.0
 10
22.46315920978838
 20
24.96987989088414
 30
0.0
 10
22.07538720020931
 20
25.20976048599549
 30
0.0
 10
21.67023869957455
 20
25.42345140236579
 30
0.0
 10
21.03296152787006
 20
25.70502778255585
 30
0.0
 10
20.8155807881713
 20
25.79236023024953
 30
0.0
 10
20.36991970924867
 20
25.9535643537675
 30
0.0
 10
20.14053320898593
 20
26.02771409466917
 30
0.0
 10
19.44559107586727
 20
26.22572115652378
 30
0.0
 10
18.97196391127709
 20
26.32614206932121
 30
0.0
 10
18.24426482440337
 20
26.42829118974976
 30
0.0
 10
17.99881356803992
 20
26.45421915819121
 30
0.0
 10
17.50174259948638
 20
26.48910014938921
 30
0.0
 10
17.25026201853433
 20
26.49794252905227
 30
0.0
 10
16.99999999999998
 20
26.49794252905227
 30
0.0
  0
SPLINE
  5
17E
330
23
100
AcDbEntity
  8
0
  6
Continuous
 62
     7
370
    25
100
AcDbSpline
210
0.0
220
0.0
230
1.0
 70
     8
 71
     3
 72
    16
 73
    12
 74
     0
 42
0.000000001
 43
0.00000001
 40
0.0
 40
0.0
 40
0.0
 40
0.0
 40
0.25
 40
0.25
 40
0.375
 40
0.375
 40
0.5
 40
0.5
 40
0.75
 40
0.75
 40
1.0
 40
1.0
 40
1.0
 40
1.0
 10
-16.99999999999999
 20
26.49794252905227
 30
0.0
 10
-17.50244367639583
 20
26.49794252905227
 30
0.0
 10
-17.99513347009484
 20
26.46289349950839
 30
0.0
 10
-18.72095766102796
 20
26.3615565444672
 30
0.0
 10
-18.96069484218564
 20
26.31960315063742
 30
0.0
 10
-19.43594462056027
 20
26.21945750173138
 30
0.0
 10
-19.67182256486319
 20
26.16116055701584
 30
0.0
 10
-20.37102899406534
 20
25.96224002106454
 30
0.0
 10
-20.81605025862154
 20
25.80076187087377
 30
0.0
 10
-21.67086691126195
 20
25.42327996283059
 30
0.0
 10
-22.08075900620685
 20
25.20714926618883
 30
0.0
 10
-22.47426332569485
 20
24.96300056376957
 30
0.0
  0
SPLINE
  5
17F
330
23
100
AcDbEntity
  8
0
  6
Continuous
 62
     7
370
    25
100
AcDbSpline
210
0.0
220
0.0
230
1.0
 70
     8
 71
     3
 72
    25
 73
    21
 74
     0
 42
0.000000001
 43
0.00000001
 40
0.0
 40
0.0
 40
0.0
 40
0.0
 40
0.0379251032637132
 40
0.0765273665713144
 40
0.1158069191199887
 40
0.1557638833374615
 40
0.1963983753288593
 40
0.2377105052871394
 40
0.279700377870545
 40
0.3223680925502386
 40
0.3657137439308725
 40
0.4097374220466039
 40
0.4544392126347307
 40
0.4998191973889965
 40
0.6180890175842584
 40
0.7498357701192665
 40
0.7967838072289641
 40
0.8541279046311978
 40
0.9218670403156662
 40
1.0
 40
1.0
 40
1.0
 40
1.0
 10
17.0
 20
6.550865364205682
 30
0.0
 10
16.99411902619478
 20
6.616680182847167
 30
0.0
 10
16.98225207266115
 20
6.749484956428881
 30
0.0
 10
16.96353047278087
 20
6.960048161200937
 30
0.0
 10
16.94394039884914
 20
7.181327854203751
 30
0.0
 10
16.92342401744164
 20
7.414193505865946
 30
0.0
 10
16.90199722107744
 20
7.658582182903495
 30
0.0
 10
16.8796556312679
 20
7.914652062596645
 30
0.0
 10
16.85640044310834
 20
8.182462544154557
 30
0.0
 10
16.83223131427633
 20
8.462059099408725
 30
0.0
 10
16.80714835122383
 20
8.75344785638793
 30
0.0
 10
16.78115143815259
 20
9.056596685820512
 30
0.0
 10
16.75424090094021
 20
9.371443369283917
 30
0.0
 10
16.71165630579663
 20
9.870978353463567
 30
0.0
 10
16.64938965738831
 20
10.60459555235718
 30
0.0
 10
16.58481764112027
 20
11.37354452895112
 30
0.0
 10
16.53261792867839
 20
11.99717575180942
 30
0.0
 10
16.49430243565823
 20
12.45653554637044
 30
0.0
 10
16.44885061490507
 20
13.00442367693694
 30
0.0
 10
16.41609128671542
 20
13.40147098728584
 30
0.0
 10
16.39854452246105
 20
13.61414004790248
 30
0.0
  0
SPLINE
  5
180
330
23
100
AcDbEntity
  8
0
  6
Continuous
 62
     7
370
    25
100
AcDbSpline
210
0.0
220
0.0
230
1.0
 70
     8
 71
     3
 72
    30
 73
    26
 74
     0
 42
0.000000001
 43
0.00000001
 40
0.0
 40
0.0
 40
0.0
 40
0.0
 40
0.0625
 40
0.0625
 40
0.125
 40
0.125
 40
0.25
 40
0.25
 40
0.3125
 40
0.3125
 40
0.375
 40
0.375
 40
0.5
 40
0.5
 40
0.625
 40
0.625
 40
0.6875
 40
0.6875
 40
0.75
 40
0.75
 40
0.875
 40
0.875
 40
0.9375
 40
0.9375
 40
1.0
 40
1.0
 40
1.0
 40
1.0
 10
-17.0
 20
6.550865364205682
 30
0.0
 10
-16.99041529863634
 20
6.658021802540437
 30
0.0
 10
-16.98056686543408
 20
6.768594222364143
 30
0.0
 10
-16.96036906501813
 20
6.996271970854561
 30
0.0
 10
-16.95001969780445
 20
7.113377299521301
 30
0.0
 10
-16.91825998964483
 20
7.474044067583785
 30
0.0
 10
-16.89613813529452
 20
7.726955234290317
 30
0.0
 10
-16.86170646736474
 20
8.123030549761461
 30
0.0
 10
-16.85002124536758
 20
8.257838452966709
 30
0.0
 10
-16.82626550865296
 20
8.532665612328294
 30
0.0
 10
-16.81419499667127
 20
8.672684836834948
 30
0.0
 10
-16.77745310751018
 20
9.100007538942911
 30
0.0
 10
-16.75225096385839
 20
9.394581811092511
 30
0.0
 10
-16.70069616291551
 20
10.00002266901415
 30
0.0
 10
-16.67434360058318
 20
10.31088813962508
 30
0.0
 10
-16.63415951375016
 20
10.78695616060296
 30
0.0
 10
-16.620655696401
 20
10.94727257133607
 30
0.0
 10
-16.59346530305048
 20
11.27073826017308
 30
0.0
 10
-16.57977873018042
 20
11.43388750102603
 30
0.0
 10
-16.5384988305791
 20
11.92694133671601
 30
0.0
 10
-16.51068518724688
 20
12.26045451856148
 30
0.0
 10
-16.46874316082581
 20
12.76531415344803
 30
0.0
 10
-16.45472559013894
 20
12.93436529342701
 30
0.0
 10
-16.42665352872931
 20
13.27355127077903
 30
0.0
 10
-16.41259903800655
 20
13.44368610815211
 30
0.0
 10
-16.39854452246105
 20
13.61414004790248
 30
0.0
  0
SPLINE
  5
186
330
23
100
AcDbEntity
  8
0
  6
Continuous
 62
     7
370
    25
100
AcDbSpline
210
0.0
220
0.0
230
1.0
 70
     8
 71
     3
 72
    30
 73
    26
 74
     0
 42
0.000000001
 43
0.00000001
 40
0.0
 40
0.0
 40
0.0
 40
0.0
 40
0.0625
 40
0.0625
 40
0.125
 40
0.125
 40
0.25
 40
0.25
 40
0.3125
 40
0.3125
 40
0.375
 40
0.375
 40
0.5
 40
0.5
 40
0.625
 40
0.625
 40
0.6875
 40
0.6875
 40
0.75
 40
0.75
 40
0.875
 40
0.875
 40
0.9375
 40
0.9375
 40
1.0
 40
1.0
 40
1.0
 40
1.0
 10
-16.99999999999999
 20
26.49794252905227
 30
0.0
 10
-16.99041529863634
 20
26.37261139377023
 30
0.0
 10
-16.98056686543408
 20
26.24429913140647
 30
0.0
 10
-16.96036906501813
 20
25.98205680487983
 30
0.0
 10
-16.95001969780444
 20
25.84812674071693
 30
0.0
 10
-16.91825998964483
 20
25.43842652407585
 30
0.0
 10
-16.89613813529451
 20
25.15474755128072
 30
0.0
 10
-16.86170646736473
 20
24.71564453110481
 30
0.0
 10
-16.85002124536757
 20
24.56701440048717
 30
0.0
 10
-16.82626550865296
 20
24.26561978947617
 30
0.0
 10
-16.81419499667127
 20
24.11285534379196
 30
0.0
 10
-16.77745310751017
 20
23.6489627292133
 30
0.0
 10
-16.75225096385837
 20
23.33223102476112
 30
0.0
 10
-16.70069616291549
 20
22.68715294372531
 30
0.0
 10
-16.67434360058316
 20
22.3588077553106
 30
0.0
 10
-16.63415951375015
 20
21.86016613314437
 30
0.0
 10
-16.62065569640099
 20
21.69293246057763
 30
0.0
 10
-16.59346530305047
 20
21.356864968786
 30
0.0
 10
-16.5797787301804
 20
21.18803118826326
 30
0.0
 10
-16.53849883057908
 20
20.67979522541627
 30
0.0
 10
-16.51068518724686
 20
20.33865760632298
 30
0.0
 10
-16.46874316082579
 20
19.8261668214898
 30
0.0
 10
-16.45472559013893
 20
19.65520622053474
 30
0.0
 10
-16.4266535287293
 20
19.31347317955498
 30
0.0
 10
-16.41259903800654
 20
19.14270073953026
 30
0.0
 10
-16.39854452246103
 20
18.97224679977985
 30
0.0
  0
SPLINE
  5
187
330
23
100
AcDbEntity
  8
0
  6
Continuous
 62
     7
370
    25
100
AcDbSpline
210
0.0
220
0.0
230
1.0
 70
     8
 71
     3
 72
    25
 73
    21
 74
     0
 42
0.000000001
 43
0.00000001
 40
0.0
 40
0.0
 40
0.0
 40
0.0
 40
0.0379258106394102
 40
0.0765286526808136
 40
0.1158086553219445
 40
0.1557659409924453
 40
0.1964006258005924
 40
0.2377128199435241
 40
0.2797026280845937
 40
0.3223701497008609
 40
0.3657154794035681
 40
0.4097387072340525
 40
0.4544399189373063
 40
0.4998191962152022
 40
0.6180948519859748
 40
0.7498357698043502
 40
0.796786836767257
 40
0.8541319439001077
 40
0.9218700695743106
 40
1.0
 40
1.0
 40
1.0
 40
1.0
 10
16.99999999999998
 20
26.49794252905227
 30
0.0
 10
16.99411891780642
 20
26.42117965414947
 30
0.0
 10
16.98225176746764
 20
26.26628357432484
 30
0.0
 10
16.96352990231571
 20
26.02357717621021
 30
0.0
 10
16.94393962184133
 20
25.77061135477282
 30
0.0
 10
16.92342309325909
 20
25.5066980445024
 30
0.0
 10
16.90199620883915
 20
25.23196862611274
 30
0.0
 10
16.87965459017593
 20
24.94636834717912
 30
0.0
 10
16.85639943239099
 20
24.64993537250895
 30
0.0
 10
16.83223039297167
 20
24.34272697736789
 30
0.0
 10
16.80714757914959
 20
24.0248416599754
 30
0.0
 10
16.78115087215338
 20
23.69641888871182
 30
0.0
 10
16.75424060923207
 20
23.35762972339411
 30
0.0
 10
16.71165487814764
 20
22.82364330273495
 30
0.0
 10
16.64938839564301
 20
22.04841408088462
 30
0.0
 10
16.58481572109716
 20
21.24916976076141
 30
0.0
 10
16.5326163237168
 20
20.60819690121268
 30
0.0
 10
16.49430016400425
 20
20.13913521907443
 30
0.0
 10
16.4488490237745
 20
19.5835721077765
 30
0.0
 10
16.41609060512312
 20
19.18547551902902
 30
0.0
 10
16.39854452246102
 20
18.97224679977985
 30
0.0
  0
SPLINE
  5
1AC
330
23
100
AcDbEntity
  8
0
  6
Continuous
 62
     7
370
    25
100
AcDbSpline
210
0.0
220
0.0
230
1.0
 70
     8
 71
     3
 72
    18
 73
    14
 74
     0
 42
0.000000001
 43
0.00000001
 40
0.0
 40
0.0
 40
0.0
 40
0.0
 40
0.2500000000000009
 40
0.2500000000000009
 40
0.3750000000000014
 40
0.3750000000000014
 40
0.4375000000000014
 40
0.4375000000000014
 40
0.5000000000000014
 40
0.5000000000000014
 40
0.7500000000000007
 40
0.7500000000000007
 40
1.0
 40
1.0
 40
1.0
 40
1.0
 10
107.8260057121752
 20
122.9761935498574
 30
0.0
 10
103.2097230558933
 20
118.0213513208149
 30
0.0
 10
98.32761614341796
 20
113.3958776452334
 30
0.0
 10
90.58819534408677
 20
106.9664014342664
 30
0.0
 10
87.93862834685302
 20
104.9084980708418
 30
0.0
 10
83.85503770086319
 20
101.954288033318
 30
0.0
 10
82.47562272435906
 20
100.9916726825193
 30
0.0
 10
79.67946909320885
 20
99.11162476330477
 30
0.0
 10
78.2605249706017
 20
98.19283983248067
 30
0.0
 10
71.0986839057894
 20
93.73203194618155
 30
0.0
 10
65.17709757187778
 20
90.60058201677285
 30
0.0
 10
52.94735128088963
 20
85.19737822589687
 30
0.0
 10
46.63946835863096
 20
82.92504432147035
 30
0.0
 10
40.1323337605761
 20
81.08820593916177
 30
0.0
  0
SPLINE
  5
1AD
330
23
100
AcDbEntity
  8
0
  6
Continuous
 62
     7
370
    25
100
AcDbSpline
210
0.0
220
0.0
230
1.0
 70
     8
 71
     3
 72
    24
 73
    20
 74
     0
 42
0.000000001
 43
0.00000001
 40
0.0
 40
0.0
 40
0.0
 40
0.0
 40
0.125
 40
0.125
 40
0.2500000000000001
 40
0.2500000000000001
 40
0.5000000000000001
 40
0.5000000000000001
 40
0.5625000000000001
 40
0.5625000000000001
 40
0.6250000000000001
 40
0.6250000000000001
 40
0.7500000000000002
 40
0.7500000000000002
 40
0.8750000000000002
 40
0.8750000000000002
 40
0.9375000000000001
 40
0.9375000000000001
 40
1.0
 40
1.0
 40
1.0
 40
1.0
 10
40.1323337605761
 20
81.08820593916177
 30
0.0
 10
36.8560512404301
 20
80.1633746799329
 30
0.0
 10
33.56063941680589
 20
79.35820827810525
 30
0.0
 10
26.94156903668039
 20
77.98122479635389
 30
0.0
 10
23.61640931828211
 20
77.40897974864522
 30
0.0
 10
13.59470928890406
 20
76.03414494200636
 30
0.0
 10
6.852216780717037
 20
75.57121659621508
 30
0.0
 10
-1.654179946891223
 20
75.56854138692069
 30
0.0
 10
-3.361121471408089
 20
75.59712253967513
 30
0.0
 10
-6.761583992187711
 20
75.71213845072371
 30
0.0
 10
-8.45747348118006
 20
75.79851241231577
 30
0.0
 10
-13.53223014728807
 20
76.14355450668336
 30
0.0
 10
-16.89820305731725
 20
76.48800961254338
 30
0.0
 10
-23.59591529289266
 20
77.40550173553035
 30
0.0
 10
-26.92765306838499
 20
77.97854791974807
 30
0.0
 10
-31.899296555955
 20
79.01248593128946
 30
0.0
 10
-33.55217975626581
 20
79.38622502833245
 30
0.0
 10
-36.84918818515386
 20
80.19274887200616
 30
0.0
 10
-38.49550149596482
 20
80.62615981367674
 30
0.0
 10
-40.13233376059548
 20
81.08820593916721
 30
0.0
  0
SPLINE
  5
1AE
330
23
100
AcDbEntity
  8
0
  6
Continuous
 62
     7
370
    25
100
AcDbSpline
210
0.0
220
0.0
230
1.0
 70
     8
 71
     3
 72
    18
 73
    14
 74
     0
 42
0.000000001
 43
0.00000001
 40
0.0
 40
0.0
 40
0.0
 40
0.0
 40
0.2500000000000002
 40
0.2500000000000002
 40
0.5000000000000004
 40
0.5000000000000004
 40
0.6250000000000009
 40
0.6250000000000009
 40
0.6875000000000008
 40
0.6875000000000008
 40
0.7500000000000006
 40
0.7500000000000006
 40
1.0
 40
1.0
 40
1.0
 40
1.0
 10
-40.13233376059548
 20
81.08820593916721
 30
0.0
 10
-46.64715947280401
 20
82.92721537441372
 30
0.0
 10
-52.94689145360677
 20
85.1983724921893
 30
0.0
 10
-65.13493046069335
 20
90.58075899471795
 30
0.0
 10
-71.0229186075704
 20
93.69261295839293
 30
0.0
 10
-79.55151534719585
 20
98.99317840441361
 30
0.0
 10
-82.34376452379176
 20
100.8656355313485
 30
0.0
 10
-86.45650282797463
 20
103.8341127018867
 30
0.0
 10
-87.81379134711935
 20
104.8496465128045
 30
0.0
 10
-90.48629566018252
 20
106.920523734399
 30
0.0
 10
-91.80366625578209
 20
107.9773962494362
 30
0.0
 10
-98.29832091729408
 20
113.3666949771232
 30
0.0
 10
-103.2008606274319
 20
118.011838919157
 30
0.0
 10
-107.8260057121753
 20
122.9761935498574
 30
0.0
  0
SPLINE
  5
220
330
23
100
AcDbEntity
  8
0
  6
Continuous
 62
     7
370
    25
100
AcDbSpline
210
0.0
220
0.0
230
1.0
 70
     8
 71
     3
 72
    24
 73
    20
 74
     0
 42
0.000000001
 43
0.00000001
 40
0.0
 40
0.0
 40
0.0
 40
0.0
 40
0.1250000000000001
 40
0.1250000000000001
 40
0.2500000000000003
 40
0.2500000000000003
 40
0.3750000000000004
 40
0.3750000000000004
 40
0.5000000000000006
 40
0.5000000000000006
 40
0.6250000000000007
 40
0.6250000000000007
 40
0.7500000000000009
 40
0.7500000000000009
 40
0.812500000000001
 40
0.812500000000001
 40
0.8750000000000012
 40
0.8750000000000012
 40
1.0
 40
1.0
 40
1.0
 40
1.0
 10
-130.5
 20
37.99999999999992
 30
0.0
 10
-129.7996723191866
 20
37.99999999999995
 30
0.0
 10
-129.1132601281237
 20
37.92724706363035
 30
0.0
 10
-127.7668594203789
 20
37.6438179320556
 30
0.0
 10
-127.1011057277318
 20
37.42919831016673
 30
0.0
 10
-125.8561035272557
 20
36.88236953728794
 30
0.0
 10
-125.2699420951521
 20
36.54994498749667
 30
0.0
 10
-124.169019335033
 20
35.77005461995569
 30
0.0
 10
-123.671578730135
 20
35.33476238376118
 30
0.0
 10
-122.7760368333702
 20
34.38486250952428
 30
0.0
 10
-122.375006066372
 20
33.86458284839591
 30
0.0
 10
-121.6942421237653
 20
32.78199609288027
 30
0.0
 10
-121.4112160971896
 20
32.21773454665666
 30
0.0
 10
-121.0686984503857
 20
31.33906730461605
 30
0.0
 10
-120.9680646992829
 20
31.03966547436118
 30
0.0
 10
-120.7971035414027
 20
30.43949935167453
 30
0.0
 10
-120.7263444441119
 20
30.13791265854754
 30
0.0
 10
-120.5566658411776
 20
29.22888553123426
 30
0.0
 10
-120.5000000000001
 20
28.6172217375747
 30
0.0
 10
-120.5
 20
27.99999999999994
 30
0.0
  0
SPLINE
  5
222
330
23
100
AcDbEntity
  8
0
  6
Continuous
 62
     7
370
    25
100
AcDbSpline
210
0.0
220
0.0
230
1.0
 70
     8
 71
     3
 72
    24
 73
    20
 74
     0
 42
0.000000001
 43
0.00000001
 40
0.0
 40
0.0
 40
0.0
 40
0.0
 40
0.1249999999999985
 40
0.1249999999999985
 40
0.2499999999999971
 40
0.2499999999999971
 40
0.3749999999999956
 40
0.3749999999999956
 40
0.4999999999999941
 40
0.4999999999999941
 40
0.6249999999999927
 40
0.6249999999999927
 40
0.6874999999999937
 40
0.6874999999999937
 40
0.7499999999999947
 40
0.7499999999999947
 40
0.8749999999999973
 40
0.8749999999999973
 40
1.0
 40
1.0
 40
1.0
 40
1.0
 10
-142.5
 20
27.99999999999991
 30
0.0
 10
-142.5000000000001
 20
28.6181663230945
 30
0.0
 10
-142.4431618958966
 20
29.2296424456833
 30
0.0
 10
-142.2174498341218
 20
30.4391920288411
 30
0.0
 10
-142.0485339270932
 20
31.03754380063642
 30
0.0
 10
-141.5889803568647
 20
32.21801002490063
 30
0.0
 10
-141.3052280173264
 20
32.78244664303631
 30
0.0
 10
-140.6290104425645
 20
33.85858562754485
 30
0.0
 10
-140.2365035922019
 20
34.37053064610307
 30
0.0
 10
-139.3304210686039
 20
35.33365506215436
 30
0.0
 10
-138.8333290194032
 20
35.76725103417983
 30
0.0
 10
-138.021070402102
 20
36.34434496464687
 30
0.0
 10
-137.7391388539251
 20
36.52441109512428
 30
0.0
 10
-137.151807869119
 20
36.85860282427128
 30
0.0
 10
-136.8441668660865
 20
37.01363920154571
 30
0.0
 10
-135.903135247586
 20
37.42807404249776
 30
0.0
 10
-135.2525721463047
 20
37.63837051669258
 30
0.0
 10
-133.9044993150512
 20
37.92482852807452
 30
0.0
 10
-133.2021312707675
 20
37.99999999999995
 30
0.0
 10
-132.5
 20
37.99999999999992
 30
0.0
  0
SPLINE
  5
22B
330
23
100
AcDbEntity
  8
0
  6
Continuous
 62
     7
370
    25
100
AcDbSpline
210
0.0
220
0.0
230
1.0
 70
     8
 71
     3
 72
    24
 73
    20
 74
     0
 42
0.000000001
 43
0.00000001
 40
0.0
 40
0.0
 40
0.0
 40
0.0
 40
0.1249999999999996
 40
0.1249999999999996
 40
0.2499999999999992
 40
0.2499999999999992
 40
0.3749999999999988
 40
0.3749999999999988
 40
0.4999999999999983
 40
0.4999999999999983
 40
0.6249999999999979
 40
0.6249999999999979
 40
0.7499999999999976
 40
0.7499999999999976
 40
0.8124999999999979
 40
0.8124999999999979
 40
0.8749999999999982
 40
0.8749999999999982
 40
1.0
 40
1.0
 40
1.0
 40
1.0
 10
132.5
 20
37.99999999999992
 30
0.0
 10
133.2003276808134
 20
37.99999999999992
 30
0.0
 10
133.8867398718763
 20
37.92724706363035
 30
0.0
 10
135.2331405796211
 20
37.6438179320556
 30
0.0
 10
135.8988942722682
 20
37.4291983101667
 30
0.0
 10
137.1438964727444
 20
36.88236953728794
 30
0.0
 10
137.7300579048479
 20
36.54994498749667
 30
0.0
 10
138.8309806649671
 20
35.77005461995572
 30
0.0
 10
139.3284212698651
 20
35.33476238376121
 30
0.0
 10
140.2239631666299
 20
34.3848625095243
 30
0.0
 10
140.6249939336281
 20
33.86458284839591
 30
0.0
 10
141.3057578762348
 20
32.78199609288027
 30
0.0
 10
141.5887839028105
 20
32.21773454665664
 30
0.0
 10
141.9313015496143
 20
31.33906730461605
 30
0.0
 10
142.0319353007172
 20
31.03966547436118
 30
0.0
 10
142.2028964585973
 20
30.43949935167456
 30
0.0
 10
142.2736555558881
 20
30.13791265854751
 30
0.0
 10
142.4433341588224
 20
29.22888553123426
 30
0.0
 10
142.5
 20
28.61722173757467
 30
0.0
 10
142.5
 20
27.99999999999991
 30
0.0
  0
SPLINE
  5
22D
330
23
100
AcDbEntity
  8
0
  6
Continuous
 62
     7
370
    25
100
AcDbSpline
210
0.0
220
0.0
230
1.0
 70
     8
 71
     3
 72
    24
 73
    20
 74
     0
 42
0.000000001
 43
0.00000001
 40
0.0
 40
0.0
 40
0.0
 40
0.0
 40
0.1249999999999991
 40
0.1249999999999991
 40
0.2499999999999982
 40
0.2499999999999982
 40
0.3749999999999972
 40
0.3749999999999972
 40
0.4999999999999963
 40
0.4999999999999963
 40
0.6249999999999954
 40
0.6249999999999954
 40
0.6874999999999961
 40
0.6874999999999961
 40
0.7499999999999967
 40
0.7499999999999967
 40
0.8749999999999983
 40
0.8749999999999983
 40
1.0
 40
1.0
 40
1.0
 40
1.0
 10
120.5
 20
27.99999999999994
 30
0.0
 10
120.5
 20
28.61816632309452
 30
0.0
 10
120.5568381041034
 20
29.22964244568333
 30
0.0
 10
120.7825501658782
 20
30.43919202884113
 30
0.0
 10
120.9514660729069
 20
31.03754380063642
 30
0.0
 10
121.4110196431354
 20
32.2180100249006
 30
0.0
 10
121.6947719826737
 20
32.78244664303631
 30
0.0
 10
122.3709895574355
 20
33.85858562754488
 30
0.0
 10
122.7634964077982
 20
34.37053064610307
 30
0.0
 10
123.6695789313961
 20
35.33365506215439
 30
0.0
 10
124.1666709805969
 20
35.76725103417985
 30
0.0
 10
124.978929597898
 20
36.34434496464689
 30
0.0
 10
125.260861146075
 20
36.52441109512428
 30
0.0
 10
125.8481921308811
 20
36.85860282427128
 30
0.0
 10
126.1558331339136
 20
37.01363920154571
 30
0.0
 10
127.0968647524141
 20
37.42807404249776
 30
0.0
 10
127.7474278536954
 20
37.63837051669258
 30
0.0
 10
129.0955006849489
 20
37.92482852807455
 30
0.0
 10
129.7978687292326
 20
37.99999999999992
 30
0.0
 10
130.5000000000001
 20
37.99999999999992
 30
0.0
  0
LINE
  5
25D
330
23
100
AcDbEntity
  8
0
  6
Continuous
 62
     7
370
    25
100
AcDbLine
 10
110.0
 20
30.7115938943
 30
0.0
 11
-110.0
 21
30.7115938943
 31
0.0
  0
LINE
  5
25E
330
23
100
AcDbEntity
  8
0
  6
Continuous
 62
     7
370
    25
100
AcDbLine
 10
69.8274275153
 20
0.7115938943
 30
0.0
 11
110.0
 21
0.7115938943
 31
0.0
  0
LINE
  5
25F
330
23
100
AcDbEntity
  8
0
  6
Continuous
 62
     7
370
    25
100
AcDbLine
 10
-61.1725724847
 20
0.7115938943
 30
0.0
 11
61.1688570631
 21
0.7115938943
 31
0.0
  0
LINE
  5
260
330
23
100
AcDbEntity
  8
0
  6
Continuous
 62
     7
370
    25
100
AcDbLine
 10
-110.0
 20
0.7115938943
 30
0.0
 11
-69.8311429369
 21
0.7115938943
 31
0.0
  0
LINE
  5
261
330
23
100
AcDbEntity
  8
0
  6
Continuous
 62
     7
370
    25
100
AcDbLine
 10
110.0
 20
30.7115938943
 30
0.0
 11
110.0
 21
0.7115938943
 31
0.0
  0
LINE
  5
262
330
23
100
AcDbEntity
  8
0
  6
Continuous
 62
     7
370
    25
100
AcDbLine
 10
-110.0
 20
30.7115938943
 30
0.0
 11
-110.0
 21
0.7115938943
 31
0.0
  0
LINE
  5
263
330
23
100
AcDbEntity
  8
0
  6
Continuous
 62
     7
370
    25
100
AcDbLine
 10
-17.0
 20
6.5508653642
 30
0.0
 11
17.0
 21
6.5508653642
 31
0.0
  0
LINE
  5
264
330
23
100
AcDbEntity
  8
0
  6
Continuous
 62
     7
370
    25
100
AcDbLine
 10
17.0
 20
26.4979425291
 30
0.0
 11
-17.0
 21
26.4979425291
 31
0.0
  0
LINE
  5
265
330
23
100
AcDbEntity
  8
0
  6
Continuous
 62
     7
370
    25
100
AcDbLine
 10
-16.3985445225
 20
13.6141400479
 30
0.0
 11
-15.0
 21
13.6141400479
 31
0.0
  0
LINE
  5
266
330
23
100
AcDbEntity
  8
0
  6
Continuous
 62
     7
370
    25
100
AcDbLine
 10
15.0
 20
7.4802415529
 30
0.0
 11
-15.0
 21
7.4802415529
 31
0.0
  0
LINE
  5
267
330
23
100
AcDbEntity
  8
0
  6
Continuous
 62
     7
370
    25
100
AcDbLine
 10
15.0
 20
13.6141400479
 30
0.0
 11
16.3985445225
 21
13.6141400479
 31
0.0
  0
LINE
  5
268
330
23
100
AcDbEntity
  8
0
  6
Continuous
 62
     7
370
    25
100
AcDbLine
 10
-15.0
 20
7.4802415529
 30
0.0
 11
-15.0
 21
25.4326110012
 31
0.0
  0
LINE
  5
269
330
23
100
AcDbEntity
  8
0
  6
Continuous
 62
     7
370
    25
100
AcDbLine
 10
-15.0
 20
18.9722467998
 30
0.0
 11
-16.3985445225
 21
18.9722467998
 31
0.0
  0
LINE
  5
26A
330
23
100
AcDbEntity
  8
0
  6
Continuous
 62
     7
370
    25
100
AcDbLine
 10
16.3985445225
 20
18.9722467998
 30
0.0
 11
15.0
 21
18.9722467998
 31
0.0
  0
LINE
  5
26B
330
23
100
AcDbEntity
  8
0
  6
Continuous
 62
     7
370
    25
100
AcDbLine
 10
15.0
 20
25.4326110012
 30
0.0
 11
15.0
 21
7.4802415529
 31
0.0
  0
LINE
  5
26C
330
23
100
AcDbEntity
  8
0
  6
Continuous
 62
     7
370
    25
100
AcDbLine
 10
-15.0
 20
25.4326110012
 30
0.0
 11
15.0
 21
25.4326110012
 31
0.0
  0
LINE
  5
26D
330
23
100
AcDbEntity
  8
0
  6
Continuous
 62
     7
370
    25
100
AcDbLine
 10
15.0
 20
25.1966782068
 30
0.0
 11
-15.0
 21
25.1966782068
 31
0.0
  0
LINE
  5
26E
330
23
100
AcDbEntity
  8
0
  6
Continuous
 62
     7
370
    25
100
AcDbLine
 10
138.5
 20
33.0
 30
0.0
 11
123.5
 21
33.0
 31
0.0
  0
LINE
  5
26F
330
23
100
AcDbEntity
  8
0
  6
Continuous
 62
     7
370
    25
100
AcDbLine
 10
138.5
 20
33.0
 30
0.0
 11
138.5
 21
0.0
 31
0.0
  0
LINE
  5
270
330
23
100
AcDbEntity
  8
0
  6
Continuous
 62
     7
370
    25
100
AcDbLine
 10
123.5
 20
33.0
 30
0.0
 11
123.5
 21
0.0
 31
0.0
  0
LINE
  5
271
330
23
100
AcDbEntity
  8
0
  6
Continuous
 62
     7
370
    25
100
AcDbLine
 10
-138.5
 20
33.0
 30
0.0
 11
-123.5
 21
33.0
 31
0.0
  0
LINE
  5
272
330
23
100
AcDbEntity
  8
0
  6
Continuous
 62
     7
370
    25
100
AcDbLine
 10
-123.5
 20
33.0
 30
0.0
 11
-123.5
 21
0.0
 31
0.0
  0
LINE
  5
273
330
23
100
AcDbEntity
  8
0
  6
Continuous
 62
     7
370
    25
100
AcDbLine
 10
-138.5
 20
33.0
 30
0.0
 11
-138.5
 21
0.0
 31
0.0
  0
LINE
  5
274
330
23
100
AcDbEntity
  8
0
  6
Continuous
 62
     7
370
    25
100
AcDbLine
 10
-113.5
 20
210.5
 30
0.0
 11
-113.5
 21
267.5
 31
0.0
  0
LINE
  5
275
330
23
100
AcDbEntity
  8
0
  6
Continuous
 62
     7
370
    25
100
AcDbLine
 10
-113.5
 20
210.5
 30
0.0
 11
-138.8771550809
 21
210.5
 31
0.0
  0
LINE
  5
276
330
23
100
AcDbEntity
  8
0
  6
Continuous
 62
     7
370
    25
100
AcDbLine
 10
-138.8771550809
 20
210.5
 30
0.0
 11
-138.8771550809
 21
267.5
 31
0.0
  0
LINE
  5
277
330
23
100
AcDbEntity
  8
0
  6
Continuous
 62
     7
370
    25
100
AcDbLine
 10
-113.5
 20
267.5
 30
0.0
 11
-138.8771550809
 21
267.5
 31
0.0
  0
LINE
  5
278
330
23
100
AcDbEntity
  8
0
  6
Continuous
 62
     7
370
    25
100
AcDbLine
 10
138.8771550809
 20
267.5
 30
0.0
 11
138.8771550809
 21
210.5
 31
0.0
  0
LINE
  5
279
330
23
100
AcDbEntity
  8
0
  6
Continuous
 62
     7
370
    25
100
AcDbLine
 10
138.8771550809
 20
210.5
 30
0.0
 11
113.5
 21
210.5
 31
0.0
  0
LINE
  5
27A
330
23
100
AcDbEntity
  8
0
  6
Continuous
 62
     7
370
    25
100
AcDbLine
 10
113.5
 20
267.5
 30
0.0
 11
113.5
 21
210.5
 31
0.0
  0
LINE
  5
27B
330
23
100
AcDbEntity
  8
0
  6
Continuous
 62
     7
370
    25
100
AcDbLine
 10
138.8771550809
 20
267.5
 30
0.0
 11
113.5
 21
267.5
 31
0.0
  0
LINE
  5
27C
330
23
100
AcDbEntity
  8
0
  6
Continuous
 62
     7
370
    25
100
AcDbLine
 10
-88.1228567881
 20
138.969502228
 30
0.0
 11
-107.8260057122
 21
122.9761935499
 31
0.0
  0
LINE
  5
27D
330
23
100
AcDbEntity
  8
0
  6
Continuous
 62
     7
370
    25
100
AcDbLine
 10
107.8260057122
 20
122.9761935499
 30
0.0
 11
88.1228567881
 21
138.969502228
 31
0.0
  0
LINE
  5
27E
330
23
100
AcDbEntity
  8
0
  6
Continuous
 62
     7
370
    25
100
AcDbLine
 10
-105.5
 20
210.5
 30
0.0
 11
-105.5
 21
267.5
 31
0.0
  0
LINE
  5
27F
330
23
100
AcDbEntity
  8
0
  6
Continuous
 62
     7
370
    25
100
AcDbLine
 10
105.5
 20
267.5
 30
0.0
 11
105.5
 21
210.5
 31
0.0
  0
LINE
  5
280
330
23
100
AcDbEntity
  8
0
  6
Continuous
 62
     7
370
    25
100
AcDbLine
 10
169.0184621529
 20
158.4058328901
 30
0.0
 11
162.0184621529
 21
133.365864839
 31
0.0
  0
LINE
  5
281
330
23
100
AcDbEntity
  8
0
  6
Continuous
 62
     7
370
    25
100
AcDbLine
 10
162.0184621529
 20
133.365864839
 30
0.0
 11
152.9840113242
 21
135.8914733251
 31
0.0
  0
LINE
  5
282
330
23
100
AcDbEntity
  8
0
  6
Continuous
 62
     7
370
    25
100
AcDbLine
 10
152.9840113242
 20
135.8914733251
 30
0.0
 11
159.9840113242
 21
160.9314413762
 31
0.0
  0
LINE
  5
283
330
23
100
AcDbEntity
  8
0
  6
Continuous
 62
     7
370
    25
100
AcDbLine
 10
159.9840113242
 20
160.9314413762
 30
0.0
 11
169.0184621529
 21
158.4058328901
 31
0.0
  0
LINE
  5
284
330
23
100
AcDbEntity
  8
0
  6
Continuous
 62
     7
370
    25
100
AcDbLine
 10
159.7544747903
 20
160.9956090194
 30
0.0
 11
150.7200239617
 21
163.5212175055
 31
0.0
  0
LINE
  5
285
330
23
100
AcDbEntity
  8
0
  6
Continuous
 62
     7
370
    25
100
AcDbLine
 10
-152.7544747903
 20
135.9556409683
 30
0.0
 11
-143.7200239617
 21
138.4812494544
 31
0.0
  0
LINE
  5
286
330
23
100
AcDbEntity
  8
0
  6
Continuous
 62
     7
370
    25
100
AcDbLine
 10
-162.0184621529
 20
133.365864839
 30
0.0
 11
-152.9840113242
 21
135.8914733251
 31
0.0
  0
LINE
  5
287
330
23
100
AcDbEntity
  8
0
  6
Continuous
 62
     7
370
    25
100
AcDbLine
 10
143.7200239617
 20
138.4812494544
 30
0.0
 11
150.7200239617
 21
163.5212175055
 31
0.0
  0
LINE
  5
288
330
23
100
AcDbEntity
  8
0
  6
Continuous
 62
     7
370
    25
100
AcDbLine
 10
159.7544747903
 20
160.9956090194
 30
0.0
 11
152.7544747903
 21
135.9556409683
 31
0.0
  0
LINE
  5
289
330
23
100
AcDbEntity
  8
0
  6
Continuous
 62
     7
370
    25
100
AcDbLine
 10
143.7200239617
 20
138.4812494544
 30
0.0
 11
152.7544747903
 21
135.9556409683
 31
0.0
  0
LINE
  5
28A
330
23
100
AcDbEntity
  8
0
  6
Continuous
 62
     7
370
    25
100
AcDbLine
 10
-169.0184621529
 20
158.4058328901
 30
0.0
 11
-162.0184621529
 21
133.365864839
 31
0.0
  0
LINE
  5
28B
330
23
100
AcDbEntity
  8
0
  6
Continuous
 62
     7
370
    25
100
AcDbLine
 10
-169.0184621529
 20
158.4058328901
 30
0.0
 11
-159.9840113242
 21
160.9314413762
 31
0.0
  0
LINE
  5
28C
330
23
100
AcDbEntity
  8
0
  6
Continuous
 62
     7
370
    25
100
AcDbLine
 10
-159.9840113242
 20
160.9314413762
 30
0.0
 11
-152.9840113242
 21
135.8914733251
 31
0.0
  0
LINE
  5
28D
330
23
100
AcDbEntity
  8
0
  6
Continuous
 62
     7
370
    25
100
AcDbLine
 10
-152.7544747903
 20
135.9556409683
 30
0.0
 11
-159.7544747903
 21
160.9956090194
 31
0.0
  0
LINE
  5
28E
330
23
100
AcDbEntity
  8
0
  6
Continuous
 62
     7
370
    25
100
AcDbLine
 10
-159.7544747903
 20
160.9956090194
 30
0.0
 11
-150.7200239617
 21
163.5212175055
 31
0.0
  0
LINE
  5
28F
330
23
100
AcDbEntity
  8
0
  6
Continuous
 62
     7
370
    25
100
AcDbLine
 10
-143.7200239617
 20
138.4812494544
 30
0.0
 11
-150.7200239617
 21
163.5212175055
 31
0.0
  0
LINE
  5
290
330
23
100
AcDbEntity
  8
0
  6
Continuous
 62
     7
370
    25
100
AcDbLine
 10
159.9840113242
 20
301.0685586238
 30
0.0
 11
152.9840113242
 21
326.1085266749
 31
0.0
  0
LINE
  5
291
330
23
100
AcDbEntity
  8
0
  6
Continuous
 62
     7
370
    25
100
AcDbLine
 10
152.7544747903
 20
326.0443590317
 30
0.0
 11
159.7544747903
 21
301.0043909806
 31
0.0
  0
LINE
  5
292
330
23
100
AcDbEntity
  8
0
  6
Continuous
 62
     7
370
    25
100
AcDbLine
 10
-143.7200239617
 20
323.5187505456
 30
0.0
 11
-150.7200239617
 21
298.4787824945
 31
0.0
  0
LINE
  5
293
330
23
100
AcDbEntity
  8
0
  6
Continuous
 62
     7
370
    25
100
AcDbLine
 10
-159.7544747903
 20
301.0043909806
 30
0.0
 11
-150.7200239617
 21
298.4787824945
 31
0.0
  0
LINE
  5
294
330
23
100
AcDbEntity
  8
0
  6
Continuous
 62
     7
370
    25
100
AcDbLine
 10
-159.7544747903
 20
301.0043909806
 30
0.0
 11
-152.7544747903
 21
326.0443590317
 31
0.0
  0
LINE
  5
295
330
23
100
AcDbEntity
  8
0
  6
Continuous
 62
     7
370
    25
100
AcDbLine
 10
-143.7200239617
 20
323.5187505456
 30
0.0
 11
-152.7544747903
 21
326.0443590317
 31
0.0
  0
LINE
  5
296
330
23
100
AcDbEntity
  8
0
  6
Continuous
 62
     7
370
    25
100
AcDbLine
 10
-152.9840113242
 20
326.1085266749
 30
0.0
 11
-159.9840113242
 21
301.0685586238
 31
0.0
  0
LINE
  5
297
330
23
100
AcDbEntity
  8
0
  6
Continuous
 62
     7
370
    25
100
AcDbLine
 10
-169.0184621529
 20
303.5941671099
 30
0.0
 11
-162.0184621529
 21
328.634135161
 31
0.0
  0
LINE
  5
298
330
23
100
AcDbEntity
  8
0
  6
Continuous
 62
     7
370
    25
100
AcDbLine
 10
-162.0184621529
 20
328.634135161
 30
0.0
 11
-152.9840113242
 21
326.1085266749
 31
0.0
  0
LINE
  5
299
330
23
100
AcDbEntity
  8
0
  6
Continuous
 62
     7
370
    25
100
AcDbLine
 10
-159.9840113242
 20
301.0685586238
 30
0.0
 11
-169.0184621529
 21
303.5941671099
 31
0.0
  0
LINE
  5
29A
330
23
100
AcDbEntity
  8
0
  6
Continuous
 62
     7
370
    25
100
AcDbLine
 10
152.7544747903
 20
326.0443590317
 30
0.0
 11
143.7200239617
 21
323.5187505456
 31
0.0
  0
LINE
  5
29B
330
23
100
AcDbEntity
  8
0
  6
Continuous
 62
     7
370
    25
100
AcDbLine
 10
162.0184621529
 20
328.634135161
 30
0.0
 11
152.9840113242
 21
326.1085266749
 31
0.0
  0
LINE
  5
29C
330
23
100
AcDbEntity
  8
0
  6
Continuous
 62
     7
370
    25
100
AcDbLine
 10
159.7544747903
 20
301.0043909806
 30
0.0
 11
150.7200239617
 21
298.4787824945
 31
0.0
  0
LINE
  5
29D
330
23
100
AcDbEntity
  8
0
  6
Continuous
 62
     7
370
    25
100
AcDbLine
 10
143.7200239617
 20
323.5187505456
 30
0.0
 11
150.7200239617
 21
298.4787824945
 31
0.0
  0
LINE
  5
29E
330
23
100
AcDbEntity
  8
0
  6
Continuous
 62
     7
370
    25
100
AcDbLine
 10
169.0184621529
 20
303.5941671099
 30
0.0
 11
159.9840113242
 21
301.0685586238
 31
0.0
  0
LINE
  5
29F
330
23
100
AcDbEntity
  8
0
  6
Continuous
 62
     7
370
    25
100
AcDbLine
 10
169.0184621529
 20
303.5941671099
 30
0.0
 11
162.0184621529
 21
328.634135161
 31
0.0
  0
LINE
  5
2A0
330
23
100
AcDbEntity
  8
0
  6
Continuous
 62
     7
370
    25
100
AcDbLine
 10
143.2384861145
 20
323.384135161
 30
0.0
 11
150.2384861145
 21
298.3441671099
 31
0.0
  0
LINE
  5
2A1
330
23
100
AcDbEntity
  8
0
  6
Continuous
 62
     7
370
    25
100
AcDbLine
 10
169.5
 20
303.7287824945
 30
0.0
 11
162.5
 21
328.7687505456
 31
0.0
  0
LINE
  5
2A2
330
23
100
AcDbEntity
  8
0
  6
Continuous
 62
     7
370
    25
100
AcDbLine
 10
-169.5
 20
303.7287824945
 30
0.0
 11
-162.5
 21
328.7687505456
 31
0.0
  0
LINE
  5
2A3
330
23
100
AcDbEntity
  8
0
  6
Continuous
 62
     7
370
    25
100
AcDbLine
 10
-143.2384861145
 20
323.384135161
 30
0.0
 11
-150.2384861145
 21
298.3441671099
 31
0.0
  0
LINE
  5
2A4
330
23
100
AcDbEntity
  8
0
  6
Continuous
 62
     7
370
    25
100
AcDbLine
 10
-169.5
 20
158.2712175055
 30
0.0
 11
-162.5
 21
133.2312494544
 31
0.0
  0
LINE
  5
2A5
330
23
100
AcDbEntity
  8
0
  6
Continuous
 62
     7
370
    25
100
AcDbLine
 10
-143.2384861145
 20
138.615864839
 30
0.0
 11
-150.2384861145
 21
163.6558328901
 31
0.0
  0
LINE
  5
2A6
330
23
100
AcDbEntity
  8
0
  6
Continuous
 62
     7
370
    25
100
AcDbLine
 10
143.2384861145
 20
138.615864839
 30
0.0
 11
150.2384861145
 21
163.6558328901
 31
0.0
  0
LINE
  5
2A7
330
23
100
AcDbEntity
  8
0
  6
Continuous
 62
     7
370
    25
100
AcDbLine
 10
169.5
 20
158.2712175055
 30
0.0
 11
162.5
 21
133.2312494544
 31
0.0
  0
LINE
  5
2A8
330
23
100
AcDbEntity
  8
0
  6
Continuous
 62
     7
370
    25
100
AcDbLine
 10
162.5
 20
328.7687505456
 30
0.0
 11
163.9446135414
 21
329.1725966994
 31
0.0
  0
LINE
  5
2A9
330
23
100
AcDbEntity
  8
0
  6
Continuous
 62
     7
370
    25
100
AcDbLine
 10
163.9446135414
 20
329.1725966994
 30
0.0
 11
170.9446135414
 21
304.1326286483
 31
0.0
  0
LINE
  5
2AA
330
23
100
AcDbEntity
  8
0
  6
Continuous
 62
     7
370
    25
100
AcDbLine
 10
170.9446135414
 20
304.1326286483
 30
0.0
 11
169.5
 21
303.7287824945
 31
0.0
  0
LINE
  5
2AB
330
23
100
AcDbEntity
  8
0
  6
Continuous
 62
     7
370
    25
100
AcDbLine
 10
170.9446135414
 20
157.8673713517
 30
0.0
 11
163.9446135414
 21
132.8274033006
 31
0.0
  0
LINE
  5
2AC
330
23
100
AcDbEntity
  8
0
  6
Continuous
 62
     7
370
    25
100
AcDbLine
 10
163.9446135414
 20
132.8274033006
 30
0.0
 11
162.5
 21
133.2312494544
 31
0.0
  0
LINE
  5
2AD
330
23
100
AcDbEntity
  8
0
  6
Continuous
 62
     7
370
    25
100
AcDbLine
 10
169.5
 20
158.2712175055
 30
0.0
 11
170.9446135414
 21
157.8673713517
 31
0.0
  0
LINE
  5
2AE
330
23
100
AcDbEntity
  8
0
  6
Continuous
 62
     7
370
    25
100
AcDbLine
 10
-141.7938725731
 20
322.9802890071
 30
0.0
 11
-143.2384861145
 21
323.384135161
 31
0.0
  0
LINE
  5
2AF
330
23
100
AcDbEntity
  8
0
  6
Continuous
 62
     7
370
    25
100
AcDbLine
 10
-163.9446135414
 20
329.1725966994
 30
0.0
 11
-162.5
 21
328.7687505456
 31
0.0
  0
LINE
  5
2B0
330
23
100
AcDbEntity
  8
0
  6
Continuous
 62
     7
370
    25
100
AcDbLine
 10
143.2384861145
 20
323.384135161
 30
0.0
 11
141.7938725731
 21
322.9802890071
 31
0.0
  0
LINE
  5
2B1
330
23
100
AcDbEntity
  8
0
  6
Continuous
 62
     7
370
    25
100
AcDbLine
 10
-141.7938725731
 20
322.9802890071
 30
0.0
 11
-148.7938725731
 21
297.940320956
 31
0.0
  0
LINE
  5
2B2
330
23
100
AcDbEntity
  8
0
  6
Continuous
 62
     7
370
    25
100
AcDbLine
 10
-150.2384861145
 20
298.3441671099
 30
0.0
 11
-148.7938725731
 21
297.940320956
 31
0.0
  0
LINE
  5
2B3
330
23
100
AcDbEntity
  8
0
  6
Continuous
 62
     7
370
    25
100
AcDbLine
 10
-169.5
 20
303.7287824945
 30
0.0
 11
-170.9446135414
 21
304.1326286483
 31
0.0
  0
LINE
  5
2B4
330
23
100
AcDbEntity
  8
0
  6
Continuous
 62
     7
370
    25
100
AcDbLine
 10
-143.2384861145
 20
138.615864839
 30
0.0
 11
-141.7938725731
 21
139.0197109929
 31
0.0
  0
LINE
  5
2B5
330
23
100
AcDbEntity
  8
0
  6
Continuous
 62
     7
370
    25
100
AcDbLine
 10
-162.5
 20
133.2312494544
 30
0.0
 11
-163.9446135414
 21
132.8274033006
 31
0.0
  0
LINE
  5
2B6
330
23
100
AcDbEntity
  8
0
  6
Continuous
 62
     7
370
    25
100
AcDbLine
 10
-148.7938725731
 20
164.059679044
 30
0.0
 11
-150.2384861145
 21
163.6558328901
 31
0.0
  0
LINE
  5
2B7
330
23
100
AcDbEntity
  8
0
  6
Continuous
 62
     7
370
    25
100
AcDbLine
 10
-170.9446135414
 20
157.8673713517
 30
0.0
 11
-169.5
 21
158.2712175055
 31
0.0
  0
LINE
  5
2B8
330
23
100
AcDbEntity
  8
0
  6
Continuous
 62
     7
370
    25
100
AcDbLine
 10
-148.7938725731
 20
164.059679044
 30
0.0
 11
-141.7938725731
 21
139.0197109929
 31
0.0
  0
LINE
  5
2B9
330
23
100
AcDbEntity
  8
0
  6
Continuous
 62
     7
370
    25
100
AcDbLine
 10
150.2384861145
 20
163.6558328901
 30
0.0
 11
148.7938725731
 21
164.059679044
 31
0.0
  0
LINE
  5
2BA
330
23
100
AcDbEntity
  8
0
  6
Continuous
 62
     7
370
    25
100
AcDbLine
 10
-163.9446135414
 20
132.8274033006
 30
0.0
 11
-170.9446135414
 21
157.8673713517
 31
0.0
  0
LINE
  5
2BB
330
23
100
AcDbEntity
  8
0
  6
Continuous
 62
     7
370
    25
100
AcDbLine
 10
-170.9446135414
 20
304.1326286483
 30
0.0
 11
-163.9446135414
 21
329.1725966994
 31
0.0
  0
LINE
  5
2BC
330
23
100
AcDbEntity
  8
0
  6
Continuous
 62
     7
370
    25
100
AcDbLine
 10
148.7938725731
 20
297.940320956
 30
0.0
 11
150.2384861145
 21
298.3441671099
 31
0.0
  0
LINE
  5
2BD
330
23
100
AcDbEntity
  8
0
  6
Continuous
 62
     7
370
    25
100
AcDbLine
 10
148.7938725731
 20
297.940320956
 30
0.0
 11
141.7938725731
 21
322.9802890071
 31
0.0
  0
LINE
  5
2BE
330
23
100
AcDbEntity
  8
0
  6
Continuous
 62
     7
370
    25
100
AcDbLine
 10
141.7938725731
 20
139.0197109929
 30
0.0
 11
148.7938725731
 21
164.059679044
 31
0.0
  0
LINE
  5
2BF
330
23
100
AcDbEntity
  8
0
  6
Continuous
 62
     7
370
    25
100
AcDbLine
 10
141.7938725731
 20
139.0197109929
 30
0.0
 11
143.2384861145
 21
138.615864839
 31
0.0
  0
LINE
  5
2C0
330
23
100
AcDbEntity
  8
0
  6
Continuous
 62
     7
370
    25
100
AcDbLine
 10
110.5
 20
30.1053308095
 30
0.0
 11
120.5
 21
30.1053308095
 31
0.0
  0
LINE
  5
2C1
330
23
100
AcDbEntity
  8
0
  6
Continuous
 62
     7
370
    25
100
AcDbLine
 10
120.5
 20
42.7807763982
 30
0.0
 11
120.5
 21
0.0
 31
0.0
  0
LINE
  5
2C2
330
23
100
AcDbEntity
  8
0
  6
Continuous
 62
     7
370
    25
100
AcDbLine
 10
-110.5
 20
30.1053308095
 30
0.0
 11
-120.5
 21
30.1053308095
 31
0.0
  0
LINE
  5
2C3
330
23
100
AcDbEntity
  8
0
  6
Continuous
 62
     7
370
    25
100
AcDbLine
 10
-120.5
 20
42.7807763982
 30
0.0
 11
-120.5
 21
0.0
 31
0.0
  0
LINE
  5
2C4
330
23
100
AcDbEntity
  8
0
  6
Continuous
 62
     7
370
    25
100
AcDbLine
 10
-120.5
 20
42.7807763982
 30
0.0
 11
-110.5
 21
42.7807763982
 31
0.0
  0
LINE
  5
2C5
330
23
100
AcDbEntity
  8
0
  6
Continuous
 62
     7
370
    25
100
AcDbLine
 10
-132.5
 20
38.0
 30
0.0
 11
-130.5
 21
38.0
 31
0.0
  0
LINE
  5
2C6
330
23
100
AcDbEntity
  8
0
  6
Continuous
 62
     7
370
    25
100
AcDbLine
 10
-169.5
 20
22.1054503106
 30
0.0
 11
-142.5
 21
22.1054503106
 31
0.0
  0
LINE
  5
2C7
330
23
100
AcDbEntity
  8
0
  6
Continuous
 62
     7
370
    25
100
AcDbLine
 10
-169.5
 20
122.9761935499
 30
0.0
 11
-107.8260057122
 21
122.9761935499
 31
0.0
  0
LINE
  5
2C8
330
23
100
AcDbEntity
  8
0
  6
Continuous
 62
     7
370
    25
100
AcDbLine
 10
-40.1323337606
 20
81.0882059392
 30
0.0
 11
-110.5
 21
81.0882059392
 31
0.0
  0
LINE
  5
2C9
330
23
100
AcDbEntity
  8
0
  6
Continuous
 62
     7
370
    25
100
AcDbLine
 10
-110.5
 20
81.0882059392
 30
0.0
 11
-110.5
 21
0.0
 31
0.0
  0
LINE
  5
2CA
330
23
100
AcDbEntity
  8
0
  6
Continuous
 62
     7
370
    25
100
AcDbLine
 10
107.8260057122
 20
122.9761935499
 30
0.0
 11
169.5
 21
122.9761935499
 31
0.0
  0
LINE
  5
2CB
330
23
100
AcDbEntity
  8
0
  6
Continuous
 62
     7
370
    25
100
AcDbLine
 10
142.5
 20
22.1054503106
 30
0.0
 11
169.5
 21
22.1054503106
 31
0.0
  0
LINE
  5
2CC
330
23
100
AcDbEntity
  8
0
  6
Continuous
 62
     7
370
    25
100
AcDbLine
 10
132.5
 20
38.0
 30
0.0
 11
130.5
 21
38.0
 31
0.0
  0
LINE
  5
2CD
330
23
100
AcDbEntity
  8
0
  6
Continuous
 62
     7
370
    25
100
AcDbLine
 10
120.5
 20
42.7807763982
 30
0.0
 11
110.5
 21
42.7807763982
 31
0.0
  0
LINE
  5
2CE
330
23
100
AcDbEntity
  8
0
  6
Continuous
 62
     7
370
    25
100
AcDbLine
 10
110.5
 20
81.0882059392
 30
0.0
 11
40.1323337606
 21
81.0882059392
 31
0.0
  0
LINE
  5
2CF
330
23
100
AcDbEntity
  8
0
  6
Continuous
 62
     7
370
    25
100
AcDbLine
 10
110.5
 20
81.0882059392
 30
0.0
 11
110.5
 21
0.0
 31
0.0
  0
LINE
  5
2D0
330
23
100
AcDbEntity
  8
0
  6
Continuous
 62
     7
370
    25
100
AcDbLine
 10
-177.5
 20
20.0
 30
0.0
 11
-169.5
 21
20.0
 31
0.0
  0
LINE
  5
2D1
330
23
100
AcDbEntity
  8
0
  6
Continuous
 62
     7
370
    25
100
AcDbLine
 10
-177.5
 20
267.5
 30
0.0
 11
-177.5
 21
0.0
 31
0.0
  0
LINE
  5
2D2
330
23
100
AcDbEntity
  8
0
  6
Continuous
 62
     7
370
    25
100
AcDbLine
 10
169.5
 20
20.0
 30
0.0
 11
177.5
 21
20.0
 31
0.0
  0
LINE
  5
2D3
330
23
100
AcDbEntity
  8
0
  6
Continuous
 62
     7
370
    25
100
AcDbLine
 10
177.5
 20
0.0
 30
0.0
 11
177.5
 21
267.5
 31
0.0
  0
LINE
  5
2D4
330
23
100
AcDbEntity
  8
0
  6
Continuous
 62
     7
370
    25
100
AcDbLine
 10
169.5
 20
0.0
 30
0.0
 11
169.5
 21
122.9761935499
 31
0.0
  0
LINE
  5
2D5
330
23
100
AcDbEntity
  8
0
  6
Continuous
 62
     7
370
    25
100
AcDbLine
 10
-169.5
 20
122.9761935499
 30
0.0
 11
-169.5
 21
0.0
 31
0.0
  0
LINE
  5
2D6
330
23
100
AcDbEntity
  8
0
  6
Continuous
 62
     7
370
    25
100
AcDbLine
 10
-177.5
 20
0.0
 30
0.0
 11
177.5
 21
0.0
 31
0.0
  0
LINE
  5
2D7
330
23
100
AcDbEntity
  8
0
  6
Continuous
 62
     7
370
    25
100
AcDbLine
 10
110.5
 20
32.5664748925
 30
0.0
 11
-110.5
 21
32.5664748925
 31
0.0
  0
LINE
  5
2D8
330
23
100
AcDbEntity
  8
0
  6
Continuous
 62
     7
370
    25
100
AcDbLine
 10
142.5
 20
0.0
 30
0.0
 11
142.5
 21
28.0
 31
0.0
  0
LINE
  5
2D9
330
23
100
AcDbEntity
  8
0
  6
Continuous
 62
     7
370
    25
100
AcDbLine
 10
169.5
 20
8.0
 30
0.0
 11
142.5
 21
8.0
 31
0.0
  0
LINE
  5
2DA
330
23
100
AcDbEntity
  8
0
  6
Continuous
 62
     7
370
    25
100
AcDbLine
 10
-142.5
 20
8.0
 30
0.0
 11
-169.5
 21
8.0
 31
0.0
  0
LINE
  5
2DB
330
23
100
AcDbEntity
  8
0
  6
Continuous
 62
     7
370
    25
100
AcDbLine
 10
-142.5
 20
28.0
 30
0.0
 11
-142.5
 21
0.0
 31
0.0
  0
LINE
  5
2DC
330
23
100
AcDbEntity
  8
0
  6
Continuous
 62
     7
370
    25
100
AcDbLine
 10
-169.5
 20
16.0027655862
 30
0.0
 11
-142.5
 21
16.0027655862
 31
0.0
  0
LINE
  5
2DD
330
23
100
AcDbEntity
  8
0
  6
Continuous
 62
     7
370
    25
100
AcDbLine
 10
142.5
 20
16.0027655862
 30
0.0
 11
169.5
 21
16.0027655862
 31
0.0
  0
LINE
  5
2DE
330
23
100
AcDbEntity
  8
0
  6
Continuous
 62
     7
370
    25
100
AcDbLine
 10
110.5
 20
0.8126250942
 30
0.0
 11
110.0
 21
0.8126250942
 31
0.0
  0
LINE
  5
2DF
330
23
100
AcDbEntity
  8
0
  6
Continuous
 62
     7
370
    25
100
AcDbLine
 10
69.012816155
 20
0.8126250942
 30
0.0
 11
61.9946907966
 21
0.8126250942
 31
0.0
  0
LINE
  5
2E0
330
23
100
AcDbEntity
  8
0
  6
Continuous
 62
     7
370
    25
100
AcDbLine
 10
-61.987183845
 20
0.8126250942
 30
0.0
 11
-69.0053092034
 21
0.8126250942
 31
0.0
  0
LINE
  5
2E1
330
23
100
AcDbEntity
  8
0
  6
Continuous
 62
     7
370
    25
100
AcDbLine
 10
-110.0
 20
0.8126250942
 30
0.0
 11
-110.5
 21
0.8126250942
 31
0.0
  0
LINE
  5
2E2
330
23
100
AcDbEntity
  8
0
  6
Continuous
 62
     7
370
    25
100
AcDbLine
 10
169.5
 20
18.7198163459
 30
0.0
 11
142.5
 21
18.7198163459
 31
0.0
  0
LINE
  5
2E3
330
23
100
AcDbEntity
  8
0
  6
Continuous
 62
     7
370
    25
100
AcDbLine
 10
-142.5
 20
18.7198163459
 30
0.0
 11
-169.5
 21
18.7198163459
 31
0.0
  0
LINE
  5
2E4
330
23
100
AcDbEntity
  8
0
  6
Continuous
 62
     8
370
    25
100
AcDbLine
 10
-139.8568387246
 20
34.7583649494
 30
0.0
 11
-123.2758069879
 21
34.7583649494
 31
0.0
  0
LINE
  5
2E5
330
23
100
AcDbEntity
  8
0
  6
Continuous
 62
     8
370
    25
100
AcDbLine
 10
123.1431612754
 20
34.7583649494
 30
0.0
 11
139.7241930121
 21
34.7583649494
 31
0.0
  0
LINE
  5
2E6
330
23
100
AcDbEntity
  8
0
  6
Continuous
 62
     8
370
    25
100
AcDbLine
 10
138.5
 20
9.1952681664
 30
0.0
 11
142.5
 21
9.1952681664
 31
0.0
  0
LINE
  5
2E7
330
23
100
AcDbEntity
  8
0
  6
Continuous
 62
     8
370
    25
100
AcDbLine
 10
-123.5
 20
9.1952681664
 30
0.0
 11
-120.5
 21
9.1952681664
 31
0.0
  0
LINE
  5
2E8
330
23
100
AcDbEntity
  8
0
  6
Continuous
 62
     8
370
    25
100
AcDbLine
 10
120.5
 20
9.1952681664
 30
0.0
 11
123.5
 21
9.1952681664
 31
0.0
  0
LINE
  5
2E9
330
23
100
AcDbEntity
  8
0
  6
Continuous
 62
     8
370
    25
100
AcDbLine
 10
-142.5
 20
9.1952681664
 30
0.0
 11
-138.5
 21
9.1952681664
 31
0.0
  0
ARC
  5
2EA
330
23
100
AcDbEntity
  8
0
  6
Continuous
 62
     7
370
    25
100
AcDbCircle
 10
0.0
 20
210.5
 30
0.0
 40
138.8771550808984
100
AcDbArc
 50
180.0
 51
219.0666987489
  0
ARC
  5
2EB
330
23
100
AcDbEntity
  8
0
  6
Continuous
 62
     7
370
    25
100
AcDbCircle
 10
0.0
 20
210.5
 30
0.0
 40
138.8771550808975
100
AcDbArc
 50
320.9333012511
 51
0.0
  0
ARC
  5
2EC
330
23
100
AcDbEntity
  8
0
  6
Continuous
 62
     7
370
    25
100
AcDbCircle
 10
0.0
 20
210.5
 30
0.0
 40
113.5000000000006
100
AcDbArc
 50
180.0
 51
0.0
  0
ARC
  5
2ED
330
23
100
AcDbEntity
  8
0
  6
Continuous
 62
     7
370
    25
100
AcDbCircle
 10
0.0
 20
267.5
 30
0.0
 40
113.5000000000001
100
AcDbArc
 50
0.0
 51
180.0
  0
ARC
  5
2EE
330
23
100
AcDbEntity
  8
0
  6
Continuous
 62
     7
370
    25
100
AcDbCircle
 10
0.0
 20
210.5
 30
0.0
 40
105.5000000000009
100
AcDbArc
 50
180.0
 51
0.0
  0
ARC
  5
2EF
330
23
100
AcDbEntity
  8
0
  6
Continuous
 62
     7
370
    25
100
AcDbCircle
 10
0.0
 20
267.5
 30
0.0
 40
105.5000000000001
100
AcDbArc
 50
0.0
 51
180.0
  0
ARC
  5
2F0
330
23
100
AcDbEntity
  8
0
  6
Continuous
 62
     7
370
    25
100
AcDbCircle
 10
0.0
 20
267.5
 30
0.0
 40
138.8771550808991
100
AcDbArc
 50
0.0
 51
180.0
  0
ARC
  5
2F1
330
23
100
AcDbEntity
  8
0
  6
Continuous
 62
     7
370
    25
100
AcDbCircle
 10
159.8692430573
 20
160.9635251978
 30
0.0
 40
0.1191684803530961
100
AcDbArc
 50
344.3815017244
 51
164.3815017244
  0
ARC
  5
2F2
330
23
100
AcDbEntity
  8
0
  6
Continuous
 62
     7
370
    25
100
AcDbCircle
 10
159.8692430573
 20
160.9635251978
 30
0.0
 40
9.499999999999964
100
AcDbArc
 50
344.3815017244
 51
164.3815017244
  0
ARC
  5
2F3
330
23
100
AcDbEntity
  8
0
  6
Continuous
 62
     7
370
    25
100
AcDbCircle
 10
-152.8692430573
 20
135.9235571467
 30
0.0
 40
0.1191684803531235
100
AcDbArc
 50
195.6184982756
 51
15.6184982756
  0
ARC
  5
2F4
330
23
100
AcDbEntity
  8
0
  6
Continuous
 62
     7
370
    25
100
AcDbCircle
 10
-152.8692430573
 20
135.9235571467
 30
0.0
 40
9.500000000000002
100
AcDbArc
 50
195.6184982757
 51
15.6184982756
  0
ARC
  5
2F5
330
23
100
AcDbEntity
  8
0
  6
Continuous
 62
     7
370
    25
100
AcDbCircle
 10
152.8692430573
 20
135.9235571467
 30
0.0
 40
9.500000000000014
100
AcDbArc
 50
164.3815017244
 51
344.3815017244
  0
ARC
  5
2F6
330
23
100
AcDbEntity
  8
0
  6
Continuous
 62
     7
370
    25
100
AcDbCircle
 10
152.8692430573
 20
135.9235571467
 30
0.0
 40
0.1191684803531388
100
AcDbArc
 50
164.3815017244
 51
344.3815017244
  0
ARC
  5
2F7
330
23
100
AcDbEntity
  8
0
  6
Continuous
 62
     7
370
    25
100
AcDbCircle
 10
-159.8692430573
 20
160.9635251978
 30
0.0
 40
0.1191684803531082
100
AcDbArc
 50
15.6184982756
 51
195.6184982756
  0
ARC
  5
2F8
330
23
100
AcDbEntity
  8
0
  6
Continuous
 62
     7
370
    25
100
AcDbCircle
 10
-159.8692430573
 20
160.9635251978
 30
0.0
 40
9.49999999999997
100
AcDbArc
 50
15.6184982756
 51
195.6184982756
  0
ARC
  5
2F9
330
23
100
AcDbEntity
  8
0
  6
Continuous
 62
     7
370
    25
100
AcDbCircle
 10
152.8692430573
 20
326.0764428533
 30
0.0
 40
0.1191684803531509
100
AcDbArc
 50
15.6184982756
 51
195.6184982756
  0
ARC
  5
2FA
330
23
100
AcDbEntity
  8
0
  6
Continuous
 62
     7
370
    25
100
AcDbCircle
 10
159.8692430573
 20
301.0364748022
 30
0.0
 40
0.1191684803531114
100
AcDbArc
 50
195.6184982756
 51
15.6184982757
  0
ARC
  5
2FB
330
23
100
AcDbEntity
  8
0
  6
Continuous
 62
     7
370
    25
100
AcDbCircle
 10
-152.8692430573
 20
326.0764428533
 30
0.0
 40
0.1191684803531662
100
AcDbArc
 50
344.3815017244
 51
164.3815017243
  0
ARC
  5
2FC
330
23
100
AcDbEntity
  8
0
  6
Continuous
 62
     7
370
    25
100
AcDbCircle
 10
-159.8692430573
 20
301.0364748022
 30
0.0
 40
0.1191684803531235
100
AcDbArc
 50
164.3815017244
 51
344.3815017244
  0
ARC
  5
2FD
330
23
100
AcDbEntity
  8
0
  6
Continuous
 62
     7
370
    25
100
AcDbCircle
 10
-159.8692430573
 20
301.0364748022
 30
0.0
 40
9.49999999999996
100
AcDbArc
 50
164.3815017244
 51
344.3815017244
  0
ARC
  5
2FE
330
23
100
AcDbEntity
  8
0
  6
Continuous
 62
     7
370
    25
100
AcDbCircle
 10
152.8692430573
 20
326.0764428533
 30
0.0
 40
9.50000000000003
100
AcDbArc
 50
15.6184982756
 51
195.6184982757
  0
ARC
  5
2FF
330
23
100
AcDbEntity
  8
0
  6
Continuous
 62
     7
370
    25
100
AcDbCircle
 10
-152.8692430573
 20
326.0764428533
 30
0.0
 40
9.50000000000003
100
AcDbArc
 50
344.3815017244
 51
164.3815017244
  0
ARC
  5
300
330
23
100
AcDbEntity
  8
0
  6
Continuous
 62
     7
370
    25
100
AcDbCircle
 10
159.8692430573
 20
301.0364748022
 30
0.0
 40
9.49999999999996
100
AcDbArc
 50
195.6184982756
 51
15.6184982756
  0
ARC
  5
301
330
23
100
AcDbEntity
  8
0
  6
Continuous
 62
     7
370
    25
100
AcDbCircle
 10
159.8692430573
 20
301.0364748022
 30
0.0
 40
9.999999999999966
100
AcDbArc
 50
195.6184982756
 51
15.6184982756
  0
ARC
  5
302
330
23
100
AcDbEntity
  8
0
  6
Continuous
 62
     7
370
    25
100
AcDbCircle
 10
152.8692430573
 20
326.0764428533
 30
0.0
 40
10.00000000000001
100
AcDbArc
 50
15.6184982756
 51
195.6184982756
  0
ARC
  5
303
330
23
100
AcDbEntity
  8
0
  6
Continuous
 62
     7
370
    25
100
AcDbCircle
 10
-159.8692430573
 20
301.0364748022
 30
0.0
 40
9.999999999999966
100
AcDbArc
 50
164.3815017244
 51
344.3815017244
  0
ARC
  5
304
330
23
100
AcDbEntity
  8
0
  6
Continuous
 62
     7
370
    25
100
AcDbCircle
 10
-152.8692430573
 20
326.0764428533
 30
0.0
 40
10.00000000000001
100
AcDbArc
 50
344.3815017244
 51
164.3815017244
  0
ARC
  5
305
330
23
100
AcDbEntity
  8
0
  6
Continuous
 62
     7
370
    25
100
AcDbCircle
 10
-152.8692430573
 20
135.9235571467
 30
0.0
 40
10.00000000000002
100
AcDbArc
 50
195.6184982757
 51
15.6184982756
  0
ARC
  5
306
330
23
100
AcDbEntity
  8
0
  6
Continuous
 62
     7
370
    25
100
AcDbCircle
 10
-159.8692430573
 20
160.9635251978
 30
0.0
 40
9.999999999999957
100
AcDbArc
 50
15.6184982756
 51
195.6184982757
  0
ARC
  5
307
330
23
100
AcDbEntity
  8
0
  6
Continuous
 62
     7
370
    25
100
AcDbCircle
 10
159.8692430573
 20
160.9635251978
 30
0.0
 40
9.999999999999936
100
AcDbArc
 50
344.3815017244
 51
164.3815017244
  0
ARC
  5
308
330
23
100
AcDbEntity
  8
0
  6
Continuous
 62
     7
370
    25
100
AcDbCircle
 10
152.8692430573
 20
135.9235571467
 30
0.0
 40
10.00000000000001
100
AcDbArc
 50
164.3815017244
 51
344.3815017244
  0
ARC
  5
309
330
23
100
AcDbEntity
  8
0
  6
Continuous
 62
     7
370
    25
100
AcDbCircle
 10
-152.8692430573
 20
326.0764428533
 30
0.0
 40
11.50000000000001
100
AcDbArc
 50
344.3815017244
 51
164.3815017244
  0
ARC
  5
30A
330
23
100
AcDbEntity
  8
0
  6
Continuous
 62
     7
370
    25
100
AcDbCircle
 10
152.8692430573
 20
326.0764428533
 30
0.0
 40
11.50000000000002
100
AcDbArc
 50
15.6184982756
 51
195.6184982757
  0
ARC
  5
30B
330
23
100
AcDbEntity
  8
0
  6
Continuous
 62
     7
370
    25
100
AcDbCircle
 10
-159.8692430573
 20
301.0364748022
 30
0.0
 40
11.50000000000003
100
AcDbArc
 50
164.3815017244
 51
344.3815017244
  0
ARC
  5
30C
330
23
100
AcDbEntity
  8
0
  6
Continuous
 62
     7
370
    25
100
AcDbCircle
 10
-152.8692430573
 20
135.9235571467
 30
0.0
 40
11.50000000000002
100
AcDbArc
 50
195.6184982757
 51
15.6184982756
  0
ARC
  5
30D
330
23
100
AcDbEntity
  8
0
  6
Continuous
 62
     7
370
    25
100
AcDbCircle
 10
-159.8692430573
 20
160.9635251978
 30
0.0
 40
11.50000000000002
100
AcDbArc
 50
15.6184982756
 51
195.6184982756
  0
ARC
  5
30E
330
23
100
AcDbEntity
  8
0
  6
Continuous
 62
     7
370
    25
100
AcDbCircle
 10
159.8692430573
 20
160.9635251978
 30
0.0
 40
11.50000000000001
100
AcDbArc
 50
344.3815017244
 51
164.3815017244
  0
ARC
  5
30F
330
23
100
AcDbEntity
  8
0
  6
Continuous
 62
     7
370
    25
100
AcDbCircle
 10
152.8692430573
 20
135.9235571467
 30
0.0
 40
11.5
100
AcDbArc
 50
164.3815017244
 51
344.3815017244
  0
ARC
  5
310
330
23
100
AcDbEntity
  8
0
  6
Continuous
 62
     7
370
    25
100
AcDbCircle
 10
159.8692430573
 20
301.0364748022
 30
0.0
 40
11.50000000000003
100
AcDbArc
 50
195.6184982757
 51
15.6184982756
  0
ARC
  5
311
330
23
100
AcDbEntity
  8
0
  6
Continuous
 62
     7
370
    25
100
AcDbCircle
 10
0.0
 20
267.5
 30
0.0
 40
177.5000000000001
100
AcDbArc
 50
0.0
 51
180.0
  0
VIEWPORT
  5
364
330
23
100
AcDbEntity
  8
0
100
AcDbViewport
 10
0.0
 20
0.0
 30
0.0
 40
205.6
 41
156.0
 68
     1
 69
     1
 12
0.0
 22
29.5
 13
0.0
 23
0.0
 14
10.0
 24
10.0
 15
10.0
 25
10.0
 16
0.0
 26
0.0
 36
1.0
 17
0.0
 27
0.0
 37
0.0
 42
50.0
 43
0.0
 44
0.0
 45
274.7451361868
 50
0.0
 51
0.0
 72
   100
 90
   557152
  1

281
     0
 71
     1
 74
     0
110
0.0
120
0.0
130
0.0
111
1.0
121
0.0
131
0.0
112
0.0
122
1.0
132
0.0
 79
     0
146
0.0
  0
ENDBLK
  5
25
330
23
100
AcDbEntity
  8
0
100
AcDbBlockEnd
  0
BLOCK
  5
314
330
312
100
AcDbEntity
  8
0
100
AcDbBlockBegin
  2
*Paper_Space1
 70
     0
 10
0.0
 20
0.0
 30
0.0
  3
*Paper_Space1
  1

  0
LWPOLYLINE
  5
319
330
312
100
AcDbEntity
  8
0
  6
Continuous
 62
     7
370
    25
100
AcDbPolyline
 90
       54
 70
   128
 43
0.0
 10
-366.6510639674
 20
-85.5149014116
 10
-366.6063756697
 20
-87.8140977488
 10
-366.2490042881
 20
-92.4078601477
 10
-365.5349812235
 20
-96.987741045
 10
-364.465744423
 20
-101.5445171702
 10
-363.0434471875
 20
-106.0690117824
 10
-361.2709538343
 20
-110.5521131518
 10
-359.151833929
 20
-114.9847929088
 10
-356.6903550971
 20
-119.3581242262
 10
-353.8914744295
 20
-123.6632997968
 10
-350.7608284993
 20
-127.89164957
 10
-347.3047220108
 20
-132.0346582119
 10
-343.5301151025
 20
-136.0839822547
 10
-339.4446093304
 20
-140.0314668985
 10
-335.0564323594
 20
-143.8691624346
 10
-330.3744213939
 20
-147.5893402549
 10
-325.4080053809
 20
-151.1845084165
 10
-320.1671860214
 20
-154.647426729
 10
-314.662517628
 20
-157.9711213359
 10
-308.9050858703
 20
-161.1488987585
 10
-302.9064854497
 20
-164.174359376
 10
-296.6787967491
 20
-167.0414103134
 10
-290.2345615048
 20
-169.7442777116
 10
-283.5867575489
 20
-172.2775183554
 10
-276.7487726738
 20
-174.6360306353
 10
-269.7343776712
 20
-176.8150648215
 10
-262.557698599
 20
-178.8102326289
 10
-255.2331883337
 20
-180.6175160553
 10
-247.7755974644
 20
-182.2332754723
 10
-240.1999445866
 20
-183.6542569555
 10
-232.5214860569
 20
-184.8775988373
 10
-224.7556852689
 20
-185.9008374698
 10
-216.918181512
 20
-186.7219121868
 10
-209.0247584757
 20
-187.339169453
 10
-201.0913124635
 20
-187.7513661944
 10
-193.1338203799
 20
-187.9576723016
 10
-185.1683075549
 20
-187.9576723016
 10
-177.2108154713
 20
-187.7513661944
 10
-169.2773694591
 20
-187.339169453
 10
-161.3839464228
 20
-186.7219121868
 10
-153.5464426659
 20
-185.9008374698
 10
-145.7806418779
 20
-184.8775988373
 10
-138.1021833482
 20
-183.6542569555
 10
-130.5265304704
 20
-182.2332754723
 10
-123.0689396011
 20
-180.6175160553
 10
-115.7444293358
 20
-178.8102326289
 10
-108.5677502636
 20
-176.8150648215
 10
-101.553355261
 20
-174.6360306353
 10
-94.7153703859
 20
-172.2775183554
 10
-88.06756643
 20
-169.7442777116
 10
-81.6233311857
 20
-167.0414103134
 10
-75.3956424851
 20
-164.174359376
 10
-69.3970420645
 20
-161.1488987585
 10
-63.6396103068
 20
-157.9711213359
  0
LWPOLYLINE
  5
31A
330
312
100
AcDbEntity
  8
0
  6
Continuous
 62
     7
370
    25
100
AcDbPolyline
 90
       71
 70
   128
 43
0.0
 10
-63.6396103068
 20
-151.8470652467
 10
-69.3970420645
 20
-155.0248426693
 10
-75.3956424851
 20
-158.0503032869
 10
-81.6233311857
 20
-160.9173542242
 10
-88.06756643
 20
-163.6202216225
 10
-94.7153703859
 20
-166.1534622663
 10
-101.553355261
 20
-168.5119745462
 10
-108.5677502636
 20
-170.6910087323
 10
-115.7444293358
 20
-172.6861765398
 10
-123.0689396011
 20
-174.4934599662
 10
-130.5265304704
 20
-176.1092193832
 10
-138.1021833482
 20
-177.5302008664
 10
-145.7806418779
 20
-178.7535427481
 10
-153.5464426659
 20
-179.7767813807
 10
-161.3839464228
 20
-180.5978560977
 10
-169.2773694591
 20
-181.2151133639
 10
-177.2108154713
 20
-181.6273101053
 10
-185.1683075549
 20
-181.8336162125
 10
-193.1338203799
 20
-181.8336162125
 10
-201.0913124635
 20
-181.6273101053
 10
-209.0247584757
 20
-181.2151133639
 10
-216.918181512
 20
-180.5978560977
 10
-224.7556852689
 20
-179.7767813807
 10
-232.5214860569
 20
-178.7535427481
 10
-240.1999445866
 20
-177.5302008664
 10
-247.7755974644
 20
-176.1092193832
 10
-255.2331883337
 20
-174.4934599662
 10
-262.557698599
 20
-172.6861765398
 10
-269.7343776712
 20
-170.6910087323
 10
-276.7487726738
 20
-168.5119745462
 10
-283.5867575489
 20
-166.1534622663
 10
-290.2345615048
 20
-163.6202216225
 10
-296.6787967491
 20
-160.9173542242
 10
-302.9064854497
 20
-158.0503032869
 10
-308.9050858703
 20
-155.0248426693
 10
-314.662517628
 20
-151.8470652467
 10
-320.1671860214
 20
-148.5233706398
 10
-325.4080053809
 20
-145.0604523273
 10
-330.3744213939
 20
-141.4652841658
 10
-335.0564323594
 20
-137.7451063454
 10
-339.4446093304
 20
-133.9074108093
 10
-343.5301151025
 20
-129.9599261655
 10
-347.3047220108
 20
-125.9106021228
 10
-350.7608284993
 20
-121.7675934808
 10
-353.8914744295
 20
-117.5392437077
 10
-356.6903550971
 20
-113.234068137
 10
-359.151833929
 20
-108.8607368196
 10
-361.2709538343
 20
-104.4280570627
 10
-363.0434471875
 20
-99.9449556933
 10
-364.465744423
 20
-95.420461081
 10
-365.5349812235
 20
-90.8636849559
 10
-366.2490042881
 20
-86.2838040585
 10
-366.6063756697
 20
-81.6900416596
 10
-366.6063756697
 20
-77.0916489853
 10
-366.2490042881
 20
-72.4978865864
 10
-365.5349812235
 20
-67.9180056891
 10
-364.465744423
 20
-63.3612295639
 10
-363.0434471875
 20
-58.8367349516
 10
-361.2709538343
 20
-54.3536335822
 10
-359.151833929
 20
-49.9209538253
 10
-356.6903550971
 20
-45.5476225079
 10
-353.8914744295
 20
-41.2424469373
 10
-350.7608284993
 20
-37.0140971641
 10
-347.3047220108
 20
-32.8710885221
 10
-343.5301151025
 20
-28.8217644794
 10
-339.4446093304
 20
-24.8742798356
 10
-335.0564323594
 20
-21.0365842995
 10
-330.3744213939
 20
-17.3164064791
 10
-325.4080053809
 20
-13.7212383176
 10
-320.1671860214
 20
-10.2583200051
 10
-314.662517628
 20
-6.9346253982
  0
LWPOLYLINE
  5
330
330
312
100
AcDbEntity
  8
0
  6
Continuous
 62
     7
370
    25
100
AcDbPolyline
 90
       55
 70
   128
 43
0.0
 10
-63.6396103068
 20
-163.6869070191
 10
-69.3970420645
 20
-166.8646844417
 10
-75.3956424851
 20
-169.8901450592
 10
-81.6233311857
 20
-172.7571959966
 10
-88.06756643
 20
-175.4600633948
 10
-94.7153703859
 20
-177.9933040386
 10
-101.553355261
 20
-180.3518163185
 10
-108.5677502636
 20
-182.5308505047
 10
-115.7444293358
 20
-184.5260183121
 10
-123.0689396011
 20
-186.3333017385
 10
-130.5265304704
 20
-187.9490611555
 10
-138.1021833482
 20
-189.3700426387
 10
-145.7806418779
 20
-190.5933845205
 10
-153.5464426659
 20
-191.616623153
 10
-161.3839464228
 20
-192.43769787
 10
-169.2773694591
 20
-193.0549551362
 10
-177.2108154713
 20
-193.4671518776
 10
-185.1683075549
 20
-193.6734579848
 10
-193.1338203799
 20
-193.6734579848
 10
-201.0913124635
 20
-193.4671518776
 10
-209.0247584757
 20
-193.0549551362
 10
-216.918181512
 20
-192.43769787
 10
-224.7556852689
 20
-191.616623153
 10
-232.5214860569
 20
-190.5933845205
 10
-240.1999445866
 20
-189.3700426387
 10
-247.7755974644
 20
-187.9490611555
 10
-255.2331883337
 20
-186.3333017385
 10
-262.557698599
 20
-184.5260183121
 10
-269.7343776712
 20
-182.5308505047
 10
-276.7487726738
 20
-180.3518163185
 10
-283.5867575489
 20
-177.9933040386
 10
-290.2345615048
 20
-175.4600633948
 10
-296.6787967491
 20
-172.7571959966
 10
-302.9064854497
 20
-169.8901450592
 10
-308.9050858703
 20
-166.8646844417
 10
-314.662517628
 20
-163.6869070191
 10
-320.1671860214
 20
-160.3632124122
 10
-325.4080053809
 20
-156.9002940997
 10
-330.3744213939
 20
-153.3051259381
 10
-335.0564323594
 20
-149.5849481178
 10
-339.4446093304
 20
-145.7472525817
 10
-343.5301151025
 20
-141.7997679379
 10
-347.3047220108
 20
-137.7504438951
 10
-350.7608284993
 20
-133.6074352532
 10
-353.8914744295
 20
-129.37908548
 10
-356.6903550971
 20
-125.0739099094
 10
-359.151833929
 20
-120.700578592
 10
-361.2709538343
 20
-116.267898835
 10
-363.0434471875
 20
-111.7847974656
 10
-364.465744423
 20
-107.2603028534
 10
-365.5349812235
 20
-102.7035267282
 10
-366.2490042881
 20
-98.1236458309
 10
-366.6063756697
 20
-93.529883432
 10
-366.6063756697
 20
-88.9314907576
 10
-366.5820140151
 20
-88.3727942526
  0
LWPOLYLINE
  5
332
330
312
100
AcDbEntity
  8
0
  6
Continuous
 62
     7
370
    25
100
AcDbPolyline
 90
       54
 70
   128
 43
0.0
 10
-63.6396103068
 20
-170.2192335142
 10
-69.3970420645
 20
-173.3970109368
 10
-75.3956424851
 20
-176.4224715543
 10
-81.6233311857
 20
-179.2895224917
 10
-88.06756643
 20
-181.9923898899
 10
-94.7153703859
 20
-184.5256305337
 10
-101.553355261
 20
-186.8841428136
 10
-108.5677502636
 20
-189.0631769997
 10
-115.7444293358
 20
-191.0583448072
 10
-123.0689396011
 20
-192.8656282336
 10
-130.5265304704
 20
-194.4813876506
 10
-138.1021833482
 20
-195.9023691338
 10
-145.7806418779
 20
-197.1257110155
 10
-153.5464426659
 20
-198.1489496481
 10
-161.3839464228
 20
-198.9700243651
 10
-169.2773694591
 20
-199.5872816313
 10
-177.2108154713
 20
-199.9994783727
 10
-185.1683075549
 20
-200.2057844799
 10
-193.1338203799
 20
-200.2057844799
 10
-201.0913124635
 20
-199.9994783727
 10
-209.0247584757
 20
-199.5872816313
 10
-216.918181512
 20
-198.9700243651
 10
-224.7556852689
 20
-198.1489496481
 10
-232.5214860569
 20
-197.1257110155
 10
-240.1999445866
 20
-195.9023691338
 10
-247.7755974644
 20
-194.4813876506
 10
-255.2331883337
 20
-192.8656282336
 10
-262.557698599
 20
-191.0583448072
 10
-269.7343776712
 20
-189.0631769997
 10
-276.7487726738
 20
-186.8841428136
 10
-283.5867575489
 20
-184.5256305337
 10
-290.2345615048
 20
-181.9923898899
 10
-296.6787967491
 20
-179.2895224917
 10
-302.9064854497
 20
-176.4224715543
 10
-308.9050858703
 20
-173.3970109368
 10
-314.662517628
 20
-170.2192335142
 10
-320.1671860214
 20
-166.8955389073
 10
-325.4080053809
 20
-163.4326205948
 10
-330.3744213939
 20
-159.8374524332
 10
-335.0564323594
 20
-156.1172746129
 10
-339.4446093304
 20
-152.2795790767
 10
-343.5301151025
 20
-148.332094433
 10
-347.3047220108
 20
-144.2827703902
 10
-350.7608284993
 20
-140.1397617482
 10
-353.8914744295
 20
-135.9114119751
 10
-356.6903550971
 20
-131.6062364045
 10
-359.151833929
 20
-127.2329050871
 10
-361.2709538343
 20
-122.8002253301
 10
-363.0434471875
 20
-118.3171239607
 10
-364.465744423
 20
-113.7926293484
 10
-365.5349812235
 20
-109.2358532233
 10
-366.2490042881
 20
-104.655972326
 10
-366.6063756697
 20
-100.0622099271
 10
-366.6510639674
 20
-97.7630135899
  0
LWPOLYLINE
  5
334
330
312
100
AcDbEntity
  8
0
  6
Continuous
 62
     7
370
    25
100
AcDbPolyline
 90
       13
 70
   128
 43
0.0
 10
38.554153277
 20
-104.6917030504
 10
44.5276013438
 20
-101.0938199636
 10
50.4898333599
 20
-97.2037226073
 10
56.4296543346
 20
-93.0287152266
 10
62.3359113572
 20
-88.5766370284
 10
68.1975145384
 20
-83.8558474615
 10
74.0034578332
 20
-78.8752105211
 10
79.7428397064
 20
-73.6440781051
 10
85.4048836022
 20
-68.1722724544
 10
90.9789581781
 20
-62.4700677102
 10
96.4545972677
 20
-56.5481706229
 10
101.8215195317
 20
-50.4177004484
 10
107.0696477633
 20
-44.09016807
  0
LWPOLYLINE
  5
337
330
312
100
AcDbEntity
  8
0
  6
Continuous
 62
     7
370
    25
100
AcDbPolyline
 90
       10
 70
   128
 43
0.0
 10
114.5389974914
 20
-37.9634434479
 10
116.3278855009
 20
-37.3036373023
 10
118.0503943458
 20
-36.9799730584
 10
119.6695537355
 20
-36.9993975375
 10
121.150611574
 20
-37.3614938311
 10
122.4617798452
 20
-38.0584902488
 10
123.5749168814
 20
-39.0754271231
 10
124.4661313685
 20
-40.3904778886
 10
125.1162951269
 20
-41.9754175472
 10
125.5114536606
 20
-43.7962284625
  0
LINE
  5
33F
330
312
100
AcDbEntity
  8
0
  6
Continuous
 62
     7
370
    25
100
AcDbLine
 10
-366.6510639674
 20
-79.3908453225
 30
0.0
 11
-366.6510639674
 21
-85.5149014116
 31
0.0
  0
LINE
  5
340
330
312
100
AcDbEntity
  8
0
  6
Continuous
 62
     7
370
    25
100
AcDbLine
 10
-366.6510639674
 20
-91.2306870948
 30
0.0
 11
-366.6510639674
 21
-97.7630135899
 31
0.0
  0
LINE
  5
341
330
312
100
AcDbEntity
  8
0
  6
Continuous
 62
     7
370
    25
100
AcDbLine
 10
122.0082086578
 20
-37.7680610415
 30
0.0
 11
117.2974317276
 21
-35.0485874053
 31
0.0
  0
LINE
  5
342
330
312
100
AcDbEntity
  8
0
  6
Continuous
 62
     7
370
    25
100
AcDbLine
 10
-63.6396103068
 20
-151.8470652467
 30
0.0
 11
-63.6396103068
 21
-157.9711213359
 31
0.0
  0
LINE
  5
343
330
312
100
AcDbEntity
  8
0
  6
Continuous
 62
     7
370
    25
100
AcDbLine
 10
-314.662517628
 20
-6.9346253982
 30
0.0
 11
-199.7576656852
 21
59.3985336874
 31
0.0
  0
LINE
  5
344
330
312
100
AcDbEntity
  8
0
  6
Continuous
 62
     7
370
    25
100
AcDbLine
 10
-199.7576656852
 20
59.3985336874
 30
0.0
 11
51.265241636
 21
-85.5139061611
 31
0.0
  0
LINE
  5
345
330
312
100
AcDbEntity
  8
0
  6
Continuous
 62
     7
370
    25
100
AcDbLine
 10
-63.6396103068
 20
-151.8470652467
 30
0.0
 11
51.265241636
 21
-85.5139061611
 31
0.0
  0
LINE
  5
346
330
312
100
AcDbEntity
  8
0
  6
Continuous
 62
     7
370
    25
100
AcDbLine
 10
114.0478258063
 20
-30.8981235192
 30
0.0
 11
119.3665520719
 21
-27.8276882021
 31
0.0
  0
LINE
  5
347
330
312
100
AcDbEntity
  8
0
  6
Continuous
 62
     7
370
    25
100
AcDbLine
 10
125.5114536606
 20
-26.1036928387
 30
0.0
 11
125.5114536606
 21
-33.2213641852
 31
0.0
  0
LINE
  5
348
330
312
100
AcDbEntity
  8
0
  6
Continuous
 62
     7
370
    25
100
AcDbLine
 10
-63.6396103068
 20
-157.9711213359
 30
0.0
 11
51.265241636
 21
-91.6379622503
 31
0.0
  0
LINE
  5
349
330
312
100
AcDbEntity
  8
0
  6
Continuous
 62
     7
370
    25
100
AcDbLine
 10
-152.5362224528
 20
99.9905346257
 30
0.0
 11
98.4866848684
 21
-44.9219052228
 31
0.0
  0
LINE
  5
34A
330
312
100
AcDbEntity
  8
0
  6
Continuous
 62
     7
370
    25
100
AcDbLine
 10
114.0478258063
 20
-30.8981235192
 30
0.0
 11
-136.9750815149
 21
114.0143163293
 31
0.0
  0
LINE
  5
34B
330
312
100
AcDbEntity
  8
0
  6
Continuous
 62
     7
370
    25
100
AcDbLine
 10
-131.6563552493
 20
117.0847516464
 30
0.0
 11
-136.9750815149
 21
114.0143163293
 31
0.0
  0
LINE
  5
34C
330
312
100
AcDbEntity
  8
0
  6
Continuous
 62
     7
370
    25
100
AcDbLine
 10
-131.6563552493
 20
117.0847516464
 30
0.0
 11
119.3665520719
 21
-27.8276882021
 31
0.0
  0
LINE
  5
34D
330
312
100
AcDbEntity
  8
0
  6
Continuous
 62
     7
370
    25
100
AcDbLine
 10
-125.5114536606
 20
118.8087470098
 30
0.0
 11
125.5114536606
 21
-26.1036928387
 31
0.0
  0
LINE
  5
34E
330
312
100
AcDbEntity
  8
0
  6
Continuous
 62
     7
370
    25
100
AcDbLine
 10
-63.6396103068
 20
-163.6869070191
 30
0.0
 11
-63.6396103068
 21
-170.2192335142
 31
0.0
  0
LINE
  5
34F
330
312
100
AcDbEntity
  8
0
  6
Continuous
 62
     7
370
    25
100
AcDbLine
 10
-63.6396103068
 20
-163.6869070191
 30
0.0
 11
38.554153277
 21
-104.6917030504
 31
0.0
  0
LINE
  5
350
330
312
100
AcDbEntity
  8
0
  6
Continuous
 62
     7
370
    25
100
AcDbLine
 10
111.9313366853
 20
-39.4688139885
 30
0.0
 11
114.5389974914
 21
-37.9634434479
 31
0.0
  0
LINE
  5
351
330
312
100
AcDbEntity
  8
0
  6
Continuous
 62
     7
370
    25
100
AcDbLine
 10
125.5114536606
 20
-43.7962284625
 30
0.0
 11
125.5114536606
 21
-44.6938323202
 31
0.0
  0
LINE
  5
352
330
312
100
AcDbEntity
  8
0
  6
Continuous
 62
     7
370
    25
100
AcDbLine
 10
111.3693180369
 20
-69.1887296761
 30
0.0
 11
-63.6396103068
 21
-170.2192335142
 31
0.0
  0
LINE
  5
353
330
312
100
AcDbEntity
  8
0
  6
Continuous
 62
     7
370
    25
100
AcDbLine
 10
111.9313366853
 20
-39.4688139885
 30
0.0
 11
111.2235689897
 21
-39.0602283948
 31
0.0
  0
LINE
  5
354
330
312
100
AcDbEntity
  8
0
  6
Continuous
 62
     7
370
    25
100
AcDbLine
 10
113.5359325802
 20
-37.3843864002
 30
0.0
 11
114.5389974914
 21
-37.9634434479
 31
0.0
  0
LINE
  5
355
330
312
100
AcDbEntity
  8
0
  6
Continuous
 62
     8
370
    25
100
AcDbLine
 10
33.6036012701
 20
-101.8338102088
 30
0.0
 11
38.554153277
 21
-104.6917030504
 31
0.0
  0
LINE
  5
356
330
312
100
AcDbEntity
  8
0
  6
Continuous
 62
     8
370
    25
100
AcDbLine
 10
106.0508776067
 20
-43.5020445771
 30
0.0
 11
107.0696477633
 21
-44.09016807
 31
0.0
  0
ARC
  5
357
330
312
100
AcDbEntity
  8
0
  6
Continuous
 62
     7
370
    25
100
AcDbCircle
 10
-43.9867632411
 20
73.0573545024
 30
0.0
 40
184.9805101666702
100
AcDbArc
 50
300.9927728715
 51
320.3725607102
  0
ARC
  5
358
330
312
100
AcDbEntity
  8
0
  6
Continuous
 62
     7
370
    25
100
AcDbCircle
 10
155.2454191217
 20
-92.2574169216
 30
0.0
 40
73.90672893466339
100
AcDbArc
 50
123.8780317296
 51
140.1726513968
  0
ARC
  5
359
330
312
100
AcDbEntity
  8
0
  6
Continuous
 62
     7
370
    25
100
AcDbCircle
 10
126.4764110114
 20
-41.3563763959
 30
0.0
 40
15.28317697281804
100
AcDbArc
 50
93.6199792611
 51
117.7236959121
  0
ARC
  5
35A
330
312
100
AcDbEntity
  8
0
  6
Continuous
 62
     7
370
    25
100
AcDbCircle
 10
123.4208911047
 20
-41.8605922922
 30
0.0
 40
8.888572106091125
100
AcDbArc
 50
76.3967839531
 51
119.7560715998
  0
ARC
  5
35B
330
312
100
AcDbEntity
  8
0
  6
Continuous
 62
     7
370
    25
100
AcDbCircle
 10
146.7237767849
 20
-86.4346636866
 30
0.0
 40
59.18106103697095
100
AcDbArc
 50
117.923858479
 51
140.6900869773
  0
ARC
  5
35C
330
312
100
AcDbEntity
  8
0
  6
Continuous
 62
     7
370
    25
100
AcDbCircle
 10
-48.4929834211
 20
74.650414607
 30
0.0
 40
193.9162905595761
100
AcDbArc
 50
300.960006529
 51
320.4053270527
  0
ARC
  5
35D
330
312
100
AcDbEntity
  8
0
  6
Continuous
 62
     7
370
    25
100
AcDbCircle
 10
-295.0096705623
 20
217.9697943509
 30
0.0
 40
184.9805101666715
100
AcDbArc
 50
300.9927728715
 51
320.3725607102
  0
ARC
  5
35E
330
312
100
AcDbEntity
  8
0
  6
Continuous
 62
     7
370
    25
100
AcDbCircle
 10
-95.7774881995
 20
52.6550229269
 30
0.0
 40
73.90672893466139
100
AcDbArc
 50
123.8780317296
 51
140.1726513968
  0
ARC
  5
35F
330
312
100
AcDbEntity
  8
0
  6
Continuous
 62
     7
370
    25
100
AcDbCircle
 10
-124.5464963098
 20
103.5560634527
 30
0.0
 40
15.28317697281849
100
AcDbArc
 50
93.6199792611
 51
117.7236959121
  0
ARC
  5
360
330
312
100
AcDbEntity
  8
0
  6
Continuous
 62
     7
370
    25
100
AcDbCircle
 10
125.9593380615
 20
-59.0942838507
 30
0.0
 40
24.12351321686935
100
AcDbArc
 50
125.5566348989
 51
141.5398192734
  0
ARC
  5
361
330
312
100
AcDbEntity
  8
0
  6
Continuous
 62
     7
370
    25
100
AcDbCircle
 10
94.9259372505
 20
-43.3652077302
 30
0.0
 40
30.61436031301773
100
AcDbArc
 50
302.4873455707
 51
357.5126542837
  0
VIEWPORT
  5
366
330
312
100
AcDbEntity
  8
0
100
AcDbViewport
 10
0.0
 20
0.0
 30
0.0
 40
205.6
 41
156.0
 68
     1
 69
     1
 12
0.0
 22
29.5
 13
0.0
 23
0.0
 14
10.0
 24
10.0
 15
10.0
 25
10.0
 16
0.0
 26
0.0
 36
1.0
 17
0.0
 27
0.0
 37
0.0
 42
50.0
 43
0.0
 44
0.0
 45
274.7451361868
 50
0.0
 51
0.0
 72
   100
 90
   557152
  1

281
     0
 71
     1
 74
     0
110
0.0
120
0.0
130
0.0
111
1.0
121
0.0
131
0.0
112
0.0
122
1.0
132
0.0
 79
     0
146
0.0
  0
ENDBLK
  5
315
330
312
100
AcDbEntity
  8
0
100
AcDbBlockEnd
  0
ENDSEC
  0
SECTION
  2
ENTITIES
  0
SPLINE
  5
AC
330
1F
100
AcDbEntity
  8
0
  6
Continuous
 62
     7
370
    25
100
AcDbSpline
210
0.0
220
0.0
230
1.0
 70
     8
 71
     3
 72
    52
 73
    48
 74
     0
 42
0.000000001
 43
0.00000001
 40
0.0
 40
0.0
 40
0.0
 40
0.0
 40
0.0624999999999999
 40
0.0624999999999999
 40
0.1249999999999998
 40
0.1249999999999998
 40
0.1874999999999997
 40
0.1874999999999997
 40
0.2031249999999997
 40
0.2031249999999997
 40
0.2187499999999997
 40
0.2187499999999997
 40
0.2499999999999996
 40
0.2499999999999996
 40
0.3124999999999995
 40
0.3124999999999995
 40
0.3749999999999994
 40
0.3749999999999994
 40
0.3906249999999994
 40
0.3906249999999994
 40
0.4062499999999995
 40
0.4062499999999995
 40
0.4374999999999996
 40
0.4374999999999996
 40
0.4999999999999997
 40
0.4999999999999997
 40
0.5624999999999998
 40
0.5624999999999998
 40
0.5937499999999999
 40
0.5937499999999999
 40
0.6249999999999999
 40
0.6249999999999999
 40
0.6875
 40
0.6875
 40
0.7500000000000001
 40
0.7500000000000001
 40
0.8125000000000003
 40
0.8125000000000003
 40
0.8750000000000004
 40
0.8750000000000004
 40
0.9062500000000004
 40
0.9062500000000004
 40
0.9218750000000004
 40
0.9218750000000004
 40
0.9375000000000004
 40
0.9375000000000004
 40
1.0
 40
1.0
 40
1.0
 40
1.0
 10
-113.1161133838142
 20
21.99999999999997
 30
0.0
 10
-109.4650960814927
 20
21.99999999999998
 30
0.0
 10
-105.6513189146566
 20
22.11442854980272
 30
0.0
 10
-97.70353439078086
 20
22.50015760346719
 30
0.0
 10
-93.56925245456694
 20
22.77164509574594
 30
0.0
 10
-84.97265006334659
 20
23.40872220517425
 30
0.0
 10
-80.51025385710017
 20
23.77438224525109
 30
0.0
 10
-74.71794402594399
 20
24.25415699877095
 30
0.0
 10
-73.54821487650638
 20
24.35130092000284
 30
0.0
 10
-71.20079513665694
 20
24.54587132601505
 30
0.0
 10
-70.02145805156812
 20
24.64343399345719
 30
0.0
 10
-66.46671279701098
 20
24.93569067677937
 30
0.0
 10
-64.07457742526938
 20
25.12992915440469
 30
0.0
 10
-56.83219434434974
 20
25.70167077063426
 30
0.0
 10
-51.91609381838396
 20
26.0678931064574
 30
0.0
 10
-41.91043872515572
 20
26.72997237870756
 30
0.0
 10
-36.82092196073675
 20
27.0259089331873
 30
0.0
 10
-30.34927748751311
 20
27.33221833588486
 30
0.0
 10
-29.04944856211137
 20
27.39031835279037
 30
0.0
 10
-26.43870222110034
 20
27.49977269507534
 30
0.0
 10
-25.12686217371678
 20
27.55115102317747
 30
0.0
 10
-21.19507252273162
 20
27.69388513620795
 30
0.0
 10
-18.57256585987322
 20
27.77410868448523
 30
0.0
 10
-10.70118351745168
 20
27.96795467529358
 30
0.0
 10
-5.448457098201088
 20
28.03451671627754
 30
0.0
 10
5.067139567600853
 20
28.0376439505588
 30
0.0
 10
10.33000946146715
 20
27.97420641323791
 30
0.0
 10
18.23210525483077
 20
27.78379805431794
 30
0.0
 10
20.8730258049514
 20
27.70426865659439
 30
0.0
 10
26.11230521923812
 20
27.51653242357168
 30
0.0
 10
28.71431599611859
 20
27.40830655587002
 30
0.0
 10
36.46791040370761
 20
27.04496660718467
 30
0.0
 10
41.56717871732531
 20
26.75090473621547
 30
0.0
 10
51.62526821431603
 20
26.08880977145935
 30
0.0
 10
56.58468911489467
 20
25.72062535249302
 30
0.0
 10
66.35598618209147
 20
24.9503881314849
 30
0.0
 10
71.09748532784327
 20
24.55413953846606
 30
0.0
 10
80.30026384774528
 20
23.79167816815034
 30
0.0
 10
84.76152453420006
 20
23.42540504075728
 30
0.0
 10
91.24561780809327
 20
22.94335962611843
 30
0.0
 10
93.37231448959476
 20
22.79396939833196
 30
0.0
 10
96.51027349367973
 20
22.59310498912165
 30
0.0
 10
97.54854554773551
 20
22.52997245182205
 30
0.0
 10
99.60199174733835
 20
22.41288692899662
 30
0.0
 10
100.6171058802577
 20
22.35892888109338
 30
0.0
 10
105.6351772573367
 20
22.11453461654621
 30
0.0
 10
109.4663502100472
 20
21.99999999999995
 30
0.0
 10
113.1161133838142
 20
21.99999999999996
 30
0.0
  0
LINE
  5
B3
330
1F
100
AcDbEntity
  8
0
  6
Continuous
 62
     7
370
    25
100
AcDbLine
 10
-138.5
 20
13.0500853943
 30
0.0
 11
-131.3876598653
 21
13.0500853943
 31
0.0
  0
LINE
  5
B4
330
1F
100
AcDbEntity
  8
0
  6
Continuous
 62
     7
370
    25
100
AcDbLine
 10
131.3876598653
 20
13.0500853943
 30
0.0
 11
138.5
 21
13.0500853943
 31
0.0
  0
LINE
  5
B5
330
1F
100
AcDbEntity
  8
0
  6
Continuous
 62
     7
370
    25
100
AcDbLine
 10
142.8692430573
 20
12.5
 30
0.0
 11
142.8692430573
 21
11.5
 31
0.0
  0
LINE
  5
B6
330
1F
100
AcDbEntity
  8
0
  6
Continuous
 62
     7
370
    25
100
AcDbLine
 10
-142.8692430573
 20
11.5
 30
0.0
 11
-142.8692430573
 21
12.5
 31
0.0
  0
LINE
  5
B7
330
1F
100
AcDbEntity
  8
0
  6
Continuous
 62
     7
370
    25
100
AcDbLine
 10
169.8692430573
 20
11.5
 30
0.0
 11
169.8692430573
 21
12.5
 31
0.0
  0
LINE
  5
B8
330
1F
100
AcDbEntity
  8
0
  6
Continuous
 62
     7
370
    25
100
AcDbLine
 10
-169.8692430573
 20
12.5
 30
0.0
 11
-169.8692430573
 21
11.5
 31
0.0
  0
LINE
  5
B9
330
1F
100
AcDbEntity
  8
0
  6
Continuous
 62
     7
370
    25
100
AcDbLine
 10
177.5
 20
36.5
 30
0.0
 11
-177.5
 21
36.5
 31
0.0
  0
LINE
  5
BA
330
1F
100
AcDbEntity
  8
0
  6
Continuous
 62
     7
370
    25
100
AcDbLine
 10
-177.5
 20
29.0
 30
0.0
 11
177.5
 21
29.0
 31
0.0
  0
LINE
  5
BB
330
1F
100
AcDbEntity
  8
0
  6
Continuous
 62
     7
370
    25
100
AcDbLine
 10
-177.5
 20
52.826975724
 30
0.0
 11
177.5
 21
52.826975724
 31
0.0
  0
LINE
  5
BC
330
1F
100
AcDbEntity
  8
0
  6
Continuous
 62
     7
370
    25
100
AcDbLine
 10
177.5
 20
59.0
 30
0.0
 11
-177.5
 21
59.0
 31
0.0
  0
LINE
  5
BD
330
1F
100
AcDbEntity
  8
0
  6
Continuous
 62
     7
370
    25
100
AcDbLine
 10
-138.5
 20
13.9976291404
 30
0.0
 11
-138.5
 21
13.0500853943
 31
0.0
  0
LINE
  5
BE
330
1F
100
AcDbEntity
  8
0
  6
Continuous
 62
     7
370
    25
100
AcDbLine
 10
138.5
 20
13.9976291404
 30
0.0
 11
138.5
 21
13.0500853943
 31
0.0
  0
LINE
  5
BF
330
1F
100
AcDbEntity
  8
0
  6
Continuous
 62
     7
370
    25
100
AcDbLine
 10
-177.5
 20
14.0
 30
0.0
 11
-177.5
 21
59.0
 31
0.0
  0
LINE
  5
C0
330
1F
100
AcDbEntity
  8
0
  6
Continuous
 62
     7
370
    25
100
AcDbLine
 10
177.5
 20
22.0
 30
0.0
 11
-177.5
 21
22.0
 31
0.0
  0
LINE
  5
C1
330
1F
100
AcDbEntity
  8
0
  6
Continuous
 62
     7
370
    25
100
AcDbLine
 10
177.5
 20
14.0
 30
0.0
 11
177.5
 21
59.0
 31
0.0
  0
LINE
  5
C2
330
1F
100
AcDbEntity
  8
0
  6
Continuous
 62
     7
370
    25
100
AcDbLine
 10
177.5
 20
14.0
 30
0.0
 11
-177.5
 21
14.0
 31
0.0
  0
LINE
  5
C3
330
1F
100
AcDbEntity
  8
0
  6
Continuous
 62
     7
370
    25
100
AcDbLine
 10
-113.5
 20
0.0
 30
0.0
 11
113.5
 21
0.0
 31
0.0
  0
LINE
  5
C4
330
1F
100
AcDbEntity
  8
0
  6
Continuous
 62
     7
370
    25
100
AcDbLine
 10
169.8692430573
 20
11.5
 30
0.0
 11
142.8692430573
 21
11.5
 31
0.0
  0
LINE
  5
C5
330
1F
100
AcDbEntity
  8
0
  6
Continuous
 62
     7
370
    25
100
AcDbLine
 10
162.5
 20
11.5
 30
0.0
 11
162.5
 21
12.5
 31
0.0
  0
LINE
  5
C6
330
1F
100
AcDbEntity
  8
0
  6
Continuous
 62
     7
370
    25
100
AcDbLine
 10
-169.8692430573
 20
11.5
 30
0.0
 11
-142.8692430573
 21
11.5
 31
0.0
  0
LINE
  5
C7
330
1F
100
AcDbEntity
  8
0
  6
Continuous
 62
     7
370
    25
100
AcDbLine
 10
-162.5
 20
11.5
 30
0.0
 11
-162.5
 21
12.5
 31
0.0
  0
LINE
  5
C8
330
1F
100
AcDbEntity
  8
0
  6
Continuous
 62
     7
370
    25
100
AcDbLine
 10
-152.7500745769
 20
7.5
 30
0.0
 11
-159.9840113242
 21
7.5
 31
0.0
  0
LINE
  5
C9
330
1F
100
AcDbEntity
  8
0
  6
Continuous
 62
     7
370
    25
100
AcDbLine
 10
159.9840113242
 20
7.5
 30
0.0
 11
152.7500745769
 21
7.5
 31
0.0
  0
LINE
  5
CA
330
1F
100
AcDbEntity
  8
0
  6
Continuous
 62
     7
370
    25
100
AcDbLine
 10
169.8692430573
 20
12.5
 30
0.0
 11
142.8692430573
 21
12.5
 31
0.0
  0
LINE
  5
CB
330
1F
100
AcDbEntity
  8
0
  6
Continuous
 62
     7
370
    25
100
AcDbLine
 10
-142.8692430573
 20
12.5
 30
0.0
 11
-169.8692430573
 21
12.5
 31
0.0
  0
LINE
  5
CC
330
1F
100
AcDbEntity
  8
0
  6
Continuous
 62
     7
370
    25
100
AcDbLine
 10
169.5
 20
11.5
 30
0.0
 11
169.5
 21
12.5
 31
0.0
  0
LINE
  5
CD
330
1F
100
AcDbEntity
  8
0
  6
Continuous
 62
     7
370
    25
100
AcDbLine
 10
-169.5
 20
11.5
 30
0.0
 11
-169.5
 21
12.5
 31
0.0
  0
ARC
  5
CE
330
1F
100
AcDbEntity
  8
0
  6
Continuous
 62
     7
370
    25
100
AcDbCircle
 10
-141.3692430573
 20
12.5
 30
0.0
 40
1.5
100
AcDbArc
 50
90.0
 51
180.0
  0
ARC
  5
CF
330
1F
100
AcDbEntity
  8
0
  6
Continuous
 62
     7
370
    25
100
AcDbCircle
 10
141.3692430573
 20
12.5
 30
0.0
 40
1.500000000000004
100
AcDbArc
 50
0.0
 51
90.0
  0
ARC
  5
D0
330
1F
100
AcDbEntity
  8
0
  6
Continuous
 62
     7
370
    25
100
AcDbCircle
 10
-152.7500745769
 20
20.5
 30
0.0
 40
12.99999999999995
100
AcDbArc
 50
270.0
 51
316.1869385396
  0
ARC
  5
D1
330
1F
100
AcDbEntity
  8
0
  6
Continuous
 62
     7
370
    25
100
AcDbCircle
 10
152.7500745769
 20
20.5
 30
0.0
 40
12.99999999999988
100
AcDbArc
 50
223.8130614604
 51
270.0
  0
ARC
  5
D2
330
1F
100
AcDbEntity
  8
0
  6
Continuous
 62
     7
370
    25
100
AcDbCircle
 10
171.3692430573
 20
12.5
 30
0.0
 40
1.500000000000004
100
AcDbArc
 50
90.0
 51
180.0
  0
ARC
  5
D3
330
1F
100
AcDbEntity
  8
0
  6
Continuous
 62
     7
370
    25
100
AcDbCircle
 10
-171.3692430573
 20
12.5
 30
0.0
 40
1.500000000000057
100
AcDbArc
 50
0.0
 51
90.0
  0
ARC
  5
D4
330
1F
100
AcDbEntity
  8
0
  6
Continuous
 62
     7
370
    25
100
AcDbCircle
 10
159.9884115376
 20
20.5
 30
0.0
 40
12.99999999999992
100
AcDbArc
 50
270.0
 51
316.1869385396
  0
ARC
  5
D5
330
1F
100
AcDbEntity
  8
0
  6
Continuous
 62
     7
370
    25
100
AcDbCircle
 10
-159.9884115376
 20
20.5
 30
0.0
 40
13.0
100
AcDbArc
 50
223.8130614604
 51
270.0
  0
ARC
  5
D6
330
1F
100
AcDbEntity
  8
0
  6
Continuous
 62
     7
370
    25
100
AcDbCircle
 10
-138.8771550809
 20
-16.0
 30
0.0
 40
30.00000000000004
100
AcDbArc
 50
32.2309526355
 51
90.0
  0
ARC
  5
D7
330
1F
100
AcDbEntity
  8
0
  6
Continuous
 62
     7
370
    25
100
AcDbCircle
 10
138.8771550809
 20
-16.0
 30
0.0
 40
30.0
100
AcDbArc
 50
90.0
 51
147.7690473645
  0
ARC
  5
D8
330
1F
100
AcDbEntity
  8
0
  6
Continuous
 62
     7
370
    25
100
AcDbCircle
 10
-163.9728376497
 20
12.5271819527
 30
0.0
 40
1.4730884565598
100
AcDbArc
 50
358.9426978716
 51
88.902156056
  0
ARC
  5
D9
330
1F
100
AcDbEntity
  8
0
  6
Continuous
 62
     7
370
    25
100
AcDbCircle
 10
163.9728376497
 20
12.5271819527
 30
0.0
 40
1.473088456559805
100
AcDbArc
 50
91.097843944
 51
181.0573021284
  0
ARC
  5
DA
330
1F
100
AcDbEntity
  8
0
  6
Continuous
 62
     7
370
    25
100
AcDbCircle
 10
-152.9385534297
 20
19.8053345001
 30
0.0
 40
12.30541846424299
100
AcDbArc
 50
222.4489569501
 51
269.7883410927
  0
ARC
  5
DB
330
1F
100
AcDbEntity
  8
0
  6
Continuous
 62
     7
370
    25
100
AcDbCircle
 10
152.9385534297
 20
19.8053345001
 30
0.0
 40
12.30541846424299
100
AcDbArc
 50
270.2116589073
 51
317.5510430499
  0
ARC
  5
DC
330
1F
100
AcDbEntity
  8
0
  6
Continuous
 62
     7
370
    25
100
AcDbCircle
 10
170.9728376497
 20
12.5271819527
 30
0.0
 40
1.473088456559856
100
AcDbArc
 50
91.097843944
 51
181.0573021284
  0
ARC
  5
DD
330
1F
100
AcDbEntity
  8
0
  6
Continuous
 62
     7
370
    25
100
AcDbCircle
 10
-170.9728376497
 20
12.5271819527
 30
0.0
 40
1.473088456559859
100
AcDbArc
 50
358.9426978716
 51
88.902156056
  0
ARC
  5
DE
330
1F
100
AcDbEntity
  8
0
  6
Continuous
 62
     7
370
    25
100
AcDbCircle
 10
-159.9385534297
 20
19.8053345001
 30
0.0
 40
12.30541846424303
100
AcDbArc
 50
222.4489569501
 51
269.7883410927
  0
ARC
  5
DF
330
1F
100
AcDbEntity
  8
0
  6
Continuous
 62
     7
370
    25
100
AcDbCircle
 10
159.9385534297
 20
19.8053345001
 30
0.0
 40
12.30541846424302
100
AcDbArc
 50
270.2116589073
 51
317.5510430499
  0
SPLINE
  5
EF
330
1B
100
AcDbEntity
 67
     1
  8
0
  6
Continuous
 62
     7
370
    25
100
AcDbSpline
210
0.0
220
0.0
230
1.0
 70
     8
 71
     3
 72
    14
 73
    10
 74
     0
 42
0.000000001
 43
0.00000001
 40
0.0
 40
0.0
 40
0.0
 40
0.0
 40
0.1342359061818994
 40
0.2848108670145398
 40
0.4411305452914611
 40
0.6012086003918057
 40
0.7637656457735181
 40
0.9280015759625043
 40
1.0
 40
1.0
 40
1.0
 40
1.0
 10
87.1297574916371
 20
13.99999999999984
 30
0.0
 10
87.73050466462917
 20
13.5066450524897
 30
0.0
 10
89.00512133063914
 20
12.45988450724576
 30
0.0
 10
90.79894034780467
 20
10.63515718498827
 30
0.0
 10
92.53055321242462
 20
8.555640949223466
 30
0.0
 10
94.10460932686246
 20
6.266395334822351
 30
0.0
 10
95.46659605715391
 20
3.796404844221873
 30
0.0
 10
96.43203309495685
 20
1.690918501789436
 30
0.0
 10
96.84346074405615
 20
0.3858949324982396
 30
0.0
 10
96.96885377775611
 20
-0.0118441712337811
 30
0.0
  0
LWPOLYLINE
  5
11A
330
1B
100
AcDbEntity
 67
     1
  8
0
  6
Continuous
 62
     7
370
    25
100
AcDbPolyline
 90
        9
 70
   128
 43
0.0
 10
158.4058328901
 20
11.5
 10
158.6623904565
 20
10.6019979787
 10
158.9419672035
 20
9.8044097004
 10
159.241726867
 20
9.1153265782
 10
159.5586284302
 20
8.5417392569
 10
159.8894569745
 20
8.0894666937
 10
160.2308562939
 20
7.7630971257
 10
160.5793629436
 20
7.5659415231
 10
160.9314413762
 20
7.5
  0
LWPOLYLINE
  5
11C
330
1B
100
AcDbEntity
 67
     1
  8
0
  6
Continuous
 62
     7
370
    25
100
AcDbPolyline
 90
        9
 70
   128
 43
0.0
 10
301.0685586238
 20
7.5
 10
301.4206370564
 20
7.5659415231
 10
301.7691437061
 20
7.7630971257
 10
302.1105430255
 20
8.0894666937
 10
302.4413715698
 20
8.5417392569
 10
302.758273133
 20
9.1153265782
 10
303.0580327965
 20
9.8044097004
 10
303.3376095435
 20
10.6019979787
 10
303.5941671099
 20
11.5
  0
LWPOLYLINE
  5
11D
330
1B
100
AcDbEntity
 67
     1
  8
0
  6
Continuous
 62
     7
370
    25
100
AcDbPolyline
 90
        9
 70
   128
 43
0.0
 10
328.634135161
 20
11.5
 10
328.3775775946
 20
10.6019979787
 10
328.0980008476
 20
9.8044097004
 10
327.7982411841
 20
9.1153265782
 10
327.4813396209
 20
8.5417392569
 10
327.1505110766
 20
8.0894666937
 10
326.8091117572
 20
7.7630971257
 10
326.4606051075
 20
7.5659415231
 10
326.1085266749
 20
7.5
  0
LWPOLYLINE
  5
120
330
1B
100
AcDbEntity
 67
     1
  8
0
  6
Continuous
 62
     7
370
    25
100
AcDbPolyline
 90
        9
 70
   128
 43
0.0
 10
133.365864839
 20
11.5
 10
133.6224224054
 20
10.6019979787
 10
133.9019991524
 20
9.8044097004
 10
134.2017588159
 20
9.1153265782
 10
134.5186603791
 20
8.5417392569
 10
134.8494889234
 20
8.0894666937
 10
135.1908882428
 20
7.7630971257
 10
135.5393948925
 20
7.5659415231
 10
135.8914733251
 20
7.5
  0
SPLINE
  5
12B
330
1B
100
AcDbEntity
 67
     1
  8
0
  6
Continuous
 62
     7
370
    25
100
AcDbSpline
210
0.0
220
0.0
230
1.0
 70
     8
 71
     3
 72
    13
 73
     9
 74
     0
 42
0.000000001
 43
0.00000001
 40
0.0
 40
0.0
 40
0.0
 40
0.0
 40
0.1900542269563005
 40
0.3638067402181118
 40
0.5375572456572257
 40
0.7146897982324942
 40
0.8918196970703833
 40
0.9999999999999999
 40
0.9999999999999999
 40
0.9999999999999999
 40
0.9999999999999999
 10
75.04813446764314
 20
27.98125809097747
 30
0.0
 10
75.32639336519675
 20
27.91102891418474
 30
0.0
 10
75.85904377806519
 20
27.77659439890801
 30
0.0
 10
77.61263662109837
 20
27.34582113014303
 30
0.0
 10
79.96575495987702
 20
26.79502678938158
 30
0.0
 10
83.09366925197803
 20
26.11401522133069
 30
0.0
 10
86.36309105669304
 20
25.44762752498563
 30
0.0
 10
88.8632787418256
 20
25.01638246818217
 30
0.0
 10
89.81126819149465
 20
24.8528684382145
 30
0.0
  0
LWPOLYLINE
  5
132
330
1B
100
AcDbEntity
 67
     1
  8
0
  6
Continuous
 62
     8
370
    25
100
AcDbPolyline
 90
        3
 70
   128
 43
0.0
 10
125.1794824752
 20
13.7955990498
 10
125.0898669917
 20
13.8119397007
 10
122.9761935499
 20
14.0
  0
LINE
  5
133
330
1B
100
AcDbEntity
 67
     1
  8
0
  6
Continuous
 62
     7
370
    25
100
AcDbLine
 10
445.0
 20
29.0
 30
0.0
 11
445.0
 21
36.5
 31
0.0
  0
LINE
  5
134
330
1B
100
AcDbEntity
 67
     1
  8
0
  6
Continuous
 62
     7
370
    25
100
AcDbLine
 10
445.0
 20
14.0
 30
0.0
 11
445.0
 21
22.0
 31
0.0
  0
LINE
  5
135
330
1B
100
AcDbEntity
 67
     1
  8
0
  6
Continuous
 62
     7
370
    25
100
AcDbLine
 10
170.9635251978
 20
11.5
 30
0.0
 11
170.9635251978
 21
12.5
 31
0.0
  0
LINE
  5
136
330
1B
100
AcDbEntity
 67
     1
  8
0
  6
Continuous
 62
     7
370
    25
100
AcDbLine
 10
291.0364748022
 20
12.5
 30
0.0
 11
291.0364748022
 21
11.5
 31
0.0
  0
LINE
  5
137
330
1B
100
AcDbEntity
 67
     1
  8
0
  6
Continuous
 62
     7
370
    25
100
AcDbLine
 10
125.9235571467
 20
12.5
 30
0.0
 11
125.9235571467
 21
11.5
 31
0.0
  0
LINE
  5
138
330
1B
100
AcDbEntity
 67
     1
  8
0
  6
Continuous
 62
     7
370
    25
100
AcDbLine
 10
336.0764428533
 20
11.5
 30
0.0
 11
336.0764428533
 21
12.5
 31
0.0
  0
LINE
  5
139
330
1B
100
AcDbEntity
 67
     1
  8
0
  6
Continuous
 62
     7
370
    25
100
AcDbLine
 10
105.0
 20
29.0
 30
0.0
 11
445.0
 21
29.0
 31
0.0
  0
LINE
  5
13A
330
1B
100
AcDbEntity
 67
     1
  8
0
  6
Continuous
 62
     7
370
    25
100
AcDbLine
 10
267.5
 20
36.5
 30
0.0
 11
267.5
 21
29.0
 31
0.0
  0
LINE
  5
13B
330
1B
100
AcDbEntity
 67
     1
  8
0
  6
Continuous
 62
     7
370
    25
100
AcDbLine
 10
445.0
 20
36.5
 30
0.0
 11
105.0
 21
36.5
 31
0.0
  0
LINE
  5
13C
330
1B
100
AcDbEntity
 67
     1
  8
0
  6
Continuous
 62
     7
370
    25
100
AcDbLine
 10
8.6902031661
 20
59.0
 30
0.0
 11
16.2120179856
 21
59.0
 31
0.0
  0
LINE
  5
13D
330
1B
100
AcDbEntity
 67
     1
  8
0
  6
Continuous
 62
     7
370
    25
100
AcDbLine
 10
0.0
 20
34.0
 30
0.0
 11
0.0
 21
56.7669446656
 31
0.0
  0
LINE
  5
13E
330
1B
100
AcDbEntity
 67
     1
  8
0
  6
Continuous
 62
     7
370
    25
100
AcDbLine
 10
33.0
 20
47.0425875205
 30
0.0
 11
33.0
 21
43.9991774751
 31
0.0
  0
LINE
  5
13F
330
1B
100
AcDbEntity
 67
     1
  8
0
  6
Continuous
 62
     7
370
    25
100
AcDbLine
 10
445.0
 20
22.0
 30
0.0
 11
122.9761935499
 21
22.0
 31
0.0
  0
LINE
  5
140
330
1B
100
AcDbEntity
 67
     1
  8
0
  6
Continuous
 62
     7
370
    25
100
AcDbLine
 10
267.5
 20
0.0
 30
0.0
 11
267.5
 21
22.0
 31
0.0
  0
LINE
  5
141
330
1B
100
AcDbEntity
 67
     1
  8
0
  6
Continuous
 62
     7
370
    25
100
AcDbLine
 10
445.0
 20
14.0
 30
0.0
 11
20.0
 21
14.0
 31
0.0
  0
LINE
  5
142
330
1B
100
AcDbEntity
 67
     1
  8
0
  6
Continuous
 62
     7
370
    25
100
AcDbLine
 10
15.5173963271
 20
50.0
 30
0.0
 11
19.205185605
 21
50.0
 31
0.0
  0
LINE
  5
143
330
1B
100
AcDbEntity
 67
     1
  8
0
  6
Continuous
 62
     7
370
    25
100
AcDbLine
 10
336.0764428533
 20
12.5
 30
0.0
 11
291.0364748022
 21
12.5
 31
0.0
  0
LINE
  5
144
330
1B
100
AcDbEntity
 67
     1
  8
0
  6
Continuous
 62
     7
370
    25
100
AcDbLine
 10
170.9635251978
 20
12.5
 30
0.0
 11
125.9235571467
 21
12.5
 31
0.0
  0
LINE
  5
145
330
1B
100
AcDbEntity
 67
     1
  8
0
  6
Continuous
 62
     7
370
    25
100
AcDbLine
 10
158.2712175055
 20
11.5
 30
0.0
 11
158.2712175055
 21
12.5
 31
0.0
  0
LINE
  5
146
330
1B
100
AcDbEntity
 67
     1
  8
0
  6
Continuous
 62
     7
370
    25
100
AcDbLine
 10
170.9635251978
 20
11.5
 30
0.0
 11
125.9235571467
 21
11.5
 31
0.0
  0
LINE
  5
147
330
1B
100
AcDbEntity
 67
     1
  8
0
  6
Continuous
 62
     7
370
    25
100
AcDbLine
 10
303.7287824945
 20
11.5
 30
0.0
 11
303.7287824945
 21
12.5
 31
0.0
  0
LINE
  5
148
330
1B
100
AcDbEntity
 67
     1
  8
0
  6
Continuous
 62
     7
370
    25
100
AcDbLine
 10
291.0364748022
 20
11.5
 30
0.0
 11
336.0764428533
 21
11.5
 31
0.0
  0
LINE
  5
149
330
1B
100
AcDbEntity
 67
     1
  8
0
  6
Continuous
 62
     7
370
    25
100
AcDbLine
 10
328.7687505456
 20
11.5
 30
0.0
 11
328.7687505456
 21
12.5
 31
0.0
  0
LINE
  5
14A
330
1B
100
AcDbEntity
 67
     1
  8
0
  6
Continuous
 62
     7
370
    25
100
AcDbLine
 10
133.2312494544
 20
11.5
 30
0.0
 11
133.2312494544
 21
12.5
 31
0.0
  0
LINE
  5
14B
330
1B
100
AcDbEntity
 67
     1
  8
0
  6
Continuous
 62
     7
370
    25
100
AcDbLine
 10
161.0826936782
 20
7.5
 30
0.0
 11
135.8043886664
 21
7.5
 31
0.0
  0
LINE
  5
14C
330
1B
100
AcDbEntity
 67
     1
  8
0
  6
Continuous
 62
     7
370
    25
100
AcDbLine
 10
326.1956113336
 20
7.5
 30
0.0
 11
300.9173063218
 21
7.5
 31
0.0
  0
LINE
  5
14D
330
1B
100
AcDbEntity
 67
     1
  8
0
  6
Continuous
 62
     7
370
    25
100
AcDbLine
 10
97.0000107065
 20
0.0
 30
0.0
 11
381.0
 21
0.0
 31
0.0
  0
LINE
  5
14E
330
1B
100
AcDbEntity
 67
     1
  8
0
  6
Continuous
 62
     7
370
    25
100
AcDbLine
 10
210.5
 20
0.0
 30
0.0
 11
210.5
 21
14.0
 31
0.0
  0
LINE
  5
14F
330
1B
100
AcDbEntity
 67
     1
  8
0
  6
Continuous
 62
     7
370
    25
100
AcDbLine
 10
0.12945533
 20
27.487255492
 30
0.0
 11
0.0
 21
29.5000000016
 31
0.0
  0
ARC
  5
150
330
1B
100
AcDbEntity
 67
     1
  8
0
  6
Continuous
 62
     7
370
    25
100
AcDbCircle
 10
172.4635251978
 20
12.5
 30
0.0
 40
1.5
100
AcDbArc
 50
90.0
 51
180.0
  0
ARC
  5
151
330
1B
100
AcDbEntity
 67
     1
  8
0
  6
Continuous
 62
     7
370
    25
100
AcDbCircle
 10
289.5364748022
 20
12.5
 30
0.0
 40
1.5
100
AcDbArc
 50
0.0
 51
90.0
  0
ARC
  5
152
330
1B
100
AcDbEntity
 67
     1
  8
0
  6
Continuous
 62
     7
370
    25
100
AcDbCircle
 10
161.0826936782
 20
20.5
 30
0.0
 40
13.00000000000006
100
AcDbArc
 50
270.0
 51
316.1869385396
  0
ARC
  5
153
330
1B
100
AcDbEntity
 67
     1
  8
0
  6
Continuous
 62
     7
370
    25
100
AcDbCircle
 10
300.9173063218
 20
20.5
 30
0.0
 40
13.0
100
AcDbArc
 50
223.8130614604
 51
270.0
  0
ARC
  5
154
330
1B
100
AcDbEntity
 67
     1
  8
0
  6
Continuous
 62
     7
370
    25
100
AcDbCircle
 10
124.4235571467
 20
12.5
 30
0.0
 40
1.500000000000014
100
AcDbArc
 50
0.0
 51
90.0
  0
ARC
  5
155
330
1B
100
AcDbEntity
 67
     1
  8
0
  6
Continuous
 62
     7
370
    25
100
AcDbCircle
 10
337.5764428533
 20
12.5
 30
0.0
 40
1.5
100
AcDbArc
 50
90.0
 51
180.0
  0
ARC
  5
156
330
1B
100
AcDbEntity
 67
     1
  8
0
  6
Continuous
 62
     7
370
    25
100
AcDbCircle
 10
135.8043886664
 20
20.5
 30
0.0
 40
13.00000000000003
100
AcDbArc
 50
223.8130614604
 51
270.0
  0
ARC
  5
157
330
1B
100
AcDbEntity
 67
     1
  8
0
  6
Continuous
 62
     7
370
    25
100
AcDbCircle
 10
326.1956113336
 20
20.5
 30
0.0
 40
12.99999999999982
100
AcDbArc
 50
270.0
 51
316.1869385396
  0
ARC
  5
158
330
1B
100
AcDbEntity
 67
     1
  8
0
  6
Continuous
 62
     7
370
    25
100
AcDbCircle
 10
406.3771550809
 20
-16.0
 30
0.0
 40
30.00000000000002
100
AcDbArc
 50
90.0
 51
147.7690473645
  0
ARC
  5
159
330
1B
100
AcDbEntity
 67
     1
  8
0
  6
Continuous
 62
     7
370
    25
100
AcDbCircle
 10
10.3402955629
 20
34.552454555
 30
0.0
 40
24.50316884003241
100
AcDbArc
 50
93.8613346345
 51
114.9608128648
  0
ARC
  5
15A
330
1B
100
AcDbEntity
 67
     1
  8
0
  6
Continuous
 62
     7
370
    25
100
AcDbCircle
 10
12.4511105759
 20
3.2789052344
 30
0.0
 40
55.84787217454414
100
AcDbArc
 50
62.5231223289
 51
86.1386653655
  0
ARC
  5
15B
330
1B
100
AcDbEntity
 67
     1
  8
0
  6
Continuous
 62
     7
370
    25
100
AcDbCircle
 10
105.0
 20
181.2389773248
 30
0.0
 40
152.23897732481
100
AcDbArc
 50
242.5231223289
 51
270.0
  0
ARC
  5
15C
330
1B
100
AcDbEntity
 67
     1
  8
0
  6
Continuous
 62
     7
370
    25
100
AcDbCircle
 10
105.0
 20
181.2389773248
 30
0.0
 40
144.7389773248054
100
AcDbArc
 50
242.5231223289
 51
270.0
  0
ARC
  5
15D
330
1B
100
AcDbEntity
 67
     1
  8
0
  6
Continuous
 62
     7
370
    25
100
AcDbCircle
 10
10.3402955629
 20
34.552454555
 30
0.0
 40
17.00316884003399
100
AcDbArc
 50
93.8613346345
 51
127.4550850606
  0
ARC
  5
15E
330
1B
100
AcDbEntity
 67
     1
  8
0
  6
Continuous
 62
     7
370
    25
100
AcDbCircle
 10
12.4511105759
 20
3.2789052344
 30
0.0
 40
48.34787217454274
100
AcDbArc
 50
62.5231223289
 51
93.8613346345
  0
ARC
  5
15F
330
1B
100
AcDbEntity
 67
     1
  8
0
  6
Continuous
 62
     7
370
    25
100
AcDbCircle
 10
16.5
 20
29.5500853943
 30
0.0
 40
16.49999999999998
100
AcDbArc
 50
180.0
 51
289.5363684048
  0
ARC
  5
160
330
1B
100
AcDbEntity
 67
     1
  8
0
  6
Continuous
 62
     7
370
    25
100
AcDbCircle
 10
17.3612909661
 20
32.5496380858
 30
0.0
 40
17.54750917869715
100
AcDbArc
 50
96.0317835167
 51
171.6453975902
  0
ARC
  5
161
330
1B
100
AcDbEntity
 67
     1
  8
0
  6
Continuous
 62
     7
370
    25
100
AcDbCircle
 10
17.3612909661
 20
32.5496380858
 30
0.0
 40
17.54750917869676
100
AcDbArc
 50
60.204869228
 51
83.9682164833
  0
ARC
  5
162
330
1B
100
AcDbEntity
 67
     1
  8
0
  6
Continuous
 62
     7
370
    25
100
AcDbCircle
 10
20.0
 20
34.0
 30
0.0
 40
19.99999999999999
100
AcDbArc
 50
180.0
 51
270.0
  0
ARC
  5
163
330
1B
100
AcDbEntity
 67
     1
  8
0
  6
Continuous
 62
     7
370
    25
100
AcDbCircle
 10
122.9761935499
 20
217.0
 30
0.0
 40
194.9999999999992
100
AcDbArc
 50
240.204869228
 51
270.0
  0
ARC
  5
164
330
1B
100
AcDbEntity
 67
     1
  8
0
  6
Continuous
 62
     7
370
    25
100
AcDbCircle
 10
156.5754757473
 20
12.8478180473
 30
0.0
 40
1.731045205850362
100
AcDbArc
 50
348.4086810939
 51
41.7282952251
  0
ARC
  5
165
330
1B
100
AcDbEntity
 67
     1
  8
0
  6
Continuous
 62
     7
370
    25
100
AcDbCircle
 10
305.4245242527
 20
12.8478180473
 30
0.0
 40
1.73104520585023
100
AcDbArc
 50
138.2717047749
 51
191.5913189061
  0
ARC
  5
166
330
1B
100
AcDbEntity
 67
     1
  8
0
  6
Continuous
 62
     7
370
    25
100
AcDbCircle
 10
330.4644923038
 20
12.8478180473
 30
0.0
 40
1.731045205850547
100
AcDbArc
 50
138.2717047749
 51
191.5913189061
  0
ARC
  5
167
330
1B
100
AcDbEntity
 67
     1
  8
0
  6
Continuous
 62
     7
370
    25
100
AcDbCircle
 10
131.5355076962
 20
12.8478180473
 30
0.0
 40
1.73104520585071
100
AcDbArc
 50
348.4086810939
 51
41.7282952251
  0
ARC
  5
168
330
1B
100
AcDbEntity
 67
     1
  8
0
  6
Continuous
 62
     8
370
    25
100
AcDbCircle
 10
111.9146304507
 20
-10.3508459365
 30
0.0
 40
28.96732812133215
100
AcDbArc
 50
20.9362077819
 51
38.1622757132
  0
VIEWPORT
  5
362
330
1B
100
AcDbEntity
 67
     1
  8
0
100
AcDbViewport
 10
0.0
 20
0.0
 30
0.0
 40
205.6
 41
156.0
 68
     1
 69
     1
 12
0.0
 22
29.5
 13
0.0
 23
0.0
 14
10.0
 24
10.0
 15
10.0
 25
10.0
 16
0.0
 26
0.0
 36
1.0
 17
0.0
 27
0.0
 37
0.0
 42
50.0
 43
0.0
 44
0.0
 45
274.7451361868
 50
0.0
 51
0.0
 72
   100
 90
   557152
  1

281
     0
 71
     1
 74
     0
110
0.0
120
0.0
130
0.0
111
1.0
121
0.0
131
0.0
112
0.0
122
1.0
132
0.0
 79
     0
146
0.0
  0
ENDSEC
  0
SECTION
  2
OBJECTS
  0
DICTIONARY
  5
C
330
0
100
AcDbDictionary
281
     1
  3
ACAD_GROUP
350
D
  3
ACAD_LAYOUT
350
1A
  3
ACAD_MLINESTYLE
350
17
  3
ACAD_PLOTSETTINGS
350
19
  3
ACAD_PLOTSTYLENAME
350
E
  3
ACAD_SCALELIST
350
47
  0
DICTIONARY
  5
D
102
{ACAD_REACTORS
330
C
102
}
330
C
100
AcDbDictionary
281
     1
  0
DICTIONARY
  5
1A
102
{ACAD_REACTORS
330
C
102
}
330
C
100
AcDbDictionary
281
     1
  3
_Bottom
350
26
  3
_Isometric
350
313
  3
_Left
350
1E
  3
Model
350
22
  0
DICTIONARY
  5
17
102
{ACAD_REACTORS
330
C
102
}
330
C
100
AcDbDictionary
281
     1
  3
Standard
350
18
  0
DICTIONARY
  5
19
102
{ACAD_REACTORS
330
C
102
}
330
C
100
AcDbDictionary
281
     1
  0
ACDBDICTIONARYWDFLT
  5
E
102
{ACAD_REACTORS
330
C
102
}
330
C
100
AcDbDictionary
281
     1
  3
Normal
350
F
100
AcDbDictionaryWithDefault
340
F
  0
DICTIONARY
  5
47
102
{ACAD_REACTORS
330
C
102
}
330
C
100
AcDbDictionary
281
     1
  3
A0
350
48
  3
A1
350
49
  3
A2
350
4A
  3
A3
350
4B
  3
A4
350
4C
  3
A5
350
4D
  3
A6
350
4E
  3
A7
350
4F
  3
A8
350
50
  3
A9
350
51
  3
B0
350
52
  3
B1
350
53
  3
B2
350
54
  3
B3
350
55
  3
B4
350
56
  3
B5
350
57
  3
B6
350
58
  3
B7
350
59
  3
B8
350
5A
  3
B9
350
5B
  3
C0
350
5C
  3
C1
350
5D
  3
C2
350
5E
  3
C3
350
5F
  3
C4
350
60
  3
C5
350
61
  3
C6
350
62
  3
C7
350
63
  3
C8
350
64
  3
C9
350
65
  3
D0
350
66
  3
D1
350
67
  3
D2
350
68
  0
LAYOUT
  5
26
102
{ACAD_REACTORS
330
1A
102
}
330
1A
100
AcDbPlotSettings
  1

  2
none_device
  4
ISO_A4_(210.00_x_297.00_MM)
  6

 40
7.5
 41
20.0
 42
7.5
 43
20.0
 44
210.0
 45
297.0
 46
0.0
 47
0.0
 48
0.0
 49
0.0
140
0.0
141
0.0
142
1.0
143
1.7315175097
 70
   688
 72
     1
 73
     1
 74
     1
  7

 75
     0
147
0.5775280899
148
0.0
149
0.0118441712
100
AcDbLayout
  1
_Bottom
 70
     1
 71
     2
 10
0.0
 20
0.0
 11
0.0
 21
0.0
 12
0.0
 22
0.0
 32
0.0
 14
0.0
 24
0.0
 34
0.0
 15
0.0
 25
0.0
 35
0.0
146
0.0
 13
0.0
 23
0.0
 33
0.0
 16
1.0
 26
0.0
 36
0.0
 17
0.0
 27
1.0
 37
0.0
 76
     0
330
23
331
364
  0
LAYOUT
  5
313
102
{ACAD_REACTORS
330
1A
102
}
330
1A
100
AcDbPlotSettings
  1

  2
none_device
  4
ISO_A4_(210.00_x_297.00_MM)
  6

 40
7.5
 41
20.0
 42
7.5
 43
20.0
 44
210.0
 45
297.0
 46
0.0
 47
0.0
 48
0.0
 49
0.0
140
0.0
141
0.0
142
1.0
143
1.7315175097
 70
   688
 72
     1
 73
     1
 74
     1
  7

 75
     0
147
0.5775280899
148
0.0
149
0.0118441712
100
AcDbLayout
  1
_Isometric
 70
     1
 71
     3
 10
0.0
 20
0.0
 11
0.0
 21
0.0
 12
0.0
 22
0.0
 32
0.0
 14
0.0
 24
0.0
 34
0.0
 15
0.0
 25
0.0
 35
0.0
146
0.0
 13
0.0
 23
0.0
 33
0.0
 16
1.0
 26
0.0
 36
0.0
 17
0.0
 27
1.0
 37
0.0
 76
     0
330
312
331
366
  0
LAYOUT
  5
1E
102
{ACAD_REACTORS
330
1A
102
}
330
1A
100
AcDbPlotSettings
  1

  2
none_device
  4
ISO_A4_(210.00_x_297.00_MM)
  6

 40
7.5
 41
20.0
 42
7.5
 43
20.0
 44
210.0
 45
297.0
 46
0.0
 47
0.0
 48
0.0
 49
0.0
140
0.0
141
0.0
142
1.0
143
1.7315175097
 70
   688
 72
     1
 73
     1
 74
     1
  7

 75
     0
147
0.5775280899
148
0.0
149
0.0118441712
100
AcDbLayout
  1
_Left
 70
     1
 71
     1
 10
-34.6303501946
 20
-12.9982254942
 11
479.6303501946
 21
350.6204515486
 12
0.0
 22
0.0
 32
0.0
 14
0.0
 24
-0.0118441712
 34
0.0
 15
445.0
 25
59.0
 35
0.0
146
0.0
 13
0.0
 23
0.0
 33
0.0
 16
1.0
 26
0.0
 36
0.0
 17
0.0
 27
1.0
 37
0.0
 76
     0
330
1B
331
362
  0
LAYOUT
  5
22
102
{ACAD_REACTORS
330
1A
102
}
330
1A
100
AcDbPlotSettings
  1

  2
none_device
  4
ANSI_A_(11.00_x_8.50_Inches)
  6

 40
6.35
 41
19.05
 42
6.35000508
 43
19.05000254
 44
279.4
 45
215.9
 46
133.34999746
 47
65.9144297159
 48
0.0
 49
0.0
140
0.0
141
0.0
142
0.0306760563
143
1.0
 70
  1696
 72
     0
 73
     0
 74
     0
  7

 75
     0
147
0.0179189148
148
-1300.4909072572
149
0.0
100
AcDbLayout
  1
Model
 70
     1
 71
     0
 10
0.0
 20
0.0
 11
420.0
 21
297.0
 12
0.0
 22
0.0
 32
0.0
 14
-177.5
 24
0.0
 34
0.0
 15
177.5
 25
59.0
 35
0.0
146
0.0
 13
0.0
 23
0.0
 33
0.0
 16
1.0
 26
0.0
 36
0.0
 17
0.0
 27
1.0
 37
0.0
 76
     0
330
1F
331
29
  0
MLINESTYLE
  5
18
102
{ACAD_REACTORS
330
17
102
}
330
17
100
AcDbMlineStyle
  2
Standard
 70
     0
  3

 62
   256
 51
90.0
 52
90.0
 71
     2
 49
0.5
 62
   256
  6
BYLAYER
 49
-0.5
 62
   256
  6
BYLAYER
  0
ACDBPLACEHOLDER
  5
F
102
{ACAD_REACTORS
330
E
102
}
330
E
  0
SCALE
  5
48
102
{ACAD_REACTORS
330
47
102
}
330
47
100
AcDbScale
 70
     0
300
1:1
140
1.0
141
1.0
290
     1
  0
SCALE
  5
49
102
{ACAD_REACTORS
330
47
102
}
330
47
100
AcDbScale
 70
     0
300
1:2
140
1.0
141
2.0
290
     0
  0
SCALE
  5
4A
102
{ACAD_REACTORS
330
47
102
}
330
47
100
AcDbScale
 70
     0
300
1:4
140
1.0
141
4.0
290
     0
  0
SCALE
  5
4B
102
{ACAD_REACTORS
330
47
102
}
330
47
100
AcDbScale
 70
     0
300
1:5
140
1.0
141
5.0
290
     0
  0
SCALE
  5
4C
102
{ACAD_REACTORS
330
47
102
}
330
47
100
AcDbScale
 70
     0
300
1:8
140
1.0
141
8.0
290
     0
  0
SCALE
  5
4D
102
{ACAD_REACTORS
330
47
102
}
330
47
100
AcDbScale
 70
     0
300
1:10
140
1.0
141
10.0
290
     0
  0
SCALE
  5
4E
102
{ACAD_REACTORS
330
47
102
}
330
47
100
AcDbScale
 70
     0
300
1:16
140
1.0
141
16.0
290
     0
  0
SCALE
  5
4F
102
{ACAD_REACTORS
330
47
102
}
330
47
100
AcDbScale
 70
     0
300
1:20
140
1.0
141
20.0
290
     0
  0
SCALE
  5
50
102
{ACAD_REACTORS
330
47
102
}
330
47
100
AcDbScale
 70
     0
300
1:30
140
1.0
141
30.0
290
     0
  0
SCALE
  5
51
102
{ACAD_REACTORS
330
47
102
}
330
47
100
AcDbScale
 70
     0
300
1:40
140
1.0
141
40.0
290
     0
  0
SCALE
  5
52
102
{ACAD_REACTORS
330
47
102
}
330
47
100
AcDbScale
 70
     0
300
1:50
140
1.0
141
50.0
290
     0
  0
SCALE
  5
53
102
{ACAD_REACTORS
330
47
102
}
330
47
100
AcDbScale
 70
     0
300
1:100
140
1.0
141
100.0
290
     0
  0
SCALE
  5
54
102
{ACAD_REACTORS
330
47
102
}
330
47
100
AcDbScale
 70
     0
300
2:1
140
2.0
141
1.0
290
     0
  0
SCALE
  5
55
102
{ACAD_REACTORS
330
47
102
}
330
47
100
AcDbScale
 70
     0
300
4:1
140
4.0
141
1.0
290
     0
  0
SCALE
  5
56
102
{ACAD_REACTORS
330
47
102
}
330
47
100
AcDbScale
 70
     0
300
8:1
140
8.0
141
1.0
290
     0
  0
SCALE
  5
57
102
{ACAD_REACTORS
330
47
102
}
330
47
100
AcDbScale
 70
     0
300
10:1
140
10.0
141
1.0
290
     0
  0
SCALE
  5
58
102
{ACAD_REACTORS
330
47
102
}
330
47
100
AcDbScale
 70
     0
300
100:1
140
100.0
141
1.0
290
     0
  0
SCALE
  5
59
102
{ACAD_REACTORS
330
47
102
}
330
47
100
AcDbScale
 70
     0
300
1/128" = 1'-0"
140
0.0078125
141
12.0
290
     0
  0
SCALE
  5
5A
102
{ACAD_REACTORS
330
47
102
}
330
47
100
AcDbScale
 70
     0
300
1/64" = 1'-0"
140
0.015625
141
12.0
290
     0
  0
SCALE
  5
5B
102
{ACAD_REACTORS
330
47
102
}
330
47
100
AcDbScale
 70
     0
300
1/32" = 1'-0"
140
0.03125
141
12.0
290
     0
  0
SCALE
  5
5C
102
{ACAD_REACTORS
330
47
102
}
330
47
100
AcDbScale
 70
     0
300
1/16" = 1'-0"
140
0.0625
141
12.0
290
     0
  0
SCALE
  5
5D
102
{ACAD_REACTORS
330
47
102
}
330
47
100
AcDbScale
 70
     0
300
3/32" = 1'-0"
140
0.09375
141
12.0
290
     0
  0
SCALE
  5
5E
102
{ACAD_REACTORS
330
47
102
}
330
47
100
AcDbScale
 70
     0
300
1/8" = 1'-0"
140
0.125
141
12.0
290
     0
  0
SCALE
  5
5F
102
{ACAD_REACTORS
330
47
102
}
330
47
100
AcDbScale
 70
     0
300
3/16" = 1'-0"
140
0.1875
141
12.0
290
     0
  0
SCALE
  5
60
102
{ACAD_REACTORS
330
47
102
}
330
47
100
AcDbScale
 70
     0
300
1/4" = 1'-0"
140
0.25
141
12.0
290
     0
  0
SCALE
  5
61
102
{ACAD_REACTORS
330
47
102
}
330
47
100
AcDbScale
 70
     0
300
3/8" = 1'-0"
140
0.375
141
12.0
290
     0
  0
SCALE
  5
62
102
{ACAD_REACTORS
330
47
102
}
330
47
100
AcDbScale
 70
     0
300
1/2" = 1'-0"
140
0.5
141
12.0
290
     0
  0
SCALE
  5
63
102
{ACAD_REACTORS
330
47
102
}
330
47
100
AcDbScale
 70
     0
300
3/4" = 1'-0"
140
0.75
141
12.0
290
     0
  0
SCALE
  5
64
102
{ACAD_REACTORS
330
47
102
}
330
47
100
AcDbScale
 70
     0
300
1" = 1'-0"
140
1.0
141
12.0
290
     0
  0
SCALE
  5
65
102
{ACAD_REACTORS
330
47
102
}
330
47
100
AcDbScale
 70
     0
300
1-1/2" = 1'-0"
140
1.5
141
12.0
290
     0
  0
SCALE
  5
66
102
{ACAD_REACTORS
330
47
102
}
330
47
100
AcDbScale
 70
     0
300
3" = 1'-0"
140
3.0
141
12.0
290
     0
  0
SCALE
  5
67
102
{ACAD_REACTORS
330
47
102
}
330
47
100
AcDbScale
 70
     0
300
6" = 1'-0"
140
6.0
141
12.0
290
     0
  0
SCALE
  5
68
102
{ACAD_REACTORS
330
47
102
}
330
47
100
AcDbScale
 70
     0
300
1'-0" = 1'-0"
140
12.0
141
12.0
290
     0
  0
ENDSEC
  0
EOF
