  0
SECTION
  2
HEADER
  9
$ACADVER
  1
AC1015
  9
$ACADMAINTVER
 70
     6
  9
$DWGCODEPAGE
  3
ANSI_1252
  9
$INSBASE
 10
0.0
 20
0.0
 30
0.0
  9
$EXTMIN
 10
-199.5
 20
-766.0
 30
0.0
  9
$EXTMAX
 10
200.5
 20
766.0
 30
0.0
  9
$LIMMIN
 10
0.0
 20
0.0
  9
$LIMMAX
 10
420.0
 20
297.0
  9
$ORTHOMODE
 70
     0
  9
$REGENMODE
 70
     1
  9
$FILLMODE
 70
     1
  9
$QTEXTMODE
 70
     0
  9
$MIRRTEXT
 70
     1
  9
$LTSCALE
 40
1.0
  9
$ATTMODE
 70
     1
  9
$TEXTSIZE
 40
3.5
  9
$TRACEWID
 40
1.0
  9
$TEXTSTYLE
  7
Standard
  9
$CLAYER
  8
0
  9
$CELTYPE
  6
ByLayer
  9
$CECOLOR
 62
   256
  9
$CELTSCALE
 40
1.0
  9
$DISPSILH
 70
     0
  9
$DIMSCALE
 40
1.0
  9
$DIMASZ
 40
3.302
  9
$DIMEXO
 40
1.0
  9
$DIMDLI
 40
3.75
  9
$DIMRND
 40
0.0
  9
$DIMDLE
 40
0.0
  9
$DIMEXE
 40
1.0
  9
$DIMTP
 40
0.0
  9
$DIMTM
 40
0.0
  9
$DIMTXT
 40
3.5
  9
$DIMCEN
 40
2.5
  9
$DIMTSZ
 40
0.0
  9
$DIMTOL
 70
     0
  9
$DIMLIM
 70
     0
  9
$DIMTIH
 70
     1
  9
$DIMTOH
 70
     1
  9
$DIMSE1
 70
     0
  9
$DIMSE2
 70
     0
  9
$DIMTAD
 70
     1
  9
$DIMZIN
 70
     1
  9
$DIMBLK
  1

  9
$DIMASO
 70
     1
  9
$DIMSHO
 70
     1
  9
$DIMPOST
  1

  9
$DIMAPOST
  1

  9
$DIMALT
 70
     0
  9
$DIMALTD
 70
     3
  9
$DIMALTF
 40
0.0393700787
  9
$DIMLFAC
 40
1.0
  9
$DIMTOFL
 70
     1
  9
$DIMTVP
 40
0.0
  9
$DIMTIX
 70
     0
  9
$DIMSOXD
 70
     0
  9
$DIMSAH
 70
     0
  9
$DIMBLK1
  1

  9
$DIMBLK2
  1

  9
$DIMSTYLE
  2
ISO-25
  9
$DIMCLRD
 70
     0
  9
$DIMCLRE
 70
     0
  9
$DIMCLRT
 70
     0
  9
$DIMTFAC
 40
1.0
  9
$DIMGAP
 40
1.524
  9
$DIMJUST
 70
     0
  9
$DIMSD1
 70
     0
  9
$DIMSD2
 70
     0
  9
$DIMTOLJ
 70
     0
  9
$DIMTZIN
 70
     1
  9
$DIMALTZ
 70
     0
  9
$DIMALTTZ
 70
     0
  9
$DIMUPT
 70
     0
  9
$DIMDEC
 70
     2
  9
$DIMTDEC
 70
     2
  9
$DIMALTU
 70
     2
  9
$DIMALTTD
 70
     3
  9
$DIMTXSTY
  7
Standard
  9
$DIMAUNIT
 70
     0
  9
$DIMADEC
 70
     2
  9
$DIMALTRND
 40
0.0
  9
$DIMAZIN
 70
     0
  9
$DIMDSEP
 70
    44
  9
$DIMATFIT
 70
     3
  9
$DIMFRAC
 70
     0
  9
$DIMLDRBLK
  1

  9
$DIMLUNIT
 70
     2
  9
$DIMLWD
 70
    -2
  9
$DIMLWE
 70
    -2
  9
$DIMTMOVE
 70
     0
  9
$LUNITS
 70
     2
  9
$LUPREC
 70
     2
  9
$SKETCHINC
 40
1.0
  9
$FILLETRAD
 40
10.0
  9
$AUNITS
 70
     0
  9
$AUPREC
 70
     2
  9
$MENU
  1
.
  9
$ELEVATION
 40
0.0
  9
$PELEVATION
 40
0.0
  9
$THICKNESS
 40
0.0
  9
$LIMCHECK
 70
     0
  9
$CHAMFERA
 40
0.0
  9
$CHAMFERB
 40
0.0
  9
$CHAMFERC
 40
0.0
  9
$CHAMFERD
 40
0.0
  9
$SKPOLY
 70
     0
  9
$TDCREATE
 40
2458933.635164213
  9
$TDUCREATE
 40
2458933.635164213
  9
$TDUPDATE
 40
2458933.635193692
  9
$TDUUPDATE
 40
2458933.635193692
  9
$TDINDWG
 40
0.0000000116
  9
$TDUSRTIMER
 40
0.0000000116
  9
$USRTIMER
 70
     1
  9
$ANGBASE
 50
0.0
  9
$ANGDIR
 70
     0
  9
$PDMODE
 70
     0
  9
$PDSIZE
 40
-1.0
  9
$PLINEWID
 40
0.0
  9
$SPLFRAME
 70
     0
  9
$SPLINETYPE
 70
     6
  9
$SPLINESEGS
 70
     8
  9
$HANDSEED
  5
3CB
  9
$SURFTAB1
 70
     6
  9
$SURFTAB2
 70
     6
  9
$SURFTYPE
 70
     6
  9
$SURFU
 70
     6
  9
$SURFV
 70
     6
  9
$UCSBASE
  2

  9
$UCSNAME
  2

  9
$UCSORG
 10
0.0
 20
0.0
 30
0.0
  9
$UCSXDIR
 10
1.0
 20
0.0
 30
0.0
  9
$UCSYDIR
 10
0.0
 20
1.0
 30
0.0
  9
$UCSORTHOREF
  2

  9
$UCSORTHOVIEW
 70
     0
  9
$UCSORGTOP
 10
0.0
 20
0.0
 30
0.0
  9
$UCSORGBOTTOM
 10
0.0
 20
0.0
 30
0.0
  9
$UCSORGLEFT
 10
0.0
 20
0.0
 30
0.0
  9
$UCSORGRIGHT
 10
0.0
 20
0.0
 30
0.0
  9
$UCSORGFRONT
 10
0.0
 20
0.0
 30
0.0
  9
$UCSORGBACK
 10
0.0
 20
0.0
 30
0.0
  9
$PUCSBASE
  2

  9
$PUCSNAME
  2

  9
$PUCSORG
 10
0.0
 20
0.0
 30
0.0
  9
$PUCSXDIR
 10
1.0
 20
0.0
 30
0.0
  9
$PUCSYDIR
 10
0.0
 20
1.0
 30
0.0
  9
$PUCSORTHOREF
  2

  9
$PUCSORTHOVIEW
 70
     0
  9
$PUCSORGTOP
 10
0.0
 20
0.0
 30
0.0
  9
$PUCSORGBOTTOM
 10
0.0
 20
0.0
 30
0.0
  9
$PUCSORGLEFT
 10
0.0
 20
0.0
 30
0.0
  9
$PUCSORGRIGHT
 10
0.0
 20
0.0
 30
0.0
  9
$PUCSORGFRONT
 10
0.0
 20
0.0
 30
0.0
  9
$PUCSORGBACK
 10
0.0
 20
0.0
 30
0.0
  9
$USERI1
 70
     0
  9
$USERI2
 70
     0
  9
$USERI3
 70
     0
  9
$USERI4
 70
     0
  9
$USERI5
 70
     0
  9
$USERR1
 40
0.0
  9
$USERR2
 40
0.0
  9
$USERR3
 40
0.0
  9
$USERR4
 40
0.0
  9
$USERR5
 40
0.0
  9
$WORLDVIEW
 70
     1
  9
$SHADEDGE
 70
     3
  9
$SHADEDIF
 70
    70
  9
$TILEMODE
 70
     1
  9
$MAXACTVP
 70
    64
  9
$PINSBASE
 10
0.0
 20
0.0
 30
0.0
  9
$PLIMCHECK
 70
     0
  9
$PEXTMIN
 10
-200.5
 20
-766.0
 30
0.0
  9
$PEXTMAX
 10
199.5
 20
766.0
 30
0.0
  9
$PLIMMIN
 10
-357.6282051282
 20
-824.9230769231
  9
$PLIMMAX
 10
1975.7256410256
 20
824.9230769231
  9
$UNITMODE
 70
     0
  9
$VISRETAIN
 70
     1
  9
$PLINEGEN
 70
     0
  9
$PSLTSCALE
 70
     1
  9
$TREEDEPTH
 70
  3020
  9
$CMLSTYLE
  2
Standard
  9
$CMLJUST
 70
     0
  9
$CMLSCALE
 40
20.0
  9
$PROXYGRAPHICS
 70
     1
  9
$MEASUREMENT
 70
     1
  9
$CELWEIGHT
370
    -1
  9
$ENDCAPS
280
     0
  9
$JOINSTYLE
280
     0
  9
$LWDISPLAY
290
     1
  9
$INSUNITS
 70
     4
  9
$HYPERLINKBASE
  1

  9
$STYLESHEET
  1

  9
$XEDIT
290
     1
  9
$CEPSNTYPE
380
     0
  9
$PSTYLEMODE
290
     1
  9
$FINGERPRINTGUID
  2
{6620ad83-2094-404b-8feb-54e83d700ba2}
  9
$VERSIONGUID
  2
{FAEB1C32-E019-11D5-929B-00C0DF256EC4}
  9
$EXTNAMES
290
     1
  9
$PSVPSCALE
 40
0.0
  9
$OLESTARTUP
290
     0
  0
ENDSEC
  0
SECTION
  2
CLASSES
  0
CLASS
  1
ACDBDICTIONARYWDFLT
  2
AcDbDictionaryWithDefault
  3
ObjectDBX Classes
 90
        0
280
     0
281
     0
  0
CLASS
  1
VISUALSTYLE
  2
AcDbVisualStyle
  3
ObjectDBX Classes
 90
     4095
280
     0
281
     0
  0
CLASS
  1
MATERIAL
  2
AcDbMaterial
  3
ObjectDBX Classes
 90
     1153
280
     0
281
     0
  0
CLASS
  1
SCALE
  2
AcDbScale
  3
ObjectDBX Classes
 90
     1153
280
     0
281
     0
  0
CLASS
  1
TABLESTYLE
  2
AcDbTableStyle
  3
ObjectDBX Classes
 90
     4095
280
     0
281
     0
  0
CLASS
  1
MLEADERSTYLE
  2
AcDbMLeaderStyle
  3
ACDB_MLEADERSTYLE_CLASS
 90
     4095
280
     0
281
     0
  0
CLASS
  1
SUN
  2
AcDbSun
  3
SCENEOE
 90
     1153
280
     0
281
     0
  0
CLASS
  1
ACDBPLACEHOLDER
  2
AcDbPlaceHolder
  3
ObjectDBX Classes
 90
        0
280
     0
281
     0
  0
CLASS
  1
LAYOUT
  2
AcDbLayout
  3
ObjectDBX Classes
 90
        0
280
     0
281
     0
  0
ENDSEC
  0
SECTION
  2
TABLES
  0
TABLE
  2
VPORT
  5
8
330
0
100
AcDbSymbolTable
 70
     1
  0
VPORT
  5
29
330
8
100
AcDbSymbolTableRecord
100
AcDbViewportTableRecord
  2
*Active
 70
     0
 10
0.0
 20
0.0
 11
1.0
 21
1.0
 12
0.5
 22
0.0
 13
0.0
 23
0.0
 14
10.0
 24
10.0
 15
10.0
 25
10.0
 16
0.0
 26
0.0
 36
1.0
 17
0.0
 27
0.0
 37
0.0
 40
1562.64
 41
0.2610966057
 42
50.0
 43
0.0
 44
0.0
 50
0.0
 51
0.0
 71
     0
 72
   100
 73
     1
 74
     3
 75
     0
 76
     0
 77
     0
 78
     0
281
     0
 65
     1
110
0.0
120
0.0
130
0.0
111
1.0
121
0.0
131
0.0
112
0.0
122
1.0
132
0.0
 79
     0
146
0.0
  0
ENDTAB
  0
TABLE
  2
LTYPE
  5
5
330
0
100
AcDbSymbolTable
 70
     6
  0
LTYPE
  5
14
330
5
100
AcDbSymbolTableRecord
100
AcDbLinetypeTableRecord
  2
ByBlock
 70
     0
  3

 72
    65
 73
     0
 40
0.0
  0
LTYPE
  5
15
330
5
100
AcDbSymbolTableRecord
100
AcDbLinetypeTableRecord
  2
ByLayer
 70
     0
  3

 72
    65
 73
     0
 40
0.0
  0
LTYPE
  5
16
330
5
100
AcDbSymbolTableRecord
100
AcDbLinetypeTableRecord
  2
Continuous
 70
     0
  3
Solid line
 72
    65
 73
     0
 40
0.0
  0
LTYPE
  5
6E
330
5
100
AcDbSymbolTableRecord
100
AcDbLinetypeTableRecord
  2
HIDDEN
 70
     0
  3
Hidden __ __ __ __ __ __ __ __ __ __ __ __ __ __
 72
    65
 73
     2
 40
1.905
 49
1.27
 74
     0
 49
-0.635
 74
     0
  0
LTYPE
  5
6F
330
5
100
AcDbSymbolTableRecord
100
AcDbLinetypeTableRecord
  2
PHANTOM
 70
     0
  3
Phantom ______  __  __  ______  __  __  ______
 72
    65
 73
     6
 40
12.7
 49
6.35
 74
     0
 49
-1.27
 74
     0
 49
1.27
 74
     0
 49
-1.27
 74
     0
 49
1.27
 74
     0
 49
-1.27
 74
     0
  0
LTYPE
  5
70
330
5
100
AcDbSymbolTableRecord
100
AcDbLinetypeTableRecord
  2
CENTER
 70
     0
  3
Center ____ _ ____ _ ____ _ ____ _ ____ _ ____
 72
    65
 73
     4
 40
10.16
 49
6.35
 74
     0
 49
-1.27
 74
     0
 49
1.27
 74
     0
 49
-1.27
 74
     0
  0
LTYPE
  5
71
330
5
100
AcDbSymbolTableRecord
100
AcDbLinetypeTableRecord
  2
CENTERX2
 70
     0
  3
Center (2x) ________  __  ________  __  _____
 72
    65
 73
     4
 40
20.32
 49
12.7
 74
     0
 49
-2.54
 74
     0
 49
2.54
 74
     0
 49
-2.54
 74
     0
  0
LTYPE
  5
72
330
5
100
AcDbSymbolTableRecord
100
AcDbLinetypeTableRecord
  2
DOT2
 70
     0
  3
Dot (.5x) ........................................
 72
    65
 73
     2
 40
0.635
 49
0.0
 74
     0
 49
-0.635
 74
     0
  0
ENDTAB
  0
TABLE
  2
LAYER
  5
2
330
0
100
AcDbSymbolTable
 70
     1
  0
LAYER
  5
10
330
2
100
AcDbSymbolTableRecord
100
AcDbLayerTableRecord
  2
0
 70
     0
 62
     7
  6
Continuous
370
    -3
390
F
  0
ENDTAB
  0
TABLE
  2
STYLE
  5
3
330
0
100
AcDbSymbolTable
 70
     1
  0
STYLE
  5
11
330
3
100
AcDbSymbolTableRecord
100
AcDbTextStyleTableRecord
  2
Standard
 70
     0
 40
0.0
 41
1.0
 50
0.0
 71
     0
 42
3.5
  3
txt
  4

  0
ENDTAB
  0
TABLE
  2
VIEW
  5
6
330
0
100
AcDbSymbolTable
 70
     0
  0
ENDTAB
  0
TABLE
  2
UCS
  5
7
330
0
100
AcDbSymbolTable
 70
     0
  0
ENDTAB
  0
TABLE
  2
APPID
  5
9
330
0
100
AcDbSymbolTable
 70
     1
  0
APPID
  5
12
330
9
100
AcDbSymbolTableRecord
100
AcDbRegAppTableRecord
  2
ACAD
 70
     0
  0
ENDTAB
  0
TABLE
  2
DIMSTYLE
  5
A
330
0
100
AcDbSymbolTable
 70
     1
100
AcDbDimStyleTable
  0
DIMSTYLE
105
27
330
A
100
AcDbSymbolTableRecord
100
AcDbDimStyleTableRecord
  2
ISO-25
 70
     0
 41
2.5
 42
0.625
 43
3.75
 44
1.25
 73
     0
 74
     0
 77
     1
 78
     8
140
2.5
141
2.5
143
0.0393700787
147
0.625
171
     3
172
     1
178
     0
271
     2
272
     2
274
     3
278
    44
283
     0
284
     8
340
11
  0
ENDTAB
  0
TABLE
  2
BLOCK_RECORD
  5
1
330
0
100
AcDbSymbolTable
 70
     3
  0
BLOCK_RECORD
  5
1F
330
1
100
AcDbSymbolTableRecord
100
AcDbBlockTableRecord
  2
*Model_Space
340
22
  0
BLOCK_RECORD
  5
1B
330
1
100
AcDbSymbolTableRecord
100
AcDbBlockTableRecord
  2
*Paper_Space
340
1E
  0
BLOCK_RECORD
  5
23
330
1
100
AcDbSymbolTableRecord
100
AcDbBlockTableRecord
  2
*Paper_Space0
340
26
  0
BLOCK_RECORD
  5
19F
330
1
100
AcDbSymbolTableRecord
100
AcDbBlockTableRecord
  2
*Paper_Space1
340
1A0
  0
BLOCK_RECORD
  5
25B
330
1
100
AcDbSymbolTableRecord
100
AcDbBlockTableRecord
  2
*Paper_Space2
340
25C
  0
ENDTAB
  0
ENDSEC
  0
SECTION
  2
BLOCKS
  0
BLOCK
  5
20
330
1F
100
AcDbEntity
  8
0
100
AcDbBlockBegin
  2
*Model_Space
 70
     0
 10
0.0
 20
0.0
 30
0.0
  3
*Model_Space
  1

  0
ENDBLK
  5
21
330
1F
100
AcDbEntity
  8
0
100
AcDbBlockEnd
  0
BLOCK
  5
1C
330
1B
100
AcDbEntity
 67
     1
  8
0
100
AcDbBlockBegin
  2
*Paper_Space
 70
     0
 10
0.0
 20
0.0
 30
0.0
  3
*Paper_Space
  1

  0
ENDBLK
  5
1D
330
1B
100
AcDbEntity
 67
     1
  8
0
100
AcDbBlockEnd
  0
BLOCK
  5
24
330
23
100
AcDbEntity
  8
0
100
AcDbBlockBegin
  2
*Paper_Space0
 70
     0
 10
0.0
 20
0.0
 30
0.0
  3
*Paper_Space0
  1

  0
LINE
  5
17F
330
23
100
AcDbEntity
  8
0
  6
Continuous
 62
     7
370
    25
100
AcDbLine
 10
-11.0
 20
766.0
 30
0.0
 11
-11.0
 21
-766.0
 31
0.0
  0
LINE
  5
180
330
23
100
AcDbEntity
  8
0
  6
Continuous
 62
     7
370
    25
100
AcDbLine
 10
-12.0
 20
-765.0
 30
0.0
 11
-12.0
 21
765.0
 31
0.0
  0
LINE
  5
181
330
23
100
AcDbEntity
  8
0
  6
Continuous
 62
     7
370
    25
100
AcDbLine
 10
269.0
 20
-766.0
 30
0.0
 11
-11.0
 21
-766.0
 31
0.0
  0
LINE
  5
182
330
23
100
AcDbEntity
  8
0
  6
Continuous
 62
     7
370
    25
100
AcDbLine
 10
269.0
 20
-766.0
 30
0.0
 11
269.0
 21
766.0
 31
0.0
  0
LINE
  5
183
330
23
100
AcDbEntity
  8
0
  6
Continuous
 62
     7
370
    25
100
AcDbLine
 10
-11.0
 20
766.0
 30
0.0
 11
269.0
 21
766.0
 31
0.0
  0
LINE
  5
184
330
23
100
AcDbEntity
  8
0
  6
Continuous
 62
     7
370
    25
100
AcDbLine
 10
270.0
 20
765.0
 30
0.0
 11
270.0
 21
-765.0
 31
0.0
  0
LINE
  5
185
330
23
100
AcDbEntity
  8
0
  6
Continuous
 62
     7
370
    25
100
AcDbLine
 10
289.0
 20
-337.0
 30
0.0
 11
289.0
 21
-765.0
 31
0.0
  0
LINE
  5
186
330
23
100
AcDbEntity
  8
0
  6
Continuous
 62
     7
370
    25
100
AcDbLine
 10
-12.0
 20
-765.0
 30
0.0
 11
289.0
 21
-765.0
 31
0.0
  0
LINE
  5
187
330
23
100
AcDbEntity
  8
0
  6
Continuous
 62
     7
370
    25
100
AcDbLine
 10
288.0
 20
-766.0
 30
0.0
 11
288.0
 21
-336.0
 31
0.0
  0
LINE
  5
188
330
23
100
AcDbEntity
  8
0
  6
Continuous
 62
     7
370
    25
100
AcDbLine
 10
289.0
 20
-337.0
 30
0.0
 11
270.0
 21
-337.0
 31
0.0
  0
LINE
  5
189
330
23
100
AcDbEntity
  8
0
  6
Continuous
 62
     7
370
    25
100
AcDbLine
 10
271.0
 20
-336.0
 30
0.0
 11
271.0
 21
-766.0
 31
0.0
  0
LINE
  5
18A
330
23
100
AcDbEntity
  8
0
  6
Continuous
 62
     7
370
    25
100
AcDbLine
 10
271.0
 20
-336.0
 30
0.0
 11
288.0
 21
-336.0
 31
0.0
  0
LINE
  5
18B
330
23
100
AcDbEntity
  8
0
  6
Continuous
 62
     7
370
    25
100
AcDbLine
 10
288.0
 20
-766.0
 30
0.0
 11
271.0
 21
-766.0
 31
0.0
  0
LINE
  5
18C
330
23
100
AcDbEntity
  8
0
  6
Continuous
 62
     7
370
    25
100
AcDbLine
 10
288.0
 20
-334.0
 30
0.0
 11
288.0
 21
766.0
 31
0.0
  0
LINE
  5
18D
330
23
100
AcDbEntity
  8
0
  6
Continuous
 62
     7
370
    25
100
AcDbLine
 10
289.0
 20
765.0
 30
0.0
 11
-12.0
 21
765.0
 31
0.0
  0
LINE
  5
18E
330
23
100
AcDbEntity
  8
0
  6
Continuous
 62
     7
370
    25
100
AcDbLine
 10
289.0
 20
765.0
 30
0.0
 11
289.0
 21
-333.0
 31
0.0
  0
LINE
  5
18F
330
23
100
AcDbEntity
  8
0
  6
Continuous
 62
     7
370
    25
100
AcDbLine
 10
270.0
 20
-333.0
 30
0.0
 11
289.0
 21
-333.0
 31
0.0
  0
LINE
  5
190
330
23
100
AcDbEntity
  8
0
  6
Continuous
 62
     7
370
    25
100
AcDbLine
 10
271.0
 20
766.0
 30
0.0
 11
271.0
 21
-334.0
 31
0.0
  0
LINE
  5
191
330
23
100
AcDbEntity
  8
0
  6
Continuous
 62
     7
370
    25
100
AcDbLine
 10
271.0
 20
766.0
 30
0.0
 11
288.0
 21
766.0
 31
0.0
  0
LINE
  5
192
330
23
100
AcDbEntity
  8
0
  6
Continuous
 62
     7
370
    25
100
AcDbLine
 10
288.0
 20
-334.0
 30
0.0
 11
271.0
 21
-334.0
 31
0.0
  0
ARC
  5
193
330
23
100
AcDbEntity
  8
0
  6
Continuous
 62
     7
370
    25
100
AcDbCircle
 10
269.0
 20
765.0
 30
0.0
 40
0.9999999999996021
100
AcDbArc
 50
360.0
 51
90.0
  0
ARC
  5
194
330
23
100
AcDbEntity
  8
0
  6
Continuous
 62
     7
370
    25
100
AcDbCircle
 10
-11.0
 20
-765.0
 30
0.0
 40
1.0
100
AcDbArc
 50
180.0
 51
270.0
  0
ARC
  5
195
330
23
100
AcDbEntity
  8
0
  6
Continuous
 62
     7
370
    25
100
AcDbCircle
 10
-11.0
 20
765.0
 30
0.0
 40
0.9999999999997886
100
AcDbArc
 50
90.0
 51
180.0
  0
ARC
  5
196
330
23
100
AcDbEntity
  8
0
  6
Continuous
 62
     7
370
    25
100
AcDbCircle
 10
269.0
 20
-765.0
 30
0.0
 40
1.000000000000171
100
AcDbArc
 50
270.0
 51
0.0
  0
ARC
  5
197
330
23
100
AcDbEntity
  8
0
  6
Continuous
 62
     7
370
    25
100
AcDbCircle
 10
271.0
 20
-337.0
 30
0.0
 40
0.9999999999999432
100
AcDbArc
 50
90.0
 51
180.0
  0
ARC
  5
198
330
23
100
AcDbEntity
  8
0
  6
Continuous
 62
     7
370
    25
100
AcDbCircle
 10
288.0
 20
-337.0
 30
0.0
 40
1.000000000000057
100
AcDbArc
 50
0.0
 51
90.0
  0
ARC
  5
199
330
23
100
AcDbEntity
  8
0
  6
Continuous
 62
     7
370
    25
100
AcDbCircle
 10
288.0
 20
-765.0
 30
0.0
 40
1.0
100
AcDbArc
 50
270.0
 51
0.0
  0
ARC
  5
19A
330
23
100
AcDbEntity
  8
0
  6
Continuous
 62
     7
370
    25
100
AcDbCircle
 10
271.0
 20
-765.0
 30
0.0
 40
1.0
100
AcDbArc
 50
180.0
 51
270.0
  0
ARC
  5
19B
330
23
100
AcDbEntity
  8
0
  6
Continuous
 62
     7
370
    25
100
AcDbCircle
 10
288.0
 20
765.0
 30
0.0
 40
1.000000000000171
100
AcDbArc
 50
0.0
 51
90.0
  0
ARC
  5
19C
330
23
100
AcDbEntity
  8
0
  6
Continuous
 62
     7
370
    25
100
AcDbCircle
 10
271.0
 20
765.0
 30
0.0
 40
1.0
100
AcDbArc
 50
90.0
 51
180.0
  0
ARC
  5
19D
330
23
100
AcDbEntity
  8
0
  6
Continuous
 62
     7
370
    25
100
AcDbCircle
 10
271.0
 20
-333.0
 30
0.0
 40
0.9999999999999432
100
AcDbArc
 50
180.0
 51
270.0
  0
ARC
  5
19E
330
23
100
AcDbEntity
  8
0
  6
Continuous
 62
     7
370
    25
100
AcDbCircle
 10
288.0
 20
-333.0
 30
0.0
 40
1.0
100
AcDbArc
 50
270.0
 51
0.0
  0
VIEWPORT
  5
3C5
330
23
100
AcDbEntity
  8
0
100
AcDbViewport
 10
0.0
 20
0.0
 30
0.0
 40
205.6
 41
156.0
 68
     1
 69
     1
 12
0.5
 22
0.0
 13
0.0
 23
0.0
 14
10.0
 24
10.0
 15
10.0
 25
10.0
 16
0.0
 26
0.0
 36
1.0
 17
0.0
 27
0.0
 37
0.0
 42
50.0
 43
0.0
 44
0.0
 45
1562.64
 50
0.0
 51
0.0
 72
   100
 90
   557152
  1

281
     0
 71
     1
 74
     0
110
0.0
120
0.0
130
0.0
111
1.0
121
0.0
131
0.0
112
0.0
122
1.0
132
0.0
 79
     0
146
0.0
  0
ENDBLK
  5
25
330
23
100
AcDbEntity
  8
0
100
AcDbBlockEnd
  0
BLOCK
  5
1A1
330
19F
100
AcDbEntity
  8
0
100
AcDbBlockBegin
  2
*Paper_Space1
 70
     0
 10
0.0
 20
0.0
 30
0.0
  3
*Paper_Space1
  1

  0
LINE
  5
218
330
19F
100
AcDbEntity
  8
0
  6
Continuous
 62
     7
370
    25
100
AcDbLine
 10
-181.5
 20
-270.0
 30
0.0
 11
-181.5
 21
-9.0
 31
0.0
  0
LINE
  5
219
330
19F
100
AcDbEntity
  8
0
  6
Continuous
 62
     7
370
    25
100
AcDbLine
 10
-180.5
 20
-8.0
 30
0.0
 11
-181.5
 21
-9.0
 31
0.0
  0
LINE
  5
21A
330
19F
100
AcDbEntity
  8
0
  6
Continuous
 62
     7
370
    25
100
AcDbLine
 10
-199.5
 20
-269.0
 30
0.0
 11
-199.5
 21
11.0
 31
0.0
  0
LINE
  5
21B
330
19F
100
AcDbEntity
  8
0
  6
Continuous
 62
     7
370
    25
100
AcDbLine
 10
-181.5
 20
-9.0
 30
0.0
 11
-184.5
 21
-9.0
 31
0.0
  0
LINE
  5
21C
330
19F
100
AcDbEntity
  8
0
  6
Continuous
 62
     7
370
    25
100
AcDbLine
 10
-181.5
 20
1.0
 30
0.0
 11
-181.5
 21
12.0
 31
0.0
  0
LINE
  5
21D
330
19F
100
AcDbEntity
  8
0
  6
Continuous
 62
     7
370
    25
100
AcDbLine
 10
-184.5
 20
1.0
 30
0.0
 11
-181.5
 21
1.0
 31
0.0
  0
LINE
  5
21E
330
19F
100
AcDbEntity
  8
0
  6
Continuous
 62
     7
370
    25
100
AcDbLine
 10
-184.5
 20
-9.0
 30
0.0
 11
-184.5
 21
1.0
 31
0.0
  0
LINE
  5
21F
330
19F
100
AcDbEntity
  8
0
  6
Continuous
 62
     7
370
    25
100
AcDbLine
 10
-198.5
 20
12.0
 30
0.0
 11
-181.5
 21
12.0
 31
0.0
  0
LINE
  5
220
330
19F
100
AcDbEntity
  8
0
  6
Continuous
 62
     7
370
    25
100
AcDbLine
 10
-183.5
 20
-8.0
 30
0.0
 11
-180.5
 21
-8.0
 31
0.0
  0
LINE
  5
221
330
19F
100
AcDbEntity
  8
0
  6
Continuous
 62
     7
370
    25
100
AcDbLine
 10
-184.5
 20
-9.0
 30
0.0
 11
-183.5
 21
-8.0
 31
0.0
  0
LINE
  5
222
330
19F
100
AcDbEntity
  8
0
  6
Continuous
 62
     7
370
    25
100
AcDbLine
 10
-180.5
 20
-270.0
 30
0.0
 11
-180.5
 21
11.0
 31
0.0
  0
LINE
  5
223
330
19F
100
AcDbEntity
  8
0
  6
Continuous
 62
     7
370
    25
100
AcDbLine
 10
-181.5
 20
1.0
 30
0.0
 11
-180.5
 21
0.0
 31
0.0
  0
LINE
  5
224
330
19F
100
AcDbEntity
  8
0
  6
Continuous
 62
     7
370
    25
100
AcDbLine
 10
-184.5
 20
1.0
 30
0.0
 11
-183.5
 21
0.0
 31
0.0
  0
LINE
  5
225
330
19F
100
AcDbEntity
  8
0
  6
Continuous
 62
     7
370
    25
100
AcDbLine
 10
-183.5
 20
0.0
 30
0.0
 11
-183.5
 21
-8.0
 31
0.0
  0
LINE
  5
226
330
19F
100
AcDbEntity
  8
0
  6
Continuous
 62
     7
370
    25
100
AcDbLine
 10
-180.5
 20
0.0
 30
0.0
 11
-183.5
 21
0.0
 31
0.0
  0
LINE
  5
227
330
19F
100
AcDbEntity
  8
0
  6
Continuous
 62
     7
370
    25
100
AcDbLine
 10
-179.5
 20
12.0
 30
0.0
 11
-179.5
 21
-270.0
 31
0.0
  0
LINE
  5
228
330
19F
100
AcDbEntity
  8
0
  6
Continuous
 62
     7
370
    25
100
AcDbLine
 10
-179.5
 20
12.0
 30
0.0
 11
180.5
 21
12.0
 31
0.0
  0
LINE
  5
229
330
19F
100
AcDbEntity
  8
0
  6
Continuous
 62
     7
370
    25
100
AcDbLine
 10
180.5
 20
-270.0
 30
0.0
 11
180.5
 21
12.0
 31
0.0
  0
LINE
  5
22A
330
19F
100
AcDbEntity
  8
0
  6
Continuous
 62
     7
370
    25
100
AcDbLine
 10
181.5
 20
11.0
 30
0.0
 11
181.5
 21
-270.0
 31
0.0
  0
LINE
  5
22B
330
19F
100
AcDbEntity
  8
0
  6
Continuous
 62
     7
370
    25
100
AcDbLine
 10
199.5
 20
-270.0
 30
0.0
 11
199.5
 21
12.0
 31
0.0
  0
LINE
  5
22C
330
19F
100
AcDbEntity
  8
0
  6
Continuous
 62
     7
370
    25
100
AcDbLine
 10
-199.5
 20
-269.0
 30
0.0
 11
200.5
 21
-269.0
 31
0.0
  0
LINE
  5
22D
330
19F
100
AcDbEntity
  8
0
  6
Continuous
 62
     7
370
    25
100
AcDbLine
 10
200.5
 20
11.0
 30
0.0
 11
200.5
 21
-269.0
 31
0.0
  0
LINE
  5
22E
330
19F
100
AcDbEntity
  8
0
  6
Continuous
 62
     7
370
    25
100
AcDbLine
 10
200.5
 20
11.0
 30
0.0
 11
-199.5
 21
11.0
 31
0.0
  0
LINE
  5
22F
330
19F
100
AcDbEntity
  8
0
  6
Continuous
 62
     7
370
    25
100
AcDbLine
 10
-198.5
 20
-270.0
 30
0.0
 11
199.5
 21
-270.0
 31
0.0
  0
LINE
  5
230
330
19F
100
AcDbEntity
  8
0
  6
Continuous
 62
     7
370
    25
100
AcDbLine
 10
182.5
 20
-9.0
 30
0.0
 11
182.5
 21
-270.0
 31
0.0
  0
LINE
  5
231
330
19F
100
AcDbEntity
  8
0
  6
Continuous
 62
     7
370
    25
100
AcDbLine
 10
182.5
 20
-9.0
 30
0.0
 11
181.5
 21
-8.0
 31
0.0
  0
LINE
  5
232
330
19F
100
AcDbEntity
  8
0
  6
Continuous
 62
     7
370
    25
100
AcDbLine
 10
185.5
 20
-9.0
 30
0.0
 11
182.5
 21
-9.0
 31
0.0
  0
LINE
  5
233
330
19F
100
AcDbEntity
  8
0
  6
Continuous
 62
     7
370
    25
100
AcDbLine
 10
185.5
 20
1.0
 30
0.0
 11
185.5
 21
-9.0
 31
0.0
  0
LINE
  5
234
330
19F
100
AcDbEntity
  8
0
  6
Continuous
 62
     7
370
    25
100
AcDbLine
 10
182.5
 20
1.0
 30
0.0
 11
185.5
 21
1.0
 31
0.0
  0
LINE
  5
235
330
19F
100
AcDbEntity
  8
0
  6
Continuous
 62
     7
370
    25
100
AcDbLine
 10
182.5
 20
12.0
 30
0.0
 11
182.5
 21
1.0
 31
0.0
  0
LINE
  5
236
330
19F
100
AcDbEntity
  8
0
  6
Continuous
 62
     7
370
    25
100
AcDbLine
 10
185.5
 20
-9.0
 30
0.0
 11
184.5
 21
-8.0
 31
0.0
  0
LINE
  5
237
330
19F
100
AcDbEntity
  8
0
  6
Continuous
 62
     7
370
    25
100
AcDbLine
 10
184.5
 20
-8.0
 30
0.0
 11
184.5
 21
0.0
 31
0.0
  0
LINE
  5
238
330
19F
100
AcDbEntity
  8
0
  6
Continuous
 62
     7
370
    25
100
AcDbLine
 10
185.5
 20
1.0
 30
0.0
 11
184.5
 21
0.0
 31
0.0
  0
LINE
  5
239
330
19F
100
AcDbEntity
  8
0
  6
Continuous
 62
     7
370
    25
100
AcDbLine
 10
181.5
 20
-8.0
 30
0.0
 11
184.5
 21
-8.0
 31
0.0
  0
LINE
  5
23A
330
19F
100
AcDbEntity
  8
0
  6
Continuous
 62
     7
370
    25
100
AcDbLine
 10
181.5
 20
0.0
 30
0.0
 11
182.5
 21
1.0
 31
0.0
  0
LINE
  5
23B
330
19F
100
AcDbEntity
  8
0
  6
Continuous
 62
     7
370
    25
100
AcDbLine
 10
184.5
 20
0.0
 30
0.0
 11
181.5
 21
0.0
 31
0.0
  0
LINE
  5
23C
330
19F
100
AcDbEntity
  8
0
  6
Continuous
 62
     7
370
    25
100
AcDbLine
 10
182.5
 20
12.0
 30
0.0
 11
199.5
 21
12.0
 31
0.0
  0
LINE
  5
23D
330
19F
100
AcDbEntity
  8
0
  6
Continuous
 62
     7
370
    25
100
AcDbLine
 10
184.5
 20
-1.0
 30
0.0
 11
181.5
 21
-1.0
 31
0.0
  0
LINE
  5
23E
330
19F
100
AcDbEntity
  8
0
  6
Continuous
 62
     7
370
    25
100
AcDbLine
 10
183.5
 20
-8.0
 30
0.0
 11
183.5
 21
0.0
 31
0.0
  0
LINE
  5
23F
330
19F
100
AcDbEntity
  8
0
  6
Continuous
 62
     7
370
    25
100
AcDbLine
 10
181.5
 20
-7.0
 30
0.0
 11
184.5
 21
-7.0
 31
0.0
  0
LINE
  5
240
330
19F
100
AcDbEntity
  8
0
  6
Continuous
 62
     7
370
    25
100
AcDbLine
 10
197.5
 20
-289.0
 30
0.0
 11
197.5
 21
-270.0
 31
0.0
  0
LINE
  5
241
330
19F
100
AcDbEntity
  8
0
  6
Continuous
 62
     7
370
    25
100
AcDbLine
 10
-199.5
 20
-288.0
 30
0.0
 11
198.5
 21
-288.0
 31
0.0
  0
LINE
  5
242
330
19F
100
AcDbEntity
  8
0
  6
Continuous
 62
     7
370
    25
100
AcDbLine
 10
-198.5
 20
12.0
 30
0.0
 11
-198.5
 21
-289.0
 31
0.0
  0
LINE
  5
243
330
19F
100
AcDbEntity
  8
0
  6
Continuous
 62
     7
370
    25
100
AcDbLine
 10
198.5
 20
-271.0
 30
0.0
 11
-199.5
 21
-271.0
 31
0.0
  0
LINE
  5
244
330
19F
100
AcDbEntity
  8
0
  6
Continuous
 62
     7
370
    25
100
AcDbLine
 10
197.5
 20
-289.0
 30
0.0
 11
-198.5
 21
-289.0
 31
0.0
  0
LINE
  5
245
330
19F
100
AcDbEntity
  8
0
  6
Continuous
 62
     7
370
    25
100
AcDbLine
 10
198.5
 20
-271.0
 30
0.0
 11
198.5
 21
-288.0
 31
0.0
  0
LINE
  5
246
330
19F
100
AcDbEntity
  8
0
  6
Continuous
 62
     7
370
    25
100
AcDbLine
 10
-199.5
 20
-288.0
 30
0.0
 11
-199.5
 21
-271.0
 31
0.0
  0
LINE
  5
247
330
19F
100
AcDbEntity
  8
0
  6
Continuous
 62
     8
370
    25
100
AcDbLine
 10
-180.5
 20
-1.0
 30
0.0
 11
-183.5
 21
-1.0
 31
0.0
  0
LINE
  5
248
330
19F
100
AcDbEntity
  8
0
  6
Continuous
 62
     8
370
    25
100
AcDbLine
 10
-183.5
 20
-7.0
 30
0.0
 11
-180.5
 21
-7.0
 31
0.0
  0
ARC
  5
249
330
19F
100
AcDbEntity
  8
0
  6
Continuous
 62
     7
370
    25
100
AcDbCircle
 10
-181.5
 20
-269.0
 30
0.0
 40
0.9999999999998863
100
AcDbArc
 50
270.0
 51
0.0
  0
ARC
  5
24A
330
19F
100
AcDbEntity
  8
0
  6
Continuous
 62
     7
370
    25
100
AcDbCircle
 10
-198.5
 20
-269.0
 30
0.0
 40
0.9999999999999432
100
AcDbArc
 50
180.0
 51
270.0
  0
ARC
  5
24B
330
19F
100
AcDbEntity
  8
0
  6
Continuous
 62
     7
370
    25
100
AcDbCircle
 10
-198.5
 20
11.0
 30
0.0
 40
1.0
100
AcDbArc
 50
90.0
 51
180.0
  0
ARC
  5
24C
330
19F
100
AcDbEntity
  8
0
  6
Continuous
 62
     7
370
    25
100
AcDbCircle
 10
-181.5
 20
11.0
 30
0.0
 40
1.000000000000002
100
AcDbArc
 50
0.0
 51
90.0
  0
ARC
  5
24D
330
19F
100
AcDbEntity
  8
0
  6
Continuous
 62
     7
370
    25
100
AcDbCircle
 10
-179.5
 20
-269.0
 30
0.0
 40
0.9999999999999432
100
AcDbArc
 50
180.0
 51
270.0
  0
ARC
  5
24E
330
19F
100
AcDbEntity
  8
0
  6
Continuous
 62
     7
370
    25
100
AcDbCircle
 10
180.5
 20
-269.0
 30
0.0
 40
0.9999999999999716
100
AcDbArc
 50
270.0
 51
0.0
  0
ARC
  5
24F
330
19F
100
AcDbEntity
  8
0
  6
Continuous
 62
     7
370
    25
100
AcDbCircle
 10
180.5
 20
11.0
 30
0.0
 40
1.000000000000199
100
AcDbArc
 50
0.0
 51
90.0
  0
ARC
  5
250
330
19F
100
AcDbEntity
  8
0
  6
Continuous
 62
     7
370
    25
100
AcDbCircle
 10
-179.5
 20
11.0
 30
0.0
 40
0.9999999999999432
100
AcDbArc
 50
90.0
 51
180.0
  0
ARC
  5
251
330
19F
100
AcDbEntity
  8
0
  6
Continuous
 62
     7
370
    25
100
AcDbCircle
 10
199.5
 20
-269.0
 30
0.0
 40
0.9999999999998863
100
AcDbArc
 50
270.0
 51
0.0
  0
ARC
  5
252
330
19F
100
AcDbEntity
  8
0
  6
Continuous
 62
     7
370
    25
100
AcDbCircle
 10
182.5
 20
-269.0
 30
0.0
 40
0.9999999999999432
100
AcDbArc
 50
180.0
 51
270.0
  0
ARC
  5
253
330
19F
100
AcDbEntity
  8
0
  6
Continuous
 62
     7
370
    25
100
AcDbCircle
 10
182.5
 20
11.0
 30
0.0
 40
1.000000000000028
100
AcDbArc
 50
90.0
 51
180.0
  0
ARC
  5
254
330
19F
100
AcDbEntity
  8
0
  6
Continuous
 62
     7
370
    25
100
AcDbCircle
 10
199.5
 20
11.0
 30
0.0
 40
1.000000000000059
100
AcDbArc
 50
0.0
 51
90.0
  0
ARC
  5
255
330
19F
100
AcDbEntity
  8
0
  6
Continuous
 62
     7
370
    25
100
AcDbCircle
 10
183.5
 20
-1.0
 30
0.0
 40
1.000000000000004
100
AcDbArc
 50
0.0
 51
90.0
  0
ARC
  5
256
330
19F
100
AcDbEntity
  8
0
  6
Continuous
 62
     7
370
    25
100
AcDbCircle
 10
183.5
 20
-7.0
 30
0.0
 40
0.9999999999999751
100
AcDbArc
 50
270.0
 51
0.0
  0
ARC
  5
257
330
19F
100
AcDbEntity
  8
0
  6
Continuous
 62
     7
370
    25
100
AcDbCircle
 10
197.5
 20
-288.0
 30
0.0
 40
1.0
100
AcDbArc
 50
270.0
 51
0.0
  0
ARC
  5
258
330
19F
100
AcDbEntity
  8
0
  6
Continuous
 62
     7
370
    25
100
AcDbCircle
 10
197.5
 20
-271.0
 30
0.0
 40
1.000000000000142
100
AcDbArc
 50
0.0
 51
90.0
  0
ARC
  5
259
330
19F
100
AcDbEntity
  8
0
  6
Continuous
 62
     7
370
    25
100
AcDbCircle
 10
-198.5
 20
-288.0
 30
0.0
 40
0.9999999999999716
100
AcDbArc
 50
180.0
 51
270.0
  0
ARC
  5
25A
330
19F
100
AcDbEntity
  8
0
  6
Continuous
 62
     7
370
    25
100
AcDbCircle
 10
-198.5
 20
-271.0
 30
0.0
 40
1.000000000000057
100
AcDbArc
 50
90.0
 51
180.0
  0
VIEWPORT
  5
3C7
330
19F
100
AcDbEntity
  8
0
100
AcDbViewport
 10
0.0
 20
0.0
 30
0.0
 40
205.6
 41
156.0
 68
     1
 69
     1
 12
0.5
 22
0.0
 13
0.0
 23
0.0
 14
10.0
 24
10.0
 15
10.0
 25
10.0
 16
0.0
 26
0.0
 36
1.0
 17
0.0
 27
0.0
 37
0.0
 42
50.0
 43
0.0
 44
0.0
 45
1562.64
 50
0.0
 51
0.0
 72
   100
 90
   557152
  1

281
     0
 71
     1
 74
     0
110
0.0
120
0.0
130
0.0
111
1.0
121
0.0
131
0.0
112
0.0
122
1.0
132
0.0
 79
     0
146
0.0
  0
ENDBLK
  5
1A2
330
19F
100
AcDbEntity
  8
0
100
AcDbBlockEnd
  0
BLOCK
  5
25D
330
25B
100
AcDbEntity
  8
0
100
AcDbBlockBegin
  2
*Paper_Space2
 70
     0
 10
0.0
 20
0.0
 30
0.0
  3
*Paper_Space2
  1

  0
LWPOLYLINE
  5
2C4
330
25B
100
AcDbEntity
  8
0
  6
Continuous
 62
     7
370
    25
100
AcDbPolyline
 90
       10
 70
   128
 43
0.0
 10
128.3398807854
 20
550.5646849447
 10
128.3613658671
 20
550.7064757687
 10
128.425168299
 20
550.8439583502
 10
128.5293494763
 20
550.9729553506
 10
128.6707439069
 20
551.0895472614
 10
128.8450553924
 20
551.1901914962
 10
129.0469875665
 20
551.271830031
 10
129.2704048224
 20
551.3319823202
 10
129.5085187398
 20
551.3688206669
 10
129.7540943477
 20
551.3812257566
  0
LINE
  5
312
330
25B
100
AcDbEntity
  8
0
  6
Continuous
 62
     7
370
    25
100
AcDbLine
 10
-133.0824808388
 20
711.0385196684
 30
0.0
 11
-331.072379571
 21
596.7413840132
 31
0.0
  0
LINE
  5
313
330
25B
100
AcDbEntity
  8
0
  6
Continuous
 62
     7
370
    25
100
AcDbLine
 10
-133.7039230834
 20
695.646349201
 30
0.0
 11
-135.825243427
 21
696.8709613687
 31
0.0
  0
LINE
  5
314
330
25B
100
AcDbEntity
  8
0
  6
Continuous
 62
     7
370
    25
100
AcDbLine
 10
-120.061746826
 20
704.0990507179
 30
0.0
 11
-132.0825621062
 21
711.0385196684
 31
0.0
  0
LINE
  5
315
330
25B
100
AcDbEntity
  8
0
  6
Continuous
 62
     7
370
    25
100
AcDbLine
 10
135.9109079635
 20
556.329182478
 30
0.0
 11
-118.6475332636
 21
703.2826426061
 31
0.0
  0
LINE
  5
316
330
25B
100
AcDbEntity
  8
0
  6
Continuous
 62
     7
370
    25
100
AcDbLine
 10
-119.6474519963
 20
703.2826426061
 30
0.0
 11
-317.6373507285
 21
588.9855069509
 31
0.0
  0
LINE
  5
317
330
25B
100
AcDbEntity
  8
0
  6
Continuous
 62
     7
370
    25
100
AcDbLine
 10
-50.9723484172
 20
-815.8973212871
 30
0.0
 11
-50.9723484172
 21
-466.4178538
 31
0.0
  0
LINE
  5
318
330
25B
100
AcDbEntity
  8
0
  6
Continuous
 62
     7
370
    25
100
AcDbLine
 10
-51.4723890509
 20
-465.5518049376
 30
0.0
 11
-52.8010727303
 21
-464.7847721762
 31
0.0
  0
LINE
  5
319
330
25B
100
AcDbEntity
  8
0
  6
Continuous
 62
     7
370
    25
100
AcDbLine
 10
-345.0074490473
 20
-311.7085166096
 30
0.0
 11
-345.0074490473
 21
-661.1879840967
 31
0.0
  0
LINE
  5
31A
330
25B
100
AcDbEntity
  8
0
  6
Continuous
 62
     7
370
    25
100
AcDbLine
 10
-343.1787247341
 20
-310.0754349858
 30
0.0
 11
-344.5074084136
 21
-310.8424677472
 31
0.0
  0
LINE
  5
31B
330
25B
100
AcDbEntity
  8
0
  6
Continuous
 62
     7
370
    25
100
AcDbLine
 10
-63.4932043311
 20
-823.7028390999
 30
0.0
 11
-51.4723890509
 21
-816.7633701494
 31
0.0
  0
LINE
  5
31C
330
25B
100
AcDbEntity
  8
0
  6
Continuous
 62
     7
370
    25
100
AcDbLine
 10
-344.5074084136
 20
-662.054032959
 30
0.0
 11
-64.4931230637
 21
-823.7028390999
 31
0.0
  0
LINE
  5
31D
330
25B
100
AcDbEntity
  8
0
  6
Continuous
 62
     7
370
    25
100
AcDbLine
 10
122.6830265359
 20
547.6373136467
 30
0.0
 11
-61.664695939
 21
441.215638711
 31
0.0
  0
LINE
  5
31E
330
25B
100
AcDbEntity
  8
0
  6
Continuous
 62
     7
370
    25
100
AcDbLine
 10
130.8754959587
 20
549.9175012406
 30
0.0
 11
124.8043468794
 21
546.4127014789
 31
0.0
  0
LINE
  5
31F
330
25B
100
AcDbEntity
  8
0
  6
Continuous
 62
     7
370
    25
100
AcDbLine
 10
124.8043468794
 20
546.4127014789
 30
0.0
 11
122.6830265359
 21
547.6373136467
 31
0.0
  0
LINE
  5
320
330
25B
100
AcDbEntity
  8
0
  6
Continuous
 62
     7
370
    25
100
AcDbLine
 10
149.8459774398
 20
-701.6001856319
 30
0.0
 11
149.8459774398
 21
547.7072565533
 31
0.0
  0
LINE
  5
321
330
25B
100
AcDbEntity
  8
0
  6
Continuous
 62
     7
370
    25
100
AcDbLine
 10
149.3459368061
 20
548.5733054157
 30
0.0
 11
137.3251215259
 21
555.5127743662
 31
0.0
  0
LINE
  5
322
330
25B
100
AcDbEntity
  8
0
  6
Continuous
 62
     7
370
    25
100
AcDbLine
 10
136.3252027933
 20
555.5127743662
 30
0.0
 11
128.7541756151
 21
551.1421134084
 31
0.0
  0
LINE
  5
323
330
25B
100
AcDbEntity
  8
0
  6
Continuous
 62
     7
370
    25
100
AcDbLine
 10
-50.9770105255
 20
-815.9937706588
 30
0.0
 11
-49.6438806588
 21
-816.7633701494
 31
0.0
  0
LINE
  5
324
330
25B
100
AcDbEntity
  8
0
  6
Continuous
 62
     7
370
    25
100
AcDbLine
 10
-48.6439619261
 20
-816.7633701494
 30
0.0
 11
149.3459368061
 21
-702.4662344943
 31
0.0
  0
LINE
  5
325
330
25B
100
AcDbEntity
  8
0
  6
Continuous
 62
     7
370
    25
100
AcDbLine
 10
-50.9723484172
 20
-463.1516905524
 30
0.0
 11
-50.9723484172
 21
433.4101208981
 31
0.0
  0
LINE
  5
326
330
25B
100
AcDbEntity
  8
0
  6
Continuous
 62
     7
370
    25
100
AcDbLine
 10
-51.4723890509
 20
434.2761697605
 30
0.0
 11
-331.4866744008
 21
595.9249759014
 31
0.0
  0
LINE
  5
327
330
25B
100
AcDbEntity
  8
0
  6
Continuous
 62
     7
370
    25
100
AcDbLine
 10
-345.0074490473
 20
588.1194580885
 30
0.0
 11
-345.0074490473
 21
-308.442353362
 31
0.0
  0
LINE
  5
328
330
25B
100
AcDbEntity
  8
0
  6
Continuous
 62
     7
370
    25
100
AcDbLine
 10
-332.4865931334
 20
595.9249759014
 30
0.0
 11
-344.5074084136
 21
588.9855069509
 31
0.0
  0
LINE
  5
329
330
25B
100
AcDbEntity
  8
0
  6
Continuous
 62
     7
370
    25
100
AcDbLine
 10
-63.4932043311
 20
-470.9572083653
 30
0.0
 11
-51.4723890509
 21
-464.0177394148
 31
0.0
  0
LINE
  5
32A
330
25B
100
AcDbEntity
  8
0
  6
Continuous
 62
     7
370
    25
100
AcDbLine
 10
-344.5074084136
 20
-309.3084022244
 30
0.0
 11
-64.4931230637
 21
-470.9572083653
 31
0.0
  0
LINE
  5
32B
330
25B
100
AcDbEntity
  8
0
  6
Continuous
 62
     7
370
    25
100
AcDbLine
 10
-318.5516049245
 20
589.7524070122
 30
0.0
 11
-134.703841816
 21
695.8854615492
 31
0.0
  0
LINE
  5
32C
330
25B
100
AcDbEntity
  8
0
  6
Continuous
 62
     7
370
    25
100
AcDbLine
 10
-330.5724202047
 20
596.6918759627
 30
0.0
 11
-318.5516049245
 21
589.7524070122
 31
0.0
  0
LINE
  5
32D
330
25B
100
AcDbEntity
  8
0
  6
Continuous
 62
     7
370
    25
100
AcDbLine
 10
-134.703841816
 20
695.8854615492
 30
0.0
 11
-136.8251621596
 21
697.1100737169
 31
0.0
  0
LINE
  5
32E
330
25B
100
AcDbEntity
  8
0
  6
Continuous
 62
     7
370
    25
100
AcDbLine
 10
-132.5825214725
 20
710.9890116179
 30
0.0
 11
-330.5724202047
 21
596.6918759627
 31
0.0
  0
LINE
  5
32F
330
25B
100
AcDbEntity
  8
0
  6
Continuous
 62
     7
370
    25
100
AcDbLine
 10
-120.5617061923
 20
704.0495426674
 30
0.0
 11
-132.5825214725
 21
710.9890116179
 31
0.0
  0
LINE
  5
330
330
25B
100
AcDbEntity
  8
0
  6
Continuous
 62
     7
370
    25
100
AcDbLine
 10
-127.6327740042
 20
699.9675021083
 30
0.0
 11
-120.5617061923
 21
704.0495426674
 31
0.0
  0
LINE
  5
331
330
25B
100
AcDbEntity
  8
0
  6
Continuous
 62
     7
370
    25
100
AcDbLine
 10
-129.7540943477
 20
701.192114276
 30
0.0
 11
-127.6327740042
 21
699.9675021083
 31
0.0
  0
LINE
  5
332
330
25B
100
AcDbEntity
  8
0
  6
Continuous
 62
     7
370
    25
100
AcDbLine
 10
-136.8251621596
 20
697.1100737169
 30
0.0
 11
-129.7540943477
 21
701.192114276
 31
0.0
  0
LINE
  5
333
330
25B
100
AcDbEntity
  8
0
  6
Continuous
 62
     7
370
    25
100
AcDbLine
 10
-129.7540943477
 20
697.4482021661
 30
0.0
 11
-129.7540943477
 21
701.192114276
 31
0.0
  0
LINE
  5
334
330
25B
100
AcDbEntity
  8
0
  6
Continuous
 62
     7
370
    25
100
AcDbLine
 10
-127.6327740042
 20
699.9675021083
 30
0.0
 11
-127.6327740042
 21
698.6728143339
 31
0.0
  0
LINE
  5
335
330
25B
100
AcDbEntity
  8
0
  6
Continuous
 62
     7
370
    25
100
AcDbLine
 10
-317.1373913622
 20
588.9359989004
 30
0.0
 11
-62.578950135
 21
441.9825387723
 31
0.0
  0
LINE
  5
336
330
25B
100
AcDbEntity
  8
0
  6
Continuous
 62
     7
370
    25
100
AcDbLine
 10
-62.578950135
 20
441.9825387723
 30
0.0
 11
135.4109485972
 21
556.2796744275
 31
0.0
  0
LINE
  5
337
330
25B
100
AcDbEntity
  8
0
  6
Continuous
 62
     7
370
    25
100
AcDbLine
 10
135.4109485972
 20
556.2796744275
 30
0.0
 11
-119.1474926299
 21
703.2331345556
 31
0.0
  0
LINE
  5
338
330
25B
100
AcDbEntity
  8
0
  6
Continuous
 62
     7
370
    25
100
AcDbLine
 10
-119.1474926299
 20
703.2331345556
 30
0.0
 11
-317.1373913622
 21
588.9359989004
 31
0.0
  0
LINE
  5
339
330
25B
100
AcDbEntity
  8
0
  6
Continuous
 62
     7
370
    25
100
AcDbLine
 10
-63.2860569162
 20
-473.7655268064
 30
0.0
 11
-63.2860569162
 21
-823.2449942935
 31
0.0
  0
LINE
  5
33A
330
25B
100
AcDbEntity
  8
0
  6
Continuous
 62
     7
370
    25
100
AcDbLine
 10
-64.7002704786
 20
-823.2449942935
 30
0.0
 11
-64.7002704786
 21
-473.7655268064
 31
0.0
  0
LINE
  5
33B
330
25B
100
AcDbEntity
  8
0
  6
Continuous
 62
     7
370
    25
100
AcDbLine
 10
-63.9931636974
 20
-472.5407819386
 30
0.0
 11
-51.9723484172
 21
-465.6013129881
 31
0.0
  0
LINE
  5
33C
330
25B
100
AcDbEntity
  8
0
  6
Continuous
 62
     7
370
    25
100
AcDbLine
 10
-51.265241636
 20
-466.8260578559
 30
0.0
 11
-63.2860569162
 21
-473.7655268064
 31
0.0
  0
LINE
  5
33D
330
25B
100
AcDbEntity
  8
0
  6
Continuous
 62
     7
370
    25
100
AcDbLine
 10
-64.7002704786
 20
-473.7655268064
 30
0.0
 11
-344.7145558284
 21
-312.1167206655
 31
0.0
  0
LINE
  5
33E
330
25B
100
AcDbEntity
  8
0
  6
Continuous
 62
     7
370
    25
100
AcDbLine
 10
-344.0074490473
 20
-310.8919757977
 30
0.0
 11
-63.9931636974
 21
-472.5407819386
 31
0.0
  0
LINE
  5
33F
330
25B
100
AcDbEntity
  8
0
  6
Continuous
 62
     7
370
    25
100
AcDbLine
 10
-344.7145558284
 20
-661.5961881526
 30
0.0
 11
-64.7002704786
 21
-823.2449942935
 31
0.0
  0
LINE
  5
340
330
25B
100
AcDbEntity
  8
0
  6
Continuous
 62
     7
370
    25
100
AcDbLine
 10
-344.7145558284
 20
-312.1167206655
 30
0.0
 11
-344.7145558284
 21
-661.5961881526
 31
0.0
  0
LINE
  5
341
330
25B
100
AcDbEntity
  8
0
  6
Continuous
 62
     7
370
    25
100
AcDbLine
 10
-51.265241636
 20
-816.305525343
 30
0.0
 11
-51.265241636
 21
-466.8260578559
 31
0.0
  0
LINE
  5
342
330
25B
100
AcDbEntity
  8
0
  6
Continuous
 62
     7
370
    25
100
AcDbLine
 10
-63.2860569162
 20
-823.2449942935
 30
0.0
 11
-51.265241636
 21
-816.305525343
 31
0.0
  0
LINE
  5
343
330
25B
100
AcDbEntity
  8
0
  6
Continuous
 62
     7
370
    25
100
AcDbLine
 10
-48.4368145113
 20
433.0019168422
 30
0.0
 11
-48.4368145113
 21
-816.305525343
 31
0.0
  0
LINE
  5
344
330
25B
100
AcDbEntity
  8
0
  6
Continuous
 62
     7
370
    25
100
AcDbLine
 10
-49.8510280737
 20
-816.305525343
 30
0.0
 11
-49.8510280737
 21
433.0019168422
 31
0.0
  0
LINE
  5
345
330
25B
100
AcDbEntity
  8
0
  6
Continuous
 62
     7
370
    25
100
AcDbLine
 10
-61.1647365726
 20
441.1661306605
 30
0.0
 11
-49.1439212925
 21
434.22666171
 31
0.0
  0
LINE
  5
346
330
25B
100
AcDbEntity
  8
0
  6
Continuous
 62
     7
370
    25
100
AcDbLine
 10
149.553084221
 20
547.2990524974
 30
0.0
 11
-48.4368145113
 21
433.0019168422
 31
0.0
  0
LINE
  5
347
330
25B
100
AcDbEntity
  8
0
  6
Continuous
 62
     7
370
    25
100
AcDbLine
 10
-49.1439212925
 20
434.22666171
 30
0.0
 11
148.8459774398
 21
548.5237973652
 31
0.0
  0
LINE
  5
348
330
25B
100
AcDbEntity
  8
0
  6
Continuous
 62
     7
370
    25
100
AcDbLine
 10
149.553084221
 20
-702.0083896878
 30
0.0
 11
149.553084221
 21
547.2990524974
 31
0.0
  0
LINE
  5
349
330
25B
100
AcDbEntity
  8
0
  6
Continuous
 62
     7
370
    25
100
AcDbLine
 10
-48.4368145113
 20
-816.305525343
 30
0.0
 11
149.553084221
 21
-702.0083896878
 31
0.0
  0
LINE
  5
34A
330
25B
100
AcDbEntity
  8
0
  6
Continuous
 62
     7
370
    25
100
AcDbLine
 10
124.8043468794
 20
546.0745730297
 30
0.0
 11
122.6830265359
 21
547.2991851975
 31
0.0
  0
LINE
  5
34B
330
25B
100
AcDbEntity
  8
0
  6
Continuous
 62
     7
370
    25
100
AcDbLine
 10
131.8754146913
 20
550.1566135888
 30
0.0
 11
124.8043468794
 21
546.0745730297
 31
0.0
  0
LINE
  5
34C
330
25B
100
AcDbEntity
  8
0
  6
Continuous
 62
     7
370
    25
100
AcDbLine
 10
129.7540943477
 20
551.3812257566
 30
0.0
 11
131.8754146913
 21
550.1566135888
 31
0.0
  0
LINE
  5
34D
330
25B
100
AcDbEntity
  8
0
  6
Continuous
 62
     7
370
    25
100
AcDbLine
 10
136.8251621596
 20
555.4632663157
 30
0.0
 11
129.7540943477
 21
551.3812257566
 31
0.0
  0
LINE
  5
34E
330
25B
100
AcDbEntity
  8
0
  6
Continuous
 62
     7
370
    25
100
AcDbLine
 10
148.8459774398
 20
548.5237973652
 30
0.0
 11
136.8251621596
 21
555.4632663157
 31
0.0
  0
LINE
  5
34F
330
25B
100
AcDbEntity
  8
0
  6
Continuous
 62
     7
370
    25
100
AcDbLine
 10
122.6830265359
 20
547.2991851975
 30
0.0
 11
-61.1647365726
 21
441.1661306605
 31
0.0
  0
LINE
  5
350
330
25B
100
AcDbEntity
  8
0
  6
Continuous
 62
     7
370
    25
100
AcDbLine
 10
122.6830265359
 20
547.2991851975
 30
0.0
 11
122.6830265359
 21
547.6373136467
 31
0.0
  0
LINE
  5
351
330
25B
100
AcDbEntity
  8
0
  6
Continuous
 62
     7
370
    25
100
AcDbLine
 10
124.8043468794
 20
546.0745730297
 30
0.0
 11
124.8043468794
 21
546.4127014789
 31
0.0
  0
LINE
  5
352
330
25B
100
AcDbEntity
  8
0
  6
Continuous
 62
     7
370
    25
100
AcDbLine
 10
128.3398807854
 20
548.4537217585
 30
0.0
 11
128.3398807854
 21
550.5646849447
 31
0.0
  0
LINE
  5
353
330
25B
100
AcDbEntity
  8
0
  6
Continuous
 62
     7
370
    25
100
AcDbLine
 10
-63.2860569162
 20
426.0624478917
 30
0.0
 11
-63.2860569162
 21
-470.4993635588
 31
0.0
  0
LINE
  5
354
330
25B
100
AcDbEntity
  8
0
  6
Continuous
 62
     7
370
    25
100
AcDbLine
 10
-64.7002704786
 20
-470.4993635588
 30
0.0
 11
-64.7002704786
 21
426.0624478917
 31
0.0
  0
LINE
  5
355
330
25B
100
AcDbEntity
  8
0
  6
Continuous
 62
     7
370
    25
100
AcDbLine
 10
-63.9931636974
 20
427.2871927595
 30
0.0
 11
-51.9723484172
 21
434.22666171
 31
0.0
  0
LINE
  5
356
330
25B
100
AcDbEntity
  8
0
  6
Continuous
 62
     7
370
    25
100
AcDbLine
 10
-51.265241636
 20
433.0019168422
 30
0.0
 11
-63.2860569162
 21
426.0624478917
 31
0.0
  0
LINE
  5
357
330
25B
100
AcDbEntity
  8
0
  6
Continuous
 62
     7
370
    25
100
AcDbLine
 10
-64.7002704786
 20
426.0624478917
 30
0.0
 11
-344.7145558284
 21
587.7112540326
 31
0.0
  0
LINE
  5
358
330
25B
100
AcDbEntity
  8
0
  6
Continuous
 62
     7
370
    25
100
AcDbLine
 10
-344.0074490473
 20
588.9359989004
 30
0.0
 11
-63.9931636974
 21
427.2871927595
 31
0.0
  0
LINE
  5
359
330
25B
100
AcDbEntity
  8
0
  6
Continuous
 62
     7
370
    25
100
AcDbLine
 10
-51.265241636
 20
-463.5598946083
 30
0.0
 11
-51.265241636
 21
433.0019168422
 31
0.0
  0
LINE
  5
35A
330
25B
100
AcDbEntity
  8
0
  6
Continuous
 62
     7
370
    25
100
AcDbLine
 10
-63.2860569162
 20
-470.4993635588
 30
0.0
 11
-51.265241636
 21
-463.5598946083
 31
0.0
  0
LINE
  5
35B
330
25B
100
AcDbEntity
  8
0
  6
Continuous
 62
     7
370
    25
100
AcDbLine
 10
-344.7145558284
 20
-308.8505574179
 30
0.0
 11
-64.7002704786
 21
-470.4993635588
 31
0.0
  0
LINE
  5
35C
330
25B
100
AcDbEntity
  8
0
  6
Continuous
 62
     7
370
    25
100
AcDbLine
 10
-344.7145558284
 20
587.7112540326
 30
0.0
 11
-344.7145558284
 21
-308.8505574179
 31
0.0
  0
LINE
  5
35D
330
25B
100
AcDbEntity
  8
0
  6
Continuous
 62
     7
370
    25
100
AcDbLine
 10
-331.9866337671
 20
595.8754678509
 30
0.0
 11
-344.0074490473
 21
588.9359989004
 31
0.0
  0
LINE
  5
35E
330
25B
100
AcDbEntity
  8
0
  6
Continuous
 62
     7
370
    25
100
AcDbLine
 10
-51.9723484172
 20
434.22666171
 30
0.0
 11
-331.9866337671
 21
595.8754678509
 31
0.0
  0
LINE
  5
35F
330
25B
100
AcDbEntity
  8
0
  6
Continuous
 62
     8
370
    25
100
AcDbLine
 10
-129.7540943477
 20
699.5591653523
 30
0.0
 11
-135.1179741044
 21
696.4626634797
 31
0.0
  0
LINE
  5
360
330
25B
100
AcDbEntity
  8
0
  6
Continuous
 62
     8
370
    25
100
AcDbLine
 10
-127.925748497
 20
698.5036837592
 30
0.0
 11
-129.7540943477
 21
699.5591653523
 31
0.0
  0
LINE
  5
361
330
25B
100
AcDbEntity
  8
0
  6
Continuous
 62
     8
370
    25
100
AcDbLine
 10
128.3398807854
 20
550.5646849447
 30
0.0
 11
122.9760010286
 21
547.468183072
 31
0.0
  0
LINE
  5
362
330
25B
100
AcDbEntity
  8
0
  6
Continuous
 62
     8
370
    25
100
AcDbLine
 10
-342.8858651754
 20
-310.2444992104
 30
0.0
 11
-344.0074490473
 21
-310.8919757977
 31
0.0
  0
LINE
  5
363
330
25B
100
AcDbEntity
  8
0
  6
Continuous
 62
     8
370
    25
100
AcDbLine
 10
-51.9723484172
 20
-465.6013129881
 30
0.0
 11
-53.093932289
 21
-464.9538364008
 31
0.0
  0
LINE
  5
364
330
25B
100
AcDbEntity
  8
0
  6
Continuous
 62
     8
370
    25
100
AcDbLine
 10
-49.8510280737
 20
433.0019168422
 30
0.0
 11
-51.0064137024
 21
433.6689067684
 31
0.0
  0
LINE
  5
365
330
25B
100
AcDbEntity
  8
0
  6
Continuous
 62
     8
370
    25
100
AcDbLine
 10
-50.9723484172
 20
-815.6582008873
 30
0.0
 11
-49.8510280737
 21
-816.305525343
 31
0.0
  0
LINE
  5
366
330
25B
100
AcDbEntity
  8
0
  6
Continuous
 62
     8
370
    25
100
AcDbLine
 10
130.1682266361
 20
549.5092033516
 30
0.0
 11
128.3398807854
 21
550.5646849447
 31
0.0
  0
ARC
  5
367
330
25B
100
AcDbEntity
  8
0
  6
Continuous
 62
     7
370
    25
100
AcDbCircle
 10
-330.5724202047
 20
595.8753351508
 30
0.0
 40
0.9999999999998933
100
AcDbArc
 50
119.9973117336
 51
174.730727298
  0
ARC
  5
368
330
25B
100
AcDbEntity
  8
0
  6
Continuous
 62
     7
370
    25
100
AcDbCircle
 10
-120.5617061923
 20
703.2330018555
 30
0.0
 40
1.000000000000475
100
AcDbArc
 50
5.2692727022
 51
60.0026882663
  0
ARC
  5
369
330
25B
100
AcDbEntity
  8
0
  6
Continuous
 62
     7
370
    25
100
AcDbCircle
 10
-132.5825214725
 20
710.172470806
 30
0.0
 40
1.000000000000218
100
AcDbArc
 50
60.0026882664
 51
119.9973117336
  0
ARC
  5
36A
330
25B
100
AcDbEntity
  8
0
  6
Continuous
 62
     7
370
    25
100
AcDbCircle
 10
135.4109485972
 20
555.4631336156
 30
0.0
 40
1.000000000000148
100
AcDbArc
 50
5.2692726998
 51
60.0026882663
  0
ARC
  5
36B
330
25B
100
AcDbEntity
  8
0
  6
Continuous
 62
     7
370
    25
100
AcDbCircle
 10
-317.1373913622
 20
588.1194580885
 30
0.0
 40
0.9999999999996396
100
AcDbArc
 50
119.9973117336
 51
174.465254193
  0
ARC
  5
36C
330
25B
100
AcDbEntity
  8
0
  6
Continuous
 62
     7
370
    25
100
AcDbCircle
 10
-119.1474926299
 20
702.4165937437
 30
0.0
 40
0.999999999998924
100
AcDbArc
 50
60.0026882663
 51
119.9973117337
  0
ARC
  5
36D
330
25B
100
AcDbEntity
  8
0
  6
Continuous
 62
     7
370
    25
100
AcDbCircle
 10
-51.9723484172
 20
-466.4178538
 30
0.0
 40
0.9999999999996148
100
AcDbArc
 50
360.0
 51
60.0026882664
  0
ARC
  5
36E
330
25B
100
AcDbEntity
  8
0
  6
Continuous
 62
     7
370
    25
100
AcDbCircle
 10
-344.0074490473
 20
-311.7085166096
 30
0.0
 40
0.9999999999999994
100
AcDbArc
 50
119.9973117336
 51
180.0
  0
ARC
  5
36F
330
25B
100
AcDbEntity
  8
0
  6
Continuous
 62
     7
370
    25
100
AcDbCircle
 10
-63.9931636974
 20
-822.8367902376
 30
0.0
 40
1.000000000000123
100
AcDbArc
 50
240.0026882664
 51
299.9973117336
  0
ARC
  5
370
330
25B
100
AcDbEntity
  8
0
  6
Continuous
 62
     7
370
    25
100
AcDbCircle
 10
-51.9723484172
 20
-815.8973212871
 30
0.0
 40
1.000000000000353
100
AcDbArc
 50
299.9973117337
 51
360.0
  0
ARC
  5
371
330
25B
100
AcDbEntity
  8
0
  6
Continuous
 62
     7
370
    25
100
AcDbCircle
 10
-344.0074490473
 20
-661.1879840967
 30
0.0
 40
1.000000000000134
100
AcDbArc
 50
180.0
 51
240.0026882664
  0
ARC
  5
372
330
25B
100
AcDbEntity
  8
0
  6
Continuous
 62
     7
370
    25
100
AcDbCircle
 10
-61.1647365726
 20
440.3495898486
 30
0.0
 40
0.9999999999998092
100
AcDbArc
 50
119.9973117336
 51
174.465254193
  0
ARC
  5
373
330
25B
100
AcDbEntity
  8
0
  6
Continuous
 62
     7
370
    25
100
AcDbCircle
 10
148.8459774398
 20
547.7072565533
 30
0.0
 40
1.000000000000205
100
AcDbArc
 50
0.0
 51
60.0026882663
  0
ARC
  5
374
330
25B
100
AcDbEntity
  8
0
  6
Continuous
 62
     7
370
    25
100
AcDbCircle
 10
136.8251621596
 20
554.6467255038
 30
0.0
 40
0.999999999998924
100
AcDbArc
 50
60.0026882663
 51
119.9973117337
  0
ARC
  5
375
330
25B
100
AcDbEntity
  8
0
  6
Continuous
 62
     7
370
    25
100
AcDbCircle
 10
-49.1439212925
 20
-815.8973212871
 30
0.0
 40
0.9999999999986429
100
AcDbArc
 50
240.0026882663
 51
299.9973117337
  0
ARC
  5
376
330
25B
100
AcDbEntity
  8
0
  6
Continuous
 62
     7
370
    25
100
AcDbCircle
 10
148.8459774398
 20
-701.6001856319
 30
0.0
 40
0.9999999999996396
100
AcDbArc
 50
299.9973117336
 51
0.0
  0
ARC
  5
377
330
25B
100
AcDbEntity
  8
0
  6
Continuous
 62
     7
370
    25
100
AcDbCircle
 10
-51.9723484172
 20
433.4101208981
 30
0.0
 40
1.00000000000059
100
AcDbArc
 50
0.0
 51
60.0026882663
  0
ARC
  5
378
330
25B
100
AcDbEntity
  8
0
  6
Continuous
 62
     7
370
    25
100
AcDbCircle
 10
-344.0074490473
 20
588.1194580885
 30
0.0
 40
1.000000000000587
100
AcDbArc
 50
119.9973117337
 51
180.0
  0
ARC
  5
379
330
25B
100
AcDbEntity
  8
0
  6
Continuous
 62
     7
370
    25
100
AcDbCircle
 10
-331.9866337671
 20
595.058927039
 30
0.0
 40
0.9999999999991209
100
AcDbArc
 50
60.0026882663
 51
119.9973117337
  0
ARC
  5
37A
330
25B
100
AcDbEntity
  8
0
  6
Continuous
 62
     7
370
    25
100
AcDbCircle
 10
-63.9931636974
 20
-470.0911595029
 30
0.0
 40
0.9999999999995782
100
AcDbArc
 50
240.0026882663
 51
299.9973117337
  0
ARC
  5
37B
330
25B
100
AcDbEntity
  8
0
  6
Continuous
 62
     7
370
    25
100
AcDbCircle
 10
-51.9723484172
 20
-463.1516905524
 30
0.0
 40
1.000000000000249
100
AcDbArc
 50
299.9973117337
 51
360.0
  0
ARC
  5
37C
330
25B
100
AcDbEntity
  8
0
  6
Continuous
 62
     7
370
    25
100
AcDbCircle
 10
-344.0074490473
 20
-308.442353362
 30
0.0
 40
1.000000000000227
100
AcDbArc
 50
180.0
 51
240.0026882663
  0
ARC
  5
37D
330
25B
100
AcDbEntity
  8
0
  6
Continuous
 62
     7
370
    25
100
AcDbCircle
 10
-134.5766305597
 20
694.2839534351
 30
0.0
 40
1.606552502524087
100
AcDbArc
 50
41.8260310993
 51
94.5415921377
  0
ARC
  5
37E
330
25B
100
AcDbEntity
  8
0
  6
Continuous
 62
     7
370
    25
100
AcDbCircle
 10
-136.7844311171
 20
695.0701190066
 30
0.0
 40
2.040361300839608
100
AcDbArc
 50
61.9587716377
 51
91.1438522479
  0
ARC
  5
37F
330
25B
100
AcDbEntity
  8
0
  6
Continuous
 62
     7
370
    25
100
AcDbCircle
 10
-63.9931636974
 20
-472.4008157214
 30
0.0
 40
1.537021907912138
100
AcDbArc
 50
242.6096722366
 51
297.3903277634
  0
ARC
  5
380
330
25B
100
AcDbEntity
  8
0
  6
Continuous
 62
     7
370
    25
100
AcDbCircle
 10
-63.1650543772
 20
-473.8353876586
 30
0.0
 40
1.536804807572119
100
AcDbArc
 50
122.60547834
 51
177.3945215143
  0
ARC
  5
381
330
25B
100
AcDbEntity
  8
0
  6
Continuous
 62
     7
370
    25
100
AcDbCircle
 10
-64.8212730176
 20
-473.8353876586
 30
0.0
 40
1.536804807572127
100
AcDbArc
 50
2.6054784857
 51
57.39452166
  0
ARC
  5
382
330
25B
100
AcDbEntity
  8
0
  6
Continuous
 62
     7
370
    25
100
AcDbCircle
 10
-63.9931636974
 20
-821.8802832085
 30
0.0
 40
1.537021907912279
100
AcDbArc
 50
242.6096722366
 51
297.3903277634
  0
ARC
  5
383
330
25B
100
AcDbEntity
  8
0
  6
Continuous
 62
     7
370
    25
100
AcDbCircle
 10
-52.8004577374
 20
-466.8959187081
 30
0.0
 40
1.536804807571978
100
AcDbArc
 50
2.6054784857
 51
57.39452166
  0
ARC
  5
384
330
25B
100
AcDbEntity
  8
0
  6
Continuous
 62
     7
370
    25
100
AcDbCircle
 10
-343.1793397271
 20
-312.1865815177
 30
0.0
 40
1.536804807571774
100
AcDbArc
 50
122.60547834
 51
177.3945215144
  0
ARC
  5
385
330
25B
100
AcDbEntity
  8
0
  6
Continuous
 62
     7
370
    25
100
AcDbCircle
 10
-48.3158119723
 20
432.93205599
 30
0.0
 40
1.536804807572004
100
AcDbArc
 50
122.60547834
 51
177.3945215144
  0
ARC
  5
386
330
25B
100
AcDbEntity
  8
0
  6
Continuous
 62
     7
370
    25
100
AcDbCircle
 10
-49.9720306126
 20
432.93205599
 30
0.0
 40
1.53680480757172
100
AcDbArc
 50
2.6054784856
 51
57.39452166
  0
ARC
  5
387
330
25B
100
AcDbEntity
  8
0
  6
Continuous
 62
     7
370
    25
100
AcDbCircle
 10
-49.1439212925
 20
434.3666279272
 30
0.0
 40
1.53702190791183
100
AcDbArc
 50
242.6096722366
 51
297.3903277634
  0
ARC
  5
388
330
25B
100
AcDbEntity
  8
0
  6
Continuous
 62
     7
370
    25
100
AcDbCircle
 10
-49.1439212925
 20
-814.940814258
 30
0.0
 40
1.53702190791198
100
AcDbArc
 50
242.6096722366
 51
297.3903277634
  0
ARC
  5
389
330
25B
100
AcDbEntity
  8
0
  6
Continuous
 62
     7
370
    25
100
AcDbCircle
 10
148.0178681196
 20
547.2291916451
 30
0.0
 40
1.536804807572933
100
AcDbArc
 50
2.6054784857
 51
57.39452166
  0
ARC
  5
38A
330
25B
100
AcDbEntity
  8
0
  6
Continuous
 62
     7
370
    25
100
AcDbCircle
 10
131.823846938
 20
548.1619757775
 30
0.0
 40
1.995304295462463
100
AcDbArc
 50
88.5190511298
 51
118.3783249846
  0
ARC
  5
38B
330
25B
100
AcDbEntity
  8
0
  6
Continuous
 62
     7
370
    25
100
AcDbCircle
 10
-63.9931636974
 20
427.4271589767
 30
0.0
 40
1.537021907912133
100
AcDbArc
 50
242.6096722366
 51
297.3903277634
  0
ARC
  5
38C
330
25B
100
AcDbEntity
  8
0
  6
Continuous
 62
     7
370
    25
100
AcDbCircle
 10
-63.1650543772
 20
425.9925870395
 30
0.0
 40
1.53680480757211
100
AcDbArc
 50
122.60547834
 51
177.3945215143
  0
ARC
  5
38D
330
25B
100
AcDbEntity
  8
0
  6
Continuous
 62
     7
370
    25
100
AcDbCircle
 10
-64.8212730176
 20
425.9925870395
 30
0.0
 40
1.536804807572155
100
AcDbArc
 50
2.6054784856
 51
57.39452166
  0
ARC
  5
38E
330
25B
100
AcDbEntity
  8
0
  6
Continuous
 62
     7
370
    25
100
AcDbCircle
 10
-63.9931636974
 20
-469.1346524739
 30
0.0
 40
1.537021907912074
100
AcDbArc
 50
242.6096722366
 51
297.3903277634
  0
ARC
  5
38F
330
25B
100
AcDbEntity
  8
0
  6
Continuous
 62
     7
370
    25
100
AcDbCircle
 10
-52.8004577374
 20
432.93205599
 30
0.0
 40
1.536804807572299
100
AcDbArc
 50
2.6054784856
 51
57.39452166
  0
ARC
  5
390
330
25B
100
AcDbEntity
  8
0
  6
Continuous
 62
     7
370
    25
100
AcDbCircle
 10
-343.1793397271
 20
587.6413931804
 30
0.0
 40
1.536804807572634
100
AcDbArc
 50
122.60547834
 51
177.3945215143
  0
ARC
  5
391
330
25B
100
AcDbEntity
  8
0
  6
Continuous
 62
     8
370
    25
100
AcDbCircle
 10
-318.533374208
 20
589.9228832987
 30
0.0
 40
1.563311586352543
100
AcDbArc
 50
275.1666726472
 51
286.4773396716
  0
ARC
  5
392
330
25B
100
AcDbEntity
  8
0
  6
Continuous
 62
     8
370
    25
100
AcDbCircle
 10
-317.6911590626
 20
588.4314405388
 30
0.0
 40
1.576489614758429
100
AcDbArc
 50
123.0792556871
 51
164.9802566031
  0
ARC
  5
393
330
25B
100
AcDbEntity
  8
0
  6
Continuous
 62
     8
370
    25
100
AcDbCircle
 10
-319.3886737312
 20
588.4476291325
 30
0.0
 40
1.550203052023121
100
AcDbArc
 50
12.8432761457
 51
57.3181546136
  0
ARC
  5
394
330
25B
100
AcDbEntity
  8
0
  6
Continuous
 62
     8
370
    25
100
AcDbCircle
 10
-329.7119743427
 20
595.3709094893
 30
0.0
 40
1.576489614752649
100
AcDbArc
 50
123.079255687
 51
164.9802566032
  0
ARC
  5
395
330
25B
100
AcDbEntity
  8
0
  6
Continuous
 62
     8
370
    25
100
AcDbCircle
 10
-330.8653402596
 20
596.2829946336
 30
0.0
 40
0.5029772359016081
100
AcDbArc
 50
54.3824225248
 51
114.3071190461
  0
ARC
  5
396
330
25B
100
AcDbEntity
  8
0
  6
Continuous
 62
     8
370
    25
100
AcDbCircle
 10
-132.8754415273
 20
710.5801302888
 30
0.0
 40
0.5029772359014125
100
AcDbArc
 50
54.3824225248
 51
114.3071190461
  0
ARC
  5
397
330
25B
100
AcDbEntity
  8
0
  6
Continuous
 62
     8
370
    25
100
AcDbCircle
 10
-121.4221520543
 20
702.7285761939
 30
0.0
 40
1.576489614763636
100
AcDbArc
 50
15.019743397
 51
56.9207443128
  0
ARC
  5
398
330
25B
100
AcDbEntity
  8
0
  6
Continuous
 62
     8
370
    25
100
AcDbCircle
 10
-120.2687861375
 20
703.6406613383
 30
0.0
 40
0.5029772359022012
100
AcDbArc
 50
65.6928809539
 51
125.6175774752
  0
ARC
  5
399
330
25B
100
AcDbEntity
  8
0
  6
Continuous
 62
     8
370
    25
100
AcDbCircle
 10
-132.2896014176
 20
710.5801302888
 30
0.0
 40
0.5029772359025172
100
AcDbArc
 50
65.6928809539
 51
125.6175774752
  0
ARC
  5
39A
330
25B
100
AcDbEntity
  8
0
  6
Continuous
 62
     8
370
    25
100
AcDbCircle
 10
-61.7420699897
 20
440.6786751022
 30
0.0
 40
1.549331742338279
100
AcDbArc
 50
122.694228694
 51
165.3652835962
  0
ARC
  5
39B
330
25B
100
AcDbEntity
  8
0
  6
Continuous
 62
     8
370
    25
100
AcDbCircle
 10
-63.4160189416
 20
440.6777608926
 30
0.0
 40
1.550203052025232
100
AcDbArc
 50
12.8432761494
 51
57.3181546135
  0
ARC
  5
39C
330
25B
100
AcDbEntity
  8
0
  6
Continuous
 62
     8
370
    25
100
AcDbCircle
 10
-62.5607194185
 20
442.1530150587
 30
0.0
 40
1.563311586298816
100
AcDbArc
 50
275.1666726471
 51
286.477339676
  0
ARC
  5
39D
330
25B
100
AcDbEntity
  8
0
  6
Continuous
 62
     8
370
    25
100
AcDbCircle
 10
-316.2769455002
 20
587.6150324269
 30
0.0
 40
1.576489614756236
100
AcDbArc
 50
123.0792556871
 51
164.9802566031
  0
ARC
  5
39E
330
25B
100
AcDbEntity
  8
0
  6
Continuous
 62
     8
370
    25
100
AcDbCircle
 10
134.5740684519
 20
554.9758107574
 30
0.0
 40
1.549331742337339
100
AcDbArc
 50
14.6347164038
 51
57.305771306
  0
ARC
  5
39F
330
25B
100
AcDbEntity
  8
0
  6
Continuous
 62
     8
370
    25
100
AcDbCircle
 10
135.7038686521
 20
555.8707930984
 30
0.0
 40
0.5029772359015556
100
AcDbArc
 50
65.6928809539
 51
125.6175774752
  0
ARC
  5
3A0
330
25B
100
AcDbEntity
  8
0
  6
Continuous
 62
     8
370
    25
100
AcDbCircle
 10
-118.8545725751
 20
702.8242532265
 30
0.0
 40
0.5029772359019501
100
AcDbArc
 50
65.6928809539
 51
125.6175774752
  0
ARC
  5
3A1
330
25B
100
AcDbEntity
  8
0
  6
Continuous
 62
     8
370
    25
100
AcDbCircle
 10
-317.430311417
 20
588.5271175713
 30
0.0
 40
0.5029772359015722
100
AcDbArc
 50
54.3824225248
 51
114.3071190461
  0
ARC
  5
3A2
330
25B
100
AcDbEntity
  8
0
  6
Continuous
 62
     8
370
    25
100
AcDbCircle
 10
-119.4404126848
 20
702.8242532265
 30
0.0
 40
0.5029772359015474
100
AcDbArc
 50
54.3824225248
 51
114.3071190461
  0
ARC
  5
3A3
330
25B
100
AcDbEntity
  8
0
  6
Continuous
 62
     8
370
    25
100
AcDbCircle
 10
-51.4728054797
 20
-466.3679474231
 30
0.0
 40
0.5029392784939481
100
AcDbArc
 50
294.3746582936
 51
354.3052007488
  0
ARC
  5
3A4
330
25B
100
AcDbEntity
  8
0
  6
Continuous
 62
     8
370
    25
100
AcDbCircle
 10
-51.6794283624
 20
-466.0101943172
 30
0.0
 40
0.5029772359012522
100
AcDbArc
 50
65.6928809539
 51
125.6175774752
  0
ARC
  5
3A5
330
25B
100
AcDbEntity
  8
0
  6
Continuous
 62
     8
370
    25
100
AcDbCircle
 10
-51.4728054797
 20
-815.8474149102
 30
0.0
 40
0.5029392784946465
100
AcDbArc
 50
294.3746582936
 51
354.3052007488
  0
ARC
  5
3A6
330
25B
100
AcDbEntity
  8
0
  6
Continuous
 62
     8
370
    25
100
AcDbCircle
 10
-344.3003691021
 20
-311.3008571268
 30
0.0
 40
0.5029772359014797
100
AcDbArc
 50
54.3824225248
 51
114.3071190461
  0
ARC
  5
3A7
330
25B
100
AcDbEntity
  8
0
  6
Continuous
 62
     8
370
    25
100
AcDbCircle
 10
-344.5069919848
 20
-311.6586102327
 30
0.0
 40
0.5029392784938435
100
AcDbArc
 50
185.6947992512
 51
245.6253417064
  0
ARC
  5
3A8
330
25B
100
AcDbEntity
  8
0
  6
Continuous
 62
     8
370
    25
100
AcDbCircle
 10
-344.5069919848
 20
-661.1380777198
 30
0.0
 40
0.5029392784941263
100
AcDbArc
 50
185.6947992512
 51
245.6253417064
  0
ARC
  5
3A9
330
25B
100
AcDbEntity
  8
0
  6
Continuous
 62
     8
370
    25
100
AcDbCircle
 10
-63.7617424723
 20
-823.305558322
 30
0.0
 40
0.4795255466080133
100
AcDbArc
 50
304.0563508457
 51
7.2558295476
  0
ARC
  5
3AA
330
25B
100
AcDbEntity
  8
0
  6
Continuous
 62
     8
370
    25
100
AcDbCircle
 10
-64.2245849224
 20
-823.305558322
 30
0.0
 40
0.4795255466558681
100
AcDbArc
 50
172.7441704559
 51
235.9436491507
  0
ARC
  5
3AB
330
25B
100
AcDbEntity
  8
0
  6
Continuous
 62
     8
370
    25
100
AcDbCircle
 10
-51.7409271921
 20
-816.3660893715
 30
0.0
 40
0.4795255466078865
100
AcDbArc
 50
304.0563508458
 51
7.2558295476
  0
ARC
  5
3AC
330
25B
100
AcDbEntity
  8
0
  6
Continuous
 62
     8
370
    25
100
AcDbCircle
 10
-344.2245539264
 20
-661.6502748901
 30
0.0
 40
0.4929779297302589
100
AcDbArc
 50
173.7011524628
 51
234.9866671438
  0
ARC
  5
3AD
330
25B
100
AcDbEntity
  8
0
  6
Continuous
 62
     8
370
    25
100
AcDbCircle
 10
-60.3278564273
 20
439.8622669904
 30
0.0
 40
1.549331742337658
100
AcDbArc
 50
122.694228694
 51
165.3652835962
  0
ARC
  5
3AE
330
25B
100
AcDbEntity
  8
0
  6
Continuous
 62
     8
370
    25
100
AcDbCircle
 10
-61.4576566275
 20
440.7572493314
 30
0.0
 40
0.5029772359019157
100
AcDbArc
 50
54.3824225248
 51
114.3071190461
  0
ARC
  5
3AF
330
25B
100
AcDbEntity
  8
0
  6
Continuous
 62
     8
370
    25
100
AcDbCircle
 10
149.1388974946
 20
548.1149160361
 30
0.0
 40
0.5029772359025523
100
AcDbArc
 50
65.6928809539
 51
125.6175774751
  0
ARC
  5
3B0
330
25B
100
AcDbEntity
  8
0
  6
Continuous
 62
     8
370
    25
100
AcDbCircle
 10
149.3455203773
 20
547.7571629302
 30
0.0
 40
0.5029392784938941
100
AcDbArc
 50
294.3746582936
 51
354.3052007488
  0
ARC
  5
3B1
330
25B
100
AcDbEntity
  8
0
  6
Continuous
 62
     8
370
    25
100
AcDbCircle
 10
149.3455203773
 20
-701.550279255
 30
0.0
 40
0.5029392784935721
100
AcDbArc
 50
294.3746582936
 51
354.3052007488
  0
ARC
  5
3B2
330
25B
100
AcDbEntity
  8
0
  6
Continuous
 62
     8
370
    25
100
AcDbCircle
 10
137.1180822144
 20
555.0543849866
 30
0.0
 40
0.5029772359020342
100
AcDbArc
 50
65.6928809539
 51
125.6175774752
  0
ARC
  5
3B3
330
25B
100
AcDbEntity
  8
0
  6
Continuous
 62
     8
370
    25
100
AcDbCircle
 10
136.5322421047
 20
555.0543849866
 30
0.0
 40
0.5029772359018504
100
AcDbArc
 50
54.3824225248
 51
114.3071190461
  0
ARC
  5
3B4
330
25B
100
AcDbEntity
  8
0
  6
Continuous
 62
     8
370
    25
100
AcDbCircle
 10
-49.3610261716
 20
-816.3596120805
 30
0.0
 40
0.4929779297309365
100
AcDbArc
 50
173.7011524629
 51
234.9866671437
  0
ARC
  5
3B5
330
25B
100
AcDbEntity
  8
0
  6
Continuous
 62
     8
370
    25
100
AcDbCircle
 10
-48.9268164133
 20
-816.3596120805
 30
0.0
 40
0.49297792973096
100
AcDbArc
 50
305.0133328563
 51
6.2988475371
  0
ARC
  5
3B6
330
25B
100
AcDbEntity
  8
0
  6
Continuous
 62
     8
370
    25
100
AcDbCircle
 10
149.0630823189
 20
-702.0624764253
 30
0.0
 40
0.492977929730843
100
AcDbArc
 50
305.0133328563
 51
6.2988475371
  0
ARC
  5
3B7
330
25B
100
AcDbEntity
  8
0
  6
Continuous
 62
     8
370
    25
100
AcDbCircle
 10
-51.4728054797
 20
433.460027275
 30
0.0
 40
0.5029392784939863
100
AcDbArc
 50
294.3746582936
 51
354.3052007488
  0
ARC
  5
3B8
330
25B
100
AcDbEntity
  8
0
  6
Continuous
 62
     8
370
    25
100
AcDbCircle
 10
-51.6794283624
 20
433.8177803809
 30
0.0
 40
0.5029772359031792
100
AcDbArc
 50
65.692880954
 51
125.6175774751
  0
ARC
  5
3B9
330
25B
100
AcDbEntity
  8
0
  6
Continuous
 62
     8
370
    25
100
AcDbCircle
 10
-51.4728054797
 20
-463.1017841755
 30
0.0
 40
0.5029392784942097
100
AcDbArc
 50
294.3746582936
 51
354.3052007488
  0
ARC
  5
3BA
330
25B
100
AcDbEntity
  8
0
  6
Continuous
 62
     8
370
    25
100
AcDbCircle
 10
-331.6937137122
 20
595.4665865218
 30
0.0
 40
0.5029772359009776
100
AcDbArc
 50
65.6928809538
 51
125.6175774752
  0
ARC
  5
3BB
330
25B
100
AcDbEntity
  8
0
  6
Continuous
 62
     8
370
    25
100
AcDbCircle
 10
-344.3003691021
 20
588.5271175713
 30
0.0
 40
0.5029772359029322
100
AcDbArc
 50
54.3824225249
 51
114.307119046
  0
ARC
  5
3BC
330
25B
100
AcDbEntity
  8
0
  6
Continuous
 62
     8
370
    25
100
AcDbCircle
 10
-344.5069919848
 20
588.1693644654
 30
0.0
 40
0.5029392784936733
100
AcDbArc
 50
185.6947992512
 51
245.6253417064
  0
ARC
  5
3BD
330
25B
100
AcDbEntity
  8
0
  6
Continuous
 62
     8
370
    25
100
AcDbCircle
 10
-344.5069919848
 20
-308.3924469851
 30
0.0
 40
0.5029392784936682
100
AcDbArc
 50
185.6947992512
 51
245.6253417064
  0
ARC
  5
3BE
330
25B
100
AcDbEntity
  8
0
  6
Continuous
 62
     8
370
    25
100
AcDbCircle
 10
-332.2795538219
 20
595.4665865218
 30
0.0
 40
0.502977235902046
100
AcDbArc
 50
54.3824225248
 51
114.3071190461
  0
ARC
  5
3BF
330
25B
100
AcDbEntity
  8
0
  6
Continuous
 62
     8
370
    25
100
AcDbCircle
 10
-63.7617424718
 20
-470.5599275876
 30
0.0
 40
0.4795255461513198
100
AcDbArc
 50
304.0563508122
 51
7.2558295812
  0
ARC
  5
3C0
330
25B
100
AcDbEntity
  8
0
  6
Continuous
 62
     8
370
    25
100
AcDbCircle
 10
-64.2245849229
 20
-470.5599275876
 30
0.0
 40
0.4795255461512203
100
AcDbArc
 50
172.7441704188
 51
235.9436491878
  0
ARC
  5
3C1
330
25B
100
AcDbEntity
  8
0
  6
Continuous
 62
     8
370
    25
100
AcDbCircle
 10
-51.7409271919
 20
-463.620458637
 30
0.0
 40
0.4795255463717276
100
AcDbArc
 50
304.0563508284
 51
7.255829565
  0
ARC
  5
3C2
330
25B
100
AcDbEntity
  8
0
  6
Continuous
 62
     8
370
    25
100
AcDbCircle
 10
-344.2245539265
 20
-308.9046441555
 30
0.0
 40
0.4929779296020718
100
AcDbArc
 50
173.701152454
 51
234.9866671526
  0
VIEWPORT
  5
3C9
330
25B
100
AcDbEntity
  8
0
100
AcDbViewport
 10
0.0
 20
0.0
 30
0.0
 40
205.6
 41
156.0
 68
     1
 69
     1
 12
0.5
 22
0.0
 13
0.0
 23
0.0
 14
10.0
 24
10.0
 15
10.0
 25
10.0
 16
0.0
 26
0.0
 36
1.0
 17
0.0
 27
0.0
 37
0.0
 42
50.0
 43
0.0
 44
0.0
 45
1562.64
 50
0.0
 51
0.0
 72
   100
 90
   557152
  1

281
     0
 71
     1
 74
     0
110
0.0
120
0.0
130
0.0
111
1.0
121
0.0
131
0.0
112
0.0
122
1.0
132
0.0
 79
     0
146
0.0
  0
ENDBLK
  5
25E
330
25B
100
AcDbEntity
  8
0
100
AcDbBlockEnd
  0
ENDSEC
  0
SECTION
  2
ENTITIES
  0
LINE
  5
AD
330
1F
100
AcDbEntity
  8
0
  6
Continuous
 62
     7
370
    25
100
AcDbLine
 10
-199.5
 20
-765.0
 30
0.0
 11
-199.5
 21
765.0
 31
0.0
  0
LINE
  5
AE
330
1F
100
AcDbEntity
  8
0
  6
Continuous
 62
     7
370
    25
100
AcDbLine
 10
197.5
 20
-766.0
 30
0.0
 11
197.5
 21
-336.0
 31
0.0
  0
LINE
  5
AF
330
1F
100
AcDbEntity
  8
0
  6
Continuous
 62
     7
370
    25
100
AcDbLine
 10
198.5
 20
-337.0
 30
0.0
 11
-199.5
 21
-337.0
 31
0.0
  0
LINE
  5
B0
330
1F
100
AcDbEntity
  8
0
  6
Continuous
 62
     7
370
    25
100
AcDbLine
 10
199.5
 20
-766.0
 30
0.0
 11
-198.5
 21
-766.0
 31
0.0
  0
LINE
  5
B1
330
1F
100
AcDbEntity
  8
0
  6
Continuous
 62
     7
370
    25
100
AcDbLine
 10
198.5
 20
-337.0
 30
0.0
 11
198.5
 21
-765.0
 31
0.0
  0
LINE
  5
B2
330
1F
100
AcDbEntity
  8
0
  6
Continuous
 62
     7
370
    25
100
AcDbLine
 10
-198.5
 20
-336.0
 30
0.0
 11
197.5
 21
-336.0
 31
0.0
  0
LINE
  5
B3
330
1F
100
AcDbEntity
  8
0
  6
Continuous
 62
     7
370
    25
100
AcDbLine
 10
199.5
 20
-766.0
 30
0.0
 11
199.5
 21
766.0
 31
0.0
  0
LINE
  5
B4
330
1F
100
AcDbEntity
  8
0
  6
Continuous
 62
     7
370
    25
100
AcDbLine
 10
-198.5
 20
766.0
 30
0.0
 11
199.5
 21
766.0
 31
0.0
  0
LINE
  5
B5
330
1F
100
AcDbEntity
  8
0
  6
Continuous
 62
     7
370
    25
100
AcDbLine
 10
-199.5
 20
-765.0
 30
0.0
 11
200.5
 21
-765.0
 31
0.0
  0
LINE
  5
B6
330
1F
100
AcDbEntity
  8
0
  6
Continuous
 62
     7
370
    25
100
AcDbLine
 10
200.5
 20
765.0
 30
0.0
 11
200.5
 21
-765.0
 31
0.0
  0
LINE
  5
B7
330
1F
100
AcDbEntity
  8
0
  6
Continuous
 62
     7
370
    25
100
AcDbLine
 10
-180.5
 20
-334.0
 30
0.0
 11
-180.5
 21
-336.0
 31
0.0
  0
LINE
  5
B8
330
1F
100
AcDbEntity
  8
0
  6
Continuous
 62
     7
370
    25
100
AcDbLine
 10
181.5
 20
-334.0
 30
0.0
 11
181.5
 21
-336.0
 31
0.0
  0
LINE
  5
B9
330
1F
100
AcDbEntity
  8
0
  6
Continuous
 62
     7
370
    25
100
AcDbLine
 10
200.5
 20
765.0
 30
0.0
 11
-199.5
 21
765.0
 31
0.0
  0
LINE
  5
BA
330
1F
100
AcDbEntity
  8
0
  6
Continuous
 62
     7
370
    25
100
AcDbLine
 10
-198.5
 20
766.0
 30
0.0
 11
-198.5
 21
-766.0
 31
0.0
  0
LINE
  5
BB
330
1F
100
AcDbEntity
  8
0
  6
Continuous
 62
     7
370
    25
100
AcDbLine
 10
197.5
 20
-334.0
 30
0.0
 11
197.5
 21
766.0
 31
0.0
  0
LINE
  5
BC
330
1F
100
AcDbEntity
  8
0
  6
Continuous
 62
     7
370
    25
100
AcDbLine
 10
-199.5
 20
-333.0
 30
0.0
 11
198.5
 21
-333.0
 31
0.0
  0
LINE
  5
BD
330
1F
100
AcDbEntity
  8
0
  6
Continuous
 62
     7
370
    25
100
AcDbLine
 10
198.5
 20
765.0
 30
0.0
 11
198.5
 21
-333.0
 31
0.0
  0
LINE
  5
BE
330
1F
100
AcDbEntity
  8
0
  6
Continuous
 62
     7
370
    25
100
AcDbLine
 10
197.5
 20
-334.0
 30
0.0
 11
-198.5
 21
-334.0
 31
0.0
  0
LINE
  5
BF
330
1F
100
AcDbEntity
  8
0
  6
Continuous
 62
     8
370
    25
100
AcDbLine
 10
-181.5
 20
-336.0
 30
0.0
 11
-181.5
 21
-334.0
 31
0.0
  0
LINE
  5
C0
330
1F
100
AcDbEntity
  8
0
  6
Continuous
 62
     8
370
    25
100
AcDbLine
 10
182.5
 20
-334.0
 30
0.0
 11
182.5
 21
-336.0
 31
0.0
  0
ARC
  5
C1
330
1F
100
AcDbEntity
  8
0
  6
Continuous
 62
     7
370
    25
100
AcDbCircle
 10
197.5
 20
-765.0
 30
0.0
 40
1.000000000000341
100
AcDbArc
 50
270.0
 51
360.0
  0
ARC
  5
C2
330
1F
100
AcDbEntity
  8
0
  6
Continuous
 62
     7
370
    25
100
AcDbCircle
 10
197.5
 20
-337.0
 30
0.0
 40
1.000000000000114
100
AcDbArc
 50
0.0
 51
90.0
  0
ARC
  5
C3
330
1F
100
AcDbEntity
  8
0
  6
Continuous
 62
     7
370
    25
100
AcDbCircle
 10
-198.5
 20
-765.0
 30
0.0
 40
0.9999999999999432
100
AcDbArc
 50
180.0
 51
270.0
  0
ARC
  5
C4
330
1F
100
AcDbEntity
  8
0
  6
Continuous
 62
     7
370
    25
100
AcDbCircle
 10
-198.5
 20
-337.0
 30
0.0
 40
1.000000000000057
100
AcDbArc
 50
90.0
 51
180.0
  0
ARC
  5
C5
330
1F
100
AcDbEntity
  8
0
  6
Continuous
 62
     7
370
    25
100
AcDbCircle
 10
199.5
 20
765.0
 30
0.0
 40
0.9999999999997158
100
AcDbArc
 50
360.0
 51
90.0
  0
ARC
  5
C6
330
1F
100
AcDbEntity
  8
0
  6
Continuous
 62
     7
370
    25
100
AcDbCircle
 10
199.5
 20
-765.0
 30
0.0
 40
1.000000000000114
100
AcDbArc
 50
270.0
 51
360.0
  0
ARC
  5
C7
330
1F
100
AcDbEntity
  8
0
  6
Continuous
 62
     7
370
    25
100
AcDbCircle
 10
197.5
 20
765.0
 30
0.0
 40
1.0
100
AcDbArc
 50
360.0
 51
90.0
  0
ARC
  5
C8
330
1F
100
AcDbEntity
  8
0
  6
Continuous
 62
     7
370
    25
100
AcDbCircle
 10
-198.5
 20
765.0
 30
0.0
 40
1.000000000000341
100
AcDbArc
 50
90.0
 51
180.0
  0
ARC
  5
C9
330
1F
100
AcDbEntity
  8
0
  6
Continuous
 62
     7
370
    25
100
AcDbCircle
 10
-198.5
 20
-333.0
 30
0.0
 40
1.000000000000114
100
AcDbArc
 50
180.0
 51
270.0
  0
ARC
  5
CA
330
1F
100
AcDbEntity
  8
0
  6
Continuous
 62
     7
370
    25
100
AcDbCircle
 10
197.5
 20
-333.0
 30
0.0
 40
1.0
100
AcDbArc
 50
270.0
 51
0.0
  0
LINE
  5
11F
330
1B
100
AcDbEntity
 67
     1
  8
0
  6
Continuous
 62
     7
370
    25
100
AcDbLine
 10
198.5
 20
-766.0
 30
0.0
 11
198.5
 21
766.0
 31
0.0
  0
LINE
  5
120
330
1B
100
AcDbEntity
 67
     1
  8
0
  6
Continuous
 62
     7
370
    25
100
AcDbLine
 10
181.5
 20
766.0
 30
0.0
 11
181.5
 21
-766.0
 31
0.0
  0
LINE
  5
121
330
1B
100
AcDbEntity
 67
     1
  8
0
  6
Continuous
 62
     7
370
    25
100
AcDbLine
 10
180.5
 20
-765.0
 30
0.0
 11
180.5
 21
765.0
 31
0.0
  0
LINE
  5
122
330
1B
100
AcDbEntity
 67
     1
  8
0
  6
Continuous
 62
     7
370
    25
100
AcDbLine
 10
199.5
 20
765.0
 30
0.0
 11
199.5
 21
-765.0
 31
0.0
  0
LINE
  5
123
330
1B
100
AcDbEntity
 67
     1
  8
0
  6
Continuous
 62
     7
370
    25
100
AcDbLine
 10
-181.5
 20
765.0
 30
0.0
 11
-181.5
 21
-765.0
 31
0.0
  0
LINE
  5
124
330
1B
100
AcDbEntity
 67
     1
  8
0
  6
Continuous
 62
     7
370
    25
100
AcDbLine
 10
-180.5
 20
766.0
 30
0.0
 11
-180.5
 21
747.0
 31
0.0
  0
LINE
  5
125
330
1B
100
AcDbEntity
 67
     1
  8
0
  6
Continuous
 62
     7
370
    25
100
AcDbLine
 10
-181.5
 20
748.0
 30
0.0
 11
180.5
 21
748.0
 31
0.0
  0
LINE
  5
126
330
1B
100
AcDbEntity
 67
     1
  8
0
  6
Continuous
 62
     7
370
    25
100
AcDbLine
 10
179.5
 20
747.0
 30
0.0
 11
-180.5
 21
747.0
 31
0.0
  0
LINE
  5
127
330
1B
100
AcDbEntity
 67
     1
  8
0
  6
Continuous
 62
     7
370
    25
100
AcDbLine
 10
179.5
 20
747.0
 30
0.0
 11
179.5
 21
766.0
 31
0.0
  0
LINE
  5
128
330
1B
100
AcDbEntity
 67
     1
  8
0
  6
Continuous
 62
     7
370
    25
100
AcDbLine
 10
198.5
 20
-766.0
 30
0.0
 11
-199.5
 21
-766.0
 31
0.0
  0
LINE
  5
129
330
1B
100
AcDbEntity
 67
     1
  8
0
  6
Continuous
 62
     7
370
    25
100
AcDbLine
 10
-182.5
 20
-766.0
 30
0.0
 11
-182.5
 21
766.0
 31
0.0
  0
LINE
  5
12A
330
1B
100
AcDbEntity
 67
     1
  8
0
  6
Continuous
 62
     7
370
    25
100
AcDbLine
 10
-200.5
 20
-765.0
 30
0.0
 11
199.5
 21
-765.0
 31
0.0
  0
LINE
  5
12B
330
1B
100
AcDbEntity
 67
     1
  8
0
  6
Continuous
 62
     7
370
    25
100
AcDbLine
 10
199.5
 20
765.0
 30
0.0
 11
-200.5
 21
765.0
 31
0.0
  0
LINE
  5
12C
330
1B
100
AcDbEntity
 67
     1
  8
0
  6
Continuous
 62
     7
370
    25
100
AcDbLine
 10
-199.5
 20
766.0
 30
0.0
 11
198.5
 21
766.0
 31
0.0
  0
LINE
  5
12D
330
1B
100
AcDbEntity
 67
     1
  8
0
  6
Continuous
 62
     7
370
    25
100
AcDbLine
 10
-199.5
 20
766.0
 30
0.0
 11
-199.5
 21
-766.0
 31
0.0
  0
LINE
  5
12E
330
1B
100
AcDbEntity
 67
     1
  8
0
  6
Continuous
 62
     7
370
    25
100
AcDbLine
 10
-200.5
 20
-765.0
 30
0.0
 11
-200.5
 21
765.0
 31
0.0
  0
LINE
  5
12F
330
1B
100
AcDbEntity
 67
     1
  8
0
  6
Continuous
 62
     7
370
    25
100
AcDbLine
 10
179.5
 20
-766.0
 30
0.0
 11
179.5
 21
-747.0
 31
0.0
  0
LINE
  5
130
330
1B
100
AcDbEntity
 67
     1
  8
0
  6
Continuous
 62
     7
370
    25
100
AcDbLine
 10
180.5
 20
-748.0
 30
0.0
 11
-181.5
 21
-748.0
 31
0.0
  0
LINE
  5
131
330
1B
100
AcDbEntity
 67
     1
  8
0
  6
Continuous
 62
     7
370
    25
100
AcDbLine
 10
-180.5
 20
-747.0
 30
0.0
 11
-180.5
 21
-766.0
 31
0.0
  0
LINE
  5
132
330
1B
100
AcDbEntity
 67
     1
  8
0
  6
Continuous
 62
     7
370
    25
100
AcDbLine
 10
-180.5
 20
-747.0
 30
0.0
 11
179.5
 21
-747.0
 31
0.0
  0
ARC
  5
133
330
1B
100
AcDbEntity
 67
     1
  8
0
  6
Continuous
 62
     7
370
    25
100
AcDbCircle
 10
181.5
 20
-765.0
 30
0.0
 40
0.9999999999999432
100
AcDbArc
 50
180.0
 51
270.0
  0
ARC
  5
134
330
1B
100
AcDbEntity
 67
     1
  8
0
  6
Continuous
 62
     7
370
    25
100
AcDbCircle
 10
198.5
 20
765.0
 30
0.0
 40
0.999999999999801
100
AcDbArc
 50
360.0
 51
90.0
  0
ARC
  5
135
330
1B
100
AcDbEntity
 67
     1
  8
0
  6
Continuous
 62
     7
370
    25
100
AcDbCircle
 10
181.5
 20
765.0
 30
0.0
 40
1.000000000000114
100
AcDbArc
 50
90.0
 51
180.0
  0
ARC
  5
136
330
1B
100
AcDbEntity
 67
     1
  8
0
  6
Continuous
 62
     7
370
    25
100
AcDbCircle
 10
198.5
 20
-765.0
 30
0.0
 40
0.9999999999999147
100
AcDbArc
 50
270.0
 51
0.0
  0
ARC
  5
137
330
1B
100
AcDbEntity
 67
     1
  8
0
  6
Continuous
 62
     7
370
    25
100
AcDbCircle
 10
-180.5
 20
765.0
 30
0.0
 40
1.0
100
AcDbArc
 50
90.0
 51
180.0
  0
ARC
  5
138
330
1B
100
AcDbEntity
 67
     1
  8
0
  6
Continuous
 62
     7
370
    25
100
AcDbCircle
 10
-180.5
 20
748.0
 30
0.0
 40
1.0
100
AcDbArc
 50
180.0
 51
270.0
  0
ARC
  5
139
330
1B
100
AcDbEntity
 67
     1
  8
0
  6
Continuous
 62
     7
370
    25
100
AcDbCircle
 10
179.5
 20
765.0
 30
0.0
 40
1.000000000000028
100
AcDbArc
 50
360.0
 51
90.0
  0
ARC
  5
13A
330
1B
100
AcDbEntity
 67
     1
  8
0
  6
Continuous
 62
     7
370
    25
100
AcDbCircle
 10
179.5
 20
748.0
 30
0.0
 40
1.000000000000028
100
AcDbArc
 50
270.0
 51
0.0
  0
ARC
  5
13B
330
1B
100
AcDbEntity
 67
     1
  8
0
  6
Continuous
 62
     7
370
    25
100
AcDbCircle
 10
-182.5
 20
-765.0
 30
0.0
 40
1.0
100
AcDbArc
 50
270.0
 51
0.0
  0
ARC
  5
13C
330
1B
100
AcDbEntity
 67
     1
  8
0
  6
Continuous
 62
     7
370
    25
100
AcDbCircle
 10
-199.5
 20
765.0
 30
0.0
 40
1.000000000000114
100
AcDbArc
 50
90.0
 51
180.0
  0
ARC
  5
13D
330
1B
100
AcDbEntity
 67
     1
  8
0
  6
Continuous
 62
     7
370
    25
100
AcDbCircle
 10
-182.5
 20
765.0
 30
0.0
 40
1.0
100
AcDbArc
 50
360.0
 51
90.0
  0
ARC
  5
13E
330
1B
100
AcDbEntity
 67
     1
  8
0
  6
Continuous
 62
     7
370
    25
100
AcDbCircle
 10
-199.5
 20
-765.0
 30
0.0
 40
1.000000000000114
100
AcDbArc
 50
180.0
 51
270.0
  0
ARC
  5
13F
330
1B
100
AcDbEntity
 67
     1
  8
0
  6
Continuous
 62
     7
370
    25
100
AcDbCircle
 10
179.5
 20
-765.0
 30
0.0
 40
1.000000000000028
100
AcDbArc
 50
270.0
 51
0.0
  0
ARC
  5
140
330
1B
100
AcDbEntity
 67
     1
  8
0
  6
Continuous
 62
     7
370
    25
100
AcDbCircle
 10
-180.5
 20
-748.0
 30
0.0
 40
1.000000000000028
100
AcDbArc
 50
90.0
 51
180.0
  0
ARC
  5
141
330
1B
100
AcDbEntity
 67
     1
  8
0
  6
Continuous
 62
     7
370
    25
100
AcDbCircle
 10
-180.5
 20
-765.0
 30
0.0
 40
1.000000000000028
100
AcDbArc
 50
180.0
 51
270.0
  0
ARC
  5
142
330
1B
100
AcDbEntity
 67
     1
  8
0
  6
Continuous
 62
     7
370
    25
100
AcDbCircle
 10
179.5
 20
-748.0
 30
0.0
 40
1.000000000000028
100
AcDbArc
 50
0.0
 51
90.0
  0
VIEWPORT
  5
3C3
330
1B
100
AcDbEntity
 67
     1
  8
0
100
AcDbViewport
 10
0.0
 20
0.0
 30
0.0
 40
205.6
 41
156.0
 68
     1
 69
     1
 12
0.5
 22
0.0
 13
0.0
 23
0.0
 14
10.0
 24
10.0
 15
10.0
 25
10.0
 16
0.0
 26
0.0
 36
1.0
 17
0.0
 27
0.0
 37
0.0
 42
50.0
 43
0.0
 44
0.0
 45
1562.64
 50
0.0
 51
0.0
 72
   100
 90
   557152
  1

281
     0
 71
     1
 74
     0
110
0.0
120
0.0
130
0.0
111
1.0
121
0.0
131
0.0
112
0.0
122
1.0
132
0.0
 79
     0
146
0.0
  0
ENDSEC
  0
SECTION
  2
OBJECTS
  0
DICTIONARY
  5
C
330
0
100
AcDbDictionary
281
     1
  3
ACAD_GROUP
350
D
  3
ACAD_LAYOUT
350
1A
  3
ACAD_MLINESTYLE
350
17
  3
ACAD_PLOTSETTINGS
350
19
  3
ACAD_PLOTSTYLENAME
350
E
  3
ACAD_SCALELIST
350
47
  0
DICTIONARY
  5
D
102
{ACAD_REACTORS
330
C
102
}
330
C
100
AcDbDictionary
281
     1
  0
DICTIONARY
  5
1A
102
{ACAD_REACTORS
330
C
102
}
330
C
100
AcDbDictionary
281
     1
  3
_Back
350
1E
  3
_Isometric
350
25C
  3
_Left
350
26
  3
_Top
350
1A0
  3
Model
350
22
  0
DICTIONARY
  5
17
102
{ACAD_REACTORS
330
C
102
}
330
C
100
AcDbDictionary
281
     1
  3
Standard
350
18
  0
DICTIONARY
  5
19
102
{ACAD_REACTORS
330
C
102
}
330
C
100
AcDbDictionary
281
     1
  0
ACDBDICTIONARYWDFLT
  5
E
102
{ACAD_REACTORS
330
C
102
}
330
C
100
AcDbDictionary
281
     1
  3
Normal
350
F
100
AcDbDictionaryWithDefault
340
F
  0
DICTIONARY
  5
47
102
{ACAD_REACTORS
330
C
102
}
330
C
100
AcDbDictionary
281
     1
  3
A0
350
48
  3
A1
350
49
  3
A2
350
4A
  3
A3
350
4B
  3
A4
350
4C
  3
A5
350
4D
  3
A6
350
4E
  3
A7
350
4F
  3
A8
350
50
  3
A9
350
51
  3
B0
350
52
  3
B1
350
53
  3
B2
350
54
  3
B3
350
55
  3
B4
350
56
  3
B5
350
57
  3
B6
350
58
  3
B7
350
59
  3
B8
350
5A
  3
B9
350
5B
  3
C0
350
5C
  3
C1
350
5D
  3
C2
350
5E
  3
C3
350
5F
  3
C4
350
60
  3
C5
350
61
  3
C6
350
62
  3
C7
350
63
  3
C8
350
64
  3
C9
350
65
  3
D0
350
66
  3
D1
350
67
  3
D2
350
68
  0
LAYOUT
  5
1E
102
{ACAD_REACTORS
330
1A
102
}
330
1A
100
AcDbPlotSettings
  1

  2
none_device
  4
ISO_A4_(210.00_x_297.00_MM)
  6

 40
7.5
 41
20.0
 42
7.5
 43
20.0
 44
210.0
 45
297.0
 46
0.0
 47
0.0
 48
0.0
 49
0.0
140
0.0
141
0.0
142
1.0
143
7.8564102564
 70
   688
 72
     1
 73
     1
 74
     1
  7

 75
     0
147
0.1272845953
148
200.5
149
766.0
100
AcDbLayout
  1
_Back
 70
     1
 71
     1
 10
-357.6282051282
 20
-824.9230769231
 11
1975.7256410256
 21
824.9230769231
 12
0.0
 22
0.0
 32
0.0
 14
-200.5
 24
-766.0
 34
0.0
 15
199.5
 25
766.0
 35
0.0
146
0.0
 13
0.0
 23
0.0
 33
0.0
 16
1.0
 26
0.0
 36
0.0
 17
0.0
 27
1.0
 37
0.0
 76
     0
330
1B
331
3C3
  0
LAYOUT
  5
25C
102
{ACAD_REACTORS
330
1A
102
}
330
1A
100
AcDbPlotSettings
  1

  2
none_device
  4
ISO_A4_(210.00_x_297.00_MM)
  6

 40
7.5
 41
20.0
 42
7.5
 43
20.0
 44
210.0
 45
297.0
 46
0.0
 47
0.0
 48
0.0
 49
0.0
140
0.0
141
0.0
142
1.0
143
7.8564102564
 70
   688
 72
     1
 73
     1
 74
     1
  7

 75
     0
147
0.1272845953
148
200.5
149
766.0
100
AcDbLayout
  1
_Isometric
 70
     1
 71
     4
 10
0.0
 20
0.0
 11
0.0
 21
0.0
 12
0.0
 22
0.0
 32
0.0
 14
0.0
 24
0.0
 34
0.0
 15
0.0
 25
0.0
 35
0.0
146
0.0
 13
0.0
 23
0.0
 33
0.0
 16
1.0
 26
0.0
 36
0.0
 17
0.0
 27
1.0
 37
0.0
 76
     0
330
25B
331
3C9
  0
LAYOUT
  5
26
102
{ACAD_REACTORS
330
1A
102
}
330
1A
100
AcDbPlotSettings
  1

  2
none_device
  4
ISO_A4_(210.00_x_297.00_MM)
  6

 40
7.5
 41
20.0
 42
7.5
 43
20.0
 44
210.0
 45
297.0
 46
0.0
 47
0.0
 48
0.0
 49
0.0
140
0.0
141
0.0
142
1.0
143
7.8564102564
 70
   688
 72
     1
 73
     1
 74
     1
  7

 75
     0
147
0.1272845953
148
200.5
149
766.0
100
AcDbLayout
  1
_Left
 70
     1
 71
     2
 10
0.0
 20
0.0
 11
0.0
 21
0.0
 12
0.0
 22
0.0
 32
0.0
 14
0.0
 24
0.0
 34
0.0
 15
0.0
 25
0.0
 35
0.0
146
0.0
 13
0.0
 23
0.0
 33
0.0
 16
1.0
 26
0.0
 36
0.0
 17
0.0
 27
1.0
 37
0.0
 76
     0
330
23
331
3C5
  0
LAYOUT
  5
1A0
102
{ACAD_REACTORS
330
1A
102
}
330
1A
100
AcDbPlotSettings
  1

  2
none_device
  4
ISO_A4_(210.00_x_297.00_MM)
  6

 40
7.5
 41
20.0
 42
7.5
 43
20.0
 44
210.0
 45
297.0
 46
0.0
 47
0.0
 48
0.0
 49
0.0
140
0.0
141
0.0
142
1.0
143
7.8564102564
 70
   688
 72
     1
 73
     1
 74
     1
  7

 75
     0
147
0.1272845953
148
200.5
149
766.0
100
AcDbLayout
  1
_Top
 70
     1
 71
     3
 10
0.0
 20
0.0
 11
0.0
 21
0.0
 12
0.0
 22
0.0
 32
0.0
 14
0.0
 24
0.0
 34
0.0
 15
0.0
 25
0.0
 35
0.0
146
0.0
 13
0.0
 23
0.0
 33
0.0
 16
1.0
 26
0.0
 36
0.0
 17
0.0
 27
1.0
 37
0.0
 76
     0
330
19F
331
3C7
  0
LAYOUT
  5
22
102
{ACAD_REACTORS
330
1A
102
}
330
1A
100
AcDbPlotSettings
  1

  2
none_device
  4
ANSI_A_(11.00_x_8.50_Inches)
  6

 40
6.35
 41
19.05
 42
6.35000508
 43
19.05000254
 44
279.4
 45
215.9
 46
133.280238648
 47
88.89999873
 48
0.0
 49
0.0
140
0.0
141
0.0
142
0.0054928198
143
1.0
 70
  1696
 72
     0
 73
     0
 74
     0
  7

 75
     0
147
0.0179189148
148
-1300.4909072572
149
0.0
100
AcDbLayout
  1
Model
 70
     1
 71
     0
 10
0.0
 20
0.0
 11
420.0
 21
297.0
 12
0.0
 22
0.0
 32
0.0
 14
-199.5
 24
-766.0
 34
0.0
 15
200.5
 25
766.0
 35
0.0
146
0.0
 13
0.0
 23
0.0
 33
0.0
 16
1.0
 26
0.0
 36
0.0
 17
0.0
 27
1.0
 37
0.0
 76
     0
330
1F
331
29
  0
MLINESTYLE
  5
18
102
{ACAD_REACTORS
330
17
102
}
330
17
100
AcDbMlineStyle
  2
Standard
 70
     0
  3

 62
   256
 51
90.0
 52
90.0
 71
     2
 49
0.5
 62
   256
  6
BYLAYER
 49
-0.5
 62
   256
  6
BYLAYER
  0
ACDBPLACEHOLDER
  5
F
102
{ACAD_REACTORS
330
E
102
}
330
E
  0
SCALE
  5
48
102
{ACAD_REACTORS
330
47
102
}
330
47
100
AcDbScale
 70
     0
300
1:1
140
1.0
141
1.0
290
     1
  0
SCALE
  5
49
102
{ACAD_REACTORS
330
47
102
}
330
47
100
AcDbScale
 70
     0
300
1:2
140
1.0
141
2.0
290
     0
  0
SCALE
  5
4A
102
{ACAD_REACTORS
330
47
102
}
330
47
100
AcDbScale
 70
     0
300
1:4
140
1.0
141
4.0
290
     0
  0
SCALE
  5
4B
102
{ACAD_REACTORS
330
47
102
}
330
47
100
AcDbScale
 70
     0
300
1:5
140
1.0
141
5.0
290
     0
  0
SCALE
  5
4C
102
{ACAD_REACTORS
330
47
102
}
330
47
100
AcDbScale
 70
     0
300
1:8
140
1.0
141
8.0
290
     0
  0
SCALE
  5
4D
102
{ACAD_REACTORS
330
47
102
}
330
47
100
AcDbScale
 70
     0
300
1:10
140
1.0
141
10.0
290
     0
  0
SCALE
  5
4E
102
{ACAD_REACTORS
330
47
102
}
330
47
100
AcDbScale
 70
     0
300
1:16
140
1.0
141
16.0
290
     0
  0
SCALE
  5
4F
102
{ACAD_REACTORS
330
47
102
}
330
47
100
AcDbScale
 70
     0
300
1:20
140
1.0
141
20.0
290
     0
  0
SCALE
  5
50
102
{ACAD_REACTORS
330
47
102
}
330
47
100
AcDbScale
 70
     0
300
1:30
140
1.0
141
30.0
290
     0
  0
SCALE
  5
51
102
{ACAD_REACTORS
330
47
102
}
330
47
100
AcDbScale
 70
     0
300
1:40
140
1.0
141
40.0
290
     0
  0
SCALE
  5
52
102
{ACAD_REACTORS
330
47
102
}
330
47
100
AcDbScale
 70
     0
300
1:50
140
1.0
141
50.0
290
     0
  0
SCALE
  5
53
102
{ACAD_REACTORS
330
47
102
}
330
47
100
AcDbScale
 70
     0
300
1:100
140
1.0
141
100.0
290
     0
  0
SCALE
  5
54
102
{ACAD_REACTORS
330
47
102
}
330
47
100
AcDbScale
 70
     0
300
2:1
140
2.0
141
1.0
290
     0
  0
SCALE
  5
55
102
{ACAD_REACTORS
330
47
102
}
330
47
100
AcDbScale
 70
     0
300
4:1
140
4.0
141
1.0
290
     0
  0
SCALE
  5
56
102
{ACAD_REACTORS
330
47
102
}
330
47
100
AcDbScale
 70
     0
300
8:1
140
8.0
141
1.0
290
     0
  0
SCALE
  5
57
102
{ACAD_REACTORS
330
47
102
}
330
47
100
AcDbScale
 70
     0
300
10:1
140
10.0
141
1.0
290
     0
  0
SCALE
  5
58
102
{ACAD_REACTORS
330
47
102
}
330
47
100
AcDbScale
 70
     0
300
100:1
140
100.0
141
1.0
290
     0
  0
SCALE
  5
59
102
{ACAD_REACTORS
330
47
102
}
330
47
100
AcDbScale
 70
     0
300
1/128" = 1'-0"
140
0.0078125
141
12.0
290
     0
  0
SCALE
  5
5A
102
{ACAD_REACTORS
330
47
102
}
330
47
100
AcDbScale
 70
     0
300
1/64" = 1'-0"
140
0.015625
141
12.0
290
     0
  0
SCALE
  5
5B
102
{ACAD_REACTORS
330
47
102
}
330
47
100
AcDbScale
 70
     0
300
1/32" = 1'-0"
140
0.03125
141
12.0
290
     0
  0
SCALE
  5
5C
102
{ACAD_REACTORS
330
47
102
}
330
47
100
AcDbScale
 70
     0
300
1/16" = 1'-0"
140
0.0625
141
12.0
290
     0
  0
SCALE
  5
5D
102
{ACAD_REACTORS
330
47
102
}
330
47
100
AcDbScale
 70
     0
300
3/32" = 1'-0"
140
0.09375
141
12.0
290
     0
  0
SCALE
  5
5E
102
{ACAD_REACTORS
330
47
102
}
330
47
100
AcDbScale
 70
     0
300
1/8" = 1'-0"
140
0.125
141
12.0
290
     0
  0
SCALE
  5
5F
102
{ACAD_REACTORS
330
47
102
}
330
47
100
AcDbScale
 70
     0
300
3/16" = 1'-0"
140
0.1875
141
12.0
290
     0
  0
SCALE
  5
60
102
{ACAD_REACTORS
330
47
102
}
330
47
100
AcDbScale
 70
     0
300
1/4" = 1'-0"
140
0.25
141
12.0
290
     0
  0
SCALE
  5
61
102
{ACAD_REACTORS
330
47
102
}
330
47
100
AcDbScale
 70
     0
300
3/8" = 1'-0"
140
0.375
141
12.0
290
     0
  0
SCALE
  5
62
102
{ACAD_REACTORS
330
47
102
}
330
47
100
AcDbScale
 70
     0
300
1/2" = 1'-0"
140
0.5
141
12.0
290
     0
  0
SCALE
  5
63
102
{ACAD_REACTORS
330
47
102
}
330
47
100
AcDbScale
 70
     0
300
3/4" = 1'-0"
140
0.75
141
12.0
290
     0
  0
SCALE
  5
64
102
{ACAD_REACTORS
330
47
102
}
330
47
100
AcDbScale
 70
     0
300
1" = 1'-0"
140
1.0
141
12.0
290
     0
  0
SCALE
  5
65
102
{ACAD_REACTORS
330
47
102
}
330
47
100
AcDbScale
 70
     0
300
1-1/2" = 1'-0"
140
1.5
141
12.0
290
     0
  0
SCALE
  5
66
102
{ACAD_REACTORS
330
47
102
}
330
47
100
AcDbScale
 70
     0
300
3" = 1'-0"
140
3.0
141
12.0
290
     0
  0
SCALE
  5
67
102
{ACAD_REACTORS
330
47
102
}
330
47
100
AcDbScale
 70
     0
300
6" = 1'-0"
140
6.0
141
12.0
290
     0
  0
SCALE
  5
68
102
{ACAD_REACTORS
330
47
102
}
330
47
100
AcDbScale
 70
     0
300
1'-0" = 1'-0"
140
12.0
141
12.0
290
     0
  0
ENDSEC
  0
EOF
