  0
SECTION
  2
HEADER
  9
$ACADVER
  1
AC1015
  9
$ACADMAINTVER
 70
     6
  9
$DWGCODEPAGE
  3
ANSI_1252
  9
$INSBASE
 10
0.0
 20
0.0
 30
0.0
  9
$EXTMIN
 10
-26.0
 20
-26.0
 30
0.0
  9
$EXTMAX
 10
107.6245865932
 20
26.0
 30
0.0
  9
$LIMMIN
 10
0.0
 20
0.0
  9
$LIMMAX
 10
420.0
 20
297.0
  9
$ORTHOMODE
 70
     0
  9
$REGENMODE
 70
     1
  9
$FILLMODE
 70
     1
  9
$QTEXTMODE
 70
     0
  9
$MIRRTEXT
 70
     1
  9
$LTSCALE
 40
1.0
  9
$ATTMODE
 70
     1
  9
$TEXTSIZE
 40
3.5
  9
$TRACEWID
 40
1.0
  9
$TEXTSTYLE
  7
Standard
  9
$CLAYER
  8
0
  9
$CELTYPE
  6
ByLayer
  9
$CECOLOR
 62
   256
  9
$CELTSCALE
 40
1.0
  9
$DISPSILH
 70
     0
  9
$DIMSCALE
 40
1.0
  9
$DIMASZ
 40
3.302
  9
$DIMEXO
 40
1.0
  9
$DIMDLI
 40
3.75
  9
$DIMRND
 40
0.0
  9
$DIMDLE
 40
0.0
  9
$DIMEXE
 40
1.0
  9
$DIMTP
 40
0.0
  9
$DIMTM
 40
0.0
  9
$DIMTXT
 40
3.5
  9
$DIMCEN
 40
2.5
  9
$DIMTSZ
 40
0.0
  9
$DIMTOL
 70
     0
  9
$DIMLIM
 70
     0
  9
$DIMTIH
 70
     1
  9
$DIMTOH
 70
     1
  9
$DIMSE1
 70
     0
  9
$DIMSE2
 70
     0
  9
$DIMTAD
 70
     1
  9
$DIMZIN
 70
     1
  9
$DIMBLK
  1

  9
$DIMASO
 70
     1
  9
$DIMSHO
 70
     1
  9
$DIMPOST
  1

  9
$DIMAPOST
  1

  9
$DIMALT
 70
     0
  9
$DIMALTD
 70
     3
  9
$DIMALTF
 40
0.0393700787
  9
$DIMLFAC
 40
1.0
  9
$DIMTOFL
 70
     1
  9
$DIMTVP
 40
0.0
  9
$DIMTIX
 70
     0
  9
$DIMSOXD
 70
     0
  9
$DIMSAH
 70
     0
  9
$DIMBLK1
  1

  9
$DIMBLK2
  1

  9
$DIMSTYLE
  2
ISO-25
  9
$DIMCLRD
 70
     0
  9
$DIMCLRE
 70
     0
  9
$DIMCLRT
 70
     0
  9
$DIMTFAC
 40
1.0
  9
$DIMGAP
 40
1.524
  9
$DIMJUST
 70
     0
  9
$DIMSD1
 70
     0
  9
$DIMSD2
 70
     0
  9
$DIMTOLJ
 70
     0
  9
$DIMTZIN
 70
     1
  9
$DIMALTZ
 70
     0
  9
$DIMALTTZ
 70
     0
  9
$DIMUPT
 70
     0
  9
$DIMDEC
 70
     2
  9
$DIMTDEC
 70
     2
  9
$DIMALTU
 70
     2
  9
$DIMALTTD
 70
     3
  9
$DIMTXSTY
  7
Standard
  9
$DIMAUNIT
 70
     0
  9
$DIMADEC
 70
     2
  9
$DIMALTRND
 40
0.0
  9
$DIMAZIN
 70
     0
  9
$DIMDSEP
 70
    44
  9
$DIMATFIT
 70
     3
  9
$DIMFRAC
 70
     0
  9
$DIMLDRBLK
  1

  9
$DIMLUNIT
 70
     2
  9
$DIMLWD
 70
    -2
  9
$DIMLWE
 70
    -2
  9
$DIMTMOVE
 70
     0
  9
$LUNITS
 70
     2
  9
$LUPREC
 70
     2
  9
$SKETCHINC
 40
1.0
  9
$FILLETRAD
 40
10.0
  9
$AUNITS
 70
     0
  9
$AUPREC
 70
     2
  9
$MENU
  1
.
  9
$ELEVATION
 40
0.0
  9
$PELEVATION
 40
0.0
  9
$THICKNESS
 40
0.0
  9
$LIMCHECK
 70
     0
  9
$CHAMFERA
 40
0.0
  9
$CHAMFERB
 40
0.0
  9
$CHAMFERC
 40
0.0
  9
$CHAMFERD
 40
0.0
  9
$SKPOLY
 70
     0
  9
$TDCREATE
 40
2458778.500928577
  9
$TDUCREATE
 40
2458778.45926191
  9
$TDUPDATE
 40
2458778.50095007
  9
$TDUUPDATE
 40
2458778.459283403
  9
$TDINDWG
 40
0.0000000116
  9
$TDUSRTIMER
 40
0.0000000116
  9
$USRTIMER
 70
     1
  9
$ANGBASE
 50
0.0
  9
$ANGDIR
 70
     0
  9
$PDMODE
 70
     0
  9
$PDSIZE
 40
-1.0
  9
$PLINEWID
 40
0.0
  9
$SPLFRAME
 70
     0
  9
$SPLINETYPE
 70
     6
  9
$SPLINESEGS
 70
     8
  9
$HANDSEED
  5
37B
  9
$SURFTAB1
 70
     6
  9
$SURFTAB2
 70
     6
  9
$SURFTYPE
 70
     6
  9
$SURFU
 70
     6
  9
$SURFV
 70
     6
  9
$UCSBASE
  2

  9
$UCSNAME
  2

  9
$UCSORG
 10
0.0
 20
0.0
 30
0.0
  9
$UCSXDIR
 10
1.0
 20
0.0
 30
0.0
  9
$UCSYDIR
 10
0.0
 20
1.0
 30
0.0
  9
$UCSORTHOREF
  2

  9
$UCSORTHOVIEW
 70
     0
  9
$UCSORGTOP
 10
0.0
 20
0.0
 30
0.0
  9
$UCSORGBOTTOM
 10
0.0
 20
0.0
 30
0.0
  9
$UCSORGLEFT
 10
0.0
 20
0.0
 30
0.0
  9
$UCSORGRIGHT
 10
0.0
 20
0.0
 30
0.0
  9
$UCSORGFRONT
 10
0.0
 20
0.0
 30
0.0
  9
$UCSORGBACK
 10
0.0
 20
0.0
 30
0.0
  9
$PUCSBASE
  2

  9
$PUCSNAME
  2

  9
$PUCSORG
 10
0.0
 20
0.0
 30
0.0
  9
$PUCSXDIR
 10
1.0
 20
0.0
 30
0.0
  9
$PUCSYDIR
 10
0.0
 20
1.0
 30
0.0
  9
$PUCSORTHOREF
  2

  9
$PUCSORTHOVIEW
 70
     0
  9
$PUCSORGTOP
 10
0.0
 20
0.0
 30
0.0
  9
$PUCSORGBOTTOM
 10
0.0
 20
0.0
 30
0.0
  9
$PUCSORGLEFT
 10
0.0
 20
0.0
 30
0.0
  9
$PUCSORGRIGHT
 10
0.0
 20
0.0
 30
0.0
  9
$PUCSORGFRONT
 10
0.0
 20
0.0
 30
0.0
  9
$PUCSORGBACK
 10
0.0
 20
0.0
 30
0.0
  9
$USERI1
 70
     0
  9
$USERI2
 70
     0
  9
$USERI3
 70
     0
  9
$USERI4
 70
     0
  9
$USERI5
 70
     0
  9
$USERR1
 40
0.0
  9
$USERR2
 40
0.0
  9
$USERR3
 40
0.0
  9
$USERR4
 40
0.0
  9
$USERR5
 40
0.0
  9
$WORLDVIEW
 70
     1
  9
$SHADEDGE
 70
     3
  9
$SHADEDIF
 70
    70
  9
$TILEMODE
 70
     1
  9
$MAXACTVP
 70
    64
  9
$PINSBASE
 10
0.0
 20
0.0
 30
0.0
  9
$PLIMCHECK
 70
     0
  9
$PEXTMIN
 10
-107.6238308473
 20
-26.0
 30
0.0
  9
$PEXTMAX
 10
26.0
 20
26.0
 30
0.0
  9
$PLIMMIN
 10
-118.0225725475
 20
-29.8995281376
  9
$PLIMMAX
 10
36.3987417002
 20
79.2872597143
  9
$UNITMODE
 70
     0
  9
$VISRETAIN
 70
     1
  9
$PLINEGEN
 70
     0
  9
$PSLTSCALE
 70
     1
  9
$TREEDEPTH
 70
  3020
  9
$CMLSTYLE
  2
Standard
  9
$CMLJUST
 70
     0
  9
$CMLSCALE
 40
20.0
  9
$PROXYGRAPHICS
 70
     1
  9
$MEASUREMENT
 70
     1
  9
$CELWEIGHT
370
    -1
  9
$ENDCAPS
280
     0
  9
$JOINSTYLE
280
     0
  9
$LWDISPLAY
290
     1
  9
$INSUNITS
 70
     4
  9
$HYPERLINKBASE
  1

  9
$STYLESHEET
  1

  9
$XEDIT
290
     1
  9
$CEPSNTYPE
380
     0
  9
$PSTYLEMODE
290
     1
  9
$FINGERPRINTGUID
  2
{955c37c0-c890-46d5-a6c3-419dd5e41815}
  9
$VERSIONGUID
  2
{FAEB1C32-E019-11D5-929B-00C0DF256EC4}
  9
$EXTNAMES
290
     1
  9
$PSVPSCALE
 40
0.0
  9
$OLESTARTUP
290
     0
  0
ENDSEC
  0
SECTION
  2
CLASSES
  0
CLASS
  1
ACDBDICTIONARYWDFLT
  2
AcDbDictionaryWithDefault
  3
ObjectDBX Classes
 90
        0
280
     0
281
     0
  0
CLASS
  1
VISUALSTYLE
  2
AcDbVisualStyle
  3
ObjectDBX Classes
 90
     4095
280
     0
281
     0
  0
CLASS
  1
MATERIAL
  2
AcDbMaterial
  3
ObjectDBX Classes
 90
     1153
280
     0
281
     0
  0
CLASS
  1
SCALE
  2
AcDbScale
  3
ObjectDBX Classes
 90
     1153
280
     0
281
     0
  0
CLASS
  1
TABLESTYLE
  2
AcDbTableStyle
  3
ObjectDBX Classes
 90
     4095
280
     0
281
     0
  0
CLASS
  1
MLEADERSTYLE
  2
AcDbMLeaderStyle
  3
ACDB_MLEADERSTYLE_CLASS
 90
     4095
280
     0
281
     0
  0
CLASS
  1
SUN
  2
AcDbSun
  3
SCENEOE
 90
     1153
280
     0
281
     0
  0
CLASS
  1
ACDBPLACEHOLDER
  2
AcDbPlaceHolder
  3
ObjectDBX Classes
 90
        0
280
     0
281
     0
  0
CLASS
  1
LAYOUT
  2
AcDbLayout
  3
ObjectDBX Classes
 90
        0
280
     0
281
     0
  0
ENDSEC
  0
SECTION
  2
TABLES
  0
TABLE
  2
VPORT
  5
8
330
0
100
AcDbSymbolTable
 70
     1
  0
VPORT
  5
29
330
8
100
AcDbSymbolTableRecord
100
AcDbViewportTableRecord
  2
*Active
 70
     0
 10
0.0
 20
0.0
 11
1.0
 21
1.0
 12
40.8122932966
 22
0.0
 13
0.0
 23
0.0
 14
10.0
 24
10.0
 15
10.0
 25
10.0
 16
0.0
 26
0.0
 36
1.0
 17
0.0
 27
0.0
 37
0.0
 40
53.04
 41
2.5697035883
 42
50.0
 43
0.0
 44
0.0
 50
0.0
 51
0.0
 71
     0
 72
   100
 73
     1
 74
     3
 75
     0
 76
     0
 77
     0
 78
     0
281
     0
 65
     1
110
0.0
120
0.0
130
0.0
111
1.0
121
0.0
131
0.0
112
0.0
122
1.0
132
0.0
 79
     0
146
0.0
  0
ENDTAB
  0
TABLE
  2
LTYPE
  5
5
330
0
100
AcDbSymbolTable
 70
     6
  0
LTYPE
  5
14
330
5
100
AcDbSymbolTableRecord
100
AcDbLinetypeTableRecord
  2
ByBlock
 70
     0
  3

 72
    65
 73
     0
 40
0.0
  0
LTYPE
  5
15
330
5
100
AcDbSymbolTableRecord
100
AcDbLinetypeTableRecord
  2
ByLayer
 70
     0
  3

 72
    65
 73
     0
 40
0.0
  0
LTYPE
  5
16
330
5
100
AcDbSymbolTableRecord
100
AcDbLinetypeTableRecord
  2
Continuous
 70
     0
  3
Solid line
 72
    65
 73
     0
 40
0.0
  0
LTYPE
  5
6E
330
5
100
AcDbSymbolTableRecord
100
AcDbLinetypeTableRecord
  2
HIDDEN
 70
     0
  3
Hidden __ __ __ __ __ __ __ __ __ __ __ __ __ __
 72
    65
 73
     2
 40
1.905
 49
1.27
 74
     0
 49
-0.635
 74
     0
  0
LTYPE
  5
6F
330
5
100
AcDbSymbolTableRecord
100
AcDbLinetypeTableRecord
  2
PHANTOM
 70
     0
  3
Phantom ______  __  __  ______  __  __  ______
 72
    65
 73
     6
 40
12.7
 49
6.35
 74
     0
 49
-1.27
 74
     0
 49
1.27
 74
     0
 49
-1.27
 74
     0
 49
1.27
 74
     0
 49
-1.27
 74
     0
  0
LTYPE
  5
70
330
5
100
AcDbSymbolTableRecord
100
AcDbLinetypeTableRecord
  2
CENTER
 70
     0
  3
Center ____ _ ____ _ ____ _ ____ _ ____ _ ____
 72
    65
 73
     4
 40
10.16
 49
6.35
 74
     0
 49
-1.27
 74
     0
 49
1.27
 74
     0
 49
-1.27
 74
     0
  0
LTYPE
  5
71
330
5
100
AcDbSymbolTableRecord
100
AcDbLinetypeTableRecord
  2
CENTERX2
 70
     0
  3
Center (2x) ________  __  ________  __  _____
 72
    65
 73
     4
 40
20.32
 49
12.7
 74
     0
 49
-2.54
 74
     0
 49
2.54
 74
     0
 49
-2.54
 74
     0
  0
LTYPE
  5
72
330
5
100
AcDbSymbolTableRecord
100
AcDbLinetypeTableRecord
  2
DOT2
 70
     0
  3
Dot (.5x) ........................................
 72
    65
 73
     2
 40
0.635
 49
0.0
 74
     0
 49
-0.635
 74
     0
  0
ENDTAB
  0
TABLE
  2
LAYER
  5
2
330
0
100
AcDbSymbolTable
 70
     1
  0
LAYER
  5
10
330
2
100
AcDbSymbolTableRecord
100
AcDbLayerTableRecord
  2
0
 70
     0
 62
     7
  6
Continuous
370
    -3
390
F
  0
ENDTAB
  0
TABLE
  2
STYLE
  5
3
330
0
100
AcDbSymbolTable
 70
     1
  0
STYLE
  5
11
330
3
100
AcDbSymbolTableRecord
100
AcDbTextStyleTableRecord
  2
Standard
 70
     0
 40
0.0
 41
1.0
 50
0.0
 71
     0
 42
3.5
  3
txt
  4

  0
ENDTAB
  0
TABLE
  2
VIEW
  5
6
330
0
100
AcDbSymbolTable
 70
     0
  0
ENDTAB
  0
TABLE
  2
UCS
  5
7
330
0
100
AcDbSymbolTable
 70
     0
  0
ENDTAB
  0
TABLE
  2
APPID
  5
9
330
0
100
AcDbSymbolTable
 70
     1
  0
APPID
  5
12
330
9
100
AcDbSymbolTableRecord
100
AcDbRegAppTableRecord
  2
ACAD
 70
     0
  0
ENDTAB
  0
TABLE
  2
DIMSTYLE
  5
A
330
0
100
AcDbSymbolTable
 70
     1
100
AcDbDimStyleTable
  0
DIMSTYLE
105
27
330
A
100
AcDbSymbolTableRecord
100
AcDbDimStyleTableRecord
  2
ISO-25
 70
     0
 41
2.5
 42
0.625
 43
3.75
 44
1.25
 73
     0
 74
     0
 77
     1
 78
     8
140
2.5
141
2.5
143
0.0393700787
147
0.625
171
     3
172
     1
178
     0
271
     2
272
     2
274
     3
278
    44
283
     0
284
     8
340
11
  0
ENDTAB
  0
TABLE
  2
BLOCK_RECORD
  5
1
330
0
100
AcDbSymbolTable
 70
     7
  0
BLOCK_RECORD
  5
1F
330
1
100
AcDbSymbolTableRecord
100
AcDbBlockTableRecord
  2
*Model_Space
340
22
  0
BLOCK_RECORD
  5
1B
330
1
100
AcDbSymbolTableRecord
100
AcDbBlockTableRecord
  2
*Paper_Space
340
1E
  0
BLOCK_RECORD
  5
23
330
1
100
AcDbSymbolTableRecord
100
AcDbBlockTableRecord
  2
*Paper_Space0
340
26
  0
BLOCK_RECORD
  5
163
330
1
100
AcDbSymbolTableRecord
100
AcDbBlockTableRecord
  2
*Paper_Space1
340
164
  0
BLOCK_RECORD
  5
224
330
1
100
AcDbSymbolTableRecord
100
AcDbBlockTableRecord
  2
*Paper_Space2
340
225
  0
BLOCK_RECORD
  5
269
330
1
100
AcDbSymbolTableRecord
100
AcDbBlockTableRecord
  2
*Paper_Space3
340
26A
  0
BLOCK_RECORD
  5
2AE
330
1
100
AcDbSymbolTableRecord
100
AcDbBlockTableRecord
  2
*Paper_Space4
340
2AF
  0
BLOCK_RECORD
  5
2EB
330
1
100
AcDbSymbolTableRecord
100
AcDbBlockTableRecord
  2
*Paper_Space5
340
2EC
  0
BLOCK_RECORD
  5
329
330
1
100
AcDbSymbolTableRecord
100
AcDbBlockTableRecord
  2
*Paper_Space6
340
32A
  0
ENDTAB
  0
ENDSEC
  0
SECTION
  2
BLOCKS
  0
BLOCK
  5
20
330
1F
100
AcDbEntity
  8
0
100
AcDbBlockBegin
  2
*Model_Space
 70
     0
 10
0.0
 20
0.0
 30
0.0
  3
*Model_Space
  1

  0
ENDBLK
  5
21
330
1F
100
AcDbEntity
  8
0
100
AcDbBlockEnd
  0
BLOCK
  5
1C
330
1B
100
AcDbEntity
 67
     1
  8
0
100
AcDbBlockBegin
  2
*Paper_Space
 70
     0
 10
0.0
 20
0.0
 30
0.0
  3
*Paper_Space
  1

  0
ENDBLK
  5
1D
330
1B
100
AcDbEntity
 67
     1
  8
0
100
AcDbBlockEnd
  0
BLOCK
  5
24
330
23
100
AcDbEntity
  8
0
100
AcDbBlockBegin
  2
*Paper_Space0
 70
     0
 10
0.0
 20
0.0
 30
0.0
  3
*Paper_Space0
  1

  0
SPLINE
  5
14B
330
23
100
AcDbEntity
  8
0
  6
Continuous
 62
     7
370
    25
100
AcDbSpline
210
0.0
220
0.0
230
1.0
 70
    24
 71
     3
 72
    22
 73
    18
 74
     0
 42
0.000000001
 43
0.00000001
 40
0.0
 40
0.0
 40
0.0
 40
0.0
 40
0.125
 40
0.125
 40
0.25
 40
0.25
 40
0.375
 40
0.375
 40
0.5
 40
0.5
 40
0.625
 40
0.625
 40
0.75
 40
0.75
 40
0.875
 40
0.875
 40
1.0
 40
1.0
 40
1.0
 40
1.0
 10
269.40332833093
 20
20.5447582003467
 30
0.0
 10
269.40332833093
 20
20.5447582003467
 30
0.0
 10
269.40332833093
 20
20.10348270509143
 30
0.0
 10
269.40332833093
 20
18.10106894058618
 30
0.0
 10
269.40332833093
 20
16.53314462786423
 30
0.0
 10
269.40332833093
 20
12.52153105474197
 30
0.0
 10
269.40332833093
 20
10.09141388385607
 30
0.0
 10
269.40332833093
 20
5.033419721695011
 30
0.0
 10
269.40332833093
 20
2.421222973759583
 30
0.0
 10
269.40332833093
 20
-2.421222973759577
 30
0.0
 10
269.40332833093
 20
-5.033419721745525
 30
0.0
 10
269.40332833093
 20
-10.09141388380553
 30
0.0
 10
269.40332833093
 20
-12.52153105482204
 30
0.0
 10
269.40332833093
 20
-16.53314462778416
 30
0.0
 10
269.40332833093
 20
-18.10106894064601
 30
0.0
 10
269.40332833093
 20
-20.10348270503158
 30
0.0
 10
269.40332833093
 20
-20.5447582003467
 30
0.0
 10
269.40332833093
 20
-20.5447582003467
 30
0.0
  0
LWPOLYLINE
  5
14C
330
23
100
AcDbEntity
  8
0
  6
Continuous
 62
     7
370
    25
100
AcDbPolyline
 90
       42
 70
   128
 43
0.0
 10
271.0
 20
21.988120481
 10
271.6262213865
 20
21.9773678882
 10
272.2502218236
 20
21.832192992
 10
272.8681846769
 20
21.5534837397
 10
273.4763302404
 20
21.1429448277
 10
274.0709388544
 20
20.6030872748
 10
274.6483736568
 20
19.9372130642
 10
275.2051028272
 20
19.1493949467
 10
275.7377211889
 20
18.2444515305
 10
276.2429710368
 20
17.2279178088
 10
276.7177620623
 20
16.1060113051
 10
277.159190255
 20
14.8855940448
 10
277.564555665
 20
13.5741305843
 10
277.9313789165
 20
12.1796423544
 10
278.257416373
 20
10.7106585985
 10
278.54067386
 20
9.1761642044
 10
278.7794188623
 20
7.5855447485
 10
278.9721911207
 20
5.9485290907
 10
279.1178115636
 20
4.2751298685
 10
279.2153895186
 20
2.5755822554
 10
279.2643281602
 20
0.8602813592
 10
279.2643281602
 20
-0.8602813592
 10
279.2153895186
 20
-2.5755822554
 10
279.1178115636
 20
-4.2751298685
 10
278.9721911207
 20
-5.9485290907
 10
278.7794188623
 20
-7.5855447485
 10
278.54067386
 20
-9.1761642044
 10
278.257416373
 20
-10.7106585985
 10
277.9313789165
 20
-12.1796423544
 10
277.564555665
 20
-13.5741305843
 10
277.159190255
 20
-14.8855940448
 10
276.7177620623
 20
-16.1060113051
 10
276.2429710368
 20
-17.2279178088
 10
275.7377211889
 20
-18.2444515305
 10
275.2051028272
 20
-19.1493949467
 10
274.6483736568
 20
-19.9372130642
 10
274.0709388544
 20
-20.6030872748
 10
273.4763302404
 20
-21.1429448277
 10
272.8681846769
 20
-21.5534837397
 10
272.2502218236
 20
-21.832192992
 10
271.6262213865
 20
-21.9773678882
 10
271.0
 20
-21.988120481
  0
LWPOLYLINE
  5
14F
330
23
100
AcDbEntity
  8
0
  6
Continuous
 62
     7
370
    25
100
AcDbPolyline
 90
       41
 70
   128
 43
0.0
 10
271.0
 20
20.4872507255
 10
271.599006162
 20
20.4792163643
 10
272.1958474037
 20
20.3391902472
 10
272.7866769898
 20
20.0680748646
 10
273.367686931
 20
19.6676175974
 10
273.9351325275
 20
19.1403994555
 10
274.4853565033
 20
18.4898184423
 10
275.014812579
 20
17.7200676544
 10
275.5200883271
 20
16.8361082561
 10
275.9979271664
 20
15.843637504
 10
276.4452493507
 20
14.7490520277
 10
276.8591718186
 20
13.5594066018
 10
277.2370267748
 20
12.2823686774
 10
277.5763788851
 20
10.9261689638
 10
277.875040972
 20
9.4995483806
 10
278.1310881116
 20
8.0117017207
 10
278.3428700399
 20
6.4722183889
 10
278.5090217893
 20
4.8910205962
 10
278.6284724857
 20
3.2782994101
 10
278.7004522507
 20
1.6444490709
 10
278.7244971634
 20
0.0
 10
278.7004522507
 20
-1.6444490709
 10
278.6284724857
 20
-3.2782994101
 10
278.5090217893
 20
-4.8910205962
 10
278.3428700399
 20
-6.4722183889
 10
278.1310881116
 20
-8.0117017207
 10
277.875040972
 20
-9.4995483806
 10
277.5763788851
 20
-10.9261689638
 10
277.2370267748
 20
-12.2823686774
 10
276.8591718186
 20
-13.5594066018
 10
276.4452493507
 20
-14.7490520277
 10
275.9979271664
 20
-15.843637504
 10
275.5200883271
 20
-16.8361082561
 10
275.014812579
 20
-17.7200676544
 10
274.4853565033
 20
-18.4898184423
 10
273.9351325275
 20
-19.1403994555
 10
273.367686931
 20
-19.6676175974
 10
272.7866769898
 20
-20.0680748646
 10
272.1958474037
 20
-20.3391902472
 10
271.599006162
 20
-20.4792163643
 10
271.0
 20
-20.4872507255
  0
LINE
  5
153
330
23
100
AcDbEntity
  8
0
  6
Continuous
 62
     7
370
    25
100
AcDbLine
 10
150.0
 20
-26.0
 30
0.0
 11
155.0
 21
-26.0
 31
0.0
  0
LINE
  5
154
330
23
100
AcDbEntity
  8
0
  6
Continuous
 62
     7
370
    25
100
AcDbLine
 10
155.0
 20
26.0
 30
0.0
 11
150.0
 21
26.0
 31
0.0
  0
LINE
  5
155
330
23
100
AcDbEntity
  8
0
  6
Continuous
 62
     7
370
    25
100
AcDbLine
 10
155.0
 20
-22.0
 30
0.0
 11
269.0
 21
-22.0
 31
0.0
  0
LINE
  5
156
330
23
100
AcDbEntity
  8
0
  6
Continuous
 62
     7
370
    25
100
AcDbLine
 10
269.0
 20
22.0
 30
0.0
 11
155.0
 21
22.0
 31
0.0
  0
LINE
  5
157
330
23
100
AcDbEntity
  8
0
  6
Continuous
 62
     7
370
    25
100
AcDbLine
 10
269.4033283309
 20
-20.5447582003
 30
0.0
 11
273.6664766917
 21
-19.354629283
 31
0.0
  0
LINE
  5
158
330
23
100
AcDbEntity
  8
0
  6
Continuous
 62
     7
370
    25
100
AcDbLine
 10
273.6638719443
 20
19.3553564416
 30
0.0
 11
269.4033283309
 21
20.5447582003
 31
0.0
  0
LINE
  5
159
330
23
100
AcDbEntity
  8
0
  6
Continuous
 62
     7
370
    25
100
AcDbLine
 10
269.4033283309
 20
20.5447582003
 30
0.0
 11
269.0
 21
19.1
 31
0.0
  0
LINE
  5
15A
330
23
100
AcDbEntity
  8
0
  6
Continuous
 62
     7
370
    25
100
AcDbLine
 10
269.0
 20
-19.1
 30
0.0
 11
269.4033283309
 21
-20.5447582003
 31
0.0
  0
LINE
  5
15B
330
23
100
AcDbEntity
  8
0
  6
Continuous
 62
     7
370
    25
100
AcDbLine
 10
271.263107361
 20
-22.0
 30
0.0
 11
297.5
 21
-22.0
 31
0.0
  0
LINE
  5
15C
330
23
100
AcDbEntity
  8
0
  6
Continuous
 62
     7
370
    25
100
AcDbLine
 10
297.5
 20
22.0
 30
0.0
 11
271.263107361
 21
22.0
 31
0.0
  0
LINE
  5
15D
330
23
100
AcDbEntity
  8
0
  6
Continuous
 62
     7
370
    25
100
AcDbLine
 10
155.0
 20
26.0
 30
0.0
 11
155.0
 21
-26.0
 31
0.0
  0
LINE
  5
15E
330
23
100
AcDbEntity
  8
0
  6
Continuous
 62
     7
370
    25
100
AcDbLine
 10
150.0
 20
26.0
 30
0.0
 11
150.0
 21
-26.0
 31
0.0
  0
LINE
  5
15F
330
23
100
AcDbEntity
  8
0
  6
Continuous
 62
     7
370
    25
100
AcDbLine
 10
269.0
 20
22.0
 30
0.0
 11
269.0
 21
-22.0
 31
0.0
  0
LINE
  5
160
330
23
100
AcDbEntity
  8
0
  6
Continuous
 62
     7
370
    25
100
AcDbLine
 10
297.5
 20
22.0
 30
0.0
 11
297.5
 21
-22.0
 31
0.0
  0
LINE
  5
161
330
23
100
AcDbEntity
  8
0
  6
Continuous
 62
     7
370
    25
100
AcDbLine
 10
271.0
 20
-21.988120481
 30
0.0
 11
271.0
 21
-20.1064900712
 31
0.0
  0
LINE
  5
162
330
23
100
AcDbEntity
  8
0
  6
Continuous
 62
     7
370
    25
100
AcDbLine
 10
271.0
 20
20.1605972336
 30
0.0
 11
271.0
 21
21.988120481
 31
0.0
  0
VIEWPORT
  5
36D
330
23
100
AcDbEntity
  8
0
100
AcDbViewport
 10
0.0
 20
0.0
 30
0.0
 40
205.6
 41
156.0
 68
     1
 69
     1
 12
40.8122932966
 22
0.0
 13
0.0
 23
0.0
 14
10.0
 24
10.0
 15
10.0
 25
10.0
 16
0.0
 26
0.0
 36
1.0
 17
0.0
 27
0.0
 37
0.0
 42
50.0
 43
0.0
 44
0.0
 45
103.4160711027
 50
0.0
 51
0.0
 72
   100
 90
   557152
  1

281
     0
 71
     1
 74
     0
110
0.0
120
0.0
130
0.0
111
1.0
121
0.0
131
0.0
112
0.0
122
1.0
132
0.0
 79
     0
146
0.0
  0
ENDBLK
  5
25
330
23
100
AcDbEntity
  8
0
100
AcDbBlockEnd
  0
BLOCK
  5
165
330
163
100
AcDbEntity
  8
0
100
AcDbBlockBegin
  2
*Paper_Space1
 70
     0
 10
0.0
 20
0.0
 30
0.0
  3
*Paper_Space1
  1

  0
SPLINE
  5
17D
330
163
100
AcDbEntity
  8
0
  6
Continuous
 62
     7
370
    25
100
AcDbSpline
210
0.0
220
0.0
230
1.0
 70
    24
 71
     3
 72
    14
 73
    10
 74
     0
 42
0.000000001
 43
0.00000001
 40
0.0
 40
0.0
 40
0.0
 40
0.0
 40
0.25
 40
0.25
 40
0.5
 40
0.5
 40
0.75
 40
0.75
 40
1.0
 40
1.0
 40
1.0
 40
1.0
 10
-269.40332833093
 20
-0.0000000000000029
 30
0.0
 10
-269.40332833093
 20
2.421222973632988
 30
0.0
 10
-269.40332833093
 20
5.033419721766283
 30
0.0
 10
-269.40332833093
 20
10.09141388378478
 30
0.0
 10
-269.40332833093
 20
12.52153105475024
 30
0.0
 10
-269.40332833093
 20
16.53314462785595
 30
0.0
 10
-269.40332833093
 20
18.10106894056609
 30
0.0
 10
-269.40332833093
 20
20.10348270511151
 30
0.0
 10
-269.40332833093
 20
20.5447582003467
 30
0.0
 10
-269.40332833093
 20
20.5447582003467
 30
0.0
  0
CIRCLE
  5
184
330
163
100
AcDbEntity
  8
0
  6
Continuous
 62
     7
370
    25
100
AcDbCircle
 10
-287.0
 20
-0.4059910429
 30
0.0
 40
6.500000000000005
  0
LWPOLYLINE
  5
185
330
163
100
AcDbEntity
  8
0
  6
Continuous
 62
     7
370
    25
100
AcDbPolyline
 90
       15
 70
   128
 43
0.0
 10
-238.3982886923
 20
1.3236387646
 10
-238.3629198729
 20
0.0640384085
 10
-238.2572581983
 20
-1.1797217424
 10
-238.0826324252
 20
-2.3920006824
 10
-237.8412385742
 20
-3.5575533004
 10
-237.5361123129
 20
-4.6617220962
 10
-237.1710907811
 20
-5.6906215063
 10
-236.7507643364
 20
-6.6313125237
 10
-236.2804188277
 20
-7.4719654131
 10
-235.7659691227
 20
-8.2020084767
 10
-235.2138847248
 20
-8.8122609993
 10
-234.6311084158
 20
-9.2950487013
 10
-234.0249689458
 20
-9.6443002474
 10
-233.4030888703
 20
-9.8556235967
 10
-232.7732886923
 20
-9.9263612354
  0
LWPOLYLINE
  5
186
330
163
100
AcDbEntity
  8
0
  6
Continuous
 62
     7
370
    25
100
AcDbPolyline
 90
       15
 70
   128
 43
0.0
 10
-232.7732886923
 20
12.5736387646
 10
-233.4030888703
 20
12.5029011259
 10
-234.0249689458
 20
12.2915777767
 10
-234.6311084158
 20
11.9423262306
 10
-235.2138847248
 20
11.4595385285
 10
-235.7659691227
 20
10.8492860059
 10
-236.2804188277
 20
10.1192429424
 10
-236.7507643364
 20
9.278590053
 10
-237.1710907811
 20
8.3378990355
 10
-237.5361123129
 20
7.3089996254
 10
-237.8412385742
 20
6.2048308297
 10
-238.0826324252
 20
5.0392782116
 10
-238.2572581983
 20
3.8269992716
 10
-238.3629198729
 20
2.5832391208
 10
-238.3982886923
 20
1.3236387646
  0
LWPOLYLINE
  5
187
330
163
100
AcDbEntity
  8
0
  6
Continuous
 62
     7
370
    25
100
AcDbPolyline
 90
       57
 70
   128
 43
0.0
 10
-233.5485464311
 20
1.3236387646
 10
-233.5131776117
 20
0.0640384085
 10
-233.4075159371
 20
-1.1797217424
 10
-233.2328901641
 20
-2.3920006824
 10
-232.991496313
 20
-3.5575533004
 10
-232.6863700517
 20
-4.6617220962
 10
-232.32134852
 20
-5.6906215063
 10
-231.9010220752
 20
-6.6313125237
 10
-231.4306765665
 20
-7.4719654131
 10
-230.9162268615
 20
-8.2020084767
 10
-230.3641424636
 20
-8.8122609993
 10
-229.7813661546
 20
-9.2950487013
 10
-229.1752266846
 20
-9.6443002474
 10
-228.5533466092
 20
-9.8556235967
 10
-227.9235464311
 20
-9.9263612354
 10
-227.293746253
 20
-9.8556235967
 10
-226.6718661776
 20
-9.6443002474
 10
-226.0657267076
 20
-9.2950487013
 10
-225.4829503985
 20
-8.8122609993
 10
-224.9308660007
 20
-8.2020084767
 10
-224.4164162956
 20
-7.4719654131
 10
-223.9460707869
 20
-6.6313125237
 10
-223.5257443422
 20
-5.6906215063
 10
-223.1607228104
 20
-4.6617220962
 10
-222.8555965491
 20
-3.5575533004
 10
-222.6142026981
 20
-2.3920006824
 10
-222.439576925
 20
-1.1797217424
 10
-222.3339152504
 20
0.0640384085
 10
-222.2985464311
 20
1.3236387646
 10
-222.3339152504
 20
2.5832391208
 10
-222.439576925
 20
3.8269992716
 10
-222.6142026981
 20
5.0392782116
 10
-222.8555965491
 20
6.2048308297
 10
-223.1607228104
 20
7.3089996254
 10
-223.5257443422
 20
8.3378990355
 10
-223.9460707869
 20
9.278590053
 10
-224.4164162956
 20
10.1192429424
 10
-224.9308660007
 20
10.8492860059
 10
-225.4829503985
 20
11.4595385285
 10
-226.0657267076
 20
11.9423262306
 10
-226.6718661776
 20
12.2915777767
 10
-227.293746253
 20
12.5029011259
 10
-227.9235464311
 20
12.5736387646
 10
-228.5533466092
 20
12.5029011259
 10
-229.1752266846
 20
12.2915777767
 10
-229.7813661546
 20
11.9423262306
 10
-230.3641424636
 20
11.4595385285
 10
-230.9162268615
 20
10.8492860059
 10
-231.4306765665
 20
10.1192429424
 10
-231.9010220752
 20
9.278590053
 10
-232.32134852
 20
8.3378990355
 10
-232.6863700517
 20
7.3089996254
 10
-232.991496313
 20
6.2048308297
 10
-233.2328901641
 20
5.0392782116
 10
-233.4075159371
 20
3.8269992716
 10
-233.5131776117
 20
2.5832391208
 10
-233.5485464311
 20
1.3236387646
  0
LWPOLYLINE
  5
188
330
163
100
AcDbEntity
  8
0
  6
Continuous
 62
     7
370
    25
100
AcDbPolyline
 90
       24
 70
   128
 43
0.0
 10
-232.2736362993
 20
1.9800905315
 10
-232.1782042999
 20
3.0824649278
 10
-232.0136108562
 20
4.1517143697
 10
-231.7825162828
 20
5.1705566384
 10
-231.4886557483
 20
6.1225242434
 10
-231.1367789042
 20
6.9922305857
 10
-230.732573116
 20
7.7656186506
 10
-230.2825715392
 20
8.4301882101
 10
-229.7940475241
 20
8.9751978636
 10
-229.2748970569
 20
9.3918386509
 10
-228.7335111376
 20
9.6733764301
 10
-228.1786401563
 20
9.815260722
 10
-227.6192524616
 20
9.8151982587
 10
-227.0643894055
 20
9.6731900497
 10
-226.5230192083
 20
9.3915313659
 10
-226.0038920062
 20
8.9747746407
 10
-225.515398423
 20
8.4296558897
 10
-225.0654339532
 20
7.7649858366
 10
-224.6612713473
 20
6.9915075063
 10
-224.3094430626
 20
6.1217225856
 10
-224.0156356801
 20
5.1696893594
 10
-223.784597992
 20
4.1507954873
 10
-223.6200642476
 20
3.0815092939
 10
-223.5246937964
 20
1.9791135918
  0
LWPOLYLINE
  5
189
330
163
100
AcDbEntity
  8
0
  6
Continuous
 62
     7
370
    25
100
AcDbPolyline
 90
       11
 70
   128
 43
0.0
 10
-232.1797932114
 20
-1.0030958032
 10
-232.4270405977
 20
-0.994465959
 10
-232.6594455177
 20
-0.8254944619
 10
-232.8517430205
 20
-0.5145503576
 10
-232.9830282689
 20
-0.0954366637
 10
-233.0390291238
 20
0.3862843877
 10
-233.0136576809
 20
0.8782444611
 10
-232.9096720932
 20
1.3269621278
 10
-232.7383767287
 20
1.6836568806
 10
-232.5183932629
 20
1.9095521073
 10
-232.2736362993
 20
1.9800905315
  0
LWPOLYLINE
  5
18A
330
163
100
AcDbEntity
  8
0
  6
Continuous
 62
     7
370
    25
100
AcDbPolyline
 90
       22
 70
   128
 43
0.0
 10
-223.6199107951
 20
-1.0141731881
 10
-223.7844909795
 20
-2.0841770427
 10
-224.0156616614
 20
-3.1037334464
 10
-224.3096816766
 20
-4.0563423482
 10
-224.6617927348
 20
-4.9265871459
 10
-225.066296426
 20
-5.7003841817
 10
-225.5166464409
 20
-6.3652106655
 10
-226.0055545135
 20
-6.9103073389
 10
-226.5251083712
 20
-7.3268525978
 10
-227.0668997837
 20
-7.6081052576
 10
-227.6221606377
 20
-7.7495136491
 10
-228.1819048365
 20
-7.7487892815
 10
-228.737073727
 20
-7.6059438774
 10
-229.2786827007
 20
-7.3232891841
 10
-229.7979665969
 20
-6.9053995602
 10
-230.2865215541
 20
-6.3590379472
 10
-230.7364410145
 20
-5.6930464203
 10
-231.1404436799
 20
-4.9182030927
 10
-231.4919913495
 20
-4.0470476868
 10
-231.7853947309
 20
-3.0936785976
 10
-232.0159055131
 20
-2.0735247296
 10
-232.1797932114
 20
-1.0030958032
  0
LWPOLYLINE
  5
18B
330
163
100
AcDbEntity
  8
0
  6
Continuous
 62
     7
370
    25
100
AcDbPolyline
 90
       11
 70
   128
 43
0.0
 10
-223.5246937964
 20
1.9791135918
 10
-223.2917517782
 20
1.8838432583
 10
-223.0854253027
 20
1.647534321
 10
-222.9264501231
 20
1.293935762
 10
-222.8308032006
 20
0.8585841379
 10
-222.8080970241
 20
0.3852321652
 10
-222.8606135581
 20
-0.0785484148
 10
-222.9830749056
 20
-0.4861477835
 10
-223.1631737352
 20
-0.796602318
 10
-223.382810165
 20
-0.9787114243
 10
-223.6199107951
 20
-1.0141731881
  0
LWPOLYLINE
  5
190
330
163
100
AcDbEntity
  8
0
  6
Continuous
 62
     7
370
    25
100
AcDbPolyline
 90
       26
 70
   128
 43
0.0
 10
-228.5847949176
 20
9.7255402803
 10
-228.3475167135
 20
9.6928250215
 10
-227.7972508134
 20
9.5148995749
 10
-227.2628788894
 20
9.1977020107
 10
-226.7531753136
 20
8.7464407043
 10
-226.2765094046
 20
8.1685253539
 10
-225.8407080035
 20
7.4734453134
 10
-225.4529269573
 20
6.6726137781
 10
-225.1195336199
 20
5.7791803794
 10
-224.8460023008
 20
4.8078152692
 10
-224.6368243767
 20
3.7744682357
 10
-224.4954345432
 20
2.6961068086
 10
-224.4241544177
 20
1.5904376527
 10
-224.4241544177
 20
0.475615825
 10
-224.4954345432
 20
-0.6300533308
 10
-224.6368243767
 20
-1.7084147579
 10
-224.8460023008
 20
-2.7417617914
 10
-225.1195336199
 20
-3.7131269017
 10
-225.4529269573
 20
-4.6065603003
 10
-225.8407080035
 20
-5.4073918357
 10
-226.2765094046
 20
-6.1024718761
 10
-226.7531753136
 20
-6.6803872266
 10
-227.2628788894
 20
-7.131648533
 10
-227.7972508134
 20
-7.4488460971
 10
-228.3475167135
 20
-7.6267715438
 10
-228.5847949171
 20
-7.6594868025
  0
LWPOLYLINE
  5
192
330
163
100
AcDbEntity
  8
0
  6
Continuous
 62
     7
370
    25
100
AcDbPolyline
 90
       35
 70
   128
 43
0.0
 10
-231.0627101039
 20
7.1492837212
 10
-230.9710191082
 20
7.2828464204
 10
-230.5249656455
 20
7.8253486597
 10
-230.0461313927
 20
8.2413227931
 10
-229.5434361261
 20
8.5230200096
 10
-229.0262441073
 20
8.6651928232
 10
-228.504189645
 20
8.6651928232
 10
-227.9869976262
 20
8.5230200096
 10
-227.4843023596
 20
8.2413227931
 10
-227.0054681068
 20
7.8253486597
 10
-226.5594146441
 20
7.2828464204
 10
-226.1544511033
 20
6.6239218656
 10
-225.7981211892
 20
5.860849513
 10
-225.4970626538
 20
5.0078439567
 10
-225.2568836479
 20
4.0807950762
 10
-225.0820582521
 20
3.0969720382
 10
-224.9758431326
 20
2.0747016045
 10
-224.9402168762
 20
1.0330267389
 10
-224.9758431326
 20
-0.0086481267
 10
-225.0820582521
 20
-1.0309185605
 10
-225.2568836479
 20
-2.0147415984
 10
-225.4970626538
 20
-2.9417904789
 10
-225.7981211892
 20
-3.7947960352
 10
-226.1544511033
 20
-4.5578683878
 10
-226.5594146441
 20
-5.2167929427
 10
-227.0054681068
 20
-5.7592951819
 10
-227.4843023596
 20
-6.1752693153
 10
-227.9869976262
 20
-6.4569665319
 10
-228.504189645
 20
-6.5991393454
 10
-229.0262441073
 20
-6.5991393454
 10
-229.5434361261
 20
-6.4569665319
 10
-230.0461313927
 20
-6.1752693153
 10
-230.5249656455
 20
-5.7592951819
 10
-230.9710191082
 20
-5.2167929427
 10
-231.0627101037
 20
-5.0832302438
  0
LWPOLYLINE
  5
193
330
163
100
AcDbEntity
  8
0
  6
Continuous
 62
     7
370
    25
100
AcDbPolyline
 90
        3
 70
   128
 43
0.0
 10
-232.4503245319
 20
-1.0169552765
 10
-232.5545906197
 20
-0.0086481267
 10
-232.5902168762
 20
1.0330267389
  0
LWPOLYLINE
  5
194
330
163
100
AcDbEntity
  8
0
  6
Continuous
 62
     7
370
    25
100
AcDbPolyline
 90
       22
 70
   128
 43
0.0
 10
-229.5902168762
 20
1.0330267389
 10
-229.5535644409
 20
0.5466807011
 10
-229.446863865
 20
0.1035486431
 10
-229.2795959627
 20
-0.2569952072
 10
-229.0666232213
 20
-0.5029149464
 10
-228.8268692034
 20
-0.6123595265
 10
-228.5816371056
 20
-0.5756043162
 10
-228.3527168762
 20
-0.3959151774
 10
-228.1604490819
 20
-0.0892582784
 10
-228.0219175601
 20
0.3171185693
 10
-227.9494314445
 20
0.7871069997
 10
-227.9494314445
 20
1.2789464781
 10
-228.0219175601
 20
1.7489349084
 10
-228.1604490819
 20
2.1553117562
 10
-228.3527168762
 20
2.4619686551
 10
-228.5816371056
 20
2.641657794
 10
-228.8268692034
 20
2.6784130042
 10
-229.0666232213
 20
2.5689684241
 10
-229.2795959627
 20
2.323048685
 10
-229.446863865
 20
1.9625048347
 10
-229.5535644409
 20
1.5193727767
 10
-229.5902168762
 20
1.0330267389
  0
LINE
  5
1CF
330
163
100
AcDbEntity
  8
0
  6
Continuous
 62
     7
370
    25
100
AcDbLine
 10
-150.0
 20
26.0
 30
0.0
 11
-155.0
 21
26.0
 31
0.0
  0
LINE
  5
1D0
330
163
100
AcDbEntity
  8
0
  6
Continuous
 62
     7
370
    25
100
AcDbLine
 10
-155.0
 20
-26.0
 30
0.0
 11
-150.0
 21
-26.0
 31
0.0
  0
LINE
  5
1D1
330
163
100
AcDbEntity
  8
0
  6
Continuous
 62
     7
370
    25
100
AcDbLine
 10
-155.0
 20
22.0
 30
0.0
 11
-269.0
 21
22.0
 31
0.0
  0
LINE
  5
1D2
330
163
100
AcDbEntity
  8
0
  6
Continuous
 62
     7
370
    25
100
AcDbLine
 10
-269.0
 20
-22.0
 30
0.0
 11
-155.0
 21
-22.0
 31
0.0
  0
LINE
  5
1D3
330
163
100
AcDbEntity
  8
0
  6
Continuous
 62
     7
370
    25
100
AcDbLine
 10
-269.4033283309
 20
-20.5447582003
 30
0.0
 11
-269.0
 21
-19.1
 31
0.0
  0
LINE
  5
1D4
330
163
100
AcDbEntity
  8
0
  6
Continuous
 62
     7
370
    25
100
AcDbLine
 10
-269.0
 20
19.1
 30
0.0
 11
-269.4033283309
 21
20.5447582003
 31
0.0
  0
LINE
  5
1D5
330
163
100
AcDbEntity
  8
0
  6
Continuous
 62
     7
370
    25
100
AcDbLine
 10
-269.4033283309
 20
20.5447582003
 30
0.0
 11
-271.0
 21
20.0990206927
 31
0.0
  0
LINE
  5
1D6
330
163
100
AcDbEntity
  8
0
  6
Continuous
 62
     7
370
    25
100
AcDbLine
 10
-271.0
 20
-20.0990206927
 30
0.0
 11
-269.4033283309
 21
-20.5447582003
 31
0.0
  0
LINE
  5
1D7
330
163
100
AcDbEntity
  8
0
  6
Continuous
 62
     7
370
    25
100
AcDbLine
 10
-271.263107361
 20
22.0
 30
0.0
 11
-297.5
 21
22.0
 31
0.0
  0
LINE
  5
1D8
330
163
100
AcDbEntity
  8
0
  6
Continuous
 62
     7
370
    25
100
AcDbLine
 10
-297.5
 20
-22.0
 30
0.0
 11
-271.263107361
 21
-22.0
 31
0.0
  0
LINE
  5
1D9
330
163
100
AcDbEntity
  8
0
  6
Continuous
 62
     7
370
    25
100
AcDbLine
 10
-232.7732886923
 20
-9.9263612354
 30
0.0
 11
-227.9235464311
 21
-9.9263612354
 31
0.0
  0
LINE
  5
1DA
330
163
100
AcDbEntity
  8
0
  6
Continuous
 62
     7
370
    25
100
AcDbLine
 10
-227.9235464311
 20
12.5736387646
 30
0.0
 11
-232.7732886923
 21
12.5736387646
 31
0.0
  0
LINE
  5
1DB
330
163
100
AcDbEntity
  8
0
  6
Continuous
 62
     7
370
    25
100
AcDbLine
 10
-150.0
 20
-26.0
 30
0.0
 11
-150.0
 21
26.0
 31
0.0
  0
LINE
  5
1DC
330
163
100
AcDbEntity
  8
0
  6
Continuous
 62
     7
370
    25
100
AcDbLine
 10
-155.0
 20
-26.0
 30
0.0
 11
-155.0
 21
26.0
 31
0.0
  0
LINE
  5
1DD
330
163
100
AcDbEntity
  8
0
  6
Continuous
 62
     7
370
    25
100
AcDbLine
 10
-238.5
 20
13.8858620488
 30
0.0
 11
-238.5
 21
-10.7920633097
 31
0.0
  0
LINE
  5
1DE
330
163
100
AcDbEntity
  8
0
  6
Continuous
 62
     7
370
    25
100
AcDbLine
 10
-269.0
 20
-22.0
 30
0.0
 11
-269.0
 21
22.0
 31
0.0
  0
LINE
  5
1DF
330
163
100
AcDbEntity
  8
0
  6
Continuous
 62
     7
370
    25
100
AcDbLine
 10
-269.4033283309
 20
-20.5447582003
 30
0.0
 11
-269.4033283309
 21
0.0
 31
0.0
  0
LINE
  5
1E0
330
163
100
AcDbEntity
  8
0
  6
Continuous
 62
     7
370
    25
100
AcDbLine
 10
-271.0
 20
21.988120481
 30
0.0
 11
-271.263107361
 21
22.0
 31
0.0
  0
LINE
  5
1E1
330
163
100
AcDbEntity
  8
0
  6
Continuous
 62
     7
370
    25
100
AcDbLine
 10
-271.263107361
 20
-22.0
 30
0.0
 11
-271.0
 21
-21.988120481
 31
0.0
  0
LINE
  5
1E2
330
163
100
AcDbEntity
  8
0
  6
Continuous
 62
     7
370
    25
100
AcDbLine
 10
-297.5
 20
-22.0
 30
0.0
 11
-297.5
 21
22.0
 31
0.0
  0
LINE
  5
1E3
330
163
100
AcDbEntity
  8
0
  6
Continuous
 62
     7
370
    25
100
AcDbLine
 10
-271.0
 20
-21.988120481
 30
0.0
 11
-271.0
 21
21.988120481
 31
0.0
  0
LINE
  5
1E4
330
163
100
AcDbEntity
  8
0
  6
Continuous
 62
     7
370
    25
100
AcDbLine
 10
-232.1797932114
 20
-1.0030958032
 30
0.0
 11
-232.4012249436
 21
-1.0030958032
 31
0.0
  0
LINE
  5
1E5
330
163
100
AcDbEntity
  8
0
  6
Continuous
 62
     7
370
    25
100
AcDbLine
 10
-232.2736362993
 20
1.9800905315
 30
0.0
 11
-232.3073818557
 21
1.9800905315
 31
0.0
  0
LINE
  5
1E6
330
163
100
AcDbEntity
  8
0
  6
Continuous
 62
     7
370
    25
100
AcDbLine
 10
-223.5246937964
 20
1.9791135918
 30
0.0
 11
-224.4410140691
 21
1.9791135918
 31
0.0
  0
LINE
  5
1E7
330
163
100
AcDbEntity
  8
0
  6
Continuous
 62
     7
370
    25
100
AcDbLine
 10
-223.6199107951
 20
-1.0141731881
 30
0.0
 11
-224.5373636248
 21
-1.0141731881
 31
0.0
  0
LINE
  5
1E8
330
163
100
AcDbEntity
  8
0
  6
Continuous
 62
     7
370
    25
100
AcDbLine
 10
-232.5902168762
 20
1.0330267389
 30
0.0
 11
-232.5669884676
 21
1.8748290116
 31
0.0
  0
LINE
  5
1E9
330
163
100
AcDbEntity
  8
0
  6
Continuous
 62
     7
370
    25
100
AcDbLine
 10
-227.7402258685
 20
1.0244397441
 30
0.0
 11
-224.9402504328
 21
1.0009825875
 31
0.0
  0
LINE
  5
1EA
330
163
100
AcDbEntity
  8
0
  6
Continuous
 62
     7
370
    25
100
AcDbLine
 10
-225.3549374452
 20
-2.4314323548
 30
0.0
 11
-227.7795913116
 21
0.4702932443
 31
0.0
  0
LINE
  5
1EB
330
163
100
AcDbEntity
  8
0
  6
Continuous
 62
     7
370
    25
100
AcDbLine
 10
-227.8796953735
 20
0.0005991755
 30
0.0
 11
-225.4607098054
 21
-2.8196907536
 31
0.0
  0
LINE
  5
1EC
330
163
100
AcDbEntity
  8
0
  6
Continuous
 62
     7
370
    25
100
AcDbLine
 10
-226.6779430284
 20
-5.3775622775
 30
0.0
 11
-228.0523234723
 21
-0.4399403275
 31
0.0
  0
LINE
  5
1ED
330
163
100
AcDbEntity
  8
0
  6
Continuous
 62
     7
370
    25
100
AcDbLine
 10
-228.2564396501
 20
-0.7466032612
 30
0.0
 11
-226.866609179
 21
-5.608031554
 31
0.0
  0
LINE
  5
1EE
330
163
100
AcDbEntity
  8
0
  6
Continuous
 62
     7
370
    25
100
AcDbLine
 10
-228.5602319534
 20
-6.6059800503
 30
0.0
 11
-228.5160748448
 21
-0.9554935635
 31
0.0
  0
LINE
  5
1EF
330
163
100
AcDbEntity
  8
0
  6
Continuous
 62
     7
370
    25
100
AcDbLine
 10
-228.7695103736
 20
-1.0169552765
 30
0.0
 11
-228.7812389518
 21
-6.6169061479
 31
0.0
  0
LINE
  5
1F0
330
163
100
AcDbEntity
  8
0
  6
Continuous
 62
     7
370
    25
100
AcDbLine
 10
-230.497446423
 20
-5.787532123
 30
0.0
 11
-229.0465836234
 21
-0.9382243903
 31
0.0
  0
LINE
  5
1F1
330
163
100
AcDbEntity
  8
0
  6
Continuous
 62
     7
370
    25
100
AcDbLine
 10
-229.2814306578
 20
-0.7380162664
 30
0.0
 11
-230.6915756224
 21
-5.5759874026
 31
0.0
  0
LINE
  5
1F2
330
163
100
AcDbEntity
  8
0
  6
Continuous
 62
     7
370
    25
100
AcDbLine
 10
-231.8173492499
 20
-2.9709910584
 30
0.0
 11
-229.5017004094
 21
-0.3927600689
 31
0.0
  0
LINE
  5
1F3
330
163
100
AcDbEntity
  8
0
  6
Continuous
 62
     7
370
    25
100
AcDbLine
 10
-229.6550318762
 20
0.0154722868
 30
0.0
 11
-231.9139848508
 21
-2.567769911
 31
0.0
  0
LINE
  5
1F4
330
163
100
AcDbEntity
  8
0
  6
Continuous
 62
     7
370
    25
100
AcDbLine
 10
-232.5847202708
 20
0.6230568934
 30
0.0
 11
-229.7594770273
 21
0.5347426762
 31
0.0
  0
LINE
  5
1F5
330
163
100
AcDbEntity
  8
0
  6
Continuous
 62
     7
370
    25
100
AcDbLine
 10
-229.7902078839
 20
1.0416137337
 30
0.0
 11
-232.5901833196
 21
1.0650708902
 31
0.0
  0
LINE
  5
1F6
330
163
100
AcDbEntity
  8
0
  6
Continuous
 62
     7
370
    25
100
AcDbLine
 10
-231.9896928433
 20
4.2751239214
 30
0.0
 11
-229.7508424407
 21
1.5957602334
 31
0.0
  0
LINE
  5
1F7
330
163
100
AcDbEntity
  8
0
  6
Continuous
 62
     7
370
    25
100
AcDbLine
 10
-229.6507383788
 20
2.0654543022
 30
0.0
 11
-231.9013887096
 21
4.6894825501
 31
0.0
  0
LINE
  5
1F8
330
163
100
AcDbEntity
  8
0
  6
Continuous
 62
     7
370
    25
100
AcDbLine
 10
-230.8524907239
 20
7.4436157553
 30
0.0
 11
-229.4781102801
 21
2.5059938053
 31
0.0
  0
LINE
  5
1F9
330
163
100
AcDbEntity
  8
0
  6
Continuous
 62
     7
370
    25
100
AcDbLine
 10
-229.2739941022
 20
2.8126567389
 30
0.0
 11
-230.6638245733
 21
7.6740850318
 31
0.0
  0
LINE
  5
1FA
330
163
100
AcDbEntity
  8
0
  6
Continuous
 62
     7
370
    25
100
AcDbLine
 10
-228.9702017989
 20
8.6720335281
 30
0.0
 11
-229.0143589075
 21
3.0215470412
 31
0.0
  0
LINE
  5
1FB
330
163
100
AcDbEntity
  8
0
  6
Continuous
 62
     7
370
    25
100
AcDbLine
 10
-228.7609233788
 20
3.0830087543
 30
0.0
 11
-228.7491948005
 21
8.6829596257
 31
0.0
  0
LINE
  5
1FC
330
163
100
AcDbEntity
  8
0
  6
Continuous
 62
     7
370
    25
100
AcDbLine
 10
-227.0329873293
 20
7.8535856008
 30
0.0
 11
-228.4838501289
 21
3.004277868
 31
0.0
  0
LINE
  5
1FD
330
163
100
AcDbEntity
  8
0
  6
Continuous
 62
     7
370
    25
100
AcDbLine
 10
-228.2490030945
 20
2.8040697441
 30
0.0
 11
-226.8388581299
 21
7.6420408804
 31
0.0
  0
LINE
  5
1FE
330
163
100
AcDbEntity
  8
0
  6
Continuous
 62
     7
370
    25
100
AcDbLine
 10
-225.5599223679
 20
5.2075744344
 30
0.0
 11
-228.028733343
 21
2.4588135467
 31
0.0
  0
LINE
  5
1FF
330
163
100
AcDbEntity
  8
0
  6
Continuous
 62
     7
370
    25
100
AcDbLine
 10
-227.8754018761
 20
2.0505811909
 30
0.0
 11
-225.4446877297
 21
4.8302421332
 31
0.0
  0
LINE
  5
200
330
163
100
AcDbEntity
  8
0
  6
Continuous
 62
     7
370
    25
100
AcDbLine
 10
-224.9457134815
 20
1.4429965843
 30
0.0
 11
-227.770956725
 21
1.5313108016
 31
0.0
  0
LINE
  5
201
330
163
100
AcDbEntity
  8
0
  6
Continuous
 62
     7
370
    25
100
AcDbLine
 10
-232.5820942973
 20
0.5347426762
 30
0.0
 11
-229.7594770273
 21
0.5347426762
 31
0.0
  0
LINE
  5
202
330
163
100
AcDbEntity
  8
0
  6
Continuous
 62
     7
370
    25
100
AcDbLine
 10
-232.5798541792
 20
1.5957602334
 30
0.0
 11
-229.7508424407
 21
1.5957602334
 31
0.0
  0
LINE
  5
203
330
163
100
AcDbEntity
  8
0
  6
Continuous
 62
     7
370
    25
100
AcDbLine
 10
-232.5562287113
 20
0.0154722868
 30
0.0
 11
-229.6550318762
 21
0.0154722868
 31
0.0
  0
LINE
  5
204
330
163
100
AcDbEntity
  8
0
  6
Continuous
 62
     7
370
    25
100
AcDbLine
 10
-230.028592687
 20
2.5059938053
 30
0.0
 11
-229.4781102801
 21
2.5059938053
 31
0.0
  0
LINE
  5
205
330
163
100
AcDbEntity
  8
0
  6
Continuous
 62
     7
370
    25
100
AcDbLine
 10
-229.8117936929
 20
-0.7380162664
 30
0.0
 11
-229.2814306578
 21
-0.7380162664
 31
0.0
  0
LINE
  5
206
330
163
100
AcDbEntity
  8
0
  6
Continuous
 62
     7
370
    25
100
AcDbLine
 10
-229.3337136105
 20
3.0215470412
 30
0.0
 11
-229.0143589075
 21
3.0215470412
 31
0.0
  0
LINE
  5
207
330
163
100
AcDbEntity
  8
0
  6
Continuous
 62
     7
370
    25
100
AcDbLine
 10
-229.0701390916
 20
-1.0169552765
 30
0.0
 11
-228.7695103736
 21
-1.0169552765
 31
0.0
  0
LINE
  5
208
330
163
100
AcDbEntity
  8
0
  6
Continuous
 62
     7
370
    25
100
AcDbLine
 10
-228.7509318475
 20
7.8535856008
 30
0.0
 11
-227.0329873293
 21
7.8535856008
 31
0.0
  0
LINE
  5
209
330
163
100
AcDbEntity
  8
0
  6
Continuous
 62
     7
370
    25
100
AcDbLine
 10
-228.5524332408
 20
-5.608031554
 30
0.0
 11
-226.866609179
 21
-5.608031554
 31
0.0
  0
LINE
  5
20A
330
163
100
AcDbEntity
  8
0
  6
Continuous
 62
     7
370
    25
100
AcDbLine
 10
-227.5484428925
 20
5.2075744344
 30
0.0
 11
-225.5599223679
 21
5.2075744344
 31
0.0
  0
LINE
  5
20B
330
163
100
AcDbEntity
  8
0
  6
Continuous
 62
     7
370
    25
100
AcDbLine
 10
-227.3899231346
 20
-2.8196907536
 30
0.0
 11
-225.4607098054
 21
-2.8196907536
 31
0.0
  0
LINE
  5
20C
330
163
100
AcDbEntity
  8
0
  6
Continuous
 62
     7
370
    25
100
AcDbLine
 10
-227.7403421067
 20
1.0009825875
 30
0.0
 11
-224.9402504328
 21
1.0009825875
 31
0.0
  0
ARC
  5
20D
330
163
100
AcDbEntity
  8
0
  6
Continuous
 62
     7
370
    25
100
AcDbCircle
 10
-236.5
 20
1.5468993695
 30
0.0
 40
12.50000000000012
100
AcDbArc
 50
61.9014945052
 51
293.3846707108
  0
ARC
  5
20E
330
163
100
AcDbEntity
  8
0
  6
Continuous
 62
     7
370
    25
100
AcDbCircle
 10
-231.732871273
 20
1.0295977032
 30
0.0
 40
3.992648736291348
100
AcDbArc
 50
351.9473183223
 51
359.9259816248
  0
ARC
  5
20F
330
163
100
AcDbEntity
  8
0
  6
Continuous
 62
     7
370
    25
100
AcDbCircle
 10
-236.5327125141
 20
0.405166842
 30
0.0
 40
11.53208352784786
100
AcDbArc
 50
343.7611467417
 51
345.7605653704
  0
ARC
  5
210
330
163
100
AcDbEntity
  8
0
  6
Continuous
 62
     7
370
    25
100
AcDbCircle
 10
-230.2527999536
 20
0.6764222801
 30
0.0
 40
2.467460681909639
100
AcDbArc
 50
333.1000585527
 51
344.1038750223
  0
ARC
  5
211
330
163
100
AcDbEntity
  8
0
  6
Continuous
 62
     7
370
    25
100
AcDbCircle
 10
-230.3891843131
 20
-2.5319330662
 30
0.0
 40
4.676635273562152
100
AcDbArc
 50
318.8708228536
 51
322.5204735724
  0
ARC
  5
212
330
163
100
AcDbEntity
  8
0
  6
Continuous
 62
     7
370
    25
100
AcDbCircle
 10
-228.9203396079
 20
-0.187223543
 30
0.0
 40
0.8681410155873386
100
AcDbArc
 50
297.7534081843
 51
319.8836412096
  0
ARC
  5
213
330
163
100
AcDbEntity
  8
0
  6
Continuous
 62
     7
370
    25
100
AcDbCircle
 10
-228.7653406762
 20
-4.6978214806
 30
0.0
 40
1.919150519205826
100
AcDbArc
 50
269.5253553577
 51
276.1351894321
  0
ARC
  5
214
330
163
100
AcDbEntity
  8
0
  6
Continuous
 62
     7
370
    25
100
AcDbCircle
 10
-228.7583588048
 20
-0.4508004596
 30
0.0
 40
0.5662646326962447
100
AcDbArc
 50
239.4032128467
 51
268.8715891968
  0
ARC
  5
215
330
163
100
AcDbEntity
  8
0
  6
Continuous
 62
     7
370
    25
100
AcDbCircle
 10
-227.5094970818
 20
-2.8507210795
 30
0.0
 40
4.189594296636795
100
AcDbArc
 50
220.5781441576
 51
224.5054760561
  0
ARC
  5
216
330
163
100
AcDbEntity
  8
0
  6
Continuous
 62
     7
370
    25
100
AcDbCircle
 10
-228.0520079585
 20
0.2892352001
 30
0.0
 40
1.602100417879541
100
AcDbArc
 50
205.1942330295
 51
219.8806447439
  0
ARC
  5
217
330
163
100
AcDbEntity
  8
0
  6
Continuous
 62
     7
370
    25
100
AcDbCircle
 10
-226.3247163121
 20
0.9554653731
 30
0.0
 40
3.460431874538109
100
AcDbArc
 50
186.9833541859
 51
195.7619033382
  0
ARC
  5
218
330
163
100
AcDbEntity
  8
0
  6
Continuous
 62
     7
370
    25
100
AcDbCircle
 10
-217.3035204407
 20
1.0329648388
 30
0.0
 40
15.28669659445653
100
AcDbArc
 50
179.879663825
 51
181.5365524225
  0
ARC
  5
219
330
163
100
AcDbEntity
  8
0
  6
Continuous
 62
     7
370
    25
100
AcDbCircle
 10
-225.797562479
 20
1.0364557745
 30
0.0
 40
3.992648736539558
100
AcDbArc
 50
171.9473183224
 51
179.9259816244
  0
ARC
  5
21A
330
163
100
AcDbEntity
  8
0
  6
Continuous
 62
     7
370
    25
100
AcDbCircle
 10
-227.2776337987
 20
1.3896311977
 30
0.0
 40
2.467460681921676
100
AcDbArc
 50
153.1000585527
 51
164.1038750223
  0
ARC
  5
21B
330
163
100
AcDbEntity
  8
0
  6
Continuous
 62
     7
370
    25
100
AcDbCircle
 10
-227.141249439
 20
4.5979865439
 30
0.0
 40
4.676635273769051
100
AcDbArc
 50
138.8708228536
 51
142.5204735721
  0
ARC
  5
21C
330
163
100
AcDbEntity
  8
0
  6
Continuous
 62
     7
370
    25
100
AcDbCircle
 10
-228.6100941445
 20
2.2532770208
 30
0.0
 40
0.8681410155850038
100
AcDbArc
 50
117.7534081843
 51
139.8836412096
  0
ARC
  5
21D
330
163
100
AcDbEntity
  8
0
  6
Continuous
 62
     7
370
    25
100
AcDbCircle
 10
-228.7650930761
 20
6.7638749584
 30
0.0
 40
1.919150519196133
100
AcDbArc
 50
89.5253553576
 51
96.1351894321
  0
ARC
  5
21E
330
163
100
AcDbEntity
  8
0
  6
Continuous
 62
     7
370
    25
100
AcDbCircle
 10
-228.7720749475
 20
2.5168539373
 30
0.0
 40
0.5662646326940449
100
AcDbArc
 50
59.4032128466
 51
88.8715891972
  0
ARC
  5
21F
330
163
100
AcDbEntity
  8
0
  6
Continuous
 62
     7
370
    25
100
AcDbCircle
 10
-230.0209366707
 20
4.9167745571
 30
0.0
 40
4.189594296910596
100
AcDbArc
 50
40.5781441577
 51
44.5054760557
  0
ARC
  5
220
330
163
100
AcDbEntity
  8
0
  6
Continuous
 62
     7
370
    25
100
AcDbCircle
 10
-229.4784257938
 20
1.7768182776
 30
0.0
 40
1.602100417878771
100
AcDbArc
 50
25.1942330295
 51
39.8806447441
  0
ARC
  5
221
330
163
100
AcDbEntity
  8
0
  6
Continuous
 62
     7
370
    25
100
AcDbCircle
 10
-235.8951364842
 20
1.845010458
 30
0.0
 40
10.86846296974524
100
AcDbArc
 50
15.942299678
 51
18.0223078105
  0
ARC
  5
222
330
163
100
AcDbEntity
  8
0
  6
Continuous
 62
     7
370
    25
100
AcDbCircle
 10
-231.2057174401
 20
1.1105881047
 30
0.0
 40
3.460431874423411
100
AcDbArc
 50
6.9833541859
 51
15.7619033386
  0
ARC
  5
223
330
163
100
AcDbEntity
  8
0
  6
Continuous
 62
     7
370
    25
100
AcDbCircle
 10
-240.226913312
 20
1.0330886389
 30
0.0
 40
15.28669659486088
100
AcDbArc
 50
359.8796638251
 51
1.5365524223
  0
VIEWPORT
  5
36F
330
163
100
AcDbEntity
  8
0
100
AcDbViewport
 10
0.0
 20
0.0
 30
0.0
 40
205.6
 41
156.0
 68
     1
 69
     1
 12
40.8122932966
 22
0.0
 13
0.0
 23
0.0
 14
10.0
 24
10.0
 15
10.0
 25
10.0
 16
0.0
 26
0.0
 36
1.0
 17
0.0
 27
0.0
 37
0.0
 42
50.0
 43
0.0
 44
0.0
 45
103.4160711027
 50
0.0
 51
0.0
 72
   100
 90
   557152
  1

281
     0
 71
     1
 74
     0
110
0.0
120
0.0
130
0.0
111
1.0
121
0.0
131
0.0
112
0.0
122
1.0
132
0.0
 79
     0
146
0.0
  0
ENDBLK
  5
166
330
163
100
AcDbEntity
  8
0
100
AcDbBlockEnd
  0
BLOCK
  5
226
330
224
100
AcDbEntity
  8
0
100
AcDbBlockBegin
  2
*Paper_Space2
 70
     0
 10
0.0
 20
0.0
 30
0.0
  3
*Paper_Space2
  1

  0
SPLINE
  5
23E
330
224
100
AcDbEntity
  8
0
  6
Continuous
 62
     7
370
    25
100
AcDbSpline
210
0.0
220
0.0
230
1.0
 70
     8
 71
     3
 72
    34
 73
    30
 74
     0
 42
0.000000001
 43
0.00000001
 40
0.0
 40
0.0
 40
0.0
 40
0.0
 40
0.0608154969860731
 40
0.0917587716342107
 40
0.1233988692562419
 40
0.1643788838926089
 40
0.2053573115776682
 40
0.2468511191725148
 40
0.2890244595249157
 40
0.3300500069592882
 40
0.3705191608893328
 40
0.4026759731121751
 40
0.4336160486853639
 40
0.4637577378921103
 40
0.4935530895857502
 40
0.5238592519012157
 40
0.5542971873953904
 40
0.5853482571222538
 40
0.6174662247622884
 40
0.6576612120780242
 40
0.6987165031247741
 40
0.7412499351792874
 40
0.782807103262472
 40
0.8238326576939401
 40
0.8648382661025664
 40
0.9271046163113971
 40
0.9575973288728103
 40
0.9880019235433889
 40
1.0
 40
1.0
 40
1.0
 40
1.0
 10
21.94554857688885
 20
-249.0
 30
0.0
 10
21.86131875670427
 20
-248.9546580469564
 30
0.0
 10
21.73423231956018
 20
-248.8862458474189
 30
0.0
 10
21.38633093172622
 20
-248.4693616523289
 30
0.0
 10
21.03808112858455
 20
-248.0075062858238
 30
0.0
 10
20.58422127374772
 20
-247.3547039243472
 30
0.0
 10
20.03093106880582
 20
-246.4790951038487
 30
0.0
 10
19.4373187697057
 20
-245.4387315984579
 30
0.0
 10
18.83299977592673
 20
-244.2606564144025
 30
0.0
 10
18.25811915078198
 20
-242.9576827662996
 30
0.0
 10
17.78295231313351
 20
-241.6492286874143
 30
0.0
 10
17.41470600816726
 20
-240.3811378371126
 30
0.0
 10
17.15525687080054
 20
-239.1842025791612
 30
0.0
 10
16.98794348197342
 20
-237.976789512835
 30
0.0
 10
16.91742119720409
 20
-236.7542386935889
 30
0.0
 10
16.94593039162164
 20
-235.5233718227555
 30
0.0
 10
17.07543673947528
 20
-234.2914073904575
 30
0.0
 10
17.30223093035814
 20
-233.070904649946
 30
0.0
 10
17.64143049216236
 20
-231.7803610628563
 30
0.0
 10
18.09526248239066
 20
-230.4458062798719
 30
0.0
 10
18.65944278045987
 20
-229.1072288990893
 30
0.0
 10
19.26355487660801
 20
-227.8870093945495
 30
0.0
 10
19.86416141696179
 20
-226.8003596072569
 30
0.0
 10
20.43090961073589
 20
-225.876967511599
 30
0.0
 10
21.0293396117715
 20
-224.9909592322833
 30
0.0
 10
21.48029328817949
 20
-224.3991996620338
 30
0.0
 10
21.76539726517867
 20
-224.1021551005185
 30
0.0
 10
21.89494673961507
 20
-223.9979376230668
 30
0.0
 10
21.92767159372082
 20
-224.0110016159786
 30
0.0
 10
21.93693127692366
 20
-224.014698146919
 30
0.0
  0
SPLINE
  5
242
330
224
100
AcDbEntity
  8
0
  6
Continuous
 62
     7
370
    25
100
AcDbSpline
210
0.0
220
0.0
230
1.0
 70
    24
 71
     3
 72
    22
 73
    18
 74
     0
 42
0.000000001
 43
0.00000001
 40
0.0
 40
0.0
 40
0.0
 40
0.0
 40
0.125
 40
0.125
 40
0.25
 40
0.25
 40
0.375
 40
0.375
 40
0.5
 40
0.5
 40
0.625
 40
0.625
 40
0.75
 40
0.75
 40
0.875
 40
0.875
 40
1.0
 40
1.0
 40
1.0
 40
1.0
 10
20.5447582003467
 20
-269.40332833093
 30
0.0
 10
20.5447582003467
 20
-269.40332833093
 30
0.0
 10
20.10348270497455
 20
-269.40332833093
 30
0.0
 10
18.10106894070305
 20
-269.40332833093
 30
0.0
 10
16.53314462764965
 20
-269.40332833093
 30
0.0
 10
12.52153105495656
 20
-269.40332833093
 30
0.0
 10
10.09141388361016
 20
-269.40332833093
 30
0.0
 10
5.033419721940893
 20
-269.40332833093
 30
0.0
 10
2.421222973547791
 20
-269.40332833093
 30
0.0
 10
-2.421222973547785
 20
-269.40332833093
 30
0.0
 10
-5.033419721942073
 20
-269.40332833093
 30
0.0
 10
-10.09141388360898
 20
-269.40332833093
 30
0.0
 10
-12.52153105495836
 20
-269.40332833093
 30
0.0
 10
-16.53314462764784
 20
-269.40332833093
 30
0.0
 10
-18.1010689407043
 20
-269.40332833093
 30
0.0
 10
-20.1034827049733
 20
-269.40332833093
 30
0.0
 10
-20.5447582003467
 20
-269.40332833093
 30
0.0
 10
-20.5447582003467
 20
-269.40332833093
 30
0.0
  0
LINE
  5
24A
330
224
100
AcDbEntity
  8
0
  6
Continuous
 62
     7
370
    25
100
AcDbLine
 10
-26.0
 20
-150.0
 30
0.0
 11
-26.0
 21
-155.0
 31
0.0
  0
LINE
  5
24B
330
224
100
AcDbEntity
  8
0
  6
Continuous
 62
     7
370
    25
100
AcDbLine
 10
26.0
 20
-155.0
 30
0.0
 11
26.0
 21
-150.0
 31
0.0
  0
LINE
  5
24C
330
224
100
AcDbEntity
  8
0
  6
Continuous
 62
     7
370
    25
100
AcDbLine
 10
-22.0
 20
-155.0
 30
0.0
 11
-22.0
 21
-269.0
 31
0.0
  0
LINE
  5
24D
330
224
100
AcDbEntity
  8
0
  6
Continuous
 62
     7
370
    25
100
AcDbLine
 10
22.0
 20
-224.0
 30
0.0
 11
22.0
 21
-155.0
 31
0.0
  0
LINE
  5
24E
330
224
100
AcDbEntity
  8
0
  6
Continuous
 62
     7
370
    25
100
AcDbLine
 10
22.0
 20
-269.0
 30
0.0
 11
22.0
 21
-249.0
 31
0.0
  0
LINE
  5
24F
330
224
100
AcDbEntity
  8
0
  6
Continuous
 62
     7
370
    25
100
AcDbLine
 10
21.9455485769
 20
-249.0
 30
0.0
 11
105.0
 21
-249.0
 31
0.0
  0
LINE
  5
250
330
224
100
AcDbEntity
  8
0
  6
Continuous
 62
     7
370
    25
100
AcDbLine
 10
79.8852632903
 20
-224.0
 30
0.0
 11
21.9369312769
 21
-224.0
 31
0.0
  0
LINE
  5
251
330
224
100
AcDbEntity
  8
0
  6
Continuous
 62
     7
370
    25
100
AcDbLine
 10
20.5447582003
 20
-269.4033283309
 30
0.0
 11
19.1
 21
-269.0
 31
0.0
  0
LINE
  5
252
330
224
100
AcDbEntity
  8
0
  6
Continuous
 62
     7
370
    25
100
AcDbLine
 10
-19.1
 20
-269.0
 30
0.0
 11
-20.5447582003
 21
-269.4033283309
 31
0.0
  0
LINE
  5
253
330
224
100
AcDbEntity
  8
0
  6
Continuous
 62
     7
370
    25
100
AcDbLine
 10
-20.5447582003
 20
-269.4033283309
 30
0.0
 11
-18.1784839951
 21
-277.8795344393
 31
0.0
  0
LINE
  5
254
330
224
100
AcDbEntity
  8
0
  6
Continuous
 62
     7
370
    25
100
AcDbLine
 10
20.0990206927
 20
-271.0
 30
0.0
 11
20.5447582003
 21
-269.4033283309
 31
0.0
  0
LINE
  5
255
330
224
100
AcDbEntity
  8
0
  6
Continuous
 62
     7
370
    25
100
AcDbLine
 10
-22.0
 20
-279.2704525148
 30
0.0
 11
-22.0
 21
-297.5
 31
0.0
  0
LINE
  5
256
330
224
100
AcDbEntity
  8
0
  6
Continuous
 62
     7
370
    25
100
AcDbLine
 10
22.0
 20
-297.5
 30
0.0
 11
22.0
 21
-292.4849951024
 31
0.0
  0
LINE
  5
257
330
224
100
AcDbEntity
  8
0
  6
Continuous
 62
     7
370
    25
100
AcDbLine
 10
22.0
 20
-281.5150048976
 30
0.0
 11
22.0
 21
-271.0
 31
0.0
  0
LINE
  5
258
330
224
100
AcDbEntity
  8
0
  6
Continuous
 62
     7
370
    25
100
AcDbLine
 10
50.0
 20
-293.5
 30
0.0
 11
80.0
 21
-293.5
 31
0.0
  0
LINE
  5
259
330
224
100
AcDbEntity
  8
0
  6
Continuous
 62
     7
370
    25
100
AcDbLine
 10
80.0
 20
-280.5
 30
0.0
 11
50.0
 21
-280.5
 31
0.0
  0
LINE
  5
25A
330
224
100
AcDbEntity
  8
0
  6
Continuous
 62
     7
370
    25
100
AcDbLine
 10
50.0
 20
-281.5
 30
0.0
 11
22.0
 21
-281.5
 31
0.0
  0
LINE
  5
25B
330
224
100
AcDbEntity
  8
0
  6
Continuous
 62
     7
370
    25
100
AcDbLine
 10
22.0
 20
-292.5
 30
0.0
 11
50.0
 21
-292.5
 31
0.0
  0
LINE
  5
25C
330
224
100
AcDbEntity
  8
0
  6
Continuous
 62
     7
370
    25
100
AcDbLine
 10
104.8238308473
 20
-238.3982886923
 30
0.0
 11
107.6238308473
 21
-233.5485464311
 31
0.0
  0
LINE
  5
25D
330
224
100
AcDbEntity
  8
0
  6
Continuous
 62
     7
370
    25
100
AcDbLine
 10
88.1382592621
 20
-222.2985464311
 30
0.0
 11
85.3382592621
 21
-227.1482886923
 31
0.0
  0
LINE
  5
25E
330
224
100
AcDbEntity
  8
0
  6
Continuous
 62
     7
370
    25
100
AcDbLine
 10
26.0
 20
-155.0
 30
0.0
 11
-26.0
 21
-155.0
 31
0.0
  0
LINE
  5
25F
330
224
100
AcDbEntity
  8
0
  6
Continuous
 62
     7
370
    25
100
AcDbLine
 10
26.0
 20
-150.0
 30
0.0
 11
-26.0
 21
-150.0
 31
0.0
  0
LINE
  5
260
330
224
100
AcDbEntity
  8
0
  6
Continuous
 62
     7
370
    25
100
AcDbLine
 10
22.0
 20
-269.0
 30
0.0
 11
-22.0
 21
-269.0
 31
0.0
  0
LINE
  5
261
330
224
100
AcDbEntity
  8
0
  6
Continuous
 62
     7
370
    25
100
AcDbLine
 10
105.0
 20
-238.5
 30
0.0
 11
79.8852632903
 21
-224.0
 31
0.0
  0
LINE
  5
262
330
224
100
AcDbEntity
  8
0
  6
Continuous
 62
     7
370
    25
100
AcDbLine
 10
105.0
 20
-238.5
 30
0.0
 11
105.0
 21
-249.0
 31
0.0
  0
LINE
  5
263
330
224
100
AcDbEntity
  8
0
  6
Continuous
 62
     7
370
    25
100
AcDbLine
 10
0.7228815332
 20
-271.0
 30
0.0
 11
-22.0
 21
-279.2704525148
 31
0.0
  0
LINE
  5
264
330
224
100
AcDbEntity
  8
0
  6
Continuous
 62
     7
370
    25
100
AcDbLine
 10
22.0
 20
-271.0
 30
0.0
 11
0.7228815332
 21
-271.0
 31
0.0
  0
LINE
  5
265
330
224
100
AcDbEntity
  8
0
  6
Continuous
 62
     7
370
    25
100
AcDbLine
 10
22.0
 20
-297.5
 30
0.0
 11
-22.0
 21
-297.5
 31
0.0
  0
LINE
  5
266
330
224
100
AcDbEntity
  8
0
  6
Continuous
 62
     7
370
    25
100
AcDbLine
 10
80.0
 20
-280.5
 30
0.0
 11
80.0
 21
-293.5
 31
0.0
  0
LINE
  5
267
330
224
100
AcDbEntity
  8
0
  6
Continuous
 62
     7
370
    25
100
AcDbLine
 10
50.0
 20
-280.5
 30
0.0
 11
50.0
 21
-293.5
 31
0.0
  0
LINE
  5
268
330
224
100
AcDbEntity
  8
0
  6
Continuous
 62
     7
370
    25
100
AcDbLine
 10
88.1382592621
 20
-222.2985464311
 30
0.0
 11
107.6238308473
 21
-233.5485464311
 31
0.0
  0
VIEWPORT
  5
371
330
224
100
AcDbEntity
  8
0
100
AcDbViewport
 10
0.0
 20
0.0
 30
0.0
 40
205.6
 41
156.0
 68
     1
 69
     1
 12
40.8122932966
 22
0.0
 13
0.0
 23
0.0
 14
10.0
 24
10.0
 15
10.0
 25
10.0
 16
0.0
 26
0.0
 36
1.0
 17
0.0
 27
0.0
 37
0.0
 42
50.0
 43
0.0
 44
0.0
 45
103.4160711027
 50
0.0
 51
0.0
 72
   100
 90
   557152
  1

281
     0
 71
     1
 74
     0
110
0.0
120
0.0
130
0.0
111
1.0
121
0.0
131
0.0
112
0.0
122
1.0
132
0.0
 79
     0
146
0.0
  0
ENDBLK
  5
227
330
224
100
AcDbEntity
  8
0
100
AcDbBlockEnd
  0
BLOCK
  5
26B
330
269
100
AcDbEntity
  8
0
100
AcDbBlockBegin
  2
*Paper_Space3
 70
     0
 10
0.0
 20
0.0
 30
0.0
  3
*Paper_Space3
  1

  0
SPLINE
  5
283
330
269
100
AcDbEntity
  8
0
  6
Continuous
 62
     7
370
    25
100
AcDbSpline
210
0.0
220
0.0
230
1.0
 70
     8
 71
     3
 72
    31
 73
    27
 74
     0
 42
0.000000001
 43
0.00000001
 40
0.0
 40
0.0
 40
0.0
 40
0.0
 40
0.0128736594793687
 40
0.0471039273173813
 40
0.0817750164466675
 40
0.1499111891556656
 40
0.2189770637015905
 40
0.2650939142885176
 40
0.3105756605344579
 40
0.3561511721920129
 40
0.3915180974840128
 40
0.425856304696326
 40
0.4595723513497622
 40
0.4930954776622003
 40
0.5266195272906603
 40
0.5603863692558778
 40
0.5948413911542065
 40
0.6304041008660031
 40
0.6988892417982553
 40
0.7678095930370511
 40
0.8362569051055687
 40
0.8704661287351056
 40
0.905031909786297
 40
0.9401034694802348
 40
0.9744496390817621
 40
1.0
 40
1.0
 40
1.0
 40
1.0
 10
21.99172742183359
 20
224.1095923162528
 30
0.0
 10
21.99386300649427
 20
224.1251969057984
 30
0.0
 10
22.00167697926543
 20
224.1822931380665
 30
0.0
 10
21.94217905200464
 20
224.4130711040918
 30
0.0
 10
21.77848043448365
 20
224.9217849240312
 30
0.0
 10
21.42060174906213
 20
225.8544451426427
 30
0.0
 10
20.91045173576208
 20
227.2084125971244
 30
0.0
 10
20.42659355580904
 20
228.6096165825932
 30
0.0
 10
20.02169737630459
 20
229.946323057657
 30
0.0
 10
19.68393784889605
 20
231.2881104471032
 30
0.0
 10
19.4220242558574
 20
232.5810406079903
 30
0.0
 10
19.2381668795447
 20
233.7890434185458
 30
0.0
 10
19.11922658611604
 20
235.0102691846628
 30
0.0
 10
19.06927406993469
 20
236.2412349820662
 30
0.0
 10
19.0903639017626
 20
237.4762757304692
 30
0.0
 10
19.1834954083964
 20
238.7091262702758
 30
0.0
 10
19.34503573886738
 20
239.9367386589452
 30
0.0
 10
19.63435290993625
 20
241.5166603088462
 30
0.0
 10
20.09680727532025
 20
243.369323789131
 30
0.0
 10
20.72428295537941
 20
245.2861032038757
 30
0.0
 10
21.21901163739749
 20
246.6080048255737
 30
0.0
 10
21.54921457049335
 20
247.4641534500961
 30
0.0
 10
21.75519385201458
 20
248.0098251073152
 30
0.0
 10
21.9036044913156
 20
248.4458030366313
 30
0.0
 10
21.98935748168664
 20
248.7498628858991
 30
0.0
 10
21.99231596742633
 20
248.8480035717801
 30
0.0
 10
21.99357798340229
 20
248.8898679322575
 30
0.0
  0
LINE
  5
28E
330
269
100
AcDbEntity
  8
0
  6
Continuous
 62
     7
370
    25
100
AcDbLine
 10
26.0
 20
150.0
 30
0.0
 11
26.0
 21
155.0
 31
0.0
  0
LINE
  5
28F
330
269
100
AcDbEntity
  8
0
  6
Continuous
 62
     7
370
    25
100
AcDbLine
 10
-26.0
 20
155.0
 30
0.0
 11
-26.0
 21
150.0
 31
0.0
  0
LINE
  5
290
330
269
100
AcDbEntity
  8
0
  6
Continuous
 62
     7
370
    25
100
AcDbLine
 10
22.0
 20
248.8898679323
 30
0.0
 11
22.0
 21
269.0
 31
0.0
  0
LINE
  5
291
330
269
100
AcDbEntity
  8
0
  6
Continuous
 62
     7
370
    25
100
AcDbLine
 10
22.0
 20
155.0
 30
0.0
 11
22.0
 21
224.1095923163
 31
0.0
  0
LINE
  5
292
330
269
100
AcDbEntity
  8
0
  6
Continuous
 62
     7
370
    25
100
AcDbLine
 10
-22.0
 20
269.0
 30
0.0
 11
-22.0
 21
155.0
 31
0.0
  0
LINE
  5
293
330
269
100
AcDbEntity
  8
0
  6
Continuous
 62
     7
370
    25
100
AcDbLine
 10
22.0
 20
224.0
 30
0.0
 11
79.8852632903
 21
224.0
 31
0.0
  0
LINE
  5
294
330
269
100
AcDbEntity
  8
0
  6
Continuous
 62
     7
370
    25
100
AcDbLine
 10
105.0
 20
249.0
 30
0.0
 11
22.0
 21
249.0
 31
0.0
  0
LINE
  5
295
330
269
100
AcDbEntity
  8
0
  6
Continuous
 62
     7
370
    25
100
AcDbLine
 10
-20.5447582003
 20
269.4033283309
 30
0.0
 11
-19.1
 21
269.0
 31
0.0
  0
LINE
  5
296
330
269
100
AcDbEntity
  8
0
  6
Continuous
 62
     7
370
    25
100
AcDbLine
 10
19.1
 20
269.0
 30
0.0
 11
20.5447582003
 21
269.4033283309
 31
0.0
  0
LINE
  5
297
330
269
100
AcDbEntity
  8
0
  6
Continuous
 62
     7
370
    25
100
AcDbLine
 10
20.5447582003
 20
269.4033283309
 30
0.0
 11
20.0990206927
 21
271.0
 31
0.0
  0
LINE
  5
298
330
269
100
AcDbEntity
  8
0
  6
Continuous
 62
     7
370
    25
100
AcDbLine
 10
-18.1784839951
 20
277.8795344393
 30
0.0
 11
-20.5447582003
 21
269.4033283309
 31
0.0
  0
LINE
  5
299
330
269
100
AcDbEntity
  8
0
  6
Continuous
 62
     7
370
    25
100
AcDbLine
 10
22.0
 20
271.0
 30
0.0
 11
22.0
 21
281.5
 31
0.0
  0
LINE
  5
29A
330
269
100
AcDbEntity
  8
0
  6
Continuous
 62
     7
370
    25
100
AcDbLine
 10
22.0
 20
292.5
 30
0.0
 11
22.0
 21
297.5
 31
0.0
  0
LINE
  5
29B
330
269
100
AcDbEntity
  8
0
  6
Continuous
 62
     7
370
    25
100
AcDbLine
 10
-22.0
 20
297.5
 30
0.0
 11
-22.0
 21
279.2704525148
 31
0.0
  0
LINE
  5
29C
330
269
100
AcDbEntity
  8
0
  6
Continuous
 62
     7
370
    25
100
AcDbLine
 10
50.0
 20
280.5
 30
0.0
 11
80.0
 21
280.5
 31
0.0
  0
LINE
  5
29D
330
269
100
AcDbEntity
  8
0
  6
Continuous
 62
     7
370
    25
100
AcDbLine
 10
80.0
 20
293.5
 30
0.0
 11
50.0
 21
293.5
 31
0.0
  0
LINE
  5
29E
330
269
100
AcDbEntity
  8
0
  6
Continuous
 62
     7
370
    25
100
AcDbLine
 10
50.0
 20
292.5
 30
0.0
 11
21.9962535736
 21
292.5
 31
0.0
  0
LINE
  5
29F
330
269
100
AcDbEntity
  8
0
  6
Continuous
 62
     7
370
    25
100
AcDbLine
 10
21.9962535736
 20
281.5
 30
0.0
 11
50.0
 21
281.5
 31
0.0
  0
LINE
  5
2A0
330
269
100
AcDbEntity
  8
0
  6
Continuous
 62
     7
370
    25
100
AcDbLine
 10
85.3382592621
 20
227.1482886923
 30
0.0
 11
88.1382592621
 21
222.2985464311
 31
0.0
  0
LINE
  5
2A1
330
269
100
AcDbEntity
  8
0
  6
Continuous
 62
     7
370
    25
100
AcDbLine
 10
107.6238308473
 20
233.5485464311
 30
0.0
 11
104.8238308473
 21
238.3982886923
 31
0.0
  0
LINE
  5
2A2
330
269
100
AcDbEntity
  8
0
  6
Continuous
 62
     7
370
    25
100
AcDbLine
 10
-26.0
 20
155.0
 30
0.0
 11
26.0
 21
155.0
 31
0.0
  0
LINE
  5
2A3
330
269
100
AcDbEntity
  8
0
  6
Continuous
 62
     7
370
    25
100
AcDbLine
 10
-26.0
 20
150.0
 30
0.0
 11
26.0
 21
150.0
 31
0.0
  0
LINE
  5
2A4
330
269
100
AcDbEntity
  8
0
  6
Continuous
 62
     7
370
    25
100
AcDbLine
 10
-22.0
 20
269.0
 30
0.0
 11
22.0
 21
269.0
 31
0.0
  0
LINE
  5
2A5
330
269
100
AcDbEntity
  8
0
  6
Continuous
 62
     7
370
    25
100
AcDbLine
 10
79.8852632903
 20
224.0
 30
0.0
 11
105.0
 21
238.5
 31
0.0
  0
LINE
  5
2A6
330
269
100
AcDbEntity
  8
0
  6
Continuous
 62
     7
370
    25
100
AcDbLine
 10
105.0
 20
249.0
 30
0.0
 11
105.0
 21
238.5
 31
0.0
  0
LINE
  5
2A7
330
269
100
AcDbEntity
  8
0
  6
Continuous
 62
     7
370
    25
100
AcDbLine
 10
-20.5447582003
 20
269.4033283309
 30
0.0
 11
20.5447582003
 21
269.4033283309
 31
0.0
  0
LINE
  5
2A8
330
269
100
AcDbEntity
  8
0
  6
Continuous
 62
     7
370
    25
100
AcDbLine
 10
-22.0
 20
279.2704525148
 30
0.0
 11
0.7228815332
 21
271.0
 31
0.0
  0
LINE
  5
2A9
330
269
100
AcDbEntity
  8
0
  6
Continuous
 62
     7
370
    25
100
AcDbLine
 10
0.7228815332
 20
271.0
 30
0.0
 11
22.0
 21
271.0
 31
0.0
  0
LINE
  5
2AA
330
269
100
AcDbEntity
  8
0
  6
Continuous
 62
     7
370
    25
100
AcDbLine
 10
-22.0
 20
297.5
 30
0.0
 11
22.0
 21
297.5
 31
0.0
  0
LINE
  5
2AB
330
269
100
AcDbEntity
  8
0
  6
Continuous
 62
     7
370
    25
100
AcDbLine
 10
50.0
 20
293.5
 30
0.0
 11
50.0
 21
280.5
 31
0.0
  0
LINE
  5
2AC
330
269
100
AcDbEntity
  8
0
  6
Continuous
 62
     7
370
    25
100
AcDbLine
 10
80.0
 20
293.5
 30
0.0
 11
80.0
 21
280.5
 31
0.0
  0
LINE
  5
2AD
330
269
100
AcDbEntity
  8
0
  6
Continuous
 62
     7
370
    25
100
AcDbLine
 10
107.6238308473
 20
233.5485464311
 30
0.0
 11
88.1382592621
 21
222.2985464311
 31
0.0
  0
VIEWPORT
  5
373
330
269
100
AcDbEntity
  8
0
100
AcDbViewport
 10
0.0
 20
0.0
 30
0.0
 40
205.6
 41
156.0
 68
     1
 69
     1
 12
40.8122932966
 22
0.0
 13
0.0
 23
0.0
 14
10.0
 24
10.0
 15
10.0
 25
10.0
 16
0.0
 26
0.0
 36
1.0
 17
0.0
 27
0.0
 37
0.0
 42
50.0
 43
0.0
 44
0.0
 45
103.4160711027
 50
0.0
 51
0.0
 72
   100
 90
   557152
  1

281
     0
 71
     1
 74
     0
110
0.0
120
0.0
130
0.0
111
1.0
121
0.0
131
0.0
112
0.0
122
1.0
132
0.0
 79
     0
146
0.0
  0
ENDBLK
  5
26C
330
269
100
AcDbEntity
  8
0
100
AcDbBlockEnd
  0
BLOCK
  5
2B0
330
2AE
100
AcDbEntity
  8
0
100
AcDbBlockBegin
  2
*Paper_Space4
 70
     0
 10
0.0
 20
0.0
 30
0.0
  3
*Paper_Space4
  1

  0
LWPOLYLINE
  5
2C1
330
2AE
100
AcDbEntity
  8
0
  6
Continuous
 62
     7
370
    25
100
AcDbPolyline
 90
       41
 70
   128
 43
0.0
 10
-91.2167747731
 20
-73.88493412
 10
-91.2669804095
 20
-72.2880573516
 10
-91.4173231131
 20
-70.6419359764
 10
-91.666981764
 20
-68.9555605385
 10
-92.0145928134
 20
-67.2381414358
 10
-92.4582577302
 20
-65.4990586157
 10
-92.9955533705
 20
-63.7478103457
 10
-93.6235452119
 20
-61.9939613365
 10
-94.3388033805
 20
-60.2470905032
 10
-95.1374213845
 20
-58.5167386485
 10
-96.0150374491
 20
-56.8123563542
 10
-96.9668583398
 20
-55.1432523654
 10
-97.9876855408
 20
-53.5185427493
 10
-99.0719436482
 20
-51.9471011063
 10
-100.2137108199
 20
-50.4375101059
 10
-101.4067511198
 20
-48.9980146105
 10
-102.6445485753
 20
-47.6364766454
 10
-103.9203427661
 20
-46.3603324589
 10
-105.2271657466
 20
-45.1765519078
 10
-106.5578801029
 20
-44.0916003912
 10
-107.9052179346
 20
-43.1114035379
 10
-109.2618205498
 20
-42.2413148432
 10
-110.6202786553
 20
-41.48608643
 10
-111.9731728241
 20
-40.8498430938
 10
-113.3131140174
 20
-40.3360597752
 10
-114.6327839409
 20
-39.9475425805
 10
-115.9249750154
 20
-39.6864134558
 10
-117.182629741
 20
-39.5540985979
 10
-118.398879244
 20
-39.5513206648
 10
-119.5670807912
 20
-39.6780948283
 10
-120.6808540709
 20
-39.9337286922
 10
-121.7341160397
 20
-40.3168260727
 10
-122.7211141459
 20
-40.825294625
 10
-123.6364577482
 20
-41.4563572701
 10
-124.4751475572
 20
-42.2065673626
 10
-125.23260294
 20
-43.0718275152
 10
-125.9046869379
 20
-44.0474119769
 10
-126.4877288613
 20
-45.1279924438
 10
-126.9785443373
 20
-46.30766716
 10
-127.374452702
 20
-47.5799931514
 10
-127.5294233642
 20
-48.2184452934
  0
LWPOLYLINE
  5
2C2
330
2AE
100
AcDbEntity
  8
0
  6
Continuous
 62
     7
370
    25
100
AcDbPolyline
 90
       20
 70
   128
 43
0.0
 10
-105.5312112463
 20
-86.3245952381
 10
-105.2271657466
 20
-86.4172632311
 10
-103.9203427661
 20
-86.742308377
 10
-102.6445485753
 20
-86.9391648094
 10
-101.4067511198
 20
-87.0067573666
 10
-100.2137108199
 20
-86.9447168815
 10
-99.0719436482
 20
-86.7533821977
 10
-97.9876855408
 20
-86.4337983189
 10
-96.9668583398
 20
-85.9877107015
 10
-96.0150374491
 20
-85.4175557212
 10
-95.1374213845
 20
-84.726447367
 10
-94.3388033805
 20
-83.918160233
 10
-93.6235452119
 20
-82.9971089031
 10
-92.9955533705
 20
-81.9683238405
 10
-92.4582577302
 20
-80.8374239123
 10
-92.0145928134
 20
-79.6105857018
 10
-91.666981764
 20
-78.2945097738
 10
-91.4173231131
 20
-76.8963840788
 10
-91.2669804095
 20
-75.4238446943
 10
-91.2167747731
 20
-73.88493412
  0
LWPOLYLINE
  5
2C3
330
2AE
100
AcDbEntity
  8
0
  6
Continuous
 62
     7
370
    25
100
AcDbPolyline
 90
       33
 70
   128
 43
0.0
 10
-87.6812408671
 20
-71.8439138404
 10
-87.7314465036
 20
-70.2470370721
 10
-87.8817892071
 20
-68.6009156969
 10
-88.1314478581
 20
-66.914540259
 10
-88.4790589075
 20
-65.1971211562
 10
-88.9227238243
 20
-63.4580383362
 10
-89.4600194646
 20
-61.7067900662
 10
-90.0880113059
 20
-59.952941057
 10
-90.8032694746
 20
-58.2060702236
 10
-91.6018874785
 20
-56.4757183689
 10
-92.4795035432
 20
-54.7713360747
 10
-93.4313244338
 20
-53.1022320859
 10
-94.4521516349
 20
-51.4775224697
 10
-95.5364097422
 20
-49.9060808268
 10
-96.678176914
 20
-48.3964898263
 10
-97.8712172139
 20
-46.956994331
 10
-99.1090146694
 20
-45.5954563659
 10
-100.3848088601
 20
-44.3193121793
 10
-101.6916318406
 20
-43.1355316283
 10
-103.0223461969
 20
-42.0505801116
 10
-104.3696840287
 20
-41.0703832583
 10
-105.7262866438
 20
-40.2002945637
 10
-107.0847447494
 20
-39.4450661504
 10
-108.4376389182
 20
-38.8088228142
 10
-109.7775801114
 20
-38.2950394956
 10
-111.097250035
 20
-37.9065223009
 10
-112.3894411094
 20
-37.6453931762
 10
-113.6470958351
 20
-37.5130783184
 10
-114.8633453381
 20
-37.5103003852
 10
-116.0315468853
 20
-37.6370745488
 10
-117.145320165
 20
-37.8927084126
 10
-118.1985821338
 20
-38.2758057932
 10
-119.0649607023
 20
-38.7133379648
  0
LWPOLYLINE
  5
2C4
330
2AE
100
AcDbEntity
  8
0
  6
Continuous
 62
     7
370
    25
100
AcDbPolyline
 90
       12
 70
   128
 43
0.0
 10
-93.0670736537
 20
-83.7478788086
 10
-92.4795035432
 20
-83.3765354417
 10
-91.6018874785
 20
-82.6854270875
 10
-90.8032694746
 20
-81.8771399534
 10
-90.0880113059
 20
-80.9560886236
 10
-89.4600194646
 20
-79.9273035609
 10
-88.9227238243
 20
-78.7964036327
 10
-88.4790589075
 20
-77.5695654222
 10
-88.1314478581
 20
-76.2534894943
 10
-87.8817892071
 20
-74.8553637992
 10
-87.7314465036
 20
-73.3828244147
 10
-87.6812408671
 20
-71.8439138404
  0
SPLINE
  5
2C5
330
2AE
100
AcDbEntity
  8
0
  6
Continuous
 62
     7
370
    25
100
AcDbSpline
210
0.0
220
0.0
230
1.0
 70
     8
 71
     3
 72
    28
 73
    24
 74
     0
 42
0.000000001
 43
0.00000001
 40
0.0
 40
0.0
 40
0.0
 40
0.0
 40
0.0810899014338704
 40
0.1223489096737153
 40
0.164537044683384
 40
0.2191787973995141
 40
0.2738184341134491
 40
0.329145265837814
 40
0.3853781699789479
 40
0.4400806350181742
 40
0.4940412185196285
 40
0.536918328184208
 40
0.5781730708554869
 40
0.6183632646047075
 40
0.6580916603551863
 40
0.6985011585388936
 40
0.7390863598674028
 40
0.7804890994379469
 40
0.8233144146825639
 40
0.8769094311027223
 40
0.931651555549756
 40
0.9883645971900231
 40
1.0
 40
1.0
 40
1.0
 40
1.0
 10
-160.5517422998738
 20
-109.3379653931222
 30
0.0
 10
-160.5792401744351
 20
-108.6128726249565
 30
0.0
 10
-160.6207291257279
 20
-107.5188484859618
 30
0.0
 10
-160.5719509149309
 20
-105.9077197991059
 30
0.0
 10
-160.4916196506997
 20
-104.530311851654
 30
0.0
 10
-160.3509460551709
 20
-102.9958836743881
 30
0.0
 10
-160.1230323764773
 20
-101.3334869474845
 30
0.0
 10
-159.8071315687436
 20
-99.6871827419552
 30
0.0
 10
-159.4014246768395
 20
-98.09455644512714
 30
0.0
 10
-158.8865851593849
 20
-96.59706998063591
 30
0.0
 10
-158.297362112664
 20
-95.31982886052081
 30
0.0
 10
-157.6610758963837
 20
-94.25369686138005
 30
0.0
 10
-156.9981732256842
 20
-93.39143602364497
 30
0.0
 10
-156.2627112495089
 20
-92.6629890546272
 30
0.0
 10
-155.4481056896054
 20
-92.06586267074057
 30
0.0
 10
-154.5575861577334
 20
-91.60296718503719
 30
0.0
 10
-153.5949043236641
 20
-91.28128618807679
 30
0.0
 10
-152.5714207697108
 20
-91.10618327554539
 30
0.0
 10
-151.4193966938732
 20
-91.07801337050388
 30
0.0
 10
-150.1530282577113
 20
-91.2270935214259
 30
0.0
 10
-148.8147595354529
 20
-91.61739810847163
 30
0.0
 10
-147.8428237406806
 20
-92.01545486892715
 30
0.0
 10
-147.3593805680711
 20
-92.32829595592189
 30
0.0
 10
-147.2770808742845
 20
-92.3815529406561
 30
0.0
  0
SPLINE
  5
2C6
330
2AE
100
AcDbEntity
  8
0
  6
Continuous
 62
     7
370
    25
100
AcDbSpline
210
0.0
220
0.0
230
1.0
 70
     8
 71
     3
 72
    14
 73
    10
 74
     0
 42
0.000000001
 43
0.00000001
 40
0.0
 40
0.0
 40
0.0
 40
0.0
 40
0.2381090830195912
 40
0.3645861506566036
 40
0.4923814691146063
 40
0.6220467335351578
 40
0.7490301127198861
 40
0.8745830960268042
 40
0.9999999999999999
 40
0.9999999999999999
 40
0.9999999999999999
 40
0.9999999999999999
 10
-158.7975466919102
 20
-114.5632745190149
 30
0.0
 10
-159.0315385379308
 20
-114.3896471689983
 30
0.0
 10
-159.3898204872953
 20
-114.1237936938243
 30
0.0
 10
-159.7451034220003
 20
-113.4659793073735
 30
0.0
 10
-159.9861808479537
 20
-112.8509962001591
 30
0.0
 10
-160.1904466848466
 20
-112.1224914613785
 30
0.0
 10
-160.3539848649853
 20
-111.2879369873868
 30
0.0
 10
-160.4784656331722
 20
-110.3664170811049
 30
0.0
 10
-160.5273255751513
 20
-109.6806586798958
 30
0.0
 10
-160.5517422998738
 20
-109.3379653931222
 30
0.0
  0
LWPOLYLINE
  5
2C7
330
2AE
100
AcDbEntity
  8
0
  6
Continuous
 62
     7
370
    25
100
AcDbPolyline
 90
       14
 70
   128
 43
0.0
 10
-94.3987552884
 20
-128.8797201345
 10
-94.8820687267
 20
-127.7441483502
 10
-95.3685088738
 20
-126.6594477559
 10
-95.8553201873
 20
-125.6317628658
 10
-96.3397450225
 20
-124.6669152164
 10
-96.8190392533
 20
-123.7703703898
 10
-97.2904878168
 20
-122.9472070524
 10
-97.7514200937
 20
-122.2020881855
 10
-98.1992250366
 20
-121.5392346713
 10
-98.6313659602
 20
-120.9624013826
 10
-99.0453949117
 20
-120.4748559127
 10
-99.4389665371
 20
-120.0793600652
 10
-99.8098513675
 20
-119.7781542093
 10
-100.0089771921
 20
-119.650092584
  0
LWPOLYLINE
  5
2C8
330
2AE
100
AcDbEntity
  8
0
  6
Continuous
 62
     7
370
    25
100
AcDbPolyline
 90
       27
 70
   128
 43
0.0
 10
-94.3987552884
 20
-128.8797201345
 10
-95.3349830848
 20
-129.6561986338
 10
-96.2435834707
 20
-130.5323801923
 10
-97.1138766324
 20
-131.4979660517
 10
-97.9356330247
 20
-132.5416065831
 10
-98.6991936099
 20
-133.6510346925
 10
-99.3955833921
 20
-134.8132100096
 10
-100.0166169103
 20
-136.0144721659
 10
-100.5549944511
 20
-137.2407013613
 10
-101.0043878511
 20
-138.4774843293
 10
-101.3595148785
 20
-139.7102837532
 10
-101.6162013214
 20
-140.9246091392
 10
-101.7714300521
 20
-142.10618714
 10
-101.8233764909
 20
-143.2411293255
 10
-101.7714300521
 20
-144.3160954295
 10
-101.6162013214
 20
-145.3184501526
 10
-101.3595148785
 20
-146.2364116799
 10
-101.0043878511
 20
-147.0591901656
 10
-100.5549944511
 20
-147.7771145582
 10
-100.0166169103
 20
-148.381746276
 10
-99.3955833921
 20
-148.8659783947
 10
-98.6991936099
 20
-149.2241191835
 10
-97.9356330247
 20
-149.4519590063
 10
-97.1138766324
 20
-149.5468198027
 10
-96.2435834707
 20
-149.5075865657
 10
-95.3349830848
 20
-149.3347204482
 10
-94.3987552884
 20
-149.0302533424
  0
LWPOLYLINE
  5
2CA
330
2AE
100
AcDbEntity
  8
0
  6
Continuous
 62
     7
370
    25
100
AcDbPolyline
 90
       31
 70
   128
 43
0.0
 10
-94.0452018978
 20
-72.2521178963
 10
-94.0956463448
 20
-70.7775037152
 10
-94.2466525341
 20
-69.2542110542
 10
-94.4972411326
 20
-67.6921190507
 10
-94.8457869772
 20
-66.1013584708
 10
-95.2900296143
 20
-64.4922460073
 10
-95.8270879599
 20
-62.8752173719
 10
-96.4534789846
 20
-61.2607596158
 10
-97.1651403021
 20
-59.6593431172
 10
-97.9574565158
 20
-58.0813536765
 10
-98.825289151
 20
-56.5370251608
 10
-99.76300998
 20
-55.0363731331
 10
-100.7645375234
 20
-53.5891298977
 10
-101.8233764909
 20
-52.2046813822
 10
-102.9326599052
 20
-50.8920062667
 10
-104.085193638
 20
-49.6596177528
 10
-105.2735030656
 20
-48.5155083531
 10
-106.4898815453
 20
-47.467098056
 10
-107.7264403961
 20
-46.5211862046
 10
-108.9751600593
 20
-45.6839074003
 10
-110.2279421086
 20
-44.9606917173
 10
-111.4766617717
 20
-44.3562294869
 10
-112.7132206225
 20
-43.8744408786
 10
-113.9295991023
 20
-43.5184504765
 10
-115.1179085298
 20
-43.2905670148
 10
-116.2704422626
 20
-43.1922684053
 10
-117.379725677
 20
-43.2241921522
 10
-118.4385646444
 20
-43.3861312177
 10
-119.4400921878
 20
-43.6770353649
 10
-120.3778130168
 20
-44.0950179686
 10
-120.6006571429
 20
-44.2185536939
  0
LWPOLYLINE
  5
2CB
330
2AE
100
AcDbEntity
  8
0
  6
Continuous
 62
     7
370
    25
100
AcDbPolyline
 90
       11
 70
   128
 43
0.0
 10
-98.6024450249
 20
-82.3247036386
 10
-97.9574565158
 20
-81.9058890811
 10
-97.1651403021
 20
-81.2426884689
 10
-96.4534789846
 20
-80.4629386378
 10
-95.8270879599
 20
-79.5716965648
 10
-95.2900296143
 20
-78.5747422965
 10
-94.8457869772
 20
-77.4785414641
 10
-94.4972411326
 20
-76.2902033506
 10
-94.2466525341
 20
-75.0174347846
 10
-94.0956463448
 20
-73.6684901586
 10
-94.0452018978
 20
-72.2521178963
  0
LWPOLYLINE
  5
2CC
330
2AE
100
AcDbEntity
  8
0
  6
Continuous
 62
     7
370
    25
100
AcDbPolyline
 90
       33
 70
   128
 43
0.0
 10
-174.6553749531
 20
-118.7873802702
 10
-174.7058194
 20
-117.3127660891
 10
-174.8568255894
 20
-115.7894734281
 10
-175.1074141879
 20
-114.2273814246
 10
-175.4559600325
 20
-112.6366208447
 10
-175.9002026696
 20
-111.0275083812
 10
-176.4372610152
 20
-109.4104797458
 10
-177.0636520398
 20
-107.7960219897
 10
-177.7753133574
 20
-106.1946054911
 10
-178.5676295711
 20
-104.6166160504
 10
-179.4354622063
 20
-103.0722875347
 10
-180.3731830353
 20
-101.571635507
 10
-181.3747105787
 20
-100.1243922716
 10
-182.4335495461
 20
-98.7399437561
 10
-183.5428329605
 20
-97.4272686406
 10
-184.6953666932
 20
-96.1948801267
 10
-185.8836761208
 20
-95.050770727
 10
-187.1000546006
 20
-94.0023604299
 10
-188.3366134514
 20
-93.0564485785
 10
-189.5853331145
 20
-92.2191697742
 10
-190.8381151638
 20
-91.4959540912
 10
-192.086834827
 20
-90.8914918608
 10
-193.3233936778
 20
-90.4097032525
 10
-194.5397721575
 20
-90.0537128504
 10
-195.7280815851
 20
-89.8258293887
 10
-196.8806153179
 20
-89.7275307792
 10
-197.9898987322
 20
-89.7594545261
 10
-199.0487376996
 20
-89.9213935916
 10
-200.0502652431
 20
-90.2122977388
 10
-200.9879860721
 20
-90.6302803425
 10
-201.8558187073
 20
-91.1726306254
 10
-202.648134921
 20
-91.8358312375
 10
-203.2928081662
 20
-92.5330020036
  0
LWPOLYLINE
  5
2CE
330
2AE
100
AcDbEntity
  8
0
  6
Continuous
 62
     7
370
    25
100
AcDbPolyline
 90
       23
 70
   128
 43
0.0
 10
-175.8928118202
 20
-118.0730231724
 10
-175.9430302611
 20
-116.6604236073
 10
-176.0933333375
 20
-115.1997514356
 10
-176.3426667813
 20
-113.701252223
 10
-176.6892816976
 20
-112.1754368648
 10
-177.1307468318
 20
-110.6330078594
 10
-177.6639656231
 20
-109.0847842381
 10
-178.2851979248
 20
-107.5416256772
 10
-178.9900862387
 20
-106.0143563252
 10
-179.7736862798
 20
-104.5136888793
 10
-180.6305016568
 20
-103.0501494434
 10
-181.5545224253
 20
-101.634003695
 10
-182.5392672437
 20
-100.2751848792
 10
-183.5778288345
 20
-98.9832241336
 10
-184.6629224345
 20
-97.7671836346
 10
-185.7869368916
 20
-96.6355930325
 10
-186.9419880521
 20
-95.5963896223
 10
-188.1199740619
 20
-94.6568626694
 10
-189.3126321956
 20
-93.8236022802
 10
-190.5115968132
 20
-93.1024531776
 10
-191.7084580396
 20
-92.4984737046
 10
-192.894820753
 20
-92.0159003431
 10
-193.9535582583
 20
-91.6863825034
  0
SPLINE
  5
2D0
330
2AE
100
AcDbEntity
  8
0
  6
Continuous
 62
     7
370
    25
100
AcDbSpline
210
0.0
220
0.0
230
1.0
 70
     8
 71
     3
 72
    28
 73
    24
 74
     0
 42
0.000000001
 43
0.00000001
 40
0.0
 40
0.0
 40
0.0
 40
0.0
 40
0.0519879640518044
 40
0.1061823686969166
 40
0.1622730547197537
 40
0.2054488114861769
 40
0.2493033141337553
 40
0.2935993918401986
 40
0.3381282007163156
 40
0.3826570095924326
 40
0.4269530872988758
 40
0.4708075899464542
 40
0.5139833467128775
 40
0.5700740327357147
 40
0.6242684373808269
 40
0.6762564014326312
 40
0.7282443654844353
 40
0.7824387701295475
 40
0.8385294561523847
 40
0.8817052129188071
 40
0.9255597155663855
 40
0.9698557932728292
 40
1.0
 40
1.0
 40
1.0
 40
1.0
 10
-175.9695824957239
 20
-118.3579849258034
 30
0.0
 10
-175.9905736015259
 20
-117.6706506538392
 30
0.0
 10
-176.0334467044889
 20
-116.2668106994414
 30
0.0
 10
-176.3803926842531
 20
-113.9903864627801
 30
0.0
 10
-176.9052422478439
 20
-111.7847561213988
 30
0.0
 10
-177.5760746231169
 20
-109.705161769781
 30
0.0
 10
-178.3225964981762
 20
-107.8003431271029
 30
0.0
 10
-179.2019959626336
 20
-105.8980410132293
 30
0.0
 10
-180.2055578248138
 20
-104.0285261088157
 30
0.0
 10
-181.3228217244755
 20
-102.2246517563362
 30
0.0
 10
-182.530545207035
 20
-100.5120069040199
 30
0.0
 10
-183.8068771795572
 20
-98.91293044018407
 30
0.0
 10
-185.272399323898
 20
-97.29309604374347
 30
0.0
 10
-186.9200460763881
 20
-95.73181758725656
 30
0.0
 10
-188.7179341103942
 20
-94.30837460722583
 30
0.0
 10
-190.4969247457911
 20
-93.15403369899744
 30
0.0
 10
-192.2758885543746
 20
-92.25443069203259
 30
0.0
 10
-194.0738614925723
 20
-91.60192492380791
 30
0.0
 10
-195.7212087787782
 20
-91.26141795445349
 30
0.0
 10
-197.1876156609867
 20
-91.18757746344922
 30
0.0
 10
-198.4607866524931
 20
-91.31881761380528
 30
0.0
 10
-199.5482712195961
 20
-91.58297305205384
 30
0.0
 10
-200.1606695624202
 20
-91.88892508313943
 30
0.0
 10
-200.4086570921015
 20
-92.0128187697879
 30
0.0
  0
SPLINE
  5
2D1
330
2AE
100
AcDbEntity
  8
0
  6
Continuous
 62
     7
370
    25
100
AcDbSpline
210
0.0
220
0.0
230
1.0
 70
     8
 71
     3
 72
     9
 73
     5
 74
     0
 42
0.000000001
 43
0.00000001
 40
0.0
 40
0.0
 40
0.0
 40
0.0
 40
0.2955846790785844
 40
1.0
 40
1.0
 40
1.0
 40
1.0
 10
-176.2110576365647
 20
-121.0745246727878
 30
0.0
 10
-176.1618669356162
 20
-120.8251391260553
 30
0.0
 10
-175.9954486317249
 20
-119.9814365785824
 30
0.0
 10
-175.9802726733282
 20
-119.0289388904594
 30
0.0
 10
-175.9695824957238
 20
-118.3579849258034
 30
0.0
  0
LWPOLYLINE
  5
2D2
330
2AE
100
AcDbEntity
  8
0
  6
Continuous
 62
     7
370
    25
100
AcDbPolyline
 90
       12
 70
   128
 43
0.0
 10
-191.1147832675
 20
-92.9641845763
 10
-192.7741864638
 20
-92.5262636523
 10
-194.42770444
 20
-92.1996882892
 10
-196.0652236241
 20
-91.9864559513
 10
-197.6767282988
 20
-91.8878708523
 10
-199.2523618622
 20
-91.9045359778
 10
-200.782487114
 20
-92.0363493973
 10
-202.257745201
 20
-92.2825048876
 10
-203.6691128593
 20
-92.641496864
 10
-205.0079576042
 20
-93.1111295892
 10
-206.26609053
 20
-93.6885306029
 10
-206.8144359687
 20
-93.9887088225
  0
LWPOLYLINE
  5
2D3
330
2AE
100
AcDbEntity
  8
0
  6
Continuous
 62
     7
370
    25
100
AcDbPolyline
 90
       25
 70
   128
 43
0.0
 10
-177.3151944909
 20
-125.9280724672
 10
-176.8778791888
 20
-124.8523476986
 10
-176.5259954269
 20
-123.6597638343
 10
-176.2729909479
 20
-122.3818130026
 10
-176.1205225066
 20
-121.026863637
 10
-176.0695885155
 20
-119.603788382
 10
-176.1205225066
 20
-118.1219059926
 10
-176.2729909479
 20
-116.5909203117
 10
-176.5259954269
 20
-115.0208567264
 10
-176.8778791888
 20
-113.4219965184
 10
-177.3263379855
 20
-111.8048095391
 10
-177.8684351643
 20
-110.1798856495
 10
-178.5006208986
 20
-108.5578653742
 10
-179.2187554325
 20
-106.9493702242
 10
-180.01813619
 20
-105.3649331435
 10
-180.8935285685
 20
-103.8149295362
 10
-181.839200217
 20
-102.3095093249
 10
-182.848958573
 20
-100.8585304856
 10
-183.9161914138
 20
-99.4714944951
 10
-185.0339101552
 20
-98.1574841113
 10
-186.194795615
 20
-96.9251038974
 10
-187.3912459416
 20
-95.7824238757
 10
-188.615426393
 20
-94.7369266828
 10
-189.8593206416
 20
-93.7954585709
 10
-191.1147832675
 20
-92.9641845763
  0
LWPOLYLINE
  5
2D4
330
2AE
100
AcDbEntity
  8
0
  6
Continuous
 62
     7
370
    25
100
AcDbPolyline
 90
       79
 70
   128
 43
0.0
 10
-194.8079182169
 20
-130.4211958637
 10
-194.8583626639
 20
-128.9465816826
 10
-195.0093688532
 20
-127.4232890216
 10
-195.2599574517
 20
-125.8611970181
 10
-195.6085032963
 20
-124.2704364382
 10
-196.0527459334
 20
-122.6613239746
 10
-196.589804279
 20
-121.0442953392
 10
-197.2161953036
 20
-119.4298375832
 10
-197.9278566212
 20
-117.8284210846
 10
-198.7201728349
 20
-116.2504316439
 10
-199.5880054701
 20
-114.7061031282
 10
-200.5257262991
 20
-113.2054511005
 10
-201.5272538425
 20
-111.7582078651
 10
-202.5860928099
 20
-110.3737593496
 10
-203.6953762243
 20
-109.0610842341
 10
-204.8479099571
 20
-107.8286957202
 10
-206.0362193846
 20
-106.6845863205
 10
-207.2525978644
 20
-105.6361760234
 10
-208.4891567152
 20
-104.690264172
 10
-209.7378763783
 20
-103.8529853676
 10
-210.9906584276
 20
-103.1297696847
 10
-212.2393780908
 20
-102.5253074543
 10
-213.4759369416
 20
-102.043518846
 10
-214.6923154214
 20
-101.6875284439
 10
-215.8806248489
 20
-101.4596449822
 10
-217.0331585817
 20
-101.3613463727
 10
-218.1424419961
 20
-101.3932701196
 10
-219.2012809635
 20
-101.5552091851
 10
-220.2028085069
 20
-101.8461133322
 10
-221.1405293359
 20
-102.264095936
 10
-222.0083619711
 20
-102.8064462188
 10
-222.8006781848
 20
-103.469646831
 10
-223.5123395024
 20
-104.249396662
 10
-224.138730527
 20
-105.1406387351
 10
-224.6757888726
 20
-106.1375930033
 10
-225.1200315097
 20
-107.2337938358
 10
-225.4685773543
 20
-108.4221319493
 10
-225.7191659528
 20
-109.6949005153
 10
-225.8701721421
 20
-111.0438451413
 10
-225.9206165891
 20
-112.4602174036
 10
-225.8701721421
 20
-113.9348315846
 10
-225.7191659528
 20
-115.4581242456
 10
-225.4685773543
 20
-117.0202162491
 10
-225.1200315097
 20
-118.6109768291
 10
-224.6757888726
 20
-120.2200892926
 10
-224.138730527
 20
-121.837117928
 10
-223.5123395024
 20
-123.4515756841
 10
-222.8006781848
 20
-125.0529921827
 10
-222.0083619711
 20
-126.6309816234
 10
-221.1405293359
 20
-128.1753101391
 10
-220.2028085069
 20
-129.6759621668
 10
-219.2012809635
 20
-131.1232054022
 10
-218.1424419961
 20
-132.5076539176
 10
-217.0331585817
 20
-133.8203290332
 10
-215.8806248489
 20
-135.0527175471
 10
-214.6923154214
 20
-136.1968269468
 10
-213.4759369416
 20
-137.2452372439
 10
-212.2393780908
 20
-138.1911490953
 10
-210.9906584276
 20
-139.0284278996
 10
-209.7378763783
 20
-139.7516435826
 10
-208.4891567152
 20
-140.356105813
 10
-207.2525978644
 20
-140.8378944212
 10
-206.0362193846
 20
-141.1938848234
 10
-204.8479099571
 20
-141.4217682851
 10
-203.6953762243
 20
-141.5200668946
 10
-202.5860928099
 20
-141.4881431477
 10
-201.5272538425
 20
-141.3262040822
 10
-200.5257262991
 20
-141.035299935
 10
-199.5880054701
 20
-140.6173173313
 10
-198.7201728349
 20
-140.0749670484
 10
-197.9278566212
 20
-139.4117664363
 10
-197.2161953036
 20
-138.6320166052
 10
-196.589804279
 20
-137.7407745321
 10
-196.0527459334
 20
-136.7438202639
 10
-195.6085032963
 20
-135.6476194315
 10
-195.2599574517
 20
-134.4592813179
 10
-195.0093688532
 20
-133.1865127519
 10
-194.8583626639
 20
-131.837568126
 10
-194.8079182169
 20
-130.4211958637
  0
LWPOLYLINE
  5
2D5
330
2AE
100
AcDbEntity
  8
0
  6
Continuous
 62
     7
370
    25
100
AcDbPolyline
 90
       43
 70
   128
 43
0.0
 10
-146.3711037056
 20
-144.834881498
 10
-147.0561308867
 20
-145.2896198326
 10
-147.7258556926
 20
-145.852761185
 10
-148.3653175778
 20
-146.5117259082
 10
-148.9602320203
 20
-147.251793819
 10
-149.4973096148
 20
-148.0564330233
 10
-149.9645529351
 20
-148.9076692109
 10
-150.3515245376
 20
-149.7864871719
 10
-150.6495801162
 20
-150.6732555653
 10
-150.8520616018
 20
-151.5481654506
 10
-150.9544458925
 20
-152.3916727867
 10
-150.9544458925
 20
-153.1849350134
 10
-150.8520616018
 20
-153.9102319636
 10
-150.6495801162
 20
-154.5513617018
 10
-150.3515245376
 20
-155.0940024492
 10
-149.9645529351
 20
-155.526032508
 10
-149.4973096148
 20
-155.8378010408
 10
-148.9602320203
 20
-156.0223436537
 10
-148.3653175778
 20
-156.0755379697
 10
-147.7258556926
 20
-155.9961957155
 10
-147.0561308867
 20
-155.7860892662
 10
-146.3711037056
 20
-155.4499120525
 10
-145.6860765245
 20
-154.995173718
 10
-145.0163517186
 20
-154.4320323655
 10
-144.3768898335
 20
-153.7730676423
 10
-143.7819753909
 20
-153.0329997315
 10
-143.2448977965
 20
-152.2283605272
 10
-142.7776544761
 20
-151.3771243397
 10
-142.3906828736
 20
-150.4983063786
 10
-142.092627295
 20
-149.6115379852
 10
-141.8901458094
 20
-148.7366280999
 10
-141.7877615187
 20
-147.8931207639
 10
-141.7877615187
 20
-147.0998585371
 10
-141.8901458094
 20
-146.374561587
 10
-142.092627295
 20
-145.7334318487
 10
-142.3906828736
 20
-145.1907911014
 10
-142.7776544761
 20
-144.7587610425
 10
-143.2448977965
 20
-144.4469925097
 10
-143.7819753909
 20
-144.2624498968
 10
-144.3768898335
 20
-144.2092555809
 10
-145.0163517186
 20
-144.288597835
 10
-145.6860765245
 20
-144.4987042843
 10
-146.3711037056
 20
-144.834881498
  0
LWPOLYLINE
  5
2D6
330
2AE
100
AcDbEntity
  8
0
  6
Continuous
 62
     7
370
    25
100
AcDbPolyline
 90
       23
 70
   128
 43
0.0
 10
-164.3345712601
 20
-132.2669574925
 10
-164.7186270064
 20
-132.0923706319
 10
-165.2862101024
 20
-131.9731688551
 10
-165.9051288887
 20
-131.9862794842
 10
-166.5615577424
 20
-132.1314096493
 10
-167.2408331276
 20
-132.4053173824
 10
-167.9277811548
 20
-132.8018840373
 10
-168.60705654
 20
-133.3122509703
 10
-169.2634853938
 20
-133.9250174274
 10
-169.8824041801
 20
-134.6264952186
 10
-170.449987276
 20
-135.4010144891
 10
-170.9535558132
 20
-136.2312737583
 10
-171.3818609025
 20
-137.0987264061
 10
-171.7253349161
 20
-137.9839949738
 10
-171.976305212
 20
-138.8673040245
 10
-172.1291655286
 20
-139.7289218934
 10
-172.1805012189
 20
-140.5496014614
 10
-172.1291655286
 20
-141.3110101028
 10
-171.976305212
 20
-141.9961392069
 10
-171.7253349161
 20
-142.5896841217
 10
-171.3818609025
 20
-143.0783860345
 10
-170.9535558132
 20
-143.4513281521
 10
-170.8340430223
 20
-143.5255927034
  0
LWPOLYLINE
  5
2D7
330
2AE
100
AcDbEntity
  8
0
  6
Continuous
 62
     7
370
    25
100
AcDbPolyline
 90
       10
 70
   128
 43
0.0
 10
-89.0422203083
 20
-138.1871430984
 10
-89.0605285564
 20
-139.1762136782
 10
-89.1152230638
 20
-140.0739570862
 10
-89.2056160155
 20
-140.8690836782
 10
-89.3305706675
 20
-141.551594276
 10
-89.4885156427
 20
-142.1129059127
 10
-89.6774646913
 20
-142.5459597689
 10
-89.8950416694
 20
-142.845309941
 10
-90.1385104203
 20
-143.007191927
 10
-90.234194633
 20
-143.0317289182
  0
LWPOLYLINE
  5
2D8
330
2AE
100
AcDbEntity
  8
0
  6
Continuous
 62
     7
370
    25
100
AcDbPolyline
 90
       21
 70
   128
 43
0.0
 10
-93.6736744983
 20
-120.7961722969
 10
-93.5030599483
 20
-120.7983312481
 10
-93.2172800349
 20
-120.915738571
 10
-92.9156128193
 20
-121.1714547915
 10
-92.6018519416
 20
-121.56226413
 10
-92.2799431271
 20
-122.083251932
 10
-91.9539345657
 20
-122.7278664738
 10
-91.6279260043
 20
-123.4880013535
 10
-91.3060171897
 20
-124.3540974339
 10
-90.9922563121
 20
-125.3152630543
 10
-90.6905890964
 20
-126.3594109993
 10
-90.4048091831
 20
-127.4734105027
 10
-90.1385104203
 20
-128.6432523744
 10
-89.8950416694
 20
-129.854225174
 10
-89.6774646913
 20
-131.0911002161
 10
-89.4885156427
 20
-132.3383230793
 10
-89.3305706675
 20
-133.5802092124
 10
-89.2056160155
 20
-134.8011411768
 10
-89.1152230638
 20
-135.9857650446
 10
-89.0605285564
 20
-137.1191834833
 10
-89.0422203083
 20
-138.1871430984
  0
LINE
  5
2D9
330
2AE
100
AcDbEntity
  8
0
  6
Continuous
 62
     7
370
    25
100
AcDbLine
 10
-119.0649607023
 20
-38.7133379648
 30
0.0
 11
-122.6004946082
 21
-40.7543582444
 31
0.0
  0
LINE
  5
2DA
330
2AE
100
AcDbEntity
  8
0
  6
Continuous
 62
     7
370
    25
100
AcDbLine
 10
-96.6026075596
 20
-85.7888990882
 30
0.0
 11
-93.0670736537
 21
-83.7478788086
 31
0.0
  0
LINE
  5
2DB
330
2AE
100
AcDbEntity
  8
0
  6
Continuous
 62
     7
370
    25
100
AcDbLine
 10
-158.8049119986
 20
-114.5746534271
 30
0.0
 11
-99.234033805
 21
-148.9641894064
 31
0.0
  0
LINE
  5
2DC
330
2AE
100
AcDbEntity
  8
0
  6
Continuous
 62
     7
370
    25
100
AcDbLine
 10
-100.0089771921
 20
-119.650092584
 30
0.0
 11
-147.2686711226
 21
-92.367652001
 31
0.0
  0
LINE
  5
2DD
330
2AE
100
AcDbEntity
  8
0
  6
Continuous
 62
     7
370
    25
100
AcDbLine
 10
-120.6006571429
 20
-44.2185536939
 30
0.0
 11
-201.2108301982
 21
-90.7538160678
 31
0.0
  0
LINE
  5
2DE
330
2AE
100
AcDbEntity
  8
0
  6
Continuous
 62
     7
370
    25
100
AcDbLine
 10
-175.7245368482
 20
-126.8463395785
 30
0.0
 11
-156.6359808225
 21
-115.8267507434
 31
0.0
  0
LINE
  5
2DF
330
2AE
100
AcDbEntity
  8
0
  6
Continuous
 62
     7
370
    25
100
AcDbLine
 10
-131.6339489732
 20
-101.3933849797
 30
0.0
 11
-98.6024450249
 21
-82.3247036386
 31
0.0
  0
LINE
  5
2E0
330
2AE
100
AcDbEntity
  8
0
  6
Continuous
 62
     7
370
    25
100
AcDbLine
 10
-206.8144359687
 20
-93.9887088225
 30
0.0
 11
-221.363373462
 21
-102.3876316613
 31
0.0
  0
LINE
  5
2E1
330
2AE
100
AcDbEntity
  8
0
  6
Continuous
 62
     7
370
    25
100
AcDbLine
 10
-199.365161344
 20
-140.493781606
 30
0.0
 11
-186.7254308618
 21
-133.1970205146
 31
0.0
  0
LINE
  5
2E2
330
2AE
100
AcDbEntity
  8
0
  6
Continuous
 62
     7
370
    25
100
AcDbLine
 10
-170.8340430223
 20
-143.5255927034
 30
0.0
 11
-149.6208395867
 21
-155.7717143807
 31
0.0
  0
LINE
  5
2E3
330
2AE
100
AcDbEntity
  8
0
  6
Continuous
 62
     7
370
    25
100
AcDbLine
 10
-143.1213678245
 20
-144.5130791698
 30
0.0
 11
-164.3345712601
 21
-132.2669574925
 31
0.0
  0
LINE
  5
2E4
330
2AE
100
AcDbEntity
  8
0
  6
Continuous
 62
     7
370
    25
100
AcDbLine
 10
-166.5667221818
 20
-132.133033455
 30
0.0
 11
-184.8297616318
 21
-121.5900051951
 31
0.0
  0
LINE
  5
2E5
330
2AE
100
AcDbEntity
  8
0
  6
Continuous
 62
     7
370
    25
100
AcDbLine
 10
-190.432463857
 20
-131.0569959182
 30
0.0
 11
-172.0662752113
 21
-141.6595709411
 31
0.0
  0
LINE
  5
2E6
330
2AE
100
AcDbEntity
  8
0
  6
Continuous
 62
     7
370
    25
100
AcDbLine
 10
-94.3987552884
 20
-143.6759188868
 30
0.0
 11
-90.234194633
 21
-143.0317289182
 31
0.0
  0
LINE
  5
2E7
330
2AE
100
AcDbEntity
  8
0
  6
Continuous
 62
     7
370
    25
100
AcDbLine
 10
-93.6736744983
 20
-120.7961722969
 30
0.0
 11
-98.2268290983
 21
-121.5004714443
 31
0.0
  0
LINE
  5
2E8
330
2AE
100
AcDbEntity
  8
0
  6
Continuous
 62
     7
370
    25
100
AcDbLine
 10
-94.3987552884
 20
-128.8797201345
 30
0.0
 11
-94.3987552884
 21
-149.0302533424
 31
0.0
  0
ARC
  5
2E9
330
2AE
100
AcDbEntity
  8
0
  6
Continuous
 62
     7
370
    25
100
AcDbCircle
 10
-188.4617832501
 20
-119.2810277524
 30
0.0
 40
13.81523064961525
100
AcDbArc
 50
329.2402939254
 51
2.0477355913
  0
ARC
  5
2EA
330
2AE
100
AcDbEntity
  8
0
  6
Continuous
 62
     7
370
    25
100
AcDbCircle
 10
-192.2240080802
 20
-118.1610988928
 30
0.0
 40
16.33143375880031
100
AcDbArc
 50
350.7657277981
 51
0.3089986828
  0
VIEWPORT
  5
375
330
2AE
100
AcDbEntity
  8
0
100
AcDbViewport
 10
0.0
 20
0.0
 30
0.0
 40
205.6
 41
156.0
 68
     1
 69
     1
 12
40.8122932966
 22
0.0
 13
0.0
 23
0.0
 14
10.0
 24
10.0
 15
10.0
 25
10.0
 16
0.0
 26
0.0
 36
1.0
 17
0.0
 27
0.0
 37
0.0
 42
50.0
 43
0.0
 44
0.0
 45
103.4160711027
 50
0.0
 51
0.0
 72
   100
 90
   557152
  1

281
     0
 71
     1
 74
     0
110
0.0
120
0.0
130
0.0
111
1.0
121
0.0
131
0.0
112
0.0
122
1.0
132
0.0
 79
     0
146
0.0
  0
ENDBLK
  5
2B1
330
2AE
100
AcDbEntity
  8
0
100
AcDbBlockEnd
  0
BLOCK
  5
2ED
330
2EB
100
AcDbEntity
  8
0
100
AcDbBlockBegin
  2
*Paper_Space5
 70
     0
 10
0.0
 20
0.0
 30
0.0
  3
*Paper_Space5
  1

  0
LWPOLYLINE
  5
2FE
330
2EB
100
AcDbEntity
  8
0
  6
Continuous
 62
     7
370
    25
100
AcDbPolyline
 90
       43
 70
   128
 43
0.0
 10
-49.3429141205
 20
-76.8534093164
 10
-49.4057091267
 20
-75.190439717
 10
-49.5937511807
 20
-73.5024200066
 10
-49.9060132619
 20
-71.7985695635
 10
-50.3407899032
 20
-70.088194228
 10
-50.8957065054
 20
-68.380635477
 10
-51.5677323063
 20
-66.6852194043
 10
-52.3531969341
 20
-65.0112057846
 10
-53.2478104535
 20
-63.3677374998
 10
-54.2466867955
 20
-61.7637906037
 10
-55.3443704439
 20
-60.2081252981
 10
-56.5348662314
 20
-58.7092380874
 10
-57.8116720827
 20
-57.2753153737
 10
-59.1678145271
 20
-55.9141887458
 10
-60.5958867848
 20
-54.6332922053
 10
-62.0880892204
 20
-53.4396215648
 10
-63.6362719415
 20
-52.3396962395
 10
-65.2319793111
 20
-51.33952364
 10
-66.8664961289
 20
-50.4445663624
 10
-68.5308952307
 20
-49.6597123529
 10
-70.2160862458
 20
-48.9892482119
 10
-71.9128652454
 20
-48.436835782
 10
-73.6119650108
 20
-48.0054921485
 10
-75.3041056485
 20
-47.6975731606
 10
-76.9800452729
 20
-47.5147605651
 10
-78.6306304831
 20
-47.458052821
 10
-80.246846355
 20
-47.5277596463
 10
-81.819865678
 20
-47.7235003266
 10
-83.3410971659
 20
-48.044205794
 10
-84.80223238
 20
-48.4881244666
 10
-86.1952911064
 20
-49.0528318144
 10
-87.5126649414
 20
-49.7352436019
 10
-88.7471588459
 20
-50.5316327324
 10
-89.8920304423
 20
-51.4376496046
 10
-90.941026839
 20
-52.4483458687
 10
-91.8884187814
 20
-53.5582014521
 10
-92.7290319432
 20
-54.7611547084
 10
-93.4582751868
 20
-56.0506355241
 10
-94.0721656386
 20
-57.4196012022
 10
-94.5673504418
 20
-58.8605749268
 10
-94.9411250687
 20
-60.3656865992
 10
-95.1914480918
 20
-61.9267158213
 10
-95.2216278194
 20
-62.1971435967
  0
LWPOLYLINE
  5
300
330
2EB
100
AcDbEntity
  8
0
  6
Continuous
 62
     7
370
    25
100
AcDbPolyline
 90
       35
 70
   128
 43
0.0
 10
-47.0094371759
 20
-74.5758642824
 10
-47.0722321821
 20
-72.912894683
 10
-47.260274236
 20
-71.2248749726
 10
-47.5725363172
 20
-69.5210245295
 10
-48.0073129586
 20
-67.810649194
 10
-48.5622295607
 20
-66.103090443
 10
-49.2342553617
 20
-64.4076743703
 10
-50.0197199895
 20
-62.7336607506
 10
-50.9143335088
 20
-61.0901924658
 10
-51.9132098508
 20
-59.4862455697
 10
-53.0108934993
 20
-57.930580264
 10
-54.2013892867
 20
-56.4316930533
 10
-55.4781951381
 20
-54.9977703397
 10
-56.8343375825
 20
-53.6366437118
 10
-58.2624098402
 20
-52.3557471712
 10
-59.7546122757
 20
-51.1620765308
 10
-61.3027949969
 20
-50.0621512054
 10
-62.8985023665
 20
-49.061978606
 10
-64.5330191842
 20
-48.1670213284
 10
-66.197418286
 20
-47.3821673189
 10
-67.8826093012
 20
-46.7117031778
 10
-69.5793883007
 20
-46.159290748
 10
-71.2784880662
 20
-45.7279471145
 10
-72.9706287038
 20
-45.4200281266
 10
-74.6465683283
 20
-45.2372155311
 10
-76.2971535385
 20
-45.180507787
 10
-77.9133694104
 20
-45.2502146123
 10
-79.4863887333
 20
-45.4459552926
 10
-81.0076202213
 20
-45.76666076
 10
-82.4687554354
 20
-46.2105794326
 10
-83.8618141618
 20
-46.7752867804
 10
-85.1791879968
 20
-47.4576985679
 10
-86.4136819013
 20
-48.2540876984
 10
-87.5585534977
 20
-49.1601045706
 10
-88.1647404644
 20
-49.7199353251
  0
SPLINE
  5
302
330
2EB
100
AcDbEntity
  8
0
  6
Continuous
 62
     7
370
    25
100
AcDbSpline
210
0.0
220
0.0
230
1.0
 70
     8
 71
     3
 72
    26
 73
    22
 74
     0
 42
0.000000001
 43
0.00000001
 40
0.0
 40
0.0
 40
0.0
 40
0.0
 40
0.0883650246674009
 40
0.1333256574514921
 40
0.1792987752489185
 40
0.2388428089849624
 40
0.29838453687795
 40
0.3586751126912606
 40
0.4199530508029892
 40
0.4795632437750558
 40
0.538364996001403
 40
0.5850889010275703
 40
0.6300448855501035
 40
0.673840813270323
 40
0.7171335119715325
 40
0.7611684194095764
 40
0.8053947935093133
 40
0.850512052733419
 40
0.8971795165120735
 40
0.9555829041629914
 40
0.9999999999999999
 40
0.9999999999999999
 40
0.9999999999999999
 40
0.9999999999999999
 10
-96.79811099203285
 20
-117.370752555251
 30
0.0
 10
-96.85144449097929
 20
-116.6242069144023
 30
0.0
 10
-96.93191438093842
 20
-115.4978145577165
 30
0.0
 10
-97.04504674132825
 20
-113.860728342769
 30
0.0
 10
-97.13749940820036
 20
-112.4678430563079
 30
0.0
 10
-97.23424143651879
 20
-110.9248408097551
 30
0.0
 10
-97.31493872135086
 20
-109.2601959872301
 30
0.0
 10
-97.35440734489124
 20
-107.61558332824
 30
0.0
 10
-97.33907575902066
 20
-106.0256162172626
 30
0.0
 10
-97.23941880471563
 20
-104.5266121132086
 30
0.0
 10
-97.04901549350865
 20
-103.2399027645891
 30
0.0
 10
-96.78288701071727
 20
-102.1557784139619
 30
0.0
 10
-96.45374448380903
 20
-101.2671210090521
 30
0.0
 10
-96.03822493365793
 20
-100.5013121913315
 30
0.0
 10
-95.53003888789982
 20
-99.85475673865243
 30
0.0
 10
-94.9303788891728
 20
-99.33018313464642
 30
0.0
 10
-94.2409119465268
 20
-98.93508522579874
 30
0.0
 10
-93.47063970237213
 20
-98.67483757778423
 30
0.0
 10
-92.56872581709504
 20
-98.55002803578653
 30
0.0
 10
-91.63766151631191
 20
-98.56719968028757
 30
0.0
 10
-90.99904460099367
 20
-98.73421284182501
 30
0.0
 10
-90.72317049722953
 20
-98.80636032985858
 30
0.0
  0
SPLINE
  5
303
330
2EB
100
AcDbEntity
  8
0
  6
Continuous
 62
     7
370
    25
100
AcDbSpline
210
0.0
220
0.0
230
1.0
 70
     8
 71
     3
 72
    15
 73
    11
 74
     0
 42
0.000000001
 43
0.00000001
 40
0.0
 40
0.0
 40
0.0
 40
0.0
 40
0.1843510113111394
 40
0.3877191269565076
 40
0.4893603037534244
 40
0.5920608707406918
 40
0.6962641884774119
 40
0.798312254068457
 40
0.8992108059727731
 40
1.0
 40
1.0
 40
1.0
 40
1.0
 10
-95.80594032441799
 20
-123.2874062929675
 30
0.0
 10
-95.92088712431358
 20
-123.228454208706
 30
0.0
 10
-96.16263829554393
 20
-123.1044687177689
 30
0.0
 10
-96.32298525759374
 20
-122.473388337173
 30
0.0
 10
-96.43211758843198
 20
-121.7399911338205
 30
0.0
 10
-96.50430064670637
 20
-121.0669695055633
 30
0.0
 10
-96.57651939338497
 20
-120.2867105557872
 30
0.0
 10
-96.64870877131942
 20
-119.4028640915983
 30
0.0
 10
-96.721677146017
 20
-118.4367587746851
 30
0.0
 10
-96.77264225468913
 20
-117.7259594933383
 30
0.0
 10
-96.79811099203285
 20
-117.370752555251
 30
0.0
  0
LWPOLYLINE
  5
305
330
2EB
100
AcDbEntity
  8
0
  6
Continuous
 62
     7
370
    25
100
AcDbPolyline
 90
       27
 70
   128
 43
0.0
 10
-18.4429474837
 20
-121.9748101744
 10
-19.0608643347
 20
-122.8256639799
 10
-19.6605469028
 20
-123.780126786
 10
-20.2349464368
 20
-124.8269797055
 10
-20.7773113657
 20
-125.9539178856
 10
-21.2812666575
 20
-127.1476951402
 10
-21.7408887527
 20
-128.3942796475
 10
-22.15077519
 20
-129.6790188819
 10
-22.5061081079
 20
-130.9868118422
 10
-22.8027108745
 20
-132.3022865503
 10
-23.0370971801
 20
-133.6099807359
 10
-23.206512016
 20
-134.8945235818
 10
-23.3089640569
 20
-136.1408163952
 10
-23.3432490675
 20
-137.334210079
 10
-23.3089640569
 20
-138.4606773203
 10
-23.206512016
 20
-139.5069774682
 10
-23.0370971801
 20
-140.4608121671
 10
-22.8027108745
 20
-141.3109699131
 10
-22.5061081079
 20
-142.0474578352
 10
-22.15077519
 20
-142.6616191534
 10
-21.7408887527
 20
-143.146234931
 10
-21.2812666575
 20
-143.4956089278
 10
-20.7773113657
 20
-143.7056345537
 10
-20.2349464368
 20
-143.7738431388
 10
-19.6605469028
 20
-143.6994329499
 10
-19.0608643347
 20
-143.4832786147
 10
-18.4429474837
 20
-143.1279208408
  0
LWPOLYLINE
  5
307
330
2EB
100
AcDbEntity
  8
0
  6
Continuous
 62
     7
370
    25
100
AcDbPolyline
 90
       32
 70
   128
 43
0.0
 10
-52.8805866073
 20
-75.8919457377
 10
-52.9436803071
 20
-74.3573853689
 10
-53.1325522199
 20
-72.7984821816
 10
-53.4459774388
 20
-71.2253462612
 10
-53.8819232809
 20
-69.6481799976
 10
-54.4375624702
 20
-68.0772119195
 10
-55.1092914734
 20
-66.5226303575
 10
-55.89275387
 20
-64.9945173696
 10
-56.7828686058
 20
-63.5027833551
 10
-57.7738629452
 20
-62.0571027813
 10
-58.8593099096
 20
-60.6668514416
 10
-60.0321699589
 20
-59.3410456493
 10
-61.2848366457
 20
-58.0882837639
 10
-62.6091859457
 20
-56.9166904268
 10
-63.9966289456
 20
-55.8338638703
 10
-65.4381675452
 20
-54.8468266404
 10
-66.9244528134
 20
-53.961980052
 10
-68.4458456199
 20
-53.185062675
 10
-69.9924791486
 20
-52.5211131166
 10
-71.5543228875
 20
-51.9744373445
 10
-73.1212476808
 20
-51.5485807608
 10
-74.6830914197
 20
-51.246305209
 10
-76.2297249484
 20
-51.0695710619
 10
-77.751117755
 20
-51.0195245083
 10
-79.2374030231
 20
-51.0964901193
 10
-80.6789416227
 20
-51.2999687434
 10
-82.0663846226
 20
-51.6286407437
 10
-83.3907339227
 20
-52.0803745561
 10
-84.6434006094
 20
-52.6522405134
 10
-85.8162606587
 20
-53.3405298456
 10
-86.9017076231
 20
-54.1407787321
 10
-87.7043047745
 20
-54.8600058507
  0
LWPOLYLINE
  5
309
330
2EB
100
AcDbEntity
  8
0
  6
Continuous
 62
     7
370
    25
100
AcDbPolyline
 90
       34
 70
   128
 43
0.0
 10
-106.0838609453
 20
-127.8199725134
 10
-106.1469546452
 20
-126.2854121446
 10
-106.335826558
 20
-124.7265089573
 10
-106.6492517768
 20
-123.1533730368
 10
-107.0851976189
 20
-121.5762067733
 10
-107.6408368083
 20
-120.0052386951
 10
-108.3125658114
 20
-118.4506571332
 10
-109.096028208
 20
-116.9225441453
 10
-109.9861429438
 20
-115.4308101308
 10
-110.9771372832
 20
-113.985129557
 10
-112.0625842476
 20
-112.5948782173
 10
-113.2354442969
 20
-111.269072425
 10
-114.4881109837
 20
-110.0163105396
 10
-115.8124602837
 20
-108.8447172024
 10
-117.1999032837
 20
-107.761890646
 10
-118.6414418832
 20
-106.7748534161
 10
-120.1277271514
 20
-105.8900068277
 10
-121.6491199579
 20
-105.1130894507
 10
-123.1957534866
 20
-104.4491398923
 10
-124.7575972256
 20
-103.9024641202
 10
-126.3245220188
 20
-103.4766075365
 10
-127.8863657578
 20
-103.1743319847
 10
-129.4329992865
 20
-102.9975978376
 10
-130.954392093
 20
-102.947551284
 10
-132.4406773612
 20
-103.024516895
 10
-133.8822159607
 20
-103.2279955191
 10
-135.2696589606
 20
-103.5566675194
 10
-136.5940082607
 20
-104.0084013318
 10
-137.8466749474
 20
-104.5802672891
 10
-139.0195349968
 20
-105.2685566212
 10
-140.1049819611
 20
-106.0688055078
 10
-141.0959763005
 20
-106.9758240275
 10
-141.9860910364
 20
-107.9837298174
 10
-142.5419187976
 20
-108.7397729618
  0
SPLINE
  5
30B
330
2EB
100
AcDbEntity
  8
0
  6
Continuous
 62
     7
370
    25
100
AcDbSpline
210
0.0
220
0.0
230
1.0
 70
     8
 71
     3
 72
    14
 73
    10
 74
     0
 42
0.000000001
 43
0.00000001
 40
0.0
 40
0.0
 40
0.0
 40
0.0
 40
0.0280465003103992
 40
0.2275977190664365
 40
0.4341313055135183
 40
0.5931103539941419
 40
0.7545886377500167
 40
0.9176928613376119
 40
1.0
 40
1.0
 40
1.0
 40
1.0
 10
-127.5973121233081
 20
-104.7084841723549
 30
0.0
 10
-127.7042716956826
 20
-104.6850627066033
 30
0.0
 10
-128.5722500329207
 20
-104.4949972038399
 30
0.0
 10
-130.2018817019404
 20
-104.4009243749995
 30
0.0
 10
-132.2637692327212
 20
-104.4613673402503
 30
0.0
 10
-134.0979358632119
 20
-104.7778196107964
 30
0.0
 10
-135.6890798924096
 20
-105.255214806528
 30
0.0
 10
-136.9639702755379
 20
-105.7786933528155
 30
0.0
 10
-137.6515404331113
 20
-106.2096100456615
 30
0.0
 10
-137.8821407271672
 20
-106.3541327754358
 30
0.0
  0
LWPOLYLINE
  5
30D
330
2EB
100
AcDbEntity
  8
0
  6
Continuous
 62
     7
370
    25
100
AcDbPolyline
 90
       23
 70
   128
 43
0.0
 10
-107.4524359319
 20
-132.5787616041
 10
-107.2716585568
 20
-131.7013557088
 10
-107.0809577234
 20
-130.238422619
 10
-107.0172517231
 20
-128.730990527
 10
-107.0809577234
 20
-127.1889305833
 10
-107.2716585568
 20
-125.622340693
 10
-107.5881054528
 20
-124.0414793908
 10
-108.0282262154
 20
-122.4566986656
 10
-108.5891387921
 20
-120.8783761716
 10
-109.2671701467
 20
-119.3168472727
 10
-110.0578803117
 20
-117.7823373627
 10
-110.9560914624
 20
-116.2848949066
 10
-111.9559218231
 20
-114.8343256395
 10
-113.0508241826
 20
-113.4401283561
 10
-114.2336287678
 20
-112.1114327089
 10
-115.4965901937
 20
-110.8569394247
 10
-116.831438182
 20
-109.6848633295
 10
-118.2294317187
 20
-108.6028795548
 10
-119.6814162918
 20
-107.6180732786
 10
-121.1778838391
 20
-106.7368933296
 10
-122.7090350093
 20
-105.9651099576
 10
-124.2648433316
 20
-105.3077770486
 10
-125.8351208723
 20
-104.7691990302
  0
LWPOLYLINE
  5
30E
330
2EB
100
AcDbEntity
  8
0
  6
Continuous
 62
     7
370
    25
100
AcDbPolyline
 90
       79
 70
   128
 43
0.0
 10
-119.3846795298
 20
-140.8019792073
 10
-119.4477732297
 20
-139.2674188385
 10
-119.6366451425
 20
-137.7085156512
 10
-119.9500703613
 20
-136.1353797308
 10
-120.3860162034
 20
-134.5582134672
 10
-120.9416553928
 20
-132.9872453891
 10
-121.6133843959
 20
-131.4326638271
 10
-122.3968467925
 20
-129.9045508393
 10
-123.2869615283
 20
-128.4128168247
 10
-124.2779558677
 20
-126.9671362509
 10
-125.3634028321
 20
-125.5768849112
 10
-126.5362628814
 20
-124.2510791189
 10
-127.7889295682
 20
-122.9983172335
 10
-129.1132788682
 20
-121.8267238964
 10
-130.5007218682
 20
-120.74389734
 10
-131.9422604677
 20
-119.75686011
 10
-133.4285457359
 20
-118.8720135217
 10
-134.9499385424
 20
-118.0950961446
 10
-136.4965720711
 20
-117.4311465862
 10
-138.0584158101
 20
-116.8844708141
 10
-139.6253406033
 20
-116.4586142305
 10
-141.1871843423
 20
-116.1563386786
 10
-142.733817871
 20
-115.9796045315
 10
-144.2552106775
 20
-115.9295579779
 10
-145.7414959457
 20
-116.0065235889
 10
-147.1830345452
 20
-116.2100022131
 10
-148.5704775451
 20
-116.5386742133
 10
-149.8948268452
 20
-116.9904080257
 10
-151.1474935319
 20
-117.562273983
 10
-152.3203535813
 20
-118.2505633152
 10
-153.4058005457
 20
-119.0508122017
 10
-154.396794885
 20
-119.9578307214
 10
-155.2869096209
 20
-120.9657365113
 10
-156.0703720175
 20
-122.0679929155
 10
-156.7421010206
 20
-123.2574513782
 10
-157.2977402099
 20
-124.5263978048
 10
-157.7336860521
 20
-125.866602591
 10
-158.0471112709
 20
-127.2693739942
 10
-158.2359831837
 20
-128.7256145038
 10
-158.2990768836
 20
-130.2258798412
 10
-158.2359831837
 20
-131.76044021
 10
-158.0471112709
 20
-133.3193433973
 10
-157.7336860521
 20
-134.8924793178
 10
-157.2977402099
 20
-136.4696455813
 10
-156.7421010206
 20
-138.0406136595
 10
-156.0703720175
 20
-139.5951952215
 10
-155.2869096209
 20
-141.1233082093
 10
-154.396794885
 20
-142.6150422238
 10
-153.4058005457
 20
-144.0607227976
 10
-152.3203535813
 20
-145.4509741373
 10
-151.1474935319
 20
-146.7767799296
 10
-149.8948268452
 20
-148.0295418151
 10
-148.5704775451
 20
-149.2011351522
 10
-147.1830345452
 20
-150.2839617086
 10
-145.7414959457
 20
-151.2709989386
 10
-144.2552106775
 20
-152.1558455269
 10
-142.733817871
 20
-152.9327629039
 10
-141.1871843423
 20
-153.5967124623
 10
-139.6253406033
 20
-154.1433882344
 10
-138.0584158101
 20
-154.5692448181
 10
-136.4965720711
 20
-154.87152037
 10
-134.9499385424
 20
-155.0482545171
 10
-133.4285457359
 20
-155.0983010706
 10
-131.9422604677
 20
-155.0213354596
 10
-130.5007218682
 20
-154.8178568355
 10
-129.1132788682
 20
-154.4891848352
 10
-127.7889295682
 20
-154.0374510229
 10
-126.5362628814
 20
-153.4655850655
 10
-125.3634028321
 20
-152.7772957334
 10
-124.2779558677
 20
-151.9770468469
 10
-123.2869615283
 20
-151.0700283271
 10
-122.3968467925
 20
-150.0621225372
 10
-121.6133843959
 20
-148.9598661331
 10
-120.9416553928
 20
-147.7704076704
 10
-120.3860162034
 20
-146.5014612437
 10
-119.9500703613
 20
-145.1612564576
 10
-119.6366451425
 20
-143.7584850543
 10
-119.4477732297
 20
-142.3022445447
 10
-119.3846795298
 20
-140.8019792073
  0
LWPOLYLINE
  5
30F
330
2EB
100
AcDbEntity
  8
0
  6
Continuous
 62
     7
370
    25
100
AcDbPolyline
 90
       43
 70
   128
 43
0.0
 10
-63.1881268887
 20
-144.7367713193
 10
-63.6402495882
 20
-145.240286963
 10
-64.0822726137
 20
-145.8570149561
 10
-64.5043219012
 20
-146.5731786145
 10
-64.8969695671
 20
-147.3727800255
 10
-65.2514445113
 20
-148.2379574148
 10
-65.5598283494
 20
-149.1493841493
 10
-65.8152322959
 20
-150.0867004617
 10
-66.0119510488
 20
-151.0289682545
 10
-66.1455902362
 20
-151.9551388223
 10
-66.2131645795
 20
-152.844523045
 10
-66.2131645795
 20
-153.6772535488
 10
-66.1455902362
 20
-154.4347285103
 10
-66.0119510488
 20
-155.1000271905
 10
-65.8152322959
 20
-155.6582879162
 10
-65.5598283494
 20
-156.0970400654
 10
-65.2514445113
 20
-156.4064826401
 10
-64.8969695671
 20
-156.5797032044
 10
-64.5043219012
 20
-156.6128322972
 10
-64.0822726137
 20
-156.5051298694
 10
-63.6402495882
 20
-156.2590018151
 10
-63.1881268887
 20
-155.8799462285
 10
-62.7360041893
 20
-155.3764305848
 10
-62.2939811638
 20
-154.7597025917
 10
-61.8719318763
 20
-154.0435389333
 10
-61.4792842104
 20
-153.2439375223
 10
-61.1248092662
 20
-152.378760133
 10
-60.8164254281
 20
-151.4673333986
 10
-60.5610214816
 20
-150.5300170861
 10
-60.3643027286
 20
-149.5877492933
 10
-60.2306635412
 20
-148.6615787255
 10
-60.1630891979
 20
-147.7721945028
 10
-60.1630891979
 20
-146.939463999
 10
-60.2306635412
 20
-146.1819890375
 10
-60.3643027286
 20
-145.5166903573
 10
-60.5610214816
 20
-144.9584296316
 10
-60.8164254281
 20
-144.5196774824
 10
-61.1248092662
 20
-144.2102349077
 10
-61.4792842104
 20
-144.0370143434
 10
-61.8719318763
 20
-144.0038852506
 10
-62.2939811638
 20
-144.1115876784
 10
-62.7360041893
 20
-144.3577157327
 10
-63.1881268887
 20
-144.7367713193
  0
LWPOLYLINE
  5
310
330
2EB
100
AcDbEntity
  8
0
  6
Continuous
 62
     7
370
    25
100
AcDbPolyline
 90
       23
 70
   128
 43
0.0
 10
-88.0159467932
 20
-136.8249089801
 10
-88.203910525
 20
-136.7918413862
 10
-88.6124012246
 20
-136.8292326072
 10
-89.0456488292
 20
-137.0066439262
 10
-89.4939753035
 20
-137.3201122678
 10
-89.9473657746
 20
-137.762635267
 10
-90.3956922489
 20
-138.3243276913
 10
-90.8289398535
 20
-138.9926422602
 10
-91.2374305531
 20
-139.7526499304
 10
-91.6120393403
 20
-140.5873733867
 10
-91.9443980738
 20
-141.4781662862
 10
-92.2270824089
 20
-142.4051297875
 10
-92.4537776445
 20
-143.347557058
 10
-92.6194197837
 20
-144.2843958295
 10
-92.7203086548
 20
-145.194718672
 10
-92.7541905671
 20
-146.0581904776
 10
-92.7203086548
 20
-146.8555227129
 10
-92.6194197837
 20
-147.5689042933
 10
-92.4537776445
 20
-148.1823994532
 10
-92.2270824089
 20
-148.6823037244
 10
-91.9443980738
 20
-149.0574500716
 10
-91.6120393403
 20
-149.2994583453
 10
-91.4253942849
 20
-149.3698548867
  0
LWPOLYLINE
  5
311
330
2EB
100
AcDbEntity
  8
0
  6
Continuous
 62
     7
370
    25
100
AcDbPolyline
 90
       10
 70
   128
 43
0.0
 10
-13.811563385
 20
-131.1179849493
 10
-13.8492368979
 20
-132.1668374138
 10
-13.9617836704
 20
-133.1408284043
 10
-14.1477883614
 20
-134.0277094191
 10
-14.4049118541
 20
-134.8163274148
 10
-14.7299206713
 20
-135.4967650626
 10
-15.1187276387
 20
-136.0604654642
 10
-15.5664432829
 20
-136.50033976
 10
-16.0674373201
 20
-136.8108562755
 10
-16.3347304531
 20
-136.9159190453
  0
LWPOLYLINE
  5
312
330
2EB
100
AcDbEntity
  8
0
  6
Continuous
 62
     7
370
    25
100
AcDbPolyline
 90
       21
 70
   128
 43
0.0
 10
-23.2714658126
 20
-115.5119076793
 10
-22.9907868063
 20
-115.4397166392
 10
-22.4027276323
 20
-115.3979546044
 10
-21.781976609
 20
-115.4922095266
 10
-21.1363400408
 20
-115.7212960954
 10
-20.4739371819
 20
-116.0823334142
 10
-19.8030981328
 20
-116.5707812294
 10
-19.1322590838
 20
-117.1804970263
 10
-18.4698562249
 20
-117.9038132748
 10
-17.8242196567
 20
-118.7316338536
 10
-17.2034686334
 20
-119.6535484386
 10
-16.6154094594
 20
-120.6579634189
 10
-16.0674373201
 20
-121.7322476933
 10
-15.5664432829
 20
-122.8628915139
 10
-15.1187276387
 20
-124.0356763785
 10
-14.7299206713
 20
-125.235853837
 10
-14.4049118541
 20
-126.4483309616
 10
-14.1477883614
 20
-127.6578601488
 10
-13.9617836704
 20
-128.8492308674
 10
-13.8492368979
 20
-130.0074609393
 10
-13.811563385
 20
-131.1179849493
  0
LINE
  5
313
330
2EB
100
AcDbEntity
  8
0
  6
Continuous
 62
     7
370
    25
100
AcDbLine
 10
-88.1647404644
 20
-49.7199353251
 30
0.0
 11
-90.4982174091
 21
-51.9974803591
 31
0.0
  0
LINE
  5
314
330
2EB
100
AcDbEntity
  8
0
  6
Continuous
 62
     7
370
    25
100
AcDbLine
 10
-54.1773531592
 20
-89.2103117502
 30
0.0
 11
-51.8438762146
 21
-86.9327667162
 31
0.0
  0
LINE
  5
315
330
2EB
100
AcDbEntity
  8
0
  6
Continuous
 62
     7
370
    25
100
AcDbLine
 10
-95.8135697795
 20
-123.3124183227
 30
0.0
 11
-20.7878716017
 21
-143.7027954812
 31
0.0
  0
LINE
  5
316
330
2EB
100
AcDbEntity
  8
0
  6
Continuous
 62
     7
370
    25
100
AcDbLine
 10
-28.0555295245
 20
-115.8207543247
 30
0.0
 11
-90.7189844116
 21
-98.7901700018
 31
0.0
  0
LINE
  5
317
330
2EB
100
AcDbEntity
  8
0
  6
Continuous
 62
     7
370
    25
100
AcDbLine
 10
-87.7043047745
 20
-54.8600058507
 30
0.0
 11
-140.9075791125
 21
-106.7880326264
 31
0.0
  0
LINE
  5
318
330
2EB
100
AcDbEntity
  8
0
  6
Continuous
 62
     7
370
    25
100
AcDbLine
 10
-105.0160103868
 20
-133.240929861
 30
0.0
 11
-95.0549222477
 21
-123.518602466
 31
0.0
  0
LINE
  5
319
330
2EB
100
AcDbEntity
  8
0
  6
Continuous
 62
     7
370
    25
100
AcDbLine
 10
-74.2930566853
 20
-103.2543851927
 30
0.0
 11
-56.9712657938
 21
-86.3477862586
 31
0.0
  0
LINE
  5
31A
330
2EB
100
AcDbEntity
  8
0
  6
Continuous
 62
     7
370
    25
100
AcDbLine
 10
-144.9150873774
 20
-110.6994835488
 30
0.0
 11
-154.208397697
 21
-119.7700393203
 31
0.0
  0
LINE
  5
31B
330
2EB
100
AcDbEntity
  8
0
  6
Continuous
 62
     7
370
    25
100
AcDbLine
 10
-123.4753587164
 20
-151.2578197282
 30
0.0
 11
-114.1512312342
 21
-142.1571854613
 31
0.0
  0
LINE
  5
31C
330
2EB
100
AcDbEntity
  8
0
  6
Continuous
 62
     7
370
    25
100
AcDbLine
 10
-91.4253942849
 20
-149.3698548867
 30
0.0
 11
-64.8928506346
 21
-156.5808317272
 31
0.0
  0
LINE
  5
31D
330
2EB
100
AcDbEntity
  8
0
  6
Continuous
 62
     7
370
    25
100
AcDbLine
 10
-61.4834031429
 20
-144.0358858206
 30
0.0
 11
-88.0159467932
 21
-136.8249089801
 31
0.0
  0
LINE
  5
31E
330
2EB
100
AcDbEntity
  8
0
  6
Continuous
 62
     7
370
    25
100
AcDbLine
 10
-89.6154698745
 20
-137.4264667786
 30
0.0
 11
-113.3901148664
 21
-130.9650276988
 31
0.0
  0
LINE
  5
31F
330
2EB
100
AcDbEntity
  8
0
  6
Continuous
 62
     7
370
    25
100
AcDbLine
 10
-116.4268439296
 20
-141.5387226912
 30
0.0
 11
-92.5003869829
 21
-148.0414210073
 31
0.0
  0
LINE
  5
320
330
2EB
100
AcDbEntity
  8
0
  6
Continuous
 62
     7
370
    25
100
AcDbLine
 10
-18.4429474837
 20
-137.5991621707
 30
0.0
 11
-16.3347304531
 21
-136.9159190453
 31
0.0
  0
LINE
  5
321
330
2EB
100
AcDbEntity
  8
0
  6
Continuous
 62
     7
370
    25
100
AcDbLine
 10
-23.2714658126
 20
-115.5119076793
 30
0.0
 11
-26.2397125688
 21
-116.4738741948
 31
0.0
  0
LINE
  5
322
330
2EB
100
AcDbEntity
  8
0
  6
Continuous
 62
     7
370
    25
100
AcDbLine
 10
-18.4429474837
 20
-121.9748101744
 30
0.0
 11
-18.4429474837
 21
-143.1279208408
 31
0.0
  0
ARC
  5
323
330
2EB
100
AcDbEntity
  8
0
  6
Continuous
 62
     7
370
    25
100
AcDbCircle
 10
-65.4439519206
 20
-77.5951484748
 30
0.0
 40
16.11811388521955
100
AcDbArc
 50
273.3980635176
 51
2.6376248532
  0
ARC
  5
324
330
2EB
100
AcDbEntity
  8
0
  6
Continuous
 62
     7
370
    25
100
AcDbCircle
 10
-64.008956864
 20
-75.0492254424
 30
0.0
 40
17.00610891456842
100
AcDbArc
 50
315.6707361922
 51
1.5950209536
  0
ARC
  5
325
330
2EB
100
AcDbEntity
  8
0
  6
Continuous
 62
     7
370
    25
100
AcDbCircle
 10
-35.6582690332
 20
-138.2805806708
 30
0.0
 40
23.71171540687218
100
AcDbArc
 50
43.445735214
 51
71.2988379564
  0
ARC
  5
326
330
2EB
100
AcDbEntity
  8
0
  6
Continuous
 62
     7
370
    25
100
AcDbCircle
 10
-67.1943040197
 20
-76.320060789
 30
0.0
 40
14.32011831862198
100
AcDbArc
 50
315.5525840813
 51
1.7131730645
  0
ARC
  5
327
330
2EB
100
AcDbEntity
  8
0
  6
Continuous
 62
     7
370
    25
100
AcDbCircle
 10
-122.29798382
 20
-127.9267664397
 30
0.0
 40
16.21447456871278
100
AcDbArc
 50
342.6900872584
 51
0.3773718025
  0
ARC
  5
328
330
2EB
100
AcDbEntity
  8
0
  6
Continuous
 62
     7
370
    25
100
AcDbCircle
 10
-128.971677661
 20
-128.3365842449
 30
0.0
 40
23.77518947033504
100
AcDbArc
 50
82.4191188398
 51
132.1126352019
  0
VIEWPORT
  5
377
330
2EB
100
AcDbEntity
  8
0
100
AcDbViewport
 10
0.0
 20
0.0
 30
0.0
 40
205.6
 41
156.0
 68
     1
 69
     1
 12
40.8122932966
 22
0.0
 13
0.0
 23
0.0
 14
10.0
 24
10.0
 15
10.0
 25
10.0
 16
0.0
 26
0.0
 36
1.0
 17
0.0
 27
0.0
 37
0.0
 42
50.0
 43
0.0
 44
0.0
 45
103.4160711027
 50
0.0
 51
0.0
 72
   100
 90
   557152
  1

281
     0
 71
     1
 74
     0
110
0.0
120
0.0
130
0.0
111
1.0
121
0.0
131
0.0
112
0.0
122
1.0
132
0.0
 79
     0
146
0.0
  0
ENDBLK
  5
2EE
330
2EB
100
AcDbEntity
  8
0
100
AcDbBlockEnd
  0
BLOCK
  5
32B
330
329
100
AcDbEntity
  8
0
100
AcDbBlockBegin
  2
*Paper_Space6
 70
     0
 10
0.0
 20
0.0
 30
0.0
  3
*Paper_Space6
  1

  0
LWPOLYLINE
  5
33C
330
329
100
AcDbEntity
  8
0
  6
Continuous
 62
     7
370
    25
100
AcDbPolyline
 90
       41
 70
   128
 43
0.0
 10
-30.4800025146
 20
-51.3938706196
 10
-30.5464183288
 20
-49.5751534167
 10
-30.7453030313
 20
-47.7496342043
 10
-31.0755703829
 20
-45.9272833353
 10
-31.5354165777
 20
-44.1180538583
 10
-32.1223300954
 20
-42.3318271572
 10
-32.8331054178
 20
-40.578358983
 10
-33.6638605366
 20
-38.8672261706
 10
-34.6100581554
 20
-37.2077743342
 10
-35.6665304709
 20
-35.6090668243
 10
-36.8275073977
 20
-34.0798352268
 10
-38.0866480825
 20
-32.6284316745
 10
-39.4370755353
 20
-31.2627832302
 10
-40.8714141899
 20
-29.9903485922
 10
-42.3818301857
 20
-28.8180773572
 10
-43.9600741545
 20
-27.7523720643
 10
-45.597526275
 20
-26.7990532262
 10
-47.2852433515
 20
-25.9633275397
 10
-49.0140076585
 20
-25.2497594488
 10
-50.774377285
 20
-24.6622462149
 10
-52.5567377024
 20
-24.2039966316
 10
-54.3513542763
 20
-23.8775134992
 10
-56.1484254332
 20
-23.6845799554
 10
-57.9381361937
 20
-23.6262497363
 10
-59.7107117782
 20
-23.7028414212
 10
-61.4564709935
 20
-23.9139366931
 10
-63.1658791082
 20
-24.2583826226
 10
-64.8295999279
 20
-24.7342979656
 10
-66.4385467865
 20
-25.3390834376
 10
-67.9839321741
 20
-26.0694359099
 10
-69.4573157316
 20
-26.9213664507
 10
-70.8506503491
 20
-27.8902221107
 10
-72.1563261159
 20
-28.9707113364
 10
-73.3672118838
 20
-30.1569328702
 10
-74.4766942147
 20
-31.4424079815
 10
-75.4787135008
 20
-32.820115851
 10
-76.3677970602
 20
-34.282531916
 10
-77.1390890268
 20
-35.8216689672
 10
-77.7883768714
 20
-37.4291207716
 10
-78.3121144089
 20
-39.096107985
 10
-78.5175591308
 20
-39.9126450054
  0
LWPOLYLINE
  5
33E
330
329
100
AcDbEntity
  8
0
  6
Continuous
 62
     7
370
    25
100
AcDbPolyline
 90
       33
 70
   128
 43
0.0
 10
-28.712235562
 20
-49.8348467088
 10
-28.7786513762
 20
-48.0161295058
 10
-28.9775360788
 20
-46.1906102934
 10
-29.3078034303
 20
-44.3682594245
 10
-29.7676496252
 20
-42.5590299475
 10
-30.3545631429
 20
-40.7728032464
 10
-31.0653384652
 20
-39.0193350722
 10
-31.896093584
 20
-37.3082022598
 10
-32.8422912028
 20
-35.6487504234
 10
-33.8987635183
 20
-34.0500429134
 10
-35.0597404452
 20
-32.520811316
 10
-36.3188811299
 20
-31.0694077636
 10
-37.6693085828
 20
-29.7037593193
 10
-39.1036472373
 20
-28.4313246814
 10
-40.6140632332
 20
-27.2590534464
 10
-42.192307202
 20
-26.1933481535
 10
-43.8297593224
 20
-25.2400293153
 10
-45.5174763989
 20
-24.4043036288
 10
-47.246240706
 20
-23.6907355379
 10
-49.0066103324
 20
-23.103222304
 10
-50.7889707499
 20
-22.6449727208
 10
-52.5835873238
 20
-22.3184895884
 10
-54.3806584807
 20
-22.1255560446
 10
-56.1703692411
 20
-22.0672258254
 10
-57.9429448256
 20
-22.1438175104
 10
-59.6887040409
 20
-22.3549127822
 10
-61.3981121556
 20
-22.6993587118
 10
-63.0618329753
 20
-23.1752740548
 10
-64.6707798339
 20
-23.7800595267
 10
-66.2161652215
 20
-24.5104119991
 10
-67.6895487791
 20
-25.3623425399
 10
-69.0828833965
 20
-26.3311981999
 10
-70.230392099
 20
-27.2707173253
  0
SPLINE
  5
340
330
329
100
AcDbEntity
  8
0
  6
Continuous
 62
     7
370
    25
100
AcDbSpline
210
0.0
220
0.0
230
1.0
 70
     8
 71
     3
 72
    24
 73
    20
 74
     0
 42
0.000000001
 43
0.00000001
 40
0.0
 40
0.0
 40
0.0
 40
0.0
 40
0.0993170416971515
 40
0.1498501237367385
 40
0.2015211788223993
 40
0.2684451377488877
 40
0.3353665050446733
 40
0.4031295329455171
 40
0.4720022974523459
 40
0.5390006154324014
 40
0.6050902940095427
 40
0.6576051893677912
 40
0.7081330470373437
 40
0.7573570697310094
 40
0.8060154928828615
 40
0.8555081145916835
 40
0.9052159334613118
 40
0.9559250543209222
 40
1.0
 40
1.0
 40
1.0
 40
1.0
 10
-67.50661325197596
 20
-78.76726774897702
 30
0.0
 10
-67.56937223296237
 20
-77.96705446860157
 30
0.0
 10
-67.66406334443425
 20
-76.75968806872741
 30
0.0
 10
-67.84210447327175
 20
-75.08889541377764
 30
0.0
 10
-68.00457180448899
 20
-73.69526270273661
 30
0.0
 10
-68.19831833651116
 20
-72.18811962984292
 30
0.0
 10
-68.40629946234972
 20
-70.60390832120112
 30
0.0
 10
-68.59374888815998
 20
-69.0788131185632
 30
0.0
 10
-68.74252503342704
 20
-67.6414493749139
 30
0.0
 10
-68.81960599715167
 20
-66.32345559550012
 30
0.0
 10
-68.80147505358475
 20
-65.22539498403349
 30
0.0
 10
-68.69760142874998
 20
-64.32685073507514
 30
0.0
 10
-68.5171089051719
 20
-63.61391348833095
 30
0.0
 10
-68.246747299447
 20
-63.02452303768167
 30
0.0
 10
-67.88041866026593
 20
-62.5551945704354
 30
0.0
 10
-67.41879808305605
 20
-62.20629758744212
 30
0.0
 10
-66.86124071608616
 20
-61.98825231574072
 30
0.0
 10
-66.2559457801018
 20
-61.89582985520331
 30
0.0
 10
-65.81751440048698
 20
-61.94043619683068
 30
0.0
 10
-65.613642168094
 20
-61.96117831263097
 30
0.0
  0
SPLINE
  5
341
330
329
100
AcDbEntity
  8
0
  6
Continuous
 62
     7
370
    25
100
AcDbSpline
210
0.0
220
0.0
230
1.0
 70
     8
 71
     3
 72
    17
 73
    13
 74
     0
 42
0.000000001
 43
0.00000001
 40
0.0
 40
0.0
 40
0.0
 40
0.0
 40
0.0154841246093696
 40
0.1791652159112071
 40
0.3438864700418156
 40
0.5074771494730707
 40
0.5892379954032898
 40
0.6718510219247108
 40
0.755672871251706
 40
0.8377610212633598
 40
0.9189244947374416
 40
1.0
 40
1.0
 40
1.0
 40
1.0
 10
-66.90390982143799
 20
-86.96187856959389
 30
0.0
 10
-66.91769224559103
 20
-86.96290671441854
 30
0.0
 10
-67.07716726025609
 20
-86.97480327261233
 30
0.0
 10
-67.23777161696718
 20
-86.7141126975264
 30
0.0
 10
-67.33796226682838
 20
-85.95880937501697
 30
0.0
 10
-67.34029769039263
 20
-84.94198918024216
 30
0.0
 10
-67.33435913390294
 20
-83.92106644833791
 30
0.0
 10
-67.33471547923244
 20
-83.04842129340409
 30
0.0
 10
-67.3494074917693
 20
-82.08468874037742
 30
0.0
 10
-67.38144796906299
 20
-81.04018467621403
 30
0.0
 10
-67.43087086101082
 20
-79.9368202330834
 30
0.0
 10
-67.48137491631934
 20
-79.15697762987469
 30
0.0
 10
-67.50661325197596
 20
-78.76726774897702
 30
0.0
  0
LWPOLYLINE
  5
343
330
329
100
AcDbEntity
  8
0
  6
Continuous
 62
     7
370
    25
100
AcDbPolyline
 90
       27
 70
   128
 43
0.0
 10
13.8960227689
 20
-73.6480929217
 10
13.4279088708
 20
-74.3334317182
 10
12.9736086779
 20
-75.140124192
 10
12.5384620972
 20
-76.0586883691
 10
12.1275839012
 20
-77.0783273199
 10
11.7458036086
 20
-78.1870560683
 10
11.3976087176
 20
-79.3718424642
 10
11.0870919586
 20
-80.6187603658
 10
10.8179031882
 20
-81.9131533287
 10
10.5932064883
 20
-83.2398068803
 10
10.4156429747
 20
-84.5831273526
 10
10.2872997532
 20
-85.9273251723
 10
10.2096853879
 20
-87.2566004537
 10
10.1837121685
 20
-88.5553287126
 10
10.2096853879
 20
-89.8082445186
 10
10.2872997532
 20
-91.0006209274
 10
10.4156429747
 20
-92.1184425829
 10
10.5932064883
 20
-93.1485704559
 10
10.8179031882
 20
-94.0788962819
 10
11.0870919586
 20
-94.8984848834
 10
11.3976087176
 20
-95.5977027034
 10
11.7458036086
 20
-96.1683310396
 10
12.1275839012
 20
-96.6036626483
 10
12.5384620972
 20
-96.898580582
 10
12.9736086779
 20
-97.0496183346
 10
13.4279088708
 20
-97.0550005879
 10
13.8960227689
 20
-96.9146640779
  0
LWPOLYLINE
  5
345
330
329
100
AcDbEntity
  8
0
  6
Continuous
 62
     7
370
    25
100
AcDbPolyline
 90
       31
 70
   128
 43
0.0
 10
-34.2216599015
 20
-50.9224660991
 10
-34.2883916323
 20
-49.2450373035
 10
-34.488154044
 20
-47.5616724617
 10
-34.8196516006
 20
-45.8832888407
 10
-35.2807344132
 20
-44.2207714022
 10
-35.868412183
 20
-42.5849022098
 10
-36.578873594
 20
-40.986290503
 10
-37.4075110314
 20
-39.4353038921
 10
-38.3489504634
 20
-37.9420011204
 10
-39.397086294
 20
-36.5160668295
 10
-40.5451209602
 20
-35.1667487504
 10
-41.7856090167
 20
-33.9027977287
 10
-43.1105054223
 20
-32.7324109716
 10
-44.5112177154
 20
-31.6631788865
 10
-45.9786617394
 20
-30.7020358538
 10
-47.5033205567
 20
-29.8552152547
 10
-49.0753061697
 20
-29.1282090459
 10
-50.6844236486
 20
-28.5257321416
 10
-52.320237249
 20
-28.0516918356
 10
-53.972138092
 20
-27.7091624614
 10
-55.6294129668
 20
-27.5003654533
 10
-57.2813138098
 20
-27.42665494
 10
-58.9171274102
 20
-27.4885089625
 10
-60.526244889
 20
-27.6855263738
 10
-62.0982305021
 20
-28.0164294403
 10
-63.6228893193
 20
-28.4790721286
 10
-65.0903333434
 20
-29.0704540234
 10
-66.4910456365
 20
-29.7867397862
 10
-67.8159420421
 20
-30.6232840289
 10
-69.0564300985
 20
-31.5746614412
 10
-69.3524077404
 20
-31.8297412361
  0
LWPOLYLINE
  5
347
330
329
100
AcDbEntity
  8
0
  6
Continuous
 62
     7
370
    25
100
AcDbPolyline
 90
       32
 70
   128
 43
0.0
 10
-74.5267464198
 20
-86.4682112661
 10
-74.5934781507
 20
-84.7907824706
 10
-74.7932405624
 20
-83.1074176288
 10
-75.124738119
 20
-81.4290340077
 10
-75.5858209316
 20
-79.7665165692
 10
-76.1734987014
 20
-78.1306473768
 10
-76.8839601124
 20
-76.53203567
 10
-77.7125975498
 20
-74.9810490591
 10
-78.6540369818
 20
-73.4877462875
 10
-79.7021728124
 20
-72.0618119966
 10
-80.8502074786
 20
-70.7124939175
 10
-82.090695535
 20
-69.4485428957
 10
-83.4155919406
 20
-68.2781561387
 10
-84.8163042338
 20
-67.2089240536
 10
-86.2837482578
 20
-66.2477810208
 10
-87.8084070751
 20
-65.4009604218
 10
-89.3803926881
 20
-64.673954213
 10
-90.989510167
 20
-64.0714773086
 10
-92.6253237674
 20
-63.5974370027
 10
-94.2772246104
 20
-63.2549076285
 10
-95.9344994852
 20
-63.0461106203
 10
-97.5864003282
 20
-62.9724001071
 10
-99.2222139285
 20
-63.0342541296
 10
-100.8313314074
 20
-63.2312715408
 10
-102.4033170205
 20
-63.5621746073
 10
-103.9279758377
 20
-64.0248172956
 10
-105.3954198617
 20
-64.6161991905
 10
-106.7961321549
 20
-65.3324849532
 10
-108.1210285605
 20
-66.169029196
 10
-109.3615166169
 20
-67.1204066082
 10
-110.5095512831
 20
-68.1804471424
 10
-110.905710322
 20
-68.5948755788
  0
LWPOLYLINE
  5
34A
330
329
100
AcDbEntity
  8
0
  6
Continuous
 62
     7
370
    25
100
AcDbPolyline
 90
       79
 70
   128
 43
0.0
 10
-84.6030180494
 20
-95.3546475579
 10
-84.6697497803
 20
-93.6772187623
 10
-84.869512192
 20
-91.9938539205
 10
-85.2010097486
 20
-90.3154702995
 10
-85.6620925612
 20
-88.652952861
 10
-86.249770331
 20
-87.0170836686
 10
-86.960231742
 20
-85.4184719618
 10
-87.7888691794
 20
-83.8674853509
 10
-88.7303086114
 20
-82.3741825793
 10
-89.778444442
 20
-80.9482482884
 10
-90.9264791082
 20
-79.5989302093
 10
-92.1669671646
 20
-78.3349791875
 10
-93.4918635702
 20
-77.1645924305
 10
-94.8925758634
 20
-76.0953603454
 10
-96.3600198874
 20
-75.1342173126
 10
-97.8846787047
 20
-74.2873967135
 10
-99.4566643177
 20
-73.5603905047
 10
-101.0657817966
 20
-72.9579136004
 10
-102.701595397
 20
-72.4838732945
 10
-104.35349624
 20
-72.1413439202
 10
-106.0107711147
 20
-71.9325469121
 10
-107.6626719578
 20
-71.8588363988
 10
-109.2984855581
 20
-71.9206904213
 10
-110.907603037
 20
-72.1177078326
 10
-112.47958865
 20
-72.4486108991
 10
-114.0042474673
 20
-72.9112535874
 10
-115.4716914913
 20
-73.5026354822
 10
-116.8724037845
 20
-74.218921245
 10
-118.1973001901
 20
-75.0554654877
 10
-119.4377882465
 20
-76.0068429
 10
-120.5858229127
 20
-77.0668834341
 10
-121.6339587434
 20
-78.2287123206
 10
-122.5753981754
 20
-79.4847946532
 10
-123.4040356127
 20
-80.8269842559
 10
-124.1144970237
 20
-82.2465765143
 10
-124.7021747935
 20
-83.7343648277
 10
-125.1632576062
 20
-85.2807003181
 10
-125.4947551628
 20
-86.8755544063
 10
-125.6945175744
 20
-88.5085838517
 10
-125.7612493053
 20
-90.1691978316
 10
-125.6945175744
 20
-91.8466266272
 10
-125.4947551628
 20
-93.5299914689
 10
-125.1632576062
 20
-95.20837509
 10
-124.7021747935
 20
-96.8708925285
 10
-124.1144970237
 20
-98.5067617209
 10
-123.4040356127
 20
-100.1053734277
 10
-122.5753981754
 20
-101.6563600386
 10
-121.6339587434
 20
-103.1496628102
 10
-120.5858229127
 20
-104.5755971011
 10
-119.4377882465
 20
-105.9249151802
 10
-118.1973001901
 20
-107.188866202
 10
-116.8724037845
 20
-108.359252959
 10
-115.4716914913
 20
-109.4284850441
 10
-114.0042474673
 20
-110.3896280769
 10
-112.47958865
 20
-111.2364486759
 10
-110.907603037
 20
-111.9634548848
 10
-109.2984855581
 20
-112.5659317891
 10
-107.6626719578
 20
-113.039972095
 10
-106.0107711147
 20
-113.3825014693
 10
-104.35349624
 20
-113.5912984774
 10
-102.701595397
 20
-113.6650089907
 10
-101.0657817966
 20
-113.6031549681
 10
-99.4566643177
 20
-113.4061375569
 10
-97.8846787047
 20
-113.0752344904
 10
-96.3600198874
 20
-112.6125918021
 10
-94.8925758634
 20
-112.0212099073
 10
-93.4918635702
 20
-111.3049241445
 10
-92.1669671646
 20
-110.4683799017
 10
-90.9264791082
 20
-109.5170024895
 10
-89.778444442
 20
-108.4569619553
 10
-88.7303086114
 20
-107.2951330689
 10
-87.7888691794
 20
-106.0390507363
 10
-86.960231742
 20
-104.6968611335
 10
-86.249770331
 20
-103.2772688752
 10
-85.6620925612
 20
-101.7894805617
 10
-85.2010097486
 20
-100.2431450714
 10
-84.869512192
 20
-98.6482909832
 10
-84.6697497803
 20
-97.0152615378
 10
-84.6030180494
 20
-95.3546475579
  0
LWPOLYLINE
  5
34E
330
329
100
AcDbEntity
  8
0
  6
Continuous
 62
     7
370
    25
100
AcDbPolyline
 90
       43
 70
   128
 43
0.0
 10
-26.6366753391
 20
-93.170576149
 10
-26.9791889295
 20
-93.5410923299
 10
-27.3140513324
 20
-94.0402269658
 10
-27.6337822749
 20
-94.6568302138
 10
-27.9312394961
 20
-95.3771281762
 10
-28.1997782933
 20
-96.1850305869
 10
-28.4333999534
 20
-97.062490241
 10
-28.6268857546
 20
-97.9899061397
 10
-28.7759135439
 20
-98.9465613444
 10
-28.8771542866
 20
-99.9110857587
 10
-28.928346432
 20
-100.861933501
 10
-28.928346432
 20
-101.7778642038
 10
-28.8771542866
 20
-102.638417489
 10
-28.7759135439
 20
-103.424370018
 10
-28.6268857546
 20
-104.1181649102
 10
-28.4333999534
 20
-104.704303934
 10
-28.1997782933
 20
-105.1696937124
 10
-27.9312394961
 20
-105.5039382066
 10
-27.6337822749
 20
-105.6995709471
 10
-27.3140513324
 20
-105.7522218215
 10
-26.9791889295
 20
-105.6607146965
 10
-26.6366753391
 20
-105.4270936899
 10
-26.2941617486
 20
-105.0565775091
 10
-25.9592993457
 20
-104.5574428732
 10
-25.6395684032
 20
-103.9408396252
 10
-25.342111182
 20
-103.2205416627
 10
-25.0735723848
 20
-102.412639252
 10
-24.8399507247
 20
-101.535179598
 10
-24.6464649235
 20
-100.6077636992
 10
-24.4974371342
 20
-99.6511084945
 10
-24.3961963915
 20
-98.6865840802
 10
-24.3450042461
 20
-97.735736338
 10
-24.3450042461
 20
-96.8198056351
 10
-24.3961963915
 20
-95.95925235
 10
-24.4974371342
 20
-95.173299821
 10
-24.6464649235
 20
-94.4795049288
 10
-24.8399507247
 20
-93.8933659049
 10
-25.0735723848
 20
-93.4279761265
 10
-25.342111182
 20
-93.0937316323
 10
-25.6395684032
 20
-92.8980988919
 10
-25.9592993457
 20
-92.8454480174
 10
-26.2941617486
 20
-92.9369551425
 10
-26.6366753391
 20
-93.170576149
  0
LWPOLYLINE
  5
34F
330
329
100
AcDbEntity
  8
0
  6
Continuous
 62
     7
370
    25
100
AcDbPolyline
 90
       23
 70
   128
 43
0.0
 10
-53.8866057412
 20
-89.3142821944
 10
-54.1877310415
 20
-89.3377003931
 10
-54.527368734
 20
-89.5007202956
 10
-54.8708427475
 20
-89.8036359028
 10
-55.2104804401
 20
-90.2396805805
 10
-55.5386948669
 20
-90.7991138112
 10
-55.8481542599
 20
-91.469438781
 10
-56.1319458079
 20
-92.2356815378
 10
-56.3837300764
 20
-93.0807254844
 10
-56.597882621
 20
-93.9856937356
 10
-56.7696196277
 20
-94.930370796
 10
-56.8951047757
 20
-95.8936541411
 10
-56.9715349339
 20
-96.8540256127
 10
-56.9972027791
 20
-97.7900320993
 10
-56.9715349339
 20
-98.6807647625
 10
-56.8951047757
 20
-99.5063261065
 10
-56.7696196277
 20
-100.2482744552
 10
-56.597882621
 20
-100.8900359084
 10
-56.3837300764
 20
-101.4172745758
 10
-56.1319458079
 20
-101.8182128167
 10
-55.8481542599
 20
-102.0838943334
 10
-55.5386948669
 20
-102.2083842399
 10
-55.5116057404
 20
-102.212319836
  0
LWPOLYLINE
  5
350
330
329
100
AcDbEntity
  8
0
  6
Continuous
 62
     7
370
    25
100
AcDbPolyline
 90
       12
 70
   128
 43
0.0
 10
18.1009949841
 20
-84.2572051459
 10
18.0561957133
 20
-85.4265199535
 10
17.9223612779
 20
-86.5446343549
 10
17.7011747234
 20
-87.5974874127
 10
17.3954175992
 20
-88.5718388889
 10
17.0089349785
 20
-89.4554357482
 10
16.5465871044
 20
-90.2371662477
 10
16.0141882698
 20
-90.9071996725
 10
15.418433699
 20
-91.4571099638
 10
14.7668153512
 20
-91.8799816804
 10
14.0675277053
 20
-92.1704969652
 10
13.93682936
 20
-92.208543172
  0
LWPOLYLINE
  5
351
330
329
100
AcDbEntity
  8
0
  6
Continuous
 62
     7
370
    25
100
AcDbPolyline
 90
       19
 70
   128
 43
0.0
 10
8.0155530366
 20
-70.5016666877
 10
8.6230176873
 20
-70.3852074398
 10
9.3907732056
 20
-70.3686548109
 10
10.1784662751
 20
-70.4902631668
 10
10.9761911983
 20
-70.7485032117
 10
11.7739161215
 20
-71.1401274274
 10
12.5616091909
 20
-71.660210912
 10
13.3293647093
 20
-72.302213314
 10
14.0675277053
 20
-73.0580610806
 10
14.7668153512
 20
-73.9182489878
 10
15.418433699
 20
-74.8719596733
 10
16.0141882698
 20
-75.9071996721
 10
16.5465871044
 20
-77.0109502404
 10
17.0089349785
 20
-78.1693310745
 10
17.3954175992
 20
-79.3677748633
 10
17.7011747234
 20
-80.5912104807
 10
17.9223612779
 20
-81.824252514
 10
18.0561957133
 20
-83.0513947443
 10
18.1009949841
 20
-84.2572051459
  0
LINE
  5
352
330
329
100
AcDbEntity
  8
0
  6
Continuous
 62
     7
370
    25
100
AcDbLine
 10
-70.230392099
 20
-27.2707173253
 30
0.0
 11
-71.9981590515
 21
-28.8297412361
 31
0.0
  0
LINE
  5
353
330
329
100
AcDbEntity
  8
0
  6
Continuous
 62
     7
370
    25
100
AcDbLine
 10
-66.9068524125
 20
-86.9872922483
 30
0.0
 11
13.0406295507
 21
-97.0597282062
 31
0.0
  0
LINE
  5
354
330
329
100
AcDbEntity
  8
0
  6
Continuous
 62
     7
370
    25
100
AcDbLine
 10
5.7649846781
 20
-70.9454515795
 30
0.0
 11
-65.6126726597
 21
-61.9527120373
 31
0.0
  0
LINE
  5
355
330
329
100
AcDbEntity
  8
0
  6
Continuous
 62
     7
370
    25
100
AcDbLine
 10
-69.3524077404
 20
-31.8297412361
 30
0.0
 11
-109.6574942588
 21
-67.3754864031
 31
0.0
  0
LINE
  5
356
330
329
100
AcDbEntity
  8
0
  6
Continuous
 62
     7
370
    25
100
AcDbLine
 10
-80.5542298367
 20
-100.3754864028
 30
0.0
 11
-78.2463285002
 21
-98.3401087404
 31
0.0
  0
LINE
  5
357
330
329
100
AcDbEntity
  8
0
  6
Continuous
 62
     7
370
    25
100
AcDbLine
 10
-67.2463284998
 20
-88.6390205993
 30
0.0
 11
-65.5651205701
 21
-87.1563345712
 31
0.0
  0
LINE
  5
358
330
329
100
AcDbEntity
  8
0
  6
Continuous
 62
     7
370
    25
100
AcDbLine
 10
-40.5651205692
 20
-65.1084069777
 30
0.0
 11
-40.2491433183
 21
-64.8297412357
 31
0.0
  0
LINE
  5
359
330
329
100
AcDbEntity
  8
0
  6
Continuous
 62
     7
370
    25
100
AcDbLine
 10
-112.4594598274
 20
-69.846587762
 30
0.0
 11
-119.7337658884
 21
-76.2619226949
 31
0.0
  0
LINE
  5
35A
330
329
100
AcDbEntity
  8
0
  6
Continuous
 62
     7
370
    25
100
AcDbLine
 10
-90.6305014663
 20
-109.2619226946
 30
0.0
 11
-81.2613366177
 21
-100.9990959671
 31
0.0
  0
LINE
  5
35B
330
329
100
AcDbEntity
  8
0
  6
Continuous
 62
     7
370
    25
100
AcDbLine
 10
-55.5116057404
 20
-102.212319836
 30
0.0
 11
-27.4491753387
 21
-105.7478537402
 31
0.0
  0
LINE
  5
35C
330
329
100
AcDbEntity
  8
0
  6
Continuous
 62
     7
370
    25
100
AcDbLine
 10
-25.8241753395
 20
-92.8498160987
 30
0.0
 11
-53.8866057412
 21
-89.3142821944
 31
0.0
  0
LINE
  5
35D
330
329
100
AcDbEntity
  8
0
  6
Continuous
 62
     7
370
    25
100
AcDbLine
 10
-55.1572496646
 20
-90.1621013689
 30
0.0
 11
-80.6862810937
 21
-86.9457457337
 31
0.0
  0
LINE
  5
35E
330
329
100
AcDbEntity
  8
0
  6
Continuous
 62
     7
370
    25
100
AcDbLine
 10
-82.2440025633
 20
-97.8364491505
 30
0.0
 11
-56.532249664
 21
-101.0758255271
 31
0.0
  0
LINE
  5
35F
330
329
100
AcDbEntity
  8
0
  6
Continuous
 62
     7
370
    25
100
AcDbLine
 10
13.8960227689
 20
-92.219674534
 30
0.0
 11
13.93682936
 21
-92.208543172
 31
0.0
  0
LINE
  5
360
330
329
100
AcDbEntity
  8
0
  6
Continuous
 62
     7
370
    25
100
AcDbLine
 10
8.0155530366
 20
-70.5016666877
 30
0.0
 11
6.1793861311
 21
-71.0025426028
 31
0.0
  0
LINE
  5
361
330
329
100
AcDbEntity
  8
0
  6
Continuous
 62
     7
370
    25
100
AcDbLine
 10
13.8960227689
 20
-73.6480929217
 30
0.0
 11
13.8960227689
 21
-96.9146640779
 31
0.0
  0
LINE
  5
362
330
329
100
AcDbEntity
  8
0
  6
Continuous
 62
     7
370
    25
100
AcDbLine
 10
-74.5643642071
 20
-87.7170347632
 30
0.0
 11
-74.5267464198
 21
-86.4682112661
 31
0.0
  0
ARC
  5
363
330
329
100
AcDbEntity
  8
0
  6
Continuous
 62
     7
370
    25
100
AcDbCircle
 10
-52.5307587703
 20
-51.6655207945
 30
0.0
 40
22.05242946411214
100
AcDbArc
 50
320.3408562303
 51
0.7058089545
  0
ARC
  5
364
330
329
100
AcDbEntity
  8
0
  6
Continuous
 62
     7
370
    25
100
AcDbCircle
 10
-50.4876285435
 20
-50.172926741
 30
0.0
 40
21.77801730204723
100
AcDbArc
 50
314.248985944
 51
0.8894903896
  0
ARC
  5
365
330
329
100
AcDbEntity
  8
0
  6
Continuous
 62
     7
370
    25
100
AcDbCircle
 10
2.4162944269
 20
-94.6028094088
 30
0.0
 40
23.89318534357002
100
AcDbArc
 50
61.2845270791
 51
81.9433277073
  0
ARC
  5
366
330
329
100
AcDbEntity
  8
0
  6
Continuous
 62
     7
370
    25
100
AcDbCircle
 10
-52.5523563397
 20
-51.2376579817
 30
0.0
 40
18.33340606194617
100
AcDbArc
 50
312.1506047121
 51
0.9850899665
  0
ARC
  5
367
330
329
100
AcDbEntity
  8
0
  6
Continuous
 62
     7
370
    25
100
AcDbCircle
 10
-91.9006524475
 20
-87.5113843769
 30
0.0
 40
17.15298622927321
100
AcDbArc
 50
309.8381865061
 51
321.026570348
  0
ARC
  5
368
330
329
100
AcDbEntity
  8
0
  6
Continuous
 62
     7
370
    25
100
AcDbCircle
 10
-96.2419730928
 20
-88.6914419218
 30
0.0
 40
24.86232901977501
100
AcDbArc
 50
87.4522074923
 51
130.7145973535
  0
ARC
  5
369
330
329
100
AcDbEntity
  8
0
  6
Continuous
 62
     7
370
    25
100
AcDbCircle
 10
-92.6351218572
 20
-88.1083100439
 30
0.0
 40
17.19114168376941
100
AcDbArc
 50
311.4225719297
 51
323.7486544892
  0
ARC
  5
36A
330
329
100
AcDbEntity
  8
0
  6
Continuous
 62
     7
370
    25
100
AcDbCircle
 10
-99.2570110315
 20
-87.514067081
 30
0.0
 40
24.01644869814305
100
AcDbArc
 50
359.7191117411
 51
80.1215297635
  0
VIEWPORT
  5
379
330
329
100
AcDbEntity
  8
0
100
AcDbViewport
 10
0.0
 20
0.0
 30
0.0
 40
205.6
 41
156.0
 68
     1
 69
     1
 12
40.8122932966
 22
0.0
 13
0.0
 23
0.0
 14
10.0
 24
10.0
 15
10.0
 25
10.0
 16
0.0
 26
0.0
 36
1.0
 17
0.0
 27
0.0
 37
0.0
 42
50.0
 43
0.0
 44
0.0
 45
103.4160711027
 50
0.0
 51
0.0
 72
   100
 90
   557152
  1

281
     0
 71
     1
 74
     0
110
0.0
120
0.0
130
0.0
111
1.0
121
0.0
131
0.0
112
0.0
122
1.0
132
0.0
 79
     0
146
0.0
  0
ENDBLK
  5
32C
330
329
100
AcDbEntity
  8
0
100
AcDbBlockEnd
  0
ENDSEC
  0
SECTION
  2
ENTITIES
  0
CIRCLE
  5
7D
330
1F
100
AcDbEntity
  8
0
  6
Continuous
 62
     7
370
    25
100
AcDbCircle
 10
0.0
 20
0.0
 30
0.0
 40
21.99999999999998
  0
LINE
  5
82
330
1F
100
AcDbEntity
  8
0
  6
Continuous
 62
     7
370
    25
100
AcDbLine
 10
19.0854993308
 20
-10.9531006305
 30
0.0
 11
101.5358983849
 21
-10.9531006305
 31
0.0
  0
LINE
  5
83
330
1F
100
AcDbEntity
  8
0
  6
Continuous
 62
     7
370
    25
100
AcDbLine
 10
101.5358983849
 20
14.0468993695
 30
0.0
 11
16.9317635851
 21
14.0468993695
 31
0.0
  0
LINE
  5
84
330
1F
100
AcDbEntity
  8
0
  6
Continuous
 62
     7
370
    25
100
AcDbLine
 10
50.0
 20
-6.9059910429
 30
0.0
 11
80.0
 21
-6.9059910429
 31
0.0
  0
LINE
  5
85
330
1F
100
AcDbEntity
  8
0
  6
Continuous
 62
     7
370
    25
100
AcDbLine
 10
80.0
 20
6.0940089571
 30
0.0
 11
50.0
 21
6.0940089571
 31
0.0
  0
LINE
  5
86
330
1F
100
AcDbEntity
  8
0
  6
Continuous
 62
     7
370
    25
100
AcDbLine
 10
50.0
 20
5.0940089571
 30
0.0
 11
21.4021277621
 21
5.0940089571
 31
0.0
  0
LINE
  5
87
330
1F
100
AcDbEntity
  8
0
  6
Continuous
 62
     7
370
    25
100
AcDbLine
 10
21.1924342585
 20
-5.9059910429
 30
0.0
 11
50.0
 21
-5.9059910429
 31
0.0
  0
LINE
  5
88
330
1F
100
AcDbEntity
  8
0
  6
Continuous
 62
     7
370
    25
100
AcDbLine
 10
105.0
 20
13.8858620488
 30
0.0
 11
105.0
 21
-10.7920633097
 31
0.0
  0
LINE
  5
89
330
1F
100
AcDbEntity
  8
0
  6
Continuous
 62
     7
370
    25
100
AcDbLine
 10
80.0
 20
6.0940089571
 30
0.0
 11
80.0
 21
-6.9059910429
 31
0.0
  0
LINE
  5
8A
330
1F
100
AcDbEntity
  8
0
  6
Continuous
 62
     7
370
    25
100
AcDbLine
 10
50.0
 20
6.0940089571
 30
0.0
 11
50.0
 21
-6.9059910429
 31
0.0
  0
ARC
  5
8B
330
1F
100
AcDbEntity
  8
0
  6
Continuous
 62
     7
370
    25
100
AcDbCircle
 10
0.0
 20
0.0
 30
0.0
 40
26.0
100
AcDbArc
 50
32.7017049023
 51
335.0850101921
  0
ARC
  5
8C
330
1F
100
AcDbEntity
  8
0
  6
Continuous
 62
     7
370
    25
100
AcDbCircle
 10
101.5391836132
 20
-23.2213941955
 30
0.0
 40
37.26829370979368
100
AcDbArc
 50
84.6717100934
 51
90.0050506664
  0
ARC
  5
8D
330
1F
100
AcDbEntity
  8
0
  6
Continuous
 62
     7
370
    25
100
AcDbCircle
 10
101.5391836132
 20
26.3151929345
 30
0.0
 40
37.26829370979419
100
AcDbArc
 50
269.9949493336
 51
275.3282899066
  0
ARC
  5
8E
330
1F
100
AcDbEntity
  8
0
  6
Continuous
 62
     7
370
    25
100
AcDbCircle
 10
95.4675467676
 20
1.1880854716
 30
0.0
 40
12.15703982565754
100
AcDbArc
 50
321.6384141144
 51
0.6388720153
  0
ARC
  5
8F
330
1F
100
AcDbEntity
  8
0
  6
Continuous
 62
     7
370
    25
100
AcDbCircle
 10
95.3517863706
 20
1.4196456215
 30
0.0
 40
12.27242001212109
100
AcDbArc
 50
359.5517718749
 51
38.1709419954
  0
CIRCLE
  5
96
330
1B
100
AcDbEntity
 67
     1
  8
0
  6
Continuous
 62
     7
370
    25
100
AcDbCircle
 10
0.0
 20
0.0
 30
0.0
 40
22.99999999999999
  0
CIRCLE
  5
97
330
1B
100
AcDbEntity
 67
     1
  8
0
  6
Continuous
 62
     7
370
    25
100
AcDbCircle
 10
0.0
 20
0.0
 30
0.0
 40
25.99999999999999
  0
CIRCLE
  5
98
330
1B
100
AcDbEntity
 67
     1
  8
0
  6
Continuous
 62
     7
370
    25
100
AcDbCircle
 10
0.0
 20
0.0
 30
0.0
 40
20.5
  0
CIRCLE
  5
99
330
1B
100
AcDbEntity
 67
     1
  8
0
  6
Continuous
 62
     7
370
    25
100
AcDbCircle
 10
0.0
 20
0.0
 30
0.0
 40
18.0
  0
LWPOLYLINE
  5
9A
330
1B
100
AcDbEntity
 67
     1
  8
0
  6
Continuous
 62
     7
370
    25
100
AcDbPolyline
 90
       47
 70
   128
 43
0.0
 10
-105.0
 20
13.8858620488
 10
-103.3828017162
 20
14.0013356352
 10
-101.7551412609
 20
14.0462584539
 10
-100.1262388584
 20
14.0203760303
 10
-98.5053217681
 20
13.9238349807
 10
-96.9015720149
 20
13.7571821822
 10
-95.3240743759
 20
13.5213616745
 10
-93.7817649175
 20
13.2177093124
 10
-92.2833803752
 20
12.8479451984
 10
-90.8374086627
 20
12.4141639389
 10
-89.4520407902
 20
11.9188227789
 10
-88.1351244647
 20
11.3647276823
 10
-86.894119635
 20
10.7550174371
 10
-85.7360562335
 20
10.0931458749
 10
-84.6674943533
 20
9.382862306
 10
-83.6944870873
 20
8.6281902808
 10
-82.8225462394
 20
7.8334047973
 10
-82.0566111016
 20
7.0030080847
 10
-81.401020474
 20
6.1417040993
 10
-80.8594880874
 20
5.2543718784
 10
-80.4350815657
 20
4.3460379015
 10
-80.1302050486
 20
3.421847617
 10
-79.9465855731
 20
2.4870362947
 10
-79.8852632903
 20
1.5468993695
 10
-79.9465855731
 20
0.6067624443
 10
-80.1302050486
 20
-0.3280488779
 10
-80.4350815657
 20
-1.2522391624
 10
-80.8594880874
 20
-2.1605731393
 10
-81.401020474
 20
-3.0479053603
 10
-82.0566111016
 20
-3.9092093456
 10
-82.8225462394
 20
-4.7396060583
 10
-83.6944870873
 20
-5.5343915418
 10
-84.6674943533
 20
-6.289063567
 10
-85.7360562335
 20
-6.9993471359
 10
-86.894119635
 20
-7.6612186981
 10
-88.1351244647
 20
-8.2709289433
 10
-89.4520407902
 20
-8.8250240399
 10
-90.8374086627
 20
-9.3203651999
 10
-92.2833803752
 20
-9.7541464594
 10
-93.7817649175
 20
-10.1239105734
 10
-95.3240743759
 20
-10.4275629355
 10
-96.9015720149
 20
-10.6633834432
 10
-98.5053217681
 20
-10.8300362417
 10
-100.1262388584
 20
-10.9265772912
 10
-101.7551412609
 20
-10.9524597149
 10
-103.3828017162
 20
-10.9075368961
 10
-105.0
 20
-10.7920633097
  0
SPLINE
  5
9D
330
1B
100
AcDbEntity
 67
     1
  8
0
  6
Continuous
 62
     7
370
    25
100
AcDbSpline
210
0.0
220
0.0
230
1.0
 70
    11
 71
     3
 72
    70
 73
    66
 74
     0
 42
0.000000001
 43
0.00000001
 40
0.0
 40
0.0
 40
0.0
 40
0.0
 40
0.03125
 40
0.03125
 40
0.0625
 40
0.0625
 40
0.09375
 40
0.09375
 40
0.125
 40
0.125
 40
0.15625
 40
0.15625
 40
0.1875
 40
0.1875
 40
0.21875
 40
0.21875
 40
0.25
 40
0.25
 40
0.28125
 40
0.28125
 40
0.3125
 40
0.3125
 40
0.34375
 40
0.34375
 40
0.375
 40
0.375
 40
0.40625
 40
0.40625
 40
0.4375
 40
0.4375
 40
0.46875
 40
0.46875
 40
0.5
 40
0.5
 40
0.53125
 40
0.53125
 40
0.5625
 40
0.5625
 40
0.59375
 40
0.59375
 40
0.625
 40
0.625
 40
0.65625
 40
0.65625
 40
0.6875
 40
0.6875
 40
0.71875
 40
0.71875
 40
0.75
 40
0.75
 40
0.78125
 40
0.78125
 40
0.8125
 40
0.8125
 40
0.84375
 40
0.84375
 40
0.875
 40
0.875
 40
0.90625
 40
0.90625
 40
0.9375
 40
0.9375
 40
0.96875
 40
0.96875
 40
1.0
 40
1.0
 40
1.0
 40
1.0
 10
-15.75000000000482
 20
-0.0000000000000021
 30
0.0
 10
-15.75000000000482
 20
-0.9280776503076296
 30
0.0
 10
-15.6674960304938
 20
-1.890862122908209
 30
0.0
 10
-15.30662307463779
 20
-3.840974028076115
 30
0.0
 10
-15.027937802715
 20
-4.82810319132791
 30
0.0
 10
-14.26039368076056
 20
-6.766880159874629
 30
0.0
 10
-13.77135373235872
 20
-7.718134986610504
 30
0.0
 10
-12.59400487103685
 20
-9.518972245026774
 30
0.0
 10
-11.90577650307704
 20
-10.36808710430597
 30
0.0
 10
-10.36808710430597
 20
-11.90577650307704
 30
0.0
 10
-9.518972245026763
 20
-12.59400487103686
 30
0.0
 10
-7.718134986610496
 20
-13.77135373235871
 30
0.0
 10
-6.76688015987463
 20
-14.26039368076057
 30
0.0
 10
-4.828103191327905
 20
-15.027937802715
 30
0.0
 10
-3.840974028076108
 20
-15.30662307463779
 30
0.0
 10
-1.890862122908198
 20
-15.6674960304938
 30
0.0
 10
-0.9280776503076266
 20
-15.75000000000482
 30
0.0
 10
0.9280776503076266
 20
-15.75000000000483
 30
0.0
 10
1.890862122908211
 20
-15.6674960304938
 30
0.0
 10
3.840974028076115
 20
-15.30662307463779
 30
0.0
 10
4.828103191327912
 20
-15.027937802715
 30
0.0
 10
6.76688015987463
 20
-14.26039368076056
 30
0.0
 10
7.718134986610503
 20
-13.77135373235872
 30
0.0
 10
9.518972245026777
 20
-12.59400487103686
 30
0.0
 10
10.36808710430598
 20
-11.90577650307704
 30
0.0
 10
11.90577650307704
 20
-10.36808710430597
 30
0.0
 10
12.59400487103686
 20
-9.518972245026763
 30
0.0
 10
13.77135373235872
 20
-7.718134986610495
 30
0.0
 10
14.26039368076057
 20
-6.766880159874631
 30
0.0
 10
15.027937802715
 20
-4.828103191327906
 30
0.0
 10
15.30662307463779
 20
-3.840974028076106
 30
0.0
 10
15.6674960304938
 20
-1.890862122908198
 30
0.0
 10
15.75000000000482
 20
-0.9280776503076255
 30
0.0
 10
15.75000000000483
 20
0.9280776503076293
 30
0.0
 10
15.6674960304938
 20
1.890862122908209
 30
0.0
 10
15.30662307463779
 20
3.840974028076116
 30
0.0
 10
15.027937802715
 20
4.828103191327908
 30
0.0
 10
14.26039368076056
 20
6.766880159874629
 30
0.0
 10
13.77135373235872
 20
7.718134986610502
 30
0.0
 10
12.59400487103685
 20
9.518972245026761
 30
0.0
 10
11.90577650307704
 20
10.36808710430597
 30
0.0
 10
10.36808710430597
 20
11.90577650307704
 30
0.0
 10
9.518972245026763
 20
12.59400487103686
 30
0.0
 10
7.718134986610496
 20
13.77135373235871
 30
0.0
 10
6.76688015987463
 20
14.26039368076057
 30
0.0
 10
4.828103191327905
 20
15.027937802715
 30
0.0
 10
3.840974028076108
 20
15.30662307463778
 30
0.0
 10
1.890862122908198
 20
15.6674960304938
 30
0.0
 10
0.9280776503076266
 20
15.75000000000482
 30
0.0
 10
-0.9280776503076266
 20
15.75000000000483
 30
0.0
 10
-1.890862122908211
 20
15.6674960304938
 30
0.0
 10
-3.840974028076108
 20
15.30662307463779
 30
0.0
 10
-4.828103191327912
 20
15.027937802715
 30
0.0
 10
-6.76688015987463
 20
14.26039368076057
 30
0.0
 10
-7.718134986610503
 20
13.77135373235872
 30
0.0
 10
-9.518972245026763
 20
12.59400487103686
 30
0.0
 10
-10.36808710430597
 20
11.90577650307704
 30
0.0
 10
-11.90577650307704
 20
10.36808710430597
 30
0.0
 10
-12.59400487103685
 20
9.518972245026763
 30
0.0
 10
-13.77135373235871
 20
7.718134986610495
 30
0.0
 10
-14.26039368076056
 20
6.76688015987463
 30
0.0
 10
-15.027937802715
 20
4.82810319132791
 30
0.0
 10
-15.30662307463778
 20
3.840974028076105
 30
0.0
 10
-15.6674960304938
 20
1.890862122908199
 30
0.0
 10
-15.75000000000482
 20
0.9280776503076253
 30
0.0
 10
-15.75000000000482
 20
-0.0000000000000021
 30
0.0
  0
LWPOLYLINE
  5
9E
330
1B
100
AcDbEntity
 67
     1
  8
0
  6
Continuous
 62
     7
370
    25
100
AcDbPolyline
 90
       29
 70
   128
 43
0.0
 10
-95.0810450547
 20
-9.9263612354
 10
-93.9901991477
 20
-9.8556235967
 10
-92.9130712608
 20
-9.6443002474
 10
-91.8632069023
 20
-9.2950487013
 10
-90.8538087256
 20
-8.8122609993
 10
-89.8975704985
 20
-8.2020084767
 10
-89.0065174714
 20
-7.4719654131
 10
-88.1918551531
 20
-6.6313125237
 10
-87.4638283951
 20
-5.6906215063
 10
-86.8315925563
 20
-4.6617220962
 10
-86.303098369
 20
-3.5575533004
 10
-85.8849919543
 20
-2.3920006824
 10
-85.5825312431
 20
-1.1797217424
 10
-85.3995198543
 20
0.0640384085
 10
-85.3382592621
 20
1.3236387646
 10
-85.3995198543
 20
2.5832391208
 10
-85.5825312431
 20
3.8269992716
 10
-85.8849919543
 20
5.0392782116
 10
-86.303098369
 20
6.2048308297
 10
-86.8315925563
 20
7.3089996254
 10
-87.4638283951
 20
8.3378990355
 10
-88.1918551531
 20
9.278590053
 10
-89.0065174714
 20
10.1192429424
 10
-89.8975704985
 20
10.8492860059
 10
-90.8538087256
 20
11.4595385285
 10
-91.8632069023
 20
11.9423262306
 10
-92.9130712608
 20
12.2915777767
 10
-93.9901991477
 20
12.5029011259
 10
-95.0810450547
 20
12.5736387646
  0
LWPOLYLINE
  5
9F
330
1B
100
AcDbEntity
 67
     1
  8
0
  6
Continuous
 62
     7
370
    25
100
AcDbPolyline
 90
       57
 70
   128
 43
0.0
 10
-107.6238308473
 20
1.3236387646
 10
-107.5625702552
 20
0.0640384085
 10
-107.3795588663
 20
-1.1797217424
 10
-107.0770981551
 20
-2.3920006824
 10
-106.6589917405
 20
-3.5575533004
 10
-106.1304975532
 20
-4.6617220962
 10
-105.4982617143
 20
-5.6906215063
 10
-104.7702349563
 20
-6.6313125237
 10
-103.9555726381
 20
-7.4719654131
 10
-103.064519611
 20
-8.2020084767
 10
-102.1082813838
 20
-8.8122609993
 10
-101.0988832071
 20
-9.2950487013
 10
-100.0490188486
 20
-9.6443002474
 10
-98.9718909618
 20
-9.8556235967
 10
-97.8810450547
 20
-9.9263612354
 10
-96.7901991477
 20
-9.8556235967
 10
-95.7130712608
 20
-9.6443002474
 10
-94.6632069023
 20
-9.2950487013
 10
-93.6538087256
 20
-8.8122609993
 10
-92.6975704985
 20
-8.2020084767
 10
-91.8065174714
 20
-7.4719654131
 10
-90.9918551531
 20
-6.6313125237
 10
-90.2638283951
 20
-5.6906215063
 10
-89.6315925563
 20
-4.6617220962
 10
-89.103098369
 20
-3.5575533004
 10
-88.6849919543
 20
-2.3920006824
 10
-88.3825312431
 20
-1.1797217424
 10
-88.1995198543
 20
0.0640384085
 10
-88.1382592621
 20
1.3236387646
 10
-88.1995198543
 20
2.5832391208
 10
-88.3825312431
 20
3.8269992716
 10
-88.6849919543
 20
5.0392782116
 10
-89.103098369
 20
6.2048308297
 10
-89.6315925563
 20
7.3089996254
 10
-90.2638283951
 20
8.3378990355
 10
-90.9918551531
 20
9.278590053
 10
-91.8065174714
 20
10.1192429424
 10
-92.6975704985
 20
10.8492860059
 10
-93.6538087256
 20
11.4595385285
 10
-94.6632069023
 20
11.9423262306
 10
-95.7130712608
 20
12.2915777767
 10
-96.7901991477
 20
12.5029011259
 10
-97.8810450547
 20
12.5736387646
 10
-98.9718909618
 20
12.5029011259
 10
-100.0490188486
 20
12.2915777767
 10
-101.0988832071
 20
11.9423262306
 10
-102.1082813838
 20
11.4595385285
 10
-103.064519611
 20
10.8492860059
 10
-103.9555726381
 20
10.1192429424
 10
-104.7702349563
 20
9.278590053
 10
-105.4982617143
 20
8.3378990355
 10
-106.1304975532
 20
7.3089996254
 10
-106.6589917405
 20
6.2048308297
 10
-107.0770981551
 20
5.0392782116
 10
-107.3795588663
 20
3.8269992716
 10
-107.5625702552
 20
2.5832391208
 10
-107.6238308473
 20
1.3236387646
  0
LWPOLYLINE
  5
A0
330
1B
100
AcDbEntity
 67
     1
  8
0
  6
Continuous
 62
     7
370
    25
100
AcDbPolyline
 90
       24
 70
   128
 43
0.0
 10
-105.415621724
 20
1.9800905315
 10
-105.2503286523
 20
3.0824649278
 10
-104.9652444452
 20
4.1517143697
 10
-104.5649769028
 20
5.1705566384
 10
-104.0559955268
 20
6.1225242434
 10
-103.4465269547
 20
6.9922305857
 10
-102.7464219928
 20
7.7656186506
 10
-101.9669963983
 20
8.4301882101
 10
-101.1208479835
 20
8.9751978636
 10
-100.2216529976
 20
9.3918386509
 10
-99.2839450788
 20
9.6733764301
 10
-98.3228803475
 20
9.815260722
 10
-97.3539924392
 20
9.8151982587
 10
-96.3929414347
 20
9.6731900497
 10
-95.4552607474
 20
9.3915313659
 10
-94.5561060578
 20
8.9747746407
 10
-93.7100103527
 20
8.4296558897
 10
-92.9306490294
 20
7.7649858366
 10
-92.2306188613
 20
6.9915075063
 10
-91.6212343967
 20
6.1217225856
 10
-91.1123450826
 20
5.1696893594
 10
-90.7121760684
 20
4.1507954873
 10
-90.4271952634
 20
3.0815092939
 10
-90.2620087964
 20
1.9791135918
  0
LWPOLYLINE
  5
A1
330
1B
100
AcDbEntity
 67
     1
  8
0
  6
Continuous
 62
     7
370
    25
100
AcDbPolyline
 90
       11
 70
   128
 43
0.0
 10
-105.2530807279
 20
-1.0030958032
 10
-105.6813257629
 20
-0.994465959
 10
-106.0838628924
 20
-0.8254944619
 10
-106.4169319373
 20
-0.5145503576
 10
-106.6443246579
 20
-0.0954366637
 10
-106.7413209837
 20
0.3862843877
 10
-106.6973763557
 20
0.8782444611
 10
-106.5172680344
 20
1.3269621278
 10
-106.22057576
 20
1.6836568806
 10
-105.8395532205
 20
1.9095521073
 10
-105.415621724
 20
1.9800905315
  0
LWPOLYLINE
  5
A2
330
1B
100
AcDbEntity
 67
     1
  8
0
  6
Continuous
 62
     7
370
    25
100
AcDbPolyline
 90
       22
 70
   128
 43
0.0
 10
-90.426929476
 20
-1.0141731881
 10
-90.7119907172
 20
-2.0841770427
 10
-91.1123900836
 20
-3.1037334464
 10
-91.6216476883
 20
-4.0563423482
 10
-92.231521931
 20
-4.9265871459
 10
-92.932142876
 20
-5.7003841817
 10
-93.7121719829
 20
-6.3652106655
 10
-94.5589856049
 20
-6.9103073389
 10
-95.4588792838
 20
-7.3268525978
 10
-96.3972895373
 20
-7.6081052576
 10
-97.3590295479
 20
-7.7495136491
 10
-98.3285349395
 20
-7.7487892815
 10
-99.2901156646
 20
-7.6059438774
 10
-100.2282099248
 20
-7.3232891841
 10
-101.1276360166
 20
-6.9053995602
 10
-101.9738380248
 20
-6.3590379472
 10
-102.7531213895
 20
-5.6930464203
 10
-103.4528745325
 20
-4.9182030927
 10
-104.0617729575
 20
-4.0470476868
 10
-104.5699625211
 20
-3.0936785976
 10
-104.9692189077
 20
-2.0735247296
 10
-105.2530807279
 20
-1.0030958032
  0
LWPOLYLINE
  5
A3
330
1B
100
AcDbEntity
 67
     1
  8
0
  6
Continuous
 62
     7
370
    25
100
AcDbPolyline
 90
       11
 70
   128
 43
0.0
 10
-90.2620087964
 20
1.9791135918
 10
-89.8585413857
 20
1.8838432583
 10
-89.5011734472
 20
1.647534321
 10
-89.225820359
 20
1.293935762
 10
-89.0601550296
 20
0.8585841379
 10
-89.0208267783
 20
0.3852321652
 10
-89.1117880834
 20
-0.0785484148
 10
-89.3238973592
 20
-0.4861477835
 10
-89.6358376826
 20
-0.796602318
 10
-90.0162591382
 20
-0.9787114243
 10
-90.426929476
 20
-1.0141731881
  0
LWPOLYLINE
  5
A7
330
1B
100
AcDbEntity
 67
     1
  8
0
  6
Continuous
 62
     7
370
    25
100
AcDbPolyline
 90
       47
 70
   128
 43
0.0
 10
-103.9639553678
 20
1.0330267389
 10
-103.9022488816
 20
2.0747016045
 10
-103.7182788981
 20
3.0969720382
 10
-103.4154724301
 20
4.0807950762
 10
-102.999470189
 20
5.0078439567
 10
-102.4780215095
 20
5.860849513
 10
-101.860839994
 20
6.6239218656
 10
-101.1594225663
 20
7.2828464204
 10
-100.3868353059
 20
7.8253486597
 10
-99.5574700517
 20
8.2413227931
 10
-98.6867763091
 20
8.5230200096
 10
-97.7909734553
 20
8.6651928232
 10
-96.8867486024
 20
8.6651928232
 10
-95.9909457485
 20
8.5230200096
 10
-95.120252006
 20
8.2413227931
 10
-94.2908867518
 20
7.8253486597
 10
-93.5182994914
 20
7.2828464204
 10
-92.8168820637
 20
6.6239218656
 10
-92.1997005481
 20
5.860849513
 10
-91.6782518687
 20
5.0078439567
 10
-91.2622496276
 20
4.0807950762
 10
-90.9594431596
 20
3.0969720382
 10
-90.7754731761
 20
2.0747016045
 10
-90.7137666899
 20
1.0330267389
 10
-90.7754731761
 20
-0.0086481267
 10
-90.9594431596
 20
-1.0309185605
 10
-91.2622496276
 20
-2.0147415984
 10
-91.6782518687
 20
-2.9417904789
 10
-92.1997005481
 20
-3.7947960352
 10
-92.8168820637
 20
-4.5578683878
 10
-93.5182994914
 20
-5.2167929427
 10
-94.2908867518
 20
-5.7592951819
 10
-95.120252006
 20
-6.1752693153
 10
-95.9909457485
 20
-6.4569665319
 10
-96.8867486024
 20
-6.5991393454
 10
-97.7909734553
 20
-6.5991393454
 10
-98.6867763091
 20
-6.4569665319
 10
-99.5574700517
 20
-6.1752693153
 10
-100.3868353059
 20
-5.7592951819
 10
-101.1594225663
 20
-5.2167929427
 10
-101.860839994
 20
-4.5578683878
 10
-102.4780215095
 20
-3.7947960352
 10
-102.999470189
 20
-2.9417904789
 10
-103.4154724301
 20
-2.0147415984
 10
-103.7182788981
 20
-1.0309185605
 10
-103.9022488816
 20
-0.0086481267
 10
-103.9639553678
 20
1.0330267389
  0
LWPOLYLINE
  5
A8
330
1B
100
AcDbEntity
 67
     1
  8
0
  6
Continuous
 62
     7
370
    25
100
AcDbPolyline
 90
       15
 70
   128
 43
0.0
 10
-104.8732820418
 20
1.0330267389
 10
-104.8114245494
 20
2.1455580455
 10
-104.6268677706
 20
3.2398216189
 10
-104.3226421226
 20
4.2978496813
 10
-103.9037429821
 20
5.3022694413
 10
-103.3770486615
 20
6.2365883542
 10
-102.7512074668
 20
7.0854649291
 10
-102.0364956933
 20
7.8349606364
 10
-101.2446488885
 20
8.472768777
 10
-100.3886691549
 20
8.9884165591
 10
-99.4826116563
 20
9.3734370603
 10
-98.5413538316
 20
9.6215082546
 10
-97.5803511084
 20
9.7285568198
 10
-96.6153831247
 20
9.6928250215
 10
-96.2763610268
 20
9.646086106
  0
LWPOLYLINE
  5
AA
330
1B
100
AcDbEntity
 67
     1
  8
0
  6
Continuous
 62
     7
370
    25
100
AcDbPolyline
 90
       15
 70
   128
 43
0.0
 10
-96.2763610288
 20
-7.5800326285
 10
-96.6153831247
 20
-7.6267715438
 10
-97.5803511084
 20
-7.6625033421
 10
-98.5413538316
 20
-7.5554547768
 10
-99.4826116563
 20
-7.3073835825
 10
-100.3886691549
 20
-6.9223630814
 10
-101.2446488885
 20
-6.4067152993
 10
-102.0364956933
 20
-5.7689071586
 10
-102.7512074668
 20
-5.0194114514
 10
-103.3770486615
 20
-4.1705348764
 10
-103.9037429821
 20
-3.2362159636
 10
-104.3226421226
 20
-2.2317962036
 10
-104.6268677706
 20
-1.1737681411
 10
-104.8114245494
 20
-0.0795045678
 10
-104.8732820418
 20
1.0330267389
  0
LWPOLYLINE
  5
AB
330
1B
100
AcDbEntity
 67
     1
  8
0
  6
Continuous
 62
     7
370
    25
100
AcDbPolyline
 90
        3
 70
   128
 43
0.0
 10
-100.4639553678
 20
1.0330267389
 10
-100.4022488816
 20
2.0747016045
 10
-100.3424348223
 20
2.4915204427
  0
LWPOLYLINE
  5
AC
330
1B
100
AcDbEntity
 67
     1
  8
0
  6
Continuous
 62
     7
370
    25
100
AcDbPolyline
 90
        3
 70
   128
 43
0.0
 10
-100.2512576206
 20
-0.8898339598
 10
-100.4022488816
 20
-0.0086481267
 10
-100.45126917
 20
0.5598339307
  0
LWPOLYLINE
  5
AE
330
1B
100
AcDbEntity
 67
     1
  8
0
  6
Continuous
 62
     7
370
    25
100
AcDbPolyline
 90
       22
 70
   128
 43
0.0
 10
-98.7678029451
 20
1.0330267389
 10
-98.704319065
 20
0.5466807011
 10
-98.5195082463
 20
0.1035486431
 10
-98.2297917411
 20
-0.2569952072
 10
-97.8609121323
 20
-0.5029149464
 10
-97.445645992
 20
-0.6123595265
 10
-97.0208915391
 20
-0.5756043162
 10
-96.6243900707
 20
-0.3959151774
 10
-96.2913724824
 20
-0.0892582784
 10
-96.0514288483
 20
0.3171185693
 10
-95.9258792132
 20
0.7871069997
 10
-95.9258792132
 20
1.2789464781
 10
-96.0514288483
 20
1.7489349084
 10
-96.2913724824
 20
2.1553117562
 10
-96.6243900707
 20
2.4619686551
 10
-97.0208915391
 20
2.641657794
 10
-97.445645992
 20
2.6784130042
 10
-97.8609121323
 20
2.5689684241
 10
-98.2297917411
 20
2.323048685
 10
-98.5195082463
 20
1.9625048347
 10
-98.7043190651
 20
1.5193727767
 10
-98.7678029451
 20
1.0330267389
  0
LINE
  5
F0
330
1B
100
AcDbEntity
 67
     1
  8
0
  6
Continuous
 62
     7
370
    25
100
AcDbLine
 10
-21.8788623585
 20
14.0468993695
 30
0.0
 11
-101.5358983849
 21
14.0468993695
 31
0.0
  0
LINE
  5
F1
330
1B
100
AcDbEntity
 67
     1
  8
0
  6
Continuous
 62
     7
370
    25
100
AcDbLine
 10
-101.5358983849
 20
-10.9531006305
 30
0.0
 11
-23.580279612
 21
-10.9531006305
 31
0.0
  0
LINE
  5
F2
330
1B
100
AcDbEntity
 67
     1
  8
0
  6
Continuous
 62
     7
370
    25
100
AcDbLine
 10
-95.0810450547
 20
12.5736387646
 30
0.0
 11
-97.8810450547
 21
12.5736387646
 31
0.0
  0
LINE
  5
F3
330
1B
100
AcDbEntity
 67
     1
  8
0
  6
Continuous
 62
     7
370
    25
100
AcDbLine
 10
-97.8810450547
 20
-9.9263612354
 30
0.0
 11
-95.0810450547
 21
-9.9263612354
 31
0.0
  0
LINE
  5
F4
330
1B
100
AcDbEntity
 67
     1
  8
0
  6
Continuous
 62
     7
370
    25
100
AcDbLine
 10
-97.3388610288
 20
-7.6669732611
 30
0.0
 11
-96.6932171051
 21
-7.6669732611
 31
0.0
  0
LINE
  5
F5
330
1B
100
AcDbEntity
 67
     1
  8
0
  6
Continuous
 62
     7
370
    25
100
AcDbLine
 10
-96.6932171044
 20
9.7330267389
 30
0.0
 11
-97.3388610288
 21
9.7330267389
 31
0.0
  0
LINE
  5
F6
330
1B
100
AcDbEntity
 67
     1
  8
0
  6
Continuous
 62
     7
370
    25
100
AcDbLine
 10
-105.0
 20
13.8858620488
 30
0.0
 11
-105.0
 21
9.0041209966
 31
0.0
  0
LINE
  5
F7
330
1B
100
AcDbEntity
 67
     1
  8
0
  6
Continuous
 62
     7
370
    25
100
AcDbLine
 10
-105.0
 20
-6.3568434674
 30
0.0
 11
-105.0
 21
-10.7920633097
 31
0.0
  0
LINE
  5
F8
330
1B
100
AcDbEntity
 67
     1
  8
0
  6
Continuous
 62
     7
370
    25
100
AcDbLine
 10
-90.426929476
 20
-1.0141731881
 30
0.0
 11
-90.2075582767
 21
-1.0141731881
 31
0.0
  0
LINE
  5
F9
330
1B
100
AcDbEntity
 67
     1
  8
0
  6
Continuous
 62
     7
370
    25
100
AcDbLine
 10
-105.415621724
 20
1.9800905315
 30
0.0
 11
-104.828507391
 21
1.9800905315
 31
0.0
  0
LINE
  5
FA
330
1B
100
AcDbEntity
 67
     1
  8
0
  6
Continuous
 62
     7
370
    25
100
AcDbLine
 10
-105.2530807279
 20
-1.0030958032
 30
0.0
 11
-104.6640336374
 21
-1.0030958032
 31
0.0
  0
LINE
  5
FB
330
1B
100
AcDbEntity
 67
     1
  8
0
  6
Continuous
 62
     7
370
    25
100
AcDbLine
 10
-95.5635245262
 20
1.0244397441
 30
0.0
 11
-90.7138248116
 21
1.0009825875
 31
0.0
  0
LINE
  5
FC
330
1B
100
AcDbEntity
 67
     1
  8
0
  6
Continuous
 62
     7
370
    25
100
AcDbLine
 10
-91.4320837864
 20
-2.4314323548
 30
0.0
 11
-95.6317074738
 21
0.4702932443
 31
0.0
  0
LINE
  5
FD
330
1B
100
AcDbEntity
 67
     1
  8
0
  6
Continuous
 62
     7
370
    25
100
AcDbLine
 10
-95.8050927951
 20
0.0005991755
 30
0.0
 11
-91.6152868883
 21
-2.8196907536
 31
0.0
  0
LINE
  5
FE
330
1B
100
AcDbEntity
 67
     1
  8
0
  6
Continuous
 62
     7
370
    25
100
AcDbLine
 10
-93.7235966752
 20
-5.3775622775
 30
0.0
 11
-96.1040934329
 21
-0.4399403275
 31
0.0
  0
LINE
  5
FF
330
1B
100
AcDbEntity
 67
     1
  8
0
  6
Continuous
 62
     7
370
    25
100
AcDbLine
 10
-96.4576330236
 20
-0.7466032612
 30
0.0
 11
-94.0503760338
 21
-5.608031554
 31
0.0
  0
LINE
  5
100
330
1B
100
AcDbEntity
 67
     1
  8
0
  6
Continuous
 62
     7
370
    25
100
AcDbLine
 10
-96.9838167279
 20
-6.6059800503
 30
0.0
 11
-96.9073343722
 21
-0.9554935635
 31
0.0
  0
LINE
  5
101
330
1B
100
AcDbEntity
 67
     1
  8
0
  6
Continuous
 62
     7
370
    25
100
AcDbLine
 10
-97.3462975845
 20
-1.0169552765
 30
0.0
 11
-97.366612078
 21
-6.6169061479
 31
0.0
  0
LINE
  5
102
330
1B
100
AcDbEntity
 67
     1
  8
0
  6
Continuous
 62
     7
370
    25
100
AcDbLine
 10
-100.3391706143
 20
-5.787532123
 30
0.0
 11
-97.8262025307
 21
-0.9382243903
 31
0.0
  0
LINE
  5
103
330
1B
100
AcDbEntity
 67
     1
  8
0
  6
Continuous
 62
     7
370
    25
100
AcDbLine
 10
-98.2329695263
 20
-0.7380162664
 30
0.0
 11
-100.675412251
 21
-5.5759874026
 31
0.0
  0
LINE
  5
104
330
1B
100
AcDbEntity
 67
     1
  8
0
  6
Continuous
 62
     7
370
    25
100
AcDbLine
 10
-102.8905939703
 20
-3.1415209567
 30
0.0
 11
-98.6144879273
 21
-0.3927600689
 31
0.0
  0
LINE
  5
105
330
1B
100
AcDbEntity
 67
     1
  8
0
  6
Continuous
 62
     7
370
    25
100
AcDbLine
 10
-98.8800658182
 20
0.0154722868
 30
0.0
 11
-103.0901862185
 21
-2.7641886554
 31
0.0
  0
LINE
  5
106
330
1B
100
AcDbEntity
 67
     1
  8
0
  6
Continuous
 62
     7
370
    25
100
AcDbLine
 10
-103.954434968
 20
0.6230568934
 30
0.0
 11
-99.0609701266
 21
0.5347426762
 31
0.0
  0
LINE
  5
107
330
1B
100
AcDbEntity
 67
     1
  8
0
  6
Continuous
 62
     7
370
    25
100
AcDbLine
 10
-99.1141975315
 20
1.0416137337
 30
0.0
 11
-103.963897246
 21
1.0650708902
 31
0.0
  0
LINE
  5
108
330
1B
100
AcDbEntity
 67
     1
  8
0
  6
Continuous
 62
     7
370
    25
100
AcDbLine
 10
-103.2456382712
 20
4.4974858325
 30
0.0
 11
-99.0460145839
 21
1.5957602334
 31
0.0
  0
LINE
  5
109
330
1B
100
AcDbEntity
 67
     1
  8
0
  6
Continuous
 62
     7
370
    25
100
AcDbLine
 10
-98.8726292626
 20
2.0654543022
 30
0.0
 11
-103.0624351694
 21
4.8857442314
 31
0.0
  0
LINE
  5
10A
330
1B
100
AcDbEntity
 67
     1
  8
0
  6
Continuous
 62
     7
370
    25
100
AcDbLine
 10
-100.9541253825
 20
7.4436157553
 30
0.0
 11
-98.5736286248
 21
2.5059938053
 31
0.0
  0
LINE
  5
10B
330
1B
100
AcDbEntity
 67
     1
  8
0
  6
Continuous
 62
     7
370
    25
100
AcDbLine
 10
-98.2200890341
 20
2.8126567389
 30
0.0
 11
-100.6273460239
 21
7.6740850318
 31
0.0
  0
LINE
  5
10C
330
1B
100
AcDbEntity
 67
     1
  8
0
  6
Continuous
 62
     7
370
    25
100
AcDbLine
 10
-97.6939053298
 20
8.6720335281
 30
0.0
 11
-97.7703876855
 21
3.0215470412
 31
0.0
  0
LINE
  5
10D
330
1B
100
AcDbEntity
 67
     1
  8
0
  6
Continuous
 62
     7
370
    25
100
AcDbLine
 10
-97.3314244732
 20
3.0830087543
 30
0.0
 11
-97.3111099797
 21
8.6829596257
 31
0.0
  0
LINE
  5
10E
330
1B
100
AcDbEntity
 67
     1
  8
0
  6
Continuous
 62
     7
370
    25
100
AcDbLine
 10
-94.3385514434
 20
7.8535856008
 30
0.0
 11
-96.851519527
 21
3.004277868
 31
0.0
  0
LINE
  5
10F
330
1B
100
AcDbEntity
 67
     1
  8
0
  6
Continuous
 62
     7
370
    25
100
AcDbLine
 10
-96.4447525314
 20
2.8040697441
 30
0.0
 11
-94.0023098067
 21
7.6420408804
 31
0.0
  0
LINE
  5
110
330
1B
100
AcDbEntity
 67
     1
  8
0
  6
Continuous
 62
     7
370
    25
100
AcDbLine
 10
-91.7871280874
 20
5.2075744344
 30
0.0
 11
-96.0632341304
 21
2.4588135467
 31
0.0
  0
LINE
  5
111
330
1B
100
AcDbEntity
 67
     1
  8
0
  6
Continuous
 62
     7
370
    25
100
AcDbLine
 10
-95.7976562395
 20
2.0505811909
 30
0.0
 11
-91.5875358392
 21
4.8302421332
 31
0.0
  0
LINE
  5
112
330
1B
100
AcDbEntity
 67
     1
  8
0
  6
Continuous
 62
     7
370
    25
100
AcDbLine
 10
-90.7232870897
 20
1.4429965843
 30
0.0
 11
-95.6167519311
 21
1.5313108016
 31
0.0
  0
LINE
  5
113
330
1B
100
AcDbEntity
 67
     1
  8
0
  6
Continuous
 62
     7
370
    25
100
AcDbLine
 10
-92.1167519311
 20
1.5313108016
 30
0.0
 11
-95.6167519311
 21
1.5313108016
 31
0.0
  0
LINE
  5
114
330
1B
100
AcDbEntity
 67
     1
  8
0
  6
Continuous
 62
     7
370
    25
100
AcDbLine
 10
-90.7264528877
 20
1.5062195471
 30
0.0
 11
-92.1167519311
 21
1.5313108016
 31
0.0
  0
LINE
  5
115
330
1B
100
AcDbEntity
 67
     1
  8
0
  6
Continuous
 62
     7
370
    25
100
AcDbLine
 10
-92.1317074738
 20
0.4702932443
 30
0.0
 11
-95.6317074738
 21
0.4702932443
 31
0.0
  0
LINE
  5
116
330
1B
100
AcDbEntity
 67
     1
  8
0
  6
Continuous
 62
     7
370
    25
100
AcDbLine
 10
-90.8352872354
 20
-0.4254669649
 30
0.0
 11
-92.1317074738
 21
0.4702932443
 31
0.0
  0
LINE
  5
117
330
1B
100
AcDbEntity
 67
     1
  8
0
  6
Continuous
 62
     7
370
    25
100
AcDbLine
 10
-92.2976562395
 20
2.0505811909
 30
0.0
 11
-90.9264644371
 21
2.9558874376
 31
0.0
  0
LINE
  5
118
330
1B
100
AcDbEntity
 67
     1
  8
0
  6
Continuous
 62
     7
370
    25
100
AcDbLine
 10
-92.2976562395
 20
2.0505811909
 30
0.0
 11
-95.7976562395
 21
2.0505811909
 31
0.0
  0
LINE
  5
119
330
1B
100
AcDbEntity
 67
     1
  8
0
  6
Continuous
 62
     7
370
    25
100
AcDbLine
 10
-95.1506299354
 20
-0.4399403275
 30
0.0
 11
-96.1040934329
 21
-0.4399403275
 31
0.0
  0
LINE
  5
11A
330
1B
100
AcDbEntity
 67
     1
  8
0
  6
Continuous
 62
     7
370
    25
100
AcDbLine
 10
-95.5261368081
 20
2.8040697441
 30
0.0
 11
-96.4447525314
 21
2.8040697441
 31
0.0
  0
LINE
  5
11B
330
1B
100
AcDbEntity
 67
     1
  8
0
  6
Continuous
 62
     7
370
    25
100
AcDbLine
 10
-96.3541958011
 20
-0.9554935635
 30
0.0
 11
-96.9073343722
 21
-0.9554935635
 31
0.0
  0
LINE
  5
11C
330
1B
100
AcDbEntity
 67
     1
  8
0
  6
Continuous
 62
     7
370
    25
100
AcDbLine
 10
-96.8107202593
 20
3.0830087543
 30
0.0
 11
-97.3314244732
 21
3.0830087543
 31
0.0
  0
LINE
  5
11D
330
1B
100
AcDbEntity
 67
     1
  8
0
  6
Continuous
 62
     7
370
    25
100
AcDbLine
 10
-97.3636034242
 20
-5.787532123
 30
0.0
 11
-100.3391706143
 21
-5.787532123
 31
0.0
  0
LINE
  5
11E
330
1B
100
AcDbEntity
 67
     1
  8
0
  6
Continuous
 62
     7
370
    25
100
AcDbLine
 10
-97.7074130962
 20
7.6740850318
 30
0.0
 11
-100.6273460239
 21
7.6740850318
 31
0.0
  0
LINE
  5
11F
330
1B
100
AcDbEntity
 67
     1
  8
0
  6
Continuous
 62
     7
370
    25
100
AcDbLine
 10
-99.4463753899
 20
-3.1415209567
 30
0.0
 11
-102.8905939703
 21
-3.1415209567
 31
0.0
  0
LINE
  5
120
330
1B
100
AcDbEntity
 67
     1
  8
0
  6
Continuous
 62
     7
370
    25
100
AcDbLine
 10
-99.7209396646
 20
4.8857442314
 30
0.0
 11
-103.0624351694
 21
4.8857442314
 31
0.0
  0
LINE
  5
121
330
1B
100
AcDbEntity
 67
     1
  8
0
  6
Continuous
 62
     7
370
    25
100
AcDbLine
 10
-100.463897246
 20
1.0650708902
 30
0.0
 11
-103.963897246
 21
1.0650708902
 31
0.0
  0
LINE
  5
122
330
1B
100
AcDbEntity
 67
     1
  8
0
  6
Continuous
 62
     7
370
    25
100
AcDbLine
 10
-99.1140755869
 20
1.0585420369
 30
0.0
 11
-100.463897246
 21
1.0650708902
 31
0.0
  0
ARC
  5
123
330
1B
100
AcDbEntity
 67
     1
  8
0
  6
Continuous
 62
     7
370
    25
100
AcDbCircle
 10
-99.808565293
 20
1.0329897323
 30
0.0
 40
10.00425534706926
100
AcDbArc
 50
348.192205474
 51
4.8309341975
  0
ARC
  5
124
330
1B
100
AcDbEntity
 67
     1
  8
0
  6
Continuous
 62
     7
370
    25
100
AcDbCircle
 10
-99.544665537
 20
1.0330473722
 30
0.0
 40
8.830898938762067
100
AcDbArc
 50
359.7919599257
 51
2.6607488452
  0
ARC
  5
125
330
1B
100
AcDbEntity
 67
     1
  8
0
  6
Continuous
 62
     7
370
    25
100
AcDbCircle
 10
-97.9099863838
 20
1.031883727
 30
0.0
 40
2.346473665361253
100
AcDbArc
 50
346.1527753565
 51
359.8182338349
  0
ARC
  5
126
330
1B
100
AcDbEntity
 67
     1
  8
0
  6
Continuous
 62
     7
370
    25
100
AcDbCircle
 10
-98.8337162614
 20
0.8237401066
 30
0.0
 40
8.085809238918504
100
AcDbArc
 50
333.2180902409
 51
336.2605315785
  0
ARC
  5
127
330
1B
100
AcDbEntity
 67
     1
  8
0
  6
Continuous
 62
     7
370
    25
100
AcDbCircle
 10
-97.6251465256
 20
0.9141585859
 30
0.0
 40
2.036464185346333
100
AcDbArc
 50
318.3233164559
 51
333.3460535335
  0
ARC
  5
128
330
1B
100
AcDbEntity
 67
     1
  8
0
  6
Continuous
 62
     7
370
    25
100
AcDbCircle
 10
-97.6513937079
 20
-0.1552931961
 30
0.0
 40
6.534499513310077
100
AcDbArc
 50
303.4409866254
 51
306.9477257413
  0
ARC
  5
129
330
1B
100
AcDbEntity
 67
     1
  8
0
  6
Continuous
 62
     7
370
    25
100
AcDbCircle
 10
-97.3687144125
 20
0.6262766449
 30
0.0
 40
1.647685811570694
100
AcDbArc
 50
286.261219409
 51
303.5693611719
  0
ARC
  5
12A
330
1B
100
AcDbEntity
 67
     1
  8
0
  6
Continuous
 62
     7
370
    25
100
AcDbCircle
 10
-97.3388848542
 20
-0.8772560009
 30
0.0
 40
5.73971711923197
100
AcDbArc
 50
269.723216485
 51
273.5466735711
  0
ARC
  5
12B
330
1B
100
AcDbEntity
 67
     1
  8
0
  6
Continuous
 62
     7
370
    25
100
AcDbCircle
 10
-97.3375411924
 20
0.5384176727
 30
0.0
 40
1.555397597299965
100
AcDbArc
 50
251.6892047508
 51
269.6774413426
  0
ARC
  5
12C
330
1B
100
AcDbEntity
 67
     1
  8
0
  6
Continuous
 62
     7
370
    25
100
AcDbCircle
 10
-97.0971976418
 20
-0.2615558674
 30
0.0
 40
6.406777843152127
100
AcDbArc
 50
236.0475592697
 51
239.6007562295
  0
ARC
  5
12D
330
1B
100
AcDbEntity
 67
     1
  8
0
  6
Continuous
 62
     7
370
    25
100
AcDbCircle
 10
-97.2016039086
 20
0.785096226
 30
0.0
 40
1.839452826661039
100
AcDbArc
 50
219.8164095315
 51
235.8963649297
  0
ARC
  5
12E
330
1B
100
AcDbEntity
 67
     1
  8
0
  6
Continuous
 62
     7
370
    25
100
AcDbCircle
 10
-95.9667073601
 20
0.7623654994
 30
0.0
 40
7.948618449304706
100
AcDbArc
 50
206.3382015588
 51
209.415554515
  0
ARC
  5
12F
330
1B
100
AcDbEntity
 67
     1
  8
0
  6
Continuous
 62
     7
370
    25
100
AcDbCircle
 10
-96.8691864763
 20
1.0071729503
 30
0.0
 40
2.24212085612774
100
AcDbArc
 50
192.163780005
 51
206.25102479
  0
ARC
  5
130
330
1B
100
AcDbEntity
 67
     1
  8
0
  6
Continuous
 62
     7
370
    25
100
AcDbCircle
 10
-95.13305652
 20
1.0330061055
 30
0.0
 40
8.830898939485728
100
AcDbArc
 50
179.7919599257
 51
182.6607488453
  0
ARC
  5
131
330
1B
100
AcDbEntity
 67
     1
  8
0
  6
Continuous
 62
     7
370
    25
100
AcDbCircle
 10
-96.7677356739
 20
1.0341697508
 30
0.0
 40
2.346473665332727
100
AcDbArc
 50
166.1527753564
 51
179.818233835
  0
ARC
  5
132
330
1B
100
AcDbEntity
 67
     1
  8
0
  6
Continuous
 62
     7
370
    25
100
AcDbCircle
 10
-95.844005796
 20
1.242313371
 30
0.0
 40
8.085809239230729
100
AcDbArc
 50
153.218090241
 51
156.2605315784
  0
ARC
  5
133
330
1B
100
AcDbEntity
 67
     1
  8
0
  6
Continuous
 62
     7
370
    25
100
AcDbCircle
 10
-97.0525755321
 20
1.1518948918
 30
0.0
 40
2.036464185333929
100
AcDbArc
 50
138.3233164559
 51
153.3460535335
  0
ARC
  5
134
330
1B
100
AcDbEntity
 67
     1
  8
0
  6
Continuous
 62
     7
370
    25
100
AcDbCircle
 10
-97.0263283499
 20
2.2213466739
 30
0.0
 40
6.534499513176206
100
AcDbArc
 50
123.4409866254
 51
126.9477257413
  0
ARC
  5
135
330
1B
100
AcDbEntity
 67
     1
  8
0
  6
Continuous
 62
     7
370
    25
100
AcDbCircle
 10
-97.3090076452
 20
1.4397768329
 30
0.0
 40
1.647685811555941
100
AcDbArc
 50
106.2612194089
 51
123.569361172
  0
ARC
  5
136
330
1B
100
AcDbEntity
 67
     1
  8
0
  6
Continuous
 62
     7
370
    25
100
AcDbCircle
 10
-97.3388372035
 20
2.9433094787
 30
0.0
 40
5.739717119184818
100
AcDbArc
 50
89.723216485
 51
93.5466735711
  0
ARC
  5
137
330
1B
100
AcDbEntity
 67
     1
  8
0
  6
Continuous
 62
     7
370
    25
100
AcDbCircle
 10
-97.3401808653
 20
1.527635805
 30
0.0
 40
1.555397597295637
100
AcDbArc
 50
71.6892047507
 51
89.6774413428
  0
ARC
  5
138
330
1B
100
AcDbEntity
 67
     1
  8
0
  6
Continuous
 62
     7
370
    25
100
AcDbCircle
 10
-97.5805244159
 20
2.327609345
 30
0.0
 40
6.406777843326354
100
AcDbArc
 50
56.0475592697
 51
59.6007562293
  0
ARC
  5
139
330
1B
100
AcDbEntity
 67
     1
  8
0
  6
Continuous
 62
     7
370
    25
100
AcDbCircle
 10
-97.476118149
 20
1.2809572518
 30
0.0
 40
1.839452826659024
100
AcDbArc
 50
39.8164095315
 51
55.8963649299
  0
ARC
  5
13A
330
1B
100
AcDbEntity
 67
     1
  8
0
  6
Continuous
 62
     7
370
    25
100
AcDbCircle
 10
-98.7110146975
 20
1.3036879784
 30
0.0
 40
7.948618449258893
100
AcDbArc
 50
26.3382015588
 51
29.4155545148
  0
ARC
  5
13B
330
1B
100
AcDbEntity
 67
     1
  8
0
  6
Continuous
 62
     7
370
    25
100
AcDbCircle
 10
-97.8085355813
 20
1.0588805275
 30
0.0
 40
2.242120856131873
100
AcDbArc
 50
12.163780005
 51
26.2510247903
  0
ARC
  5
13C
330
1B
100
AcDbEntity
 67
     1
  8
0
  6
Continuous
 62
     7
370
    25
100
AcDbCircle
 10
-94.4099863838
 20
1.031883727
 30
0.0
 40
2.346473665361082
100
AcDbArc
 50
346.1527753565
 51
359.8182338349
  0
ARC
  5
13D
330
1B
100
AcDbEntity
 67
     1
  8
0
  6
Continuous
 62
     7
370
    25
100
AcDbCircle
 10
-94.3085355813
 20
1.0588805275
 30
0.0
 40
2.242120856129886
100
AcDbArc
 50
12.163780005
 51
26.2510247903
  0
VIEWPORT
  5
36B
330
1B
100
AcDbEntity
 67
     1
  8
0
100
AcDbViewport
 10
0.0
 20
0.0
 30
0.0
 40
205.6
 41
156.0
 68
     1
 69
     1
 12
40.8122932966
 22
0.0
 13
0.0
 23
0.0
 14
10.0
 24
10.0
 15
10.0
 25
10.0
 16
0.0
 26
0.0
 36
1.0
 17
0.0
 27
0.0
 37
0.0
 42
50.0
 43
0.0
 44
0.0
 45
103.4160711027
 50
0.0
 51
0.0
 72
   100
 90
   557152
  1

281
     0
 71
     1
 74
     0
110
0.0
120
0.0
130
0.0
111
1.0
121
0.0
131
0.0
112
0.0
122
1.0
132
0.0
 79
     0
146
0.0
  0
ENDSEC
  0
SECTION
  2
OBJECTS
  0
DICTIONARY
  5
C
330
0
100
AcDbDictionary
281
     1
  3
ACAD_GROUP
350
D
  3
ACAD_LAYOUT
350
1A
  3
ACAD_MLINESTYLE
350
17
  3
ACAD_PLOTSETTINGS
350
19
  3
ACAD_PLOTSTYLENAME
350
E
  3
ACAD_SCALELIST
350
47
  0
DICTIONARY
  5
D
102
{ACAD_REACTORS
330
C
102
}
330
C
100
AcDbDictionary
281
     1
  0
DICTIONARY
  5
1A
102
{ACAD_REACTORS
330
C
102
}
330
C
100
AcDbDictionary
281
     1
  3
_Back
350
1E
  3
_Bottom
350
26A
  3
_Dimetric
350
32A
  3
_Isometric
350
2AF
  3
_Left
350
26
  3
_Right
350
164
  3
_Top
350
225
  3
_Trimetric
350
2EC
  3
Model
350
22
  0
DICTIONARY
  5
17
102
{ACAD_REACTORS
330
C
102
}
330
C
100
AcDbDictionary
281
     1
  3
Standard
350
18
  0
DICTIONARY
  5
19
102
{ACAD_REACTORS
330
C
102
}
330
C
100
AcDbDictionary
281
     1
  0
ACDBDICTIONARYWDFLT
  5
E
102
{ACAD_REACTORS
330
C
102
}
330
C
100
AcDbDictionary
281
     1
  3
Normal
350
F
100
AcDbDictionaryWithDefault
340
F
  0
DICTIONARY
  5
47
102
{ACAD_REACTORS
330
C
102
}
330
C
100
AcDbDictionary
281
     1
  3
A0
350
48
  3
A1
350
49
  3
A2
350
4A
  3
A3
350
4B
  3
A4
350
4C
  3
A5
350
4D
  3
A6
350
4E
  3
A7
350
4F
  3
A8
350
50
  3
A9
350
51
  3
B0
350
52
  3
B1
350
53
  3
B2
350
54
  3
B3
350
55
  3
B4
350
56
  3
B5
350
57
  3
B6
350
58
  3
B7
350
59
  3
B8
350
5A
  3
B9
350
5B
  3
C0
350
5C
  3
C1
350
5D
  3
C2
350
5E
  3
C3
350
5F
  3
C4
350
60
  3
C5
350
61
  3
C6
350
62
  3
C7
350
63
  3
C8
350
64
  3
C9
350
65
  3
D0
350
66
  3
D1
350
67
  3
D2
350
68
  0
LAYOUT
  5
1E
102
{ACAD_REACTORS
330
1A
102
}
330
1A
100
AcDbPlotSettings
  1

  2
none_device
  4
ISO_A4_(210.00_x_297.00_MM)
  6

 40
7.5
 41
20.0
 42
7.5
 43
20.0
 44
210.0
 45
297.0
 46
0.0
 47
0.0
 48
0.0
 49
0.0
140
0.0
141
0.0
142
1.0
143
0.519937085
 70
   688
 72
     1
 73
     1
 74
     1
  7

 75
     0
147
1.923309625
148
107.6238308473
149
26.0
100
AcDbLayout
  1
_Back
 70
     1
 71
     1
 10
-118.0225725475
 20
-29.8995281376
 11
36.3987417002
 21
79.2872597143
 12
0.0
 22
0.0
 32
0.0
 14
-107.6238308473
 24
-26.0
 34
0.0
 15
26.0
 25
26.0
 35
0.0
146
0.0
 13
0.0
 23
0.0
 33
0.0
 16
1.0
 26
0.0
 36
0.0
 17
0.0
 27
1.0
 37
0.0
 76
     0
330
1B
331
36B
  0
LAYOUT
  5
26A
102
{ACAD_REACTORS
330
1A
102
}
330
1A
100
AcDbPlotSettings
  1

  2
none_device
  4
ISO_A4_(210.00_x_297.00_MM)
  6

 40
7.5
 41
20.0
 42
7.5
 43
20.0
 44
210.0
 45
297.0
 46
0.0
 47
0.0
 48
0.0
 49
0.0
140
0.0
141
0.0
142
1.0
143
0.519937085
 70
   688
 72
     1
 73
     1
 74
     1
  7

 75
     0
147
1.923309625
148
107.6238308473
149
26.0
100
AcDbLayout
  1
_Bottom
 70
     1
 71
     5
 10
0.0
 20
0.0
 11
0.0
 21
0.0
 12
0.0
 22
0.0
 32
0.0
 14
0.0
 24
0.0
 34
0.0
 15
0.0
 25
0.0
 35
0.0
146
0.0
 13
0.0
 23
0.0
 33
0.0
 16
1.0
 26
0.0
 36
0.0
 17
0.0
 27
1.0
 37
0.0
 76
     0
330
269
331
373
  0
LAYOUT
  5
32A
102
{ACAD_REACTORS
330
1A
102
}
330
1A
100
AcDbPlotSettings
  1

  2
none_device
  4
ISO_A4_(210.00_x_297.00_MM)
  6

 40
7.5
 41
20.0
 42
7.5
 43
20.0
 44
210.0
 45
297.0
 46
0.0
 47
0.0
 48
0.0
 49
0.0
140
0.0
141
0.0
142
1.0
143
0.519937085
 70
   688
 72
     1
 73
     1
 74
     1
  7

 75
     0
147
1.923309625
148
107.6238308473
149
26.0
100
AcDbLayout
  1
_Dimetric
 70
     1
 71
     8
 10
0.0
 20
0.0
 11
0.0
 21
0.0
 12
0.0
 22
0.0
 32
0.0
 14
0.0
 24
0.0
 34
0.0
 15
0.0
 25
0.0
 35
0.0
146
0.0
 13
0.0
 23
0.0
 33
0.0
 16
1.0
 26
0.0
 36
0.0
 17
0.0
 27
1.0
 37
0.0
 76
     0
330
329
331
379
  0
LAYOUT
  5
2AF
102
{ACAD_REACTORS
330
1A
102
}
330
1A
100
AcDbPlotSettings
  1

  2
none_device
  4
ISO_A4_(210.00_x_297.00_MM)
  6

 40
7.5
 41
20.0
 42
7.5
 43
20.0
 44
210.0
 45
297.0
 46
0.0
 47
0.0
 48
0.0
 49
0.0
140
0.0
141
0.0
142
1.0
143
0.519937085
 70
   688
 72
     1
 73
     1
 74
     1
  7

 75
     0
147
1.923309625
148
107.6238308473
149
26.0
100
AcDbLayout
  1
_Isometric
 70
     1
 71
     6
 10
0.0
 20
0.0
 11
0.0
 21
0.0
 12
0.0
 22
0.0
 32
0.0
 14
0.0
 24
0.0
 34
0.0
 15
0.0
 25
0.0
 35
0.0
146
0.0
 13
0.0
 23
0.0
 33
0.0
 16
1.0
 26
0.0
 36
0.0
 17
0.0
 27
1.0
 37
0.0
 76
     0
330
2AE
331
375
  0
LAYOUT
  5
26
102
{ACAD_REACTORS
330
1A
102
}
330
1A
100
AcDbPlotSettings
  1

  2
none_device
  4
ISO_A4_(210.00_x_297.00_MM)
  6

 40
7.5
 41
20.0
 42
7.5
 43
20.0
 44
210.0
 45
297.0
 46
0.0
 47
0.0
 48
0.0
 49
0.0
140
0.0
141
0.0
142
1.0
143
0.519937085
 70
   688
 72
     1
 73
     1
 74
     1
  7

 75
     0
147
1.923309625
148
107.6238308473
149
26.0
100
AcDbLayout
  1
_Left
 70
     1
 71
     2
 10
0.0
 20
0.0
 11
0.0
 21
0.0
 12
0.0
 22
0.0
 32
0.0
 14
0.0
 24
0.0
 34
0.0
 15
0.0
 25
0.0
 35
0.0
146
0.0
 13
0.0
 23
0.0
 33
0.0
 16
1.0
 26
0.0
 36
0.0
 17
0.0
 27
1.0
 37
0.0
 76
     0
330
23
331
36D
  0
LAYOUT
  5
164
102
{ACAD_REACTORS
330
1A
102
}
330
1A
100
AcDbPlotSettings
  1

  2
none_device
  4
ISO_A4_(210.00_x_297.00_MM)
  6

 40
7.5
 41
20.0
 42
7.5
 43
20.0
 44
210.0
 45
297.0
 46
0.0
 47
0.0
 48
0.0
 49
0.0
140
0.0
141
0.0
142
1.0
143
0.519937085
 70
   688
 72
     1
 73
     1
 74
     1
  7

 75
     0
147
1.923309625
148
107.6238308473
149
26.0
100
AcDbLayout
  1
_Right
 70
     1
 71
     3
 10
0.0
 20
0.0
 11
0.0
 21
0.0
 12
0.0
 22
0.0
 32
0.0
 14
0.0
 24
0.0
 34
0.0
 15
0.0
 25
0.0
 35
0.0
146
0.0
 13
0.0
 23
0.0
 33
0.0
 16
1.0
 26
0.0
 36
0.0
 17
0.0
 27
1.0
 37
0.0
 76
     0
330
163
331
36F
  0
LAYOUT
  5
225
102
{ACAD_REACTORS
330
1A
102
}
330
1A
100
AcDbPlotSettings
  1

  2
none_device
  4
ISO_A4_(210.00_x_297.00_MM)
  6

 40
7.5
 41
20.0
 42
7.5
 43
20.0
 44
210.0
 45
297.0
 46
0.0
 47
0.0
 48
0.0
 49
0.0
140
0.0
141
0.0
142
1.0
143
0.519937085
 70
   688
 72
     1
 73
     1
 74
     1
  7

 75
     0
147
1.923309625
148
107.6238308473
149
26.0
100
AcDbLayout
  1
_Top
 70
     1
 71
     4
 10
0.0
 20
0.0
 11
0.0
 21
0.0
 12
0.0
 22
0.0
 32
0.0
 14
0.0
 24
0.0
 34
0.0
 15
0.0
 25
0.0
 35
0.0
146
0.0
 13
0.0
 23
0.0
 33
0.0
 16
1.0
 26
0.0
 36
0.0
 17
0.0
 27
1.0
 37
0.0
 76
     0
330
224
331
371
  0
LAYOUT
  5
2EC
102
{ACAD_REACTORS
330
1A
102
}
330
1A
100
AcDbPlotSettings
  1

  2
none_device
  4
ISO_A4_(210.00_x_297.00_MM)
  6

 40
7.5
 41
20.0
 42
7.5
 43
20.0
 44
210.0
 45
297.0
 46
0.0
 47
0.0
 48
0.0
 49
0.0
140
0.0
141
0.0
142
1.0
143
0.519937085
 70
   688
 72
     1
 73
     1
 74
     1
  7

 75
     0
147
1.923309625
148
107.6238308473
149
26.0
100
AcDbLayout
  1
_Trimetric
 70
     1
 71
     7
 10
0.0
 20
0.0
 11
0.0
 21
0.0
 12
0.0
 22
0.0
 32
0.0
 14
0.0
 24
0.0
 34
0.0
 15
0.0
 25
0.0
 35
0.0
146
0.0
 13
0.0
 23
0.0
 33
0.0
 16
1.0
 26
0.0
 36
0.0
 17
0.0
 27
1.0
 37
0.0
 76
     0
330
2EB
331
377
  0
LAYOUT
  5
22
102
{ACAD_REACTORS
330
1A
102
}
330
1A
100
AcDbPlotSettings
  1

  2
none_device
  4
ANSI_A_(11.00_x_8.50_Inches)
  6

 40
6.35
 41
19.05
 42
6.35000508
 43
19.05000254
 44
279.4
 45
215.9
 46
48.8676017616
 47
88.89999873
 48
0.0
 49
0.0
140
0.0
141
0.0
142
0.081496978
143
1.0
 70
  1696
 72
     0
 73
     0
 74
     0
  7

 75
     0
147
0.0179189148
148
-1300.4909072572
149
0.0
100
AcDbLayout
  1
Model
 70
     1
 71
     0
 10
0.0
 20
0.0
 11
420.0
 21
297.0
 12
0.0
 22
0.0
 32
0.0
 14
-26.0
 24
-26.0
 34
0.0
 15
107.6245865932
 25
26.0
 35
0.0
146
0.0
 13
0.0
 23
0.0
 33
0.0
 16
1.0
 26
0.0
 36
0.0
 17
0.0
 27
1.0
 37
0.0
 76
     0
330
1F
331
29
  0
MLINESTYLE
  5
18
102
{ACAD_REACTORS
330
17
102
}
330
17
100
AcDbMlineStyle
  2
Standard
 70
     0
  3

 62
   256
 51
90.0
 52
90.0
 71
     2
 49
0.5
 62
   256
  6
BYLAYER
 49
-0.5
 62
   256
  6
BYLAYER
  0
ACDBPLACEHOLDER
  5
F
102
{ACAD_REACTORS
330
E
102
}
330
E
  0
SCALE
  5
48
102
{ACAD_REACTORS
330
47
102
}
330
47
100
AcDbScale
 70
     0
300
1:1
140
1.0
141
1.0
290
     1
  0
SCALE
  5
49
102
{ACAD_REACTORS
330
47
102
}
330
47
100
AcDbScale
 70
     0
300
1:2
140
1.0
141
2.0
290
     0
  0
SCALE
  5
4A
102
{ACAD_REACTORS
330
47
102
}
330
47
100
AcDbScale
 70
     0
300
1:4
140
1.0
141
4.0
290
     0
  0
SCALE
  5
4B
102
{ACAD_REACTORS
330
47
102
}
330
47
100
AcDbScale
 70
     0
300
1:5
140
1.0
141
5.0
290
     0
  0
SCALE
  5
4C
102
{ACAD_REACTORS
330
47
102
}
330
47
100
AcDbScale
 70
     0
300
1:8
140
1.0
141
8.0
290
     0
  0
SCALE
  5
4D
102
{ACAD_REACTORS
330
47
102
}
330
47
100
AcDbScale
 70
     0
300
1:10
140
1.0
141
10.0
290
     0
  0
SCALE
  5
4E
102
{ACAD_REACTORS
330
47
102
}
330
47
100
AcDbScale
 70
     0
300
1:16
140
1.0
141
16.0
290
     0
  0
SCALE
  5
4F
102
{ACAD_REACTORS
330
47
102
}
330
47
100
AcDbScale
 70
     0
300
1:20
140
1.0
141
20.0
290
     0
  0
SCALE
  5
50
102
{ACAD_REACTORS
330
47
102
}
330
47
100
AcDbScale
 70
     0
300
1:30
140
1.0
141
30.0
290
     0
  0
SCALE
  5
51
102
{ACAD_REACTORS
330
47
102
}
330
47
100
AcDbScale
 70
     0
300
1:40
140
1.0
141
40.0
290
     0
  0
SCALE
  5
52
102
{ACAD_REACTORS
330
47
102
}
330
47
100
AcDbScale
 70
     0
300
1:50
140
1.0
141
50.0
290
     0
  0
SCALE
  5
53
102
{ACAD_REACTORS
330
47
102
}
330
47
100
AcDbScale
 70
     0
300
1:100
140
1.0
141
100.0
290
     0
  0
SCALE
  5
54
102
{ACAD_REACTORS
330
47
102
}
330
47
100
AcDbScale
 70
     0
300
2:1
140
2.0
141
1.0
290
     0
  0
SCALE
  5
55
102
{ACAD_REACTORS
330
47
102
}
330
47
100
AcDbScale
 70
     0
300
4:1
140
4.0
141
1.0
290
     0
  0
SCALE
  5
56
102
{ACAD_REACTORS
330
47
102
}
330
47
100
AcDbScale
 70
     0
300
8:1
140
8.0
141
1.0
290
     0
  0
SCALE
  5
57
102
{ACAD_REACTORS
330
47
102
}
330
47
100
AcDbScale
 70
     0
300
10:1
140
10.0
141
1.0
290
     0
  0
SCALE
  5
58
102
{ACAD_REACTORS
330
47
102
}
330
47
100
AcDbScale
 70
     0
300
100:1
140
100.0
141
1.0
290
     0
  0
SCALE
  5
59
102
{ACAD_REACTORS
330
47
102
}
330
47
100
AcDbScale
 70
     0
300
1/128" = 1'-0"
140
0.0078125
141
12.0
290
     0
  0
SCALE
  5
5A
102
{ACAD_REACTORS
330
47
102
}
330
47
100
AcDbScale
 70
     0
300
1/64" = 1'-0"
140
0.015625
141
12.0
290
     0
  0
SCALE
  5
5B
102
{ACAD_REACTORS
330
47
102
}
330
47
100
AcDbScale
 70
     0
300
1/32" = 1'-0"
140
0.03125
141
12.0
290
     0
  0
SCALE
  5
5C
102
{ACAD_REACTORS
330
47
102
}
330
47
100
AcDbScale
 70
     0
300
1/16" = 1'-0"
140
0.0625
141
12.0
290
     0
  0
SCALE
  5
5D
102
{ACAD_REACTORS
330
47
102
}
330
47
100
AcDbScale
 70
     0
300
3/32" = 1'-0"
140
0.09375
141
12.0
290
     0
  0
SCALE
  5
5E
102
{ACAD_REACTORS
330
47
102
}
330
47
100
AcDbScale
 70
     0
300
1/8" = 1'-0"
140
0.125
141
12.0
290
     0
  0
SCALE
  5
5F
102
{ACAD_REACTORS
330
47
102
}
330
47
100
AcDbScale
 70
     0
300
3/16" = 1'-0"
140
0.1875
141
12.0
290
     0
  0
SCALE
  5
60
102
{ACAD_REACTORS
330
47
102
}
330
47
100
AcDbScale
 70
     0
300
1/4" = 1'-0"
140
0.25
141
12.0
290
     0
  0
SCALE
  5
61
102
{ACAD_REACTORS
330
47
102
}
330
47
100
AcDbScale
 70
     0
300
3/8" = 1'-0"
140
0.375
141
12.0
290
     0
  0
SCALE
  5
62
102
{ACAD_REACTORS
330
47
102
}
330
47
100
AcDbScale
 70
     0
300
1/2" = 1'-0"
140
0.5
141
12.0
290
     0
  0
SCALE
  5
63
102
{ACAD_REACTORS
330
47
102
}
330
47
100
AcDbScale
 70
     0
300
3/4" = 1'-0"
140
0.75
141
12.0
290
     0
  0
SCALE
  5
64
102
{ACAD_REACTORS
330
47
102
}
330
47
100
AcDbScale
 70
     0
300
1" = 1'-0"
140
1.0
141
12.0
290
     0
  0
SCALE
  5
65
102
{ACAD_REACTORS
330
47
102
}
330
47
100
AcDbScale
 70
     0
300
1-1/2" = 1'-0"
140
1.5
141
12.0
290
     0
  0
SCALE
  5
66
102
{ACAD_REACTORS
330
47
102
}
330
47
100
AcDbScale
 70
     0
300
3" = 1'-0"
140
3.0
141
12.0
290
     0
  0
SCALE
  5
67
102
{ACAD_REACTORS
330
47
102
}
330
47
100
AcDbScale
 70
     0
300
6" = 1'-0"
140
6.0
141
12.0
290
     0
  0
SCALE
  5
68
102
{ACAD_REACTORS
330
47
102
}
330
47
100
AcDbScale
 70
     0
300
1'-0" = 1'-0"
140
12.0
141
12.0
290
     0
  0
ENDSEC
  0
EOF
