  0
SECTION
  2
HEADER
  9
$ACADVER
  1
AC1015
  9
$ACADMAINTVER
 70
     6
  9
$DWGCODEPAGE
  3
ANSI_1252
  9
$INSBASE
 10
0.0
 20
0.0
 30
0.0
  9
$EXTMIN
 10
-15.7480314961
 20
-15.7480314961
 30
0.0
  9
$EXTMAX
 10
15.7480314961
 20
15.7480314961
 30
0.0
  9
$LIMMIN
 10
0.0
 20
0.0
  9
$LIMMAX
 10
12.0
 20
9.0
  9
$ORTHOMODE
 70
     0
  9
$REGENMODE
 70
     1
  9
$FILLMODE
 70
     1
  9
$QTEXTMODE
 70
     0
  9
$MIRRTEXT
 70
     1
  9
$LTSCALE
 40
1.0
  9
$ATTMODE
 70
     1
  9
$TEXTSIZE
 40
0.1377952756
  9
$TRACEWID
 40
0.05
  9
$TEXTSTYLE
  7
Standard
  9
$CLAYER
  8
0
  9
$CELTYPE
  6
ByLayer
  9
$CECOLOR
 62
   256
  9
$CELTSCALE
 40
1.0
  9
$DISPSILH
 70
     0
  9
$DIMSCALE
 40
1.0
  9
$DIMASZ
 40
0.13
  9
$DIMEXO
 40
0.0393700787
  9
$DIMDLI
 40
0.38
  9
$DIMRND
 40
0.0
  9
$DIMDLE
 40
0.0
  9
$DIMEXE
 40
0.0393700787
  9
$DIMTP
 40
0.0
  9
$DIMTM
 40
0.0
  9
$DIMTXT
 40
0.1377952756
  9
$DIMCEN
 40
0.09
  9
$DIMTSZ
 40
0.0
  9
$DIMTOL
 70
     0
  9
$DIMLIM
 70
     0
  9
$DIMTIH
 70
     1
  9
$DIMTOH
 70
     1
  9
$DIMSE1
 70
     0
  9
$DIMSE2
 70
     0
  9
$DIMTAD
 70
     1
  9
$DIMZIN
 70
     1
  9
$DIMBLK
  1

  9
$DIMASO
 70
     1
  9
$DIMSHO
 70
     1
  9
$DIMPOST
  1

  9
$DIMAPOST
  1

  9
$DIMALT
 70
     0
  9
$DIMALTD
 70
     2
  9
$DIMALTF
 40
25.4
  9
$DIMLFAC
 40
1.0
  9
$DIMTOFL
 70
     0
  9
$DIMTVP
 40
0.0
  9
$DIMTIX
 70
     0
  9
$DIMSOXD
 70
     0
  9
$DIMSAH
 70
     0
  9
$DIMBLK1
  1

  9
$DIMBLK2
  1

  9
$DIMSTYLE
  2
Standard
  9
$DIMCLRD
 70
     0
  9
$DIMCLRE
 70
     0
  9
$DIMCLRT
 70
     0
  9
$DIMTFAC
 40
1.0
  9
$DIMGAP
 40
0.06
  9
$DIMJUST
 70
     0
  9
$DIMSD1
 70
     0
  9
$DIMSD2
 70
     0
  9
$DIMTOLJ
 70
     1
  9
$DIMTZIN
 70
     1
  9
$DIMALTZ
 70
     0
  9
$DIMALTTZ
 70
     0
  9
$DIMUPT
 70
     0
  9
$DIMDEC
 70
     2
  9
$DIMTDEC
 70
     2
  9
$DIMALTU
 70
     2
  9
$DIMALTTD
 70
     2
  9
$DIMTXSTY
  7
Standard
  9
$DIMAUNIT
 70
     0
  9
$DIMADEC
 70
     2
  9
$DIMALTRND
 40
0.0
  9
$DIMAZIN
 70
     0
  9
$DIMDSEP
 70
    46
  9
$DIMATFIT
 70
     3
  9
$DIMFRAC
 70
     0
  9
$DIMLDRBLK
  1

  9
$DIMLUNIT
 70
     2
  9
$DIMLWD
 70
    -2
  9
$DIMLWE
 70
    -2
  9
$DIMTMOVE
 70
     0
  9
$LUNITS
 70
     2
  9
$LUPREC
 70
     2
  9
$SKETCHINC
 40
0.1
  9
$FILLETRAD
 40
0.5
  9
$AUNITS
 70
     0
  9
$AUPREC
 70
     2
  9
$MENU
  1
.
  9
$ELEVATION
 40
0.0
  9
$PELEVATION
 40
0.0
  9
$THICKNESS
 40
0.0
  9
$LIMCHECK
 70
     0
  9
$CHAMFERA
 40
0.0
  9
$CHAMFERB
 40
0.0
  9
$CHAMFERC
 40
0.0
  9
$CHAMFERD
 40
0.0
  9
$SKPOLY
 70
     0
  9
$TDCREATE
 40
2459556.53296978
  9
$TDUCREATE
 40
2459556.53296978
  9
$TDUPDATE
 40
2459556.532999572
  9
$TDUUPDATE
 40
2459556.532999572
  9
$TDINDWG
 40
0.0000000116
  9
$TDUSRTIMER
 40
0.0000000116
  9
$USRTIMER
 70
     1
  9
$ANGBASE
 50
0.0
  9
$ANGDIR
 70
     0
  9
$PDMODE
 70
     0
  9
$PDSIZE
 40
-1.0
  9
$PLINEWID
 40
0.0
  9
$SPLFRAME
 70
     0
  9
$SPLINETYPE
 70
     6
  9
$SPLINESEGS
 70
     8
  9
$HANDSEED
  5
109
  9
$SURFTAB1
 70
     6
  9
$SURFTAB2
 70
     6
  9
$SURFTYPE
 70
     6
  9
$SURFU
 70
     6
  9
$SURFV
 70
     6
  9
$UCSBASE
  2

  9
$UCSNAME
  2

  9
$UCSORG
 10
0.0
 20
0.0
 30
0.0
  9
$UCSXDIR
 10
1.0
 20
0.0
 30
0.0
  9
$UCSYDIR
 10
0.0
 20
1.0
 30
0.0
  9
$UCSORTHOREF
  2

  9
$UCSORTHOVIEW
 70
     0
  9
$UCSORGTOP
 10
0.0
 20
0.0
 30
0.0
  9
$UCSORGBOTTOM
 10
0.0
 20
0.0
 30
0.0
  9
$UCSORGLEFT
 10
0.0
 20
0.0
 30
0.0
  9
$UCSORGRIGHT
 10
0.0
 20
0.0
 30
0.0
  9
$UCSORGFRONT
 10
0.0
 20
0.0
 30
0.0
  9
$UCSORGBACK
 10
0.0
 20
0.0
 30
0.0
  9
$PUCSBASE
  2

  9
$PUCSNAME
  2

  9
$PUCSORG
 10
0.0
 20
0.0
 30
0.0
  9
$PUCSXDIR
 10
1.0
 20
0.0
 30
0.0
  9
$PUCSYDIR
 10
0.0
 20
1.0
 30
0.0
  9
$PUCSORTHOREF
  2

  9
$PUCSORTHOVIEW
 70
     0
  9
$PUCSORGTOP
 10
0.0
 20
0.0
 30
0.0
  9
$PUCSORGBOTTOM
 10
0.0
 20
0.0
 30
0.0
  9
$PUCSORGLEFT
 10
0.0
 20
0.0
 30
0.0
  9
$PUCSORGRIGHT
 10
0.0
 20
0.0
 30
0.0
  9
$PUCSORGFRONT
 10
0.0
 20
0.0
 30
0.0
  9
$PUCSORGBACK
 10
0.0
 20
0.0
 30
0.0
  9
$USERI1
 70
     0
  9
$USERI2
 70
     0
  9
$USERI3
 70
     0
  9
$USERI4
 70
     0
  9
$USERI5
 70
     0
  9
$USERR1
 40
0.0
  9
$USERR2
 40
0.0
  9
$USERR3
 40
0.0
  9
$USERR4
 40
0.0
  9
$USERR5
 40
0.0
  9
$WORLDVIEW
 70
     1
  9
$SHADEDGE
 70
     3
  9
$SHADEDIF
 70
    70
  9
$TILEMODE
 70
     1
  9
$MAXACTVP
 70
    64
  9
$PINSBASE
 10
0.0
 20
0.0
 30
0.0
  9
$PLIMCHECK
 70
     0
  9
$PEXTMIN
 10
-15.7480314961
 20
-15.7480314961
 30
0.0
  9
$PEXTMAX
 10
15.7480314961
 20
15.7480314961
 30
0.0
  9
$PLIMMIN
 10
-16.732285063
 20
-16.732283513
  9
$PLIMMAX
 10
26.5748036824
 20
16.732285063
  9
$UNITMODE
 70
     0
  9
$VISRETAIN
 70
     1
  9
$PLINEGEN
 70
     0
  9
$PSLTSCALE
 70
     1
  9
$TREEDEPTH
 70
  3020
  9
$CMLSTYLE
  2
Standard
  9
$CMLJUST
 70
     0
  9
$CMLSCALE
 40
1.0
  9
$PROXYGRAPHICS
 70
     1
  9
$MEASUREMENT
 70
     0
  9
$CELWEIGHT
370
    -1
  9
$ENDCAPS
280
     0
  9
$JOINSTYLE
280
     0
  9
$LWDISPLAY
290
     1
  9
$INSUNITS
 70
     1
  9
$HYPERLINKBASE
  1

  9
$STYLESHEET
  1

  9
$XEDIT
290
     1
  9
$CEPSNTYPE
380
     0
  9
$PSTYLEMODE
290
     1
  9
$FINGERPRINTGUID
  2
{df41a488-222a-44b9-8a7e-c804e71977e8}
  9
$VERSIONGUID
  2
{FAEB1C32-E019-11D5-929B-00C0DF256EC4}
  9
$EXTNAMES
290
     1
  9
$PSVPSCALE
 40
0.0
  9
$OLESTARTUP
290
     0
  0
ENDSEC
  0
SECTION
  2
CLASSES
  0
CLASS
  1
ACDBDICTIONARYWDFLT
  2
AcDbDictionaryWithDefault
  3
ObjectDBX Classes
 90
        0
280
     0
281
     0
  0
CLASS
  1
VISUALSTYLE
  2
AcDbVisualStyle
  3
ObjectDBX Classes
 90
     4095
280
     0
281
     0
  0
CLASS
  1
MATERIAL
  2
AcDbMaterial
  3
ObjectDBX Classes
 90
     1153
280
     0
281
     0
  0
CLASS
  1
SCALE
  2
AcDbScale
  3
ObjectDBX Classes
 90
     1153
280
     0
281
     0
  0
CLASS
  1
TABLESTYLE
  2
AcDbTableStyle
  3
ObjectDBX Classes
 90
     4095
280
     0
281
     0
  0
CLASS
  1
MLEADERSTYLE
  2
AcDbMLeaderStyle
  3
ACDB_MLEADERSTYLE_CLASS
 90
     4095
280
     0
281
     0
  0
CLASS
  1
SUN
  2
AcDbSun
  3
SCENEOE
 90
     1153
280
     0
281
     0
  0
CLASS
  1
ACDBPLACEHOLDER
  2
AcDbPlaceHolder
  3
ObjectDBX Classes
 90
        0
280
     0
281
     0
  0
CLASS
  1
LAYOUT
  2
AcDbLayout
  3
ObjectDBX Classes
 90
        0
280
     0
281
     0
  0
ENDSEC
  0
SECTION
  2
TABLES
  0
TABLE
  2
VPORT
  5
8
330
0
100
AcDbSymbolTable
 70
     1
  0
VPORT
  5
29
330
8
100
AcDbSymbolTableRecord
100
AcDbViewportTableRecord
  2
*Active
 70
     0
 10
0.0
 20
0.0
 11
1.0
 21
1.0
 12
0.0
 22
0.0
 13
0.0
 23
0.0
 14
0.5
 24
0.5
 15
0.5
 25
0.5
 16
0.0
 26
0.0
 36
1.0
 17
0.0
 27
0.0
 37
0.0
 40
32.125984252
 41
1.0
 42
50.0
 43
0.0
 44
0.0
 50
0.0
 51
0.0
 71
     0
 72
   100
 73
     1
 74
     3
 75
     0
 76
     0
 77
     0
 78
     0
281
     0
 65
     1
110
0.0
120
0.0
130
0.0
111
1.0
121
0.0
131
0.0
112
0.0
122
1.0
132
0.0
 79
     0
146
0.0
  0
ENDTAB
  0
TABLE
  2
LTYPE
  5
5
330
0
100
AcDbSymbolTable
 70
     6
  0
LTYPE
  5
14
330
5
100
AcDbSymbolTableRecord
100
AcDbLinetypeTableRecord
  2
ByBlock
 70
     0
  3

 72
    65
 73
     0
 40
0.0
  0
LTYPE
  5
15
330
5
100
AcDbSymbolTableRecord
100
AcDbLinetypeTableRecord
  2
ByLayer
 70
     0
  3

 72
    65
 73
     0
 40
0.0
  0
LTYPE
  5
16
330
5
100
AcDbSymbolTableRecord
100
AcDbLinetypeTableRecord
  2
Continuous
 70
     0
  3
Solid line
 72
    65
 73
     0
 40
0.0
  0
LTYPE
  5
6E
330
5
100
AcDbSymbolTableRecord
100
AcDbLinetypeTableRecord
  2
HIDDEN
 70
     0
  3
Hidden __ __ __ __ __ __ __ __ __ __ __ __ __ __
 72
    65
 73
     2
 40
0.075
 49
0.05
 74
     0
 49
-0.025
 74
     0
  0
LTYPE
  5
6F
330
5
100
AcDbSymbolTableRecord
100
AcDbLinetypeTableRecord
  2
PHANTOM
 70
     0
  3
Phantom ______  __  __  ______  __  __  ______
 72
    65
 73
     6
 40
0.5
 49
0.25
 74
     0
 49
-0.05
 74
     0
 49
0.05
 74
     0
 49
-0.05
 74
     0
 49
0.05
 74
     0
 49
-0.05
 74
     0
  0
LTYPE
  5
70
330
5
100
AcDbSymbolTableRecord
100
AcDbLinetypeTableRecord
  2
CENTER
 70
     0
  3
Center ____ _ ____ _ ____ _ ____ _ ____ _ ____
 72
    65
 73
     4
 40
0.4
 49
0.25
 74
     0
 49
-0.05
 74
     0
 49
0.05
 74
     0
 49
-0.05
 74
     0
  0
LTYPE
  5
71
330
5
100
AcDbSymbolTableRecord
100
AcDbLinetypeTableRecord
  2
CENTERX2
 70
     0
  3
Center (2x) ________  __  ________  __  _____
 72
    65
 73
     4
 40
0.8
 49
0.5
 74
     0
 49
-0.1
 74
     0
 49
0.1
 74
     0
 49
-0.1
 74
     0
  0
LTYPE
  5
72
330
5
100
AcDbSymbolTableRecord
100
AcDbLinetypeTableRecord
  2
DOT2
 70
     0
  3
Dot (.5x) ........................................
 72
    65
 73
     2
 40
0.025
 49
0.0
 74
     0
 49
-0.025
 74
     0
  0
ENDTAB
  0
TABLE
  2
LAYER
  5
2
330
0
100
AcDbSymbolTable
 70
     1
  0
LAYER
  5
10
330
2
100
AcDbSymbolTableRecord
100
AcDbLayerTableRecord
  2
0
 70
     0
 62
     7
  6
Continuous
370
    -3
390
F
  0
ENDTAB
  0
TABLE
  2
STYLE
  5
3
330
0
100
AcDbSymbolTable
 70
     1
  0
STYLE
  5
11
330
3
100
AcDbSymbolTableRecord
100
AcDbTextStyleTableRecord
  2
Standard
 70
     0
 40
0.0
 41
1.0
 50
0.0
 71
     0
 42
0.1377952756
  3
txt
  4

  0
ENDTAB
  0
TABLE
  2
VIEW
  5
6
330
0
100
AcDbSymbolTable
 70
     0
  0
ENDTAB
  0
TABLE
  2
UCS
  5
7
330
0
100
AcDbSymbolTable
 70
     0
  0
ENDTAB
  0
TABLE
  2
APPID
  5
9
330
0
100
AcDbSymbolTable
 70
     1
  0
APPID
  5
12
330
9
100
AcDbSymbolTableRecord
100
AcDbRegAppTableRecord
  2
ACAD
 70
     0
  0
ENDTAB
  0
TABLE
  2
DIMSTYLE
  5
A
330
0
100
AcDbSymbolTable
 70
     1
100
AcDbDimStyleTable
  0
DIMSTYLE
105
27
330
A
100
AcDbSymbolTableRecord
100
AcDbDimStyleTableRecord
  2
Standard
 70
     0
178
     0
340
11
  0
ENDTAB
  0
TABLE
  2
BLOCK_RECORD
  5
1
330
0
100
AcDbSymbolTable
 70
     2
  0
BLOCK_RECORD
  5
1F
330
1
100
AcDbSymbolTableRecord
100
AcDbBlockTableRecord
  2
*Model_Space
340
22
  0
BLOCK_RECORD
  5
1B
330
1
100
AcDbSymbolTableRecord
100
AcDbBlockTableRecord
  2
*Paper_Space
340
1E
  0
BLOCK_RECORD
  5
23
330
1
100
AcDbSymbolTableRecord
100
AcDbBlockTableRecord
  2
*Paper_Space0
340
26
  0
BLOCK_RECORD
  5
DB
330
1
100
AcDbSymbolTableRecord
100
AcDbBlockTableRecord
  2
*Paper_Space1
340
DC
  0
ENDTAB
  0
ENDSEC
  0
SECTION
  2
BLOCKS
  0
BLOCK
  5
20
330
1F
100
AcDbEntity
  8
0
100
AcDbBlockBegin
  2
*Model_Space
 70
     0
 10
0.0
 20
0.0
 30
0.0
  3
*Model_Space
  1

  0
ENDBLK
  5
21
330
1F
100
AcDbEntity
  8
0
100
AcDbBlockEnd
  0
BLOCK
  5
1C
330
1B
100
AcDbEntity
 67
     1
  8
0
100
AcDbBlockBegin
  2
*Paper_Space
 70
     0
 10
0.0
 20
0.0
 30
0.0
  3
*Paper_Space
  1

  0
ENDBLK
  5
1D
330
1B
100
AcDbEntity
 67
     1
  8
0
100
AcDbBlockEnd
  0
BLOCK
  5
24
330
23
100
AcDbEntity
  8
0
100
AcDbBlockBegin
  2
*Paper_Space0
 70
     0
 10
0.0
 20
0.0
 30
0.0
  3
*Paper_Space0
  1

  0
LINE
  5
D0
330
23
100
AcDbEntity
  8
0
  6
Continuous
 62
     7
370
    25
100
AcDbLine
 10
-1.7716535433
 20
-15.2952755906
 30
0.0
 11
-0.3937007874
 21
-15.2952755906
 31
0.0
  0
LINE
  5
D1
330
23
100
AcDbEntity
  8
0
  6
Continuous
 62
     7
370
    25
100
AcDbLine
 10
-0.3937007874
 20
15.2952755906
 30
0.0
 11
-1.7716535433
 21
15.2952755906
 31
0.0
  0
LINE
  5
D2
330
23
100
AcDbEntity
  8
0
  6
Continuous
 62
     7
370
    25
100
AcDbLine
 10
-0.3937007874
 20
-15.7480314961
 30
0.0
 11
0.1377952756
 21
-15.7480314961
 31
0.0
  0
LINE
  5
D3
330
23
100
AcDbEntity
  8
0
  6
Continuous
 62
     7
370
    25
100
AcDbLine
 10
0.1377952756
 20
15.7480314961
 30
0.0
 11
-0.3937007874
 21
15.7480314961
 31
0.0
  0
LINE
  5
D4
330
23
100
AcDbEntity
  8
0
  6
Continuous
 62
     7
370
    25
100
AcDbLine
 10
0.1377952756
 20
-15.5511811024
 30
0.0
 11
0.157480315
 21
-15.531496063
 31
0.0
  0
LINE
  5
D5
330
23
100
AcDbEntity
  8
0
  6
Continuous
 62
     7
370
    25
100
AcDbLine
 10
0.157480315
 20
15.531496063
 30
0.0
 11
0.1377952756
 21
15.5511811024
 31
0.0
  0
LINE
  5
D6
330
23
100
AcDbEntity
  8
0
  6
Continuous
 62
     7
370
    25
100
AcDbLine
 10
-1.7716535433
 20
15.2952755906
 30
0.0
 11
-1.7716535433
 21
-15.2952755906
 31
0.0
  0
LINE
  5
D7
330
23
100
AcDbEntity
  8
0
  6
Continuous
 62
     7
370
    25
100
AcDbLine
 10
-0.3937007874
 20
15.7480314961
 30
0.0
 11
-0.3937007874
 21
-15.7480314961
 31
0.0
  0
LINE
  5
D8
330
23
100
AcDbEntity
  8
0
  6
Continuous
 62
     7
370
    25
100
AcDbLine
 10
0.0
 20
15.7480314961
 30
0.0
 11
0.0
 21
-15.7480314961
 31
0.0
  0
LINE
  5
D9
330
23
100
AcDbEntity
  8
0
  6
Continuous
 62
     7
370
    25
100
AcDbLine
 10
0.1377952756
 20
15.7480314961
 30
0.0
 11
0.1377952756
 21
-15.7480314961
 31
0.0
  0
LINE
  5
DA
330
23
100
AcDbEntity
  8
0
  6
Continuous
 62
     7
370
    25
100
AcDbLine
 10
0.157480315
 20
15.531496063
 30
0.0
 11
0.157480315
 21
-15.531496063
 31
0.0
  0
VIEWPORT
  5
105
330
23
100
AcDbEntity
  8
0
100
AcDbViewport
 10
0.0
 20
0.0
 30
0.0
 40
8.4
 41
6.4
 68
     1
 69
     1
 12
0.0
 22
0.0
 13
0.0
 23
0.0
 14
0.5
 24
0.5
 15
0.5
 25
0.5
 16
0.0
 26
0.0
 36
1.0
 17
0.0
 27
0.0
 37
0.0
 42
50.0
 43
0.0
 44
0.0
 45
32.125984252
 50
0.0
 51
0.0
 72
   100
 90
   557152
  1

281
     0
 71
     1
 74
     0
110
0.0
120
0.0
130
0.0
111
1.0
121
0.0
131
0.0
112
0.0
122
1.0
132
0.0
 79
     0
146
0.0
  0
ENDBLK
  5
25
330
23
100
AcDbEntity
  8
0
100
AcDbBlockEnd
  0
BLOCK
  5
DD
330
DB
100
AcDbEntity
  8
0
100
AcDbBlockBegin
  2
*Paper_Space1
 70
     0
 10
0.0
 20
0.0
 30
0.0
  3
*Paper_Space1
  1

  0
LWPOLYLINE
  5
E9
330
DB
100
AcDbEntity
  8
0
  6
Continuous
 62
     7
370
    25
100
AcDbPolyline
 90
       75
 70
   128
 43
0.0
 10
12.0655527236
 20
-5.792137555
 10
12.0677791568
 20
-5.4179813724
 10
12.0602318177
 20
-5.0382752777
 10
12.0429175269
 20
-4.6533624193
 10
12.0158519316
 20
-4.2635906511
 10
11.9790594918
 20
-3.8693122181
 10
11.9325734574
 20
-3.4708834381
 10
11.8764358389
 20
-3.0686643795
 10
11.810697369
 20
-2.6630185363
 10
11.7354174569
 20
-2.2543124992
 10
11.6506641348
 20
-1.8429156245
 10
11.556513996
 20
-1.4291997003
 10
11.453052126
 20
-1.0135386103
 10
11.3403720254
 20
-0.5963079964
 10
11.2185755257
 20
-0.1778849186
 10
11.0877726969
 20
0.2413524852
 10
10.9480817483
 20
0.6610253413
 10
10.7996289215
 20
1.0807543825
 10
10.6425483766
 20
1.5001602908
 10
10.4769820705
 20
1.9188640402
 10
10.3030796291
 20
2.3364872392
 10
10.1209982116
 20
2.7526524729
 10
9.9309023689
 20
3.166983644
 10
9.7329638945
 20
3.5791063126
 10
9.5273616698
 20
3.9886480347
 10
9.3142815018
 20
4.3952386989
 10
9.0939159554
 20
4.7985108605
 10
8.8664641799
 20
5.1981000739
 10
8.6321317281
 20
5.5936452219
 10
8.3911303712
 20
5.984788842
 10
8.1436779072
 20
6.3711774495
 10
7.8899979643
 20
6.7524618567
 10
7.6303197982
 20
7.1282974888
 10
7.3648780858
 20
7.4983446953
 10
7.0939127122
 20
7.8622690567
 10
6.8176685546
 20
8.2197416867
 10
6.5363952607
 20
8.5704395299
 10
6.2503470232
 20
8.9140456531
 10
5.9597823498
 20
9.2502495323
 10
5.6649638301
 20
9.5787473328
 10
5.3661578978
 20
9.8992421843
 10
5.0636345901
 20
10.2114444488
 10
4.7576673037
 20
10.5150719824
 10
4.4485325477
 20
10.8098503906
 10
4.1365096938
 20
11.0955132758
 10
3.8218807236
 20
11.3718024785
 10
3.5049299741
 20
11.6384683102
 10
3.1859438802
 20
11.8952697795
 10
2.8652107164
 20
12.1419748093
 10
2.5430203362
 20
12.3783604472
 10
2.2196639098
 20
12.6042130664
 10
1.8954336613
 20
12.8193285591
 10
1.5706226043
 20
13.0235125209
 10
1.2455242775
 20
13.2165804264
 10
0.9204324791
 20
13.3983577961
 10
0.5956410015
 20
13.5686803539
 10
0.2714433657
 20
13.7273941758
 10
-0.0518674442
 20
13.8743558286
 10
-0.3739992452
 20
14.0094325001
 10
-0.6946609202
 20
14.1325021185
 10
-1.0135626802
 20
14.2434534633
 10
-1.3304163271
 20
14.3421862654
 10
-1.6449355136
 20
14.4286112978
 10
-1.9568360018
 20
14.5026504564
 10
-2.2658359209
 20
14.5642368305
 10
-2.571656021
 20
14.6133147632
 10
-2.874019926
 20
14.6498399017
 10
-3.1726543832
 20
14.6737792374
 10
-3.4672895104
 20
14.6851111358
 10
-3.7576590396
 20
14.6838253562
 10
-4.0435005577
 20
14.6699230605
 10
-4.3245557437
 20
14.6434168124
 10
-4.600570602
 20
14.6043305662
 10
-4.8712956921
 20
14.5526996451
 10
-4.9639520582
 20
14.531861125
  0
LWPOLYLINE
  5
EA
330
DB
100
AcDbEntity
  8
0
  6
Continuous
 62
     7
370
    25
100
AcDbPolyline
 90
       21
 70
   128
 43
0.0
 10
10.1018996012
 20
-11.5657871431
 10
10.2211343509
 20
-11.4345667302
 10
10.398782782
 20
-11.2226695084
 10
10.5681657481
 20
-10.9999765549
 10
10.7291301742
 20
-10.766689122
 10
10.8815305933
 20
-10.5230180366
 10
11.025229278
 20
-10.2691835094
 10
11.1600963648
 20
-10.005414936
 10
11.2860099712
 20
-9.7319506896
 10
11.4028563067
 20
-9.4490379057
 10
11.5105297747
 20
-9.1569322585
 10
11.6089330683
 20
-8.8558977301
 10
11.6979772585
 20
-8.5462063719
 10
11.7775818741
 20
-8.2281380583
 10
11.8476749747
 20
-7.9019802345
 10
11.9081932158
 20
-7.5680276562
 10
11.9590819057
 20
-7.2265821235
 10
12.0002950552
 20
-6.8779522078
 10
12.0317954192
 20
-6.5224529734
 10
12.05355453
 20
-6.1604056926
 10
12.0655527236
 20
-5.792137555
  0
LWPOLYLINE
  5
EB
330
DB
100
AcDbEntity
  8
0
  6
Continuous
 62
     7
370
    25
100
AcDbPolyline
 90
       81
 70
   128
 43
0.0
 10
11.4139283577
 20
-6.2677000711
 10
11.4090380352
 20
-5.8838246399
 10
11.3943713628
 20
-5.4946401307
 10
11.3699412227
 20
-5.1004883746
 10
11.3357690726
 20
-4.7017155658
 10
11.2918849268
 20
-4.2986719572
 10
11.2383273299
 20
-3.8917115529
 10
11.175143323
 20
-3.4811917972
 10
11.1023884023
 20
-3.0674732606
 10
11.0201264704
 20
-2.6509193233
 10
10.9284297802
 20
-2.2318958559
 10
10.8273788714
 20
-1.810770898
 10
10.7170624998
 20
-1.387914335
 10
10.5975775591
 20
-0.9636975732
 10
10.4690289961
 20
-0.5384932137
 10
10.3315297187
 20
-0.1126747249
 10
10.1852004961
 20
0.3133838853
 10
10.0301698532
 20
0.7393083981
 10
9.8665739576
 20
1.1647247126
 10
9.6945565
 20
1.5892591741
 10
9.514268568
 20
2.0125389025
 10
9.3258685133
 20
2.4341921198
 10
9.1295218127
 20
2.8538484767
 10
8.925400923
 20
3.2711393777
 10
8.7136851289
 20
3.6856983048
 10
8.4945603862
 20
4.0971611398
 10
8.2682191581
 20
4.5051664837
 10
8.034860246
 20
4.9093559746
 10
7.7946886156
 20
5.3093746018
 10
7.5479152159
 20
5.7048710181
 10
7.2947567948
 20
6.0954978485
 10
7.0354357081
 20
6.4809119948
 10
6.7701797245
 20
6.8607749374
 10
6.4992218255
 20
7.2347530324
 10
6.2228000007
 20
7.6025178047
 10
5.9411570389
 20
7.9637462367
 10
5.6545403147
 20
8.3181210516
 10
5.3632015713
 20
8.6653309925
 10
5.0673966994
 20
9.0050710956
 10
4.7673855124
 20
9.3370429579
 10
4.4634315181
 20
9.6609549996
 10
4.1558016876
 20
9.97652272
 10
3.8447662206
 20
10.2834689474
 10
3.5305983077
 20
10.5815240828
 10
3.2135738912
 20
10.8704263362
 10
2.8939714222
 20
11.149921957
 10
2.5720716161
 20
11.4197654566
 10
2.2481572062
 20
11.6797198243
 10
1.9225126953
 20
11.929556735
 10
1.5954241058
 20
12.1690567504
 10
1.2671787284
 20
12.398009511
 10
0.9380648698
 20
12.6162139214
 10
0.6083715997
 20
12.823478327
 10
0.2783884965
 20
13.0196206816
 10
-0.0515946067
 20
13.2044687083
 10
-0.3812878768
 20
13.37786005
 10
-0.7104017353
 20
13.5396424124
 10
-1.0386471128
 20
13.6896736976
 10
-1.3657357023
 20
13.8278221293
 10
-1.6913802132
 20
13.9539663678
 10
-2.015294623
 20
14.0679956173
 10
-2.3371944291
 20
14.1698097228
 10
-2.6567968981
 20
14.2593192582
 10
-2.9738213146
 20
14.336445605
 10
-3.2879892275
 20
14.4011210209
 10
-3.5990246946
 20
14.4532886998
 10
-3.906654525
 20
14.4929028214
 10
-4.2106085193
 20
14.5199285915
 10
-4.5106197063
 20
14.5343422728
 10
-4.8064245783
 20
14.5361312052
 10
-5.0977633217
 20
14.5252938175
 10
-5.3843800459
 20
14.5018396285
 10
-5.6660230076
 20
14.4657892386
 10
-5.9424448324
 20
14.4171743118
 10
-6.2134027314
 20
14.356037548
 10
-6.478658715
 20
14.2824326452
 10
-6.7379798017
 20
14.1964242526
 10
-6.9911382229
 20
14.0980879137
 10
-7.2379116225
 20
13.9875099999
 10
-7.478083253
 20
13.8647876348
 10
-7.594987351
 20
13.7992750201
  0
LWPOLYLINE
  5
EC
330
DB
100
AcDbEntity
  8
0
  6
Continuous
 62
     7
370
    25
100
AcDbPolyline
 90
       28
 70
   128
 43
0.0
 10
8.1517643441
 20
-13.4778545037
 10
8.2682191581
 20
-13.4086080924
 10
8.4945603862
 20
-13.2619307679
 10
8.7136851289
 20
-13.1034639757
 10
8.925400923
 20
-12.9333469013
 10
9.1295218127
 20
-12.7517289632
 10
9.3258685133
 20
-12.5587696814
 10
9.514268568
 20
-12.3546385371
 10
9.6945565
 20
-12.1395148243
 10
9.8665739576
 20
-11.9135874919
 10
10.0301698532
 20
-11.6770549779
 10
10.1852004961
 20
-11.4301250354
 10
10.3315297187
 20
-11.1730145495
 10
10.4690289961
 20
-10.9059493473
 10
10.5975775591
 20
-10.6291639993
 10
10.7170624998
 20
-10.3429016136
 10
10.8273788714
 20
-10.0474136223
 10
10.9284297802
 20
-9.7429595602
 10
11.0201264704
 20
-9.4298068378
 10
11.1023884023
 20
-9.1082305054
 10
11.175143323
 20
-8.7785130122
 10
11.2383273299
 20
-8.440943958
 10
11.2918849268
 20
-8.0958198389
 10
11.3357690726
 20
-7.7434437866
 10
11.3699412227
 20
-7.3841253025
 10
11.3943713628
 20
-7.0181799857
 10
11.4090380352
 20
-6.645929256
 10
11.4139283577
 20
-6.2677000711
  0
LWPOLYLINE
  5
ED
330
DB
100
AcDbEntity
  8
0
  6
Continuous
 62
     7
370
    25
100
AcDbPolyline
 90
       81
 70
   128
 43
0.0
 10
11.1355398612
 20
-6.4284103293
 10
11.1306495386
 20
-6.0445348982
 10
11.1159828663
 20
-5.6553503889
 10
11.0915527262
 20
-5.2611986329
 10
11.0573805761
 20
-4.8624258241
 10
11.0134964303
 20
-4.4593822155
 10
10.9599388334
 20
-4.0524218111
 10
10.8967548264
 20
-3.6419020554
 10
10.8239999057
 20
-3.2281835188
 10
10.7417379739
 20
-2.8116295815
 10
10.6500412837
 20
-2.3926061141
 10
10.5489903749
 20
-1.9714811562
 10
10.4386740032
 20
-1.5486245932
 10
10.3191890625
 20
-1.1244078314
 10
10.1906404996
 20
-0.6992034719
 10
10.0531412222
 20
-0.2733849831
 10
9.9068119996
 20
0.1526736271
 10
9.7517813567
 20
0.5785981399
 10
9.5881854611
 20
1.0040144543
 10
9.4161680035
 20
1.4285489158
 10
9.2358800714
 20
1.8518286443
 10
9.0474800167
 20
2.2734818616
 10
8.8511333162
 20
2.6931382185
 10
8.6470124265
 20
3.1104291194
 10
8.4352966324
 20
3.5249880465
 10
8.2161718897
 20
3.9364508815
 10
7.9898306615
 20
4.3444562255
 10
7.7564717495
 20
4.7486457163
 10
7.516300119
 20
5.1486643435
 10
7.2695267194
 20
5.5441607599
 10
7.0163682983
 20
5.9347875903
 10
6.7570472115
 20
6.3202017366
 10
6.4917912279
 20
6.7000646791
 10
6.2208333289
 20
7.0740427741
 10
5.9444115042
 20
7.4418075465
 10
5.6627685424
 20
7.8030359785
 10
5.3761518182
 20
8.1574107934
 10
5.0848130748
 20
8.5046207343
 10
4.7890082029
 20
8.8443608374
 10
4.4889970158
 20
9.1763326997
 10
4.1850430216
 20
9.5002447414
 10
3.8774131911
 20
9.8158124617
 10
3.566377724
 20
10.1227586892
 10
3.2522098112
 20
10.4208138246
 10
2.9351853947
 20
10.7097160779
 10
2.6155829256
 20
10.9892116987
 10
2.2936831195
 20
11.2590551984
 10
1.9697687097
 20
11.519009566
 10
1.6441241988
 20
11.7688464768
 10
1.3170356093
 20
12.0083464921
 10
0.9887902319
 20
12.2372992527
 10
0.6596763733
 20
12.4555036632
 10
0.3299831032
 20
12.6627680687
 10
0.0
 20
12.8589104234
 10
-0.3299831032
 20
13.0437584501
 10
-0.6596763733
 20
13.2171497917
 10
-0.9887902319
 20
13.3789321541
 10
-1.3170356093
 20
13.5289634394
 10
-1.6441241988
 20
13.667111871
 10
-1.9697687097
 20
13.7932561095
 10
-2.2936831195
 20
13.907285359
 10
-2.6155829256
 20
14.0090994646
 10
-2.9351853947
 20
14.098609
 10
-3.2522098112
 20
14.1757353468
 10
-3.566377724
 20
14.2404107627
 10
-3.8774131911
 20
14.2925784416
 10
-4.1850430216
 20
14.3321925632
 10
-4.4889970158
 20
14.3592183333
 10
-4.7890082029
 20
14.3736320146
 10
-5.0848130748
 20
14.375420947
 10
-5.3761518182
 20
14.3645835593
 10
-5.6627685424
 20
14.3411293703
 10
-5.9444115042
 20
14.3050789804
 10
-6.2208333289
 20
14.2564640536
 10
-6.4917912279
 20
14.1953272898
 10
-6.7570472115
 20
14.121722387
 10
-7.0163682983
 20
14.0357139944
 10
-7.2695267194
 20
13.9373776555
 10
-7.516300119
 20
13.8267997417
 10
-7.7564717495
 20
13.7040773766
 10
-7.8733758475
 20
13.6385647619
  0
LWPOLYLINE
  5
EE
330
DB
100
AcDbEntity
  8
0
  6
Continuous
 62
     7
370
    25
100
AcDbPolyline
 90
       28
 70
   128
 43
0.0
 10
7.8733758475
 20
-13.6385647619
 10
7.9898306615
 20
-13.5693183506
 10
8.2161718897
 20
-13.4226410261
 10
8.4352966324
 20
-13.2641742339
 10
8.6470124265
 20
-13.0940571595
 10
8.8511333162
 20
-12.9124392215
 10
9.0474800167
 20
-12.7194799396
 10
9.2358800714
 20
-12.5153487953
 10
9.4161680035
 20
-12.3002250825
 10
9.5881854611
 20
-12.0742977501
 10
9.7517813567
 20
-11.8377652362
 10
9.9068119996
 20
-11.5908352936
 10
10.0531412222
 20
-11.3337248077
 10
10.1906404996
 20
-11.0666596055
 10
10.3191890625
 20
-10.7898742575
 10
10.4386740032
 20
-10.5036118719
 10
10.5489903749
 20
-10.2081238805
 10
10.6500412837
 20
-9.9036698185
 10
10.7417379739
 20
-9.590517096
 10
10.8239999057
 20
-9.2689407636
 10
10.8967548264
 20
-8.9392232704
 10
10.9599388334
 20
-8.6016542163
 10
11.0134964303
 20
-8.2565300971
 10
11.0573805761
 20
-7.9041540448
 10
11.0915527262
 20
-7.5448355607
 10
11.1159828663
 20
-7.178890244
 10
11.1306495386
 20
-6.8066395142
 10
11.1355398612
 20
-6.4284103293
  0
LWPOLYLINE
  5
EF
330
DB
100
AcDbEntity
  8
0
  6
Continuous
 62
     7
370
    25
100
AcDbPolyline
 90
      213
 70
   128
 43
0.0
 10
11.0381038874
 20
-6.4846589197
 10
11.0332135649
 20
-6.1007834886
 10
11.0185468925
 20
-5.7115989793
 10
10.9941167524
 20
-5.3174472232
 10
10.9599446023
 20
-4.9186744144
 10
10.9160604565
 20
-4.5156308058
 10
10.8625028596
 20
-4.1086704015
 10
10.7993188527
 20
-3.6981506458
 10
10.726563932
 20
-3.2844321092
 10
10.6443020001
 20
-2.8678781719
 10
10.5526053099
 20
-2.4488547045
 10
10.4515544011
 20
-2.0277297466
 10
10.3412380295
 20
-1.6048731836
 10
10.2217530887
 20
-1.1806564218
 10
10.0932045258
 20
-0.7554520623
 10
9.9557052484
 20
-0.3296335735
 10
9.8093760258
 20
0.0964250367
 10
9.6543453829
 20
0.5223495495
 10
9.4907494873
 20
0.947765864
 10
9.3187320297
 20
1.3723003254
 10
9.1384440977
 20
1.7955800539
 10
8.950044043
 20
2.2172332712
 10
8.7536973424
 20
2.6368896281
 10
8.5495764527
 20
3.0541805291
 10
8.3378606586
 20
3.4687394562
 10
8.1187359159
 20
3.8802022912
 10
7.8923946877
 20
4.2882076351
 10
7.6590357757
 20
4.692397126
 10
7.4188641453
 20
5.0924157531
 10
7.1720907456
 20
5.4879121695
 10
6.9189323245
 20
5.8785389999
 10
6.6596112378
 20
6.2639531462
 10
6.3943552542
 20
6.6438160888
 10
6.1233973552
 20
7.0177941838
 10
5.8469755304
 20
7.3855589561
 10
5.5653325686
 20
7.7467873881
 10
5.2787158444
 20
8.101162203
 10
4.987377101
 20
8.4483721439
 10
4.6915722291
 20
8.788112247
 10
4.391561042
 20
9.1200841093
 10
4.0876070478
 20
9.443996151
 10
3.7799772173
 20
9.7595638714
 10
3.4689417502
 20
10.0665100988
 10
3.1547738374
 20
10.3645652342
 10
2.8377494209
 20
10.6534674876
 10
2.5181469518
 20
10.9329631084
 10
2.1962471458
 20
11.202806608
 10
1.8723327359
 20
11.4627609757
 10
1.546688225
 20
11.7125978864
 10
1.2195996355
 20
11.9520979018
 10
0.8913542581
 20
12.1810506624
 10
0.5622403995
 20
12.3992550728
 10
0.2325471294
 20
12.6065194784
 10
-0.0974359738
 20
12.802661833
 10
-0.427419077
 20
12.9875098597
 10
-0.7571123471
 20
13.1609012014
 10
-1.0862262057
 20
13.3226835637
 10
-1.4144715831
 20
13.472714849
 10
-1.7415601726
 20
13.6108632807
 10
-2.0672046835
 20
13.7370075192
 10
-2.3911190933
 20
13.8510367687
 10
-2.7130188994
 20
13.9528508742
 10
-3.0326213684
 20
14.0423604096
 10
-3.3496457849
 20
14.1194867564
 10
-3.6638136978
 20
14.1841621723
 10
-3.9748491649
 20
14.2363298512
 10
-4.2824789954
 20
14.2759439728
 10
-4.5864329896
 20
14.3029697429
 10
-4.8864441767
 20
14.3173834242
 10
-5.1822490486
 20
14.3191723566
 10
-5.473587792
 20
14.3083349689
 10
-5.7602045162
 20
14.2848807799
 10
-6.041847478
 20
14.24883039
 10
-6.3182693027
 20
14.2002154632
 10
-6.5892272017
 20
14.1390786994
 10
-6.8544831853
 20
14.0654737966
 10
-7.1138042721
 20
13.979465404
 10
-7.3669626932
 20
13.8811290651
 10
-7.6137360928
 20
13.7705511513
 10
-7.8539077233
 20
13.6478287862
 10
-8.0872666353
 20
13.5130697602
 10
-8.3136078635
 20
13.3663924358
 10
-8.5327326062
 20
13.2079256435
 10
-8.7444484003
 20
13.0378085692
 10
-8.94856929
 20
12.8561906311
 10
-9.1449159905
 20
12.6632313492
 10
-9.3333160452
 20
12.4591002049
 10
-9.5136039773
 20
12.2439764921
 10
-9.6856214349
 20
12.0180491597
 10
-9.8492173305
 20
11.7815166458
 10
-10.0042479734
 20
11.5345867033
 10
-10.150577196
 20
11.2774762173
 10
-10.2880764734
 20
11.0104110151
 10
-10.4166250363
 20
10.7336256671
 10
-10.536109977
 20
10.4473632815
 10
-10.6464263487
 20
10.1518752901
 10
-10.7474772575
 20
9.8474212281
 10
-10.8391739477
 20
9.5342685056
 10
-10.9214358795
 20
9.2126921732
 10
-10.9941908002
 20
8.8829746801
 10
-11.0573748071
 20
8.5454056259
 10
-11.110932404
 20
8.2002815067
 10
-11.1548165499
 20
7.8479054544
 10
-11.1889887
 20
7.4885869703
 10
-11.21341884
 20
7.1226416536
 10
-11.2280855124
 20
6.7503909238
 10
-11.232975835
 20
6.3721617389
 10
-11.2280855124
 20
5.9882863078
 10
-11.21341884
 20
5.5991017986
 10
-11.1889887
 20
5.2049500425
 10
-11.1548165499
 20
4.8061772337
 10
-11.110932404
 20
4.4031336251
 10
-11.0573748071
 20
3.9961732208
 10
-10.9941908002
 20
3.585653465
 10
-10.9214358795
 20
3.1719349284
 10
-10.8391739477
 20
2.7553809911
 10
-10.7474772575
 20
2.3363575237
 10
-10.6464263487
 20
1.9152325658
 10
-10.536109977
 20
1.4923760028
 10
-10.4166250363
 20
1.0681592411
 10
-10.2880764734
 20
0.6429548815
 10
-10.150577196
 20
0.2171363928
 10
-10.0042479734
 20
-0.2089222174
 10
-9.8492173305
 20
-0.6348467303
 10
-9.6856214349
 20
-1.0602630447
 10
-9.5136039773
 20
-1.4847975062
 10
-9.3333160452
 20
-1.9080772346
 10
-9.1449159905
 20
-2.329730452
 10
-8.94856929
 20
-2.7493868089
 10
-8.7444484003
 20
-3.1666777098
 10
-8.5327326062
 20
-3.5812366369
 10
-8.3136078635
 20
-3.9926994719
 10
-8.0872666353
 20
-4.4007048159
 10
-7.8539077233
 20
-4.8048943067
 10
-7.6137360928
 20
-5.2049129339
 10
-7.3669626932
 20
-5.6004093503
 10
-7.1138042721
 20
-5.9910361806
 10
-6.8544831853
 20
-6.3764503269
 10
-6.5892272017
 20
-6.7563132695
 10
-6.3182693027
 20
-7.1302913645
 10
-6.041847478
 20
-7.4980561369
 10
-5.7602045162
 20
-7.8592845688
 10
-5.473587792
 20
-8.2136593838
 10
-5.1822490486
 20
-8.5608693247
 10
-4.8864441767
 20
-8.9006094278
 10
-4.5864329896
 20
-9.2325812901
 10
-4.2824789954
 20
-9.5564933317
 10
-3.9748491649
 20
-9.8720610521
 10
-3.6638136978
 20
-10.1790072796
 10
-3.3496457849
 20
-10.4770624149
 10
-3.0326213684
 20
-10.7659646683
 10
-2.7130188994
 20
-11.0454602891
 10
-2.3911190933
 20
-11.3153037888
 10
-2.0672046835
 20
-11.5752581564
 10
-1.7415601726
 20
-11.8250950672
 10
-1.4144715831
 20
-12.0645950825
 10
-1.0862262057
 20
-12.2935478431
 10
-0.7571123471
 20
-12.5117522536
 10
-0.427419077
 20
-12.7190166591
 10
-0.0974359738
 20
-12.9151590138
 10
0.2325471294
 20
-13.1000070405
 10
0.5622403995
 20
-13.2733983821
 10
0.8913542581
 20
-13.4351807445
 10
1.2195996355
 20
-13.5852120298
 10
1.546688225
 20
-13.7233604614
 10
1.8723327359
 20
-13.8495046999
 10
2.1962471458
 20
-13.9635339494
 10
2.5181469518
 20
-14.0653480549
 10
2.8377494209
 20
-14.1548575904
 10
3.1547738374
 20
-14.2319839372
 10
3.4689417502
 20
-14.2966593531
 10
3.7799772173
 20
-14.3488270319
 10
4.0876070478
 20
-14.3884411535
 10
4.391561042
 20
-14.4154669237
 10
4.6915722291
 20
-14.4298806049
 10
4.987377101
 20
-14.4316695374
 10
5.2787158444
 20
-14.4208321497
 10
5.5653325686
 20
-14.3973779606
 10
5.8469755304
 20
-14.3613275707
 10
6.1233973552
 20
-14.312712644
 10
6.3943552542
 20
-14.2515758802
 10
6.6596112378
 20
-14.1779709774
 10
6.9189323245
 20
-14.0919625848
 10
7.1720907456
 20
-13.9936262458
 10
7.4188641453
 20
-13.8830483321
 10
7.6590357757
 20
-13.760325967
 10
7.8923946877
 20
-13.625566941
 10
8.1187359159
 20
-13.4788896165
 10
8.3378606586
 20
-13.3204228243
 10
8.5495764527
 20
-13.1503057499
 10
8.7536973424
 20
-12.9686878118
 10
8.950044043
 20
-12.77572853
 10
9.1384440977
 20
-12.5715973857
 10
9.3187320297
 20
-12.3564736729
 10
9.4907494873
 20
-12.1305463405
 10
9.6543453829
 20
-11.8940138266
 10
9.8093760258
 20
-11.647083884
 10
9.9557052484
 20
-11.3899733981
 10
10.0932045258
 20
-11.1229081959
 10
10.2217530887
 20
-10.8461228479
 10
10.3412380295
 20
-10.5598604622
 10
10.4515544011
 20
-10.2643724709
 10
10.5526053099
 20
-9.9599184088
 10
10.6443020001
 20
-9.6467656864
 10
10.726563932
 20
-9.325189354
 10
10.7993188527
 20
-8.9954718608
 10
10.8625028596
 20
-8.6579028067
 10
10.9160604565
 20
-8.3127786875
 10
10.9599446023
 20
-7.9604026352
 10
10.9941167524
 20
-7.6010841511
 10
11.0185468925
 20
-7.2351388343
 10
11.0332135649
 20
-6.8628881046
 10
11.0381038874
 20
-6.4846589197
  0
LWPOLYLINE
  5
F0
330
DB
100
AcDbEntity
  8
0
  6
Continuous
 62
     7
370
    25
100
AcDbPolyline
 90
      107
 70
   128
 43
0.0
 10
10.8989096392
 20
-6.4043037906
 10
10.8940345662
 20
-6.0234174817
 10
10.8794136699
 20
-5.6372402544
 10
10.8550599143
 20
-5.246114521
 10
10.820994893
 20
-4.8503870816
 10
10.7772488106
 20
-4.4504088164
 10
10.7238604554
 20
-4.0465343747
 10
10.6608771655
 20
-3.6391218604
 10
10.5883547863
 20
-3.2285325146
 10
10.5063576212
 20
-2.8151303952
 10
10.414958375
 20
-2.399282054
 10
10.3142380886
 20
-1.9813562118
 10
10.2042860679
 20
-1.5617234317
 10
10.0851998041
 20
-1.14075579
 10
9.9570848878
 20
-0.7188265467
 10
9.8200549147
 20
-0.2963098144
 10
9.6742313853
 20
0.1264197733
 10
9.5197435973
 20
0.5489873942
 10
9.3567285306
 20
0.9710183697
 10
9.185330726
 20
1.3921384968
 10
9.005702157
 20
1.8119743804
 10
8.8180020951
 20
2.230153764
 10
8.6223969687
 20
2.6463058598
 10
8.4190602152
 20
3.0600616778
 10
8.2081721275
 20
3.4710543523
 10
7.9899196941
 20
3.878919468
 10
7.7644964331
 20
4.2832953824
 10
7.532102221
 20
4.683823547
 10
7.2929431151
 20
5.0801488249
 10
7.0472311709
 20
5.4719198057
 10
6.7951842542
 20
5.8587891174
 10
6.5370258478
 20
6.2404137339
 10
6.2729848533
 20
6.6164552795
 10
6.0032953885
 20
6.986580329
 10
5.7281965793
 20
7.3504607031
 10
5.4479323479
 20
7.7077737593
 10
5.1627511966
 20
8.0582026785
 10
4.8729059874
 20
8.4014367452
 10
4.5786537178
 20
8.7371716236
 10
4.2802552929
 20
9.0651096273
 10
3.9779752941
 20
9.3849599828
 10
3.6720817444
 20
9.6964390881
 10
3.3628458709
 20
9.9992707635
 10
3.0505418641
 20
10.2931864968
 10
2.7354466353
 20
10.5779256812
 10
2.4178395702
 20
10.8532358468
 10
2.0980022822
 20
11.1188728838
 10
1.7762183616
 20
11.3746012594
 10
1.4527731252
 20
11.6201942265
 10
1.1279533626
 20
11.855434025
 10
0.8020470823
 20
12.0801120744
 10
0.475343256
 20
12.294029159
 10
0.1481315627
 20
12.4969956047
 10
-0.1792978683
 20
12.688831447
 10
-0.5066547148
 20
12.8693665904
 10
-0.8336487186
 20
13.0384409597
 10
-1.1599899436
 20
13.1959046413
 10
-1.4853890323
 20
13.3416180168
 10
-1.8095574626
 20
13.4754518862
 10
-2.1322078037
 20
13.5972875829
 10
-2.4530539707
 20
13.7070170786
 10
-2.7718114783
 20
13.8045430793
 10
-3.0881976935
 20
13.8897791115
 10
-3.4019320857
 20
13.9626495989
 10
-3.7127364754
 20
14.0230899292
 10
-4.0203352813
 20
14.0710465118
 10
-4.3244557643
 20
14.1064768249
 10
-4.6248282695
 20
14.1293494534
 10
-4.9211864651
 20
14.1396441169
 10
-5.2132675787
 20
14.1373516873
 10
-5.5008126305
 20
14.1224741974
 10
-5.7835666623
 20
14.0950248385
 10
-6.0612789643
 20
14.0550279492
 10
-6.3337032968
 20
14.0025189936
 10
-6.6005981091
 20
13.93754453
 10
-6.861726753
 20
13.8601621692
 10
-7.1168576933
 20
13.7704405241
 10
-7.3657647127
 20
13.6684591482
 10
-7.6082271123
 20
13.5543084656
 10
-7.8440299077
 20
13.4280896903
 10
-8.0729640193
 20
13.289914737
 10
-8.2948264577
 20
13.1399061215
 10
-8.5094205039
 20
12.9781968522
 10
-8.7165558834
 20
12.8049303119
 10
-8.9160489352
 20
12.6202601313
 10
-9.1077227745
 20
12.424350052
 10
-9.2914074496
 20
12.2173737821
 10
-9.4669400924
 20
11.9995148413
 10
-9.6341650633
 20
11.7709663991
 10
-9.7929340887
 20
11.5319311028
 10
-9.9431063924
 20
11.2826208983
 10
-10.0845488211
 20
11.0232568416
 10
-10.2171359618
 20
10.7540689036
 10
-10.3407502533
 20
10.4752957655
 10
-10.4552820902
 20
10.1871846076
 10
-10.5606299206
 20
9.8899908896
 10
-10.6567003353
 20
9.5839781249
 10
-10.7434081517
 20
9.2694176463
 10
-10.8206764882
 20
8.9465883654
 10
-10.8884368334
 20
8.6157765259
 10
-10.946629106
 20
8.2772754491
 10
-10.9952017085
 20
7.9313852744
 10
-11.0341115731
 20
7.5784126926
 10
-11.0633241995
 20
7.2186706744
 10
-11.0828136857
 20
6.852478193
 10
-11.0925627509
 20
6.4801599406
 10
-11.0937815867
 20
6.2918066098
  0
LWPOLYLINE
  5
F1
330
DB
100
AcDbEntity
  8
0
  6
Continuous
 62
     7
370
    25
100
AcDbPolyline
 90
       54
 70
   128
 43
0.0
 10
-0.0992231892
 20
-12.7533907283
 10
0.1481315627
 20
-12.8930190281
 10
0.475343256
 20
-13.067843162
 10
0.8020470823
 20
-13.2311302862
 10
1.1279533626
 20
-13.3827356187
 10
1.4527731252
 20
-13.5225247353
 10
1.7762183616
 20
-13.6503736892
 10
2.0980022822
 20
-13.7661691201
 10
2.4178395702
 20
-13.8698083557
 10
2.7354466353
 20
-13.961199502
 10
3.0505418641
 20
-14.040261525
 10
3.3628458709
 20
-14.1069243228
 10
3.6720817444
 20
-14.1611287873
 10
3.9779752941
 20
-14.2028268569
 10
4.2802552929
 20
-14.2319815592
 10
4.5786537178
 20
-14.2485670436
 10
4.8729059874
 20
-14.2525686041
 10
5.1627511966
 20
-14.2439826927
 10
5.4479323479
 20
-14.2228169222
 10
5.7281965793
 20
-14.1890900598
 10
6.0032953885
 20
-14.1428320102
 10
6.2729848533
 20
-14.0840837889
 10
6.5370258478
 20
-14.0128974864
 10
6.7951842542
 20
-13.9293362215
 10
7.0472311709
 20
-13.8334740856
 10
7.2929431151
 20
-13.725396077
 10
7.532102221
 20
-13.6051980253
 10
7.7644964331
 20
-13.4729865067
 10
7.9899196941
 20
-13.3288787494
 10
8.2081721275
 20
-13.1730025296
 10
8.4190602152
 20
-13.0054960584
 10
8.6223969687
 20
-12.8265078589
 10
8.8180020951
 20
-12.6361966348
 10
9.005702157
 20
-12.4347311298
 10
9.185330726
 20
-12.2222899774
 10
9.3567285306
 20
-11.9990615433
 10
9.5197435973
 20
-11.7652437577
 10
9.6742313853
 20
-11.5210439401
 10
9.8200549147
 20
-11.2666786156
 10
9.9570848878
 20
-11.0023733227
 10
10.0851998041
 20
-10.7283624133
 10
10.2042860679
 20
-10.444888845
 10
10.3142380886
 20
-10.1522039658
 10
10.414958375
 20
-9.8505672911
 10
10.5063576212
 20
-9.5402462734
 10
10.5883547863
 20
-9.2215160655
 10
10.6608771655
 20
-8.8946592765
 10
10.7238604554
 20
-8.5599657209
 10
10.7772488106
 20
-8.217732162
 10
10.820994893
 20
-7.8682620484
 10
10.8550599143
 20
-7.5118652454
 10
10.8794136699
 20
-7.1488577598
 10
10.8940345662
 20
-6.77956146
 10
10.8989096392
 20
-6.4043037906
  0
LWPOLYLINE
  5
F2
330
DB
100
AcDbEntity
  8
0
  6
Continuous
 62
     7
370
    25
100
AcDbPolyline
 90
       81
 70
   128
 43
0.0
 10
11.1355398612
 20
-6.4284103293
 10
11.1306495386
 20
-6.0445348982
 10
11.1159828663
 20
-5.6553503889
 10
11.0915527262
 20
-5.2611986329
 10
11.0573805761
 20
-4.8624258241
 10
11.0134964303
 20
-4.4593822155
 10
10.9599388334
 20
-4.0524218111
 10
10.8967548264
 20
-3.6419020554
 10
10.8239999057
 20
-3.2281835188
 10
10.7417379739
 20
-2.8116295815
 10
10.6500412837
 20
-2.3926061141
 10
10.5489903749
 20
-1.9714811562
 10
10.4386740032
 20
-1.5486245932
 10
10.3191890625
 20
-1.1244078314
 10
10.1906404996
 20
-0.6992034719
 10
10.0531412222
 20
-0.2733849831
 10
9.9068119996
 20
0.1526736271
 10
9.7517813567
 20
0.5785981399
 10
9.5881854611
 20
1.0040144543
 10
9.4161680035
 20
1.4285489158
 10
9.2358800714
 20
1.8518286443
 10
9.0474800167
 20
2.2734818616
 10
8.8511333162
 20
2.6931382185
 10
8.6470124265
 20
3.1104291194
 10
8.4352966324
 20
3.5249880465
 10
8.2161718897
 20
3.9364508815
 10
7.9898306615
 20
4.3444562255
 10
7.7564717495
 20
4.7486457163
 10
7.516300119
 20
5.1486643435
 10
7.2695267194
 20
5.5441607599
 10
7.0163682983
 20
5.9347875903
 10
6.7570472115
 20
6.3202017366
 10
6.4917912279
 20
6.7000646791
 10
6.2208333289
 20
7.0740427741
 10
5.9444115042
 20
7.4418075465
 10
5.6627685424
 20
7.8030359785
 10
5.3761518182
 20
8.1574107934
 10
5.0848130748
 20
8.5046207343
 10
4.7890082029
 20
8.8443608374
 10
4.4889970158
 20
9.1763326997
 10
4.1850430216
 20
9.5002447414
 10
3.8774131911
 20
9.8158124617
 10
3.566377724
 20
10.1227586892
 10
3.2522098112
 20
10.4208138246
 10
2.9351853947
 20
10.7097160779
 10
2.6155829256
 20
10.9892116987
 10
2.2936831195
 20
11.2590551984
 10
1.9697687097
 20
11.519009566
 10
1.6441241988
 20
11.7688464768
 10
1.3170356093
 20
12.0083464921
 10
0.9887902319
 20
12.2372992527
 10
0.6596763733
 20
12.4555036632
 10
0.3299831032
 20
12.6627680687
 10
0.0
 20
12.8589104234
 10
-0.3299831032
 20
13.0437584501
 10
-0.6596763733
 20
13.2171497917
 10
-0.9887902319
 20
13.3789321541
 10
-1.3170356093
 20
13.5289634394
 10
-1.6441241988
 20
13.667111871
 10
-1.9697687097
 20
13.7932561095
 10
-2.2936831195
 20
13.907285359
 10
-2.6155829256
 20
14.0090994646
 10
-2.9351853947
 20
14.098609
 10
-3.2522098112
 20
14.1757353468
 10
-3.566377724
 20
14.2404107627
 10
-3.8774131911
 20
14.2925784416
 10
-4.1850430216
 20
14.3321925632
 10
-4.4889970158
 20
14.3592183333
 10
-4.7890082029
 20
14.3736320146
 10
-5.0848130748
 20
14.375420947
 10
-5.3761518182
 20
14.3645835593
 10
-5.6627685424
 20
14.3411293703
 10
-5.9444115042
 20
14.3050789804
 10
-6.2208333289
 20
14.2564640536
 10
-6.4917912279
 20
14.1953272898
 10
-6.7570472115
 20
14.121722387
 10
-7.0163682983
 20
14.0357139944
 10
-7.2695267194
 20
13.9373776555
 10
-7.516300119
 20
13.8267997417
 10
-7.7564717495
 20
13.7040773766
 10
-7.8733758475
 20
13.6385647619
  0
LWPOLYLINE
  5
F3
330
DB
100
AcDbEntity
  8
0
  6
Continuous
 62
     7
370
    25
100
AcDbPolyline
 90
       28
 70
   128
 43
0.0
 10
7.8733758475
 20
-13.6385647619
 10
7.9898306615
 20
-13.5693183506
 10
8.2161718897
 20
-13.4226410261
 10
8.4352966324
 20
-13.2641742339
 10
8.6470124265
 20
-13.0940571595
 10
8.8511333162
 20
-12.9124392215
 10
9.0474800167
 20
-12.7194799396
 10
9.2358800714
 20
-12.5153487953
 10
9.4161680035
 20
-12.3002250825
 10
9.5881854611
 20
-12.0742977501
 10
9.7517813567
 20
-11.8377652362
 10
9.9068119996
 20
-11.5908352936
 10
10.0531412222
 20
-11.3337248077
 10
10.1906404996
 20
-11.0666596055
 10
10.3191890625
 20
-10.7898742575
 10
10.4386740032
 20
-10.5036118719
 10
10.5489903749
 20
-10.2081238805
 10
10.6500412837
 20
-9.9036698185
 10
10.7417379739
 20
-9.590517096
 10
10.8239999057
 20
-9.2689407636
 10
10.8967548264
 20
-8.9392232704
 10
10.9599388334
 20
-8.6016542163
 10
11.0134964303
 20
-8.2565300971
 10
11.0573805761
 20
-7.9041540448
 10
11.0915527262
 20
-7.5448355607
 10
11.1159828663
 20
-7.178890244
 10
11.1306495386
 20
-6.8066395142
 10
11.1355398612
 20
-6.4284103293
  0
LWPOLYLINE
  5
F4
330
DB
100
AcDbEntity
  8
0
  6
Continuous
 62
     7
370
    25
100
AcDbPolyline
 90
      211
 70
   128
 43
0.0
 10
10.8710707895
 20
-6.4043037906
 10
10.8661554101
 20
-6.0220752568
 10
10.8514136718
 20
-5.6345136931
 10
10.8268587704
 20
-5.2419660195
 10
10.792512686
 20
-4.8447836194
 10
10.7484061629
 20
-4.4433220247
 10
10.6945786825
 20
-4.0379405981
 10
10.6310784275
 20
-3.6290022107
 10
10.5579622394
 20
-3.2168729178
 10
10.4752955671
 20
-2.801921631
 10
10.3831524083
 20
-2.3845197878
 10
10.2816152438
 20
-1.9650410195
 10
10.1707749629
 20
-1.5438608163
 10
10.0507307829
 20
-1.1213561915
 10
9.9215901594
 20
-0.6979053441
 10
9.7834686909
 20
-0.2738873198
 10
9.6364900147
 20
0.1503183277
 10
9.4807856968
 20
0.574331877
 10
9.3164951134
 20
0.9977737785
 10
9.143765327
 20
1.4202649943
 10
8.9627509541
 20
1.8414273377
 10
8.773614027
 20
2.2608838112
 10
8.5765238491
 20
2.6782589445
 10
8.3716568425
 20
3.0931791304
 10
8.1591963911
 20
3.5052729591
 10
7.9393326758
 20
3.9141715507
 10
7.7122625043
 20
4.3195088857
 10
7.4781891352
 20
4.7209221323
 10
7.2373220959
 20
5.1180519712
 10
6.989876995
 20
5.5105429175
 10
6.7360753293
 20
5.8980436386
 10
6.4761442858
 20
6.2802072689
 10
6.2103165379
 20
6.6566917201
 10
5.9388300374
 20
7.0271599877
 10
5.6619278016
 20
7.3912804525
 10
5.3798576954
 20
7.7487271772
 10
5.0928722099
 20
8.0991801987
 10
4.8012282357
 20
8.4423258141
 10
4.5051868339
 20
8.7778568615
 10
4.2050130016
 20
9.1054729952
 10
3.900975435
 20
9.4248809544
 10
3.5933462889
 20
9.7357948258
 10
3.282400933
 20
10.0379362992
 10
2.9684177056
 20
10.3310349172
 10
2.6516776641
 20
10.6148283169
 10
2.3324643339
 20
10.8890624646
 10
2.011063454
 20
11.1534918837
 10
1.6877627218
 20
11.407879874
 10
1.3628515352
 20
11.6519987239
 10
1.0366207338
 20
11.8856299138
 10
0.7093623382
 20
12.1085643123
 10
0.3813692892
 20
12.3206023629
 10
0.0529351848
 20
12.5215542627
 10
-0.275645982
 20
12.7112401327
 10
-0.6040800864
 20
12.8894901782
 10
-0.9320731355
 20
13.0561448415
 10
-1.259331531
 20
13.2110549438
 10
-1.5855623324
 20
13.3540818198
 10
-1.910473519
 20
13.485097441
 10
-2.2337742512
 20
13.6039845307
 10
-2.5551751311
 20
13.7106366688
 10
-2.8743884613
 20
13.8049583873
 10
-3.1911285028
 20
13.8868652554
 10
-3.5051117302
 20
13.9562839553
 10
-3.8160570861
 20
14.013152348
 10
-4.1236862322
 20
14.0574195285
 10
-4.4277237988
 20
14.0890458717
 10
-4.7278976312
 20
14.1080030678
 10
-5.023939033
 20
14.1142741475
 10
-5.3155830071
 20
14.1078534972
 10
-5.6025684927
 20
14.0887468645
 10
-5.8846385988
 20
14.0569713522
 10
-6.1615408347
 20
14.0125554039
 10
-6.4330273351
 20
13.9555387777
 10
-6.698855083
 20
13.8859725112
 10
-6.9587861266
 20
13.8039188758
 10
-7.2125877922
 20
13.7094513205
 10
-7.4600328932
 20
13.6026544066
 10
-7.7008999325
 20
13.4836237318
 10
-7.9349733016
 20
13.3524658446
 10
-8.162043473
 20
13.2092981491
 10
-8.3819071884
 20
13.0542487999
 10
-8.5943676397
 20
12.887456587
 10
-8.7992346463
 20
12.7090708121
 10
-8.9963248243
 20
12.5192511546
 10
-9.1854617513
 20
12.3181675288
 10
-9.3664761242
 20
12.1059999319
 10
-9.5392059106
 20
11.8829382824
 10
-9.703496494
 20
11.6491822509
 10
-9.859200812
 20
11.4049410806
 10
-10.0061794881
 20
11.1504334005
 10
-10.1443009567
 20
10.8858870293
 10
-10.2734415801
 20
10.611538772
 10
-10.3934857602
 20
10.3276342073
 10
-10.504326041
 20
10.0344274683
 10
-10.6058632055
 20
9.7321810148
 10
-10.6980063643
 20
9.4211653983
 10
-10.7806730367
 20
9.1016590197
 10
-10.8537892248
 20
8.7739478808
 10
-10.9172894797
 20
8.4383253272
 10
-10.9711169602
 20
8.0950917866
 10
-11.0152234833
 20
7.7445544996
 10
-11.0495695677
 20
7.3870272444
 10
-11.074124469
 20
7.0228300565
 10
-11.0888662073
 20
6.6522889415
 10
-11.0937815867
 20
6.275735584
 10
-11.0888662073
 20
5.8935070502
 10
-11.074124469
 20
5.5059454865
 10
-11.0495695677
 20
5.1133978129
 10
-11.0152234833
 20
4.7162154128
 10
-10.9711169602
 20
4.3147538181
 10
-10.9172894797
 20
3.9093723915
 10
-10.8537892248
 20
3.5004340041
 10
-10.7806730367
 20
3.0883047112
 10
-10.6980063643
 20
2.6733534244
 10
-10.6058632055
 20
2.2559515812
 10
-10.504326041
 20
1.8364728129
 10
-10.3934857602
 20
1.4152926097
 10
-10.2734415801
 20
0.9927879849
 10
-10.1443009567
 20
0.5693371375
 10
-10.0061794881
 20
0.1453191132
 10
-9.859200812
 20
-0.2788865343
 10
-9.703496494
 20
-0.7029000836
 10
-9.5392059106
 20
-1.1263419851
 10
-9.3664761242
 20
-1.5488332009
 10
-9.1854617513
 20
-1.9699955443
 10
-8.9963248243
 20
-2.3894520178
 10
-8.7992346463
 20
-2.8068271511
 10
-8.5943676397
 20
-3.221747337
 10
-8.3819071884
 20
-3.6338411657
 10
-8.162043473
 20
-4.0427397573
 10
-7.9349733016
 20
-4.4480770923
 10
-7.7008999325
 20
-4.8494903389
 10
-7.4600328932
 20
-5.2466201778
 10
-7.2125877922
 20
-5.6391111241
 10
-6.9587861266
 20
-6.0266118452
 10
-6.698855083
 20
-6.4087754755
 10
-6.4330273351
 20
-6.7852599267
 10
-6.1615408347
 20
-7.1557281943
 10
-5.8846385988
 20
-7.5198486591
 10
-5.6025684927
 20
-7.8772953838
 10
-5.3155830071
 20
-8.2277484053
 10
-5.023939033
 20
-8.5708940206
 10
-4.7278976312
 20
-8.906425068
 10
-4.4277237988
 20
-9.2340412018
 10
-4.1236862322
 20
-9.553449161
 10
-3.8160570861
 20
-9.8643630323
 10
-3.5051117302
 20
-10.1665045058
 10
-3.1911285028
 20
-10.4596031238
 10
-2.8743884613
 20
-10.7433965235
 10
-2.5551751311
 20
-11.0176306712
 10
-2.2337742512
 20
-11.2820600903
 10
-1.910473519
 20
-11.5364480806
 10
-1.5855623324
 20
-11.7805669304
 10
-1.259331531
 20
-12.0141981204
 10
-0.9320731355
 20
-12.2371325189
 10
-0.6040800864
 20
-12.4491705695
 10
-0.275645982
 20
-12.6501224693
 10
0.0529351848
 20
-12.8398083393
 10
0.3813692892
 20
-13.0180583848
 10
0.7093623382
 20
-13.184713048
 10
1.0366207338
 20
-13.3396231504
 10
1.3628515352
 20
-13.4826500264
 10
1.6877627218
 20
-13.6136656476
 10
2.011063454
 20
-13.7325527373
 10
2.3324643339
 20
-13.8392048754
 10
2.6516776641
 20
-13.9335265939
 10
2.9684177056
 20
-14.0154334619
 10
3.282400933
 20
-14.0848521619
 10
3.5933462889
 20
-14.1417205546
 10
3.900975435
 20
-14.1859877351
 10
4.2050130016
 20
-14.2176140783
 10
4.5051868339
 20
-14.2365712744
 10
4.8012282357
 20
-14.2428423541
 10
5.0928722099
 20
-14.2364217038
 10
5.3798576954
 20
-14.2173150711
 10
5.6619278016
 20
-14.1855395588
 10
5.9388300374
 20
-14.1411236104
 10
6.2103165379
 20
-14.0841069843
 10
6.4761442858
 20
-14.0145407178
 10
6.7360753293
 20
-13.9324870824
 10
6.989876995
 20
-13.8380195271
 10
7.2373220959
 20
-13.7312226132
 10
7.4781891352
 20
-13.6121919383
 10
7.7122625043
 20
-13.4810340512
 10
7.9393326758
 20
-13.3378663557
 10
8.1591963911
 20
-13.1828170064
 10
8.3716568425
 20
-13.0160247936
 10
8.5765238491
 20
-12.8376390187
 10
8.773614027
 20
-12.6478193612
 10
8.9627509541
 20
-12.4467357354
 10
9.143765327
 20
-12.2345681384
 10
9.3164951134
 20
-12.011506489
 10
9.4807856968
 20
-11.7777504575
 10
9.6364900147
 20
-11.5335092872
 10
9.7834686909
 20
-11.279001607
 10
9.9215901594
 20
-11.0144552359
 10
10.0507307829
 20
-10.7401069786
 10
10.1707749629
 20
-10.4562024139
 10
10.2816152438
 20
-10.1629956749
 10
10.3831524083
 20
-9.8607492214
 10
10.4752955671
 20
-9.5497336048
 10
10.5579622394
 20
-9.2302272263
 10
10.6310784275
 20
-8.9025160874
 10
10.6945786825
 20
-8.5668935338
 10
10.7484061629
 20
-8.2236599932
 10
10.792512686
 20
-7.8731227062
 10
10.8268587704
 20
-7.515595451
 10
10.8514136718
 20
-7.151398263
 10
10.8661554101
 20
-6.7808571481
 10
10.8710707895
 20
-6.4043037906
  0
LWPOLYLINE
  5
F5
330
DB
100
AcDbEntity
  8
0
  6
Continuous
 62
     7
370
    25
100
AcDbPolyline
 90
       30
 70
   128
 43
0.0
 10
0.0974359738
 20
-9.8289996145
 10
0.0925545475
 20
-9.7743512715
 10
0.0781385188
 20
-9.7166222494
 10
0.0548619651
 20
-9.6585118933
 10
0.0238132723
 20
-9.6027373787
 10
-0.0135557574
 20
-9.55190666
 10
-0.0554977897
 20
-9.5083965251
 10
-0.1000516616
 20
-9.4742414595
 10
-0.1451340837
 20
-9.4510385162
 10
-0.188637052
 20
-9.439872639
 10
-0.2285264162
 20
-9.4412659318
 10
-0.2629369937
 20
-9.455153246
 10
-0.2902597844
 20
-9.480885226
 10
-0.3092172048
 20
-9.5172586732
 10
-0.318922827
 20
-9.5625728055
 10
-0.318922827
 20
-9.6147087845
 10
-0.3092172048
 20
-9.6712287897
 10
-0.2902597844
 20
-9.7294900086
 10
-0.2629369937
 20
-9.7867682112
 10
-0.2285264162
 20
-9.8403851326
 10
-0.188637052
 20
-9.8878337049
 10
-0.1451340837
 20
-9.9268952858
 10
-0.1000516616
 20
-9.9557433991
 10
-0.0554977897
 20
-9.9730291392
 10
-0.0135557574
 20
-9.9779442439
 10
0.0238132723
 20
-9.9702588885
 10
0.0548619651
 20
-9.9503324317
 10
0.0781385188
 20
-9.9190966124
 10
0.0925545475
 20
-9.8780119828
 10
0.0974359738
 20
-9.8289996145
  0
LWPOLYLINE
  5
F6
330
DB
100
AcDbEntity
  8
0
  6
Continuous
 62
     7
370
    25
100
AcDbPolyline
 90
       17
 70
   128
 43
0.0
 10
-0.2587028073
 20
-9.4525831213
 10
-0.2626586052
 20
-9.4549925357
 10
-0.2899813959
 20
-9.4807245158
 10
-0.3089388163
 20
-9.5170979629
 10
-0.3186444385
 20
-9.5624120952
 10
-0.3186444385
 20
-9.6145480742
 10
-0.3089388163
 20
-9.6710680795
 10
-0.2899813959
 20
-9.7293292983
 10
-0.2626586052
 20
-9.786607501
 10
-0.2282480277
 20
-9.8402244223
 10
-0.1883586635
 20
-9.8876729947
 10
-0.1448556952
 20
-9.9267345756
 10
-0.0997732731
 20
-9.9555826889
 10
-0.0552194012
 20
-9.9728684289
 10
-0.0132773689
 20
-9.9777835336
 10
0.0240916608
 20
-9.9700981782
 10
0.036548787
 20
-9.9640292999
  0
LWPOLYLINE
  5
F7
330
DB
100
AcDbEntity
  8
0
  6
Continuous
 62
     7
370
    25
100
AcDbPolyline
 90
       12
 70
   128
 43
0.0
 10
0.0698755126
 20
-9.8127678784
 10
0.064997914
 20
-9.7617632323
 10
0.0506280706
 20
-9.7078767042
 10
0.0275406644
 20
-9.654013331
 10
-0.0030196565
 20
-9.6030769009
 10
-0.0394053772
 20
-9.5578134102
 10
-0.0796549343
 20
-9.5206630253
 10
-0.1215984636
 20
-9.4936285331
 10
-0.1629747786
 20
-9.47816737
 10
-0.2015532715
 20
-9.4751130514
 10
-0.2352541657
 20
-9.4846302364
 10
-0.2390193676
 20
-9.4866795332
  0
LWPOLYLINE
  5
F9
330
DB
100
AcDbEntity
  8
0
  6
Continuous
 62
     7
370
    25
100
AcDbPolyline
 90
       28
 70
   128
 43
0.0
 10
0.0695971241
 20
-9.8129285887
 10
0.0647195255
 20
-9.7619239425
 10
0.0503496821
 20
-9.7080374145
 10
0.0272622759
 20
-9.6541740412
 10
-0.003298045
 20
-9.6032376112
 10
-0.0396837657
 20
-9.5579741205
 10
-0.0799333228
 20
-9.5208237355
 10
-0.1218768521
 20
-9.4937892433
 10
-0.1632531671
 20
-9.4783280803
 10
-0.20183166
 20
-9.4752737617
 10
-0.2355325542
 20
-9.4847909467
 10
-0.2625390258
 20
-9.5063665613
 10
-0.2813951489
 20
-9.5388374586
 10
-0.2910843851
 20
-9.5804531242
 10
-0.2910843851
 20
-9.6289700467
 10
-0.2813951489
 20
-9.6817726662
 10
-0.2625390258
 20
-9.7360143799
 10
-0.2355325542
 20
-9.7887710029
 10
-0.20183166
 20
-9.8371984122
 10
-0.1632531671
 20
-9.8786858733
 10
-0.1218768521
 20
-9.9109967867
 10
-0.0799333228
 20
-9.9323892627
 10
-0.0396837657
 20
-9.9417100272
 10
-0.003298045
 20
-9.9384565954
 10
0.0272622759
 20
-9.9228043608
 10
0.0503496821
 20
-9.8955971393
 10
0.0647195255
 20
-9.8583016793
 10
0.0695971241
 20
-9.8129285887
  0
LINE
  5
FA
330
DB
100
AcDbEntity
  8
0
  6
Continuous
 62
     7
370
    25
100
AcDbLine
 10
-7.594987351
 20
13.7992750201
 30
0.0
 11
-7.9708118213
 21
13.5823161715
 31
0.0
  0
LINE
  5
FB
330
DB
100
AcDbEntity
  8
0
  6
Continuous
 62
     7
370
    25
100
AcDbLine
 10
7.7759398737
 20
-13.6948133523
 30
0.0
 11
8.1517643441
 21
-13.4778545037
 31
0.0
  0
LINE
  5
FC
330
DB
100
AcDbEntity
  8
0
  6
Continuous
 62
     7
370
    25
100
AcDbLine
 10
-11.0937815867
 20
6.2918066098
 30
0.0
 11
-11.0937815867
 21
6.275735584
 31
0.0
  0
LINE
  5
FD
330
DB
100
AcDbEntity
  8
0
  6
Continuous
 62
     7
370
    25
100
AcDbLine
 10
-0.1131403517
 20
-12.7453539094
 30
0.0
 11
-0.0992231892
 21
-12.7533907283
 31
0.0
  0
LINE
  5
FE
330
DB
100
AcDbEntity
  8
0
  6
Continuous
 62
     7
370
    25
100
AcDbLine
 10
0.0362703985
 20
-9.9641900101
 30
0.0
 11
0.036548787
 21
-9.9640292999
 31
0.0
  0
LINE
  5
FF
330
DB
100
AcDbEntity
  8
0
  6
Continuous
 62
     7
370
    25
100
AcDbLine
 10
-0.2587028073
 20
-9.4525831213
 30
0.0
 11
-0.2589811958
 21
-9.4527438316
 31
0.0
  0
LINE
  5
100
330
DB
100
AcDbEntity
  8
0
  6
Continuous
 62
     7
370
    25
100
AcDbLine
 10
0.0165869589
 20
-9.9300935982
 30
0.0
 11
0.0168653474
 21
-9.929932888
 31
0.0
  0
LINE
  5
101
330
DB
100
AcDbEntity
  8
0
  6
Continuous
 62
     7
370
    25
100
AcDbLine
 10
-0.2390193676
 20
-9.4866795332
 30
0.0
 11
-0.2392977561
 21
-9.4868402435
 31
0.0
  0
ARC
  5
102
330
DB
100
AcDbEntity
  8
0
  6
Continuous
 62
     7
370
    25
100
AcDbCircle
 10
-0.0542669064
 20
-9.8271753231
 30
0.0
 40
0.1249756562803377
100
AcDbArc
 50
304.6922892564
 51
6.619891137
  0
VIEWPORT
  5
107
330
DB
100
AcDbEntity
  8
0
100
AcDbViewport
 10
0.0
 20
0.0
 30
0.0
 40
8.4
 41
6.4
 68
     1
 69
     1
 12
0.0
 22
0.0
 13
0.0
 23
0.0
 14
0.5
 24
0.5
 15
0.5
 25
0.5
 16
0.0
 26
0.0
 36
1.0
 17
0.0
 27
0.0
 37
0.0
 42
50.0
 43
0.0
 44
0.0
 45
32.125984252
 50
0.0
 51
0.0
 72
   100
 90
   557152
  1

281
     0
 71
     1
 74
     0
110
0.0
120
0.0
130
0.0
111
1.0
121
0.0
131
0.0
112
0.0
122
1.0
132
0.0
 79
     0
146
0.0
  0
ENDBLK
  5
DE
330
DB
100
AcDbEntity
  8
0
100
AcDbBlockEnd
  0
ENDSEC
  0
SECTION
  2
ENTITIES
  0
CIRCLE
  5
73
330
1F
100
AcDbEntity
  8
0
  6
Continuous
 62
     7
370
    25
100
AcDbCircle
 10
0.0
 20
-11.811023622
 30
0.0
 40
0.2559055118110242
  0
CIRCLE
  5
74
330
1F
100
AcDbEntity
  8
0
  6
Continuous
 62
     7
370
    25
100
AcDbCircle
 10
0.0
 20
0.0
 30
0.0
 40
15.53149606299212
  0
CIRCLE
  5
75
330
1F
100
AcDbEntity
  8
0
  6
Continuous
 62
     7
370
    25
100
AcDbCircle
 10
0.0
 20
-11.811023622
 30
0.0
 40
0.2952755905511807
  0
CIRCLE
  5
76
330
1F
100
AcDbEntity
  8
0
  6
Continuous
 62
     7
370
    25
100
AcDbCircle
 10
0.0
 20
0.0
 30
0.0
 40
15.55118110236224
  0
CIRCLE
  5
77
330
1F
100
AcDbEntity
  8
0
  6
Continuous
 62
     7
370
    25
100
AcDbCircle
 10
0.0
 20
0.0
 30
0.0
 40
15.74803149606298
  0
CIRCLE
  5
90
330
1B
100
AcDbEntity
 67
     1
  8
0
  6
Continuous
 62
     7
370
    25
100
AcDbCircle
 10
0.0
 20
0.0
 30
0.0
 40
15.29527559055118
  0
CIRCLE
  5
9D
330
1B
100
AcDbEntity
 67
     1
  8
0
  6
Continuous
 62
     7
370
    25
100
AcDbCircle
 10
0.0
 20
0.0
 30
0.0
 40
15.74803149606298
  0
LINE
  5
9E
330
1B
100
AcDbEntity
 67
     1
  8
0
  6
Continuous
 62
     7
370
    25
100
AcDbLine
 10
7.1312900915
 20
7.9335051662
 30
0.0
 11
7.367454026
 21
7.938673112
 31
0.0
  0
LINE
  5
9F
330
1B
100
AcDbEntity
 67
     1
  8
0
  6
Continuous
 62
     7
370
    25
100
AcDbLine
 10
7.1364580373
 20
7.6973412318
 30
0.0
 11
7.1312900915
 21
7.9335051662
 31
0.0
  0
LINE
  5
A0
330
1B
100
AcDbEntity
 67
     1
  8
0
  6
Continuous
 62
     7
370
    25
100
AcDbLine
 10
6.9002941028
 20
7.692173286
 30
0.0
 11
7.1364580373
 21
7.6973412318
 31
0.0
  0
LINE
  5
A1
330
1B
100
AcDbEntity
 67
     1
  8
0
  6
Continuous
 62
     7
370
    25
100
AcDbLine
 10
6.9054620486
 20
7.4560093515
 30
0.0
 11
6.9002941028
 21
7.692173286
 31
0.0
  0
LINE
  5
A2
330
1B
100
AcDbEntity
 67
     1
  8
0
  6
Continuous
 62
     7
370
    25
100
AcDbLine
 10
7.1416259831
 20
7.4611772973
 30
0.0
 11
6.9054620486
 21
7.4560093515
 31
0.0
  0
LINE
  5
A3
330
1B
100
AcDbEntity
 67
     1
  8
0
  6
Continuous
 62
     7
370
    25
100
AcDbLine
 10
7.1467939289
 20
7.2250133629
 30
0.0
 11
7.1416259831
 21
7.4611772973
 31
0.0
  0
LINE
  5
A4
330
1B
100
AcDbEntity
 67
     1
  8
0
  6
Continuous
 62
     7
370
    25
100
AcDbLine
 10
7.3829578633
 20
7.2301813086
 30
0.0
 11
7.1467939289
 21
7.2250133629
 31
0.0
  0
LINE
  5
A5
330
1B
100
AcDbEntity
 67
     1
  8
0
  6
Continuous
 62
     7
370
    25
100
AcDbLine
 10
7.3777899175
 20
7.4663452431
 30
0.0
 11
7.3829578633
 21
7.2301813086
 31
0.0
  0
LINE
  5
A6
330
1B
100
AcDbEntity
 67
     1
  8
0
  6
Continuous
 62
     7
370
    25
100
AcDbLine
 10
7.613953852
 20
7.4715131889
 30
0.0
 11
7.3777899175
 21
7.4663452431
 31
0.0
  0
LINE
  5
A7
330
1B
100
AcDbEntity
 67
     1
  8
0
  6
Continuous
 62
     7
370
    25
100
AcDbLine
 10
7.6087859062
 20
7.7076771233
 30
0.0
 11
7.613953852
 21
7.4715131889
 31
0.0
  0
LINE
  5
A8
330
1B
100
AcDbEntity
 67
     1
  8
0
  6
Continuous
 62
     7
370
    25
100
AcDbLine
 10
7.3726219717
 20
7.7025091775
 30
0.0
 11
7.6087859062
 21
7.7076771233
 31
0.0
  0
LINE
  5
A9
330
1B
100
AcDbEntity
 67
     1
  8
0
  6
Continuous
 62
     7
370
    25
100
AcDbLine
 10
7.367454026
 20
7.938673112
 30
0.0
 11
7.3726219717
 21
7.7025091775
 31
0.0
  0
LINE
  5
AA
330
1B
100
AcDbEntity
 67
     1
  8
0
  6
Continuous
 62
     7
370
    25
100
AcDbLine
 10
-7.938673112
 20
7.367454026
 30
0.0
 11
-7.9335051662
 21
7.1312900915
 31
0.0
  0
LINE
  5
AB
330
1B
100
AcDbEntity
 67
     1
  8
0
  6
Continuous
 62
     7
370
    25
100
AcDbLine
 10
-7.9335051662
 20
7.1312900915
 30
0.0
 11
-7.6973412318
 21
7.1364580373
 31
0.0
  0
LINE
  5
AC
330
1B
100
AcDbEntity
 67
     1
  8
0
  6
Continuous
 62
     7
370
    25
100
AcDbLine
 10
-7.6973412318
 20
7.1364580373
 30
0.0
 11
-7.692173286
 21
6.9002941028
 31
0.0
  0
LINE
  5
AD
330
1B
100
AcDbEntity
 67
     1
  8
0
  6
Continuous
 62
     7
370
    25
100
AcDbLine
 10
-7.692173286
 20
6.9002941028
 30
0.0
 11
-7.4560093515
 21
6.9054620486
 31
0.0
  0
LINE
  5
AE
330
1B
100
AcDbEntity
 67
     1
  8
0
  6
Continuous
 62
     7
370
    25
100
AcDbLine
 10
-7.4560093515
 20
6.9054620486
 30
0.0
 11
-7.4611772973
 21
7.1416259831
 31
0.0
  0
LINE
  5
AF
330
1B
100
AcDbEntity
 67
     1
  8
0
  6
Continuous
 62
     7
370
    25
100
AcDbLine
 10
-7.4611772973
 20
7.1416259831
 30
0.0
 11
-7.2250133629
 21
7.1467939289
 31
0.0
  0
LINE
  5
B0
330
1B
100
AcDbEntity
 67
     1
  8
0
  6
Continuous
 62
     7
370
    25
100
AcDbLine
 10
-7.2250133629
 20
7.1467939289
 30
0.0
 11
-7.2301813086
 21
7.3829578633
 31
0.0
  0
LINE
  5
B1
330
1B
100
AcDbEntity
 67
     1
  8
0
  6
Continuous
 62
     7
370
    25
100
AcDbLine
 10
-7.2301813086
 20
7.3829578633
 30
0.0
 11
-7.4663452431
 21
7.3777899175
 31
0.0
  0
LINE
  5
B2
330
1B
100
AcDbEntity
 67
     1
  8
0
  6
Continuous
 62
     7
370
    25
100
AcDbLine
 10
-7.4663452431
 20
7.3777899175
 30
0.0
 11
-7.4715131889
 21
7.613953852
 31
0.0
  0
LINE
  5
B3
330
1B
100
AcDbEntity
 67
     1
  8
0
  6
Continuous
 62
     7
370
    25
100
AcDbLine
 10
-7.4715131889
 20
7.613953852
 30
0.0
 11
-7.7076771233
 21
7.6087859062
 31
0.0
  0
LINE
  5
B4
330
1B
100
AcDbEntity
 67
     1
  8
0
  6
Continuous
 62
     7
370
    25
100
AcDbLine
 10
-7.7076771233
 20
7.6087859062
 30
0.0
 11
-7.7025091775
 21
7.3726219717
 31
0.0
  0
LINE
  5
B5
330
1B
100
AcDbEntity
 67
     1
  8
0
  6
Continuous
 62
     7
370
    25
100
AcDbLine
 10
-7.7025091775
 20
7.3726219717
 30
0.0
 11
-7.938673112
 21
7.367454026
 31
0.0
  0
LINE
  5
B6
330
1B
100
AcDbEntity
 67
     1
  8
0
  6
Continuous
 62
     7
370
    25
100
AcDbLine
 10
-2.011099002
 20
1.9249665723
 30
0.0
 11
-1.9249665723
 21
-2.011099002
 31
0.0
  0
LINE
  5
B7
330
1B
100
AcDbEntity
 67
     1
  8
0
  6
Continuous
 62
     7
370
    25
100
AcDbLine
 10
-1.9249665723
 20
-2.011099002
 30
0.0
 11
2.011099002
 21
-1.9249665723
 31
0.0
  0
LINE
  5
B8
330
1B
100
AcDbEntity
 67
     1
  8
0
  6
Continuous
 62
     7
370
    25
100
AcDbLine
 10
2.011099002
 20
-1.9249665723
 30
0.0
 11
1.9249665723
 21
2.011099002
 31
0.0
  0
LINE
  5
B9
330
1B
100
AcDbEntity
 67
     1
  8
0
  6
Continuous
 62
     7
370
    25
100
AcDbLine
 10
1.9249665723
 20
2.011099002
 30
0.0
 11
-2.011099002
 21
1.9249665723
 31
0.0
  0
LINE
  5
BA
330
1B
100
AcDbEntity
 67
     1
  8
0
  6
Continuous
 62
     7
370
    25
100
AcDbLine
 10
7.1459326046
 20
7.2643740186
 30
0.0
 11
7.382096539
 21
7.2695419644
 31
0.0
  0
LINE
  5
BB
330
1B
100
AcDbEntity
 67
     1
  8
0
  6
Continuous
 62
     7
370
    25
100
AcDbLine
 10
7.3683153503
 20
7.8993124563
 30
0.0
 11
7.1321514158
 21
7.8941445105
 31
0.0
  0
LINE
  5
BC
330
1B
100
AcDbEntity
 67
     1
  8
0
  6
Continuous
 62
     7
370
    25
100
AcDbLine
 10
-7.8941445105
 20
7.1321514158
 30
0.0
 11
-7.8993124563
 21
7.3683153503
 31
0.0
  0
LINE
  5
BD
330
1B
100
AcDbEntity
 67
     1
  8
0
  6
Continuous
 62
     7
370
    25
100
AcDbLine
 10
7.5745931962
 20
7.4706518646
 30
0.0
 11
7.5694252505
 21
7.706815799
 31
0.0
  0
LINE
  5
BE
330
1B
100
AcDbEntity
 67
     1
  8
0
  6
Continuous
 62
     7
370
    25
100
AcDbLine
 10
-7.706815799
 20
7.5694252505
 30
0.0
 11
-7.4706518646
 21
7.5745931962
 31
0.0
  0
LINE
  5
BF
330
1B
100
AcDbEntity
 67
     1
  8
0
  6
Continuous
 62
     7
370
    25
100
AcDbLine
 10
-7.4568706758
 20
6.9448227044
 30
0.0
 11
-7.6930346103
 21
6.9396547586
 31
0.0
  0
LINE
  5
C0
330
1B
100
AcDbEntity
 67
     1
  8
0
  6
Continuous
 62
     7
370
    25
100
AcDbLine
 10
-7.2695419644
 20
7.382096539
 30
0.0
 11
-7.2643740186
 21
7.1459326046
 31
0.0
  0
LINE
  5
C1
330
1B
100
AcDbEntity
 67
     1
  8
0
  6
Continuous
 62
     7
370
    25
100
AcDbLine
 10
6.9396547586
 20
7.6930346103
 30
0.0
 11
6.9448227044
 21
7.4568706758
 31
0.0
  0
VIEWPORT
  5
103
330
1B
100
AcDbEntity
 67
     1
  8
0
100
AcDbViewport
 10
0.0
 20
0.0
 30
0.0
 40
8.4
 41
6.4
 68
     1
 69
     1
 12
0.0
 22
0.0
 13
0.0
 23
0.0
 14
0.5
 24
0.5
 15
0.5
 25
0.5
 16
0.0
 26
0.0
 36
1.0
 17
0.0
 27
0.0
 37
0.0
 42
50.0
 43
0.0
 44
0.0
 45
32.125984252
 50
0.0
 51
0.0
 72
   100
 90
   557152
  1

281
     0
 71
     1
 74
     0
110
0.0
120
0.0
130
0.0
111
1.0
121
0.0
131
0.0
112
0.0
122
1.0
132
0.0
 79
     0
146
0.0
  0
ENDSEC
  0
SECTION
  2
OBJECTS
  0
DICTIONARY
  5
C
330
0
100
AcDbDictionary
281
     1
  3
ACAD_GROUP
350
D
  3
ACAD_LAYOUT
350
1A
  3
ACAD_MLINESTYLE
350
17
  3
ACAD_PLOTSETTINGS
350
19
  3
ACAD_PLOTSTYLENAME
350
E
  3
ACAD_SCALELIST
350
47
  0
DICTIONARY
  5
D
102
{ACAD_REACTORS
330
C
102
}
330
C
100
AcDbDictionary
281
     1
  0
DICTIONARY
  5
1A
102
{ACAD_REACTORS
330
C
102
}
330
C
100
AcDbDictionary
281
     1
  3
_Back
350
1E
  3
_Isometric
350
DC
  3
_Left
350
26
  3
Model
350
22
  0
DICTIONARY
  5
17
102
{ACAD_REACTORS
330
C
102
}
330
C
100
AcDbDictionary
281
     1
  3
Standard
350
18
  0
DICTIONARY
  5
19
102
{ACAD_REACTORS
330
C
102
}
330
C
100
AcDbDictionary
281
     1
  0
ACDBDICTIONARYWDFLT
  5
E
102
{ACAD_REACTORS
330
C
102
}
330
C
100
AcDbDictionary
281
     1
  3
Normal
350
F
100
AcDbDictionaryWithDefault
340
F
  0
DICTIONARY
  5
47
102
{ACAD_REACTORS
330
C
102
}
330
C
100
AcDbDictionary
281
     1
  3
A0
350
48
  3
A1
350
49
  3
A2
350
4A
  3
A3
350
4B
  3
A4
350
4C
  3
A5
350
4D
  3
A6
350
4E
  3
A7
350
4F
  3
A8
350
50
  3
A9
350
51
  3
B0
350
52
  3
B1
350
53
  3
B2
350
54
  3
B3
350
55
  3
B4
350
56
  3
B5
350
57
  3
B6
350
58
  3
B7
350
59
  3
B8
350
5A
  3
B9
350
5B
  3
C0
350
5C
  3
C1
350
5D
  3
C2
350
5E
  3
C3
350
5F
  3
C4
350
60
  3
C5
350
61
  3
C6
350
62
  3
C7
350
63
  3
C8
350
64
  3
C9
350
65
  3
D0
350
66
  3
D1
350
67
  3
D2
350
68
  0
LAYOUT
  5
1E
102
{ACAD_REACTORS
330
1A
102
}
330
1A
100
AcDbPlotSettings
  1

  2
none_device
  4
Letter_(8.50_x_11.00_Inches)
  6

 40
6.35
 41
6.35
 42
6.35001
 43
6.35001
 44
215.9
 45
279.4
 46
0.0
 47
0.0
 48
0.0
 49
0.0
140
0.0
141
0.0
142
1.0
143
3.9370080678
 70
   688
 72
     0
 73
     1
 74
     1
  7

 75
     0
147
0.2539999875
148
400.0
149
400.0
100
AcDbLayout
  1
_Back
 70
     1
 71
     1
 10
-16.732285063
 20
-16.732283513
 11
26.5748036824
 21
16.732285063
 12
0.0
 22
0.0
 32
0.0
 14
-15.7480314961
 24
-15.7480314961
 34
0.0
 15
15.7480314961
 25
15.7480314961
 35
0.0
146
0.0
 13
0.0
 23
0.0
 33
0.0
 16
1.0
 26
0.0
 36
0.0
 17
0.0
 27
1.0
 37
0.0
 76
     0
330
1B
331
103
  0
LAYOUT
  5
DC
102
{ACAD_REACTORS
330
1A
102
}
330
1A
100
AcDbPlotSettings
  1

  2
none_device
  4
Letter_(8.50_x_11.00_Inches)
  6

 40
6.35
 41
6.35
 42
6.35001
 43
6.35001
 44
215.9
 45
279.4
 46
0.0
 47
0.0
 48
0.0
 49
0.0
140
0.0
141
0.0
142
1.0
143
3.9370080678
 70
   688
 72
     0
 73
     1
 74
     1
  7

 75
     0
147
0.2539999875
148
400.0
149
400.0
100
AcDbLayout
  1
_Isometric
 70
     1
 71
     3
 10
0.0
 20
0.0
 11
0.0
 21
0.0
 12
0.0
 22
0.0
 32
0.0
 14
0.0
 24
0.0
 34
0.0
 15
0.0
 25
0.0
 35
0.0
146
0.0
 13
0.0
 23
0.0
 33
0.0
 16
1.0
 26
0.0
 36
0.0
 17
0.0
 27
1.0
 37
0.0
 76
     0
330
DB
331
107
  0
LAYOUT
  5
26
102
{ACAD_REACTORS
330
1A
102
}
330
1A
100
AcDbPlotSettings
  1

  2
none_device
  4
Letter_(8.50_x_11.00_Inches)
  6

 40
6.35
 41
6.35
 42
6.35001
 43
6.35001
 44
215.9
 45
279.4
 46
0.0
 47
0.0
 48
0.0
 49
0.0
140
0.0
141
0.0
142
1.0
143
3.9370080678
 70
   688
 72
     0
 73
     1
 74
     1
  7

 75
     0
147
0.2539999875
148
400.0
149
400.0
100
AcDbLayout
  1
_Left
 70
     1
 71
     2
 10
0.0
 20
0.0
 11
0.0
 21
0.0
 12
0.0
 22
0.0
 32
0.0
 14
0.0
 24
0.0
 34
0.0
 15
0.0
 25
0.0
 35
0.0
146
0.0
 13
0.0
 23
0.0
 33
0.0
 16
1.0
 26
0.0
 36
0.0
 17
0.0
 27
1.0
 37
0.0
 76
     0
330
23
331
105
  0
LAYOUT
  5
22
102
{ACAD_REACTORS
330
1A
102
}
330
1A
100
AcDbPlotSettings
  1

  2
none_device
  4
ANSI_A_(11.00_x_8.50_Inches)
  6

 40
6.35
 41
19.05
 42
6.35000508
 43
19.05000254
 44
279.4
 45
215.9
 46
133.34999746
 47
88.89999873
 48
0.0
 49
0.0
140
0.0
141
0.0
142
0.26717625
143
1.0
 70
  1696
 72
     0
 73
     0
 74
     0
  7

 75
     0
147
0.5913241897
148
-39.4088153714
149
0.0
100
AcDbLayout
  1
Model
 70
     1
 71
     0
 10
0.0
 20
0.0
 11
12.0
 21
9.0
 12
0.0
 22
0.0
 32
0.0
 14
-15.7480314961
 24
-15.7480314961
 34
0.0
 15
15.7480314961
 25
15.7480314961
 35
0.0
146
0.0
 13
0.0
 23
0.0
 33
0.0
 16
1.0
 26
0.0
 36
0.0
 17
0.0
 27
1.0
 37
0.0
 76
     0
330
1F
331
29
  0
MLINESTYLE
  5
18
102
{ACAD_REACTORS
330
17
102
}
330
17
100
AcDbMlineStyle
  2
Standard
 70
     0
  3

 62
   256
 51
90.0
 52
90.0
 71
     2
 49
0.5
 62
   256
  6
BYLAYER
 49
-0.5
 62
   256
  6
BYLAYER
  0
ACDBPLACEHOLDER
  5
F
102
{ACAD_REACTORS
330
E
102
}
330
E
  0
SCALE
  5
48
102
{ACAD_REACTORS
330
47
102
}
330
47
100
AcDbScale
 70
     0
300
1:1
140
1.0
141
1.0
290
     1
  0
SCALE
  5
49
102
{ACAD_REACTORS
330
47
102
}
330
47
100
AcDbScale
 70
     0
300
1:2
140
1.0
141
2.0
290
     0
  0
SCALE
  5
4A
102
{ACAD_REACTORS
330
47
102
}
330
47
100
AcDbScale
 70
     0
300
1:4
140
1.0
141
4.0
290
     0
  0
SCALE
  5
4B
102
{ACAD_REACTORS
330
47
102
}
330
47
100
AcDbScale
 70
     0
300
1:5
140
1.0
141
5.0
290
     0
  0
SCALE
  5
4C
102
{ACAD_REACTORS
330
47
102
}
330
47
100
AcDbScale
 70
     0
300
1:8
140
1.0
141
8.0
290
     0
  0
SCALE
  5
4D
102
{ACAD_REACTORS
330
47
102
}
330
47
100
AcDbScale
 70
     0
300
1:10
140
1.0
141
10.0
290
     0
  0
SCALE
  5
4E
102
{ACAD_REACTORS
330
47
102
}
330
47
100
AcDbScale
 70
     0
300
1:16
140
1.0
141
16.0
290
     0
  0
SCALE
  5
4F
102
{ACAD_REACTORS
330
47
102
}
330
47
100
AcDbScale
 70
     0
300
1:20
140
1.0
141
20.0
290
     0
  0
SCALE
  5
50
102
{ACAD_REACTORS
330
47
102
}
330
47
100
AcDbScale
 70
     0
300
1:30
140
1.0
141
30.0
290
     0
  0
SCALE
  5
51
102
{ACAD_REACTORS
330
47
102
}
330
47
100
AcDbScale
 70
     0
300
1:40
140
1.0
141
40.0
290
     0
  0
SCALE
  5
52
102
{ACAD_REACTORS
330
47
102
}
330
47
100
AcDbScale
 70
     0
300
1:50
140
1.0
141
50.0
290
     0
  0
SCALE
  5
53
102
{ACAD_REACTORS
330
47
102
}
330
47
100
AcDbScale
 70
     0
300
1:100
140
1.0
141
100.0
290
     0
  0
SCALE
  5
54
102
{ACAD_REACTORS
330
47
102
}
330
47
100
AcDbScale
 70
     0
300
2:1
140
2.0
141
1.0
290
     0
  0
SCALE
  5
55
102
{ACAD_REACTORS
330
47
102
}
330
47
100
AcDbScale
 70
     0
300
4:1
140
4.0
141
1.0
290
     0
  0
SCALE
  5
56
102
{ACAD_REACTORS
330
47
102
}
330
47
100
AcDbScale
 70
     0
300
8:1
140
8.0
141
1.0
290
     0
  0
SCALE
  5
57
102
{ACAD_REACTORS
330
47
102
}
330
47
100
AcDbScale
 70
     0
300
10:1
140
10.0
141
1.0
290
     0
  0
SCALE
  5
58
102
{ACAD_REACTORS
330
47
102
}
330
47
100
AcDbScale
 70
     0
300
100:1
140
100.0
141
1.0
290
     0
  0
SCALE
  5
59
102
{ACAD_REACTORS
330
47
102
}
330
47
100
AcDbScale
 70
     0
300
1/128" = 1'-0"
140
0.0078125
141
12.0
290
     0
  0
SCALE
  5
5A
102
{ACAD_REACTORS
330
47
102
}
330
47
100
AcDbScale
 70
     0
300
1/64" = 1'-0"
140
0.015625
141
12.0
290
     0
  0
SCALE
  5
5B
102
{ACAD_REACTORS
330
47
102
}
330
47
100
AcDbScale
 70
     0
300
1/32" = 1'-0"
140
0.03125
141
12.0
290
     0
  0
SCALE
  5
5C
102
{ACAD_REACTORS
330
47
102
}
330
47
100
AcDbScale
 70
     0
300
1/16" = 1'-0"
140
0.0625
141
12.0
290
     0
  0
SCALE
  5
5D
102
{ACAD_REACTORS
330
47
102
}
330
47
100
AcDbScale
 70
     0
300
3/32" = 1'-0"
140
0.09375
141
12.0
290
     0
  0
SCALE
  5
5E
102
{ACAD_REACTORS
330
47
102
}
330
47
100
AcDbScale
 70
     0
300
1/8" = 1'-0"
140
0.125
141
12.0
290
     0
  0
SCALE
  5
5F
102
{ACAD_REACTORS
330
47
102
}
330
47
100
AcDbScale
 70
     0
300
3/16" = 1'-0"
140
0.1875
141
12.0
290
     0
  0
SCALE
  5
60
102
{ACAD_REACTORS
330
47
102
}
330
47
100
AcDbScale
 70
     0
300
1/4" = 1'-0"
140
0.25
141
12.0
290
     0
  0
SCALE
  5
61
102
{ACAD_REACTORS
330
47
102
}
330
47
100
AcDbScale
 70
     0
300
3/8" = 1'-0"
140
0.375
141
12.0
290
     0
  0
SCALE
  5
62
102
{ACAD_REACTORS
330
47
102
}
330
47
100
AcDbScale
 70
     0
300
1/2" = 1'-0"
140
0.5
141
12.0
290
     0
  0
SCALE
  5
63
102
{ACAD_REACTORS
330
47
102
}
330
47
100
AcDbScale
 70
     0
300
3/4" = 1'-0"
140
0.75
141
12.0
290
     0
  0
SCALE
  5
64
102
{ACAD_REACTORS
330
47
102
}
330
47
100
AcDbScale
 70
     0
300
1" = 1'-0"
140
1.0
141
12.0
290
     0
  0
SCALE
  5
65
102
{ACAD_REACTORS
330
47
102
}
330
47
100
AcDbScale
 70
     0
300
1-1/2" = 1'-0"
140
1.5
141
12.0
290
     0
  0
SCALE
  5
66
102
{ACAD_REACTORS
330
47
102
}
330
47
100
AcDbScale
 70
     0
300
3" = 1'-0"
140
3.0
141
12.0
290
     0
  0
SCALE
  5
67
102
{ACAD_REACTORS
330
47
102
}
330
47
100
AcDbScale
 70
     0
300
6" = 1'-0"
140
6.0
141
12.0
290
     0
  0
SCALE
  5
68
102
{ACAD_REACTORS
330
47
102
}
330
47
100
AcDbScale
 70
     0
300
1'-0" = 1'-0"
140
12.0
141
12.0
290
     0
  0
ENDSEC
  0
EOF
