  0
SECTION
  2
HEADER
  9
$ACADVER
  1
AC1015
  9
$ACADMAINTVER
 70
     6
  9
$DWGCODEPAGE
  3
ANSI_1252
  9
$INSBASE
 10
0.0
 20
0.0
 30
0.0
  9
$EXTMIN
 10
-9.842519685
 20
-9.842519685
 30
0.0
  9
$EXTMAX
 10
9.842519685
 20
9.842519685
 30
0.0
  9
$LIMMIN
 10
0.0
 20
0.0
  9
$LIMMAX
 10
12.0
 20
9.0
  9
$ORTHOMODE
 70
     0
  9
$REGENMODE
 70
     1
  9
$FILLMODE
 70
     1
  9
$QTEXTMODE
 70
     0
  9
$MIRRTEXT
 70
     1
  9
$LTSCALE
 40
1.0
  9
$ATTMODE
 70
     1
  9
$TEXTSIZE
 40
0.1377952756
  9
$TRACEWID
 40
0.05
  9
$TEXTSTYLE
  7
Standard
  9
$CLAYER
  8
0
  9
$CELTYPE
  6
ByLayer
  9
$CECOLOR
 62
   256
  9
$CELTSCALE
 40
1.0
  9
$DISPSILH
 70
     0
  9
$DIMSCALE
 40
1.0
  9
$DIMASZ
 40
0.13
  9
$DIMEXO
 40
0.0393700787
  9
$DIMDLI
 40
0.38
  9
$DIMRND
 40
0.0
  9
$DIMDLE
 40
0.0
  9
$DIMEXE
 40
0.0393700787
  9
$DIMTP
 40
0.0
  9
$DIMTM
 40
0.0
  9
$DIMTXT
 40
0.1377952756
  9
$DIMCEN
 40
0.09
  9
$DIMTSZ
 40
0.0
  9
$DIMTOL
 70
     0
  9
$DIMLIM
 70
     0
  9
$DIMTIH
 70
     1
  9
$DIMTOH
 70
     1
  9
$DIMSE1
 70
     0
  9
$DIMSE2
 70
     0
  9
$DIMTAD
 70
     1
  9
$DIMZIN
 70
     1
  9
$DIMBLK
  1

  9
$DIMASO
 70
     1
  9
$DIMSHO
 70
     1
  9
$DIMPOST
  1

  9
$DIMAPOST
  1

  9
$DIMALT
 70
     0
  9
$DIMALTD
 70
     2
  9
$DIMALTF
 40
25.4
  9
$DIMLFAC
 40
1.0
  9
$DIMTOFL
 70
     0
  9
$DIMTVP
 40
0.0
  9
$DIMTIX
 70
     0
  9
$DIMSOXD
 70
     0
  9
$DIMSAH
 70
     0
  9
$DIMBLK1
  1

  9
$DIMBLK2
  1

  9
$DIMSTYLE
  2
Standard
  9
$DIMCLRD
 70
     0
  9
$DIMCLRE
 70
     0
  9
$DIMCLRT
 70
     0
  9
$DIMTFAC
 40
1.0
  9
$DIMGAP
 40
0.06
  9
$DIMJUST
 70
     0
  9
$DIMSD1
 70
     0
  9
$DIMSD2
 70
     0
  9
$DIMTOLJ
 70
     1
  9
$DIMTZIN
 70
     1
  9
$DIMALTZ
 70
     0
  9
$DIMALTTZ
 70
     0
  9
$DIMUPT
 70
     0
  9
$DIMDEC
 70
     2
  9
$DIMTDEC
 70
     2
  9
$DIMALTU
 70
     2
  9
$DIMALTTD
 70
     2
  9
$DIMTXSTY
  7
Standard
  9
$DIMAUNIT
 70
     0
  9
$DIMADEC
 70
     2
  9
$DIMALTRND
 40
0.0
  9
$DIMAZIN
 70
     0
  9
$DIMDSEP
 70
    46
  9
$DIMATFIT
 70
     3
  9
$DIMFRAC
 70
     0
  9
$DIMLDRBLK
  1

  9
$DIMLUNIT
 70
     2
  9
$DIMLWD
 70
    -2
  9
$DIMLWE
 70
    -2
  9
$DIMTMOVE
 70
     0
  9
$LUNITS
 70
     2
  9
$LUPREC
 70
     2
  9
$SKETCHINC
 40
0.1
  9
$FILLETRAD
 40
0.5
  9
$AUNITS
 70
     0
  9
$AUPREC
 70
     2
  9
$MENU
  1
.
  9
$ELEVATION
 40
0.0
  9
$PELEVATION
 40
0.0
  9
$THICKNESS
 40
0.0
  9
$LIMCHECK
 70
     0
  9
$CHAMFERA
 40
0.0
  9
$CHAMFERB
 40
0.0
  9
$CHAMFERC
 40
0.0
  9
$CHAMFERD
 40
0.0
  9
$SKPOLY
 70
     0
  9
$TDCREATE
 40
2459556.534475127
  9
$TDUCREATE
 40
2459556.534475127
  9
$TDUPDATE
 40
2459556.53449272
  9
$TDUUPDATE
 40
2459556.53449272
  9
$TDINDWG
 40
0.0000000116
  9
$TDUSRTIMER
 40
0.0000000116
  9
$USRTIMER
 70
     1
  9
$ANGBASE
 50
0.0
  9
$ANGDIR
 70
     0
  9
$PDMODE
 70
     0
  9
$PDSIZE
 40
-1.0
  9
$PLINEWID
 40
0.0
  9
$SPLFRAME
 70
     0
  9
$SPLINETYPE
 70
     6
  9
$SPLINESEGS
 70
     8
  9
$HANDSEED
  5
109
  9
$SURFTAB1
 70
     6
  9
$SURFTAB2
 70
     6
  9
$SURFTYPE
 70
     6
  9
$SURFU
 70
     6
  9
$SURFV
 70
     6
  9
$UCSBASE
  2

  9
$UCSNAME
  2

  9
$UCSORG
 10
0.0
 20
0.0
 30
0.0
  9
$UCSXDIR
 10
1.0
 20
0.0
 30
0.0
  9
$UCSYDIR
 10
0.0
 20
1.0
 30
0.0
  9
$UCSORTHOREF
  2

  9
$UCSORTHOVIEW
 70
     0
  9
$UCSORGTOP
 10
0.0
 20
0.0
 30
0.0
  9
$UCSORGBOTTOM
 10
0.0
 20
0.0
 30
0.0
  9
$UCSORGLEFT
 10
0.0
 20
0.0
 30
0.0
  9
$UCSORGRIGHT
 10
0.0
 20
0.0
 30
0.0
  9
$UCSORGFRONT
 10
0.0
 20
0.0
 30
0.0
  9
$UCSORGBACK
 10
0.0
 20
0.0
 30
0.0
  9
$PUCSBASE
  2

  9
$PUCSNAME
  2

  9
$PUCSORG
 10
0.0
 20
0.0
 30
0.0
  9
$PUCSXDIR
 10
1.0
 20
0.0
 30
0.0
  9
$PUCSYDIR
 10
0.0
 20
1.0
 30
0.0
  9
$PUCSORTHOREF
  2

  9
$PUCSORTHOVIEW
 70
     0
  9
$PUCSORGTOP
 10
0.0
 20
0.0
 30
0.0
  9
$PUCSORGBOTTOM
 10
0.0
 20
0.0
 30
0.0
  9
$PUCSORGLEFT
 10
0.0
 20
0.0
 30
0.0
  9
$PUCSORGRIGHT
 10
0.0
 20
0.0
 30
0.0
  9
$PUCSORGFRONT
 10
0.0
 20
0.0
 30
0.0
  9
$PUCSORGBACK
 10
0.0
 20
0.0
 30
0.0
  9
$USERI1
 70
     0
  9
$USERI2
 70
     0
  9
$USERI3
 70
     0
  9
$USERI4
 70
     0
  9
$USERI5
 70
     0
  9
$USERR1
 40
0.0
  9
$USERR2
 40
0.0
  9
$USERR3
 40
0.0
  9
$USERR4
 40
0.0
  9
$USERR5
 40
0.0
  9
$WORLDVIEW
 70
     1
  9
$SHADEDGE
 70
     3
  9
$SHADEDIF
 70
    70
  9
$TILEMODE
 70
     1
  9
$MAXACTVP
 70
    64
  9
$PINSBASE
 10
0.0
 20
0.0
 30
0.0
  9
$PLIMCHECK
 70
     0
  9
$PEXTMIN
 10
-9.842519685
 20
-9.842519685
 30
0.0
  9
$PEXTMAX
 10
9.842519685
 20
9.842519685
 30
0.0
  9
$PLIMMIN
 10
-10.4576781644
 20
-10.4576771956
  9
$PLIMMAX
 10
16.6092523015
 20
10.4576781644
  9
$UNITMODE
 70
     0
  9
$VISRETAIN
 70
     1
  9
$PLINEGEN
 70
     0
  9
$PSLTSCALE
 70
     1
  9
$TREEDEPTH
 70
  3020
  9
$CMLSTYLE
  2
Standard
  9
$CMLJUST
 70
     0
  9
$CMLSCALE
 40
1.0
  9
$PROXYGRAPHICS
 70
     1
  9
$MEASUREMENT
 70
     0
  9
$CELWEIGHT
370
    -1
  9
$ENDCAPS
280
     0
  9
$JOINSTYLE
280
     0
  9
$LWDISPLAY
290
     1
  9
$INSUNITS
 70
     1
  9
$HYPERLINKBASE
  1

  9
$STYLESHEET
  1

  9
$XEDIT
290
     1
  9
$CEPSNTYPE
380
     0
  9
$PSTYLEMODE
290
     1
  9
$FINGERPRINTGUID
  2
{4b839705-9180-4f98-bc83-6a192243944c}
  9
$VERSIONGUID
  2
{FAEB1C32-E019-11D5-929B-00C0DF256EC4}
  9
$EXTNAMES
290
     1
  9
$PSVPSCALE
 40
0.0
  9
$OLESTARTUP
290
     0
  0
ENDSEC
  0
SECTION
  2
CLASSES
  0
CLASS
  1
ACDBDICTIONARYWDFLT
  2
AcDbDictionaryWithDefault
  3
ObjectDBX Classes
 90
        0
280
     0
281
     0
  0
CLASS
  1
VISUALSTYLE
  2
AcDbVisualStyle
  3
ObjectDBX Classes
 90
     4095
280
     0
281
     0
  0
CLASS
  1
MATERIAL
  2
AcDbMaterial
  3
ObjectDBX Classes
 90
     1153
280
     0
281
     0
  0
CLASS
  1
SCALE
  2
AcDbScale
  3
ObjectDBX Classes
 90
     1153
280
     0
281
     0
  0
CLASS
  1
TABLESTYLE
  2
AcDbTableStyle
  3
ObjectDBX Classes
 90
     4095
280
     0
281
     0
  0
CLASS
  1
MLEADERSTYLE
  2
AcDbMLeaderStyle
  3
ACDB_MLEADERSTYLE_CLASS
 90
     4095
280
     0
281
     0
  0
CLASS
  1
SUN
  2
AcDbSun
  3
SCENEOE
 90
     1153
280
     0
281
     0
  0
CLASS
  1
ACDBPLACEHOLDER
  2
AcDbPlaceHolder
  3
ObjectDBX Classes
 90
        0
280
     0
281
     0
  0
CLASS
  1
LAYOUT
  2
AcDbLayout
  3
ObjectDBX Classes
 90
        0
280
     0
281
     0
  0
ENDSEC
  0
SECTION
  2
TABLES
  0
TABLE
  2
VPORT
  5
8
330
0
100
AcDbSymbolTable
 70
     1
  0
VPORT
  5
29
330
8
100
AcDbSymbolTableRecord
100
AcDbViewportTableRecord
  2
*Active
 70
     0
 10
0.0
 20
0.0
 11
1.0
 21
1.0
 12
0.0
 22
0.0
 13
0.0
 23
0.0
 14
0.5
 24
0.5
 15
0.5
 25
0.5
 16
0.0
 26
0.0
 36
1.0
 17
0.0
 27
0.0
 37
0.0
 40
20.0787401575
 41
1.0
 42
50.0
 43
0.0
 44
0.0
 50
0.0
 51
0.0
 71
     0
 72
   100
 73
     1
 74
     3
 75
     0
 76
     0
 77
     0
 78
     0
281
     0
 65
     1
110
0.0
120
0.0
130
0.0
111
1.0
121
0.0
131
0.0
112
0.0
122
1.0
132
0.0
 79
     0
146
0.0
  0
ENDTAB
  0
TABLE
  2
LTYPE
  5
5
330
0
100
AcDbSymbolTable
 70
     6
  0
LTYPE
  5
14
330
5
100
AcDbSymbolTableRecord
100
AcDbLinetypeTableRecord
  2
ByBlock
 70
     0
  3

 72
    65
 73
     0
 40
0.0
  0
LTYPE
  5
15
330
5
100
AcDbSymbolTableRecord
100
AcDbLinetypeTableRecord
  2
ByLayer
 70
     0
  3

 72
    65
 73
     0
 40
0.0
  0
LTYPE
  5
16
330
5
100
AcDbSymbolTableRecord
100
AcDbLinetypeTableRecord
  2
Continuous
 70
     0
  3
Solid line
 72
    65
 73
     0
 40
0.0
  0
LTYPE
  5
6E
330
5
100
AcDbSymbolTableRecord
100
AcDbLinetypeTableRecord
  2
HIDDEN
 70
     0
  3
Hidden __ __ __ __ __ __ __ __ __ __ __ __ __ __
 72
    65
 73
     2
 40
0.075
 49
0.05
 74
     0
 49
-0.025
 74
     0
  0
LTYPE
  5
6F
330
5
100
AcDbSymbolTableRecord
100
AcDbLinetypeTableRecord
  2
PHANTOM
 70
     0
  3
Phantom ______  __  __  ______  __  __  ______
 72
    65
 73
     6
 40
0.5
 49
0.25
 74
     0
 49
-0.05
 74
     0
 49
0.05
 74
     0
 49
-0.05
 74
     0
 49
0.05
 74
     0
 49
-0.05
 74
     0
  0
LTYPE
  5
70
330
5
100
AcDbSymbolTableRecord
100
AcDbLinetypeTableRecord
  2
CENTER
 70
     0
  3
Center ____ _ ____ _ ____ _ ____ _ ____ _ ____
 72
    65
 73
     4
 40
0.4
 49
0.25
 74
     0
 49
-0.05
 74
     0
 49
0.05
 74
     0
 49
-0.05
 74
     0
  0
LTYPE
  5
71
330
5
100
AcDbSymbolTableRecord
100
AcDbLinetypeTableRecord
  2
CENTERX2
 70
     0
  3
Center (2x) ________  __  ________  __  _____
 72
    65
 73
     4
 40
0.8
 49
0.5
 74
     0
 49
-0.1
 74
     0
 49
0.1
 74
     0
 49
-0.1
 74
     0
  0
LTYPE
  5
72
330
5
100
AcDbSymbolTableRecord
100
AcDbLinetypeTableRecord
  2
DOT2
 70
     0
  3
Dot (.5x) ........................................
 72
    65
 73
     2
 40
0.025
 49
0.0
 74
     0
 49
-0.025
 74
     0
  0
ENDTAB
  0
TABLE
  2
LAYER
  5
2
330
0
100
AcDbSymbolTable
 70
     1
  0
LAYER
  5
10
330
2
100
AcDbSymbolTableRecord
100
AcDbLayerTableRecord
  2
0
 70
     0
 62
     7
  6
Continuous
370
    -3
390
F
  0
ENDTAB
  0
TABLE
  2
STYLE
  5
3
330
0
100
AcDbSymbolTable
 70
     1
  0
STYLE
  5
11
330
3
100
AcDbSymbolTableRecord
100
AcDbTextStyleTableRecord
  2
Standard
 70
     0
 40
0.0
 41
1.0
 50
0.0
 71
     0
 42
0.1377952756
  3
txt
  4

  0
ENDTAB
  0
TABLE
  2
VIEW
  5
6
330
0
100
AcDbSymbolTable
 70
     0
  0
ENDTAB
  0
TABLE
  2
UCS
  5
7
330
0
100
AcDbSymbolTable
 70
     0
  0
ENDTAB
  0
TABLE
  2
APPID
  5
9
330
0
100
AcDbSymbolTable
 70
     1
  0
APPID
  5
12
330
9
100
AcDbSymbolTableRecord
100
AcDbRegAppTableRecord
  2
ACAD
 70
     0
  0
ENDTAB
  0
TABLE
  2
DIMSTYLE
  5
A
330
0
100
AcDbSymbolTable
 70
     1
100
AcDbDimStyleTable
  0
DIMSTYLE
105
27
330
A
100
AcDbSymbolTableRecord
100
AcDbDimStyleTableRecord
  2
Standard
 70
     0
178
     0
340
11
  0
ENDTAB
  0
TABLE
  2
BLOCK_RECORD
  5
1
330
0
100
AcDbSymbolTable
 70
     2
  0
BLOCK_RECORD
  5
1F
330
1
100
AcDbSymbolTableRecord
100
AcDbBlockTableRecord
  2
*Model_Space
340
22
  0
BLOCK_RECORD
  5
1B
330
1
100
AcDbSymbolTableRecord
100
AcDbBlockTableRecord
  2
*Paper_Space
340
1E
  0
BLOCK_RECORD
  5
23
330
1
100
AcDbSymbolTableRecord
100
AcDbBlockTableRecord
  2
*Paper_Space0
340
26
  0
BLOCK_RECORD
  5
DB
330
1
100
AcDbSymbolTableRecord
100
AcDbBlockTableRecord
  2
*Paper_Space1
340
DC
  0
ENDTAB
  0
ENDSEC
  0
SECTION
  2
BLOCKS
  0
BLOCK
  5
20
330
1F
100
AcDbEntity
  8
0
100
AcDbBlockBegin
  2
*Model_Space
 70
     0
 10
0.0
 20
0.0
 30
0.0
  3
*Model_Space
  1

  0
ENDBLK
  5
21
330
1F
100
AcDbEntity
  8
0
100
AcDbBlockEnd
  0
BLOCK
  5
1C
330
1B
100
AcDbEntity
 67
     1
  8
0
100
AcDbBlockBegin
  2
*Paper_Space
 70
     0
 10
0.0
 20
0.0
 30
0.0
  3
*Paper_Space
  1

  0
ENDBLK
  5
1D
330
1B
100
AcDbEntity
 67
     1
  8
0
100
AcDbBlockEnd
  0
BLOCK
  5
24
330
23
100
AcDbEntity
  8
0
100
AcDbBlockBegin
  2
*Paper_Space0
 70
     0
 10
0.0
 20
0.0
 30
0.0
  3
*Paper_Space0
  1

  0
LINE
  5
D0
330
23
100
AcDbEntity
  8
0
  6
Continuous
 62
     7
370
    25
100
AcDbLine
 10
-1.7716535433
 20
-9.3897637795
 30
0.0
 11
-0.3937007874
 21
-9.3897637795
 31
0.0
  0
LINE
  5
D1
330
23
100
AcDbEntity
  8
0
  6
Continuous
 62
     7
370
    25
100
AcDbLine
 10
-0.3937007874
 20
9.3897637795
 30
0.0
 11
-1.7716535433
 21
9.3897637795
 31
0.0
  0
LINE
  5
D2
330
23
100
AcDbEntity
  8
0
  6
Continuous
 62
     7
370
    25
100
AcDbLine
 10
-0.3937007874
 20
-9.842519685
 30
0.0
 11
0.1377952756
 21
-9.842519685
 31
0.0
  0
LINE
  5
D3
330
23
100
AcDbEntity
  8
0
  6
Continuous
 62
     7
370
    25
100
AcDbLine
 10
0.1377952756
 20
9.842519685
 30
0.0
 11
-0.3937007874
 21
9.842519685
 31
0.0
  0
LINE
  5
D4
330
23
100
AcDbEntity
  8
0
  6
Continuous
 62
     7
370
    25
100
AcDbLine
 10
0.1377952756
 20
-9.6456692913
 30
0.0
 11
0.157480315
 21
-9.625984252
 31
0.0
  0
LINE
  5
D5
330
23
100
AcDbEntity
  8
0
  6
Continuous
 62
     7
370
    25
100
AcDbLine
 10
0.157480315
 20
9.625984252
 30
0.0
 11
0.1377952756
 21
9.6456692913
 31
0.0
  0
LINE
  5
D6
330
23
100
AcDbEntity
  8
0
  6
Continuous
 62
     7
370
    25
100
AcDbLine
 10
-1.7716535433
 20
9.3897637795
 30
0.0
 11
-1.7716535433
 21
-9.3897637795
 31
0.0
  0
LINE
  5
D7
330
23
100
AcDbEntity
  8
0
  6
Continuous
 62
     7
370
    25
100
AcDbLine
 10
-0.3937007874
 20
9.842519685
 30
0.0
 11
-0.3937007874
 21
-9.842519685
 31
0.0
  0
LINE
  5
D8
330
23
100
AcDbEntity
  8
0
  6
Continuous
 62
     7
370
    25
100
AcDbLine
 10
0.0
 20
9.842519685
 30
0.0
 11
0.0
 21
-9.842519685
 31
0.0
  0
LINE
  5
D9
330
23
100
AcDbEntity
  8
0
  6
Continuous
 62
     7
370
    25
100
AcDbLine
 10
0.1377952756
 20
9.842519685
 30
0.0
 11
0.1377952756
 21
-9.842519685
 31
0.0
  0
LINE
  5
DA
330
23
100
AcDbEntity
  8
0
  6
Continuous
 62
     7
370
    25
100
AcDbLine
 10
0.157480315
 20
9.625984252
 30
0.0
 11
0.157480315
 21
-9.625984252
 31
0.0
  0
VIEWPORT
  5
105
330
23
100
AcDbEntity
  8
0
100
AcDbViewport
 10
0.0
 20
0.0
 30
0.0
 40
8.4
 41
6.4
 68
     1
 69
     1
 12
0.0
 22
0.0
 13
0.0
 23
0.0
 14
0.5
 24
0.5
 15
0.5
 25
0.5
 16
0.0
 26
0.0
 36
1.0
 17
0.0
 27
0.0
 37
0.0
 42
50.0
 43
0.0
 44
0.0
 45
20.0787401575
 50
0.0
 51
0.0
 72
   100
 90
   557152
  1

281
     0
 71
     1
 74
     0
110
0.0
120
0.0
130
0.0
111
1.0
121
0.0
131
0.0
112
0.0
122
1.0
132
0.0
 79
     0
146
0.0
  0
ENDBLK
  5
25
330
23
100
AcDbEntity
  8
0
100
AcDbBlockEnd
  0
BLOCK
  5
DD
330
DB
100
AcDbEntity
  8
0
100
AcDbBlockBegin
  2
*Paper_Space1
 70
     0
 10
0.0
 20
0.0
 30
0.0
  3
*Paper_Space1
  1

  0
LWPOLYLINE
  5
E9
330
DB
100
AcDbEntity
  8
0
  6
Continuous
 62
     7
370
    25
100
AcDbPolyline
 90
       60
 70
   128
 43
0.0
 10
7.8907247355
 20
-3.2765646913
 10
7.8914174413
 20
-2.9832399207
 10
7.8823669846
 20
-2.684475444
 10
7.8635866482
 20
-2.3807097394
 10
7.8351039948
 20
-2.0723886248
 10
7.7969608267
 20
-1.759964604
 10
7.7492131241
 20
-1.4438962024
 10
7.6919309634
 20
-1.1246472939
 10
7.6251984142
 20
-0.8026864203
 10
7.5491134155
 20
-0.4784861036
 10
7.4637876327
 20
-0.1525221525
 10
7.369346293
 20
0.1747270361
 10
7.2659280023
 20
0.5027811786
 10
7.153684541
 20
0.8311588106
 10
7.032780642
 20
1.1593779925
 10
6.9033937484
 20
1.4869570174
 10
6.7657137532
 20
1.813415118
 10
6.6199427209
 20
2.1382731719
 10
6.4662945906
 20
2.4610544051
 10
6.3049948621
 20
2.7812850917
 10
6.1362802649
 20
3.098495249
 10
5.9603984111
 20
3.4122193274
 10
5.7776074314
 20
3.7219968934
 10
5.5881755969
 20
4.0273733058
 10
5.3923809249
 20
4.3279003827
 10
5.1905107711
 20
4.623137059
 10
4.9828614078
 20
4.9126500342
 10
4.769737589
 20
5.1960144082
 10
4.5514521033
 20
5.4728143046
 10
4.3283253148
 20
5.7426434814
 10
4.1006846928
 20
6.0051059271
 10
3.8688643314
 20
6.2598164418
 10
3.6332044588
 20
6.5064012028
 10
3.3940509384
 20
6.7444983129
 10
3.1517547611
 20
6.9737583318
 10
2.9066715298
 20
7.1938447887
 10
2.659160938
 20
7.4044346765
 10
2.4095862416
 20
7.6052189255
 10
2.1583137259
 20
7.795902857
 10
1.9057121679
 20
7.9762066161
 10
1.6521522954
 20
8.1458655822
 10
1.3980062423
 20
8.3046307574
 10
1.1436470031
 20
8.4522691318
 10
0.8894478849
 20
8.5885640258
 10
0.6357819602
 20
8.7133154078
 10
0.3830215185
 20
8.8263401881
 10
0.1315375207
 20
8.927472487
 10
-0.1183009458
 20
9.0165638791
 10
-0.3661272085
 20
9.0934836105
 10
-0.6115775483
 20
9.1581187907
 10
-0.8542917329
 20
9.2103745589
 10
-1.0939135458
 20
9.2501742223
 10
-1.3300913089
 20
9.2774593696
 10
-1.5624783989
 20
9.2921899561
 10
-1.7907337555
 20
9.2943443625
 10
-2.0145223826
 20
9.2839194269
 10
-2.2335158395
 20
9.2609304495
 10
-2.4473927232
 20
9.2254111696
 10
-2.6558391398
 20
9.1774137168
 10
-2.7692042634
 20
9.1453755051
  0
LWPOLYLINE
  5
EA
330
DB
100
AcDbEntity
  8
0
  6
Continuous
 62
     7
370
    25
100
AcDbPolyline
 90
       18
 70
   128
 43
0.0
 10
6.5348712184
 20
-6.9715022441
 10
6.5985744682
 20
-6.9100664698
 10
6.7454786694
 20
-6.7550866395
 10
6.8843215312
 20
-6.5891313979
 10
7.0148992827
 20
-6.4124443073
 10
7.1370202828
 20
-6.2252846802
 10
7.2505053024
 20
-6.0279271994
 10
7.3551877863
 20
-5.820661514
 10
7.4509140987
 20
-5.6037918151
 10
7.5375437479
 20
-5.3776363889
 10
7.6149495931
 20
-5.1425271496
 10
7.6830180305
 20
-4.8988091525
 10
7.7416491602
 20
-4.6468400873
 10
7.790756933
 20
-4.3869897534
 10
7.8302692764
 20
-4.119639517
 10
7.8601282007
 20
-3.8451817514
 10
7.8802898837
 20
-3.5640192613
 10
7.8907247355
 20
-3.2765646913
  0
LWPOLYLINE
  5
EB
330
DB
100
AcDbEntity
  8
0
  6
Continuous
 62
     7
370
    25
100
AcDbPolyline
 90
       64
 70
   128
 43
0.0
 10
7.2381009098
 20
-3.8570461976
 10
7.2331755625
 20
-3.5518980019
 10
7.2184064917
 20
-3.2414950244
 10
7.1938146016
 20
-2.9262766057
 10
7.1594346992
 20
-2.6066889023
 10
7.1153154453
 20
-2.2831842549
 10
7.0615192858
 20
-1.9562205481
 10
6.9981223633
 20
-1.6262605625
 10
6.9252144088
 20
-1.2937713194
 10
6.8428986156
 20
-0.9592234204
 10
6.7512914924
 20
-0.6230903805
 10
6.6505226988
 20
-0.2858479584
 10
6.5407348618
 20
0.0520265169
 10
6.4220833738
 20
0.3900548219
 10
6.2947361727
 20
0.7277585153
 10
6.1588735043
 20
1.0646596153
 10
6.0146876669
 20
1.4002812761
 10
5.8623827395
 20
1.7341484627
 10
5.7021742927
 20
2.0657886235
 10
5.5342890835
 20
2.3947323589
 10
5.3589647349
 20
2.7205140858
 10
5.1764493987
 20
3.0426726967
 10
4.987001405
 20
3.360752212
 10
4.7908888963
 20
3.6743024257
 10
4.5883894479
 20
3.9828795426
 10
4.3797896751
 20
4.2860468064
 10
4.1653848275
 20
4.5833751175
 10
3.9454783713
 20
4.8744436412
 10
3.7203815595
 20
5.1588404023
 10
3.4904129914
 20
5.4361628691
 10
3.2558981618
 20
5.7060185227
 10
3.0171690002
 20
5.9680254125
 10
2.7745634011
 20
6.2218126971
 10
2.5284247455
 20
6.467021169
 10
2.2791014152
 20
6.703303763
 10
2.0269462996
 20
6.9303260475
 10
1.7723162958
 20
7.1477666979
 10
1.5155718044
 20
7.3553179512
 10
1.2570762183
 20
7.5526860418
 10
0.9971954092
 20
7.7395916173
 10
0.7362972093
 20
7.9157701338
 10
0.4747508908
 20
8.0809722302
 10
0.2129266433
 20
8.2349640815
 10
-0.0488049503
 20
8.3775277293
 10
-0.3100734381
 20
8.5084613909
 10
-0.5705090239
 20
8.6275797443
 10
-0.8297430902
 20
8.7347141906
 10
-1.0874087201
 20
8.8297130932
 10
-1.3431412168
 20
8.9124419917
 10
-1.5965786195
 20
8.9827837926
 10
-1.8473622159
 20
9.0406389349
 10
-2.0951370499
 20
9.0859255312
 10
-2.3395524239
 20
9.1185794833
 10
-2.5802623953
 20
9.1385545732
 10
-2.816926266
 20
9.1458225284
 10
-3.0492090647
 20
9.140373062
 10
-3.2767820213
 20
9.122213887
 10
-3.4993230315
 20
9.0913707057
 10
-3.7165171135
 20
9.0478871732
 10
-3.9280568534
 20
8.9918248356
 10
-4.1336428402
 20
8.9232630429
 10
-4.3329840901
 20
8.8422988365
 10
-4.5257984577
 20
8.7490468124
 10
-4.6424714082
 20
8.6848132344
  0
LWPOLYLINE
  5
EC
330
DB
100
AcDbEntity
  8
0
  6
Continuous
 62
     7
370
    25
100
AcDbPolyline
 90
       22
 70
   128
 43
0.0
 10
5.1992484012
 20
-8.363392718
 10
5.3589647349
 20
-8.2650020348
 10
5.5342890835
 20
-8.1416454921
 10
5.7021742927
 20
-8.0065378932
 10
5.8623827395
 20
-7.8598704679
 10
6.0146876669
 20
-7.7018508074
 10
6.1588735043
 20
-7.532702571
 10
6.2947361727
 20
-7.3526651691
 10
6.4220833738
 20
-7.1619934244
 10
6.5407348618
 20
-6.9609572115
 10
6.6505226988
 20
-6.7498410746
 10
6.7512914924
 20
-6.5289438251
 10
6.8428986156
 20
-6.2985781184
 10
6.9252144088
 20
-6.0590700112
 10
6.9981223633
 20
-5.8107585006
 10
7.0615192858
 20
-5.5539950437
 10
7.1153154453
 20
-5.2891430605
 10
7.1594346992
 20
-5.0165774194
 10
7.1938146016
 20
-4.7366839065
 10
7.2184064917
 20
-4.4498586798
 10
7.2331755625
 20
-4.1565077083
 10
7.2381009098
 20
-3.8570461976
  0
LWPOLYLINE
  5
ED
330
DB
100
AcDbEntity
  8
0
  6
Continuous
 62
     7
370
    25
100
AcDbPolyline
 90
       64
 70
   128
 43
0.0
 10
6.9597124133
 20
-4.0177564558
 10
6.9547870659
 20
-3.7126082601
 10
6.9400179952
 20
-3.4022052826
 10
6.9154261051
 20
-3.0869868639
 10
6.8810462026
 20
-2.7673991606
 10
6.8369269488
 20
-2.4438945131
 10
6.7831307893
 20
-2.1169308063
 10
6.7197338667
 20
-1.7869708207
 10
6.6468259123
 20
-1.4544815777
 10
6.5645101191
 20
-1.1199336786
 10
6.4729029959
 20
-0.7838006387
 10
6.3721342023
 20
-0.4465582166
 10
6.2623463653
 20
-0.1086837413
 10
6.1436948773
 20
0.2293445637
 10
6.0163476762
 20
0.5670482571
 10
5.8804850078
 20
0.9039493571
 10
5.7362991704
 20
1.2395710179
 10
5.583994243
 20
1.5734382045
 10
5.4237857961
 20
1.9050783653
 10
5.255900587
 20
2.2340221006
 10
5.0805762384
 20
2.5598038276
 10
4.8980609022
 20
2.8819624384
 10
4.7086129085
 20
3.2000419537
 10
4.5125003998
 20
3.5135921675
 10
4.3100009513
 20
3.8221692844
 10
4.1014011785
 20
4.1253365482
 10
3.886996331
 20
4.4226648593
 10
3.6670898748
 20
4.7137333829
 10
3.441993063
 20
4.998130144
 10
3.2120244949
 20
5.2754526109
 10
2.9775096652
 20
5.5453082644
 10
2.7387805037
 20
5.8073151542
 10
2.4961749045
 20
6.0611024389
 10
2.250036249
 20
6.3063109108
 10
2.0007129187
 20
6.5425935047
 10
1.748557803
 20
6.7696157893
 10
1.4939277993
 20
6.9870564396
 10
1.2371833079
 20
7.1946076929
 10
0.9786877218
 20
7.3919757836
 10
0.7188069127
 20
7.5788813591
 10
0.4579087127
 20
7.7550598755
 10
0.1963623942
 20
7.920261972
 10
-0.0654618533
 20
8.0742538232
 10
-0.3271934468
 20
8.2168174711
 10
-0.5884619347
 20
8.3477511327
 10
-0.8488975204
 20
8.466869486
 10
-1.1081315867
 20
8.5740039324
 10
-1.3657972166
 20
8.669002835
 10
-1.6215297133
 20
8.7517317335
 10
-1.874967116
 20
8.8220735344
 10
-2.1257507124
 20
8.8799286767
 10
-2.3735255464
 20
8.9252152729
 10
-2.6179409204
 20
8.957869225
 10
-2.8586508918
 20
8.9778443149
 10
-3.0953147625
 20
8.9851122702
 10
-3.3275975613
 20
8.9796628037
 10
-3.5551705178
 20
8.9615036287
 10
-3.7777115281
 20
8.9306604475
 10
-3.9949056101
 20
8.887176915
 10
-4.2064453499
 20
8.8311145774
 10
-4.4120313367
 20
8.7625527847
 10
-4.6113725866
 20
8.6815885783
 10
-4.8041869542
 20
8.5883365542
 10
-4.9208599047
 20
8.5241029762
  0
LWPOLYLINE
  5
EE
330
DB
100
AcDbEntity
  8
0
  6
Continuous
 62
     7
370
    25
100
AcDbPolyline
 90
       22
 70
   128
 43
0.0
 10
4.9208599047
 20
-8.5241029762
 10
5.0805762384
 20
-8.425712293
 10
5.255900587
 20
-8.3023557503
 10
5.4237857961
 20
-8.1672481514
 10
5.583994243
 20
-8.0205807261
 10
5.7362991704
 20
-7.8625610657
 10
5.8804850078
 20
-7.6934128293
 10
6.0163476762
 20
-7.5133754273
 10
6.1436948773
 20
-7.3227036826
 10
6.2623463653
 20
-7.1216674697
 10
6.3721342023
 20
-6.9105513329
 10
6.4729029959
 20
-6.6896540834
 10
6.5645101191
 20
-6.4592883766
 10
6.6468259123
 20
-6.2197802694
 10
6.7197338667
 20
-5.9714687588
 10
6.7831307893
 20
-5.7147053019
 10
6.8369269488
 20
-5.4498533187
 10
6.8810462026
 20
-5.1772876776
 10
6.9154261051
 20
-4.8973941647
 10
6.9400179952
 20
-4.610568938
 10
6.9547870659
 20
-4.3172179665
 10
6.9597124133
 20
-4.0177564558
  0
LWPOLYLINE
  5
EF
330
DB
100
AcDbEntity
  8
0
  6
Continuous
 62
     7
370
    25
100
AcDbPolyline
 90
      168
 70
   128
 43
0.0
 10
6.8622764395
 20
-4.0740050462
 10
6.8573510921
 20
-3.7688568505
 10
6.8425820214
 20
-3.458453873
 10
6.8179901313
 20
-3.1432354543
 10
6.7836102289
 20
-2.8236477509
 10
6.739490975
 20
-2.5001431035
 10
6.6856948155
 20
-2.1731793967
 10
6.622297893
 20
-1.8432194111
 10
6.5493899385
 20
-1.5107301681
 10
6.4670741453
 20
-1.176182269
 10
6.3754670221
 20
-0.8400492291
 10
6.2746982285
 20
-0.502806807
 10
6.1649103915
 20
-0.1649323317
 10
6.0462589035
 20
0.1730959733
 10
5.9189117024
 20
0.5107996667
 10
5.783049034
 20
0.8477007667
 10
5.6388631966
 20
1.1833224275
 10
5.4865582692
 20
1.5171896141
 10
5.3263498223
 20
1.8488297749
 10
5.1584646132
 20
2.1777735103
 10
4.9831402646
 20
2.5035552372
 10
4.8006249284
 20
2.825713848
 10
4.6111769347
 20
3.1437933633
 10
4.415064426
 20
3.4573435771
 10
4.2125649776
 20
3.765920694
 10
4.0039652047
 20
4.0690879578
 10
3.7895603572
 20
4.3664162689
 10
3.569653901
 20
4.6574847925
 10
3.3445570892
 20
4.9418815537
 10
3.1145885211
 20
5.2192040205
 10
2.8800736915
 20
5.489059674
 10
2.6413445299
 20
5.7510665639
 10
2.3987389308
 20
6.0048538485
 10
2.1526002752
 20
6.2500623204
 10
1.9032769449
 20
6.4863449144
 10
1.6511218292
 20
6.7133671989
 10
1.3964918255
 20
6.9308078492
 10
1.1397473341
 20
7.1383591025
 10
0.881251748
 20
7.3357271932
 10
0.6213709389
 20
7.5226327687
 10
0.360472739
 20
7.6988112852
 10
0.0989264205
 20
7.8640133816
 10
-0.162897827
 20
8.0180052328
 10
-0.4246294206
 20
8.1605688807
 10
-0.6858979085
 20
8.2915025423
 10
-0.9463334942
 20
8.4106208956
 10
-1.2055675605
 20
8.517755342
 10
-1.4632331904
 20
8.6127542446
 10
-1.7189656871
 20
8.6954831431
 10
-1.9724030898
 20
8.765824944
 10
-2.2231866862
 20
8.8236800863
 10
-2.4709615202
 20
8.8689666825
 10
-2.7153768942
 20
8.9016206346
 10
-2.9560868656
 20
8.9215957246
 10
-3.1927507363
 20
8.9288636798
 10
-3.4250335351
 20
8.9234142133
 10
-3.6526064916
 20
8.9052550383
 10
-3.8751475018
 20
8.8744118571
 10
-4.0923415839
 20
8.8309283246
 10
-4.3038813237
 20
8.774865987
 10
-4.5094673105
 20
8.7063041943
 10
-4.7088085604
 20
8.6253399879
 10
-4.901622928
 20
8.5320879638
 10
-5.0876375062
 20
8.4266801096
 10
-5.2665890121
 20
8.3092656185
 10
-5.43822416
 20
8.1800106774
 10
-5.6023000194
 20
8.0390982324
 10
-5.7585843594
 20
7.8867277292
 10
-5.9068559768
 20
7.7231148312
 10
-6.0469050099
 20
7.5484911143
 10
-6.1785332349
 20
7.3631037386
 10
-6.3015543467
 20
7.1672150995
 10
-6.4157942227
 20
6.9611024552
 10
-6.5210911691
 20
6.7450575352
 10
-6.6172961499
 20
6.519386127
 10
-6.7042729978
 20
6.2844076431
 10
-6.7818986066
 20
6.0404546694
 10
-6.8500631061
 20
5.787872494
 10
-6.908670017
 20
5.5270186187
 10
-6.9576363877
 20
5.258262253
 10
-6.9968929119
 20
4.9819837915
 10
-7.0263840263
 20
4.6985742754
 10
-7.0460679896
 20
4.4084348393
 10
-7.0559169413
 20
4.111976143
 10
-7.0559169413
 20
3.8096177908
 10
-7.0460679896
 20
3.501787737
 10
-7.0263840263
 20
3.1889216806
 10
-6.9968929119
 20
2.8714624486
 10
-6.9576363877
 20
2.5498593691
 10
-6.908670017
 20
2.2245676351
 10
-6.8500631061
 20
1.8960476608
 10
-6.7818986066
 20
1.5647644295
 10
-6.7042729978
 20
1.2311868355
 10
-6.6172961499
 20
0.8957870207
 10
-6.5210911691
 20
0.5590397059
 10
-6.4157942227
 20
0.2214215193
 10
-6.3015543467
 20
-0.1165896783
 10
-6.1785332349
 20
-0.4545154698
 10
-6.0469050099
 20
-0.791877559
 10
-5.9068559768
 20
-1.1281984478
 10
-5.7585843594
 20
-1.4630021114
 10
-5.6023000194
 20
-1.7958146726
 10
-5.43822416
 20
-2.1261650726
 10
-5.2665890121
 20
-2.4535857373
 10
-5.0876375062
 20
-2.7776132394
 10
-4.901622928
 20
-3.0977889541
 10
-4.7088085604
 20
-3.4136597085
 10
-4.5094673105
 20
-3.724778423
 10
-4.3038813237
 20
-4.0307047437
 10
-4.0923415839
 20
-4.3310056661
 10
-3.8751475018
 20
-4.6252561479
 10
-3.6526064916
 20
-4.9130397105
 10
-3.4250335351
 20
-5.1939490283
 10
-3.1927507363
 20
-5.4675865057
 10
-2.9560868656
 20
-5.7335648394
 10
-2.7153768942
 20
-5.9915075668
 10
-2.4709615202
 20
-6.2410495988
 10
-2.2231866862
 20
-6.4818377366
 10
-1.9724030898
 20
-6.7135311715
 10
-1.7189656871
 20
-6.9358019673
 10
-1.4632331904
 20
-7.1483355247
 10
-1.2055675605
 20
-7.350831026
 10
-0.9463334942
 20
-7.5430018617
 10
-0.6858979085
 20
-7.7245760352
 10
-0.4246294206
 20
-7.8952965488
 10
-0.162897827
 20
-8.0549217666
 10
0.0989264205
 20
-8.203225757
 10
0.360472739
 20
-8.3399986122
 10
0.6213709389
 20
-8.4650467456
 10
0.881251748
 20
-8.5781931654
 10
1.1397473341
 20
-8.6792777258
 10
1.3964918255
 20
-8.7681573526
 10
1.6511218292
 20
-8.8447062468
 10
1.9032769449
 20
-8.9088160619
 10
2.1526002752
 20
-8.9603960577
 10
2.3987389308
 20
-8.9993732285
 10
2.6413445299
 20
-9.0256924064
 10
2.8800736915
 20
-9.0393163395
 10
3.1145885211
 20
-9.0402257448
 10
3.3445570892
 20
-9.0284193351
 10
3.569653901
 20
-9.003913821
 10
3.7895603572
 20
-8.9667438873
 10
4.0039652047
 20
-8.9169621439
 10
4.2125649776
 20
-8.8546390514
 10
4.415064426
 20
-8.779862821
 10
4.6111769347
 20
-8.6927392902
 10
4.8006249284
 20
-8.5933917725
 10
4.9831402646
 20
-8.4819608834
 10
5.1584646132
 20
-8.3586043407
 10
5.3263498223
 20
-8.2234967418
 10
5.4865582692
 20
-8.0768293165
 10
5.6388631966
 20
-7.918809656
 10
5.783049034
 20
-7.7496614196
 10
5.9189117024
 20
-7.5696240177
 10
6.0462589035
 20
-7.378952273
 10
6.1649103915
 20
-7.1779160601
 10
6.2746982285
 20
-6.9667999232
 10
6.3754670221
 20
-6.7459026738
 10
6.4670741453
 20
-6.515536967
 10
6.5493899385
 20
-6.2760288598
 10
6.622297893
 20
-6.0277173492
 10
6.6856948155
 20
-5.7709538923
 10
6.739490975
 20
-5.5061019091
 10
6.7836102289
 20
-5.233536268
 10
6.8179901313
 20
-4.9536427551
 10
6.8425820214
 20
-4.6668175284
 10
6.8573510921
 20
-4.3734665569
 10
6.8622764395
 20
-4.0740050462
  0
LWPOLYLINE
  5
F0
330
DB
100
AcDbEntity
  8
0
  6
Continuous
 62
     7
370
    25
100
AcDbPolyline
 90
       85
 70
   128
 43
0.0
 10
6.7230821912
 20
-3.9936499171
 10
6.7181970279
 20
-3.6927871747
 10
6.703548536
 20
-3.3867151259
 10
6.6791576993
 20
-3.0758722158
 10
6.6450594574
 20
-2.7607037239
 10
6.6013026558
 20
-2.4416611261
 10
6.5479499756
 20
-2.1192014479
 10
6.4850778441
 20
-1.7937866095
 10
6.4127763249
 20
-1.4658827647
 10
6.3311489893
 20
-1.1359596325
 10
6.2403127677
 20
-0.8044898246
 10
6.140397782
 20
-0.4719481684
 10
6.0315471596
 20
-0.1388110265
 10
5.9139168279
 20
0.1944443853
 10
5.7876752912
 20
0.5273406818
 10
5.6530033893
 20
0.8594009922
 10
5.5100940384
 20
1.1901496435
 10
5.3591519548
 20
1.5191128413
 10
5.2003933616
 20
1.8458193491
 10
5.0340456788
 20
2.1698011628
 10
4.860347198
 20
2.4905941817
 10
4.6795467406
 20
2.8077388729
 10
4.4919033014
 20
3.1207809296
 10
4.297685678
 20
3.4292719221
 10
4.0971720851
 20
3.7327699401
 10
3.8906497566
 20
4.0308402255
 10
3.6784145336
 20
4.3230557956
 10
3.4607704412
 20
4.6089980543
 10
3.2380292524
 20
4.8882573922
 10
3.0105100418
 20
5.1604337728
 10
2.7785387285
 20
5.4251373062
 10
2.542447609
 20
5.6819888071
 10
2.3025748818
 20
5.9306203383
 10
2.0592641622
 20
6.1706757373
 10
1.8128639904
 20
6.4018111272
 10
1.5637273323
 20
6.6236954088
 10
1.3122110737
 20
6.836010735
 10
1.0586755094
 20
7.0384529661
 10
0.8034838264
 20
7.2307321055
 10
0.5470015846
 20
7.4125727153
 10
0.2895961921
 20
7.5837143105
 10
0.0316363798
 20
7.7439117324
 10
-0.2265083274
 20
7.8929354998
 10
-0.4844681397
 20
8.0305721376
 10
-0.7418735321
 20
8.1566244826
 10
-0.998355774
 20
8.270911966
 10
-1.2535474569
 20
8.3732708721
 10
-1.5070830213
 20
8.4635545728
 10
-1.7585992798
 20
8.5416337375
 10
-2.007735938
 20
8.6073965187
 10
-2.2541361098
 20
8.6607487116
 10
-2.4974468294
 20
8.7016138899
 10
-2.7373195566
 20
8.7299335145
 10
-2.973410676
 20
8.745667018
 10
-3.2053819894
 20
8.7487918621
 10
-3.4329012
 20
8.7393035705
 10
-3.6556423888
 20
8.7172157352
 10
-3.8732864812
 20
8.6825599968
 10
-4.0855217041
 20
8.6353859993
 10
-4.2920440326
 20
8.5757613189
 10
-4.4925576255
 20
8.5037713675
 10
-4.686775249
 20
8.4195192699
 10
-4.8744186881
 20
8.3231257166
 10
-5.0552191456
 20
8.2147287902
 10
-5.2289176264
 20
8.0944837685
 10
-5.3952653091
 20
7.9625629011
 10
-5.5540239024
 20
7.8191551635
 10
-5.704965986
 20
7.6644659859
 10
-5.8478753369
 20
7.4987169591
 10
-5.9825472388
 20
7.3221455168
 10
-6.1087887755
 20
7.1350045961
 10
-6.2264191072
 20
6.9375622745
 10
-6.3352697296
 20
6.7301013862
 10
-6.4351847153
 20
6.5129191169
 10
-6.5260209369
 20
6.2863265781
 10
-6.6076482725
 20
6.0506483615
 10
-6.6799497917
 20
5.8062220739
 10
-6.7428219232
 20
5.5533978534
 10
-6.7961746034
 20
5.2925378685
 10
-6.839931405
 20
5.0240157986
 10
-6.8740296469
 20
4.7482162988
 10
-6.8984204836
 20
4.4655344493
 10
-6.9130689755
 20
4.1763751892
 10
-6.9179541388
 20
3.8811527363
 10
-6.9179541388
 20
3.8811527363
  0
LWPOLYLINE
  5
F1
330
DB
100
AcDbEntity
  8
0
  6
Continuous
 62
     7
370
    25
100
AcDbPolyline
 90
       43
 70
   128
 43
0.0
 10
-0.0985444998
 20
-7.9316911822
 10
0.0316363798
 20
-8.0054326806
 10
0.2895961921
 20
-8.1430693183
 10
0.5470015846
 20
-8.2691216633
 10
0.8034838264
 20
-8.3834091467
 10
1.0586755094
 20
-8.4857680529
 10
1.3122110737
 20
-8.5760517536
 10
1.5637273323
 20
-8.6541309183
 10
1.8128639904
 20
-8.7198936994
 10
2.0592641622
 20
-8.7732458924
 10
2.3025748818
 20
-8.8141110707
 10
2.542447609
 20
-8.8424306953
 10
2.7785387285
 20
-8.8581641987
 10
3.0105100418
 20
-8.8612890428
 10
3.2380292524
 20
-8.8518007513
 10
3.4607704412
 20
-8.829712916
 10
3.6784145336
 20
-8.7950571776
 10
3.8906497566
 20
-8.74788318
 10
4.0971720851
 20
-8.6882584997
 10
4.297685678
 20
-8.6162685482
 10
4.4919033014
 20
-8.5320164507
 10
4.6795467406
 20
-8.4356228973
 10
4.860347198
 20
-8.327225971
 10
5.0340456788
 20
-8.2069809492
 10
5.2003933616
 20
-8.0750600819
 10
5.3591519548
 20
-7.9316523443
 10
5.5100940384
 20
-7.7769631667
 10
5.6530033893
 20
-7.6112141398
 10
5.7876752912
 20
-7.4346426976
 10
5.9139168279
 20
-7.2475017769
 10
6.0315471596
 20
-7.0500594553
 10
6.140397782
 20
-6.8425985669
 10
6.2403127677
 20
-6.6254162976
 10
6.3311489893
 20
-6.3988237589
 10
6.4127763249
 20
-6.1631455423
 10
6.4850778441
 20
-5.9187192546
 10
6.5479499756
 20
-5.6658950342
 10
6.6013026558
 20
-5.4050350493
 10
6.6450594574
 20
-5.1365129793
 10
6.6791576993
 20
-4.8607134795
 10
6.703548536
 20
-4.5780316301
 10
6.7181970279
 20
-4.28887237
 10
6.7230821912
 20
-3.9936499171
  0
LWPOLYLINE
  5
F2
330
DB
100
AcDbEntity
  8
0
  6
Continuous
 62
     7
370
    25
100
AcDbPolyline
 90
       64
 70
   128
 43
0.0
 10
6.9597124133
 20
-4.0177564558
 10
6.9547870659
 20
-3.7126082601
 10
6.9400179952
 20
-3.4022052826
 10
6.9154261051
 20
-3.0869868639
 10
6.8810462026
 20
-2.7673991606
 10
6.8369269488
 20
-2.4438945131
 10
6.7831307893
 20
-2.1169308063
 10
6.7197338667
 20
-1.7869708207
 10
6.6468259123
 20
-1.4544815777
 10
6.5645101191
 20
-1.1199336786
 10
6.4729029959
 20
-0.7838006387
 10
6.3721342023
 20
-0.4465582166
 10
6.2623463653
 20
-0.1086837413
 10
6.1436948773
 20
0.2293445637
 10
6.0163476762
 20
0.5670482571
 10
5.8804850078
 20
0.9039493571
 10
5.7362991704
 20
1.2395710179
 10
5.583994243
 20
1.5734382045
 10
5.4237857961
 20
1.9050783653
 10
5.255900587
 20
2.2340221006
 10
5.0805762384
 20
2.5598038276
 10
4.8980609022
 20
2.8819624384
 10
4.7086129085
 20
3.2000419537
 10
4.5125003998
 20
3.5135921675
 10
4.3100009513
 20
3.8221692844
 10
4.1014011785
 20
4.1253365482
 10
3.886996331
 20
4.4226648593
 10
3.6670898748
 20
4.7137333829
 10
3.441993063
 20
4.998130144
 10
3.2120244949
 20
5.2754526109
 10
2.9775096652
 20
5.5453082644
 10
2.7387805037
 20
5.8073151542
 10
2.4961749045
 20
6.0611024389
 10
2.250036249
 20
6.3063109108
 10
2.0007129187
 20
6.5425935047
 10
1.748557803
 20
6.7696157893
 10
1.4939277993
 20
6.9870564396
 10
1.2371833079
 20
7.1946076929
 10
0.9786877218
 20
7.3919757836
 10
0.7188069127
 20
7.5788813591
 10
0.4579087127
 20
7.7550598755
 10
0.1963623942
 20
7.920261972
 10
-0.0654618533
 20
8.0742538232
 10
-0.3271934468
 20
8.2168174711
 10
-0.5884619347
 20
8.3477511327
 10
-0.8488975204
 20
8.466869486
 10
-1.1081315867
 20
8.5740039324
 10
-1.3657972166
 20
8.669002835
 10
-1.6215297133
 20
8.7517317335
 10
-1.874967116
 20
8.8220735344
 10
-2.1257507124
 20
8.8799286767
 10
-2.3735255464
 20
8.9252152729
 10
-2.6179409204
 20
8.957869225
 10
-2.8586508918
 20
8.9778443149
 10
-3.0953147625
 20
8.9851122702
 10
-3.3275975613
 20
8.9796628037
 10
-3.5551705178
 20
8.9615036287
 10
-3.7777115281
 20
8.9306604475
 10
-3.9949056101
 20
8.887176915
 10
-4.2064453499
 20
8.8311145774
 10
-4.4120313367
 20
8.7625527847
 10
-4.6113725866
 20
8.6815885783
 10
-4.8041869542
 20
8.5883365542
 10
-4.9208599047
 20
8.5241029762
  0
LWPOLYLINE
  5
F3
330
DB
100
AcDbEntity
  8
0
  6
Continuous
 62
     7
370
    25
100
AcDbPolyline
 90
       22
 70
   128
 43
0.0
 10
4.9208599047
 20
-8.5241029762
 10
5.0805762384
 20
-8.425712293
 10
5.255900587
 20
-8.3023557503
 10
5.4237857961
 20
-8.1672481514
 10
5.583994243
 20
-8.0205807261
 10
5.7362991704
 20
-7.8625610657
 10
5.8804850078
 20
-7.6934128293
 10
6.0163476762
 20
-7.5133754273
 10
6.1436948773
 20
-7.3227036826
 10
6.2623463653
 20
-7.1216674697
 10
6.3721342023
 20
-6.9105513329
 10
6.4729029959
 20
-6.6896540834
 10
6.5645101191
 20
-6.4592883766
 10
6.6468259123
 20
-6.2197802694
 10
6.7197338667
 20
-5.9714687588
 10
6.7831307893
 20
-5.7147053019
 10
6.8369269488
 20
-5.4498533187
 10
6.8810462026
 20
-5.1772876776
 10
6.9154261051
 20
-4.8973941647
 10
6.9400179952
 20
-4.610568938
 10
6.9547870659
 20
-4.3172179665
 10
6.9597124133
 20
-4.0177564558
  0
LWPOLYLINE
  5
F4
330
DB
100
AcDbEntity
  8
0
  6
Continuous
 62
     7
370
    25
100
AcDbPolyline
 90
      167
 70
   128
 43
0.0
 10
6.6952433415
 20
-3.9936499171
 10
6.690368148
 20
-3.6934011803
 10
6.675749551
 20
-3.3879537683
 10
6.6514084915
 20
-3.0777452315
 10
6.6173798379
 20
-2.7632199406
 10
6.5737123358
 20
-2.4448284502
 10
6.5204685387
 20
-2.1230268529
 10
6.4577247176
 20
-1.7982761265
 10
6.3855707525
 20
-1.4710414732
 10
6.3041100033
 20
-1.1417916535
 10
6.2134591618
 20
-0.8109983146
 10
6.1137480842
 20
-0.4791353148
 10
6.005119606
 20
-0.1466780447
 10
5.8877293361
 20
0.185897254
 10
5.7617454352
 20
0.5181141703
 10
5.627348374
 20
0.8494968067
 10
5.4847306748
 20
1.1795704607
 10
5.3340966363
 20
1.5078623051
 10
5.1756620401
 20
1.8339020649
 10
5.0096538424
 20
2.1572226912
 10
4.8363098483
 20
2.4773610305
 10
4.6558783714
 20
2.7938584876
 10
4.4686178781
 20
3.106261683
 10
4.2747966171
 20
3.4141231021
 10
4.0746922356
 20
3.7170017363
 10
3.8685913813
 20
4.014463715
 10
3.6567892914
 20
4.3060829268
 10
3.4395893707
 20
4.5914416299
 10
3.2173027557
 20
4.8701310507
 10
2.99024787
 20
5.1417519694
 10
2.7587499675
 20
5.4059152915
 10
2.5231406667
 20
5.6622426057
 10
2.2837574757
 20
5.9103667255
 10
2.0409433085
 20
6.1499322156
 10
1.7950459942
 20
6.3805959006
 10
1.5464177782
 20
6.6020273571
 10
1.2954148182
 20
6.8139093867
 10
1.0423966733
 20
7.0159384704
 10
0.7877257898
 20
7.2078252034
 10
0.5317669811
 20
7.3892947099
 10
0.2748869057
 20
7.5600870365
 10
0.017453542
 20
7.7199575249
 10
-0.2401643392
 20
7.8686771622
 10
-0.497597703
 20
8.0060329089
 10
-0.7544777783
 20
8.1318280042
 10
-1.010436587
 20
8.2458822478
 10
-1.2651074706
 20
8.3480322582
 10
-1.5181256154
 20
8.4381317065
 10
-1.7691285755
 20
8.516051526
 10
-2.0177567914
 20
8.5816800974
 10
-2.2636541057
 20
8.6349234083
 10
-2.5064682729
 20
8.6757051882
 10
-2.7458514639
 20
8.7039670177
 10
-2.9814607647
 20
8.719668412
 10
-3.2129586672
 20
8.7227868788
 10
-3.4400135529
 20
8.7133179512
 10
-3.6623001679
 20
8.6912751931
 10
-3.8795000887
 20
8.6566901807
 10
-4.0913021785
 20
8.6096124566
 10
-4.2974030329
 20
8.5501094592
 10
-4.4975074143
 20
8.4782664261
 10
-4.6913286753
 20
8.3941862716
 10
-4.8785891687
 20
8.2979894398
 10
-5.0590206456
 20
8.1898137316
 10
-5.2323646397
 20
8.0698141079
 10
-5.3983728373
 20
7.9381624668
 10
-5.5568074335
 20
7.7950473981
 10
-5.707441472
 20
7.6406739127
 10
-5.8500591712
 20
7.4752631491
 10
-5.9844562325
 20
7.2990520568
 10
-6.1104401334
 20
7.1122930563
 10
-6.2278304032
 20
6.9152536782
 10
-6.3364588815
 20
6.7082161794
 10
-6.436169959
 20
6.4914771392
 10
-6.5268208006
 20
6.2653470342
 10
-6.6082815498
 20
6.0301497936
 10
-6.6804355148
 20
5.7862223351
 10
-6.7431793359
 20
5.5339140825
 10
-6.796423133
 20
5.2735864649
 10
-6.8400906351
 20
5.0056123991
 10
-6.8741192887
 20
4.7303757555
 10
-6.8984603482
 20
4.4482708078
 10
-6.9130789452
 20
4.1597016686
 10
-6.9179541388
 20
3.8650817105
 10
-6.9130789452
 20
3.5648329737
 10
-6.8984603482
 20
3.2593855617
 10
-6.8741192887
 20
2.9491770249
 10
-6.8400906351
 20
2.634651734
 10
-6.796423133
 20
2.3162602436
 10
-6.7431793359
 20
1.9944586463
 10
-6.6804355148
 20
1.6697079199
 10
-6.6082815498
 20
1.3424732666
 10
-6.5268208006
 20
1.0132234469
 10
-6.436169959
 20
0.682430108
 10
-6.3364588815
 20
0.3505671082
 10
-6.2278304032
 20
0.0181098381
 10
-6.1104401334
 20
-0.3144654606
 10
-5.9844562325
 20
-0.6466823769
 10
-5.8500591712
 20
-0.9780650133
 10
-5.707441472
 20
-1.3081386673
 10
-5.5568074335
 20
-1.6364305117
 10
-5.3983728373
 20
-1.9624702714
 10
-5.2323646397
 20
-2.2857908978
 10
-5.0590206456
 20
-2.6059292371
 10
-4.8785891687
 20
-2.9224266942
 10
-4.6913286753
 20
-3.2348298896
 10
-4.4975074143
 20
-3.5426913086
 10
-4.2974030329
 20
-3.8455699429
 10
-4.0913021785
 20
-4.1430319216
 10
-3.8795000887
 20
-4.4346511334
 10
-3.6623001679
 20
-4.7200098365
 10
-3.4400135529
 20
-4.9986992573
 10
-3.2129586672
 20
-5.2703201759
 10
-2.9814607647
 20
-5.5344834981
 10
-2.7458514639
 20
-5.7908108122
 10
-2.5064682729
 20
-6.0389349321
 10
-2.2636541057
 20
-6.2785004221
 10
-2.0177567914
 20
-6.5091641072
 10
-1.7691285755
 20
-6.7305955637
 10
-1.5181256154
 20
-6.9424775933
 10
-1.2651074706
 20
-7.144506677
 10
-1.010436587
 20
-7.33639341
 10
-0.7544777783
 20
-7.5178629165
 10
-0.497597703
 20
-7.6886552431
 10
-0.2401643392
 20
-7.8485257315
 10
0.017453542
 20
-7.9972453688
 10
0.2748869057
 20
-8.1346011155
 10
0.5317669811
 20
-8.2603962108
 10
0.7877257898
 20
-8.3744504544
 10
1.0423966733
 20
-8.4766004648
 10
1.2954148182
 20
-8.5666999131
 10
1.5464177782
 20
-8.6446197326
 10
1.7950459942
 20
-8.7102483039
 10
2.0409433085
 20
-8.7634916149
 10
2.2837574757
 20
-8.8042733948
 10
2.5231406667
 20
-8.8325352243
 10
2.7587499675
 20
-8.8482366186
 10
2.99024787
 20
-8.8513550854
 10
3.2173027557
 20
-8.8418861577
 10
3.4395893707
 20
-8.8198433997
 10
3.6567892914
 20
-8.7852583872
 10
3.8685913813
 20
-8.7381806632
 10
4.0746922356
 20
-8.6786776658
 10
4.2747966171
 20
-8.6068346327
 10
4.4686178781
 20
-8.5227544782
 10
4.6558783714
 20
-8.4265576464
 10
4.8363098483
 20
-8.3183819382
 10
5.0096538424
 20
-8.1983823145
 10
5.1756620401
 20
-8.0667306734
 10
5.3340966363
 20
-7.9236156046
 10
5.4847306748
 20
-7.7692421192
 10
5.627348374
 20
-7.6038313557
 10
5.7617454352
 20
-7.4276202634
 10
5.8877293361
 20
-7.2408612629
 10
6.005119606
 20
-7.0438218848
 10
6.1137480842
 20
-6.836784386
 10
6.2134591618
 20
-6.6200453458
 10
6.3041100033
 20
-6.3939152408
 10
6.3855707525
 20
-6.1587180002
 10
6.4577247176
 20
-5.9147905417
 10
6.5204685387
 20
-5.6624822891
 10
6.5737123358
 20
-5.4021546715
 10
6.6173798379
 20
-5.1341806057
 10
6.6514084915
 20
-4.8589439621
 10
6.675749551
 20
-4.5768390143
 10
6.690368148
 20
-4.2882698752
 10
6.6952433415
 20
-3.9936499171
  0
LWPOLYLINE
  5
F5
330
DB
100
AcDbEntity
  8
0
  6
Continuous
 62
     7
370
    25
100
AcDbPolyline
 90
       30
 70
   128
 43
0.0
 10
0.0974359738
 20
-5.0069082057
 10
0.0925545475
 20
-4.9522598627
 10
0.0781385188
 20
-4.8945308406
 10
0.0548619651
 20
-4.8364204845
 10
0.0238132723
 20
-4.7806459699
 10
-0.0135557574
 20
-4.7298152512
 10
-0.0554977897
 20
-4.6863051163
 10
-0.1000516616
 20
-4.6521500507
 10
-0.1451340837
 20
-4.6289471074
 10
-0.188637052
 20
-4.6177812302
 10
-0.2285264162
 20
-4.6191745231
 10
-0.2629369937
 20
-4.6330618372
 10
-0.2902597844
 20
-4.6587938173
 10
-0.3092172048
 20
-4.6951672644
 10
-0.318922827
 20
-4.7404813967
 10
-0.318922827
 20
-4.7926173757
 10
-0.3092172048
 20
-4.8491373809
 10
-0.2902597844
 20
-4.9073985998
 10
-0.2629369937
 20
-4.9646768024
 10
-0.2285264162
 20
-5.0182937238
 10
-0.188637052
 20
-5.0657422962
 10
-0.1451340837
 20
-5.104803877
 10
-0.1000516616
 20
-5.1336519904
 10
-0.0554977897
 20
-5.1509377304
 10
-0.0135557574
 20
-5.1558528351
 10
0.0238132723
 20
-5.1481674797
 10
0.0548619651
 20
-5.1282410229
 10
0.0781385188
 20
-5.0970052036
 10
0.0925545475
 20
-5.055920574
 10
0.0974359738
 20
-5.0069082057
  0
LWPOLYLINE
  5
F6
330
DB
100
AcDbEntity
  8
0
  6
Continuous
 62
     7
370
    25
100
AcDbPolyline
 90
       17
 70
   128
 43
0.0
 10
-0.2587028073
 20
-4.6304917125
 10
-0.2626586052
 20
-4.632901127
 10
-0.2899813959
 20
-4.658633107
 10
-0.3089388163
 20
-4.6950065542
 10
-0.3186444385
 20
-4.7403206865
 10
-0.3186444385
 20
-4.7924566654
 10
-0.3089388163
 20
-4.8489766707
 10
-0.2899813959
 20
-4.9072378895
 10
-0.2626586052
 20
-4.9645160922
 10
-0.2282480277
 20
-5.0181330135
 10
-0.1883586635
 20
-5.0655815859
 10
-0.1448556952
 20
-5.1046431668
 10
-0.0997732731
 20
-5.1334912801
 10
-0.0552194012
 20
-5.1507770201
 10
-0.0132773689
 20
-5.1556921249
 10
0.0240916608
 20
-5.1480067695
 10
0.036548787
 20
-5.1419378911
  0
LWPOLYLINE
  5
F7
330
DB
100
AcDbEntity
  8
0
  6
Continuous
 62
     7
370
    25
100
AcDbPolyline
 90
       12
 70
   128
 43
0.0
 10
0.0698755126
 20
-4.9906764697
 10
0.064997914
 20
-4.9396718235
 10
0.0506280706
 20
-4.8857852954
 10
0.0275406644
 20
-4.8319219222
 10
-0.0030196565
 20
-4.7809854922
 10
-0.0394053772
 20
-4.7357220014
 10
-0.0796549343
 20
-4.6985716165
 10
-0.1215984636
 20
-4.6715371243
 10
-0.1629747786
 20
-4.6560759612
 10
-0.2015532715
 20
-4.6530216426
 10
-0.2352541657
 20
-4.6625388276
 10
-0.2390193676
 20
-4.6645881244
  0
LWPOLYLINE
  5
F9
330
DB
100
AcDbEntity
  8
0
  6
Continuous
 62
     7
370
    25
100
AcDbPolyline
 90
       28
 70
   128
 43
0.0
 10
0.0695971241
 20
-4.9908371799
 10
0.0647195255
 20
-4.9398325338
 10
0.0503496821
 20
-4.8859460057
 10
0.0272622759
 20
-4.8320826325
 10
-0.003298045
 20
-4.7811462024
 10
-0.0396837657
 20
-4.7358827117
 10
-0.0799333228
 20
-4.6987323268
 10
-0.1218768521
 20
-4.6716978346
 10
-0.1632531671
 20
-4.6562366715
 10
-0.20183166
 20
-4.6531823529
 10
-0.2355325542
 20
-4.6626995379
 10
-0.2625390258
 20
-4.6842751525
 10
-0.2813951489
 20
-4.7167460499
 10
-0.2910843851
 20
-4.7583617154
 10
-0.2910843851
 20
-4.8068786379
 10
-0.2813951489
 20
-4.8596812574
 10
-0.2625390258
 20
-4.9139229711
 10
-0.2355325542
 20
-4.9666795942
 10
-0.20183166
 20
-5.0151070034
 10
-0.1632531671
 20
-5.0565944646
 10
-0.1218768521
 20
-5.088905378
 10
-0.0799333228
 20
-5.1102978539
 10
-0.0396837657
 20
-5.1196186184
 10
-0.003298045
 20
-5.1163651866
 10
0.0272622759
 20
-5.100712952
 10
0.0503496821
 20
-5.0735057305
 10
0.0647195255
 20
-5.0362102705
 10
0.0695971241
 20
-4.9908371799
  0
LINE
  5
FA
330
DB
100
AcDbEntity
  8
0
  6
Continuous
 62
     7
370
    25
100
AcDbLine
 10
-4.6424714082
 20
8.6848132344
 30
0.0
 11
-5.0182958785
 21
8.4678543858
 31
0.0
  0
LINE
  5
FB
330
DB
100
AcDbEntity
  8
0
  6
Continuous
 62
     7
370
    25
100
AcDbLine
 10
4.8234239309
 20
-8.5803515666
 30
0.0
 11
5.1992484012
 21
-8.363392718
 31
0.0
  0
LINE
  5
FC
330
DB
100
AcDbEntity
  8
0
  6
Continuous
 62
     7
370
    25
100
AcDbLine
 10
-6.9179541388
 20
3.8811527363
 30
0.0
 11
-6.9179541388
 21
3.8650817105
 31
0.0
  0
LINE
  5
FD
330
DB
100
AcDbEntity
  8
0
  6
Continuous
 62
     7
370
    25
100
AcDbLine
 10
-0.1124616623
 20
-7.9236543633
 30
0.0
 11
-0.0985444998
 21
-7.9316911822
 31
0.0
  0
LINE
  5
FE
330
DB
100
AcDbEntity
  8
0
  6
Continuous
 62
     7
370
    25
100
AcDbLine
 10
0.0362703985
 20
-5.1420986014
 30
0.0
 11
0.036548787
 21
-5.1419378911
 31
0.0
  0
LINE
  5
FF
330
DB
100
AcDbEntity
  8
0
  6
Continuous
 62
     7
370
    25
100
AcDbLine
 10
-0.2587028073
 20
-4.6304917125
 30
0.0
 11
-0.2589811958
 21
-4.6306524228
 31
0.0
  0
LINE
  5
100
330
DB
100
AcDbEntity
  8
0
  6
Continuous
 62
     7
370
    25
100
AcDbLine
 10
0.0165869589
 20
-5.1080021894
 30
0.0
 11
0.0168653474
 21
-5.1078414792
 31
0.0
  0
LINE
  5
101
330
DB
100
AcDbEntity
  8
0
  6
Continuous
 62
     7
370
    25
100
AcDbLine
 10
-0.2390193676
 20
-4.6645881244
 30
0.0
 11
-0.2392977561
 21
-4.6647488347
 31
0.0
  0
ARC
  5
102
330
DB
100
AcDbEntity
  8
0
  6
Continuous
 62
     7
370
    25
100
AcDbCircle
 10
-0.0542669064
 20
-5.0050839143
 30
0.0
 40
0.1249756562803463
100
AcDbArc
 50
304.6922892564
 51
6.619891137
  0
VIEWPORT
  5
107
330
DB
100
AcDbEntity
  8
0
100
AcDbViewport
 10
0.0
 20
0.0
 30
0.0
 40
8.4
 41
6.4
 68
     1
 69
     1
 12
0.0
 22
0.0
 13
0.0
 23
0.0
 14
0.5
 24
0.5
 15
0.5
 25
0.5
 16
0.0
 26
0.0
 36
1.0
 17
0.0
 27
0.0
 37
0.0
 42
50.0
 43
0.0
 44
0.0
 45
20.0787401575
 50
0.0
 51
0.0
 72
   100
 90
   557152
  1

281
     0
 71
     1
 74
     0
110
0.0
120
0.0
130
0.0
111
1.0
121
0.0
131
0.0
112
0.0
122
1.0
132
0.0
 79
     0
146
0.0
  0
ENDBLK
  5
DE
330
DB
100
AcDbEntity
  8
0
100
AcDbBlockEnd
  0
ENDSEC
  0
SECTION
  2
ENTITIES
  0
CIRCLE
  5
73
330
1F
100
AcDbEntity
  8
0
  6
Continuous
 62
     7
370
    25
100
AcDbCircle
 10
0.0
 20
-5.905511811
 30
0.0
 40
0.2559055118110238
  0
CIRCLE
  5
74
330
1F
100
AcDbEntity
  8
0
  6
Continuous
 62
     7
370
    25
100
AcDbCircle
 10
0.0
 20
0.0
 30
0.0
 40
9.625984251968507
  0
CIRCLE
  5
75
330
1F
100
AcDbEntity
  8
0
  6
Continuous
 62
     7
370
    25
100
AcDbCircle
 10
0.0
 20
-5.905511811
 30
0.0
 40
0.2952755905511817
  0
CIRCLE
  5
76
330
1F
100
AcDbEntity
  8
0
  6
Continuous
 62
     7
370
    25
100
AcDbCircle
 10
0.0
 20
0.0
 30
0.0
 40
9.645669291338583
  0
CIRCLE
  5
77
330
1F
100
AcDbEntity
  8
0
  6
Continuous
 62
     7
370
    25
100
AcDbCircle
 10
0.0
 20
0.0
 30
0.0
 40
9.842519685039406
  0
CIRCLE
  5
90
330
1B
100
AcDbEntity
 67
     1
  8
0
  6
Continuous
 62
     7
370
    25
100
AcDbCircle
 10
0.0
 20
0.0
 30
0.0
 40
9.389763779527554
  0
CIRCLE
  5
9D
330
1B
100
AcDbEntity
 67
     1
  8
0
  6
Continuous
 62
     7
370
    25
100
AcDbCircle
 10
0.0
 20
0.0
 30
0.0
 40
9.842519685039406
  0
LINE
  5
9E
330
1B
100
AcDbEntity
 67
     1
  8
0
  6
Continuous
 62
     7
370
    25
100
AcDbLine
 10
4.4363368904
 20
5.1179665635
 30
0.0
 11
4.6725008248
 21
5.1231345092
 31
0.0
  0
LINE
  5
9F
330
1B
100
AcDbEntity
 67
     1
  8
0
  6
Continuous
 62
     7
370
    25
100
AcDbLine
 10
4.4415048361
 20
4.881802629
 30
0.0
 11
4.4363368904
 21
5.1179665635
 31
0.0
  0
LINE
  5
A0
330
1B
100
AcDbEntity
 67
     1
  8
0
  6
Continuous
 62
     7
370
    25
100
AcDbLine
 10
4.2053409017
 20
4.8766346832
 30
0.0
 11
4.4415048361
 21
4.881802629
 31
0.0
  0
LINE
  5
A1
330
1B
100
AcDbEntity
 67
     1
  8
0
  6
Continuous
 62
     7
370
    25
100
AcDbLine
 10
4.2105088475
 20
4.6404707488
 30
0.0
 11
4.2053409017
 21
4.8766346832
 31
0.0
  0
LINE
  5
A2
330
1B
100
AcDbEntity
 67
     1
  8
0
  6
Continuous
 62
     7
370
    25
100
AcDbLine
 10
4.4466727819
 20
4.6456386945
 30
0.0
 11
4.2105088475
 21
4.6404707488
 31
0.0
  0
LINE
  5
A3
330
1B
100
AcDbEntity
 67
     1
  8
0
  6
Continuous
 62
     7
370
    25
100
AcDbLine
 10
4.4518407277
 20
4.4094747601
 30
0.0
 11
4.4466727819
 21
4.6456386945
 31
0.0
  0
LINE
  5
A4
330
1B
100
AcDbEntity
 67
     1
  8
0
  6
Continuous
 62
     7
370
    25
100
AcDbLine
 10
4.6880046622
 20
4.4146427059
 30
0.0
 11
4.4518407277
 21
4.4094747601
 31
0.0
  0
LINE
  5
A5
330
1B
100
AcDbEntity
 67
     1
  8
0
  6
Continuous
 62
     7
370
    25
100
AcDbLine
 10
4.6828367164
 20
4.6508066403
 30
0.0
 11
4.6880046622
 21
4.4146427059
 31
0.0
  0
LINE
  5
A6
330
1B
100
AcDbEntity
 67
     1
  8
0
  6
Continuous
 62
     7
370
    25
100
AcDbLine
 10
4.9190006508
 20
4.6559745861
 30
0.0
 11
4.6828367164
 21
4.6508066403
 31
0.0
  0
LINE
  5
A7
330
1B
100
AcDbEntity
 67
     1
  8
0
  6
Continuous
 62
     7
370
    25
100
AcDbLine
 10
4.913832705
 20
4.8921385206
 30
0.0
 11
4.9190006508
 21
4.6559745861
 31
0.0
  0
LINE
  5
A8
330
1B
100
AcDbEntity
 67
     1
  8
0
  6
Continuous
 62
     7
370
    25
100
AcDbLine
 10
4.6776687706
 20
4.8869705748
 30
0.0
 11
4.913832705
 21
4.8921385206
 31
0.0
  0
LINE
  5
A9
330
1B
100
AcDbEntity
 67
     1
  8
0
  6
Continuous
 62
     7
370
    25
100
AcDbLine
 10
4.6725008248
 20
5.1231345092
 30
0.0
 11
4.6776687706
 21
4.8869705748
 31
0.0
  0
LINE
  5
AA
330
1B
100
AcDbEntity
 67
     1
  8
0
  6
Continuous
 62
     7
370
    25
100
AcDbLine
 10
-5.1231345092
 20
4.6725008248
 30
0.0
 11
-5.1179665635
 21
4.4363368904
 31
0.0
  0
LINE
  5
AB
330
1B
100
AcDbEntity
 67
     1
  8
0
  6
Continuous
 62
     7
370
    25
100
AcDbLine
 10
-5.1179665635
 20
4.4363368904
 30
0.0
 11
-4.881802629
 21
4.4415048361
 31
0.0
  0
LINE
  5
AC
330
1B
100
AcDbEntity
 67
     1
  8
0
  6
Continuous
 62
     7
370
    25
100
AcDbLine
 10
-4.881802629
 20
4.4415048361
 30
0.0
 11
-4.8766346832
 21
4.2053409017
 31
0.0
  0
LINE
  5
AD
330
1B
100
AcDbEntity
 67
     1
  8
0
  6
Continuous
 62
     7
370
    25
100
AcDbLine
 10
-4.8766346832
 20
4.2053409017
 30
0.0
 11
-4.6404707488
 21
4.2105088475
 31
0.0
  0
LINE
  5
AE
330
1B
100
AcDbEntity
 67
     1
  8
0
  6
Continuous
 62
     7
370
    25
100
AcDbLine
 10
-4.6404707488
 20
4.2105088475
 30
0.0
 11
-4.6456386945
 21
4.4466727819
 31
0.0
  0
LINE
  5
AF
330
1B
100
AcDbEntity
 67
     1
  8
0
  6
Continuous
 62
     7
370
    25
100
AcDbLine
 10
-4.6456386945
 20
4.4466727819
 30
0.0
 11
-4.4094747601
 21
4.4518407277
 31
0.0
  0
LINE
  5
B0
330
1B
100
AcDbEntity
 67
     1
  8
0
  6
Continuous
 62
     7
370
    25
100
AcDbLine
 10
-4.4094747601
 20
4.4518407277
 30
0.0
 11
-4.4146427059
 21
4.6880046622
 31
0.0
  0
LINE
  5
B1
330
1B
100
AcDbEntity
 67
     1
  8
0
  6
Continuous
 62
     7
370
    25
100
AcDbLine
 10
-4.4146427059
 20
4.6880046622
 30
0.0
 11
-4.6508066403
 21
4.6828367164
 31
0.0
  0
LINE
  5
B2
330
1B
100
AcDbEntity
 67
     1
  8
0
  6
Continuous
 62
     7
370
    25
100
AcDbLine
 10
-4.6508066403
 20
4.6828367164
 30
0.0
 11
-4.6559745861
 21
4.9190006508
 31
0.0
  0
LINE
  5
B3
330
1B
100
AcDbEntity
 67
     1
  8
0
  6
Continuous
 62
     7
370
    25
100
AcDbLine
 10
-4.6559745861
 20
4.9190006508
 30
0.0
 11
-4.8921385206
 21
4.913832705
 31
0.0
  0
LINE
  5
B4
330
1B
100
AcDbEntity
 67
     1
  8
0
  6
Continuous
 62
     7
370
    25
100
AcDbLine
 10
-4.8921385206
 20
4.913832705
 30
0.0
 11
-4.8869705748
 21
4.6776687706
 31
0.0
  0
LINE
  5
B5
330
1B
100
AcDbEntity
 67
     1
  8
0
  6
Continuous
 62
     7
370
    25
100
AcDbLine
 10
-4.8869705748
 20
4.6776687706
 30
0.0
 11
-5.1231345092
 21
4.6725008248
 31
0.0
  0
LINE
  5
B6
330
1B
100
AcDbEntity
 67
     1
  8
0
  6
Continuous
 62
     7
370
    25
100
AcDbLine
 10
-2.011099002
 20
1.9249665723
 30
0.0
 11
-1.9249665723
 21
-2.011099002
 31
0.0
  0
LINE
  5
B7
330
1B
100
AcDbEntity
 67
     1
  8
0
  6
Continuous
 62
     7
370
    25
100
AcDbLine
 10
-1.9249665723
 20
-2.011099002
 30
0.0
 11
2.011099002
 21
-1.9249665723
 31
0.0
  0
LINE
  5
B8
330
1B
100
AcDbEntity
 67
     1
  8
0
  6
Continuous
 62
     7
370
    25
100
AcDbLine
 10
2.011099002
 20
-1.9249665723
 30
0.0
 11
1.9249665723
 21
2.011099002
 31
0.0
  0
LINE
  5
B9
330
1B
100
AcDbEntity
 67
     1
  8
0
  6
Continuous
 62
     7
370
    25
100
AcDbLine
 10
1.9249665723
 20
2.011099002
 30
0.0
 11
-2.011099002
 21
1.9249665723
 31
0.0
  0
LINE
  5
BA
330
1B
100
AcDbEntity
 67
     1
  8
0
  6
Continuous
 62
     7
370
    25
100
AcDbLine
 10
4.4509794034
 20
4.4488354158
 30
0.0
 11
4.6871433379
 21
4.4540033616
 31
0.0
  0
LINE
  5
BB
330
1B
100
AcDbEntity
 67
     1
  8
0
  6
Continuous
 62
     7
370
    25
100
AcDbLine
 10
4.6733621491
 20
5.0837738535
 30
0.0
 11
4.4371982146
 21
5.0786059077
 31
0.0
  0
LINE
  5
BC
330
1B
100
AcDbEntity
 67
     1
  8
0
  6
Continuous
 62
     7
370
    25
100
AcDbLine
 10
-5.0786059077
 20
4.4371982146
 30
0.0
 11
-5.0837738535
 21
4.6733621491
 31
0.0
  0
LINE
  5
BD
330
1B
100
AcDbEntity
 67
     1
  8
0
  6
Continuous
 62
     7
370
    25
100
AcDbLine
 10
4.8796399951
 20
4.6551132618
 30
0.0
 11
4.8744720493
 21
4.8912771963
 31
0.0
  0
LINE
  5
BE
330
1B
100
AcDbEntity
 67
     1
  8
0
  6
Continuous
 62
     7
370
    25
100
AcDbLine
 10
-4.8912771963
 20
4.8744720493
 30
0.0
 11
-4.6551132618
 21
4.8796399951
 31
0.0
  0
LINE
  5
BF
330
1B
100
AcDbEntity
 67
     1
  8
0
  6
Continuous
 62
     7
370
    25
100
AcDbLine
 10
-4.6413320731
 20
4.2498695032
 30
0.0
 11
-4.8774960075
 21
4.2447015574
 31
0.0
  0
LINE
  5
C0
330
1B
100
AcDbEntity
 67
     1
  8
0
  6
Continuous
 62
     7
370
    25
100
AcDbLine
 10
-4.4540033616
 20
4.6871433379
 30
0.0
 11
-4.4488354158
 21
4.4509794034
 31
0.0
  0
LINE
  5
C1
330
1B
100
AcDbEntity
 67
     1
  8
0
  6
Continuous
 62
     7
370
    25
100
AcDbLine
 10
4.2447015574
 20
4.8774960075
 30
0.0
 11
4.2498695032
 21
4.6413320731
 31
0.0
  0
VIEWPORT
  5
103
330
1B
100
AcDbEntity
 67
     1
  8
0
100
AcDbViewport
 10
0.0
 20
0.0
 30
0.0
 40
8.4
 41
6.4
 68
     1
 69
     1
 12
0.0
 22
0.0
 13
0.0
 23
0.0
 14
0.5
 24
0.5
 15
0.5
 25
0.5
 16
0.0
 26
0.0
 36
1.0
 17
0.0
 27
0.0
 37
0.0
 42
50.0
 43
0.0
 44
0.0
 45
20.0787401575
 50
0.0
 51
0.0
 72
   100
 90
   557152
  1

281
     0
 71
     1
 74
     0
110
0.0
120
0.0
130
0.0
111
1.0
121
0.0
131
0.0
112
0.0
122
1.0
132
0.0
 79
     0
146
0.0
  0
ENDSEC
  0
SECTION
  2
OBJECTS
  0
DICTIONARY
  5
C
330
0
100
AcDbDictionary
281
     1
  3
ACAD_GROUP
350
D
  3
ACAD_LAYOUT
350
1A
  3
ACAD_MLINESTYLE
350
17
  3
ACAD_PLOTSETTINGS
350
19
  3
ACAD_PLOTSTYLENAME
350
E
  3
ACAD_SCALELIST
350
47
  0
DICTIONARY
  5
D
102
{ACAD_REACTORS
330
C
102
}
330
C
100
AcDbDictionary
281
     1
  0
DICTIONARY
  5
1A
102
{ACAD_REACTORS
330
C
102
}
330
C
100
AcDbDictionary
281
     1
  3
_Back
350
1E
  3
_Isometric
350
DC
  3
_Left
350
26
  3
Model
350
22
  0
DICTIONARY
  5
17
102
{ACAD_REACTORS
330
C
102
}
330
C
100
AcDbDictionary
281
     1
  3
Standard
350
18
  0
DICTIONARY
  5
19
102
{ACAD_REACTORS
330
C
102
}
330
C
100
AcDbDictionary
281
     1
  0
ACDBDICTIONARYWDFLT
  5
E
102
{ACAD_REACTORS
330
C
102
}
330
C
100
AcDbDictionary
281
     1
  3
Normal
350
F
100
AcDbDictionaryWithDefault
340
F
  0
DICTIONARY
  5
47
102
{ACAD_REACTORS
330
C
102
}
330
C
100
AcDbDictionary
281
     1
  3
A0
350
48
  3
A1
350
49
  3
A2
350
4A
  3
A3
350
4B
  3
A4
350
4C
  3
A5
350
4D
  3
A6
350
4E
  3
A7
350
4F
  3
A8
350
50
  3
A9
350
51
  3
B0
350
52
  3
B1
350
53
  3
B2
350
54
  3
B3
350
55
  3
B4
350
56
  3
B5
350
57
  3
B6
350
58
  3
B7
350
59
  3
B8
350
5A
  3
B9
350
5B
  3
C0
350
5C
  3
C1
350
5D
  3
C2
350
5E
  3
C3
350
5F
  3
C4
350
60
  3
C5
350
61
  3
C6
350
62
  3
C7
350
63
  3
C8
350
64
  3
C9
350
65
  3
D0
350
66
  3
D1
350
67
  3
D2
350
68
  0
LAYOUT
  5
1E
102
{ACAD_REACTORS
330
1A
102
}
330
1A
100
AcDbPlotSettings
  1

  2
none_device
  4
Letter_(8.50_x_11.00_Inches)
  6

 40
6.35
 41
6.35
 42
6.35001
 43
6.35001
 44
215.9
 45
279.4
 46
0.0
 47
0.0
 48
0.0
 49
0.0
140
0.0
141
0.0
142
1.0
143
2.4606300424
 70
   688
 72
     0
 73
     1
 74
     1
  7

 75
     0
147
0.40639998
148
250.0
149
250.0
100
AcDbLayout
  1
_Back
 70
     1
 71
     1
 10
-10.4576781644
 20
-10.4576771956
 11
16.6092523015
 21
10.4576781644
 12
0.0
 22
0.0
 32
0.0
 14
-9.842519685
 24
-9.842519685
 34
0.0
 15
9.842519685
 25
9.842519685
 35
0.0
146
0.0
 13
0.0
 23
0.0
 33
0.0
 16
1.0
 26
0.0
 36
0.0
 17
0.0
 27
1.0
 37
0.0
 76
     0
330
1B
331
103
  0
LAYOUT
  5
DC
102
{ACAD_REACTORS
330
1A
102
}
330
1A
100
AcDbPlotSettings
  1

  2
none_device
  4
Letter_(8.50_x_11.00_Inches)
  6

 40
6.35
 41
6.35
 42
6.35001
 43
6.35001
 44
215.9
 45
279.4
 46
0.0
 47
0.0
 48
0.0
 49
0.0
140
0.0
141
0.0
142
1.0
143
2.4606300424
 70
   688
 72
     0
 73
     1
 74
     1
  7

 75
     0
147
0.40639998
148
250.0
149
250.0
100
AcDbLayout
  1
_Isometric
 70
     1
 71
     3
 10
0.0
 20
0.0
 11
0.0
 21
0.0
 12
0.0
 22
0.0
 32
0.0
 14
0.0
 24
0.0
 34
0.0
 15
0.0
 25
0.0
 35
0.0
146
0.0
 13
0.0
 23
0.0
 33
0.0
 16
1.0
 26
0.0
 36
0.0
 17
0.0
 27
1.0
 37
0.0
 76
     0
330
DB
331
107
  0
LAYOUT
  5
26
102
{ACAD_REACTORS
330
1A
102
}
330
1A
100
AcDbPlotSettings
  1

  2
none_device
  4
Letter_(8.50_x_11.00_Inches)
  6

 40
6.35
 41
6.35
 42
6.35001
 43
6.35001
 44
215.9
 45
279.4
 46
0.0
 47
0.0
 48
0.0
 49
0.0
140
0.0
141
0.0
142
1.0
143
2.4606300424
 70
   688
 72
     0
 73
     1
 74
     1
  7

 75
     0
147
0.40639998
148
250.0
149
250.0
100
AcDbLayout
  1
_Left
 70
     1
 71
     2
 10
0.0
 20
0.0
 11
0.0
 21
0.0
 12
0.0
 22
0.0
 32
0.0
 14
0.0
 24
0.0
 34
0.0
 15
0.0
 25
0.0
 35
0.0
146
0.0
 13
0.0
 23
0.0
 33
0.0
 16
1.0
 26
0.0
 36
0.0
 17
0.0
 27
1.0
 37
0.0
 76
     0
330
23
331
105
  0
LAYOUT
  5
22
102
{ACAD_REACTORS
330
1A
102
}
330
1A
100
AcDbPlotSettings
  1

  2
none_device
  4
ANSI_A_(11.00_x_8.50_Inches)
  6

 40
6.35
 41
19.05
 42
6.35000508
 43
19.05000254
 44
279.4
 45
215.9
 46
133.34999746
 47
88.89999873
 48
0.0
 49
0.0
140
0.0
141
0.0
142
0.427482
143
1.0
 70
  1696
 72
     0
 73
     0
 74
     0
  7

 75
     0
147
0.5913241897
148
-39.4088153714
149
0.0
100
AcDbLayout
  1
Model
 70
     1
 71
     0
 10
0.0
 20
0.0
 11
12.0
 21
9.0
 12
0.0
 22
0.0
 32
0.0
 14
-9.842519685
 24
-9.842519685
 34
0.0
 15
9.842519685
 25
9.842519685
 35
0.0
146
0.0
 13
0.0
 23
0.0
 33
0.0
 16
1.0
 26
0.0
 36
0.0
 17
0.0
 27
1.0
 37
0.0
 76
     0
330
1F
331
29
  0
MLINESTYLE
  5
18
102
{ACAD_REACTORS
330
17
102
}
330
17
100
AcDbMlineStyle
  2
Standard
 70
     0
  3

 62
   256
 51
90.0
 52
90.0
 71
     2
 49
0.5
 62
   256
  6
BYLAYER
 49
-0.5
 62
   256
  6
BYLAYER
  0
ACDBPLACEHOLDER
  5
F
102
{ACAD_REACTORS
330
E
102
}
330
E
  0
SCALE
  5
48
102
{ACAD_REACTORS
330
47
102
}
330
47
100
AcDbScale
 70
     0
300
1:1
140
1.0
141
1.0
290
     1
  0
SCALE
  5
49
102
{ACAD_REACTORS
330
47
102
}
330
47
100
AcDbScale
 70
     0
300
1:2
140
1.0
141
2.0
290
     0
  0
SCALE
  5
4A
102
{ACAD_REACTORS
330
47
102
}
330
47
100
AcDbScale
 70
     0
300
1:4
140
1.0
141
4.0
290
     0
  0
SCALE
  5
4B
102
{ACAD_REACTORS
330
47
102
}
330
47
100
AcDbScale
 70
     0
300
1:5
140
1.0
141
5.0
290
     0
  0
SCALE
  5
4C
102
{ACAD_REACTORS
330
47
102
}
330
47
100
AcDbScale
 70
     0
300
1:8
140
1.0
141
8.0
290
     0
  0
SCALE
  5
4D
102
{ACAD_REACTORS
330
47
102
}
330
47
100
AcDbScale
 70
     0
300
1:10
140
1.0
141
10.0
290
     0
  0
SCALE
  5
4E
102
{ACAD_REACTORS
330
47
102
}
330
47
100
AcDbScale
 70
     0
300
1:16
140
1.0
141
16.0
290
     0
  0
SCALE
  5
4F
102
{ACAD_REACTORS
330
47
102
}
330
47
100
AcDbScale
 70
     0
300
1:20
140
1.0
141
20.0
290
     0
  0
SCALE
  5
50
102
{ACAD_REACTORS
330
47
102
}
330
47
100
AcDbScale
 70
     0
300
1:30
140
1.0
141
30.0
290
     0
  0
SCALE
  5
51
102
{ACAD_REACTORS
330
47
102
}
330
47
100
AcDbScale
 70
     0
300
1:40
140
1.0
141
40.0
290
     0
  0
SCALE
  5
52
102
{ACAD_REACTORS
330
47
102
}
330
47
100
AcDbScale
 70
     0
300
1:50
140
1.0
141
50.0
290
     0
  0
SCALE
  5
53
102
{ACAD_REACTORS
330
47
102
}
330
47
100
AcDbScale
 70
     0
300
1:100
140
1.0
141
100.0
290
     0
  0
SCALE
  5
54
102
{ACAD_REACTORS
330
47
102
}
330
47
100
AcDbScale
 70
     0
300
2:1
140
2.0
141
1.0
290
     0
  0
SCALE
  5
55
102
{ACAD_REACTORS
330
47
102
}
330
47
100
AcDbScale
 70
     0
300
4:1
140
4.0
141
1.0
290
     0
  0
SCALE
  5
56
102
{ACAD_REACTORS
330
47
102
}
330
47
100
AcDbScale
 70
     0
300
8:1
140
8.0
141
1.0
290
     0
  0
SCALE
  5
57
102
{ACAD_REACTORS
330
47
102
}
330
47
100
AcDbScale
 70
     0
300
10:1
140
10.0
141
1.0
290
     0
  0
SCALE
  5
58
102
{ACAD_REACTORS
330
47
102
}
330
47
100
AcDbScale
 70
     0
300
100:1
140
100.0
141
1.0
290
     0
  0
SCALE
  5
59
102
{ACAD_REACTORS
330
47
102
}
330
47
100
AcDbScale
 70
     0
300
1/128" = 1'-0"
140
0.0078125
141
12.0
290
     0
  0
SCALE
  5
5A
102
{ACAD_REACTORS
330
47
102
}
330
47
100
AcDbScale
 70
     0
300
1/64" = 1'-0"
140
0.015625
141
12.0
290
     0
  0
SCALE
  5
5B
102
{ACAD_REACTORS
330
47
102
}
330
47
100
AcDbScale
 70
     0
300
1/32" = 1'-0"
140
0.03125
141
12.0
290
     0
  0
SCALE
  5
5C
102
{ACAD_REACTORS
330
47
102
}
330
47
100
AcDbScale
 70
     0
300
1/16" = 1'-0"
140
0.0625
141
12.0
290
     0
  0
SCALE
  5
5D
102
{ACAD_REACTORS
330
47
102
}
330
47
100
AcDbScale
 70
     0
300
3/32" = 1'-0"
140
0.09375
141
12.0
290
     0
  0
SCALE
  5
5E
102
{ACAD_REACTORS
330
47
102
}
330
47
100
AcDbScale
 70
     0
300
1/8" = 1'-0"
140
0.125
141
12.0
290
     0
  0
SCALE
  5
5F
102
{ACAD_REACTORS
330
47
102
}
330
47
100
AcDbScale
 70
     0
300
3/16" = 1'-0"
140
0.1875
141
12.0
290
     0
  0
SCALE
  5
60
102
{ACAD_REACTORS
330
47
102
}
330
47
100
AcDbScale
 70
     0
300
1/4" = 1'-0"
140
0.25
141
12.0
290
     0
  0
SCALE
  5
61
102
{ACAD_REACTORS
330
47
102
}
330
47
100
AcDbScale
 70
     0
300
3/8" = 1'-0"
140
0.375
141
12.0
290
     0
  0
SCALE
  5
62
102
{ACAD_REACTORS
330
47
102
}
330
47
100
AcDbScale
 70
     0
300
1/2" = 1'-0"
140
0.5
141
12.0
290
     0
  0
SCALE
  5
63
102
{ACAD_REACTORS
330
47
102
}
330
47
100
AcDbScale
 70
     0
300
3/4" = 1'-0"
140
0.75
141
12.0
290
     0
  0
SCALE
  5
64
102
{ACAD_REACTORS
330
47
102
}
330
47
100
AcDbScale
 70
     0
300
1" = 1'-0"
140
1.0
141
12.0
290
     0
  0
SCALE
  5
65
102
{ACAD_REACTORS
330
47
102
}
330
47
100
AcDbScale
 70
     0
300
1-1/2" = 1'-0"
140
1.5
141
12.0
290
     0
  0
SCALE
  5
66
102
{ACAD_REACTORS
330
47
102
}
330
47
100
AcDbScale
 70
     0
300
3" = 1'-0"
140
3.0
141
12.0
290
     0
  0
SCALE
  5
67
102
{ACAD_REACTORS
330
47
102
}
330
47
100
AcDbScale
 70
     0
300
6" = 1'-0"
140
6.0
141
12.0
290
     0
  0
SCALE
  5
68
102
{ACAD_REACTORS
330
47
102
}
330
47
100
AcDbScale
 70
     0
300
1'-0" = 1'-0"
140
12.0
141
12.0
290
     0
  0
ENDSEC
  0
EOF
