  0
SECTION
  2
HEADER
  9
$ACADVER
  1
AC1015
  9
$ACADMAINTVER
 70
     6
  9
$DWGCODEPAGE
  3
ANSI_1252
  9
$INSBASE
 10
0.0
 20
0.0
 30
0.0
  9
$EXTMIN
 10
-130.5
 20
-32.25
 30
0.0
  9
$EXTMAX
 10
130.5
 20
32.25
 30
0.0
  9
$LIMMIN
 10
0.0
 20
0.0
  9
$LIMMAX
 10
420.0
 20
297.0
  9
$ORTHOMODE
 70
     0
  9
$REGENMODE
 70
     1
  9
$FILLMODE
 70
     1
  9
$QTEXTMODE
 70
     0
  9
$MIRRTEXT
 70
     1
  9
$LTSCALE
 40
1.0
  9
$ATTMODE
 70
     1
  9
$TEXTSIZE
 40
3.5
  9
$TRACEWID
 40
1.0
  9
$TEXTSTYLE
  7
Standard
  9
$CLAYER
  8
0
  9
$CELTYPE
  6
ByLayer
  9
$CECOLOR
 62
   256
  9
$CELTSCALE
 40
1.0
  9
$DISPSILH
 70
     0
  9
$DIMSCALE
 40
1.0
  9
$DIMASZ
 40
3.302
  9
$DIMEXO
 40
1.0
  9
$DIMDLI
 40
3.75
  9
$DIMRND
 40
0.0
  9
$DIMDLE
 40
0.0
  9
$DIMEXE
 40
1.0
  9
$DIMTP
 40
0.0
  9
$DIMTM
 40
0.0
  9
$DIMTXT
 40
3.5
  9
$DIMCEN
 40
2.5
  9
$DIMTSZ
 40
0.0
  9
$DIMTOL
 70
     0
  9
$DIMLIM
 70
     0
  9
$DIMTIH
 70
     1
  9
$DIMTOH
 70
     1
  9
$DIMSE1
 70
     0
  9
$DIMSE2
 70
     0
  9
$DIMTAD
 70
     1
  9
$DIMZIN
 70
     1
  9
$DIMBLK
  1

  9
$DIMASO
 70
     1
  9
$DIMSHO
 70
     1
  9
$DIMPOST
  1

  9
$DIMAPOST
  1

  9
$DIMALT
 70
     0
  9
$DIMALTD
 70
     3
  9
$DIMALTF
 40
0.0393700787
  9
$DIMLFAC
 40
1.0
  9
$DIMTOFL
 70
     1
  9
$DIMTVP
 40
0.0
  9
$DIMTIX
 70
     0
  9
$DIMSOXD
 70
     0
  9
$DIMSAH
 70
     0
  9
$DIMBLK1
  1

  9
$DIMBLK2
  1

  9
$DIMSTYLE
  2
ISO-25
  9
$DIMCLRD
 70
     0
  9
$DIMCLRE
 70
     0
  9
$DIMCLRT
 70
     0
  9
$DIMTFAC
 40
1.0
  9
$DIMGAP
 40
1.524
  9
$DIMJUST
 70
     0
  9
$DIMSD1
 70
     0
  9
$DIMSD2
 70
     0
  9
$DIMTOLJ
 70
     0
  9
$DIMTZIN
 70
     1
  9
$DIMALTZ
 70
     0
  9
$DIMALTTZ
 70
     0
  9
$DIMUPT
 70
     0
  9
$DIMDEC
 70
     2
  9
$DIMTDEC
 70
     2
  9
$DIMALTU
 70
     2
  9
$DIMALTTD
 70
     3
  9
$DIMTXSTY
  7
Standard
  9
$DIMAUNIT
 70
     0
  9
$DIMADEC
 70
     2
  9
$DIMALTRND
 40
0.0
  9
$DIMAZIN
 70
     0
  9
$DIMDSEP
 70
    44
  9
$DIMATFIT
 70
     3
  9
$DIMFRAC
 70
     0
  9
$DIMLDRBLK
  1

  9
$DIMLUNIT
 70
     2
  9
$DIMLWD
 70
    -2
  9
$DIMLWE
 70
    -2
  9
$DIMTMOVE
 70
     0
  9
$LUNITS
 70
     2
  9
$LUPREC
 70
     2
  9
$SKETCHINC
 40
1.0
  9
$FILLETRAD
 40
10.0
  9
$AUNITS
 70
     0
  9
$AUPREC
 70
     2
  9
$MENU
  1
.
  9
$ELEVATION
 40
0.0
  9
$PELEVATION
 40
0.0
  9
$THICKNESS
 40
0.0
  9
$LIMCHECK
 70
     0
  9
$CHAMFERA
 40
0.0
  9
$CHAMFERB
 40
0.0
  9
$CHAMFERC
 40
0.0
  9
$CHAMFERD
 40
0.0
  9
$SKPOLY
 70
     0
  9
$TDCREATE
 40
2459283.33994147
  9
$TDUCREATE
 40
2459283.33994147
  9
$TDUPDATE
 40
2459283.340029583
  9
$TDUUPDATE
 40
2459283.340029583
  9
$TDINDWG
 40
0.0000000116
  9
$TDUSRTIMER
 40
0.0000000116
  9
$USRTIMER
 70
     1
  9
$ANGBASE
 50
0.0
  9
$ANGDIR
 70
     0
  9
$PDMODE
 70
     0
  9
$PDSIZE
 40
-1.0
  9
$PLINEWID
 40
0.0
  9
$SPLFRAME
 70
     0
  9
$SPLINETYPE
 70
     6
  9
$SPLINESEGS
 70
     8
  9
$HANDSEED
  5
379
  9
$SURFTAB1
 70
     6
  9
$SURFTAB2
 70
     6
  9
$SURFTYPE
 70
     6
  9
$SURFU
 70
     6
  9
$SURFV
 70
     6
  9
$UCSBASE
  2

  9
$UCSNAME
  2

  9
$UCSORG
 10
0.0
 20
0.0
 30
0.0
  9
$UCSXDIR
 10
1.0
 20
0.0
 30
0.0
  9
$UCSYDIR
 10
0.0
 20
1.0
 30
0.0
  9
$UCSORTHOREF
  2

  9
$UCSORTHOVIEW
 70
     0
  9
$UCSORGTOP
 10
0.0
 20
0.0
 30
0.0
  9
$UCSORGBOTTOM
 10
0.0
 20
0.0
 30
0.0
  9
$UCSORGLEFT
 10
0.0
 20
0.0
 30
0.0
  9
$UCSORGRIGHT
 10
0.0
 20
0.0
 30
0.0
  9
$UCSORGFRONT
 10
0.0
 20
0.0
 30
0.0
  9
$UCSORGBACK
 10
0.0
 20
0.0
 30
0.0
  9
$PUCSBASE
  2

  9
$PUCSNAME
  2

  9
$PUCSORG
 10
0.0
 20
0.0
 30
0.0
  9
$PUCSXDIR
 10
1.0
 20
0.0
 30
0.0
  9
$PUCSYDIR
 10
0.0
 20
1.0
 30
0.0
  9
$PUCSORTHOREF
  2

  9
$PUCSORTHOVIEW
 70
     0
  9
$PUCSORGTOP
 10
0.0
 20
0.0
 30
0.0
  9
$PUCSORGBOTTOM
 10
0.0
 20
0.0
 30
0.0
  9
$PUCSORGLEFT
 10
0.0
 20
0.0
 30
0.0
  9
$PUCSORGRIGHT
 10
0.0
 20
0.0
 30
0.0
  9
$PUCSORGFRONT
 10
0.0
 20
0.0
 30
0.0
  9
$PUCSORGBACK
 10
0.0
 20
0.0
 30
0.0
  9
$USERI1
 70
     0
  9
$USERI2
 70
     0
  9
$USERI3
 70
     0
  9
$USERI4
 70
     0
  9
$USERI5
 70
     0
  9
$USERR1
 40
0.0
  9
$USERR2
 40
0.0
  9
$USERR3
 40
0.0
  9
$USERR4
 40
0.0
  9
$USERR5
 40
0.0
  9
$WORLDVIEW
 70
     1
  9
$SHADEDGE
 70
     3
  9
$SHADEDIF
 70
    70
  9
$TILEMODE
 70
     0
  9
$MAXACTVP
 70
    64
  9
$PINSBASE
 10
0.0
 20
0.0
 30
0.0
  9
$PLIMCHECK
 70
     0
  9
$PEXTMIN
 10
-130.5
 20
-32.25
 30
0.0
  9
$PEXTMAX
 10
130.5
 20
32.25
 30
0.0
  9
$PLIMMIN
 10
0.0
 20
0.0
  9
$PLIMMAX
 10
0.0
 20
0.0
  9
$UNITMODE
 70
     0
  9
$VISRETAIN
 70
     1
  9
$PLINEGEN
 70
     0
  9
$PSLTSCALE
 70
     1
  9
$TREEDEPTH
 70
  3020
  9
$CMLSTYLE
  2
Standard
  9
$CMLJUST
 70
     0
  9
$CMLSCALE
 40
20.0
  9
$PROXYGRAPHICS
 70
     1
  9
$MEASUREMENT
 70
     1
  9
$CELWEIGHT
370
    -1
  9
$ENDCAPS
280
     0
  9
$JOINSTYLE
280
     0
  9
$LWDISPLAY
290
     1
  9
$INSUNITS
 70
     4
  9
$HYPERLINKBASE
  1

  9
$STYLESHEET
  1

  9
$XEDIT
290
     1
  9
$CEPSNTYPE
380
     0
  9
$PSTYLEMODE
290
     1
  9
$FINGERPRINTGUID
  2
{87021fc8-eff4-4557-ba32-949ffee8aa27}
  9
$VERSIONGUID
  2
{FAEB1C32-E019-11D5-929B-00C0DF256EC4}
  9
$EXTNAMES
290
     1
  9
$PSVPSCALE
 40
0.0
  9
$OLESTARTUP
290
     0
  0
ENDSEC
  0
SECTION
  2
CLASSES
  0
CLASS
  1
ACDBDICTIONARYWDFLT
  2
AcDbDictionaryWithDefault
  3
ObjectDBX Classes
 90
        0
280
     0
281
     0
  0
CLASS
  1
VISUALSTYLE
  2
AcDbVisualStyle
  3
ObjectDBX Classes
 90
     4095
280
     0
281
     0
  0
CLASS
  1
MATERIAL
  2
AcDbMaterial
  3
ObjectDBX Classes
 90
     1153
280
     0
281
     0
  0
CLASS
  1
SCALE
  2
AcDbScale
  3
ObjectDBX Classes
 90
     1153
280
     0
281
     0
  0
CLASS
  1
TABLESTYLE
  2
AcDbTableStyle
  3
ObjectDBX Classes
 90
     4095
280
     0
281
     0
  0
CLASS
  1
MLEADERSTYLE
  2
AcDbMLeaderStyle
  3
ACDB_MLEADERSTYLE_CLASS
 90
     4095
280
     0
281
     0
  0
CLASS
  1
SUN
  2
AcDbSun
  3
SCENEOE
 90
     1153
280
     0
281
     0
  0
CLASS
  1
ACDBPLACEHOLDER
  2
AcDbPlaceHolder
  3
ObjectDBX Classes
 90
        0
280
     0
281
     0
  0
CLASS
  1
LAYOUT
  2
AcDbLayout
  3
ObjectDBX Classes
 90
        0
280
     0
281
     0
  0
ENDSEC
  0
SECTION
  2
TABLES
  0
TABLE
  2
VPORT
  5
8
330
0
100
AcDbSymbolTable
 70
     1
  0
VPORT
  5
29
330
8
100
AcDbSymbolTableRecord
100
AcDbViewportTableRecord
  2
*Active
 70
     0
 10
0.0
 20
0.0
 11
1.0
 21
1.0
 12
0.0
 22
0.0
 13
0.0
 23
0.0
 14
10.0
 24
10.0
 15
10.0
 25
10.0
 16
0.0
 26
0.0
 36
1.0
 17
0.0
 27
0.0
 37
0.0
 40
65.79
 41
4.0465116279
 42
50.0
 43
0.0
 44
0.0
 50
0.0
 51
0.0
 71
     0
 72
   100
 73
     1
 74
     3
 75
     0
 76
     0
 77
     0
 78
     0
281
     0
 65
     1
110
0.0
120
0.0
130
0.0
111
1.0
121
0.0
131
0.0
112
0.0
122
1.0
132
0.0
 79
     0
146
0.0
  0
ENDTAB
  0
TABLE
  2
LTYPE
  5
5
330
0
100
AcDbSymbolTable
 70
     6
  0
LTYPE
  5
14
330
5
100
AcDbSymbolTableRecord
100
AcDbLinetypeTableRecord
  2
ByBlock
 70
     0
  3

 72
    65
 73
     0
 40
0.0
  0
LTYPE
  5
15
330
5
100
AcDbSymbolTableRecord
100
AcDbLinetypeTableRecord
  2
ByLayer
 70
     0
  3

 72
    65
 73
     0
 40
0.0
  0
LTYPE
  5
16
330
5
100
AcDbSymbolTableRecord
100
AcDbLinetypeTableRecord
  2
Continuous
 70
     0
  3
Solid line
 72
    65
 73
     0
 40
0.0
  0
LTYPE
  5
6E
330
5
100
AcDbSymbolTableRecord
100
AcDbLinetypeTableRecord
  2
HIDDEN
 70
     0
  3
Hidden __ __ __ __ __ __ __ __ __ __ __ __ __ __
 72
    65
 73
     2
 40
1.905
 49
1.27
 74
     0
 49
-0.635
 74
     0
  0
LTYPE
  5
6F
330
5
100
AcDbSymbolTableRecord
100
AcDbLinetypeTableRecord
  2
PHANTOM
 70
     0
  3
Phantom ______  __  __  ______  __  __  ______
 72
    65
 73
     6
 40
12.7
 49
6.35
 74
     0
 49
-1.27
 74
     0
 49
1.27
 74
     0
 49
-1.27
 74
     0
 49
1.27
 74
     0
 49
-1.27
 74
     0
  0
LTYPE
  5
70
330
5
100
AcDbSymbolTableRecord
100
AcDbLinetypeTableRecord
  2
CENTER
 70
     0
  3
Center ____ _ ____ _ ____ _ ____ _ ____ _ ____
 72
    65
 73
     4
 40
10.16
 49
6.35
 74
     0
 49
-1.27
 74
     0
 49
1.27
 74
     0
 49
-1.27
 74
     0
  0
LTYPE
  5
71
330
5
100
AcDbSymbolTableRecord
100
AcDbLinetypeTableRecord
  2
CENTERX2
 70
     0
  3
Center (2x) ________  __  ________  __  _____
 72
    65
 73
     4
 40
20.32
 49
12.7
 74
     0
 49
-2.54
 74
     0
 49
2.54
 74
     0
 49
-2.54
 74
     0
  0
LTYPE
  5
72
330
5
100
AcDbSymbolTableRecord
100
AcDbLinetypeTableRecord
  2
DOT2
 70
     0
  3
Dot (.5x) ........................................
 72
    65
 73
     2
 40
0.635
 49
0.0
 74
     0
 49
-0.635
 74
     0
  0
ENDTAB
  0
TABLE
  2
LAYER
  5
2
330
0
100
AcDbSymbolTable
 70
     1
  0
LAYER
  5
10
330
2
100
AcDbSymbolTableRecord
100
AcDbLayerTableRecord
  2
0
 70
     0
 62
     7
  6
Continuous
370
    -3
390
F
  0
ENDTAB
  0
TABLE
  2
STYLE
  5
3
330
0
100
AcDbSymbolTable
 70
     1
  0
STYLE
  5
11
330
3
100
AcDbSymbolTableRecord
100
AcDbTextStyleTableRecord
  2
Standard
 70
     0
 40
0.0
 41
1.0
 50
0.0
 71
     0
 42
3.5
  3
txt
  4

  0
ENDTAB
  0
TABLE
  2
VIEW
  5
6
330
0
100
AcDbSymbolTable
 70
     0
  0
ENDTAB
  0
TABLE
  2
UCS
  5
7
330
0
100
AcDbSymbolTable
 70
     0
  0
ENDTAB
  0
TABLE
  2
APPID
  5
9
330
0
100
AcDbSymbolTable
 70
     1
  0
APPID
  5
12
330
9
100
AcDbSymbolTableRecord
100
AcDbRegAppTableRecord
  2
ACAD
 70
     0
  0
ENDTAB
  0
TABLE
  2
DIMSTYLE
  5
A
330
0
100
AcDbSymbolTable
 70
     1
100
AcDbDimStyleTable
  0
DIMSTYLE
105
27
330
A
100
AcDbSymbolTableRecord
100
AcDbDimStyleTableRecord
  2
ISO-25
 70
     0
 41
2.5
 42
0.625
 43
3.75
 44
1.25
 73
     0
 74
     0
 77
     1
 78
     8
140
2.5
141
2.5
143
0.0393700787
147
0.625
171
     3
172
     1
178
     0
271
     2
272
     2
274
     3
278
    44
283
     0
284
     8
340
11
  0
ENDTAB
  0
TABLE
  2
BLOCK_RECORD
  5
1
330
0
100
AcDbSymbolTable
 70
     1
  0
BLOCK_RECORD
  5
1F
330
1
100
AcDbSymbolTableRecord
100
AcDbBlockTableRecord
  2
*Model_Space
340
22
  0
BLOCK_RECORD
  5
23
330
1
100
AcDbSymbolTableRecord
100
AcDbBlockTableRecord
  2
*Paper_Space
340
26
  0
BLOCK_RECORD
  5
1B
330
1
100
AcDbSymbolTableRecord
100
AcDbBlockTableRecord
  2
*Paper_Space0
340
1E
  0
ENDTAB
  0
ENDSEC
  0
SECTION
  2
BLOCKS
  0
BLOCK
  5
20
330
1F
100
AcDbEntity
  8
0
100
AcDbBlockBegin
  2
*Model_Space
 70
     0
 10
0.0
 20
0.0
 30
0.0
  3
*Model_Space
  1

  0
ENDBLK
  5
21
330
1F
100
AcDbEntity
  8
0
100
AcDbBlockEnd
  0
BLOCK
  5
24
330
23
100
AcDbEntity
 67
     1
  8
0
100
AcDbBlockBegin
  2
*Paper_Space
 70
     0
 10
0.0
 20
0.0
 30
0.0
  3
*Paper_Space
  1

  0
ENDBLK
  5
25
330
23
100
AcDbEntity
 67
     1
  8
0
100
AcDbBlockEnd
  0
BLOCK
  5
1C
330
1B
100
AcDbEntity
  8
0
100
AcDbBlockBegin
  2
*Paper_Space0
 70
     0
 10
0.0
 20
0.0
 30
0.0
  3
*Paper_Space0
  1

  0
SPLINE
  5
16D
330
1B
100
AcDbEntity
  8
0
  6
Continuous
 62
     7
370
    25
100
AcDbSpline
210
0.0
220
0.0
230
1.0
 70
     8
 71
     3
 72
     9
 73
     5
 74
     0
 42
0.000000001
 43
0.00000001
 40
0.0
 40
0.0
 40
0.0
 40
0.0
 40
0.5000025951562678
 40
1.0
 40
1.0
 40
1.0
 40
1.0
 10
-9.7996718335886
 20
20.62512205843122
 30
0.0
 10
-9.64940417958422
 20
20.53646536797594
 30
0.0
 10
-9.348870431439556
 20
20.35915290737248
 30
0.0
 10
-9.048200191588665
 20
20.18183768582626
 30
0.0
 10
-8.897865851949478
 20
20.09318053521386
 30
0.0
  0
SPLINE
  5
16E
330
1B
100
AcDbEntity
  8
0
  6
Continuous
 62
     7
370
    25
100
AcDbSpline
210
0.0
220
0.0
230
1.0
 70
     8
 71
     3
 72
     9
 73
     5
 74
     0
 42
0.000000001
 43
0.00000001
 40
0.0
 40
0.0
 40
0.0
 40
0.0
 40
0.5140541202042725
 40
1.0
 40
1.0
 40
1.0
 40
1.0
 10
-9.996081934819667
 20
22.36066017549542
 30
0.0
 10
-9.84253421613632
 20
22.27193273796181
 30
0.0
 10
-9.543834696672628
 20
22.09932943794672
 30
0.0
 10
-9.245146364407365
 20
21.92671529379726
 30
0.0
 10
-9.1
 20
21.84283416165336
 30
0.0
  0
SPLINE
  5
16F
330
1B
100
AcDbEntity
  8
0
  6
Continuous
 62
     7
370
    25
100
AcDbSpline
210
0.0
220
0.0
230
1.0
 70
     8
 71
     3
 72
     9
 73
     5
 74
     0
 42
0.000000001
 43
0.00000001
 40
0.0
 40
0.0
 40
0.0
 40
0.0
 40
0.5175521646335479
 40
1.0
 40
1.0
 40
1.0
 40
1.0
 10
-9.99005936183502
 20
24.15747885182105
 30
0.0
 10
-9.836502373405793
 20
24.06874140503572
 30
0.0
 10
-9.539803800928645
 20
23.89728536089347
 30
0.0
 10
-9.243129752482332
 20
23.72581695280187
 30
0.0
 10
-9.1
 20
23.64309239048436
 30
0.0
  0
SPLINE
  5
170
330
1B
100
AcDbEntity
  8
0
  6
Continuous
 62
     7
370
    25
100
AcDbSpline
210
0.0
220
0.0
230
1.0
 70
     8
 71
     3
 72
     9
 73
     5
 74
     0
 42
0.000000001
 43
0.00000001
 40
0.0
 40
0.0
 40
0.0
 40
0.0
 40
0.5185303139666917
 40
1.0
 40
1.0
 40
1.0
 40
1.0
 10
-9.988518837454707
 20
25.95677125651051
 30
0.0
 10
-9.834937532389638
 20
25.86802101838061
 30
0.0
 10
-9.538751753220446
 20
25.69686373839253
 30
0.0
 10
-9.24259196179385
 20
25.52569193136686
 30
0.0
 10
-9.1
 20
25.44327789518045
 30
0.0
  0
SPLINE
  5
171
330
1B
100
AcDbEntity
  8
0
  6
Continuous
 62
     7
370
    25
100
AcDbSpline
210
0.0
220
0.0
230
1.0
 70
     8
 71
     3
 72
     9
 73
     5
 74
     0
 42
0.000000001
 43
0.00000001
 40
0.0
 40
0.0
 40
0.0
 40
0.0
 40
0.4999868455259889
 40
1.0
 40
1.0
 40
1.0
 40
1.0
 10
13.07281337658019
 20
26.32712107440626
 30
0.0
 10
13.22637556985854
 20
26.41586788334041
 30
0.0
 10
13.53350803674734
 20
26.59336617100195
 30
0.0
 10
13.84065330997576
 20
26.77085044983664
 30
0.0
 10
13.99422998692448
 20
26.85959492396633
 30
0.0
  0
SPLINE
  5
172
330
1B
100
AcDbEntity
  8
0
  6
Continuous
 62
     7
370
    25
100
AcDbSpline
210
0.0
220
0.0
230
1.0
 70
     8
 71
     3
 72
     9
 73
     5
 74
     0
 42
0.000000001
 43
0.00000001
 40
0.0
 40
0.0
 40
0.0
 40
0.0
 40
0.4999868929605526
 40
1.0
 40
1.0
 40
1.0
 40
1.0
 10
13.06729322375639
 20
24.52435133404821
 30
0.0
 10
13.22083916884408
 20
24.61309782736927
 30
0.0
 10
13.52793910936153
 20
24.79059546694851
 30
0.0
 10
13.83506679750458
 20
24.96807914826521
 30
0.0
 10
13.98863466711083
 20
25.05682331520917
 30
0.0
  0
SPLINE
  5
173
330
1B
100
AcDbEntity
  8
0
  6
Continuous
 62
     7
370
    25
100
AcDbSpline
210
0.0
220
0.0
230
1.0
 70
     8
 71
     3
 72
     9
 73
     5
 74
     0
 42
0.000000001
 43
0.00000001
 40
0.0
 40
0.0
 40
0.0
 40
0.0
 40
0.4999890574969179
 40
1.0
 40
1.0
 40
1.0
 40
1.0
 10
13.07145628250308
 20
22.72638972583569
 30
0.0
 10
13.22498844437745
 20
22.81512224866143
 30
0.0
 10
13.53205948837787
 20
22.99259117822152
 30
0.0
 10
13.83915053365665
 20
23.17004845643822
 30
0.0
 10
13.99269941664075
 20
23.25877903737339
 30
0.0
  0
SPLINE
  5
174
330
1B
100
AcDbEntity
  8
0
  6
Continuous
 62
     7
370
    25
100
AcDbSpline
210
0.0
220
0.0
230
1.0
 70
     8
 71
     3
 72
     9
 73
     5
 74
     0
 42
0.000000001
 43
0.00000001
 40
0.0
 40
0.0
 40
0.0
 40
0.0
 40
0.4999884717141714
 40
1.0
 40
1.0
 40
1.0
 40
1.0
 10
13.07720777943097
 20
20.92982747733216
 30
0.0
 10
13.23075636366319
 20
21.01856396153761
 30
0.0
 10
13.53786061289875
 20
21.19604102196105
 30
0.0
 10
13.84496675443733
 20
21.37350580677137
 30
0.0
 10
13.998523365614
 20
21.46224024504129
 30
0.0
  0
SPLINE
  5
17F
330
1B
100
AcDbEntity
  8
0
  6
Continuous
 62
     7
370
    25
100
AcDbSpline
210
0.0
220
0.0
230
1.0
 70
     8
 71
     3
 72
    16
 73
    12
 74
     0
 42
0.000000001
 43
0.00000001
 40
0.0
 40
0.0
 40
0.0
 40
0.0
 40
0.0306524796812747
 40
0.0563161630838285
 40
0.0795630609595446
 40
0.1038439513330445
 40
0.1323195733874946
 40
0.1670949232331662
 40
0.2598459499793054
 40
0.552117811365029
 40
1.0
 40
1.0
 40
1.0
 40
1.0
 10
-8.78128772137227
 20
19.62694374829171
 30
0.0
 10
-8.79233956854623
 20
19.61813079084325
 30
0.0
 10
-8.812644536832577
 20
19.60193921502037
 30
0.0
 10
-8.8567353198914
 20
19.57157427325047
 30
0.0
 10
-8.909541636191673
 20
19.53902302764152
 30
0.0
 10
-8.969296629274957
 20
19.50565355355858
 30
0.0
 10
-9.033578267283879
 20
19.47250902537932
 30
0.0
 10
-9.136253505965742
 20
19.42287711001757
 30
0.0
 10
-9.365259129920558
 20
19.32143223867696
 30
0.0
 10
-9.697553779243275
 20
19.18678611912466
 30
0.0
 10
-9.87757677036283
 20
19.09787566385308
 30
0.0
 10
-9.986512324069514
 20
19.04407414875165
 30
0.0
  0
SPLINE
  5
180
330
1B
100
AcDbEntity
  8
0
  6
Continuous
 62
     7
370
    25
100
AcDbSpline
210
0.0
220
0.0
230
1.0
 70
     8
 71
     3
 72
    15
 73
    11
 74
     0
 42
0.000000001
 43
0.00000001
 40
0.0
 40
0.0
 40
0.0
 40
0.0
 40
0.3104518516526125
 40
0.4236313280058449
 40
0.5179201007748296
 40
0.562540035001286
 40
0.6082234183109475
 40
0.7106374404650093
 40
0.8387056420926888
 40
1.0
 40
1.0
 40
1.0
 40
1.0
 10
-9.066730664704727
 20
21.3759637406146
 30
0.0
 10
-9.13268370988959
 20
21.33789188566981
 30
0.0
 10
-9.222680841389895
 20
21.28594041434166
 30
0.0
 10
-9.389123645505729
 20
21.18658783484976
 30
0.0
 10
-9.492127062331681
 20
21.1260167009308
 30
0.0
 10
-9.572930385833141
 20
21.07922776112281
 30
0.0
 10
-9.656460739800647
 20
21.03133947899589
 30
0.0
 10
-9.765236278311221
 20
20.96985602047582
 30
0.0
 10
-9.888702813178943
 20
20.90066139586073
 30
0.0
 10
-9.957722822200743
 20
20.86124644776657
 30
0.0
 10
-9.99619544995126
 20
20.83927605617543
 30
0.0
  0
SPLINE
  5
181
330
1B
100
AcDbEntity
  8
0
  6
Continuous
 62
     7
370
    25
100
AcDbSpline
210
0.0
220
0.0
230
1.0
 70
     8
 71
     3
 72
     9
 73
     5
 74
     0
 42
0.000000001
 43
0.00000001
 40
0.0
 40
0.0
 40
0.0
 40
0.0
 40
0.506374459384598
 40
1.0
 40
1.0
 40
1.0
 40
1.0
 10
-9.065944297377216
 20
23.17631974747811
 30
0.0
 10
-9.220782005191701
 20
23.08704705000456
 30
0.0
 10
-9.526559093559598
 20
22.91074926124554
 30
0.0
 10
-9.840480453809063
 20
22.72929221679972
 30
0.0
 10
-9.995440054972926
 20
22.63972038513669
 30
0.0
  0
SPLINE
  5
182
330
1B
100
AcDbEntity
  8
0
  6
Continuous
 62
     7
370
    25
100
AcDbSpline
210
0.0
220
0.0
230
1.0
 70
     8
 71
     3
 72
     9
 73
     5
 74
     0
 42
0.000000001
 43
0.00000001
 40
0.0
 40
0.0
 40
0.0
 40
0.0
 40
0.4999775509192692
 40
1.0
 40
1.0
 40
1.0
 40
1.0
 10
-9.071968365440279
 20
24.97335686002431
 30
0.0
 10
-9.225733250501595
 20
24.88449552148466
 30
0.0
 10
-9.533276828765462
 20
24.70676486462564
 30
0.0
 10
-9.840814906896398
 20
24.52905814549367
 30
0.0
 10
-9.994590849909006
 20
24.4402007965752
 30
0.0
  0
SPLINE
  5
183
330
1B
100
AcDbEntity
  8
0
  6
Continuous
 62
     7
370
    25
100
AcDbSpline
210
0.0
220
0.0
230
1.0
 70
     8
 71
     3
 72
     9
 73
     5
 74
     0
 42
0.000000001
 43
0.00000001
 40
0.0
 40
0.0
 40
0.0
 40
0.0
 40
0.5156816750757341
 40
1.0
 40
1.0
 40
1.0
 40
1.0
 10
13.99466736406334
 20
25.34015828070362
 30
0.0
 10
13.84088161995086
 20
25.42902114768174
 30
0.0
 10
13.54266325861413
 20
25.601342312604
 30
0.0
 10
13.24443662408362
 20
25.7736879676366
 30
0.0
 10
13.1
 20
25.85715812658998
 30
0.0
  0
SPLINE
  5
184
330
1B
100
AcDbEntity
  8
0
  6
Continuous
 62
     7
370
    25
100
AcDbSpline
210
0.0
220
0.0
230
1.0
 70
     8
 71
     3
 72
     9
 73
     5
 74
     0
 42
0.000000001
 43
0.00000001
 40
0.0
 40
0.0
 40
0.0
 40
0.0
 40
0.51541708007344
 40
1.0
 40
1.0
 40
1.0
 40
1.0
 10
13.99483598169955
 20
23.54006406352031
 30
0.0
 10
13.8410974738621
 20
23.6289010364957
 30
0.0
 10
13.54281766556482
 20
23.80126042544482
 30
0.0
 10
13.24454017656695
 20
23.97363867072493
 30
0.0
 10
13.1
 20
24.05717022415459
 30
0.0
  0
SPLINE
  5
185
330
1B
100
AcDbEntity
  8
0
  6
Continuous
 62
     7
370
    25
100
AcDbSpline
210
0.0
220
0.0
230
1.0
 70
     8
 71
     3
 72
    13
 73
     9
 74
     0
 42
0.000000001
 43
0.00000001
 40
0.0
 40
0.0
 40
0.0
 40
0.0
 40
0.2703121343447569
 40
0.3882507140960331
 40
0.5027306742485071
 40
0.6204964032873577
 40
0.7474114964352336
 40
1.0
 40
1.0
 40
1.0
 40
1.0
 10
13.99601025978567
 20
21.73938657243219
 30
0.0
 10
13.92006454418516
 20
21.78303172366205
 30
0.0
 10
13.81098332078429
 20
21.8457194796997
 30
0.0
 10
13.64093388668459
 20
21.94351395445203
 30
0.0
 10
13.52109312870726
 20
22.0128356000526
 30
0.0
 10
13.40345510923713
 20
22.08117456165252
 30
0.0
 10
13.25329571975716
 20
22.16868168417756
 30
0.0
 10
13.16125806103153
 20
22.22152298880097
 30
0.0
 10
13.1
 20
22.25669289542861
 30
0.0
  0
SPLINE
  5
186
330
1B
100
AcDbEntity
  8
0
  6
Continuous
 62
     7
370
    25
100
AcDbSpline
210
0.0
220
0.0
230
1.0
 70
     8
 71
     3
 72
    15
 73
    11
 74
     0
 42
0.000000001
 43
0.00000001
 40
0.0
 40
0.0
 40
0.0
 40
0.0
 40
0.3155108813701762
 40
0.4133179250466735
 40
0.4524795119297572
 40
0.4889626117224381
 40
0.5265588944672588
 40
0.5686617840815917
 40
0.6747400552993129
 40
1.0
 40
1.0
 40
1.0
 40
1.0
 10
13.99613489662382
 20
19.93931231012586
 30
0.0
 10
13.92824137787967
 20
19.97699255911033
 30
0.0
 10
13.83930115442499
 20
20.02635352649715
 30
0.0
 10
13.65250429386244
 20
20.12821881252389
 30
0.0
 10
13.56344414822269
 20
20.17846526877119
 30
0.0
 10
13.50204839080352
 20
20.21387516735042
 30
0.0
 10
13.4430208978825
 20
20.24871479880052
 30
0.0
 10
13.3621458172206
 20
20.29744666226901
 30
0.0
 10
13.21040728041059
 20
20.39174003005148
 30
0.0
 10
13.12939100553812
 20
20.43933745429901
 30
0.0
 10
13.06829892486364
 20
20.47522932524227
 30
0.0
  0
SPLINE
  5
19C
330
1B
100
AcDbEntity
  8
0
  6
Continuous
 62
     7
370
    25
100
AcDbSpline
210
0.0
220
0.0
230
1.0
 70
     8
 71
     3
 72
     9
 73
     5
 74
     0
 42
0.000000001
 43
0.00000001
 40
0.0
 40
0.0
 40
0.0
 40
0.0
 40
0.4788509412765467
 40
1.0
 40
1.0
 40
1.0
 40
1.0
 10
9.68249532976734
 20
12.49998925059818
 30
0.0
 10
9.26311586238411
 20
12.52528939599294
 30
0.0
 10
8.387312076209598
 20
12.57812451275666
 30
0.0
 10
7.754886274332955
 20
12.87730638926453
 30
0.0
 10
7.425298162972521
 20
13.03322474259373
 30
0.0
  0
SPLINE
  5
1A1
330
1B
100
AcDbEntity
  8
0
  6
Continuous
 62
     7
370
    25
100
AcDbSpline
210
0.0
220
0.0
230
1.0
 70
     8
 71
     3
 72
    24
 73
    20
 74
     0
 42
0.000000001
 43
0.00000001
 40
0.0
 40
0.0
 40
0.0
 40
0.0
 40
0.0574177299264594
 40
0.1194395445508349
 40
0.1814613576785353
 40
0.2434831693096142
 40
0.3055049794441259
 40
0.3675267880821246
 40
0.429548595223664
 40
0.4915704008687976
 40
0.5535922050175812
 40
0.6156140076700674
 40
0.6776358088263102
 40
0.7396576084863643
 40
0.8016794066502834
 40
0.8637012033181207
 40
0.9257229984899312
 40
0.9877447921657686
 40
1.0
 40
1.0
 40
1.0
 40
1.0
 10
13.07394207205866
 20
26.33582489349203
 30
0.0
 10
13.01515883775319
 20
26.3188462862631
 30
0.0
 10
12.89287879042875
 20
26.2835276291666
 30
0.0
 10
12.20852860803091
 20
26.22987138441402
 30
0.0
 10
11.16672440861667
 20
26.17485557517485
 30
0.0
 10
9.778867700788927
 20
26.1198417982311
 30
0.0
 10
8.107787449391346
 20
26.06482999566287
 30
0.0
 10
6.211688820951674
 20
26.00982018298829
 30
0.0
 10
4.161070081807546
 20
25.95481235605472
 30
0.0
 10
2.031020680290766
 20
25.89980651595454
 30
0.0
 10
-0.1001420420343006
 20
25.84480266247101
 30
0.0
 10
-2.154216507302891
 20
25.78980079537853
 30
0.0
 10
-4.055516361501855
 20
25.73480091579639
 30
0.0
 10
-5.735075522243037
 20
25.67980301947295
 30
0.0
 10
-7.127954426555273
 20
25.62480712229555
 30
0.0
 10
-8.195108225672026
 20
25.56981316496636
 30
0.0
 10
-8.852116406189579
 20
25.51482136878949
 30
0.0
 10
-9.138904457715087
 20
25.47453911093932
 30
0.0
 10
-9.077724794607434
 20
25.45258806284184
 30
0.0
 10
-9.067630559899928
 20
25.44896628690656
 30
0.0
  0
SPLINE
  5
1A2
330
1B
100
AcDbEntity
  8
0
  6
Continuous
 62
     7
370
    25
100
AcDbSpline
210
0.0
220
0.0
230
1.0
 70
     8
 71
     3
 72
    24
 73
    20
 74
     0
 42
0.000000001
 43
0.00000001
 40
0.0
 40
0.0
 40
0.0
 40
0.0
 40
0.008830247536724
 40
0.0710595716489463
 40
0.1332888973665597
 40
0.1955182246896264
 40
0.2577475536182078
 40
0.3199768841523676
 40
0.3822062162921664
 40
0.4444355500376672
 40
0.5066648853889316
 40
0.568894222346021
 40
0.6311235609089993
 40
0.6933529010779275
 40
0.7555822428528673
 40
0.8178115862338812
 40
0.8800409312210316
 40
0.9422702778143801
 40
1.0
 40
1.0
 40
1.0
 40
1.0
 10
13.05751254458429
 20
24.53310036900535
 30
0.0
 10
13.05983526111039
 20
24.53050031311914
 30
0.0
 10
13.07852683693774
 20
24.50957690675151
 30
0.0
 10
12.72244725923257
 20
24.47032888262405
 30
0.0
 10
11.97627874689224
 20
24.41535519356269
 30
0.0
 10
10.82420383303849
 20
24.36037930739689
 30
0.0
 10
9.358370682083457
 20
24.30540131357044
 30
0.0
 10
7.619301160160279
 20
24.25042118811734
 30
0.0
 10
5.674481576619598
 20
24.19543893745775
 30
0.0
 10
3.594423507276925
 20
24.14045455987707
 30
0.0
 10
1.455829012140159
 20
24.0854680558135
 30
0.0
 10
-0.66279493432218
 20
24.0304794252288
 30
0.0
 10
-2.683510751644101
 20
23.97548866783786
 30
0.0
 10
-4.53229070921737
 20
23.92049578481928
 30
0.0
 10
-6.140342999109077
 20
23.86550077174374
 30
0.0
 10
-7.451741113004663
 20
23.81050364515005
 30
0.0
 10
-8.406468239384113
 20
23.75550434331215
 30
0.0
 10
-8.998932532071267
 20
23.70182875752595
 30
0.0
 10
-9.057921836749815
 20
23.6664851840604
 30
0.0
 10
-9.086310154579214
 20
23.64947626011674
 30
0.0
  0
SPLINE
  5
1A3
330
1B
100
AcDbEntity
  8
0
  6
Continuous
 62
     7
370
    25
100
AcDbSpline
210
0.0
220
0.0
230
1.0
 70
     8
 71
     3
 72
    23
 73
    19
 74
     0
 42
0.000000001
 43
0.00000001
 40
0.0
 40
0.0
 40
0.0
 40
0.0
 40
0.0327026915033897
 40
0.1006895755664594
 40
0.1682877897814153
 40
0.2354973095588583
 40
0.3023181104507809
 40
0.3687501681505811
 40
0.4347934584930616
 40
0.5004479574544415
 40
0.565713641152367
 40
0.6305904858459164
 40
0.6950784679356201
 40
0.7591775639634498
 40
0.822887750612844
 40
0.8862090047087079
 40
0.9491413032174298
 40
1.0
 40
1.0
 40
1.0
 40
1.0
 10
13.06445009576488
 20
22.73515013709155
 30
0.0
 10
13.04347551950555
 20
22.72549559679413
 30
0.0
 10
12.97889608936845
 20
22.69576986107795
 30
0.0
 10
12.45687136322251
 20
22.64600597788443
 30
0.0
 10
11.42146293304045
 20
22.58607838859959
 30
0.0
 10
9.971875600593327
 20
22.52648928836584
 30
0.0
 10
8.194087256556939
 20
22.46725103355547
 30
0.0
 10
6.164539461800342
 20
22.40836034187568
 30
0.0
 10
3.973663224754624
 20
22.34981808516101
 30
0.0
 10
1.714507494109733
 20
22.29162403189325
 30
0.0
 10
-0.5194144440756991
 20
22.23377824337412
 30
0.0
 10
-2.638354372153737
 20
22.1762807040103
 30
0.0
 10
-4.560193410808551
 20
22.11913141539179
 30
0.0
 10
-6.211635257582293
 20
22.06233038652162
 30
0.0
 10
-7.537531494599955
 20
22.00587758014268
 30
0.0
 10
-8.477219637562882
 20
21.94977313507433
 30
0.0
 10
-9.023801832813993
 20
21.89746730902465
 30
0.0
 10
-9.05470273938128
 20
21.86386470267757
 30
0.0
 10
-9.068513848365686
 20
21.84884607345356
 30
0.0
  0
SPLINE
  5
1A4
330
1B
100
AcDbEntity
  8
0
  6
Continuous
 62
     7
370
    25
100
AcDbSpline
210
0.0
220
0.0
230
1.0
 70
     8
 71
     3
 72
    23
 73
    19
 74
     0
 42
0.000000001
 43
0.00000001
 40
0.0
 40
0.0
 40
0.0
 40
0.0
 40
0.0416967885482979
 40
0.0979601990827803
 40
0.1554878050423323
 40
0.2142794097082426
 40
0.2743348120394858
 40
0.3356538066734139
 40
0.3982361839264714
 40
0.4620817297949056
 40
0.5271902259555021
 40
0.5935614497663335
 40
0.6611951742675373
 40
0.730091168182069
 40
0.8002491959165201
 40
0.8716690175619173
 40
0.9443503888945385
 40
1.0
 40
1.0
 40
1.0
 40
1.0
 10
13.0661637822014
 20
20.9386768561562
 30
0.0
 10
13.04414981381804
 20
20.92706196076141
 30
0.0
 10
12.99243137696677
 20
20.89977454835361
 30
0.0
 10
12.56433385138347
 20
20.85645335351864
 30
0.0
 10
11.83174413978112
 20
20.8083624642246
 30
0.0
 10
10.78669658594982
 20
20.75920688115678
 30
0.0
 10
9.454978688368975
 20
20.7089869358593
 30
0.0
 10
7.858100676409796
 20
20.65770253639036
 30
0.0
 10
6.034880039481719
 20
20.60535370803355
 30
0.0
 10
4.035750389064865
 20
20.55194044355339
 30
0.0
 10
1.923783394303696
 20
20.49746274516498
 30
0.0
 10
-0.2268817959529823
 20
20.44192061074583
 30
0.0
 10
-2.333552096343637
 20
20.38531404605684
 30
0.0
 10
-4.305739506024451
 20
20.32764302906746
 30
0.0
 10
-6.057164718846715
 20
20.26890764372488
 30
0.0
 10
-7.478269875512023
 20
20.20910756783447
 30
0.0
 10
-8.472434609132069
 20
20.15335025746778
 30
0.0
 10
-8.746860720091568
 20
20.11752261243843
 30
0.0
 10
-8.865863209295204
 20
20.10198626669535
 30
0.0
  0
SPLINE
  5
1A6
330
1B
100
AcDbEntity
  8
0
  6
Continuous
 62
     7
370
    25
100
AcDbSpline
210
0.0
220
0.0
230
1.0
 70
     8
 71
     3
 72
    26
 73
    22
 74
     0
 42
0.000000001
 43
0.00000001
 40
0.0
 40
0.0
 40
0.0
 40
0.0
 40
0.0104742725944192
 40
0.0678860773649801
 40
0.1252978866053043
 40
0.1827097003160065
 40
0.2401215184976934
 40
0.2975333411509763
 40
0.3549451682764641
 40
0.4123569998747671
 40
0.4697688359464976
 40
0.5271806764922646
 40
0.5845925215126772
 40
0.6420043710083466
 40
0.6994162249798818
 40
0.7568280834278963
 40
0.8142399463529946
 40
0.8716518137557914
 40
0.9290636856368933
 40
0.9864755619969163
 40
0.9999999999999999
 40
0.9999999999999999
 40
0.9999999999999999
 40
0.9999999999999999
 10
13.96042787320882
 20
26.85658821535979
 30
0.0
 10
13.96371315521704
 20
26.853492418981
 30
0.0
 10
13.98500579454497
 20
26.83342787792746
 30
0.0
 10
13.65605525703645
 20
26.79638784590422
 30
0.0
 10
12.96307590407932
 20
26.74546772685119
 30
0.0
 10
11.89009301206713
 20
26.69454002748197
 30
0.0
 10
10.5141257989725
 20
26.64360554279825
 30
0.0
 10
8.867031744952996
 20
26.59266405977307
 30
0.0
 10
7.003887404528179
 20
26.54171563551234
 30
0.0
 10
4.98265826728074
 20
26.49076025461946
 30
0.0
 10
2.867351649005971
 20
26.43979792157484
 30
0.0
 10
0.7246603582455116
 20
26.38882863385346
 30
0.0
 10
-1.377778341124184
 20
26.33785239707505
 30
0.0
 10
-3.373635182380049
 20
26.28686919128569
 30
0.0
 10
-5.199873672350988
 20
26.23587909068132
 30
0.0
 10
-6.799054942914311
 20
26.18488181843205
 30
0.0
 10
-8.119996410658098
 20
26.13387840766172
 30
0.0
 10
-9.123687202470272
 20
26.08286500270422
 30
0.0
 10
-9.768472228084486
 20
26.03185599310191
 30
0.0
 10
-9.994102400085536
 20
25.99380787040316
 30
0.0
 10
-9.993983009431144
 20
25.97281763533352
 30
0.0
 10
-9.993960246879725
 20
25.96881571987712
 30
0.0
  0
SPLINE
  5
1A8
330
1B
100
AcDbEntity
  8
0
  6
Continuous
 62
     7
370
    25
100
AcDbSpline
210
0.0
220
0.0
230
1.0
 70
     8
 71
     3
 72
    27
 73
    23
 74
     0
 42
0.000000001
 43
0.00000001
 40
0.0
 40
0.0
 40
0.0
 40
0.0
 40
0.0118401784982599
 40
0.0792280635980012
 40
0.1485401429412387
 40
0.2197757783021214
 40
0.2929343137428073
 40
0.3680150756194769
 40
0.4450173725885714
 40
0.523940495613155
 40
0.5642024331729873
 40
0.604947229249392
 40
0.6461748603936632
 40
0.6878853028792331
 40
0.7300785327016608
 40
0.7727545255786754
 40
0.8159132569501657
 40
0.8595547019782048
 40
0.903678835547073
 40
0.9482856322632482
 40
0.9933750664554504
 40
1.0
 40
1.0
 40
1.0
 40
1.0
 10
13.96245944326935
 20
25.06857220329491
 30
0.0
 10
13.97425082582071
 20
25.0650198749193
 30
0.0
 10
14.05315237336286
 20
25.04124961685225
 30
0.0
 10
13.68323768231012
 20
24.99667924509554
 30
0.0
 10
12.8007400779623
 20
24.93428328761936
 30
0.0
 10
11.31075445740563
 20
24.87014900301411
 30
0.0
 10
9.3097652346412
 20
24.80427885100564
 30
0.0
 10
6.850490760520234
 20
24.73666543411567
 30
0.0
 10
4.049223497598137
 20
24.66733683932293
 30
0.0
 10
1.562714367944258
 20
24.60837968865671
 30
0.0
 10
-0.4287260960213687
 20
24.56047964140198
 30
0.0
 10
-1.912417518241408
 20
24.52384695660001
 30
0.0
 10
-3.348505672297015
 20
24.48678594904739
 30
0.0
 10
-4.710566268974079
 20
24.44928892156098
 30
0.0
 10
-5.9716370972973
 20
24.41135797166665
 30
0.0
 10
-7.105102894392066
 20
24.37299253322891
 30
0.0
 10
-8.085923562020206
 20
24.33419273876401
 30
0.0
 10
-8.888382664242707
 20
24.29495863492621
 30
0.0
 10
-9.497839702955927
 20
24.25528989494455
 30
0.0
 10
-9.869258495403097
 20
24.2151877993054
 30
0.0
 10
-10.02480447381107
 20
24.18632004947933
 30
0.0
 10
-9.990559533690071
 20
24.17082414962369
 30
0.0
 10
-9.986172542947116
 20
24.16883902805595
 30
0.0
  0
SPLINE
  5
1A9
330
1B
100
AcDbEntity
  8
0
  6
Continuous
 62
     7
370
    25
100
AcDbSpline
210
0.0
220
0.0
230
1.0
 70
     8
 71
     3
 72
    28
 73
    24
 74
     0
 42
0.000000001
 43
0.00000001
 40
0.0
 40
0.0
 40
0.0
 40
0.0
 40
0.0275909912700807
 40
0.0891728105177185
 40
0.1492427201841622
 40
0.2078003894210443
 40
0.2648454957089768
 40
0.3203777248593207
 40
0.3743967710159264
 40
0.426902336656816
 40
0.4778941325958272
 40
0.5273718779842084
 40
0.5753353003121698
 40
0.6217841354103829
 40
0.6667181274514444
 40
0.7101370289512792
 40
0.7520406007705176
 40
0.7924286121158057
 40
0.8313008405410843
 40
0.904379988002743
 40
0.9714203305171634
 40
0.9872598156367214
 40
1.0
 40
1.0
 40
1.0
 40
1.0
 10
13.93086029778633
 20
23.25579595744121
 30
0.0
 10
13.92810337442211
 20
23.2476382094741
 30
0.0
 10
13.91919312533528
 20
23.22127274450756
 30
0.0
 10
13.43929746153865
 20
23.1771495616176
 30
0.0
 10
12.55443073830342
 20
23.12387312499008
 30
0.0
 10
11.31761902296712
 20
23.07194039775833
 30
0.0
 10
9.82581504950545
 20
23.02135117856532
 30
0.0
 10
8.138689581486583
 20
22.9721055194039
 30
0.0
 10
6.324908924811283
 20
22.92420340706039
 30
0.0
 10
4.446821737795005
 20
22.87764484484077
 30
0.0
 10
2.56177600601561
 20
22.83242983282557
 30
0.0
 10
0.7199056666226735
 20
22.78855836834284
 30
0.0
 10
-1.036476960231268
 20
22.7460304622772
 30
0.0
 10
-2.67328368973482
 20
22.70484607638653
 30
0.0
 10
-4.164574268079101
 20
22.66500534739171
 30
0.0
 10
-5.492203833060597
 20
22.62650779114015
 30
0.0
 10
-6.645134986331021
 20
22.58935512314995
 30
0.0
 10
-7.618909746614891
 20
22.55354128110185
 30
0.0
 10
-8.6574047672788
 20
22.50853352991824
 30
0.0
 10
-9.54821922463395
 20
22.45551376453739
 30
0.0
 10
-9.914603336214755
 20
22.40932318361304
 30
0.0
 10
-9.995163559598241
 20
22.38107216332182
 30
0.0
 10
-9.996180535051215
 20
22.37262543642871
 30
0.0
 10
-9.996633880208748
 20
22.36886007245383
 30
0.0
  0
SPLINE
  5
1AB
330
1B
100
AcDbEntity
  8
0
  6
Continuous
 62
     7
370
    25
100
AcDbSpline
210
0.0
220
0.0
230
1.0
 70
     8
 71
     3
 72
    25
 73
    21
 74
     0
 42
0.000000001
 43
0.00000001
 40
0.0
 40
0.0
 40
0.0
 40
0.0
 40
0.0206912411349306
 40
0.0785303949229566
 40
0.1366883516476299
 40
0.1951650969731092
 40
0.253960616484969
 40
0.3130748956902061
 40
0.372507920017242
 40
0.4322596748159235
 40
0.4923301453575336
 40
0.5527193168347878
 40
0.6134271743618419
 40
0.6744537029742939
 40
0.7357988876291879
 40
0.7974627132050223
 40
0.8594451645017431
 40
0.9217462262407592
 40
0.9843658830649391
 40
1.0
 40
1.0
 40
1.0
 40
1.0
 10
13.94888549325049
 20
21.45869095932104
 30
0.0
 10
13.95184265041525
 20
21.4525520801451
 30
0.0
 10
13.96306608155132
 20
21.42925291684569
 30
0.0
 10
13.5840858952123
 20
21.38870061436646
 30
0.0
 10
12.82014740016469
 20
21.33693944156414
 30
0.0
 10
11.67072835065835
 20
21.28489628049635
 30
0.0
 10
10.20094845941861
 20
21.23257098711501
 30
0.0
 10
8.446001497561701
 20
21.17996360036381
 30
0.0
 10
6.463323072324664
 20
21.12707410962019
 30
0.0
 10
4.316696805467684
 20
21.07390251814544
 30
0.0
 10
2.078212268719629
 20
21.02044882359121
 30
0.0
 10
-0.175068023976474
 20
20.9667130321185
 30
0.0
 10
-2.363445477520137
 20
20.91269512127983
 30
0.0
 10
-4.407370958875754
 20
20.85839517532196
 30
0.0
 10
-6.230758124989483
 20
20.80381287741778
 30
0.0
 10
-7.762469113698951
 20
20.74894941921762
 30
0.0
 10
-8.94475052884414
 20
20.69380031884014
 30
0.0
 10
-9.714942426346258
 20
20.63838243231649
 30
0.0
 10
-9.99300514484085
 20
20.59667060050459
 30
0.0
 10
-9.991522564201428
 20
20.57349661477733
 30
0.0
 10
-9.991226363290359
 20
20.56886674473648
 30
0.0
  0
SPLINE
  5
1B1
330
1B
100
AcDbEntity
  8
0
  6
Continuous
 62
     7
370
    25
100
AcDbSpline
210
0.0
220
0.0
230
1.0
 70
     8
 71
     3
 72
    15
 73
    11
 74
     0
 42
0.000000001
 43
0.00000001
 40
0.0
 40
0.0
 40
0.0
 40
0.0
 40
0.0194269360267356
 40
0.0903539464512151
 40
0.26590736698103
 40
0.4391825806856977
 40
0.6101793910174768
 40
0.7788976040130291
 40
0.9453370282936392
 40
1.0
 40
1.0
 40
1.0
 40
1.0
 10
-9.973411751771366
 20
19.04826312719758
 30
0.0
 10
-9.970631005211628
 20
19.04999245637142
 30
0.0
 10
-9.957697857884282
 20
19.05803550110865
 30
0.0
 10
-9.834954634749707
 20
19.08170009353249
 30
0.0
 10
-9.491975421143671
 20
19.11911896801874
 30
0.0
 10
-8.750889603919713
 20
19.16542750883998
 30
0.0
 10
-7.751307002630204
 20
19.21113387704049
 30
0.0
 10
-6.510575103173134
 20
19.25622797322205
 30
0.0
 10
-5.425303845464257
 20
19.29095753069539
 30
0.0
 10
-4.715817064103681
 20
19.31065513739161
 30
0.0
 10
-4.540411204377783
 20
19.31552496122465
 30
0.0
  0
SPLINE
  5
1B2
330
1B
100
AcDbEntity
  8
0
  6
Continuous
 62
     7
370
    25
100
AcDbSpline
210
0.0
220
0.0
230
1.0
 70
     8
 71
     3
 72
    18
 73
    14
 74
     0
 42
0.000000001
 43
0.00000001
 40
0.0
 40
0.0
 40
0.0
 40
0.0
 40
0.0398491391698321
 40
0.1425309637407464
 40
0.2436568769744852
 40
0.3432267641629068
 40
0.441240512362877
 40
0.5376980103964071
 40
0.6325991488507756
 40
0.7259438200786422
 40
0.8177319181981958
 40
0.9079633390932489
 40
0.9999999999999999
 40
0.9999999999999999
 40
0.9999999999999999
 40
0.9999999999999999
 10
4.4197162769084
 20
19.53940341940794
 30
0.0
 10
4.634533833748463
 20
19.54460562803974
 30
0.0
 10
5.402885523212979
 20
19.56321270024554
 30
0.0
 10
6.660485593008782
 20
19.59502068205359
 30
0.0
 10
8.14737718088094
 20
19.63462428588239
 30
0.0
 10
9.493765682956575
 20
19.67361771321583
 30
0.0
 10
10.68421402524945
 20
19.71200108193521
 30
0.0
 10
11.70371302079559
 20
19.74977417833605
 30
0.0
 10
12.54125409065943
 20
19.78693772438333
 30
0.0
 10
13.19583553596336
 20
19.82348910598227
 30
0.0
 10
13.64840894320461
 20
19.85943783389787
 30
0.0
 10
13.96781818306341
 20
19.89518787537989
 30
0.0
 10
13.93185882301929
 20
19.91903263069257
 30
0.0
 10
13.91370106663052
 20
19.93107309130105
 30
0.0
  0
SPLINE
  5
1B3
330
1B
100
AcDbEntity
  8
0
  6
Continuous
 62
     7
370
    25
100
AcDbSpline
210
0.0
220
0.0
230
1.0
 70
     8
 71
     3
 72
    33
 73
    29
 74
     0
 42
0.000000001
 43
0.00000001
 40
0.0
 40
0.0
 40
0.0
 40
0.0
 40
0.0000004096260977
 40
0.0000023437016083
 40
0.0000062118526312
 40
0.0000139481546762
 40
0.0000448933628427
 40
0.0001686741947771
 40
0.000416235853955
 40
0.0009113591348967
 40
0.004872320313112
 40
0.0207146372776056
 40
0.0523894949640916
 40
0.1156610385312835
 40
0.1789325795723938
 40
0.2422041180875991
 40
0.3054756540770749
 40
0.3687471875409989
 40
0.4320187184795456
 40
0.4952902468928911
 40
0.5585617727812114
 40
0.6218332961446851
 40
0.6851048169834847
 40
0.748376335297789
 40
0.8116478510877722
 40
0.8749193643536122
 40
0.9381908750954832
 40
1.0
 40
1.0
 40
1.0
 40
1.0
 10
-9.999999999995849
 20
20.83123131658227
 30
0.0
 10
-9.999999999998028
 20
20.83123143940792
 30
0.0
 10
-10.0000000000105
 20
20.83123214216265
 30
0.0
 10
-9.999999999730054
 20
20.83123400477554
 30
0.0
 10
-9.999999997598906
 20
20.83123806427906
 30
0.0
 10
-9.999999981157044
 20
20.83125082271871
 30
0.0
 10
-9.99999979475896
 20
20.83129953675947
 30
0.0
 10
-9.999998108340892
 20
20.83142016199359
 30
0.0
 10
-9.999988145040096
 20
20.83167997011497
 30
0.0
 10
-9.999865312419328
 20
20.83309034941525
 30
0.0
 10
-9.997555915537973
 20
20.83917674685636
 30
0.0
 10
-9.971627156118632
 20
20.85461416834639
 30
0.0
 10
-9.812486640757204
 20
20.88783943175541
 30
0.0
 10
-9.29144510041766
 20
20.9353813998757
 30
0.0
 10
-8.22171364517894
 20
20.99237287122842
 30
0.0
 10
-6.749353845791489
 20
21.04937130556085
 30
0.0
 10
-4.932391019693928
 20
21.10636283364909
 30
0.0
 10
-2.842381028682089
 20
21.16335117173774
 30
0.0
 10
-0.5616441325034492
 20
21.22033532407159
 30
0.0
 10
1.819984604808433
 20
21.27731555742714
 30
0.0
 10
4.208716850040779
 20
21.33429180045349
 30
0.0
 10
6.510404946340927
 20
21.3912640717778
 30
0.0
 10
8.634627241531613
 20
21.44823236824223
 30
0.0
 10
10.49684103684175
 20
21.5051966838511
 30
0.0
 10
12.02696924627296
 20
21.56215704574492
 30
0.0
 10
13.15254186724534
 20
21.61911335135733
 30
0.0
 10
13.86920393267197
 20
21.6756272050833
 30
0.0
 10
13.95317053624886
 20
21.71315352483017
 30
0.0
 10
13.99466298838961
 20
21.73169731438204
 30
0.0
  0
SPLINE
  5
1B4
330
1B
100
AcDbEntity
  8
0
  6
Continuous
 62
     7
370
    25
100
AcDbSpline
210
0.0
220
0.0
230
1.0
 70
     8
 71
     3
 72
    24
 73
    20
 74
     0
 42
0.000000001
 43
0.00000001
 40
0.0
 40
0.0
 40
0.0
 40
0.0
 40
0.0007319421925337
 40
0.0648473307470257
 40
0.128962721964533
 40
0.1930781158452499
 40
0.2571935123893701
 40
0.3213089115970869
 40
0.3854243134685952
 40
0.4495397180040873
 40
0.513655125203759
 40
0.5777705350678026
 40
0.6418859475964137
 40
0.7060013627897848
 40
0.77011678064811
 40
0.8342322011715837
 40
0.8983476243603995
 40
0.9624630502147512
 40
1.0
 40
1.0
 40
1.0
 40
1.0
 10
-9.987065493554635
 20
22.64299756368683
 30
0.0
 10
-9.987579811126304
 20
22.64321401503205
 30
0.0
 10
-10.03314641736881
 20
22.6623907917193
 30
0.0
 10
-9.690256395077684
 20
22.70052880363248
 30
0.0
 10
-8.932294381400657
 20
22.75741567039109
 30
0.0
 10
-7.68650785648874
 20
22.81430657593233
 30
0.0
 10
-6.074606124857586
 20
22.87120165317146
 30
0.0
 10
-4.140601738691043
 20
22.92810086649239
 30
0.0
 10
-1.965875032732781
 20
22.98500422544424
 30
0.0
 10
0.3653306144546092
 20
23.04191172744648
 30
0.0
 10
2.760824725277097
 20
23.09882337327216
 30
0.0
 10
5.126407124428134
 20
23.15573916240962
 30
0.0
 10
7.368752075133548
 20
23.21265909613249
 30
0.0
 10
9.400079127848109
 20
23.2695831698579
 30
0.0
 10
11.13845340163924
 20
23.32651140064366
 30
0.0
 10
12.52264325685078
 20
23.38344372484142
 30
0.0
 10
13.47116443913571
 20
23.44038037998675
 30
0.0
 10
13.96771268327267
 20
23.48945247587117
 30
0.0
 10
13.94931105633794
 20
23.51954736745548
 30
0.0
 10
13.9425159279224
 20
23.53066044205984
 30
0.0
  0
LWPOLYLINE
  5
1B5
330
1B
100
AcDbEntity
  8
0
  6
Continuous
 62
     7
370
    25
100
AcDbPolyline
 90
       29
 70
   128
 43
0.0
 10
13.9705092806
 20
25.3311774669
 10
13.9741300359
 20
25.3123640278
 10
13.7533951062
 20
25.2729997716
 10
13.3236225508
 20
25.2345349563
 10
12.7070813845
 20
25.1969695819
 10
11.927913028
 20
25.1603036485
 10
11.0112620031
 20
25.1245371561
 10
8.8665774161
 20
25.055702494
 10
6.4675821873
 20
24.9904655957
 10
3.9866904542
 20
24.9288264612
 10
1.5647460744
 20
24.8707850904
 10
-0.6927496562
 20
24.8163414835
 10
-2.7150779844
 20
24.7654956403
 10
-4.4627992854
 20
24.7182475609
 10
-5.9225633656
 20
24.6745972453
 10
-7.1012527314
 20
24.6345446934
 10
-8.0202040737
 20
24.5980899054
 10
-8.7099909144
 20
24.5652328811
 10
-9.2060274564
 20
24.5359736206
 10
-9.7626681467
 20
24.4882483909
 10
-9.9588320967
 20
24.4549142164
 10
-9.9983199964
 20
24.4359710969
 10
-9.9999622115
 20
24.4318961829
 10
-9.9999949665
 20
24.431439605
 10
-9.9999999311
 20
24.4312078873
 10
-9.9999999954
 20
24.4311850923
 10
-9.9999999998
 20
24.4311789649
 10
-10.0
 20
24.4311771784
 10
-10.0
 20
24.4311772188
  0
SPLINE
  5
1B7
330
1B
100
AcDbEntity
  8
0
  6
Continuous
 62
     7
370
    25
100
AcDbSpline
210
0.0
220
0.0
230
1.0
 70
     8
 71
     3
 72
    12
 73
     8
 74
     0
 42
0.000000001
 43
0.00000001
 40
0.0
 40
0.0
 40
0.0
 40
0.0
 40
0.0621197541093642
 40
0.3283136687614124
 40
0.5945075972647949
 40
0.8607015396205908
 40
1.0
 40
1.0
 40
1.0
 40
1.0
 10
-8.751245650426657
 20
19.61858916039846
 30
0.0
 10
-8.722649930861667
 20
19.62301596004608
 30
0.0
 10
-8.571516595969126
 20
19.64641236355763
 30
0.0
 10
-7.879586200472983
 20
19.68878271092009
 30
0.0
 10
-6.680119648885992
 20
19.74570065118809
 30
0.0
 10
-5.392084636442768
 20
19.79357761277136
 30
0.0
 10
-4.444480762673654
 20
19.82248347807717
 30
0.0
 10
-4.118951209529841
 20
19.83241348541115
 30
0.0
  0
SPLINE
  5
1B8
330
1B
100
AcDbEntity
  8
0
  6
Continuous
 62
     7
370
    25
100
AcDbSpline
210
0.0
220
0.0
230
1.0
 70
     8
 71
     3
 72
    16
 73
    12
 74
     0
 42
0.000000001
 43
0.00000001
 40
0.0
 40
0.0
 40
0.0
 40
0.0
 40
0.0673662218468146
 40
0.1937194323015903
 40
0.320072649334708
 40
0.4464258729466801
 40
0.5727791031380189
 40
0.699132339909237
 40
0.8254855832608466
 40
0.9518388331933603
 40
1.0
 40
1.0
 40
1.0
 40
1.0
 10
1.976008517707392
 20
20.0
 30
0.0
 10
2.368139486321769
 20
20.01011926366752
 30
0.0
 10
3.49575784676039
 20
20.03921838722293
 30
0.0
 10
5.32919021052496
 20
20.08730222617347
 30
0.0
 10
7.369379974404816
 20
20.14425117227674
 30
0.0
 10
9.198702047829949
 20
20.20120477533516
 30
0.0
 10
10.74261558286992
 20
20.25816276207532
 30
0.0
 10
11.94984825611014
 20
20.31512518590467
 30
0.0
 10
12.7373580292592
 20
20.37209210646683
 30
0.0
 10
13.10987819445648
 20
20.41731128147767
 30
0.0
 10
13.06164185850644
 20
20.44354177063015
 30
0.0
 10
13.04832995989521
 20
20.45078066233376
 30
0.0
  0
SPLINE
  5
1B9
330
1B
100
AcDbEntity
  8
0
  6
Continuous
 62
     7
370
    25
100
AcDbSpline
210
0.0
220
0.0
230
1.0
 70
     8
 71
     3
 72
    23
 73
    19
 74
     0
 42
0.000000001
 43
0.00000001
 40
0.0
 40
0.0
 40
0.0
 40
0.0
 40
0.036742488565505
 40
0.1010062685874006
 40
0.1652700467682479
 40
0.2295338231081254
 40
0.2937975976071114
 40
0.3580613702652863
 40
0.4223251410827274
 40
0.4865889100595145
 40
0.550852677195727
 40
0.6151164424914433
 40
0.6793802059467415
 40
0.7436439675617023
 40
0.8079077273364034
 40
0.872171485270924
 40
0.936435241365344
 40
1.0
 40
1.0
 40
1.0
 40
1.0
 10
-9.033482903506325
 20
21.36495493508939
 30
0.0
 10
-9.020243578431165
 20
21.37580833847065
 30
0.0
 10
-8.983848253109818
 20
21.40564468924098
 30
0.0
 10
-8.441521674551668
 20
21.45446127993803
 30
0.0
 10
-7.472780996475508
 20
21.51140494351576
 30
0.0
 10
-6.110809780119502
 20
21.56834605061399
 30
0.0
 10
-4.434781124197158
 20
21.62528474473958
 30
0.0
 10
-2.503866552194454
 20
21.68222098743824
 30
0.0
 10
-0.3959490520114191
 20
21.73915478902031
 30
0.0
 10
1.806435973202729
 20
21.79608614669866
 30
0.0
 10
4.016428827418904
 20
21.85301506131154
 30
0.0
 10
6.146965512337576
 20
21.909941532293
 30
0.0
 10
8.114333725046292
 20
21.96686556106869
 30
0.0
 10
9.840263452837746
 20
22.02378714250187
 30
0.0
 10
11.25970882856958
 20
22.0807062957139
 30
0.0
 10
12.30582009012518
 20
22.13762294935609
 30
0.0
 10
12.97579921534775
 20
22.19433101735567
 30
0.0
 10
13.05723352234203
 20
22.23206548441393
 30
0.0
 10
13.09772802452445
 20
22.25082954731374
 30
0.0
  0
SPLINE
  5
1BA
330
1B
100
AcDbEntity
  8
0
  6
Continuous
 62
     7
370
    25
100
AcDbSpline
210
0.0
220
0.0
230
1.0
 70
     8
 71
     3
 72
    23
 73
    19
 74
     0
 42
0.000000001
 43
0.00000001
 40
0.0
 40
0.0
 40
0.0
 40
0.0
 40
0.0422421194386967
 40
0.1069180146196325
 40
0.1717323624729183
 40
0.236685160024844
 40
0.3017764042953489
 40
0.3670060922980181
 40
0.4323742210400874
 40
0.4978807875224369
 40
0.5635257887395982
 40
0.6293092216797487
 40
0.6952310833247157
 40
0.7612913706499727
 40
0.8274900806246439
 40
0.8938272102115016
 40
0.9603027563669667
 40
1.0
 40
1.0
 40
1.0
 40
1.0
 10
-9.032721900202194
 20
23.16671944408958
 30
0.0
 10
-9.006876024105566
 20
23.17916347897823
 30
0.0
 10
-8.941458147467847
 20
23.21066027700422
 30
0.0
 10
-8.33886202837562
 20
23.26125358044278
 30
0.0
 10
-7.31020319826631
 20
23.31853977608398
 30
0.0
 10
-5.88959827145389
 20
23.37595103100298
 30
0.0
 10
-4.153882378010433
 20
23.43348721304499
 30
0.0
 10
-2.165034899930172
 20
23.49114835772379
 30
0.0
 10
-0.0035937510384637
 20
23.5489344555323
 30
0.0
 10
2.244055362494456
 20
23.60684550887972
 30
0.0
 10
4.486572663959531
 20
23.66488151766664
 30
0.0
 10
6.631840833150735
 20
23.72304247986784
 30
0.0
 10
8.591348871730228
 20
23.78132840371014
 30
0.0
 10
10.28104799846357
 20
23.83973925822089
 30
0.0
 10
11.63583297493447
 20
23.89827515940233
 30
0.0
 10
12.57163615546239
 20
23.95693567295615
 30
0.0
 10
13.06487765415709
 20
24.00778794651485
 30
0.0
 10
13.0507583735064
 20
24.03908448329322
 30
0.0
 10
13.04547927586725
 20
24.05078603364181
 30
0.0
  0
SPLINE
  5
1BB
330
1B
100
AcDbEntity
  8
0
  6
Continuous
 62
     7
370
    25
100
AcDbSpline
210
0.0
220
0.0
230
1.0
 70
     8
 71
     3
 72
    27
 73
    23
 74
     0
 42
0.000000001
 43
0.00000001
 40
0.0
 40
0.0
 40
0.0
 40
0.0
 40
0.0234206552543892
 40
0.0876730002618347
 40
0.1519253437877587
 40
0.2161776858322121
 40
0.2804300263952462
 40
0.3446823654769121
 40
0.408934703077262
 40
0.473187039196346
 40
0.5374393738342139
 40
0.6016917069909183
 40
0.6659440386665101
 40
0.7301963688610416
 40
0.7944486975745616
 40
0.8587010248071225
 40
0.9229533505587765
 40
0.9872056748295737
 40
0.9952502421757378
 40
0.9992726034195397
 40
0.9997754017566016
 40
1.0
 40
1.0
 40
1.0
 40
1.0
 10
-9.03685830116709
 20
24.96457096323095
 30
0.0
 10
-9.037627962637785
 20
24.9714913473396
 30
0.0
 10
-9.040509117310389
 20
24.99739714848734
 30
0.0
 10
-8.593247078170569
 20
25.04228633412665
 30
0.0
 10
-7.715985521503804
 20
25.09923852620086
 30
0.0
 10
-6.427135325505914
 20
25.1561886213411
 30
0.0
 10
-4.814008990712711
 20
25.21313678459941
 30
0.0
 10
-2.930367617981104
 20
25.27008297192133
 30
0.0
 10
-0.8530427661037655
 20
25.32702719447256
 30
0.0
 10
1.336829714486933
 20
25.3839694516448
 30
0.0
 10
3.552788792639368
 20
25.44090973470554
 30
0.0
 10
5.707584539334047
 20
25.49784807919318
 30
0.0
 10
7.716312597832155
 20
25.55478435168656
 30
0.0
 10
9.499840436540365
 20
25.61171905033191
 30
0.0
 10
10.98790234849286
 20
25.6686503159656
 30
0.0
 10
12.12187640335448
 20
25.72558508709565
 30
0.0
 10
12.85708145653294
 20
25.78249746885441
 30
0.0
 10
13.07491268887773
 20
25.82286685249053
 30
0.0
 10
13.0986685388723
 20
25.8453660611029
 30
0.0
 10
13.09990406601324
 20
25.84907218205477
 30
0.0
 10
13.09999595330878
 20
25.85047257517075
 30
0.0
 10
13.09999868797592
 20
25.85068703720524
 30
0.0
 10
13.09999953235909
 20
25.85075325664799
 30
0.0
  0
SPLINE
  5
1BE
330
1B
100
AcDbEntity
  8
0
  6
Continuous
 62
     7
370
    25
100
AcDbSpline
210
0.0
220
0.0
230
1.0
 70
     8
 71
     3
 72
    21
 73
    17
 74
     0
 42
0.000000001
 43
0.00000001
 40
0.0
 40
0.0
 40
0.0
 40
0.0
 40
0.0668606848061305
 40
0.1343232364320246
 40
0.2024149282417929
 40
0.2711622848285395
 40
0.3405910793184534
 40
0.4107263336025077
 40
0.4815923212493596
 40
0.5532125728500574
 40
0.6256098835462393
 40
0.6988063224981463
 40
0.7728232440563271
 40
0.8476813004107913
 40
0.923400455503113
 40
1.0
 40
1.0
 40
1.0
 40
1.0
 10
48.0
 20
-7.249999999999951
 30
0.0
 10
47.99900875537523
 20
-7.106723825099609
 30
0.0
 10
47.99701734313526
 20
-6.818881731169244
 30
0.0
 10
47.98107190533628
 20
-6.385307547295003
 30
0.0
 10
47.95567007231112
 20
-5.948047316357145
 30
0.0
 10
47.91985753871676
 20
-5.507101223609208
 30
0.0
 10
47.87389402919944
 20
-5.062469255669216
 30
0.0
 10
47.817709244291
 20
-4.614151444296745
 30
0.0
 10
47.7513228939105
 20
-4.162147719102101
 30
0.0
 10
47.67472907083819
 20
-3.706458266102059
 30
0.0
 10
47.58793306401267
 20
-3.247082233849771
 30
0.0
 10
47.4909209999964
 20
-2.784022634912406
 30
0.0
 10
47.38374528230042
 20
-2.317267761120017
 30
0.0
 10
47.2662084262883
 20
-1.846861724399099
 30
0.0
 10
47.13906104454123
 20
-1.372636685495094
 30
0.0
 10
47.0465319516653
 20
-1.056219929477697
 30
0.0
 10
47.0
 20
-0.8970971202134279
 30
0.0
  0
SPLINE
  5
1C0
330
1B
100
AcDbEntity
  8
0
  6
Continuous
 62
     7
370
    25
100
AcDbSpline
210
0.0
220
0.0
230
1.0
 70
     8
 71
     3
 72
    20
 73
    16
 74
     0
 42
0.000000001
 43
0.00000001
 40
0.0
 40
0.0
 40
0.0
 40
0.0
 40
0.0824551542648239
 40
0.1638909617363409
 40
0.244331612342481
 40
0.3238022047590456
 40
0.4023287678179203
 40
0.4799382801881106
 40
0.5566586879851041
 40
0.6325189199412135
 40
0.7075488997494986
 40
0.7817795551778861
 40
0.85524282353918
 40
0.9279716530981543
 40
1.0
 40
1.0
 40
1.0
 40
1.0
 10
47.0
 20
0.8970971202135501
 30
0.0
 10
47.0500223672199
 20
1.068398810969805
 30
0.0
 10
47.14944870320937
 20
1.408884485824469
 30
0.0
 10
47.28508230210805
 20
1.919147480932322
 30
0.0
 10
47.40956819104859
 20
2.424982270574931
 30
0.0
 10
47.52203813874756
 20
2.926583033506805
 30
0.0
 10
47.62272005588169
 20
3.42389882498074
 30
0.0
 10
47.71155398243506
 20
3.916943169216824
 30
0.0
 10
47.78855371998775
 20
4.405712603347854
 30
0.0
 10
47.85372082650613
 20
4.890208108726611
 30
0.0
 10
47.90703362815326
 20
5.370429470828038
 30
0.0
 10
47.94857358760038
 20
5.846376740234833
 30
0.0
 10
47.97803848776535
 20
6.318049918154415
 30
0.0
 10
47.99653741262012
 20
6.78544876210723
 30
0.0
 10
47.99884953367225
 20
7.095649943789659
 30
0.0
 10
48.0
 20
7.250000000000044
 30
0.0
  0
SPLINE
  5
1C1
330
1B
100
AcDbEntity
  8
0
  6
Continuous
 62
     7
370
    25
100
AcDbSpline
210
0.0
220
0.0
230
1.0
 70
     8
 71
     3
 72
    20
 73
    16
 74
     0
 42
0.000000001
 43
0.00000001
 40
0.0
 40
0.0
 40
0.0
 40
0.0
 40
0.0824551542648228
 40
0.1638909617363379
 40
0.2443316123424765
 40
0.3238022047590404
 40
0.4023287678179149
 40
0.4799382801881041
 40
0.5566586879850979
 40
0.6325189199412078
 40
0.7075488997494932
 40
0.7817795551778813
 40
0.8552428235391772
 40
0.9279716530981531
 40
1.0
 40
1.0
 40
1.0
 40
1.0
 10
47.00000000000001
 20
-13.60290287978641
 30
0.0
 10
47.05002236721992
 20
-13.43160118903016
 30
0.0
 10
47.14944870320939
 20
-13.09111551417551
 30
0.0
 10
47.28508230210804
 20
-12.58085251906766
 30
0.0
 10
47.4095681910486
 20
-12.07501772942506
 30
0.0
 10
47.52203813874758
 20
-11.5734169664932
 30
0.0
 10
47.62272005588169
 20
-11.07610117501927
 30
0.0
 10
47.71155398243506
 20
-10.58305683078319
 30
0.0
 10
47.78855371998773
 20
-10.09428739665216
 30
0.0
 10
47.85372082650614
 20
-9.609791891273408
 30
0.0
 10
47.90703362815324
 20
-9.129570529171977
 30
0.0
 10
47.94857358760037
 20
-8.65362325976518
 30
0.0
 10
47.97803848776533
 20
-8.1819500818456
 30
0.0
 10
47.99653741262012
 20
-7.714551237892771
 30
0.0
 10
47.99884953367224
 20
-7.404350056210339
 30
0.0
 10
48.0
 20
-7.249999999999951
 30
0.0
  0
SPLINE
  5
1C3
330
1B
100
AcDbEntity
  8
0
  6
Continuous
 62
     7
370
    25
100
AcDbSpline
210
0.0
220
0.0
230
1.0
 70
     8
 71
     3
 72
    21
 73
    17
 74
     0
 42
0.000000001
 43
0.00000001
 40
0.0
 40
0.0
 40
0.0
 40
0.0
 40
0.0668606848061326
 40
0.1343232364320259
 40
0.2024149282417946
 40
0.2711622848285416
 40
0.3405910793184562
 40
0.4107263336025106
 40
0.4815923212493622
 40
0.5532125728500601
 40
0.6256098835462417
 40
0.6988063224981489
 40
0.7728232440563295
 40
0.8476813004107926
 40
0.9234004555031131
 40
1.0
 40
1.0
 40
1.0
 40
1.0
 10
35.0
 20
-7.24999999999996
 30
0.0
 10
35.00099124462478
 20
-7.393276174900303
 30
0.0
 10
35.00298265686475
 20
-7.681118268830661
 30
0.0
 10
35.01892809466371
 20
-8.114692452704913
 30
0.0
 10
35.04432992768889
 20
-8.55195268364276
 30
0.0
 10
35.08014246128324
 20
-8.9928987763907
 30
0.0
 10
35.12610597080055
 20
-9.437530744330681
 30
0.0
 10
35.182290755709
 20
-9.88584855570315
 30
0.0
 10
35.2486771060895
 20
-10.3378522808978
 30
0.0
 10
35.32527092916181
 20
-10.79354173389782
 30
0.0
 10
35.41206693598733
 20
-11.25291776615011
 30
0.0
 10
35.50907900000361
 20
-11.71597736508746
 30
0.0
 10
35.6162547176996
 20
-12.18273223887985
 30
0.0
 10
35.7337915737117
 20
-12.65313827560075
 30
0.0
 10
35.86093895545878
 20
-13.12736331450476
 30
0.0
 10
35.95346804833472
 20
-13.44378007052214
 30
0.0
 10
36.00000000000001
 20
-13.60290287978641
 30
0.0
  0
SPLINE
  5
1C4
330
1B
100
AcDbEntity
  8
0
  6
Continuous
 62
     7
370
    25
100
AcDbSpline
210
0.0
220
0.0
230
1.0
 70
     8
 71
     3
 72
    20
 73
    16
 74
     0
 42
0.000000001
 43
0.00000001
 40
0.0
 40
0.0
 40
0.0
 40
0.0
 40
0.0824551542648236
 40
0.1638909617363387
 40
0.2443316123424783
 40
0.3238022047590425
 40
0.4023287678179176
 40
0.4799382801881073
 40
0.5566586879851008
 40
0.6325189199412106
 40
0.7075488997494958
 40
0.7817795551778834
 40
0.8552428235391787
 40
0.927971653098154
 40
1.0
 40
1.0
 40
1.0
 40
1.0
 10
36.00000000000001
 20
-0.8970971202134418
 30
0.0
 10
35.94997763278009
 20
-1.068398810969696
 30
0.0
 10
35.85055129679061
 20
-1.408884485824353
 30
0.0
 10
35.71491769789196
 20
-1.91914748093221
 30
0.0
 10
35.59043180895141
 20
-2.424982270574813
 30
0.0
 10
35.47796186125245
 20
-2.926583033506688
 30
0.0
 10
35.3772799441183
 20
-3.423898824980623
 30
0.0
 10
35.28844601756494
 20
-3.916943169216707
 30
0.0
 10
35.21144628001225
 20
-4.405712603347738
 30
0.0
 10
35.14627917349386
 20
-4.890208108726497
 30
0.0
 10
35.09296637184674
 20
-5.37042947082793
 30
0.0
 10
35.05142641239964
 20
-5.846376740234737
 30
0.0
 10
35.02196151223467
 20
-6.318049918154312
 30
0.0
 10
35.00346258737986
 20
-6.78544876210714
 30
0.0
 10
35.00115046632777
 20
-7.095649943789573
 30
0.0
 10
35.0
 20
-7.24999999999996
 30
0.0
  0
SPLINE
  5
1C8
330
1B
100
AcDbEntity
  8
0
  6
Continuous
 62
     7
370
    25
100
AcDbSpline
210
0.0
220
0.0
230
1.0
 70
     8
 71
     3
 72
    21
 73
    17
 74
     0
 42
0.000000001
 43
0.00000001
 40
0.0
 40
0.0
 40
0.0
 40
0.0
 40
0.0668606848061307
 40
0.1343232364320243
 40
0.2024149282417928
 40
0.2711622848285383
 40
0.3405910793184525
 40
0.4107263336025065
 40
0.4815923212493589
 40
0.5532125728500568
 40
0.6256098835462387
 40
0.6988063224981459
 40
0.7728232440563269
 40
0.8476813004107913
 40
0.9234004555031126
 40
0.9999999999999999
 40
0.9999999999999999
 40
0.9999999999999999
 40
0.9999999999999999
 10
48.0
 20
7.250000000000044
 30
0.0
 10
47.99900875537522
 20
7.393276174900385
 30
0.0
 10
47.99701734313524
 20
7.681118268830744
 30
0.0
 10
47.98107190533632
 20
8.114692452704983
 30
0.0
 10
47.95567007231112
 20
8.551952683642833
 30
0.0
 10
47.91985753871676
 20
8.992898776390772
 30
0.0
 10
47.87389402919946
 20
9.43753074433075
 30
0.0
 10
47.817709244291
 20
9.885848555703218
 30
0.0
 10
47.75132289391051
 20
10.33785228089786
 30
0.0
 10
47.67472907083819
 20
10.7935417338979
 30
0.0
 10
47.58793306401268
 20
11.25291776615018
 30
0.0
 10
47.4909209999964
 20
11.71597736508754
 30
0.0
 10
47.38374528230042
 20
12.18273223887993
 30
0.0
 10
47.2662084262883
 20
12.65313827560084
 30
0.0
 10
47.13906104454122
 20
13.12736331450485
 30
0.0
 10
47.0465319516653
 20
13.44378007052224
 30
0.0
 10
47.0
 20
13.60290287978651
 30
0.0
  0
SPLINE
  5
1C9
330
1B
100
AcDbEntity
  8
0
  6
Continuous
 62
     7
370
    25
100
AcDbSpline
210
0.0
220
0.0
230
1.0
 70
     8
 71
     3
 72
    21
 73
    17
 74
     0
 42
0.000000001
 43
0.00000001
 40
0.0
 40
0.0
 40
0.0
 40
0.0
 40
0.0668606848061315
 40
0.1343232364320242
 40
0.202414928241792
 40
0.2711622848285387
 40
0.3405910793184525
 40
0.4107263336025066
 40
0.4815923212493589
 40
0.5532125728500563
 40
0.6256098835462384
 40
0.6988063224981451
 40
0.7728232440563275
 40
0.8476813004107906
 40
0.9234004555031127
 40
1.0
 40
1.0
 40
1.0
 40
1.0
 10
35.00000000000001
 20
7.250000000000041
 30
0.0
 10
35.00099124462479
 20
7.106723825099702
 30
0.0
 10
35.00298265686476
 20
6.818881731169345
 30
0.0
 10
35.01892809466372
 20
6.385307547295098
 30
0.0
 10
35.0443299276889
 20
5.948047316357249
 30
0.0
 10
35.08014246128327
 20
5.507101223609313
 30
0.0
 10
35.12610597080055
 20
5.062469255669325
 30
0.0
 10
35.18229075570904
 20
4.614151444296857
 30
0.0
 10
35.24867710608949
 20
4.162147719102213
 30
0.0
 10
35.32527092916183
 20
3.706458266102176
 30
0.0
 10
35.41206693598733
 20
3.247082233849889
 30
0.0
 10
35.50907900000364
 20
2.784022634912522
 30
0.0
 10
35.61625471769959
 20
2.317267761120141
 30
0.0
 10
35.73379157371173
 20
1.846861724399215
 30
0.0
 10
35.8609389554588
 20
1.372636685495214
 30
0.0
 10
35.95346804833472
 20
1.056219929477817
 30
0.0
 10
36.00000000000002
 20
0.8970971202135474
 30
0.0
  0
SPLINE
  5
1CA
330
1B
100
AcDbEntity
  8
0
  6
Continuous
 62
     7
370
    25
100
AcDbSpline
210
0.0
220
0.0
230
1.0
 70
     8
 71
     3
 72
    20
 73
    16
 74
     0
 42
0.000000001
 43
0.00000001
 40
0.0
 40
0.0
 40
0.0
 40
0.0
 40
0.0824551542648211
 40
0.1638909617363349
 40
0.2443316123424735
 40
0.3238022047590364
 40
0.4023287678179108
 40
0.4799382801880994
 40
0.5566586879850931
 40
0.6325189199412031
 40
0.70754889974949
 40
0.7817795551778786
 40
0.8552428235391754
 40
0.9279716530981521
 40
1.0
 40
1.0
 40
1.0
 40
1.0
 10
36.00000000000002
 20
13.6029028797865
 30
0.0
 10
35.9499776327801
 20
13.43160118903026
 30
0.0
 10
35.85055129679062
 20
13.09111551417561
 30
0.0
 10
35.71491769789198
 20
12.58085251906777
 30
0.0
 10
35.59043180895142
 20
12.07501772942518
 30
0.0
 10
35.47796186125246
 20
11.57341696649332
 30
0.0
 10
35.37727994411833
 20
11.0761011750194
 30
0.0
 10
35.28844601756496
 20
10.58305683078331
 30
0.0
 10
35.21144628001228
 20
10.09428739665229
 30
0.0
 10
35.14627917349389
 20
9.609791891273526
 30
0.0
 10
35.09296637184675
 20
9.129570529172105
 30
0.0
 10
35.05142641239965
 20
8.65362325976529
 30
0.0
 10
35.02196151223468
 20
8.18195008184571
 30
0.0
 10
35.00346258737989
 20
7.71455123789287
 30
0.0
 10
35.00115046632779
 20
7.404350056210433
 30
0.0
 10
35.00000000000001
 20
7.250000000000041
 30
0.0
  0
SPLINE
  5
1CE
330
1B
100
AcDbEntity
  8
0
  6
Continuous
 62
     7
370
    25
100
AcDbSpline
210
0.0
220
0.0
230
1.0
 70
    24
 71
     3
 72
    20
 73
    16
 74
     0
 42
0.000000001
 43
0.00000001
 40
0.0
 40
0.0
 40
0.0
 40
0.0
 40
0.0824551542648178
 40
0.1638909617363297
 40
0.2443316123424653
 40
0.3238022047590266
 40
0.4023287678178988
 40
0.4799382801880889
 40
0.5566586879850832
 40
0.632518919941193
 40
0.7075488997494804
 40
0.7817795551778717
 40
0.8552428235391696
 40
0.9279716530981497
 40
1.0
 40
1.0
 40
1.0
 40
1.0
 10
47.0
 20
14.50000000000002
 30
0.0
 10
47.0500223672199
 20
14.50000000000002
 30
0.0
 10
47.14944870320938
 20
14.50000000000002
 30
0.0
 10
47.28508230210805
 20
14.50000000000002
 30
0.0
 10
47.40956819104859
 20
14.50000000000001
 30
0.0
 10
47.52203813874757
 20
14.50000000000002
 30
0.0
 10
47.62272005588168
 20
14.50000000000001
 30
0.0
 10
47.71155398243507
 20
14.50000000000002
 30
0.0
 10
47.78855371998775
 20
14.50000000000001
 30
0.0
 10
47.85372082650613
 20
14.50000000000001
 30
0.0
 10
47.90703362815326
 20
14.50000000000001
 30
0.0
 10
47.94857358760039
 20
14.50000000000002
 30
0.0
 10
47.97803848776532
 20
14.50000000000001
 30
0.0
 10
47.99653741262012
 20
14.50000000000001
 30
0.0
 10
47.99884953367224
 20
14.50000000000001
 30
0.0
 10
48.0
 20
14.50000000000001
 30
0.0
  0
SPLINE
  5
1D1
330
1B
100
AcDbEntity
  8
0
  6
Continuous
 62
     7
370
    25
100
AcDbSpline
210
0.0
220
0.0
230
1.0
 70
    24
 71
     3
 72
    20
 73
    16
 74
     0
 42
0.000000001
 43
0.00000001
 40
0.0
 40
0.0
 40
0.0
 40
0.0
 40
0.0824551542648171
 40
0.1638909617363262
 40
0.2443316123424608
 40
0.3238022047590214
 40
0.4023287678178948
 40
0.4799382801880842
 40
0.5566586879850774
 40
0.632518919941188
 40
0.7075488997494765
 40
0.7817795551778669
 40
0.8552428235391657
 40
0.9279716530981468
 40
1.0
 40
1.0
 40
1.0
 40
1.0
 10
36.00000000000001
 20
-14.5
 30
0.0
 10
35.9499776327801
 20
-14.5
 30
0.0
 10
35.85055129679063
 20
-14.5
 30
0.0
 10
35.71491769789196
 20
-14.5
 30
0.0
 10
35.59043180895141
 20
-14.49999999999999
 30
0.0
 10
35.47796186125246
 20
-14.5
 30
0.0
 10
35.37727994411831
 20
-14.5
 30
0.0
 10
35.28844601756496
 20
-14.5
 30
0.0
 10
35.21144628001226
 20
-14.49999999999999
 30
0.0
 10
35.1462791734939
 20
-14.50000000000001
 30
0.0
 10
35.09296637184675
 20
-14.5
 30
0.0
 10
35.05142641239966
 20
-14.5
 30
0.0
 10
35.0219615122347
 20
-14.5
 30
0.0
 10
35.00346258737989
 20
-14.5
 30
0.0
 10
35.00115046632779
 20
-14.5
 30
0.0
 10
35.00000000000004
 20
-14.5
 30
0.0
  0
SPLINE
  5
1D3
330
1B
100
AcDbEntity
  8
0
  6
Continuous
 62
     7
370
    25
100
AcDbSpline
210
0.0
220
0.0
230
1.0
 70
    24
 71
     3
 72
    21
 73
    17
 74
     0
 42
0.000000001
 43
0.00000001
 40
0.0
 40
0.0
 40
0.0
 40
0.0
 40
0.0668606848061337
 40
0.1343232364320288
 40
0.2024149282418001
 40
0.2711622848285492
 40
0.3405910793184638
 40
0.4107263336025194
 40
0.4815923212493705
 40
0.5532125728500693
 40
0.6256098835462494
 40
0.6988063224981566
 40
0.7728232440563348
 40
0.8476813004107975
 40
0.9234004555031171
 40
1.0
 40
1.0
 40
1.0
 40
1.0
 10
48.0
 20
-14.5
 30
0.0
 10
47.99900875537522
 20
-14.5
 30
0.0
 10
47.99701734313524
 20
-14.5
 30
0.0
 10
47.98107190533629
 20
-14.5
 30
0.0
 10
47.95567007231111
 20
-14.5
 30
0.0
 10
47.91985753871674
 20
-14.5
 30
0.0
 10
47.87389402919945
 20
-14.5
 30
0.0
 10
47.81770924429098
 20
-14.5
 30
0.0
 10
47.75132289391053
 20
-14.5
 30
0.0
 10
47.67472907083816
 20
-14.5
 30
0.0
 10
47.58793306401267
 20
-14.5
 30
0.0
 10
47.4909209999964
 20
-14.5
 30
0.0
 10
47.38374528230042
 20
-14.5
 30
0.0
 10
47.26620842628829
 20
-14.5
 30
0.0
 10
47.13906104454123
 20
-14.5
 30
0.0
 10
47.0465319516653
 20
-14.5
 30
0.0
 10
47.00000000000001
 20
-14.5
 30
0.0
  0
SPLINE
  5
1D7
330
1B
100
AcDbEntity
  8
0
  6
Continuous
 62
     7
370
    25
100
AcDbSpline
210
0.0
220
0.0
230
1.0
 70
    24
 71
     3
 72
    21
 73
    17
 74
     0
 42
0.000000001
 43
0.00000001
 40
0.0
 40
0.0
 40
0.0
 40
0.0
 40
0.0668606848061337
 40
0.1343232364320287
 40
0.2024149282417982
 40
0.2711622848285453
 40
0.3405910793184599
 40
0.4107263336025156
 40
0.4815923212493667
 40
0.5532125728500653
 40
0.6256098835462452
 40
0.6988063224981528
 40
0.7728232440563326
 40
0.8476813004107955
 40
0.9234004555031131
 40
1.0
 40
1.0
 40
1.0
 40
1.0
 10
35.0
 20
14.50000000000001
 30
0.0
 10
35.00099124462478
 20
14.50000000000001
 30
0.0
 10
35.00298265686475
 20
14.50000000000001
 30
0.0
 10
35.01892809466369
 20
14.50000000000001
 30
0.0
 10
35.04432992768889
 20
14.50000000000001
 30
0.0
 10
35.08014246128324
 20
14.50000000000001
 30
0.0
 10
35.12610597080055
 20
14.50000000000001
 30
0.0
 10
35.18229075570901
 20
14.50000000000001
 30
0.0
 10
35.24867710608949
 20
14.50000000000002
 30
0.0
 10
35.32527092916181
 20
14.50000000000001
 30
0.0
 10
35.41206693598733
 20
14.50000000000002
 30
0.0
 10
35.50907900000361
 20
14.50000000000001
 30
0.0
 10
35.61625471769958
 20
14.50000000000002
 30
0.0
 10
35.7337915737117
 20
14.50000000000002
 30
0.0
 10
35.86093895545878
 20
14.50000000000002
 30
0.0
 10
35.9534680483347
 20
14.50000000000002
 30
0.0
 10
36.00000000000001
 20
14.50000000000002
 30
0.0
  0
LWPOLYLINE
  5
1DB
330
1B
100
AcDbEntity
  8
0
  6
Continuous
 62
     7
370
    25
100
AcDbPolyline
 90
        9
 70
   128
 43
0.0
 10
13.3901783035
 20
-6.7604086415
 10
13.6294594748
 20
-6.4409303423
 10
13.9863639839
 20
-6.1930975729
 10
14.4509535755
 20
-6.0238114101
 10
15.010291428
 20
-5.9377857452
 10
15.6488023881
 20
-5.937416023
 10
16.3487066721
 20
-6.0227125387
 10
17.0905149565
 20
-6.1913001511
 10
17.8535710714
 20
-6.4384844205
  0
LWPOLYLINE
  5
1DC
330
1B
100
AcDbEntity
  8
0
  6
Continuous
 62
     7
370
    25
100
AcDbPolyline
 90
        9
 70
   128
 43
0.0
 10
13.3901783035
 20
6.7604086415
 10
13.6294594748
 20
6.4409303422
 10
13.9863639839
 20
6.1930975729
 10
14.4509535755
 20
6.0238114101
 10
15.010291428
 20
5.9377857452
 10
15.6488023881
 20
5.937416023
 10
16.3487066721
 20
6.0227125387
 10
17.0905149565
 20
6.1913001511
 10
17.8535710714
 20
6.4384844205
  0
SPLINE
  5
1DD
330
1B
100
AcDbEntity
  8
0
  6
Continuous
 62
     7
370
    25
100
AcDbSpline
210
0.0
220
0.0
230
1.0
 70
     8
 71
     3
 72
    41
 73
    37
 74
     0
 42
0.000000001
 43
0.00000001
 40
0.0
 40
0.0
 40
0.0
 40
0.0
 40
0.0186153590291544
 40
0.0375048501388167
 40
0.056690635926524
 40
0.0761938687393565
 40
0.0960346854654166
 40
0.1162322131126768
 40
0.136804583568624
 40
0.1577689559506055
 40
0.1791415450326316
 40
0.200937654351888
 40
0.2231717127415599
 40
0.2458573131925868
 40
0.2690072531052243
 40
0.2926335751443213
 40
0.3167476080547482
 40
0.3413600069223656
 40
0.3664807924798152
 40
0.392119389154836
 40
0.4182846616423291
 40
0.4449849498509823
 40
0.4722281021323145
 40
0.5000215067459433
 40
0.5505479934751023
 40
0.5992467149832575
 40
0.6461667988109439
 40
0.6913631816078484
 40
0.7348973347221106
 40
0.7768380476410891
 40
0.8172622538891289
 40
0.8562558726354209
 40
0.8939146244652209
 40
0.9303447618796358
 40
0.9656636356148289
 40
0.9999999999999999
 40
0.9999999999999999
 40
0.9999999999999999
 40
0.9999999999999999
 10
17.85357107135709
 20
6.438484420471416
 30
0.0
 10
17.89785078117362
 20
6.37414388515861
 30
0.0
 10
17.98706226929257
 20
6.244515327848554
 30
0.0
 10
18.11168210643146
 20
6.040873080156387
 30
0.0
 10
18.23078193447942
 20
5.82867880085366
 30
0.0
 10
18.3436083554067
 20
5.607213668179189
 30
0.0
 10
18.45036944008765
 20
5.376513049380513
 30
0.0
 10
18.55100939024899
 20
5.136419409531943
 30
0.0
 10
18.64554488617818
 20
4.886844343076605
 30
0.0
 10
18.73397261964287
 20
4.627698676276945
 30
0.0
 10
18.81629471434705
 20
4.358913896081822
 30
0.0
 10
18.89251171314446
 20
4.080438524045105
 30
0.0
 10
18.9626245027937
 20
3.792241461568956
 30
0.0
 10
19.0266337797057
 20
3.49431347983559
 30
0.0
 10
19.08454019722383
 20
3.186669281542101
 30
0.0
 10
19.13634432739698
 20
2.869349459641533
 30
0.0
 10
19.18204667589896
 20
2.542422528273039
 30
0.0
 10
19.22164768317507
 20
2.205986984272754
 30
0.0
 10
19.25514773147775
 20
1.860173344719448
 30
0.0
 10
19.28254714553205
 20
1.505146384886763
 30
0.0
 10
19.30384621471308
 20
1.141106659237243
 30
0.0
 10
19.31904513343296
 20
0.7682947948371329
 30
0.0
 10
19.32814425509629
 20
0.3869850824863104
 30
0.0
 10
19.33194065775596
 20
-0.1060536344945224
 30
0.0
 10
19.32368092359123
 20
-0.699431381050663
 30
0.0
 10
19.29331869652009
 20
-1.379363765469718
 30
0.0
 10
19.24244892311203
 20
-2.029309759507478
 30
0.0
 10
19.17106559471204
 20
-2.648033935953051
 30
0.0
 10
19.07916219408389
 20
-3.234719194706556
 30
0.0
 10
18.96672388455261
 20
-3.788892448557744
 30
0.0
 10
18.83375465210954
 20
-4.310409255176862
 30
0.0
 10
18.68017976936355
 20
-4.799335006542818
 30
0.0
 10
18.50619036078754
 20
-5.256171356425015
 30
0.0
 10
18.31102232944246
 20
-5.680872810242721
 30
0.0
 10
18.09729987961473
 20
-6.076169001348178
 30
0.0
 10
17.93404642676596
 20
-6.318853662283683
 30
0.0
 10
17.85357107135239
 20
-6.438484420478408
 30
0.0
  0
SPLINE
  5
1EB
330
1B
100
AcDbEntity
  8
0
  6
Continuous
 62
     8
370
    25
100
AcDbSpline
210
0.0
220
0.0
230
1.0
 70
     8
 71
     3
 72
    35
 73
    31
 74
     0
 42
0.000000001
 43
0.00000001
 40
0.0
 40
0.0
 40
0.0
 40
0.0
 40
0.0226750470555164
 40
0.0461954344539599
 40
0.0705669446450846
 40
0.0957947746565886
 40
0.121883609599481
 40
0.1488376854426759
 40
0.1766608427997096
 40
0.2053565731665892
 40
0.23492805880072
 40
0.2653782072269247
 40
0.3531452112088558
 40
0.4415000178758067
 40
0.530448579779659
 40
0.5688951225745286
 40
0.6057976865783281
 40
0.6411746111990833
 40
0.6750467144869856
 40
0.7074377165927954
 40
0.7383747451259401
 40
0.7678889376699011
 40
0.7960161580636924
 40
0.8278019225234519
 40
0.8584536523289484
 40
0.8881089786113788
 40
0.916919815707337
 40
0.9450517621943564
 40
0.9726826256474653
 40
1.0
 40
1.0
 40
1.0
 40
1.0
 10
17.85357107135219
 20
-6.438484420478352
 30
0.0
 10
17.79130657092406
 20
-6.525186691800601
 30
0.0
 10
17.66445630943203
 20
-6.701823550902603
 30
0.0
 10
17.4640795623064
 20
-6.962939386199258
 30
0.0
 10
17.25202227745235
 20
-7.2268593245143
 30
0.0
 10
17.02775013420419
 20
-7.492401016487749
 30
0.0
 10
16.79141367489277
 20
-7.759189539304487
 30
0.0
 10
16.54296753167111
 20
-8.026577733645485
 30
0.0
 10
16.28243199156055
 20
-8.293957785379382
 30
0.0
 10
16.00976846542283
 20
-8.560643012089322
 30
0.0
 10
15.72511309428594
 20
-8.826017113772057
 30
0.0
 10
15.24434784369226
 20
-9.251524492326718
 30
0.0
 10
14.56453831182453
 20
-9.80623256930941
 30
0.0
 10
13.68594918151665
 20
-10.44123547274775
 30
0.0
 10
12.95960967818413
 20
-10.890065523675
 30
0.0
 10
12.41039962274556
 20
-11.19738360654427
 30
0.0
 10
12.0518310600897
 20
-11.39363744489748
 30
0.0
 10
11.71786885910739
 20
-11.57021429090978
 30
0.0
 10
11.40911711193298
 20
-11.72822856224905
 30
0.0
 10
11.12543741843995
 20
-11.86850620101357
 30
0.0
 10
10.86680056683613
 20
-11.99195802937305
 30
0.0
 10
10.63341972261298
 20
-12.09951959147287
 30
0.0
 10
10.41212867363353
 20
-12.19750046860859
 30
0.0
 10
10.20918845349112
 20
-12.2851609569076
 30
0.0
 10
10.03222088267586
 20
-12.36086919817925
 30
0.0
 10
9.89148139366661
 20
-12.42004301293837
 30
0.0
 10
9.786975800593364
 20
-12.46312756502667
 30
0.0
 10
9.719647426506437
 20
-12.49006999804342
 30
0.0
 10
9.686118015740318
 20
-12.50261258993835
 30
0.0
 10
9.694735349938798
 20
-12.49823489237906
 30
0.0
 10
9.699019435354845
 20
-12.49605853135631
 30
0.0
  0
SPLINE
  5
1EC
330
1B
100
AcDbEntity
  8
0
  6
Continuous
 62
     8
370
    25
100
AcDbSpline
210
0.0
220
0.0
230
1.0
 70
     8
 71
     3
 72
    23
 73
    19
 74
     0
 42
0.000000001
 43
0.00000001
 40
0.0
 40
0.0
 40
0.0
 40
0.0
 40
0.0062955267356712
 40
0.0435676914689283
 40
0.0806324830657346
 40
0.1178957952067846
 40
0.1548210322222745
 40
0.1952320020995023
 40
0.2393106075549805
 40
0.2871969632990796
 40
0.3390002863178841
 40
0.4301023621421649
 40
0.5593176975991726
 40
0.6663105102845486
 40
0.7481303522573369
 40
0.8279355431241897
 40
0.9181783525782063
 40
1.0
 40
1.0
 40
1.0
 40
1.0
 10
9.711508183019088
 20
12.49384986804862
 30
0.0
 10
9.706656564990933
 20
12.49592321440475
 30
0.0
 10
9.673081328755654
 20
12.5102716427643
 30
0.0
 10
9.74297956110308
 20
12.48037979711703
 30
0.0
 10
9.83127633391659
 20
12.44215796519111
 30
0.0
 10
9.996691268516173
 20
12.37298174799699
 30
0.0
 10
10.21572594160273
 20
12.28274446985603
 30
0.0
 10
10.48976137841845
 20
12.16550007087957
 30
0.0
 10
10.82489305246761
 20
12.01526273413805
 30
0.0
 10
11.22143010920963
 20
11.82782010750078
 30
0.0
 10
11.78309484024843
 20
11.54715969382708
 30
0.0
 10
12.64164981017891
 20
11.08807916768777
 30
0.0
 10
13.70757615963251
 20
10.42401453760913
 30
0.0
 10
14.74696446949351
 20
9.663083335339229
 30
0.0
 10
15.61389080980299
 20
8.940911679753095
 30
0.0
 10
16.40176738292204
 20
8.192158765048424
 30
0.0
 10
17.15787052583349
 20
7.371271565780918
 30
0.0
 10
17.62936279928776
 20
6.739100246352272
 30
0.0
 10
17.8535710713571
 20
6.43848442047143
 30
0.0
  0
LINE
  5
1ED
330
1B
100
AcDbEntity
  8
0
  6
Continuous
 62
     7
370
    25
100
AcDbLine
 10
-4.6
 20
19.0
 30
0.0
 11
-4.6
 21
14.2772546381
 31
0.0
  0
LINE
  5
1EE
330
1B
100
AcDbEntity
  8
0
  6
Continuous
 62
     7
370
    25
100
AcDbLine
 10
4.6
 20
14.2772546381
 30
0.0
 11
4.6
 21
19.0
 31
0.0
  0
LINE
  5
1EF
330
1B
100
AcDbEntity
  8
0
  6
Continuous
 62
     7
370
    25
100
AcDbLine
 10
-10.0
 20
19.0311784868
 30
0.0
 11
-10.0
 21
18.0
 31
0.0
  0
LINE
  5
1F0
330
1B
100
AcDbEntity
  8
0
  6
Continuous
 62
     7
370
    25
100
AcDbLine
 10
-10.0
 20
20.8312315552
 30
0.0
 11
-10.0
 21
20.5688667447
 31
0.0
  0
LINE
  5
1F1
330
1B
100
AcDbEntity
  8
0
  6
Continuous
 62
     7
370
    25
100
AcDbLine
 10
-10.0
 20
22.631180025
 30
0.0
 11
-10.0
 21
22.3688600725
 31
0.0
  0
LINE
  5
1F2
330
1B
100
AcDbEntity
  8
0
  6
Continuous
 62
     7
370
    25
100
AcDbLine
 10
-10.0
 20
24.4311771784
 30
0.0
 11
-10.0
 21
24.1688390281
 31
0.0
  0
LINE
  5
1F3
330
1B
100
AcDbEntity
  8
0
  6
Continuous
 62
     7
370
    25
100
AcDbLine
 10
-10.0
 20
26.2211786759
 30
0.0
 11
-10.0
 21
25.9688157199
 31
0.0
  0
LINE
  5
1F4
330
1B
100
AcDbEntity
  8
0
  6
Continuous
 62
     7
370
    25
100
AcDbLine
 10
14.0
 20
26.8689917037
 30
0.0
 11
14.0
 21
27.0
 31
0.0
  0
LINE
  5
1F5
330
1B
100
AcDbEntity
  8
0
  6
Continuous
 62
     7
370
    25
100
AcDbLine
 10
14.0
 20
25.0685722033
 30
0.0
 11
14.0
 21
25.3311774669
 31
0.0
  0
LINE
  5
1F6
330
1B
100
AcDbEntity
  8
0
  6
Continuous
 62
     7
370
    25
100
AcDbLine
 10
14.0
 20
23.2690777898
 30
0.0
 11
14.0
 21
23.5306604421
 31
0.0
  0
LINE
  5
1F7
330
1B
100
AcDbEntity
  8
0
  6
Continuous
 62
     7
370
    25
100
AcDbLine
 10
14.0
 20
21.4684876378
 30
0.0
 11
14.0
 21
21.7316973144
 31
0.0
  0
LINE
  5
1F8
330
1B
100
AcDbEntity
  8
0
  6
Continuous
 62
     7
370
    25
100
AcDbLine
 10
14.0
 20
18.0
 30
0.0
 11
14.0
 21
19.9310730913
 31
0.0
  0
LINE
  5
1F9
330
1B
100
AcDbEntity
  8
0
  6
Continuous
 62
     7
370
    25
100
AcDbLine
 10
13.1
 20
25.8508001452
 30
0.0
 11
13.1
 21
26.3428324778
 31
0.0
  0
LINE
  5
1FA
330
1B
100
AcDbEntity
  8
0
  6
Continuous
 62
     7
370
    25
100
AcDbLine
 10
13.1
 20
24.0507860336
 30
0.0
 11
13.1
 21
24.5432546659
 31
0.0
  0
LINE
  5
1FB
330
1B
100
AcDbEntity
  8
0
  6
Continuous
 62
     7
370
    25
100
AcDbLine
 10
13.1
 20
22.2508295473
 30
0.0
 11
13.1
 21
22.7428859493
 31
0.0
  0
LINE
  5
1FC
330
1B
100
AcDbEntity
  8
0
  6
Continuous
 62
     7
370
    25
100
AcDbLine
 10
13.1
 20
20.4507806623
 30
0.0
 11
13.1
 21
20.9429990487
 31
0.0
  0
LINE
  5
1FD
330
1B
100
AcDbEntity
  8
0
  6
Continuous
 62
     7
370
    25
100
AcDbLine
 10
-9.1
 20
20.0492715535
 30
0.0
 11
-9.1
 21
19.550724484
 31
0.0
  0
LINE
  5
1FE
330
1B
100
AcDbEntity
  8
0
  6
Continuous
 62
     7
370
    25
100
AcDbLine
 10
-9.1
 20
21.8488460735
 30
0.0
 11
-9.1
 21
21.351096507
 31
0.0
  0
LINE
  5
1FF
330
1B
100
AcDbEntity
  8
0
  6
Continuous
 62
     7
370
    25
100
AcDbLine
 10
-9.1
 20
23.6494762601
 30
0.0
 11
-9.1
 21
23.1505189855
 31
0.0
  0
LINE
  5
200
330
1B
100
AcDbEntity
  8
0
  6
Continuous
 62
     7
370
    25
100
AcDbLine
 10
-9.1
 20
25.4489662869
 30
0.0
 11
-9.1
 21
24.9571575823
 31
0.0
  0
LINE
  5
201
330
1B
100
AcDbEntity
  8
0
  6
Continuous
 62
     7
370
    25
100
AcDbLine
 10
10.75
 20
12.5
 30
0.0
 11
10.75
 21
18.0
 31
0.0
  0
LINE
  5
202
330
1B
100
AcDbEntity
  8
0
  6
Continuous
 62
     7
370
    25
100
AcDbLine
 10
-6.75
 20
18.0
 30
0.0
 11
-6.75
 21
13.3954283246
 31
0.0
  0
LINE
  5
203
330
1B
100
AcDbEntity
  8
0
  6
Continuous
 62
     7
370
    25
100
AcDbLine
 10
66.5
 20
32.25
 30
0.0
 11
61.5206232339
 21
32.25
 31
0.0
  0
LINE
  5
204
330
1B
100
AcDbEntity
  8
0
  6
Continuous
 62
     7
370
    25
100
AcDbLine
 10
61.5206232339
 20
-32.25
 30
0.0
 11
66.5
 21
-32.25
 31
0.0
  0
LINE
  5
205
330
1B
100
AcDbEntity
  8
0
  6
Continuous
 62
     7
370
    25
100
AcDbLine
 10
59.9011235484
 20
31.4235504595
 30
0.0
 11
48.3805003144
 21
15.5250904327
 31
0.0
  0
LINE
  5
206
330
1B
100
AcDbEntity
  8
0
  6
Continuous
 62
     7
370
    25
100
AcDbLine
 10
48.3805003144
 20
-15.5250904327
 30
0.0
 11
59.9011235484
 21
-31.4235504595
 31
0.0
  0
LINE
  5
207
330
1B
100
AcDbEntity
  8
0
  6
Continuous
 62
     7
370
    25
100
AcDbLine
 10
25.0
 20
-10.3
 30
0.0
 11
35.0
 21
-10.3
 31
0.0
  0
LINE
  5
208
330
1B
100
AcDbEntity
  8
0
  6
Continuous
 62
     7
370
    25
100
AcDbLine
 10
35.0
 20
10.3
 30
0.0
 11
25.0
 21
10.3
 31
0.0
  0
LINE
  5
209
330
1B
100
AcDbEntity
  8
0
  6
Continuous
 62
     7
370
    25
100
AcDbLine
 10
7.8235772818
 20
-12.8585391524
 30
0.0
 11
9.6828381703
 21
-12.500033016
 31
0.0
  0
LINE
  5
20A
330
1B
100
AcDbEntity
  8
0
  6
Continuous
 62
     7
370
    25
100
AcDbLine
 10
25.0
 20
12.5
 30
0.0
 11
9.7145765317
 21
12.5
 31
0.0
  0
LINE
  5
20B
330
1B
100
AcDbEntity
  8
0
  6
Continuous
 62
     7
370
    25
100
AcDbLine
 10
9.7127478823
 20
-12.5
 30
0.0
 11
25.0
 21
-12.5
 31
0.0
  0
LINE
  5
20C
330
1B
100
AcDbEntity
  8
0
  6
Continuous
 62
     7
370
    25
100
AcDbLine
 10
7.8256491181
 20
-12.8576908055
 30
0.0
 11
9.6829996376
 21
-12.4999732027
 31
0.0
  0
LINE
  5
20D
330
1B
100
AcDbEntity
  8
0
  6
Continuous
 62
     7
370
    25
100
AcDbLine
 10
-3.6
 20
20.0
 30
0.0
 11
3.5999995664
 21
20.0
 31
0.0
  0
LINE
  5
20E
330
1B
100
AcDbEntity
  8
0
  6
Continuous
 62
     7
370
    25
100
AcDbLine
 10
-9.005735756
 20
20.0866653846
 30
0.0
 11
-9.0354084827
 21
20.0492715535
 31
0.0
  0
LINE
  5
20F
330
1B
100
AcDbEntity
  8
0
  6
Continuous
 62
     7
370
    25
100
AcDbLine
 10
-9.9965284528
 20
25.9619155034
 30
0.0
 11
-9.9807074886
 21
25.9535613437
 31
0.0
  0
LINE
  5
210
330
1B
100
AcDbEntity
  8
0
  6
Continuous
 62
     7
370
    25
100
AcDbLine
 10
-9.9987826095
 20
22.3647759445
 30
0.0
 11
-9.9822295087
 21
22.3574984774
 31
0.0
  0
LINE
  5
211
330
1B
100
AcDbEntity
  8
0
  6
Continuous
 62
     7
370
    25
100
AcDbLine
 10
-10.0
 20
18.0
 30
0.0
 11
-4.6
 21
18.0
 31
0.0
  0
LINE
  5
212
330
1B
100
AcDbEntity
  8
0
  6
Continuous
 62
     7
370
    25
100
AcDbLine
 10
4.6
 20
18.0
 30
0.0
 11
14.0
 21
18.0
 31
0.0
  0
LINE
  5
213
330
1B
100
AcDbEntity
  8
0
  6
Continuous
 62
     7
370
    25
100
AcDbLine
 10
-10.0
 20
27.0
 30
0.0
 11
14.0
 21
27.0
 31
0.0
  0
LINE
  5
214
330
1B
100
AcDbEntity
  8
0
  6
Continuous
 62
     7
370
    25
100
AcDbLine
 10
-9.4176504984
 20
20.3997490605
 30
0.0
 11
-9.4176504984
 21
19.3015871582
 31
0.0
  0
LINE
  5
215
330
1B
100
AcDbEntity
  8
0
  6
Continuous
 62
     7
370
    25
100
AcDbLine
 10
-9.997752245
 20
19.0311784868
 30
0.0
 11
-9.9992350393
 21
19.0344125942
 31
0.0
  0
LINE
  5
216
330
1B
100
AcDbEntity
  8
0
  6
Continuous
 62
     7
370
    25
100
AcDbLine
 10
-10.0
 20
26.2311786759
 30
0.0
 11
-10.0
 21
27.0
 31
0.0
  0
LINE
  5
217
330
1B
100
AcDbEntity
  8
0
  6
Continuous
 62
     7
370
    25
100
AcDbLine
 10
66.5
 20
32.25
 30
0.0
 11
66.5
 21
-32.25
 31
0.0
  0
LINE
  5
218
330
1B
100
AcDbEntity
  8
0
  6
Continuous
 62
     7
370
    25
100
AcDbLine
 10
48.0
 20
14.5
 30
0.0
 11
48.0
 21
-14.5
 31
0.0
  0
LINE
  5
219
330
1B
100
AcDbEntity
  8
0
  6
Continuous
 62
     7
370
    25
100
AcDbLine
 10
47.0
 20
-0.8970971202
 30
0.0
 11
47.0
 21
0.8970971202
 31
0.0
  0
LINE
  5
21A
330
1B
100
AcDbEntity
  8
0
  6
Continuous
 62
     7
370
    25
100
AcDbLine
 10
36.0
 20
-13.6029028798
 30
0.0
 11
47.0
 21
-13.6029028798
 31
0.0
  0
LINE
  5
21B
330
1B
100
AcDbEntity
  8
0
  6
Continuous
 62
     7
370
    25
100
AcDbLine
 10
47.0
 20
-0.8970971202
 30
0.0
 11
36.0
 21
-0.8970971202
 31
0.0
  0
LINE
  5
21C
330
1B
100
AcDbEntity
  8
0
  6
Continuous
 62
     7
370
    25
100
AcDbLine
 10
36.0
 20
0.8970971202
 30
0.0
 11
36.0
 21
-0.8970971202
 31
0.0
  0
LINE
  5
21D
330
1B
100
AcDbEntity
  8
0
  6
Continuous
 62
     7
370
    25
100
AcDbLine
 10
36.0
 20
0.8970971202
 30
0.0
 11
47.0
 21
0.8970971202
 31
0.0
  0
LINE
  5
21E
330
1B
100
AcDbEntity
  8
0
  6
Continuous
 62
     7
370
    25
100
AcDbLine
 10
47.0
 20
13.6029028798
 30
0.0
 11
36.0
 21
13.6029028798
 31
0.0
  0
LINE
  5
21F
330
1B
100
AcDbEntity
  8
0
  6
Continuous
 62
     7
370
    25
100
AcDbLine
 10
35.0
 20
-14.5
 30
0.0
 11
35.0
 21
14.5
 31
0.0
  0
LINE
  5
220
330
1B
100
AcDbEntity
  8
0
  6
Continuous
 62
     7
370
    25
100
AcDbLine
 10
47.0
 20
13.6029028798
 30
0.0
 11
47.0
 21
14.5
 31
0.0
  0
LINE
  5
221
330
1B
100
AcDbEntity
  8
0
  6
Continuous
 62
     7
370
    25
100
AcDbLine
 10
36.0
 20
-13.6029028798
 30
0.0
 11
36.0
 21
-14.5
 31
0.0
  0
LINE
  5
222
330
1B
100
AcDbEntity
  8
0
  6
Continuous
 62
     7
370
    25
100
AcDbLine
 10
47.0
 20
-14.5
 30
0.0
 11
47.0
 21
-13.6029028798
 31
0.0
  0
LINE
  5
223
330
1B
100
AcDbEntity
  8
0
  6
Continuous
 62
     7
370
    25
100
AcDbLine
 10
36.0
 20
14.5
 30
0.0
 11
36.0
 21
13.6029028798
 31
0.0
  0
LINE
  5
224
330
1B
100
AcDbEntity
  8
0
  6
Continuous
 62
     7
370
    25
100
AcDbLine
 10
47.0
 20
-14.5
 30
0.0
 11
36.0
 21
-14.5
 31
0.0
  0
LINE
  5
225
330
1B
100
AcDbEntity
  8
0
  6
Continuous
 62
     7
370
    25
100
AcDbLine
 10
36.0
 20
14.5
 30
0.0
 11
47.0
 21
14.5
 31
0.0
  0
LINE
  5
226
330
1B
100
AcDbEntity
  8
0
  6
Continuous
 62
     7
370
    25
100
AcDbLine
 10
25.0
 20
12.5
 30
0.0
 11
25.0
 21
-12.5
 31
0.0
  0
LINE
  5
227
330
1B
100
AcDbEntity
  8
0
  6
Continuous
 62
     7
370
    25
100
AcDbLine
 10
-15.1986841536
 20
4.0
 30
0.0
 11
-16.6358047596
 21
4.0
 31
0.0
  0
LINE
  5
228
330
1B
100
AcDbEntity
  8
0
  6
Continuous
 62
     7
370
    25
100
AcDbLine
 10
-16.6358047596
 20
-4.0
 30
0.0
 11
-15.1986841536
 21
-4.0
 31
0.0
  0
LINE
  5
229
330
1B
100
AcDbEntity
  8
0
  6
Continuous
 62
     8
370
    25
100
AcDbLine
 10
4.6
 20
19.0
 30
0.0
 11
-4.6
 21
19.0
 31
0.0
  0
LINE
  5
22A
330
1B
100
AcDbEntity
  8
0
  6
Continuous
 62
     8
370
    25
100
AcDbLine
 10
61.5206232339
 20
32.25
 30
0.0
 11
61.5206232339
 21
-32.25
 31
0.0
  0
LINE
  5
22B
330
1B
100
AcDbEntity
  8
0
  6
Continuous
 62
     8
370
    25
100
AcDbLine
 10
59.9011235484
 20
-31.4235504968
 30
0.0
 11
59.9011235484
 21
31.4235504968
 31
0.0
  0
LINE
  5
22C
330
1B
100
AcDbEntity
  8
0
  6
Continuous
 62
     8
370
    25
100
AcDbLine
 10
48.3805003144
 20
15.5250904327
 30
0.0
 11
48.3805003144
 21
-15.5250904339
 31
0.0
  0
ARC
  5
22D
330
1B
100
AcDbEntity
  8
0
  6
Continuous
 62
     7
370
    25
100
AcDbCircle
 10
-3.6
 20
19.0
 30
0.0
 40
1.0
100
AcDbArc
 50
90.0
 51
180.0
  0
ARC
  5
22E
330
1B
100
AcDbEntity
  8
0
  6
Continuous
 62
     7
370
    25
100
AcDbCircle
 10
3.6
 20
19.0
 30
0.0
 40
1.0
100
AcDbArc
 50
0.0
 51
90.0
  0
ARC
  5
22F
330
1B
100
AcDbEntity
  8
0
  6
Continuous
 62
     7
370
    25
100
AcDbCircle
 10
61.5206232339
 20
-30.25
 30
0.0
 40
1.999999999999979
100
AcDbArc
 50
215.9285024228
 51
270.0
  0
ARC
  5
230
330
1B
100
AcDbEntity
  8
0
  6
Continuous
 62
     7
370
    25
100
AcDbCircle
 10
61.5206232339
 20
30.25
 30
0.0
 40
1.999999999999989
100
AcDbArc
 50
90.0
 51
144.0714975772
  0
ARC
  5
231
330
1B
100
AcDbEntity
  8
0
  6
Continuous
 62
     7
370
    25
100
AcDbCircle
 10
50.0
 20
14.3515399372
 30
0.0
 40
1.999999999999963
100
AcDbArc
 50
144.0714975772
 51
176.0568871085
  0
ARC
  5
232
330
1B
100
AcDbEntity
  8
0
  6
Continuous
 62
     7
370
    25
100
AcDbCircle
 10
50.0
 20
-14.3515399372
 30
0.0
 40
1.999999999999873
100
AcDbArc
 50
184.0107780806
 51
215.9285024228
  0
ARC
  5
233
330
1B
100
AcDbEntity
  8
0
  6
Continuous
 62
     7
370
    25
100
AcDbCircle
 10
-15.1986841536
 20
5.0
 30
0.0
 40
0.999999999999929
100
AcDbArc
 50
270.0
 51
341.7900431357
  0
ARC
  5
234
330
1B
100
AcDbEntity
  8
0
  6
Continuous
 62
     7
370
    25
100
AcDbCircle
 10
0.0
 20
0.0
 30
0.0
 40
14.99999999999998
100
AcDbArc
 50
198.2099568643
 51
161.7900431357
  0
ARC
  5
235
330
1B
100
AcDbEntity
  8
0
  6
Continuous
 62
     7
370
    25
100
AcDbCircle
 10
-15.1986841536
 20
-5.0
 30
0.0
 40
1.000000000000099
100
AcDbArc
 50
18.2099568643
 51
90.0
  0
ARC
  5
236
330
1B
100
AcDbEntity
  8
0
  6
Continuous
 62
     7
370
    25
100
AcDbCircle
 10
-16.6358047596
 20
-3.5
 30
0.0
 40
0.5000000000000876
100
AcDbArc
 50
191.881156021
 51
270.0
  0
ARC
  5
237
330
1B
100
AcDbEntity
  8
0
  6
Continuous
 62
     7
370
    25
100
AcDbCircle
 10
0.0
 20
0.0
 30
0.0
 40
17.49999999999973
100
AcDbArc
 50
168.118843979
 51
191.881156021
  0
ARC
  5
238
330
1B
100
AcDbEntity
  8
0
  6
Continuous
 62
     7
370
    25
100
AcDbCircle
 10
-16.6358047596
 20
3.5
 30
0.0
 40
0.4999999999998139
100
AcDbArc
 50
90.0
 51
168.118843979
  0
VIEWPORT
  5
375
330
1B
100
AcDbEntity
  8
0
100
AcDbViewport
 10
0.0
 20
0.0
 30
0.0
 40
205.6
 41
156.0
 68
     1
 69
     1
 12
0.0
 22
0.0
 13
0.0
 23
0.0
 14
10.0
 24
10.0
 15
10.0
 25
10.0
 16
0.0
 26
0.0
 36
1.0
 17
0.0
 27
0.0
 37
0.0
 42
50.0
 43
0.0
 44
0.0
 45
201.9957198444
 50
0.0
 51
0.0
 72
   100
 90
   557152
  1

281
     0
 71
     1
 74
     0
110
0.0
120
0.0
130
0.0
111
1.0
121
0.0
131
0.0
112
0.0
122
1.0
132
0.0
 79
     0
146
0.0
  0
ENDBLK
  5
1D
330
1B
100
AcDbEntity
  8
0
100
AcDbBlockEnd
  0
ENDSEC
  0
SECTION
  2
ENTITIES
  0
SPLINE
  5
7C
330
1F
100
AcDbEntity
  8
0
  6
Continuous
 62
     7
370
    25
100
AcDbSpline
210
0.0
220
0.0
230
1.0
 70
     8
 71
     3
 72
     9
 73
     5
 74
     0
 42
0.000000001
 43
0.00000001
 40
0.0
 40
0.0
 40
0.0
 40
0.0
 40
0.513280024533359
 40
1.0
 40
1.0
 40
1.0
 40
1.0
 10
-11.99747189893597
 20
21.91153051748502
 30
0.0
 10
-11.84391884160524
 20
21.82279958724737
 30
0.0
 10
-11.54475844184035
 20
21.64992917344484
 30
0.0
 10
-11.2456042976978
 20
21.47704735612469
 30
0.0
 10
-11.1
 20
21.39290232224
 30
0.0
  0
SPLINE
  5
7D
330
1F
100
AcDbEntity
  8
0
  6
Continuous
 62
     7
370
    25
100
AcDbSpline
210
0.0
220
0.0
230
1.0
 70
     8
 71
     3
 72
     9
 73
     5
 74
     0
 42
0.000000001
 43
0.00000001
 40
0.0
 40
0.0
 40
0.0
 40
0.0
 40
0.5168488594389498
 40
1.0
 40
1.0
 40
1.0
 40
1.0
 10
-11.99124888138907
 20
23.70804969757862
 30
0.0
 10
-11.83769619720364
 20
23.61931568817478
 30
0.0
 10
-11.54060221821698
 20
23.44763298484028
 30
0.0
 10
-11.24353052662235
 20
23.27593845986099
 30
0.0
 10
-11.1
 20
23.19298405428916
 30
0.0
  0
SPLINE
  5
7E
330
1F
100
AcDbEntity
  8
0
  6
Continuous
 62
     7
370
    25
100
AcDbSpline
210
0.0
220
0.0
230
1.0
 70
     8
 71
     3
 72
     9
 73
     5
 74
     0
 42
0.000000001
 43
0.00000001
 40
0.0
 40
0.0
 40
0.0
 40
0.0
 40
0.5185556623159868
 40
1.0
 40
1.0
 40
1.0
 40
1.0
 10
-11.98843499763935
 20
25.50673368586255
 30
0.0
 10
-11.8348604926437
 20
25.417986407021
 30
0.0
 10
-11.53870230528585
 20
25.24684320043604
 30
0.0
 10
-11.24257082459068
 20
25.07568598913536
 30
0.0
 10
-11.1
 20
24.99328331890085
 30
0.0
  0
SPLINE
  5
80
330
1F
100
AcDbEntity
  8
0
  6
Continuous
 62
     7
370
    25
100
AcDbSpline
210
0.0
220
0.0
230
1.0
 70
     8
 71
     3
 72
     9
 73
     5
 74
     0
 42
0.000000001
 43
0.00000001
 40
0.0
 40
0.0
 40
0.0
 40
0.0
 40
0.4999853787896745
 40
1.0
 40
1.0
 40
1.0
 40
1.0
 10
11.06740115540952
 20
25.87440092685919
 30
0.0
 10
11.22096737703427
 20
25.9631565359646
 30
0.0
 10
11.52810880184251
 20
26.14067294518495
 30
0.0
 10
11.83527576289214
 20
26.31817378205982
 30
0.0
 10
11.98886373456969
 20
26.40692679577432
 30
0.0
  0
SPLINE
  5
81
330
1F
100
AcDbEntity
  8
0
  6
Continuous
 62
     7
370
    25
100
AcDbSpline
210
0.0
220
0.0
230
1.0
 70
     8
 71
     3
 72
     9
 73
     5
 74
     0
 42
0.000000001
 43
0.00000001
 40
0.0
 40
0.0
 40
0.0
 40
0.0
 40
0.4999874359523252
 40
1.0
 40
1.0
 40
1.0
 40
1.0
 10
11.06786874482389
 20
24.07461756205554
 30
0.0
 10
11.22140952083136
 20
24.16336066263767
 30
0.0
 10
11.52849878941473
 20
24.34085132380418
 30
0.0
 10
11.8356150319621
 20
24.51832860546823
 30
0.0
 10
11.98917701185891
 20
24.60706947613327
 30
0.0
  0
SPLINE
  5
82
330
1F
100
AcDbEntity
  8
0
  6
Continuous
 62
     7
370
    25
100
AcDbSpline
210
0.0
220
0.0
230
1.0
 70
     8
 71
     3
 72
     9
 73
     5
 74
     0
 42
0.000000001
 43
0.00000001
 40
0.0
 40
0.0
 40
0.0
 40
0.0
 40
0.499989577730756
 40
1.0
 40
1.0
 40
1.0
 40
1.0
 10
11.07312472272341
 20
22.27729456638184
 30
0.0
 10
11.2266554883071
 20
22.36602353918309
 30
0.0
 10
11.53372342016382
 20
22.54348518389169
 30
0.0
 10
11.84080769720952
 20
22.72093573162902
 30
0.0
 10
11.99435303624738
 20
22.80966285493507
 30
0.0
  0
SPLINE
  5
83
330
1F
100
AcDbEntity
  8
0
  6
Continuous
 62
     7
370
    25
100
AcDbSpline
210
0.0
220
0.0
230
1.0
 70
     8
 71
     3
 72
     9
 73
     5
 74
     0
 42
0.000000001
 43
0.00000001
 40
0.0
 40
0.0
 40
0.0
 40
0.0
 40
0.4999879304072703
 40
1.0
 40
1.0
 40
1.0
 40
1.0
 10
11.07797069736668
 20
20.4803707126809
 30
0.0
 10
11.23152350761049
 20
20.56911073732192
 30
0.0
 10
11.53863654155661
 20
20.74659507093122
 30
0.0
 10
11.8457474791953
 20
20.92406655202415
 30
0.0
 10
11.99930665471859
 20
21.01280443457912
 30
0.0
  0
SPLINE
  5
8D
330
1F
100
AcDbEntity
  8
0
  6
Continuous
 62
     7
370
    25
100
AcDbSpline
210
0.0
220
0.0
230
1.0
 70
     8
 71
     3
 72
    15
 73
    11
 74
     0
 42
0.000000001
 43
0.00000001
 40
0.0
 40
0.0
 40
0.0
 40
0.0
 40
0.3192820672334106
 40
0.4287765872026266
 40
0.4741115163907298
 40
0.5155555512880307
 40
0.5558074142541114
 40
0.5978827033924872
 40
0.6974095268215151
 40
0.9999999999999999
 40
0.9999999999999999
 40
0.9999999999999999
 40
0.9999999999999999
 10
-11.06742091489083
 20
20.92564467857211
 30
0.0
 10
-11.13070940079546
 20
20.88885253887231
 30
0.0
 10
-11.21570202575102
 20
20.83944291110006
 30
0.0
 10
-11.36880456449645
 20
20.74640004585869
 30
0.0
 10
-11.44937254497634
 20
20.6984184784576
 30
0.0
 10
-11.50804918862721
 20
20.6639505955266
 30
0.0
 10
-11.5684343345669
 20
20.62903455390627
 30
0.0
 10
-11.65468632044111
 20
20.5799148106801
 30
0.0
 10
-11.83534305332073
 20
20.47950980761247
 30
0.0
 10
-11.92712612508463
 20
20.42802211016091
 30
0.0
 10
-11.99619224919597
 20
20.38927797538687
 30
0.0
  0
SPLINE
  5
8E
330
1F
100
AcDbEntity
  8
0
  6
Continuous
 62
     7
370
    25
100
AcDbSpline
210
0.0
220
0.0
230
1.0
 70
     8
 71
     3
 72
    11
 73
     7
 74
     0
 42
0.000000001
 43
0.00000001
 40
0.0
 40
0.0
 40
0.0
 40
0.0
 40
0.2682153548150435
 40
0.5135216120501803
 40
0.7511817116591912
 40
1.0
 40
1.0
 40
1.0
 40
1.0
 10
-11.06587075161059
 20
22.7263526530589
 30
0.0
 10
-11.14092533273934
 20
22.6832308741244
 30
0.0
 10
-11.28462385260806
 20
22.60067047989126
 30
0.0
 10
-11.52288767881794
 20
22.46255913772838
 30
0.0
 10
-11.76667535373826
 20
22.32171782918792
 30
0.0
 10
-11.9182556512104
 20
22.23425469631614
 30
0.0
 10
-11.99578417271812
 20
22.18952007386807
 30
0.0
  0
SPLINE
  5
8F
330
1F
100
AcDbEntity
  8
0
  6
Continuous
 62
     7
370
    25
100
AcDbSpline
210
0.0
220
0.0
230
1.0
 70
     8
 71
     3
 72
     9
 73
     5
 74
     0
 42
0.000000001
 43
0.00000001
 40
0.0
 40
0.0
 40
0.0
 40
0.0
 40
0.4999793602602367
 40
1.0
 40
1.0
 40
1.0
 40
1.0
 10
-11.07214342789167
 20
24.52326103947609
 30
0.0
 10
-11.2258920208985
 20
24.43440848545071
 30
0.0
 10
-11.53340190075996
 20
24.25669604152275
 30
0.0
 10
-11.84090985044746
 20
24.07900560386377
 30
0.0
 10
-11.99467017217527
 20
23.99015671754988
 30
0.0
  0
SPLINE
  5
90
330
1F
100
AcDbEntity
  8
0
  6
Continuous
 62
     7
370
    25
100
AcDbSpline
210
0.0
220
0.0
230
1.0
 70
     8
 71
     3
 72
     9
 73
     5
 74
     0
 42
0.000000001
 43
0.00000001
 40
0.0
 40
0.0
 40
0.0
 40
0.0
 40
0.4999770715119867
 40
1.0
 40
1.0
 40
1.0
 40
1.0
 10
-11.07216424838676
 20
26.32324959806646
 30
0.0
 10
-11.22593288465078
 20
26.23438598802452
 30
0.0
 10
-11.5334842605549
 20
26.05665061753403
 30
0.0
 10
-11.84102822823477
 20
25.87893969658166
 30
0.0
 10
-11.99480726359288
 20
25.79008016146276
 30
0.0
  0
SPLINE
  5
91
330
1F
100
AcDbEntity
  8
0
  6
Continuous
 62
     7
370
    25
100
AcDbSpline
210
0.0
220
0.0
230
1.0
 70
     8
 71
     3
 72
     9
 73
     5
 74
     0
 42
0.000000001
 43
0.00000001
 40
0.0
 40
0.0
 40
0.0
 40
0.0
 40
0.5157204714160943
 40
1.0
 40
1.0
 40
1.0
 40
1.0
 10
11.99459234674469
 20
24.89019996624848
 30
0.0
 10
11.84080775403313
 20
24.97906202223519
 30
0.0
 10
11.54261405951236
 20
25.15136865133353
 30
0.0
 10
11.2444127766754
 20
25.32369958082368
 30
0.0
 10
11.1
 20
25.4071559221176
 30
0.0
  0
SPLINE
  5
92
330
1F
100
AcDbEntity
  8
0
  6
Continuous
 62
     7
370
    25
100
AcDbSpline
210
0.0
220
0.0
230
1.0
 70
     8
 71
     3
 72
     9
 73
     5
 74
     0
 42
0.000000001
 43
0.00000001
 40
0.0
 40
0.0
 40
0.0
 40
0.0
 40
0.5191535285050979
 40
1.0
 40
1.0
 40
1.0
 40
1.0
 10
11.99509205516829
 20
23.08991957098258
 30
0.0
 10
11.84039879757932
 20
23.17927721382469
 30
0.0
 10
11.5424267159209
 20
23.35139901967933
 30
0.0
 10
11.24366062204334
 20
23.52379768974213
 30
0.0
 10
11.1
 20
23.60669498193224
 30
0.0
  0
SPLINE
  5
93
330
1F
100
AcDbEntity
  8
0
  6
Continuous
 62
     7
370
    25
100
AcDbSpline
210
0.0
220
0.0
230
1.0
 70
     8
 71
     3
 72
    14
 73
    10
 74
     0
 42
0.000000001
 43
0.00000001
 40
0.0
 40
0.0
 40
0.0
 40
0.0
 40
0.1565872800038994
 40
0.2871322111929774
 40
0.3990652349543065
 40
0.5030114701053663
 40
0.6112042812986125
 40
0.7340023287038908
 40
1.0
 40
1.0
 40
1.0
 40
1.0
 10
11.99613744704946
 20
21.28931078547479
 30
0.0
 10
11.95756700788078
 20
21.31143956939937
 30
0.0
 10
11.88684085767937
 20
21.35201685421535
 30
0.0
 10
11.76367601226469
 20
21.42197735272348
 30
0.0
 10
11.63988784806445
 20
21.49269513943703
 30
0.0
 10
11.51584239329665
 20
21.56434538469261
 30
0.0
 10
11.39666814327621
 20
21.63395197739652
 30
0.0
 10
11.2443561085261
 20
21.72362070378019
 30
0.0
 10
11.15864199195025
 20
21.77291385652416
 30
0.0
 10
11.1
 20
21.80663815751321
 30
0.0
  0
SPLINE
  5
94
330
1F
100
AcDbEntity
  8
0
  6
Continuous
 62
     7
370
    25
100
AcDbSpline
210
0.0
220
0.0
230
1.0
 70
     8
 71
     3
 72
    15
 73
    11
 74
     0
 42
0.000000001
 43
0.00000001
 40
0.0
 40
0.0
 40
0.0
 40
0.0
 40
0.3269375940372753
 40
0.4239756250178328
 40
0.4608834068295882
 40
0.4941981783716174
 40
0.528449496634484
 40
0.5677273132264236
 40
0.6707350147831888
 40
1.0
 40
1.0
 40
1.0
 40
1.0
 10
11.99603053342679
 20
19.48937452543938
 30
0.0
 10
11.92863602526495
 20
19.52634111589505
 30
0.0
 10
11.84123821833844
 20
19.57427972429941
 30
0.0
 10
11.64956674043096
 20
19.6764527826766
 30
0.0
 10
11.55785126910373
 20
19.72758327727911
 30
0.0
 10
11.49528093126306
 20
19.76352668761636
 30
0.0
 10
11.43579967122063
 20
19.79880728695722
 30
0.0
 10
11.35491471240115
 20
19.84820572037126
 30
0.0
 10
11.20600159917122
 20
19.94326356460222
 30
0.0
 10
11.1284316236199
 20
19.98950017108927
 30
0.0
 10
11.06934605648909
 20
20.02471890226811
 30
0.0
  0
SPLINE
  5
BA
330
1F
100
AcDbEntity
  8
0
  6
Continuous
 62
     7
370
    25
100
AcDbSpline
210
0.0
220
0.0
230
1.0
 70
     8
 71
     3
 72
    14
 73
    10
 74
     0
 42
0.000000001
 43
0.00000001
 40
0.0
 40
0.0
 40
0.0
 40
0.0
 40
0.1244062157898084
 40
0.2512158196970084
 40
0.5001509523084572
 40
0.7494127579739115
 40
0.8756650445489351
 40
0.999579427535346
 40
1.0
 40
1.0
 40
1.0
 40
1.0
 10
115.5
 20
14.22805327513217
 30
0.0
 10
115.1893180193146
 20
14.2341453662938
 30
0.0
 10
114.5619520316309
 20
14.24644724096397
 30
0.0
 10
113.3697549468682
 20
14.37010129800954
 30
0.0
 10
112.0531790165067
 20
14.6182876639107
 30
0.0
 10
111.1749118095286
 20
14.87144398620258
 30
0.0
 10
110.8274653415225
 20
14.97574949504035
 30
0.0
 10
110.7195382113296
 20
15.0093839668092
 30
0.0
 10
110.7502075507717
 20
14.99993605580281
 30
0.0
 10
110.7503112921503
 20
14.99990409752363
 30
0.0
  0
SPLINE
  5
BB
330
1F
100
AcDbEntity
  8
0
  6
Continuous
 62
     7
370
    25
100
AcDbSpline
210
0.0
220
0.0
230
1.0
 70
     8
 71
     3
 72
    13
 73
     9
 74
     0
 42
0.000000001
 43
0.00000001
 40
0.0
 40
0.0
 40
0.0
 40
0.0
 40
0.1239933207578043
 40
0.2504210221170578
 40
0.4997934309013543
 40
0.7487997485009121
 40
0.8756152466862586
 40
1.0
 40
1.0
 40
1.0
 40
1.0
 10
120.249917785365
 20
14.99997466792127
 30
0.0
 10
120.231943293322
 20
14.99431164697734
 30
0.0
 10
120.1956414131729
 20
14.98287442209797
 30
0.0
 10
119.8133568689607
 20
14.86763275118295
 30
0.0
 10
118.9515594899429
 20
14.61977292028222
 30
0.0
 10
117.6297763788724
 20
14.36991886711902
 30
0.0
 10
116.4380926947319
 20
14.24640106382601
 30
0.0
 10
115.8106738206383
 20
14.23412962307283
 30
0.0
 10
115.5
 20
14.22805327513218
 30
0.0
  0
SPLINE
  5
C2
330
1F
100
AcDbEntity
  8
0
  6
Continuous
 62
     7
370
    25
100
AcDbSpline
210
0.0
220
0.0
230
1.0
 70
    24
 71
     3
 72
    11
 73
     7
 74
     0
 42
0.000000001
 43
0.00000001
 40
0.0
 40
0.0
 40
0.0
 40
0.0
 40
0.3142490113676887
 40
0.6330070732161696
 40
0.951075945804418
 40
1.0
 40
1.0
 40
1.0
 40
1.0
 10
-8.48389231553263
 20
26.99999999999997
 30
0.0
 10
-9.03227069840536
 20
26.99999999999997
 30
0.0
 10
-10.13689595608397
 20
26.99999999999997
 30
0.0
 10
-11.05966444235483
 20
26.99999999999998
 30
0.0
 10
-11.5090438511765
 20
26.99999999999997
 30
0.0
 10
-11.42748165801056
 20
26.99999999999997
 30
0.0
 10
-11.41660855156207
 20
26.99999999999997
 30
0.0
  0
SPLINE
  5
C3
330
1F
100
AcDbEntity
  8
0
  6
Continuous
 62
     7
370
    25
100
AcDbSpline
210
0.0
220
0.0
230
1.0
 70
     8
 71
     3
 72
    11
 73
     7
 74
     0
 42
0.000000001
 43
0.00000001
 40
0.0
 40
0.0
 40
0.0
 40
0.0
 40
0.2739558975308755
 40
0.5479118117344346
 40
0.821867742612194
 40
1.0
 40
1.0
 40
1.0
 40
1.0
 10
-8.483892315532579
 20
26.99999999999997
 30
0.0
 10
-8.912658857131625
 20
26.9816736264393
 30
0.0
 10
-9.77019196642403
 20
26.94502087820264
 30
0.0
 10
-10.59864001823905
 20
26.89003520999135
 30
0.0
 10
-11.05995784864925
 20
26.84145701433395
 30
0.0
 10
-11.05533353018944
 20
26.81120507510398
 30
0.0
 10
-11.05351145142802
 20
26.79928517459503
 30
0.0
  0
SPLINE
  5
C4
330
1F
100
AcDbEntity
  8
0
  6
Continuous
 62
     7
370
    25
100
AcDbSpline
210
0.0
220
0.0
230
1.0
 70
     8
 71
     3
 72
    24
 73
    20
 74
     0
 42
0.000000001
 43
0.00000001
 40
0.0
 40
0.0
 40
0.0
 40
0.0
 40
0.0431974037818294
 40
0.1054036542385
 40
0.1676099031944779
 40
0.2298161506498172
 40
0.2920223966045721
 40
0.3542286410587963
 40
0.4164348840125443
 40
0.4786411254658705
 40
0.5408473654188296
 40
0.6030536038714746
 40
0.6652598408238608
 40
0.7274660762760407
 40
0.7896723102280702
 40
0.8518785426800027
 40
0.9140847736318928
 40
0.9762910030837937
 40
1.0
 40
1.0
 40
1.0
 40
1.0
 10
11.03946024800437
 20
25.8829988911199
 30
0.0
 10
11.01006327390203
 20
25.87026684439415
 30
0.0
 10
10.9383333035179
 20
25.83920006414026
 30
0.0
 10
10.35763407341698
 20
25.78980084129792
 30
0.0
 10
9.386644557912646
 20
25.73480090297286
 30
0.0
 10
8.055861508647409
 20
25.67980302484752
 30
0.0
 10
6.433197966892706
 20
25.62480711362066
 30
0.0
 10
4.573156769344637
 20
25.56981319429122
 30
0.0
 10
2.545426960501928
 20
25.51482126016476
 30
0.0
 10
0.4241203085372435
 20
25.45983131302011
 30
0.0
 10
-1.712734434028277
 20
25.40484335243637
 30
0.0
 10
-3.786719848846024
 20
25.34985737831839
 30
0.0
 10
-5.721477830549412
 20
25.29487339146748
 30
0.0
 10
-7.446581684803471
 20
25.23989138877369
 30
0.0
 10
-8.896285931830768
 20
25.18491138187553
 30
0.0
 10
-10.02622210564654
 20
25.12993332732885
 30
0.0
 10
-10.76174200423424
 20
25.07495738727178
 30
0.0
 10
-11.10921520248034
 20
25.03132353227689
 30
0.0
 10
-11.06422604142608
 20
25.00601568535703
 30
0.0
 10
-11.05181092101275
 20
24.99903178168892
 30
0.0
  0
SPLINE
  5
C5
330
1F
100
AcDbEntity
  8
0
  6
Continuous
 62
     7
370
    25
100
AcDbSpline
210
0.0
220
0.0
230
1.0
 70
     8
 71
     3
 72
    24
 73
    20
 74
     0
 42
0.000000001
 43
0.00000001
 40
0.0
 40
0.0
 40
0.0
 40
0.0
 40
0.0600649303588645
 40
0.1222765203943339
 40
0.184488112035295
 40
0.2466997052818098
 40
0.3089113001339405
 40
0.3711228965917497
 40
0.4333344946552988
 40
0.4955460943246493
 40
0.5577576955998644
 40
0.6199692984810057
 40
0.6821809029681356
 40
0.7443925090613157
 40
0.8066041167606082
 40
0.8688157260660749
 40
0.9310273369777782
 40
0.9932389494957798
 40
1.0
 40
1.0
 40
1.0
 40
1.0
 10
11.07622551072727
 20
24.08357027767191
 30
0.0
 10
11.00427610531637
 20
24.06587335111303
 30
0.0
 10
10.85780589573611
 20
24.02984702779315
 30
0.0
 10
10.13358794948225
 20
23.97548864029677
 30
0.0
 10
9.060343139127331
 20
23.92049579165814
 30
0.0
 10
7.645614266440339
 20
23.86550077192926
 30
0.0
 10
5.95219697774251
 20
23.81050363756893
 30
0.0
 10
4.03942778500419
 20
23.7555043734509
 30
0.0
 10
1.978377014669878
 20
23.70050298362142
 30
0.0
 10
-0.1554260112761772
 20
23.64549946702172
 30
0.0
 10
-2.283490062651966
 20
23.59049382384062
 30
0.0
 10
-4.32769776747704
 20
23.5354860543816
 30
0.0
 10
-6.212649913963214
 20
23.48047615724201
 30
0.0
 10
-7.87009093241074
 20
23.42546413772886
 30
0.0
 10
-9.235325294639656
 20
23.37044997601677
 30
0.0
 10
-10.27230824537421
 20
23.31543374610027
 30
0.0
 10
-10.89020954266056
 20
23.26041517182661
 30
0.0
 10
-11.15229871540067
 20
23.22174209151819
 30
0.0
 10
-11.08665958240079
 20
23.20140791660356
 30
0.0
 10
-11.08022530142889
 20
23.19941465757114
 30
0.0
  0
SPLINE
  5
C6
330
1F
100
AcDbEntity
  8
0
  6
Continuous
 62
     7
370
    25
100
AcDbSpline
210
0.0
220
0.0
230
1.0
 70
     8
 71
     3
 72
    24
 73
    20
 74
     0
 42
0.000000001
 43
0.00000001
 40
0.0
 40
0.0
 40
0.0
 40
0.0
 40
0.0588379421932385
 40
0.123639548918566
 40
0.1880527440057562
 40
0.2520775040239853
 40
0.3157138056837321
 40
0.3789616258367778
 40
0.4418209414762234
 40
0.5042917297364804
 40
0.5663739678933019
 40
0.6280676333637777
 40
0.6893727037063332
 40
0.7502891566207696
 40
0.8108169699482307
 40
0.8709561216712483
 40
0.9307065899137194
 40
0.9900683529409409
 40
1.0
 40
1.0
 40
1.0
 40
1.0
 10
11.06868674614397
 20
22.28587332451775
 30
0.0
 10
11.01047255186192
 20
22.26846998693631
 30
0.0
 10
10.88814372027138
 20
22.2318993536334
 30
0.0
 10
10.1593989915634
 20
22.17628075750764
 30
0.0
 10
9.046689830993518
 20
22.11913140242982
 30
0.0
 10
7.574775210368974
 20
22.06233038536499
 30
0.0
 10
5.8207786757488
 20
22.00587759745436
 30
0.0
 10
3.853750965667255
 20
21.94977306759708
 30
0.0
 10
1.753256190536031
 20
21.89401678812964
 30
0.0
 10
-0.3996876129881317
 20
21.83860876104118
 30
0.0
 10
-2.524241498142197
 20
21.78354898596088
 30
0.0
 10
-4.543262836324039
 20
21.72883746239474
 30
0.0
 10
-6.385526567532619
 20
21.67447419265279
 30
0.0
 10
-7.989497136006118
 20
21.62045916805539
 30
0.0
 10
-9.29999133979124
 20
21.56679242071195
 30
0.0
 10
-10.28887059684061
 20
21.51347383191875
 30
0.0
 10
-10.88465089666422
 20
21.46050384040055
 30
0.0
 10
-11.13951054537867
 20
21.42237223002233
 30
0.0
 10
-11.08233522220007
 20
21.40189840633216
 30
0.0
 10
-11.07414042951212
 20
21.39896394560079
 30
0.0
  0
SPLINE
  5
C7
330
1F
100
AcDbEntity
  8
0
  6
Continuous
 62
     7
370
    25
100
AcDbSpline
210
0.0
220
0.0
230
1.0
 70
     8
 71
     3
 72
    16
 73
    12
 74
     0
 42
0.000000001
 43
0.00000001
 40
0.0
 40
0.0
 40
0.0
 40
0.0
 40
0.0890322984294886
 40
0.1959236155695964
 40
0.3048098788873894
 40
0.4156907160406682
 40
0.5285657478667243
 40
0.6434345883836305
 40
0.7602968447915714
 40
0.8791521174742017
 40
1.0
 40
1.0
 40
1.0
 40
1.0
 10
11.06656593000172
 20
20.48941386243914
 30
0.0
 10
11.02703148907558
 20
20.47370016831778
 30
0.0
 10
10.94003238041048
 20
20.43912076488197
 30
0.0
 10
10.29191253801886
 20
20.38531390285737
 30
0.0
 10
9.22946581666293
 20
20.32764307824332
 30
0.0
 10
7.752049189019766
 20
20.26890759283096
 30
0.0
 10
5.917735691426244
 20
20.20910772502417
 30
0.0
 10
3.785064359297456
 20
20.14824344393838
 30
0.0
 10
1.443482021281189
 20
20.08631458237777
 30
0.0
 10
-1.019659276517674
 20
20.02332185859137
 30
0.0
 10
-2.612739278192148
 20
19.98096765517908
 30
0.0
 10
-3.415900774873965
 20
19.95961451197997
 30
0.0
  0
SPLINE
  5
C9
330
1F
100
AcDbEntity
  8
0
  6
Continuous
 62
     7
370
    25
100
AcDbSpline
210
0.0
220
0.0
230
1.0
 70
     8
 71
     3
 72
    32
 73
    28
 74
     0
 42
0.000000001
 43
0.00000001
 40
0.0
 40
0.0
 40
0.0
 40
0.0
 40
0.0172176299018383
 40
0.0747932311690305
 40
0.1323688369242442
 40
0.1899444471680903
 40
0.247520061901184
 40
0.3050956811241317
 40
0.3626713048375494
 40
0.420246933042046
 40
0.4778225657382388
 40
0.4991799169588056
 40
0.512942607422832
 40
0.527347610349574
 40
0.5423949115965531
 40
0.5580844963906898
 40
0.5744163493283124
 40
0.5913904543751743
 40
0.6557598117770925
 40
0.7279555420994714
 40
0.7670559969851127
 40
0.8081202343172501
 40
0.8511478759757449
 40
0.8961385257614053
 40
0.9430917693996406
 40
0.9920071745442828
 40
1.0
 40
1.0
 40
1.0
 40
1.0
 10
11.94357487433863
 20
26.40406953098649
 30
0.0
 10
11.94378918154696
 20
26.39898891663261
 30
0.0
 10
11.94472013015402
 20
26.37691877306365
 30
0.0
 10
11.56345780821767
 20
26.33785207696197
 30
0.0
 10
10.80517974611527
 20
26.28686927805322
 30
0.0
 10
9.67801718875479
 20
26.23587906372418
 30
0.0
 10
8.252911029486555
 20
26.18488183949293
 30
0.0
 10
6.56539230595881
 20
26.13387835037514
 30
0.0
 10
4.671109901483423
 20
26.08286521078952
 30
0.0
 10
2.62970253722868
 20
26.03185521804705
 30
0.0
 10
0.94953509644728
 20
25.99150597637218
 30
0.0
 10
-0.1950424790279727
 20
25.96415617859323
 30
0.0
 10
-0.8058272215702227
 20
25.94954432151549
 30
0.0
 10
-1.337243111169597
 20
25.93679563218092
 30
0.0
 10
-1.889559206331706
 20
25.9234794660707
 30
0.0
 10
-2.461125827827134
 20
25.90959621264299
 30
0.0
 10
-3.050023810390857
 20
25.89514467866658
 30
0.0
 10
-4.208060218401307
 20
25.86634367177384
 30
0.0
 10
-5.960008400570407
 20
25.82097629255279
 30
0.0
 10
-7.741183621011242
 20
25.76905092082075
 30
0.0
 10
-9.06569690915762
 20
25.72413089363425
 30
0.0
 10
-9.995956883254957
 20
25.68779290997351
 30
0.0
 10
-10.79706712766955
 20
25.64972231913732
 30
0.0
 10
-11.43781340977321
 20
25.60991287891301
 30
0.0
 10
-11.84662287327501
 20
25.56836621531253
 30
0.0
 10
-12.03130627855174
 20
25.53773154579044
 30
0.0
 10
-11.98667434092267
 20
25.52094524734106
 30
0.0
 10
-11.98040573472184
 20
25.51858759270766
 30
0.0
  0
SPLINE
  5
CA
330
1F
100
AcDbEntity
  8
0
  6
Continuous
 62
     7
370
    25
100
AcDbSpline
210
0.0
220
0.0
230
1.0
 70
     8
 71
     3
 72
    28
 73
    24
 74
     0
 42
0.000000001
 43
0.00000001
 40
0.0
 40
0.0
 40
0.0
 40
0.0
 40
0.0078399585385638
 40
0.0487691640252458
 40
0.090189230524675
 40
0.1321001341995263
 40
0.1745018509300072
 40
0.2173943563138472
 40
0.2607776256663414
 40
0.3046516340203395
 40
0.3490163561262715
 40
0.3938717664521705
 40
0.4392178391836636
 40
0.4850545482240159
 40
0.5277094633556516
 40
0.5694197097116235
 40
0.6107503381346866
 40
0.651701334397469
 40
0.692272684403273
 40
0.7721239781738203
 40
0.8504650425068683
 40
0.9272954459221721
 40
1.0
 40
1.0
 40
1.0
 40
1.0
 10
11.95116626349065
 20
24.60376024700057
 30
0.0
 10
11.95718771821014
 20
24.60144446952066
 30
0.0
 10
11.9946447164125
 20
24.58703896836806
 30
0.0
 10
11.76212974641602
 20
24.56048481731094
 30
0.0
 10
11.38551472018577
 20
24.52384554492601
 30
0.0
 10
10.77835158310226
 20
24.48678633400598
 30
0.0
 10
9.99060713200998
 20
24.4492888165312
 30
0.0
 10
9.016941309125624
 20
24.41135800059815
 30
0.0
 10
7.872124981029408
 20
24.37299252419299
 30
0.0
 10
6.570583706360031
 20
24.33419274559626
 30
0.0
 10
5.131975548837381
 20
24.29495861648113
 30
0.0
 10
3.579531433449787
 20
24.25528996288731
 30
0.0
 10
1.940294517605513
 20
24.21518754213212
 30
0.0
 10
0.289757799026173
 20
24.17573110942686
 30
0.0
 10
-1.320215599611351
 20
24.13735396188953
 30
0.0
 10
-2.852080917240079
 20
24.10030415338089
 30
0.0
 10
-4.316412995900053
 20
24.06375854953131
 30
0.0
 10
-5.698227144963697
 20
24.02754290900934
 30
0.0
 10
-7.392997007210258
 20
23.98000072321415
 30
0.0
 10
-9.223815922325253
 20
23.92124809156394
 30
0.0
 10
-10.82574431315149
 20
23.85186676578375
 30
0.0
 10
-11.82333074642597
 20
23.78457871417651
 30
0.0
 10
-11.93489303569116
 20
23.7404311910985
 30
0.0
 10
-11.98913511144993
 20
23.71896647119062
 30
0.0
  0
SPLINE
  5
CC
330
1F
100
AcDbEntity
  8
0
  6
Continuous
 62
     7
370
    25
100
AcDbSpline
210
0.0
220
0.0
230
1.0
 70
     8
 71
     3
 72
    30
 73
    26
 74
     0
 42
0.000000001
 43
0.00000001
 40
0.0
 40
0.0
 40
0.0
 40
0.0
 40
0.0209338702760998
 40
0.0688430464160124
 40
0.1152393483103568
 40
0.1601225204210684
 40
0.2034923155439741
 40
0.2453484948101689
 40
0.285690827687324
 40
0.3245190919809645
 40
0.3975155876012146
 40
0.4644801081068959
 40
0.4803016789149496
 40
0.4976287172040041
 40
0.5235645852006354
 40
0.5495806154928228
 40
0.601810409437767
 40
0.6543600559455764
 40
0.7072295420628852
 40
0.7604188547574843
 40
0.8139279809183295
 40
0.8677569073555368
 40
0.9219056208003911
 40
0.9763741079053487
 40
1.0
 40
1.0
 40
1.0
 40
1.0
 10
11.95451273037867
 20
22.80669386505009
 30
0.0
 10
11.95154088795049
 20
22.8004995376297
 30
0.0
 10
11.94176769820937
 20
22.78012889596175
 30
0.0
 10
11.64393763094031
 20
22.74603049441693
 30
0.0
 10
11.09856443733442
 20
22.70484606816789
 30
0.0
 10
10.33850291327341
 20
22.66500534956149
 30
0.0
 10
9.418520675036854
 20
22.62650779031479
 30
0.0
 10
8.369057876522342
 20
22.58935512432799
 30
0.0
 10
7.224939413664193
 20
22.55354127738416
 30
0.0
 10
5.648640575428326
 20
22.50853354801747
 30
0.0
 10
3.59949922983337
 20
22.45551363321711
 30
0.0
 10
1.691355261015407
 20
22.40932348007374
 30
0.0
 10
0.4541799842769259
 20
22.37971094057128
 30
0.0
 10
-0.277613079616815
 20
22.3622292636131
 30
0.0
 10
-1.135055833073277
 20
22.34172664918774
 30
0.0
 10
-2.414299147632043
 20
22.31090529835686
 30
0.0
 10
-3.98833353494477
 20
22.27215670078022
 30
0.0
 10
-5.77950916322605
 20
22.22547847730323
 30
0.0
 10
-7.427578701886508
 20
22.17851176278194
 30
0.0
 10
-8.885328266067198
 20
22.13126467232349
 30
0.0
 10
-10.10755459796869
 20
22.08373502069165
 30
0.0
 10
-11.06273896661801
 20
22.03592336473044
 30
0.0
 10
-11.69382235353603
 20
21.98782968190886
 30
0.0
 10
-12.00038899153323
 20
21.94867911210061
 30
0.0
 10
-11.96754374124827
 20
21.92556043663593
 30
0.0
 10
-11.95760706786656
 20
21.91856634387922
 30
0.0
  0
SPLINE
  5
CD
330
1F
100
AcDbEntity
  8
0
  6
Continuous
 62
     7
370
    25
100
AcDbSpline
210
0.0
220
0.0
230
1.0
 70
     8
 71
     3
 72
    19
 73
    15
 74
     0
 42
0.000000001
 43
0.00000001
 40
0.0
 40
0.0
 40
0.0
 40
0.0
 40
0.0802306406789656
 40
0.1821134104639955
 40
0.2845309889896608
 40
0.3874833510101691
 40
0.4909704711479075
 40
0.5949923238934343
 40
0.6995488836055013
 40
0.8046401245110522
 40
0.8471749838590397
 40
0.8875381401715257
 40
0.9384814386925465
 40
0.9999999999999999
 40
0.9999999999999999
 40
0.9999999999999999
 40
0.9999999999999999
 10
11.95900109084858
 20
21.00934697803372
 30
0.0
 10
11.92820386038914
 20
20.99516717896057
 30
0.0
 10
11.85829804106187
 20
20.96298082787263
 30
0.0
 10
11.24741994631478
 20
20.91269514986129
 30
0.0
 10
10.23406980375173
 20
20.85839516811448
 30
0.0
 10
8.832343451066956
 20
20.80381287744181
 30
0.0
 10
7.104272311336466
 20
20.74894942644091
 30
0.0
 10
5.103922425901953
 20
20.69380028969846
 30
0.0
 10
2.903630654495214
 20
20.63838254244656
 30
0.0
 10
1.045476579823861
 20
20.59378848991038
 30
0.0
 10
-0.3459854326195571
 20
20.56062585168692
 30
0.0
 10
-1.334112846383926
 20
20.53698851394486
 30
0.0
 10
-2.455055490948548
 20
20.5099872256421
 30
0.0
 10
-3.255182525958275
 20
20.49010666376806
 30
0.0
 10
-3.69286570256651
 20
20.47923165630917
 30
0.0
  0
SPLINE
  5
D2
330
1F
100
AcDbEntity
  8
0
  6
Continuous
 62
     7
370
    25
100
AcDbSpline
210
0.0
220
0.0
230
1.0
 70
     8
 71
     3
 72
    23
 73
    19
 74
     0
 42
0.000000001
 43
0.00000001
 40
0.0
 40
0.0
 40
0.0
 40
0.0
 40
0.1059666412535927
 40
0.1271938053998048
 40
0.1484209681593864
 40
0.1720524632463517
 40
0.2073676007429593
 40
0.2425016749635037
 40
0.329463001398266
 40
0.4152958058890546
 40
0.499999991074894
 40
0.5835754608750064
 40
0.666022120488921
 40
0.7473398763965858
 40
0.8275286363584761
 40
0.9065883094156867
 40
0.9845188058900514
 40
0.9999999999999999
 40
0.9999999999999999
 40
0.9999999999999999
 40
0.9999999999999999
 10
-3.69286570256645
 20
18.94153828649977
 30
0.0
 10
-2.919226335701464
 20
18.96063589933343
 30
0.0
 10
-1.990612066960384
 20
18.98355913273622
 30
0.0
 10
-0.8769097408883567
 20
19.01022946072115
 30
0.0
 10
-0.3801638059270099
 20
19.02210620014301
 30
0.0
 10
0.2234990400205071
 20
19.03651144834395
 30
0.0
 10
0.9315308231772664
 20
19.05341947084447
 30
0.0
 10
2.109741552151713
 20
19.08170025303895
 30
0.0
 10
3.642739609010707
 20
19.11911891069694
 30
0.0
 10
5.444049518808387
 20
19.16542752718665
 30
0.0
 10
7.082548526862714
 20
19.21113386019129
 30
0.0
 10
8.522423619976308
 20
19.25622802164858
 30
0.0
 10
9.736610474084113
 20
19.30071261057207
 30
0.0
 10
10.70274681256787
 20
19.34458693759153
 30
0.0
 10
11.41614139085722
 20
19.387851208949
 30
0.0
 10
11.84226766854292
 20
19.43050527814993
 30
0.0
 10
12.02393866669373
 20
19.4615219360398
 30
0.0
 10
11.98608655213884
 20
19.47832030681047
 30
0.0
 10
11.97981329095246
 20
19.48110431421902
 30
0.0
  0
SPLINE
  5
D3
330
1F
100
AcDbEntity
  8
0
  6
Continuous
 62
     7
370
    25
100
AcDbSpline
210
0.0
220
0.0
230
1.0
 70
     8
 71
     3
 72
    37
 73
    33
 74
     0
 42
0.000000001
 43
0.00000001
 40
0.0
 40
0.0
 40
0.0
 40
0.0
 40
0.0397582031307321
 40
0.0924328713563636
 40
0.1423689121467746
 40
0.1895654192164658
 40
0.2340215359994244
 40
0.2757364556646933
 40
0.3147094211310426
 40
0.3509397250807331
 40
0.415090220041868
 40
0.4682970861272851
 40
0.4944208705714059
 40
0.4944212847504753
 40
0.4944232403231287
 40
0.4944271514684374
 40
0.4944349737590539
 40
0.4944662629215066
 40
0.4945914195705775
 40
0.494841732863976
 40
0.4953423594129432
 40
0.4993473464567189
 40
0.5153657499026146
 40
0.5473926718895076
 40
0.6113674751821933
 40
0.6753422759207199
 40
0.7393170741052664
 40
0.8032918697360101
 40
0.8672666628131305
 40
0.9312414533368043
 40
0.9952162413072093
 40
1.0
 40
1.0
 40
1.0
 40
1.0
 10
-11.956495396862
 20
20.39124862596267
 30
0.0
 10
-11.93576002918668
 20
20.40304245769115
 30
0.0
 10
-11.88755288143009
 20
20.43046164782336
 30
0.0
 10
-11.43309971965397
 20
20.47268886938925
 30
0.0
 10
-10.71462482313418
 20
20.51711932758008
 30
0.0
 10
-9.789474179806898
 20
20.55910908870909
 30
0.0
 10
-8.729084021021436
 20
20.59865880557143
 30
0.0
 10
-7.583047667885555
 20
20.63576680649146
 30
0.0
 10
-6.398076401127095
 20
20.67043860136696
 30
0.0
 10
-4.879482004869203
 20
20.71174476064711
 30
0.0
 10
-3.073575209732143
 20
20.75737181909501
 30
0.0
 10
-1.308821028903735
 20
20.79995538732454
 30
0.0
 10
-0.3241678927531468
 20
20.82348437749692
 30
0.0
 10
0.0000245595522297
 20
20.83123214216263
 30
0.0
 10
0.0001024975220156
 20
20.83123400477551
 30
0.0
 10
0.0002723607645383
 20
20.83123806427905
 30
0.0
 10
0.0008062166695628
 20
20.83125082271865
 30
0.0
 10
0.0028445755626998
 20
20.83129953675951
 30
0.0
 10
0.0078919402811591
 20
20.83142016199351
 30
0.0
 10
0.0187631831331048
 20
20.83167997011497
 30
0.0
 10
0.0777781152590425
 20
20.8330903494151
 30
0.0
 10
0.3324486966229047
 20
20.83917674685634
 30
0.0
 10
0.9780893787269835
 20
20.85461416835067
 30
0.0
 10
2.360994986239466
 20
20.88783943170631
 30
0.0
 10
4.291278458519885
 20
20.93538140025719
 30
0.0
 10
6.436063000441641
 20
20.99237286983736
 30
0.0
 10
8.328789365580523
 20
21.04937131074344
 30
0.0
 10
9.889679576329259
 20
21.10636281430958
 30
0.0
 10
11.07477054797794
 20
21.16335124391299
 30
0.0
 10
11.77255224746909
 20
21.22033505470999
 30
0.0
 10
12.06634407660611
 20
21.25974300458702
 30
0.0
 10
11.98901880599467
 20
21.28015518868287
 30
0.0
 10
11.98363903208421
 20
21.28157533160105
 30
0.0
  0
SPLINE
  5
D4
330
1F
100
AcDbEntity
  8
0
  6
Continuous
 62
     7
370
    25
100
AcDbSpline
210
0.0
220
0.0
230
1.0
 70
     8
 71
     3
 72
    23
 73
    19
 74
     0
 42
0.000000001
 43
0.00000001
 40
0.0
 40
0.0
 40
0.0
 40
0.0
 40
0.0589047797752769
 40
0.1230006634206594
 40
0.187096544511328
 40
0.2511924230474614
 40
0.3152882990292381
 40
0.3793841724568363
 40
0.4434800433304345
 40
0.5075749160921263
 40
0.5716662492982678
 40
0.6357575851664254
 40
0.6998489236967935
 40
0.7639402648895656
 40
0.8280316087449348
 40
0.8921229552630962
 40
0.9562143044442418
 40
1.0
 40
1.0
 40
1.0
 40
1.0
 10
-11.97274634347264
 20
22.19306712921152
 30
0.0
 10
-11.91187483327929
 20
22.21050181074974
 30
0.0
 10
-11.78476738689272
 20
22.24690764069953
 30
0.0
 10
-11.01420272795454
 20
22.30227970126492
 30
0.0
 10
-9.829510223458565
 20
22.35918446624411
 30
0.0
 10
-8.246659658512064
 20
22.41608515539472
 30
0.0
 10
-6.34194697279109
 20
22.47298192265196
 30
0.0
 10
-4.186654966175571
 20
22.52987460131415
 30
0.0
 10
-1.866685470246578
 20
22.58676340971262
 30
0.0
 10
0.5267993189459615
 20
22.64364541682597
 30
0.0
 10
2.89948755001443
 20
22.70052880536855
 30
0.0
 10
5.157858832150514
 20
22.75741567039242
 30
0.0
 10
7.213448078986745
 20
22.81430657419076
 30
0.0
 10
8.983684100797621
 20
22.87120166013623
 30
0.0
 10
10.40490103249028
 20
22.92810084037471
 30
0.0
 10
11.39855514305959
 20
22.98500432294998
 30
0.0
 10
11.94521534315668
 20
23.03590153110958
 30
0.0
 10
11.94772717887315
 20
23.0678327130171
 30
0.0
 10
11.94874669580778
 20
23.08079310707636
 30
0.0
  0
LWPOLYLINE
  5
D5
330
1F
100
AcDbEntity
  8
0
  6
Continuous
 62
     7
370
    25
100
AcDbPolyline
 90
       29
 70
   128
 43
0.0
 10
-11.9395618302
 20
23.993104874
 10
-11.9378422171
 20
24.0099739254
 10
-11.4619056928
 20
24.0669560125
 10
-10.5345839342
 20
24.1239422432
 10
-9.1923961171
 20
24.1809326175
 10
-7.4881993997
 20
24.2379271354
 10
-5.4891073368
 20
24.2949257969
 10
-3.2738468576
 20
24.3519286021
 10
-0.9296578938
 20
24.4089355508
 10
0.0
 20
24.4311771784
 10
0.0000016909
 20
24.4311772188
 10
0.0000747707
 20
24.4311789649
 10
0.0003313083
 20
24.4311850923
 10
0.001285896
 20
24.4312078873
 10
0.0109910772
 20
24.431439605
 10
0.0301151614
 20
24.4318961829
 10
0.2007915929
 20
24.4359710969
 10
0.9931439391
 20
24.4549142164
 10
2.3747922164
 20
24.4882483909
 10
4.2924292243
 20
24.5359736206
 10
5.4125866841
 20
24.5652328811
 10
6.6026896278
 20
24.5980899054
 10
7.8209461524
 20
24.6345446934
 10
9.0129345786
 20
24.6745972453
 10
10.1109952723
 20
24.7182475609
 10
11.0348556674
 20
24.7654956403
 10
11.6939770518
 20
24.8163414835
 10
11.9921038196
 20
24.8707850904
 10
11.9639157328
 20
24.8811595488
  0
SPLINE
  5
D6
330
1F
100
AcDbEntity
  8
0
  6
Continuous
 62
     7
370
    25
100
AcDbSpline
210
0.0
220
0.0
230
1.0
 70
     8
 71
     3
 72
    16
 73
    12
 74
     0
 42
0.000000001
 43
0.00000001
 40
0.0
 40
0.0
 40
0.0
 40
0.0
 40
0.0258955708737151
 40
0.1404874020564506
 40
0.2571287411169896
 40
0.3758193007756899
 40
0.4965587887058387
 40
0.6193469075343788
 40
0.7441833548426323
 40
0.8710678231670588
 40
1.0
 40
1.0
 40
1.0
 40
1.0
 10
-11.95768136021124
 20
25.79339981286044
 30
0.0
 10
-11.96050560200087
 20
25.79717784422287
 30
0.0
 10
-11.97582754233343
 20
25.81767423774066
 30
0.0
 10
-11.64319462847596
 20
25.8551902601758
 30
0.0
 10
-10.93850484826692
 20
25.90624705486917
 30
0.0
 10
-9.834234595296302
 20
25.95820348269881
 30
0.0
 10
-8.388207899599387
 20
26.01105930104262
 30
0.0
 10
-6.622870535453641
 20
26.06481456035477
 30
0.0
 10
-4.589904602988788
 20
26.11946930900061
 30
0.0
 10
-2.352202228974264
 20
26.17502329565352
 30
0.0
 10
-0.7882403698186967
 20
26.21236059249449
 30
0.0
 10
-0.0000000000000027
 20
26.23117867587527
 30
0.0
  0
SPLINE
  5
D9
330
1F
100
AcDbEntity
  8
0
  6
Continuous
 62
     7
370
    25
100
AcDbSpline
210
0.0
220
0.0
230
1.0
 70
     8
 71
     3
 72
    17
 73
    13
 74
     0
 42
0.000000001
 43
0.00000001
 40
0.0
 40
0.0
 40
0.0
 40
0.0
 40
0.1055116397449355
 40
0.2110232849788596
 40
0.3165349357022006
 40
0.422046591915386
 40
0.5275582536188442
 40
0.6330699208130031
 40
0.7385815934982899
 40
0.8440932716751329
 40
0.9496049553439598
 40
1.0
 40
1.0
 40
1.0
 40
1.0
 10
-3.41590077487402
 20
19.46115543082897
 30
0.0
 10
-2.703220017927843
 20
19.48012188506056
 30
0.0
 10
-1.277858466959992
 20
19.51805479451042
 30
0.0
 10
0.9465168140928526
 20
19.57495978381704
 30
0.0
 10
3.124006473949135
 20
19.63186889248842
 30
0.0
 10
5.180972924820408
 20
19.68878252586016
 30
0.0
 10
7.033735265779849
 20
19.74570056983708
 30
0.0
 10
8.608069204343908
 20
19.80262307546424
 30
0.0
 10
9.849830469556938
 20
19.85954995265653
 30
0.0
 10
10.68007566249596
 20
19.91648151070942
 30
0.0
 10
11.09172164538149
 20
19.96350278348594
 30
0.0
 10
11.05667823655652
 20
19.99154853530033
 30
0.0
 10
11.04535086042844
 20
20.00061399982701
 30
0.0
  0
SPLINE
  5
DA
330
1F
100
AcDbEntity
  8
0
  6
Continuous
 62
     7
370
    25
100
AcDbSpline
210
0.0
220
0.0
230
1.0
 70
     8
 71
     3
 72
    24
 73
    20
 74
     0
 42
0.000000001
 43
0.00000001
 40
0.0
 40
0.0
 40
0.0
 40
0.0
 40
0.0329791403827105
 40
0.0970757215998471
 40
0.1611723009800956
 40
0.2252688785235344
 40
0.289365454230242
 40
0.3534620281002976
 40
0.4175586001337799
 40
0.4816551703307675
 40
0.5457517386913392
 40
0.6098483052155734
 40
0.6739448699035496
 40
0.7380414327553463
 40
0.8021379937710414
 40
0.8662345529507153
 40
0.9303311102944448
 40
0.9944276658023096
 40
1.0
 40
1.0
 40
1.0
 40
1.0
 10
-11.0363465401795
 20
20.91254749954253
 30
0.0
 10
-11.03107537345665
 20
20.92231800344622
 30
0.0
 10
-11.01555943497688
 20
20.951077962191
 30
0.0
 10
-10.5150734764903
 20
20.99882471919435
 30
0.0
 10
-9.586947838493174
 20
21.05578793859842
 30
0.0
 10
-8.25895415293978
 20
21.11274858956593
 30
0.0
 10
-6.611642008323739
 20
21.16970683076385
 30
0.0
 10
-4.70232383141872
 20
21.22666261967969
 30
0.0
 10
-2.608229553099119
 20
21.28361596769649
 30
0.0
 10
-0.4112880447305584
 20
21.34056687179453
 30
0.0
 10
1.801804575803201
 20
21.39751533266971
 30
0.0
 10
3.944003414346585
 20
21.45446135055812
 30
0.0
 10
5.930622895904386
 20
21.51140492381949
 30
0.0
 10
7.684549369489427
 20
21.56834605877879
 30
0.0
 10
9.132489862411127
 20
21.62528473177644
 30
0.0
 10
10.23313540837168
 20
21.68222103112581
 30
0.0
 10
10.88447005907853
 20
21.73915462723295
 30
0.0
 10
11.15946857676849
 20
21.77875920408062
 30
0.0
 10
11.08832504106736
 20
21.79938521239595
 30
0.0
 10
11.08263476010253
 20
21.8010349446076
 30
0.0
  0
SPLINE
  5
DB
330
1F
100
AcDbEntity
  8
0
  6
Continuous
 62
     7
370
    25
100
AcDbSpline
210
0.0
220
0.0
230
1.0
 70
     8
 71
     3
 72
    23
 73
    19
 74
     0
 42
0.000000001
 43
0.00000001
 40
0.0
 40
0.0
 40
0.0
 40
0.0
 40
0.039424462100706
 40
0.1029615915393549
 40
0.1666371295983031
 40
0.2304510733560946
 40
0.2944034198849212
 40
0.3584941662506256
 40
0.4227233095127006
 40
0.4870908467242885
 40
0.5515967749321803
 40
0.6162410911768196
 40
0.6810237924922996
 40
0.7459448759063625
 40
0.8110043384404023
 40
0.8762021771094625
 40
0.9415383889222401
 40
1.0
 40
1.0
 40
1.0
 40
1.0
 10
-11.03329742568141
 20
22.71641324112761
 30
0.0
 10
-11.01218678862176
 20
22.72802862210107
 30
0.0
 10
-10.95705389208361
 20
22.7583635473642
 30
0.0
 10
-10.39170129076316
 20
22.80746174748478
 30
0.0
 10
-9.410833121512274
 20
22.86374829631178
 30
0.0
 10
-8.046339854713327
 20
22.92015991185557
 30
0.0
 10
-6.37154278482637
 20
22.9766964525177
 30
0.0
 10
-4.443530566312235
 20
23.03335795636509
 30
0.0
 10
-2.337767934296217
 20
23.09014441315742
 30
0.0
 10
-0.1354362794181827
 20
23.14705582567452
 30
0.0
 10
2.077043585136819
 20
23.20409219306825
 30
0.0
 10
4.2119735233609
 20
23.26125351594477
 30
0.0
 10
6.1840981439
 20
23.31853979272562
 30
0.0
 10
7.912498168335464
 20
23.37595102913521
 30
0.0
 10
9.329944894675457
 20
23.43348720379154
 30
0.0
 10
10.36319981754798
 20
23.49114839673524
 30
0.0
 10
10.99709545029948
 20
23.54686679265183
 30
0.0
 10
11.05230303274303
 20
23.58336607608066
 30
0.0
 10
11.0783739614395
 20
23.60060229932443
 30
0.0
  0
SPLINE
  5
DC
330
1F
100
AcDbEntity
  8
0
  6
Continuous
 62
     7
370
    25
100
AcDbSpline
210
0.0
220
0.0
230
1.0
 70
     8
 71
     3
 72
    24
 73
    20
 74
     0
 42
0.000000001
 43
0.00000001
 40
0.0
 40
0.0
 40
0.0
 40
0.0
 40
0.0171466162667066
 40
0.0813919706943798
 40
0.1456373236402821
 40
0.2098826751044664
 40
0.2741280250869831
 40
0.3383733735878853
 40
0.4026187206072239
 40
0.4668640661450466
 40
0.5311094102014081
 40
0.5953547527763583
 40
0.6596000938699483
 40
0.7238454334822293
 40
0.7880907716132525
 40
0.8523361082630688
 40
0.9165814434317306
 40
0.9808267771192879
 40
1.0
 40
1.0
 40
1.0
 40
1.0
 10
-11.04488335058077
 20
24.5144234347987
 30
0.0
 10
-11.04838224645505
 20
24.51949189963034
 30
0.0
 10
-11.06499088958513
 20
24.54355101045584
 30
0.0
 10
-10.65687062674003
 20
24.58659880214025
 30
0.0
 10
-9.823829676244237
 20
24.64356674651882
 30
0.0
 10
-8.569762966485577
 20
24.70053257057462
 30
0.0
 10
-6.987191431436709
 20
24.7574964690514
 30
0.0
 10
-5.126909382031528
 20
24.81445838976894
 30
0.0
 10
-3.06530152278283
 20
24.87141834670433
 30
0.0
 10
-0.882753901708314
 20
24.92837633612941
 30
0.0
 10
1.334511986993252
 20
24.98533235897973
 30
0.0
 10
3.499260257758639
 20
25.04228641524129
 30
0.0
 10
5.525981389494136
 20
25.09923850403449
 30
0.0
 10
7.335620754998198
 20
25.15618862889176
 30
0.0
 10
8.853949971022228
 20
25.213136776563
 30
0.0
 10
10.03210384992047
 20
25.27008299651611
 30
0.0
 10
10.78279807162971
 20
25.32702710412968
 30
0.0
 10
11.12464229905214
 20
25.37065350668081
 30
0.0
 10
11.06730463928847
 20
25.39529789190846
 30
0.0
 10
11.05412594409962
 20
25.40096224658164
 30
0.0
  0
SPLINE
  5
DD
330
1F
100
AcDbEntity
  8
0
  6
Continuous
 62
     7
370
    25
100
AcDbSpline
210
0.0
220
0.0
230
1.0
 70
     8
 71
     3
 72
    17
 73
    13
 74
     0
 42
0.000000001
 43
0.00000001
 40
0.0
 40
0.0
 40
0.0
 40
0.0
 40
0.0038620352709108
 40
0.0984911610251098
 40
0.1971357958552362
 40
0.2997950141813005
 40
0.4064678527547122
 40
0.5171533106673301
 40
0.6318503493608861
 40
0.7505578926367434
 40
0.8732748266660074
 40
1.0
 40
1.0
 40
1.0
 40
1.0
 10
-11.08348174800323
 20
26.3142305255099
 30
0.0
 10
-11.08388878510236
 20
26.31479229489042
 30
0.0
 10
-11.09426920725338
 20
26.32911876128315
 30
0.0
 10
-10.9038718272759
 20
26.35779681835942
 30
0.0
 10
-10.47555248066354
 20
26.4008492011076
 30
0.0
 10
-9.750808289322476
 20
26.4456576030046
 30
0.0
 10
-8.753120708107572
 20
26.49222155775476
 30
0.0
 10
-7.471239512239355
 20
26.54054120499206
 30
0.0
 10
-5.91919526369625
 20
26.59061647707486
 30
0.0
 10
-4.121962710648305
 20
26.6424475034501
 30
0.0
 10
-2.121735462883056
 20
26.69603381455341
 30
0.0
 10
-0.7147811840635264
 20
26.73234605206172
 30
0.0
 10
-0.0000000000000093
 20
26.75079391814587
 30
0.0
  0
SPLINE
  5
EB
330
1F
100
AcDbEntity
  8
0
  6
Continuous
 62
     7
370
    25
100
AcDbSpline
210
0.0
220
0.0
230
1.0
 70
     8
 71
     3
 72
    36
 73
    32
 74
     0
 42
0.000000001
 43
0.00000001
 40
0.0
 40
0.0
 40
0.0
 40
0.0
 40
0.0696816925649813
 40
0.113228306000296
 40
0.1221762214078135
 40
0.1312531981284782
 40
0.1404597739207445
 40
0.1497964641384582
 40
0.1513498374790572
 40
0.1622447233545809
 40
0.1913143350068644
 40
0.2120856708016287
 40
0.2370122366908929
 40
0.2660933093433446
 40
0.2993280427187758
 40
0.3821455263499078
 40
0.4550787008302093
 40
0.4880024843572716
 40
0.5228048042934016
 40
0.5476839230307954
 40
0.5728003452291562
 40
0.5981782632162908
 40
0.6613366373233006
 40
0.701876201431467
 40
0.7483833804131585
 40
0.7957332796630613
 40
0.83640784356441
 40
0.8704123927401229
 40
0.8977587790522991
 40
0.9749445091127117
 40
1.0
 40
1.0
 40
1.0
 40
1.0
 10
-8.51836251870041
 20
14.99999999999997
 30
0.0
 10
-8.364032234845237
 20
14.98174012418796
 30
0.0
 10
-8.113255367030627
 20
14.95206899063961
 30
0.0
 10
-7.66264085891873
 20
14.82818958938499
 30
0.0
 10
-7.412288725295626
 20
14.75742938218725
 30
0.0
 10
-7.297142097949639
 20
14.7244433561885
 30
0.0
 10
-7.176202819624079
 20
14.68900306085882
 30
0.0
 10
-7.085014134462859
 20
14.66310927738759
 30
0.0
 10
-6.984527345618905
 20
14.63185002996348
 30
0.0
 10
-6.789308438568794
 20
14.56732032738233
 30
0.0
 10
-6.483949015674992
 20
14.47344094369867
 30
0.0
 10
-6.080155163418746
 20
14.35663831305361
 30
0.0
 10
-5.651828932595424
 20
14.23958317632728
 30
0.0
 10
-5.12056578357631
 20
14.10334443302212
 30
0.0
 10
-4.183397189512033
 20
13.87233537006738
 30
0.0
 10
-2.836461150794087
 20
13.60573606628856
 30
0.0
 10
-1.380371301083169
 20
13.4418637843532
 30
0.0
 10
-0.2726639013709889
 20
13.39205807737328
 30
0.0
 10
0.4599231631259986
 20
13.39901810277958
 30
0.0
 10
1.1262110255293
 20
13.4301847856481
 30
0.0
 10
1.71223436574038
 20
13.47683661323418
 30
0.0
 10
2.581297426540714
 20
13.57372269951207
 30
0.0
 10
3.531354500380464
 20
13.74282121144932
 30
0.0
 10
4.561741225255588
 20
13.9656019745123
 30
0.0
 10
5.419230255090508
 20
14.1824920505262
 30
0.0
 10
6.197590194962745
 20
14.40059619263491
 30
0.0
 10
6.8263016967539
 20
14.58453649884572
 30
0.0
 10
7.293319812507291
 20
14.72756315545278
 30
0.0
 10
7.848230022654908
 20
14.88952365515425
 30
0.0
 10
8.299432556365556
 20
15.00529864954306
 30
0.0
 10
8.444030283511601
 20
14.98332659831237
 30
0.0
 10
8.479465766394611
 20
14.97794207214687
 30
0.0
  0
LWPOLYLINE
  5
108
330
1F
100
AcDbEntity
  8
0
  6
Continuous
 62
     8
370
    25
100
AcDbPolyline
 90
        3
 70
   128
 43
0.0
 10
-90.0
 20
-4.0035525452
 10
-90.1358440032
 20
-3.4546576231
 10
-90.2973913778
 20
-2.6491979952
  0
LWPOLYLINE
  5
109
330
1F
100
AcDbEntity
  8
0
  6
Continuous
 62
     8
370
    25
100
AcDbPolyline
 90
        3
 70
   128
 43
0.0
 10
-90.306155317
 20
2.5980843698
 10
-90.1358440032
 20
3.4546576231
 10
-90.0
 20
4.0035525452
  0
LWPOLYLINE
  5
111
330
1F
100
AcDbEntity
  8
0
  6
Continuous
 62
     8
370
    25
100
AcDbPolyline
 90
        3
 70
   128
 43
0.0
 10
90.0
 20
4.0035525452
 10
90.1358440032
 20
3.4546576231
 10
90.2912670512
 20
2.6843220656
  0
LWPOLYLINE
  5
112
330
1F
100
AcDbEntity
  8
0
  6
Continuous
 62
     8
370
    25
100
AcDbPolyline
 90
        3
 70
   128
 43
0.0
 10
90.31693527
 20
-2.5337574702
 10
90.1358440032
 20
-3.4546576231
 10
90.0
 20
-4.0035525452
  0
LINE
  5
117
330
1F
100
AcDbEntity
  8
0
  6
Continuous
 62
     7
370
    25
100
AcDbLine
 10
-130.5
 20
-15.0
 30
0.0
 11
-90.5
 21
-15.0
 31
0.0
  0
LINE
  5
118
330
1F
100
AcDbEntity
  8
0
  6
Continuous
 62
     7
370
    25
100
AcDbLine
 10
-90.5
 20
15.0
 30
0.0
 11
-130.5
 21
15.0
 31
0.0
  0
LINE
  5
119
330
1F
100
AcDbEntity
  8
0
  6
Continuous
 62
     7
370
    25
100
AcDbLine
 10
110.7503112922
 20
15.0
 30
0.0
 11
90.5
 21
15.0
 31
0.0
  0
LINE
  5
11A
330
1F
100
AcDbEntity
  8
0
  6
Continuous
 62
     7
370
    25
100
AcDbLine
 10
130.5
 20
15.0
 30
0.0
 11
120.2499177854
 21
15.0
 31
0.0
  0
LINE
  5
11B
330
1F
100
AcDbEntity
  8
0
  6
Continuous
 62
     7
370
    25
100
AcDbLine
 10
90.5
 20
-15.0
 30
0.0
 11
130.5
 21
-15.0
 31
0.0
  0
LINE
  5
11C
330
1F
100
AcDbEntity
  8
0
  6
Continuous
 62
     7
370
    25
100
AcDbLine
 10
110.9
 20
19.0
 30
0.0
 11
110.9
 21
14.9543707806
 31
0.0
  0
LINE
  5
11D
330
1F
100
AcDbEntity
  8
0
  6
Continuous
 62
     7
370
    25
100
AcDbLine
 10
120.1
 20
14.9543124397
 30
0.0
 11
120.1
 21
19.0
 31
0.0
  0
LINE
  5
11E
330
1F
100
AcDbEntity
  8
0
  6
Continuous
 62
     7
370
    25
100
AcDbLine
 10
-11.4269399117
 20
26.9821364397
 30
0.0
 11
-11.1
 21
26.7931856457
 31
0.0
  0
LINE
  5
11F
330
1F
100
AcDbEntity
  8
0
  6
Continuous
 62
     7
370
    25
100
AcDbLine
 10
-12.0
 20
20.3810652503
 30
0.0
 11
-12.0
 21
18.0
 31
0.0
  0
LINE
  5
120
330
1F
100
AcDbEntity
  8
0
  6
Continuous
 62
     7
370
    25
100
AcDbLine
 10
-12.0
 20
22.1815667921
 30
0.0
 11
-12.0
 21
21.9185663439
 31
0.0
  0
LINE
  5
121
330
1F
100
AcDbEntity
  8
0
  6
Continuous
 62
     7
370
    25
100
AcDbLine
 10
-12.0
 20
23.9807846573
 30
0.0
 11
-12.0
 21
23.7189664712
 31
0.0
  0
LINE
  5
122
330
1F
100
AcDbEntity
  8
0
  6
Continuous
 62
     7
370
    25
100
AcDbLine
 10
-12.0
 20
25.7811799702
 30
0.0
 11
-12.0
 21
25.5185875927
 31
0.0
  0
LINE
  5
123
330
1F
100
AcDbEntity
  8
0
  6
Continuous
 62
     7
370
    25
100
AcDbLine
 10
12.0
 20
26.419183203
 30
0.0
 11
12.0
 21
27.0
 31
0.0
  0
LINE
  5
124
330
1F
100
AcDbEntity
  8
0
  6
Continuous
 62
     7
370
    25
100
AcDbLine
 10
12.0
 20
24.6186594835
 30
0.0
 11
12.0
 21
24.8811595488
 31
0.0
  0
LINE
  5
125
330
1F
100
AcDbEntity
  8
0
  6
Continuous
 62
     7
370
    25
100
AcDbLine
 10
12.0
 20
22.8190706235
 30
0.0
 11
12.0
 21
23.0807931071
 31
0.0
  0
LINE
  5
126
330
1F
100
AcDbEntity
  8
0
  6
Continuous
 62
     7
370
    25
100
AcDbLine
 10
12.0
 20
21.0185994299
 30
0.0
 11
12.0
 21
21.2815753316
 31
0.0
  0
LINE
  5
127
330
1F
100
AcDbEntity
  8
0
  6
Continuous
 62
     7
370
    25
100
AcDbLine
 10
12.0
 20
18.0
 30
0.0
 11
12.0
 21
19.4811043142
 31
0.0
  0
LINE
  5
128
330
1F
100
AcDbEntity
  8
0
  6
Continuous
 62
     7
370
    25
100
AcDbLine
 10
11.1
 20
25.4009622466
 30
0.0
 11
11.1
 21
25.8932413195
 31
0.0
  0
LINE
  5
129
330
1F
100
AcDbEntity
  8
0
  6
Continuous
 62
     7
370
    25
100
AcDbLine
 10
11.1
 20
23.6006022993
 30
0.0
 11
11.1
 21
24.0931881966
 31
0.0
  0
LINE
  5
12A
330
1F
100
AcDbEntity
  8
0
  6
Continuous
 62
     7
370
    25
100
AcDbLine
 10
11.1
 20
21.8010349446
 30
0.0
 11
11.1
 21
22.2928261097
 31
0.0
  0
LINE
  5
12B
330
1F
100
AcDbEntity
  8
0
  6
Continuous
 62
     7
370
    25
100
AcDbLine
 10
11.1
 20
20.0006139998
 30
0.0
 11
11.1
 21
20.4931015737
 31
0.0
  0
LINE
  5
12C
330
1F
100
AcDbEntity
  8
0
  6
Continuous
 62
     7
370
    25
100
AcDbLine
 10
-11.1
 20
21.3989639456
 30
0.0
 11
-11.1
 21
20.9010123491
 31
0.0
  0
LINE
  5
12D
330
1F
100
AcDbEntity
  8
0
  6
Continuous
 62
     7
370
    25
100
AcDbLine
 10
-11.1
 20
23.1994146576
 30
0.0
 11
-11.1
 21
22.7005936939
 31
0.0
  0
LINE
  5
12E
330
1F
100
AcDbEntity
  8
0
  6
Continuous
 62
     7
370
    25
100
AcDbLine
 10
-11.1
 20
24.9990317817
 30
0.0
 11
-11.1
 21
24.5071628168
 31
0.0
  0
LINE
  5
12F
330
1F
100
AcDbEntity
  8
0
  6
Continuous
 62
     7
370
    25
100
AcDbLine
 10
-11.1
 20
26.7992851746
 30
0.0
 11
-11.1
 21
26.307163492
 31
0.0
  0
LINE
  5
130
330
1F
100
AcDbEntity
  8
0
  6
Continuous
 62
     7
370
    25
100
AcDbLine
 10
8.75
 20
15.0
 30
0.0
 11
8.75
 21
18.0
 31
0.0
  0
LINE
  5
131
330
1F
100
AcDbEntity
  8
0
  6
Continuous
 62
     7
370
    25
100
AcDbLine
 10
-8.75
 20
18.0
 30
0.0
 11
-8.75
 21
15.0
 31
0.0
  0
LINE
  5
132
330
1F
100
AcDbEntity
  8
0
  6
Continuous
 62
     7
370
    25
100
AcDbLine
 10
-8.5183625187
 20
15.0
 30
0.0
 11
-90.0
 21
15.0
 31
0.0
  0
LINE
  5
133
330
1F
100
AcDbEntity
  8
0
  6
Continuous
 62
     7
370
    25
100
AcDbLine
 10
90.0
 20
15.0
 30
0.0
 11
8.5183625187
 21
15.0
 31
0.0
  0
LINE
  5
134
330
1F
100
AcDbEntity
  8
0
  6
Continuous
 62
     7
370
    25
100
AcDbLine
 10
-90.0
 20
-15.0
 30
0.0
 11
90.0
 21
-15.0
 31
0.0
  0
LINE
  5
135
330
1F
100
AcDbEntity
  8
0
  6
Continuous
 62
     7
370
    25
100
AcDbLine
 10
-130.5
 20
-3.6029411765
 30
0.0
 11
-112.5
 21
-3.6029411765
 31
0.0
  0
LINE
  5
136
330
1F
100
AcDbEntity
  8
0
  6
Continuous
 62
     7
370
    25
100
AcDbLine
 10
-112.5
 20
3.6029411765
 30
0.0
 11
-130.5
 21
3.6029411765
 31
0.0
  0
LINE
  5
137
330
1F
100
AcDbEntity
  8
0
  6
Continuous
 62
     7
370
    25
100
AcDbLine
 10
-130.5
 20
15.0
 30
0.0
 11
-130.5
 21
-15.0
 31
0.0
  0
LINE
  5
138
330
1F
100
AcDbEntity
  8
0
  6
Continuous
 62
     7
370
    25
100
AcDbLine
 10
-112.5
 20
-4.0
 30
0.0
 11
-112.5
 21
4.0
 31
0.0
  0
LINE
  5
139
330
1F
100
AcDbEntity
  8
0
  6
Continuous
 62
     7
370
    25
100
AcDbLine
 10
-130.5
 20
4.0
 30
0.0
 11
-112.5
 21
4.0
 31
0.0
  0
LINE
  5
13A
330
1F
100
AcDbEntity
  8
0
  6
Continuous
 62
     7
370
    25
100
AcDbLine
 10
-112.5
 20
-4.0
 30
0.0
 11
-130.5
 21
-4.0
 31
0.0
  0
LINE
  5
13B
330
1F
100
AcDbEntity
  8
0
  6
Continuous
 62
     7
370
    25
100
AcDbLine
 10
-125.5
 20
-4.6875
 30
0.0
 11
-130.5
 21
-4.6875
 31
0.0
  0
LINE
  5
13C
330
1F
100
AcDbEntity
  8
0
  6
Continuous
 62
     7
370
    25
100
AcDbLine
 10
-125.5
 20
-4.0
 30
0.0
 11
-125.5
 21
-15.0
 31
0.0
  0
LINE
  5
13D
330
1F
100
AcDbEntity
  8
0
  6
Continuous
 62
     7
370
    25
100
AcDbLine
 10
-130.5
 20
4.6875
 30
0.0
 11
-125.5
 21
4.6875
 31
0.0
  0
LINE
  5
13E
330
1F
100
AcDbEntity
  8
0
  6
Continuous
 62
     7
370
    25
100
AcDbLine
 10
-125.5
 20
15.0
 30
0.0
 11
-125.5
 21
4.0
 31
0.0
  0
LINE
  5
13F
330
1F
100
AcDbEntity
  8
0
  6
Continuous
 62
     7
370
    25
100
AcDbLine
 10
90.5
 20
-15.0
 30
0.0
 11
90.5
 21
15.0
 31
0.0
  0
LINE
  5
140
330
1F
100
AcDbEntity
  8
0
  6
Continuous
 62
     7
370
    25
100
AcDbLine
 10
125.5
 20
4.0
 30
0.0
 11
125.5
 21
15.0
 31
0.0
  0
LINE
  5
141
330
1F
100
AcDbEntity
  8
0
  6
Continuous
 62
     7
370
    25
100
AcDbLine
 10
125.5
 20
-15.0
 30
0.0
 11
125.5
 21
-4.0
 31
0.0
  0
LINE
  5
142
330
1F
100
AcDbEntity
  8
0
  6
Continuous
 62
     7
370
    25
100
AcDbLine
 10
111.9
 20
20.0
 30
0.0
 11
119.1
 21
20.0
 31
0.0
  0
LINE
  5
143
330
1F
100
AcDbEntity
  8
0
  6
Continuous
 62
     7
370
    25
100
AcDbLine
 10
-3.6928657026
 20
20.4792316563
 30
0.0
 11
-3.4159007749
 21
19.959614512
 31
0.0
  0
LINE
  5
144
330
1F
100
AcDbEntity
  8
0
  6
Continuous
 62
     7
370
    25
100
AcDbLine
 10
-11.9996044546
 20
23.7166505176
 30
0.0
 11
-11.939954217
 21
23.7049492653
 31
0.0
  0
LINE
  5
145
330
1F
100
AcDbEntity
  8
0
  6
Continuous
 62
     7
370
    25
100
AcDbLine
 10
-12.0
 20
18.0
 30
0.0
 11
12.0
 21
18.0
 31
0.0
  0
LINE
  5
146
330
1F
100
AcDbEntity
  8
0
  6
Continuous
 62
     7
370
    25
100
AcDbLine
 10
-8.4838923155
 20
27.0
 30
0.0
 11
12.0
 21
27.0
 31
0.0
  0
LINE
  5
147
330
1F
100
AcDbEntity
  8
0
  6
Continuous
 62
     7
370
    25
100
AcDbLine
 10
-3.6928657026
 20
20.4792316563
 30
0.0
 11
-3.6928657026
 21
18.9415382865
 31
0.0
  0
LINE
  5
148
330
1F
100
AcDbEntity
  8
0
  6
Continuous
 62
     7
370
    25
100
AcDbLine
 10
0.0
 20
26.2311786759
 30
0.0
 11
0.0
 21
27.0
 31
0.0
  0
LINE
  5
149
330
1F
100
AcDbEntity
  8
0
  6
Continuous
 62
     7
370
    25
100
AcDbLine
 10
-3.4159007749
 20
19.4611554308
 30
0.0
 11
-3.6928657026
 21
18.9415382865
 31
0.0
  0
LINE
  5
14A
330
1F
100
AcDbEntity
  8
0
  6
Continuous
 62
     7
370
    25
100
AcDbLine
 10
-3.4159007749
 20
19.959614512
 30
0.0
 11
-3.4159007749
 21
19.4611554308
 31
0.0
  0
LINE
  5
14B
330
1F
100
AcDbEntity
  8
0
  6
Continuous
 62
     7
370
    25
100
AcDbLine
 10
-90.5
 20
2.1532124827
 30
0.0
 11
-90.0
 21
3.0192378865
 31
0.0
  0
LINE
  5
14C
330
1F
100
AcDbEntity
  8
0
  6
Continuous
 62
     7
370
    25
100
AcDbLine
 10
-90.0
 20
-3.0192378865
 30
0.0
 11
-90.5
 21
-2.1532124827
 31
0.0
  0
LINE
  5
14D
330
1F
100
AcDbEntity
  8
0
  6
Continuous
 62
     7
370
    25
100
AcDbLine
 10
90.0
 20
3.0192378865
 30
0.0
 11
90.5
 21
2.1532124827
 31
0.0
  0
LINE
  5
14E
330
1F
100
AcDbEntity
  8
0
  6
Continuous
 62
     7
370
    25
100
AcDbLine
 10
90.5
 20
-2.1532124827
 30
0.0
 11
90.0
 21
-3.0192378865
 31
0.0
  0
LINE
  5
14F
330
1F
100
AcDbEntity
  8
0
  6
Continuous
 62
     7
370
    25
100
AcDbLine
 10
-90.0
 20
15.0
 30
0.0
 11
-90.0
 21
-15.0
 31
0.0
  0
LINE
  5
150
330
1F
100
AcDbEntity
  8
0
  6
Continuous
 62
     7
370
    25
100
AcDbLine
 10
90.0
 20
15.0
 30
0.0
 11
90.0
 21
-15.0
 31
0.0
  0
LINE
  5
151
330
1F
100
AcDbEntity
  8
0
  6
Continuous
 62
     7
370
    25
100
AcDbLine
 10
-90.5
 20
15.0
 30
0.0
 11
-90.5
 21
-15.0
 31
0.0
  0
LINE
  5
152
330
1F
100
AcDbEntity
  8
0
  6
Continuous
 62
     7
370
    25
100
AcDbLine
 10
130.5
 20
3.6029411765
 30
0.0
 11
112.5
 21
3.6029411765
 31
0.0
  0
LINE
  5
153
330
1F
100
AcDbEntity
  8
0
  6
Continuous
 62
     7
370
    25
100
AcDbLine
 10
112.5
 20
-3.6029411765
 30
0.0
 11
130.5
 21
-3.6029411765
 31
0.0
  0
LINE
  5
154
330
1F
100
AcDbEntity
  8
0
  6
Continuous
 62
     7
370
    25
100
AcDbLine
 10
112.5
 20
4.0
 30
0.0
 11
112.5
 21
-4.0
 31
0.0
  0
LINE
  5
155
330
1F
100
AcDbEntity
  8
0
  6
Continuous
 62
     7
370
    25
100
AcDbLine
 10
130.5
 20
-15.0
 30
0.0
 11
130.5
 21
15.0
 31
0.0
  0
LINE
  5
156
330
1F
100
AcDbEntity
  8
0
  6
Continuous
 62
     7
370
    25
100
AcDbLine
 10
112.5
 20
4.0
 30
0.0
 11
130.5
 21
4.0
 31
0.0
  0
LINE
  5
157
330
1F
100
AcDbEntity
  8
0
  6
Continuous
 62
     7
370
    25
100
AcDbLine
 10
130.5
 20
-4.0
 30
0.0
 11
112.5
 21
-4.0
 31
0.0
  0
LINE
  5
158
330
1F
100
AcDbEntity
  8
0
  6
Continuous
 62
     7
370
    25
100
AcDbLine
 10
130.5
 20
-4.6875
 30
0.0
 11
125.5
 21
-4.6875
 31
0.0
  0
LINE
  5
159
330
1F
100
AcDbEntity
  8
0
  6
Continuous
 62
     7
370
    25
100
AcDbLine
 10
125.5
 20
4.6875
 30
0.0
 11
130.5
 21
4.6875
 31
0.0
  0
LINE
  5
15A
330
1F
100
AcDbEntity
  8
0
  6
Continuous
 62
     8
370
    25
100
AcDbLine
 10
120.1
 20
19.0
 30
0.0
 11
110.9
 21
19.0
 31
0.0
  0
ARC
  5
15B
330
1F
100
AcDbEntity
  8
0
  6
Continuous
 62
     7
370
    25
100
AcDbCircle
 10
111.9
 20
19.0
 30
0.0
 40
0.9999999999999858
100
AcDbArc
 50
90.0
 51
180.0
  0
ARC
  5
15C
330
1F
100
AcDbEntity
  8
0
  6
Continuous
 62
     7
370
    25
100
AcDbCircle
 10
119.1
 20
19.0
 30
0.0
 40
0.9999999999999858
100
AcDbArc
 50
0.0
 51
90.0
  0
ARC
  5
15D
330
1F
100
AcDbEntity
  8
0
  6
Continuous
 62
     7
370
    25
100
AcDbCircle
 10
-75.0
 20
0.0
 30
0.0
 40
32.25000000000045
100
AcDbArc
 50
207.7177476896
 51
332.2822523104
  0
ARC
  5
15E
330
1F
100
AcDbEntity
  8
0
  6
Continuous
 62
     7
370
    25
100
AcDbCircle
 10
-75.0
 20
0.0
 30
0.0
 40
32.25000000000001
100
AcDbArc
 50
27.7177476896
 51
152.2822523104
  0
ARC
  5
15F
330
1F
100
AcDbEntity
  8
0
  6
Continuous
 62
     7
370
    25
100
AcDbCircle
 10
75.0
 20
0.0
 30
0.0
 40
32.25000000000043
100
AcDbArc
 50
207.7177476896
 51
332.2822523104
  0
ARC
  5
160
330
1F
100
AcDbEntity
  8
0
  6
Continuous
 62
     7
370
    25
100
AcDbCircle
 10
75.0
 20
0.0
 30
0.0
 40
32.25000000000002
100
AcDbArc
 50
27.7177476896
 51
152.2822523104
  0
ARC
  5
161
330
1F
100
AcDbEntity
  8
0
  6
Continuous
 62
     8
370
    25
100
AcDbCircle
 10
-75.0
 20
0.0
 30
0.0
 40
15.5250904339305
100
AcDbArc
 50
255.0559147405
 51
284.9440852595
  0
ARC
  5
162
330
1F
100
AcDbEntity
  8
0
  6
Continuous
 62
     8
370
    25
100
AcDbCircle
 10
-75.0
 20
0.0
 30
0.0
 40
15.52509043393028
100
AcDbArc
 50
75.0559147405
 51
104.9440852595
  0
ARC
  5
163
330
1F
100
AcDbEntity
  8
0
  6
Continuous
 62
     8
370
    25
100
AcDbCircle
 10
-75.0
 20
0.0
 30
0.0
 40
31.42355049677876
100
AcDbArc
 50
208.5124028473
 51
331.4875971527
  0
ARC
  5
164
330
1F
100
AcDbEntity
  8
0
  6
Continuous
 62
     8
370
    25
100
AcDbCircle
 10
-75.0
 20
0.0
 30
0.0
 40
31.42355049677866
100
AcDbArc
 50
28.5124028473
 51
151.4875971527
  0
ARC
  5
165
330
1F
100
AcDbEntity
  8
0
  6
Continuous
 62
     8
370
    25
100
AcDbCircle
 10
75.0
 20
0.0
 30
0.0
 40
15.52509043393082
100
AcDbArc
 50
255.0559147405
 51
284.9440852595
  0
ARC
  5
166
330
1F
100
AcDbEntity
  8
0
  6
Continuous
 62
     8
370
    25
100
AcDbCircle
 10
75.0
 20
0.0
 30
0.0
 40
15.52509043393041
100
AcDbArc
 50
75.0559147405
 51
104.9440852595
  0
ARC
  5
167
330
1F
100
AcDbEntity
  8
0
  6
Continuous
 62
     8
370
    25
100
AcDbCircle
 10
75.0
 20
0.0
 30
0.0
 40
31.42355049677873
100
AcDbArc
 50
208.5124028473
 51
331.4875971527
  0
ARC
  5
168
330
1F
100
AcDbEntity
  8
0
  6
Continuous
 62
     8
370
    25
100
AcDbCircle
 10
75.0
 20
0.0
 30
0.0
 40
31.42355049677865
100
AcDbArc
 50
28.5124028473
 51
151.4875971527
  0
SPLINE
  5
264
330
23
100
AcDbEntity
 67
     1
  8
0
  6
Continuous
 62
     7
370
    25
100
AcDbSpline
210
0.0
220
0.0
230
1.0
 70
     8
 71
     3
 72
    15
 73
    11
 74
     0
 42
0.000000001
 43
0.00000001
 40
0.0
 40
0.0
 40
0.0
 40
0.0
 40
0.11496127618159
 40
0.2375014067699689
 40
0.3658066704437604
 40
0.4973401082264567
 40
0.6291709199803902
 40
0.7584079948293901
 40
0.8825988797948848
 40
1.0
 40
1.0
 40
1.0
 40
1.0
 10
57.75227971174608
 20
-19.9987891137351
 30
0.0
 10
58.03578831173293
 20
-20.01351419671527
 30
0.0
 10
58.6214958957537
 20
-20.04393511790502
 30
0.0
 10
59.50911979418118
 20
-20.30321181414231
 30
0.0
 10
60.37120264455831
 20
-20.73960084624969
 30
0.0
 10
61.14409887534012
 20
-21.35858863300544
 30
0.0
 10
61.77050969546039
 20
-22.11821532142059
 30
0.0
 10
62.20882059714209
 20
-22.95915730691193
 30
0.0
 10
62.4652453399511
 20
-23.81790885167107
 30
0.0
 10
62.49031277155751
 20
-24.36813442516989
 30
0.0
 10
62.50249423654095
 20
-24.63551537036568
 30
0.0
  0
SPLINE
  5
265
330
23
100
AcDbEntity
 67
     1
  8
0
  6
Continuous
 62
     7
370
    25
100
AcDbSpline
210
0.0
220
0.0
230
1.0
 70
     8
 71
     3
 72
    15
 73
    11
 74
     0
 42
0.000000001
 43
0.00000001
 40
0.0
 40
0.0
 40
0.0
 40
0.0
 40
0.1174011202108316
 40
0.2415920051758003
 40
0.3708290800240955
 40
0.5026598917771528
 40
0.6341933295588797
 40
0.7624985932316998
 40
0.8850387238191801
 40
1.0
 40
1.0
 40
1.0
 40
1.0
 10
-62.50249423654093
 20
-24.63551537036662
 30
0.0
 10
-62.49031277155588
 20
-24.36813442515535
 30
0.0
 10
-62.46524533994681
 20
-23.81790885163966
 30
0.0
 10
-62.20882059712667
 20
-22.95915730687465
 30
0.0
 10
-61.77050969544074
 20
-22.11821532139086
 30
0.0
 10
-61.14409887531967
 20
-21.35858863298517
 30
0.0
 10
-60.37120264454045
 20
-20.73960084623814
 30
0.0
 10
-59.5091197941684
 20
-20.30321181413756
 30
0.0
 10
-58.62149589574717
 20
-20.04393511790444
 30
0.0
 10
-58.03578831173084
 20
-20.01351419671515
 30
0.0
 10
-57.75227971174603
 20
-19.99878911373521
 30
0.0
  0
SPLINE
  5
267
330
23
100
AcDbEntity
 67
     1
  8
0
  6
Continuous
 62
     7
370
    25
100
AcDbSpline
210
0.0
220
0.0
230
1.0
 70
     8
 71
     3
 72
    11
 73
     7
 74
     0
 42
0.000000001
 43
0.00000001
 40
0.0
 40
0.0
 40
0.0
 40
0.0
 40
0.2456669051042671
 40
0.5000000001188617
 40
0.7543330950712047
 40
1.0
 40
1.0
 40
1.0
 40
1.0
 10
87.50000000000277
 20
-19.33012702594194
 30
0.0
 10
87.53191685171205
 20
-18.9011438648303
 30
0.0
 10
87.59687645972954
 20
-18.02804465549327
 30
0.0
 10
88.12461889911883
 20
-16.80399956524166
 30
0.0
 10
88.92080182100305
 20
-15.73493865987273
 30
0.0
 10
89.64444811117573
 20
-15.24213238361036
 30
0.0
 10
90.00000000000013
 20
-14.99999999831508
 30
0.0
  0
SPLINE
  5
268
330
23
100
AcDbEntity
 67
     1
  8
0
  6
Continuous
 62
     7
370
    25
100
AcDbSpline
210
0.0
220
0.0
230
1.0
 70
     8
 71
     3
 72
    11
 73
     7
 74
     0
 42
0.000000001
 43
0.00000001
 40
0.0
 40
0.0
 40
0.0
 40
0.0
 40
0.2456669049287986
 40
0.49999999988114
 40
0.7543330948957357
 40
1.0
 40
1.0
 40
1.0
 40
1.0
 10
-90.00000000000014
 20
-14.99999999831513
 30
0.0
 10
-89.64444811117575
 20
-15.24213238361041
 30
0.0
 10
-88.92080182100304
 20
-15.73493865987278
 30
0.0
 10
-88.12461889911881
 20
-16.80399956524174
 30
0.0
 10
-87.59687645972956
 20
-18.02804465549333
 30
0.0
 10
-87.53191685171205
 20
-18.90114386483036
 30
0.0
 10
-87.50000000000277
 20
-19.33012702594199
 30
0.0
  0
SPLINE
  5
27F
330
23
100
AcDbEntity
 67
     1
  8
0
  6
Continuous
 62
     7
370
    25
100
AcDbSpline
210
0.0
220
0.0
230
1.0
 70
     8
 71
     3
 72
    20
 73
    16
 74
     0
 42
0.000000001
 43
0.00000001
 40
0.0
 40
0.0
 40
0.0
 40
0.0
 40
0.0824551542648158
 40
0.1638909617363277
 40
0.2443316123424615
 40
0.3238022047590229
 40
0.4023287678178968
 40
0.4799382801880851
 40
0.5566586879850777
 40
0.632518919941189
 40
0.7075488997494765
 40
0.7817795551778678
 40
0.8552428235391676
 40
0.9279716530981477
 40
0.9999999999999999
 40
0.9999999999999999
 40
0.9999999999999999
 40
0.9999999999999999
 10
-82.33570037556072
 20
-47.00000000000001
 30
0.0
 10
-82.13789822101921
 20
-47.05002236721991
 30
0.0
 10
-81.74473922895415
 20
-47.14944870320938
 30
0.0
 10
-81.15553827378812
 20
-47.28508230210804
 30
0.0
 10
-80.5714505698569
 20
-47.40956819104859
 30
0.0
 10
-79.99225189884804
 20
-47.52203813874755
 30
0.0
 10
-79.4180010866886
 20
-47.6227200558817
 30
0.0
 10
-78.84868251695433
 20
-47.71155398243503
 30
0.0
 10
-78.28430018821996
 20
-47.78855371998777
 30
0.0
 10
-77.72485296731674
 20
-47.85372082650613
 30
0.0
 10
-77.17034110195696
 20
-47.90703362815324
 30
0.0
 10
-76.62076453373278
 20
-47.94857358760039
 30
0.0
 10
-76.07612326124995
 20
-47.97803848776533
 30
0.0
 10
-75.53641756449973
 20
-47.99653741262011
 30
0.0
 10
-75.17822809300513
 20
-47.99884953367224
 30
0.0
 10
-75.00000000000011
 20
-48.0
 30
0.0
  0
SPLINE
  5
280
330
23
100
AcDbEntity
 67
     1
  8
0
  6
Continuous
 62
     7
370
    25
100
AcDbSpline
210
0.0
220
0.0
230
1.0
 70
     8
 71
     3
 72
    21
 73
    17
 74
     0
 42
0.000000001
 43
0.00000001
 40
0.0
 40
0.0
 40
0.0
 40
0.0
 40
0.0668606848061303
 40
0.1343232364320209
 40
0.2024149282417876
 40
0.2711622848285328
 40
0.3405910793184463
 40
0.4107263336024999
 40
0.4815923212493516
 40
0.5532125728500494
 40
0.6256098835462316
 40
0.6988063224981397
 40
0.7728232440563226
 40
0.8476813004107878
 40
0.9234004555031103
 40
1.0
 40
1.0
 40
1.0
 40
1.0
 10
-87.55736835487441
 20
-48.0
 30
0.0
 10
-87.47464781672726
 20
-47.99900875537523
 30
0.0
 10
-87.30846210631246
 20
-47.99701734313527
 30
0.0
 10
-87.058137934539
 20
-47.9810719053363
 30
0.0
 10
-86.80568562250112
 20
-47.95567007231112
 30
0.0
 10
-86.551105277155
 20
-47.91985753871676
 30
0.0
 10
-86.29439689077451
 20
-47.87389402919946
 30
0.0
 10
-86.03556048169614
 20
-47.817709244291
 30
0.0
 10
-85.77459600928029
 20
-47.7513228939105
 30
0.0
 10
-85.51150358092384
 20
-47.67472907083819
 30
0.0
 10
-85.24628270504371
 20
-47.58793306401267
 30
0.0
 10
-84.97893512094643
 20
-47.4909209999964
 30
0.0
 10
-84.70945406891678
 20
-47.38374528230041
 30
0.0
 10
-84.43786501698752
 20
-47.26620842628829
 30
0.0
 10
-84.16407106311986
 20
-47.13906104454122
 30
0.0
 10
-83.9813877638571
 20
-47.0465319516653
 30
0.0
 10
-83.88951816709415
 20
-47.0
 30
0.0
  0
SPLINE
  5
285
330
23
100
AcDbEntity
 67
     1
  8
0
  6
Continuous
 62
     7
370
    25
100
AcDbSpline
210
0.0
220
0.0
230
1.0
 70
     8
 71
     3
 72
    21
 73
    17
 74
     0
 42
0.000000001
 43
0.00000001
 40
0.0
 40
0.0
 40
0.0
 40
0.0
 40
0.0668606848061346
 40
0.1343232364320305
 40
0.2024149282418009
 40
0.2711622848285489
 40
0.3405910793184644
 40
0.4107263336025192
 40
0.4815923212493712
 40
0.553212572850069
 40
0.6256098835462498
 40
0.6988063224981564
 40
0.7728232440563353
 40
0.8476813004107974
 40
0.9234004555031162
 40
1.0
 40
1.0
 40
1.0
 40
1.0
 10
-75.00000000000011
 20
-35.00000000000004
 30
0.0
 10
-75.16544107629446
 20
-35.00099124462481
 30
0.0
 10
-75.49781249712409
 20
-35.00298265686477
 30
0.0
 10
-75.99846084067102
 20
-35.01892809466374
 30
0.0
 10
-76.5033654647468
 20
-35.04432992768892
 30
0.0
 10
-77.01252615543908
 20
-35.08014246128327
 30
0.0
 10
-77.52594292820002
 20
-35.12610597080057
 30
0.0
 10
-78.04361574635685
 20
-35.18229075570904
 30
0.0
 10
-78.56554469118849
 20
-35.24867710608949
 30
0.0
 10
-79.0917295479014
 20
-35.32527092916183
 30
0.0
 10
-79.62217129966164
 20
-35.41206693598733
 30
0.0
 10
-80.15686646785625
 20
-35.50907900000363
 30
0.0
 10
-80.69582857191548
 20
-35.6162547176996
 30
0.0
 10
-81.23900667577388
 20
-35.73379157371171
 30
0.0
 10
-81.78659458350928
 20
-35.86093895545879
 30
0.0
 10
-82.15196118203478
 20
-35.95346804833471
 30
0.0
 10
-82.33570037556063
 20
-36.00000000000001
 30
0.0
  0
SPLINE
  5
286
330
23
100
AcDbEntity
 67
     1
  8
0
  6
Continuous
 62
     7
370
    25
100
AcDbSpline
210
0.0
220
0.0
230
1.0
 70
     8
 71
     3
 72
    20
 73
    16
 74
     0
 42
0.000000001
 43
0.00000001
 40
0.0
 40
0.0
 40
0.0
 40
0.0
 40
0.0824551542648153
 40
0.1638909617363242
 40
0.2443316123424572
 40
0.3238022047590176
 40
0.402328767817889
 40
0.4799382801880764
 40
0.5566586879850698
 40
0.6325189199411824
 40
0.7075488997494708
 40
0.781779555177863
 40
0.8552428235391638
 40
0.9279716530981469
 40
1.0
 40
1.0
 40
1.0
 40
1.0
 10
-67.66429962443942
 20
-36.00000000000006
 30
0.0
 10
-67.86210177898093
 20
-35.94997763278015
 30
0.0
 10
-68.255260771046
 20
-35.85055129679067
 30
0.0
 10
-68.84446172621197
 20
-35.71491769789201
 30
0.0
 10
-69.42854943014322
 20
-35.59043180895146
 30
0.0
 10
-70.00774810115207
 20
-35.4779618612525
 30
0.0
 10
-70.58199891331151
 20
-35.37727994411834
 30
0.0
 10
-71.15131748304576
 20
-35.288446017565
 30
0.0
 10
-71.7156998117802
 20
-35.2114462800123
 30
0.0
 10
-72.2751470326834
 20
-35.1462791734939
 30
0.0
 10
-72.82965889804318
 20
-35.09296637184679
 30
0.0
 10
-73.37923546626739
 20
-35.05142641239966
 30
0.0
 10
-73.92387673875021
 20
-35.02196151223469
 30
0.0
 10
-74.46358243550046
 20
-35.00346258737992
 30
0.0
 10
-74.8217719069951
 20
-35.00115046632781
 30
0.0
 10
-75.00000000000011
 20
-35.00000000000004
 30
0.0
  0
SPLINE
  5
288
330
23
100
AcDbEntity
 67
     1
  8
0
  6
Continuous
 62
     7
370
    25
100
AcDbSpline
210
0.0
220
0.0
230
1.0
 70
     8
 71
     3
 72
    21
 73
    17
 74
     0
 42
0.000000001
 43
0.00000001
 40
0.0
 40
0.0
 40
0.0
 40
0.0
 40
0.0668606848061357
 40
0.1343232364320308
 40
0.2024149282418004
 40
0.2711622848285476
 40
0.3405910793184642
 40
0.4107263336025181
 40
0.4815923212493695
 40
0.553212572850068
 40
0.6256098835462481
 40
0.6988063224981558
 40
0.772823244056334
 40
0.8476813004107969
 40
0.9234004555031149
 40
1.0
 40
1.0
 40
1.0
 40
1.0
 10
-75.00000000000011
 20
-48.0
 30
0.0
 10
-74.83455892370574
 20
-47.99900875537524
 30
0.0
 10
-74.50218750287613
 20
-47.99701734313527
 30
0.0
 10
-74.0015391593292
 20
-47.9810719053363
 30
0.0
 10
-73.49663453525339
 20
-47.95567007231111
 30
0.0
 10
-72.9874738445611
 20
-47.91985753871677
 30
0.0
 10
-72.4740570718002
 20
-47.87389402919946
 30
0.0
 10
-71.95638425364334
 20
-47.81770924429098
 30
0.0
 10
-71.43445530881169
 20
-47.75132289391052
 30
0.0
 10
-70.9082704520988
 20
-47.67472907083821
 30
0.0
 10
-70.37782870033854
 20
-47.58793306401267
 30
0.0
 10
-69.84313353214392
 20
-47.49092099999641
 30
0.0
 10
-69.3041714280847
 20
-47.38374528230041
 30
0.0
 10
-68.76099332422623
 20
-47.26620842628831
 30
0.0
 10
-68.21340541649084
 20
-47.13906104454122
 30
0.0
 10
-67.84803881796539
 20
-47.04653195166529
 30
0.0
 10
-67.66429962443951
 20
-46.99999999999999
 30
0.0
  0
SPLINE
  5
28A
330
23
100
AcDbEntity
 67
     1
  8
0
  6
Continuous
 62
     7
370
    25
100
AcDbSpline
210
0.0
220
0.0
230
1.0
 70
     8
 71
     3
 72
    20
 73
    16
 74
     0
 42
0.000000001
 43
0.00000001
 40
0.0
 40
0.0
 40
0.0
 40
0.0
 40
0.0824551542648199
 40
0.1638909617363331
 40
0.2443316123424709
 40
0.3238022047590338
 40
0.4023287678179082
 40
0.4799382801880972
 40
0.5566586879850906
 40
0.632518919941201
 40
0.7075488997494874
 40
0.7817795551778769
 40
0.855242823539173
 40
0.9279716530981518
 40
1.0
 40
1.0
 40
1.0
 40
1.0
 10
-66.11048183290605
 20
-47.0
 30
0.0
 10
-66.0115807556353
 20
-47.0500223672199
 30
0.0
 10
-65.81500125960274
 20
-47.14944870320938
 30
0.0
 10
-65.52040078201973
 20
-47.28508230210804
 30
0.0
 10
-65.22835693005409
 20
-47.40956819104859
 30
0.0
 10
-64.93875759454964
 20
-47.52203813874755
 30
0.0
 10
-64.65163218846993
 20
-47.62272005588171
 30
0.0
 10
-64.36697290360277
 20
-47.71155398243503
 30
0.0
 10
-64.08478173923558
 20
-47.78855371998775
 30
0.0
 10
-63.80505812878398
 20
-47.85372082650615
 30
0.0
 10
-63.5278021961041
 20
-47.90703362815325
 30
0.0
 10
-63.25301391199201
 20
-47.94857358760038
 30
0.0
 10
-62.9806932757506
 20
-47.97803848776534
 30
0.0
 10
-62.71084042737547
 20
-47.99653741262012
 30
0.0
 10
-62.5317456916282
 20
-47.99884953367225
 30
0.0
 10
-62.44263164512568
 20
-48.0
 30
0.0
  0
SPLINE
  5
28C
330
23
100
AcDbEntity
 67
     1
  8
0
  6
Continuous
 62
     7
370
    25
100
AcDbSpline
210
0.0
220
0.0
230
1.0
 70
     8
 71
     3
 72
    21
 73
    17
 74
     0
 42
0.000000001
 43
0.00000001
 40
0.0
 40
0.0
 40
0.0
 40
0.0
 40
0.0668606848061289
 40
0.1343232364320195
 40
0.202414928241786
 40
0.2711622848285303
 40
0.3405910793184439
 40
0.4107263336024972
 40
0.4815923212493488
 40
0.5532125728500472
 40
0.625609883546229
 40
0.6988063224981375
 40
0.7728232440563197
 40
0.8476813004107859
 40
0.9234004555031092
 40
1.0
 40
1.0
 40
1.0
 40
1.0
 10
-62.44263164512567
 20
-35.0
 30
0.0
 10
-62.52535218327285
 20
-35.00099124462478
 30
0.0
 10
-62.69153789368767
 20
-35.00298265686475
 30
0.0
 10
-62.94186206546109
 20
-35.0189280946637
 30
0.0
 10
-63.194314377499
 20
-35.04432992768889
 30
0.0
 10
-63.44889472284511
 20
-35.08014246128324
 30
0.0
 10
-63.70560310922559
 20
-35.12610597080055
 30
0.0
 10
-63.964439518304
 20
-35.18229075570901
 30
0.0
 10
-64.22540399071984
 20
-35.24867710608947
 30
0.0
 10
-64.4884964190763
 20
-35.32527092916182
 30
0.0
 10
-64.75371729495643
 20
-35.41206693598731
 30
0.0
 10
-65.02106487905375
 20
-35.50907900000362
 30
0.0
 10
-65.29054593108336
 20
-35.61625471769958
 30
0.0
 10
-65.56213498301265
 20
-35.73379157371172
 30
0.0
 10
-65.83592893688031
 20
-35.86093895545877
 30
0.0
 10
-66.0186122361431
 20
-35.9534680483347
 30
0.0
 10
-66.11048183290605
 20
-36.00000000000001
 30
0.0
  0
SPLINE
  5
28F
330
23
100
AcDbEntity
 67
     1
  8
0
  6
Continuous
 62
     7
370
    25
100
AcDbSpline
210
0.0
220
0.0
230
1.0
 70
     8
 71
     3
 72
    20
 73
    16
 74
     0
 42
0.000000001
 43
0.00000001
 40
0.0
 40
0.0
 40
0.0
 40
0.0
 40
0.0824551542648197
 40
0.1638909617363321
 40
0.244331612342469
 40
0.3238022047590312
 40
0.4023287678179042
 40
0.4799382801880939
 40
0.5566586879850877
 40
0.6325189199411969
 40
0.7075488997494843
 40
0.7817795551778738
 40
0.8552428235391712
 40
0.9279716530981499
 40
0.9999999999999999
 40
0.9999999999999999
 40
0.9999999999999999
 40
0.9999999999999999
 10
-83.88951816709415
 20
-35.99999999999999
 30
0.0
 10
-83.9884192443649
 20
-35.94997763278008
 30
0.0
 10
-84.18499874039748
 20
-35.8505512967906
 30
0.0
 10
-84.47959921798044
 20
-35.71491769789194
 30
0.0
 10
-84.77164306994608
 20
-35.5904318089514
 30
0.0
 10
-85.06124240545053
 20
-35.47796186125243
 30
0.0
 10
-85.34836781153021
 20
-35.37727994411829
 30
0.0
 10
-85.63302709639736
 20
-35.28844601756493
 30
0.0
 10
-85.91521826076456
 20
-35.21144628001225
 30
0.0
 10
-86.19494187121614
 20
-35.14627917349385
 30
0.0
 10
-86.47219780389604
 20
-35.09296637184674
 30
0.0
 10
-86.74698608800809
 20
-35.05142641239962
 30
0.0
 10
-87.0193067242495
 20
-35.02196151223466
 30
0.0
 10
-87.28915957262461
 20
-35.00346258737986
 30
0.0
 10
-87.46825430837188
 20
-35.00115046632776
 30
0.0
 10
-87.5573683548744
 20
-34.99999999999999
 30
0.0
  0
SPLINE
  5
292
330
23
100
AcDbEntity
 67
     1
  8
0
  6
Continuous
 62
     7
370
    25
100
AcDbSpline
210
0.0
220
0.0
230
1.0
 70
     8
 71
     3
 72
    20
 73
    16
 74
     0
 42
0.000000001
 43
0.00000001
 40
0.0
 40
0.0
 40
0.0
 40
0.0
 40
0.0824551542648193
 40
0.1638909617363314
 40
0.2443316123424686
 40
0.3238022047590303
 40
0.4023287678179035
 40
0.4799382801880923
 40
0.5566586879850866
 40
0.6325189199411969
 40
0.7075488997494835
 40
0.7817795551778735
 40
0.8552428235391716
 40
0.9279716530981502
 40
1.0
 40
1.0
 40
1.0
 40
1.0
 10
-58.7747814573453
 20
-36.00000000000001
 30
0.0
 10
-58.87368253461606
 20
-35.9499776327801
 30
0.0
 10
-59.07026203064861
 20
-35.85055129679062
 30
0.0
 10
-59.36486250823162
 20
-35.71491769789197
 30
0.0
 10
-59.65690636019724
 20
-35.59043180895141
 30
0.0
 10
-59.94650569570172
 20
-35.47796186125246
 30
0.0
 10
-60.23363110178141
 20
-35.37727994411829
 30
0.0
 10
-60.51829038664857
 20
-35.28844601756497
 30
0.0
 10
-60.80048155101578
 20
-35.21144628001226
 30
0.0
 10
-61.08020516146737
 20
-35.14627917349386
 30
0.0
 10
-61.35746109414725
 20
-35.09296637184675
 30
0.0
 10
-61.63224937825933
 20
-35.05142641239963
 30
0.0
 10
-61.90457001450077
 20
-35.02196151223467
 30
0.0
 10
-62.17442286287586
 20
-35.00346258737987
 30
0.0
 10
-62.35351759862318
 20
-35.00115046632777
 30
0.0
 10
-62.44263164512567
 20
-35.0
 30
0.0
  0
SPLINE
  5
294
330
23
100
AcDbEntity
 67
     1
  8
0
  6
Continuous
 62
     7
370
    25
100
AcDbSpline
210
0.0
220
0.0
230
1.0
 70
     8
 71
     3
 72
    21
 73
    17
 74
     0
 42
0.000000001
 43
0.00000001
 40
0.0
 40
0.0
 40
0.0
 40
0.0
 40
0.0668606848061396
 40
0.1343232364320392
 40
0.2024149282418124
 40
0.2711622848285634
 40
0.3405910793184806
 40
0.4107263336025365
 40
0.4815923212493888
 40
0.5532125728500857
 40
0.6256098835462655
 40
0.6988063224981704
 40
0.7728232440563475
 40
0.8476813004108056
 40
0.9234004555031206
 40
0.9999999999999999
 40
0.9999999999999999
 40
0.9999999999999999
 40
0.9999999999999999
 10
-62.44263164512568
 20
-48.0
 30
0.0
 10
-62.3599111069785
 20
-47.99900875537523
 30
0.0
 10
-62.19372539656366
 20
-47.99701734313525
 30
0.0
 10
-61.94340122479018
 20
-47.9810719053363
 30
0.0
 10
-61.69094891275224
 20
-47.95567007231109
 30
0.0
 10
-61.43636856740613
 20
-47.91985753871676
 30
0.0
 10
-61.17966018102562
 20
-47.87389402919946
 30
0.0
 10
-60.92082377194721
 20
-47.81770924429097
 30
0.0
 10
-60.65985929953137
 20
-47.75132289391054
 30
0.0
 10
-60.3967668711749
 20
-47.6747290708382
 30
0.0
 10
-60.13154599529481
 20
-47.58793306401269
 30
0.0
 10
-59.86419841119746
 20
-47.4909209999964
 30
0.0
 10
-59.59471735916787
 20
-47.38374528230042
 30
0.0
 10
-59.32312830723867
 20
-47.26620842628832
 30
0.0
 10
-59.04933435337097
 20
-47.13906104454123
 30
0.0
 10
-58.86665105410824
 20
-47.0465319516653
 30
0.0
 10
-58.77478145734531
 20
-47.00000000000001
 30
0.0
  0
SPLINE
  5
295
330
23
100
AcDbEntity
 67
     1
  8
0
  6
Continuous
 62
     7
370
    25
100
AcDbSpline
210
0.0
220
0.0
230
1.0
 70
     8
 71
     3
 72
    21
 73
    17
 74
     0
 42
0.000000001
 43
0.00000001
 40
0.0
 40
0.0
 40
0.0
 40
0.0
 40
0.0668606848061285
 40
0.1343232364320187
 40
0.2024149282417856
 40
0.2711622848285302
 40
0.3405910793184433
 40
0.4107263336024972
 40
0.481592321249349
 40
0.5532125728500469
 40
0.625609883546229
 40
0.6988063224981381
 40
0.7728232440563197
 40
0.8476813004107863
 40
0.9234004555031097
 40
0.9999999999999999
 40
0.9999999999999999
 40
0.9999999999999999
 40
0.9999999999999999
 10
-87.5573683548744
 20
-34.99999999999999
 30
0.0
 10
-87.64008889302157
 20
-35.00099124462476
 30
0.0
 10
-87.80627460343638
 20
-35.00298265686474
 30
0.0
 10
-88.05659877520978
 20
-35.01892809466369
 30
0.0
 10
-88.30905108724772
 20
-35.04432992768889
 30
0.0
 10
-88.56363143259382
 20
-35.08014246128324
 30
0.0
 10
-88.82033981897428
 20
-35.12610597080055
 30
0.0
 10
-89.07917622805269
 20
-35.182290755709
 30
0.0
 10
-89.34014070046852
 20
-35.24867710608947
 30
0.0
 10
-89.60323312882498
 20
-35.3252709291618
 30
0.0
 10
-89.86845400470507
 20
-35.41206693598731
 30
0.0
 10
-90.13580158880242
 20
-35.5090790000036
 30
0.0
 10
-90.40528264083201
 20
-35.61625471769958
 30
0.0
 10
-90.67687169276131
 20
-35.73379157371171
 30
0.0
 10
-90.95066564662902
 20
-35.86093895545878
 30
0.0
 10
-91.13334894589175
 20
-35.95346804833471
 30
0.0
 10
-91.2252185426547
 20
-36.00000000000001
 30
0.0
  0
SPLINE
  5
296
330
23
100
AcDbEntity
 67
     1
  8
0
  6
Continuous
 62
     7
370
    25
100
AcDbSpline
210
0.0
220
0.0
230
1.0
 70
     8
 71
     3
 72
    20
 73
    16
 74
     0
 42
0.000000001
 43
0.00000001
 40
0.0
 40
0.0
 40
0.0
 40
0.0
 40
0.0824551542648203
 40
0.1638909617363337
 40
0.2443316123424721
 40
0.3238022047590343
 40
0.4023287678179083
 40
0.4799382801880976
 40
0.5566586879850912
 40
0.6325189199412011
 40
0.7075488997494882
 40
0.781779555177877
 40
0.8552428235391737
 40
0.9279716530981518
 40
0.9999999999999999
 40
0.9999999999999999
 40
0.9999999999999999
 40
0.9999999999999999
 10
-91.22521854265472
 20
-47.0
 30
0.0
 10
-91.12631746538393
 20
-47.0500223672199
 30
0.0
 10
-90.9297379693514
 20
-47.14944870320937
 30
0.0
 10
-90.63513749176838
 20
-47.28508230210804
 30
0.0
 10
-90.34309363980277
 20
-47.40956819104861
 30
0.0
 10
-90.05349430429835
 20
-47.52203813874758
 30
0.0
 10
-89.76636889821862
 20
-47.62272005588169
 30
0.0
 10
-89.48170961335146
 20
-47.71155398243504
 30
0.0
 10
-89.19951844898428
 20
-47.78855371998776
 30
0.0
 10
-88.91979483853265
 20
-47.85372082650611
 30
0.0
 10
-88.64253890585282
 20
-47.90703362815327
 30
0.0
 10
-88.36775062174071
 20
-47.94857358760038
 30
0.0
 10
-88.0954299854993
 20
-47.97803848776535
 30
0.0
 10
-87.8255771371242
 20
-47.99653741262011
 30
0.0
 10
-87.64648240137693
 20
-47.99884953367224
 30
0.0
 10
-87.55736835487441
 20
-48.0
 30
0.0
  0
SPLINE
  5
2A3
330
23
100
AcDbEntity
 67
     1
  8
0
  6
Continuous
 62
     7
370
    25
100
AcDbSpline
210
0.0
220
0.0
230
1.0
 70
     8
 71
     3
 72
    21
 73
    17
 74
     0
 42
0.000000001
 43
0.00000001
 40
0.0
 40
0.0
 40
0.0
 40
0.0
 40
0.0668606848061302
 40
0.1343232364320232
 40
0.2024149282417917
 40
0.2711622848285378
 40
0.340591079318451
 40
0.4107263336025054
 40
0.4815923212493574
 40
0.5532125728500545
 40
0.625609883546237
 40
0.6988063224981449
 40
0.7728232440563254
 40
0.8476813004107905
 40
0.9234004555031127
 40
0.9999999999999999
 40
0.9999999999999999
 40
0.9999999999999999
 40
0.9999999999999999
 10
62.44263164512568
 20
-48.0
 30
0.0
 10
62.52535218327284
 20
-47.99900875537522
 30
0.0
 10
62.69153789368763
 20
-47.99701734313525
 30
0.0
 10
62.94186206546111
 20
-47.98107190533629
 30
0.0
 10
63.19431437749903
 20
-47.95567007231113
 30
0.0
 10
63.44889472284515
 20
-47.91985753871676
 30
0.0
 10
63.70560310922564
 20
-47.87389402919946
 30
0.0
 10
63.96443951830403
 20
-47.817709244291
 30
0.0
 10
64.2254039907199
 20
-47.75132289391053
 30
0.0
 10
64.48849641907631
 20
-47.67472907083818
 30
0.0
 10
64.75371729495647
 20
-47.58793306401269
 30
0.0
 10
65.02106487905381
 20
-47.4909209999964
 30
0.0
 10
65.2905459310834
 20
-47.38374528230042
 30
0.0
 10
65.56213498301268
 20
-47.26620842628831
 30
0.0
 10
65.83592893688036
 20
-47.13906104454122
 30
0.0
 10
66.01861223614313
 20
-47.0465319516653
 30
0.0
 10
66.11048183290605
 20
-47.0
 30
0.0
  0
SPLINE
  5
2A5
330
23
100
AcDbEntity
 67
     1
  8
0
  6
Continuous
 62
     7
370
    25
100
AcDbSpline
210
0.0
220
0.0
230
1.0
 70
     8
 71
     3
 72
    20
 73
    16
 74
     0
 42
0.000000001
 43
0.00000001
 40
0.0
 40
0.0
 40
0.0
 40
0.0
 40
0.0824551542648182
 40
0.1638909617363284
 40
0.2443316123424641
 40
0.3238022047590237
 40
0.402328767817898
 40
0.4799382801880866
 40
0.556658687985079
 40
0.6325189199411907
 40
0.7075488997494782
 40
0.7817795551778677
 40
0.8552428235391676
 40
0.9279716530981478
 40
1.0
 40
1.0
 40
1.0
 40
1.0
 10
67.66429962443951
 20
-46.99999999999999
 30
0.0
 10
67.86210177898101
 20
-47.0500223672199
 30
0.0
 10
68.25526077104608
 20
-47.14944870320939
 30
0.0
 10
68.8444617262121
 20
-47.28508230210804
 30
0.0
 10
69.42854943014333
 20
-47.40956819104859
 30
0.0
 10
70.00774810115219
 20
-47.52203813874756
 30
0.0
 10
70.58199891331162
 20
-47.62272005588169
 30
0.0
 10
71.1513174830459
 20
-47.71155398243507
 30
0.0
 10
71.7156998117803
 20
-47.78855371998776
 30
0.0
 10
72.2751470326835
 20
-47.85372082650615
 30
0.0
 10
72.82965889804323
 20
-47.90703362815325
 30
0.0
 10
73.37923546626743
 20
-47.94857358760037
 30
0.0
 10
73.92387673875027
 20
-47.97803848776534
 30
0.0
 10
74.46358243550046
 20
-47.99653741262011
 30
0.0
 10
74.82177190699508
 20
-47.99884953367224
 30
0.0
 10
75.00000000000011
 20
-48.0
 30
0.0
  0
SPLINE
  5
2A6
330
23
100
AcDbEntity
 67
     1
  8
0
  6
Continuous
 62
     7
370
    25
100
AcDbSpline
210
0.0
220
0.0
230
1.0
 70
     8
 71
     3
 72
    21
 73
    17
 74
     0
 42
0.000000001
 43
0.00000001
 40
0.0
 40
0.0
 40
0.0
 40
0.0
 40
0.0668606848061337
 40
0.1343232364320288
 40
0.2024149282418001
 40
0.2711622848285492
 40
0.3405910793184638
 40
0.4107263336025194
 40
0.4815923212493705
 40
0.5532125728500693
 40
0.6256098835462494
 40
0.6988063224981566
 40
0.7728232440563348
 40
0.8476813004107975
 40
0.9234004555031171
 40
1.0
 40
1.0
 40
1.0
 40
1.0
 10
75.00000000000011
 20
-48.0
 30
0.0
 10
75.16544107629446
 20
-47.99900875537522
 30
0.0
 10
75.49781249712406
 20
-47.99701734313524
 30
0.0
 10
75.99846084067103
 20
-47.98107190533629
 30
0.0
 10
76.50336546474682
 20
-47.95567007231111
 30
0.0
 10
77.01252615543912
 20
-47.91985753871674
 30
0.0
 10
77.52594292820004
 20
-47.87389402919945
 30
0.0
 10
78.04361574635685
 20
-47.81770924429098
 30
0.0
 10
78.56554469118856
 20
-47.75132289391053
 30
0.0
 10
79.09172954790141
 20
-47.67472907083816
 30
0.0
 10
79.62217129966167
 20
-47.58793306401267
 30
0.0
 10
80.15686646785633
 20
-47.4909209999964
 30
0.0
 10
80.69582857191556
 20
-47.38374528230042
 30
0.0
 10
81.23900667577398
 20
-47.26620842628829
 30
0.0
 10
81.7865945835094
 20
-47.13906104454123
 30
0.0
 10
82.15196118203487
 20
-47.0465319516653
 30
0.0
 10
82.33570037556072
 20
-47.00000000000001
 30
0.0
  0
SPLINE
  5
2A8
330
23
100
AcDbEntity
 67
     1
  8
0
  6
Continuous
 62
     7
370
    25
100
AcDbSpline
210
0.0
220
0.0
230
1.0
 70
     8
 71
     3
 72
    20
 73
    16
 74
     0
 42
0.000000001
 43
0.00000001
 40
0.0
 40
0.0
 40
0.0
 40
0.0
 40
0.0824551542648228
 40
0.1638909617363379
 40
0.2443316123424765
 40
0.3238022047590404
 40
0.4023287678179149
 40
0.4799382801881041
 40
0.5566586879850979
 40
0.6325189199412078
 40
0.7075488997494932
 40
0.7817795551778813
 40
0.8552428235391772
 40
0.9279716530981531
 40
1.0
 40
1.0
 40
1.0
 40
1.0
 10
83.88951816709415
 20
-47.00000000000001
 30
0.0
 10
83.98841924436492
 20
-47.05002236721992
 30
0.0
 10
84.18499874039748
 20
-47.14944870320939
 30
0.0
 10
84.47959921798046
 20
-47.28508230210804
 30
0.0
 10
84.7716430699461
 20
-47.4095681910486
 30
0.0
 10
85.06124240545056
 20
-47.52203813874758
 30
0.0
 10
85.34836781153025
 20
-47.62272005588169
 30
0.0
 10
85.63302709639741
 20
-47.71155398243506
 30
0.0
 10
85.91521826076456
 20
-47.78855371998773
 30
0.0
 10
86.1949418712162
 20
-47.85372082650614
 30
0.0
 10
86.47219780389604
 20
-47.90703362815324
 30
0.0
 10
86.74698608800814
 20
-47.94857358760037
 30
0.0
 10
87.01930672424956
 20
-47.97803848776533
 30
0.0
 10
87.28915957262461
 20
-47.99653741262012
 30
0.0
 10
87.46825430837191
 20
-47.99884953367224
 30
0.0
 10
87.55736835487441
 20
-48.0
 30
0.0
  0
SPLINE
  5
2AE
330
23
100
AcDbEntity
 67
     1
  8
0
  6
Continuous
 62
     7
370
    25
100
AcDbSpline
210
0.0
220
0.0
230
1.0
 70
     8
 71
     3
 72
    21
 73
    17
 74
     0
 42
0.000000001
 43
0.00000001
 40
0.0
 40
0.0
 40
0.0
 40
0.0
 40
0.0668606848061366
 40
0.1343232364320346
 40
0.2024149282418052
 40
0.2711622848285554
 40
0.340591079318471
 40
0.410726333602526
 40
0.4815923212493781
 40
0.5532125728500759
 40
0.625609883546257
 40
0.6988063224981615
 40
0.7728232440563408
 40
0.847681300410801
 40
0.9234004555031178
 40
1.0
 40
1.0
 40
1.0
 40
1.0
 10
75.00000000000011
 20
-35.00000000000004
 30
0.0
 10
74.83455892370574
 20
-35.00099124462481
 30
0.0
 10
74.50218750287613
 20
-35.00298265686477
 30
0.0
 10
74.00153915932913
 20
-35.01892809466374
 30
0.0
 10
73.49663453525336
 20
-35.04432992768893
 30
0.0
 10
72.98747384456102
 20
-35.08014246128329
 30
0.0
 10
72.47405707180009
 20
-35.12610597080059
 30
0.0
 10
71.95638425364325
 20
-35.18229075570906
 30
0.0
 10
71.4344553088116
 20
-35.24867710608953
 30
0.0
 10
70.9082704520987
 20
-35.32527092916186
 30
0.0
 10
70.3778287003384
 20
-35.41206693598736
 30
0.0
 10
69.84313353214381
 20
-35.50907900000367
 30
0.0
 10
69.30417142808457
 20
-35.61625471769963
 30
0.0
 10
68.76099332422612
 20
-35.73379157371177
 30
0.0
 10
68.21340541649076
 20
-35.86093895545883
 30
0.0
 10
67.84803881796527
 20
-35.95346804833476
 30
0.0
 10
67.66429962443941
 20
-36.00000000000006
 30
0.0
  0
SPLINE
  5
2AF
330
23
100
AcDbEntity
 67
     1
  8
0
  6
Continuous
 62
     7
370
    25
100
AcDbSpline
210
0.0
220
0.0
230
1.0
 70
     8
 71
     3
 72
    20
 73
    16
 74
     0
 42
0.000000001
 43
0.00000001
 40
0.0
 40
0.0
 40
0.0
 40
0.0
 40
0.0824551542648171
 40
0.1638909617363262
 40
0.2443316123424608
 40
0.3238022047590214
 40
0.4023287678178948
 40
0.4799382801880842
 40
0.5566586879850774
 40
0.632518919941188
 40
0.7075488997494765
 40
0.7817795551778669
 40
0.8552428235391657
 40
0.9279716530981468
 40
1.0
 40
1.0
 40
1.0
 40
1.0
 10
82.33570037556062
 20
-36.00000000000001
 30
0.0
 10
82.1378982210191
 20
-35.9499776327801
 30
0.0
 10
81.74473922895406
 20
-35.85055129679063
 30
0.0
 10
81.15553827378807
 20
-35.71491769789196
 30
0.0
 10
80.5714505698568
 20
-35.59043180895141
 30
0.0
 10
79.992251898848
 20
-35.47796186125246
 30
0.0
 10
79.41800108668856
 20
-35.37727994411831
 30
0.0
 10
78.8486825169543
 20
-35.28844601756496
 30
0.0
 10
78.28430018821989
 20
-35.21144628001226
 30
0.0
 10
77.72485296731672
 20
-35.1462791734939
 30
0.0
 10
77.17034110195695
 20
-35.09296637184675
 30
0.0
 10
76.62076453373277
 20
-35.05142641239966
 30
0.0
 10
76.07612326124996
 20
-35.0219615122347
 30
0.0
 10
75.53641756449973
 20
-35.00346258737989
 30
0.0
 10
75.17822809300512
 20
-35.00115046632779
 30
0.0
 10
75.00000000000011
 20
-35.00000000000004
 30
0.0
  0
SPLINE
  5
2B1
330
23
100
AcDbEntity
 67
     1
  8
0
  6
Continuous
 62
     7
370
    25
100
AcDbSpline
210
0.0
220
0.0
230
1.0
 70
     8
 71
     3
 72
    20
 73
    16
 74
     0
 42
0.000000001
 43
0.00000001
 40
0.0
 40
0.0
 40
0.0
 40
0.0
 40
0.0824551542648229
 40
0.1638909617363382
 40
0.2443316123424771
 40
0.3238022047590408
 40
0.4023287678179164
 40
0.4799382801881055
 40
0.5566586879850995
 40
0.6325189199412088
 40
0.7075488997494946
 40
0.7817795551778833
 40
0.8552428235391785
 40
0.9279716530981534
 40
1.0
 40
1.0
 40
1.0
 40
1.0
 10
66.11048183290605
 20
-36.00000000000001
 30
0.0
 10
66.01158075563528
 20
-35.94997763278008
 30
0.0
 10
65.81500125960272
 20
-35.85055129679061
 30
0.0
 10
65.52040078201972
 20
-35.71491769789197
 30
0.0
 10
65.22835693005406
 20
-35.5904318089514
 30
0.0
 10
64.93875759454961
 20
-35.47796186125244
 30
0.0
 10
64.65163218846988
 20
-35.37727994411829
 30
0.0
 10
64.36697290360277
 20
-35.28844601756494
 30
0.0
 10
64.08478173923552
 20
-35.21144628001224
 30
0.0
 10
63.80505812878395
 20
-35.14627917349386
 30
0.0
 10
63.52780219610407
 20
-35.09296637184674
 30
0.0
 10
63.25301391199196
 20
-35.05142641239962
 30
0.0
 10
62.98069327575058
 20
-35.02196151223466
 30
0.0
 10
62.71084042737546
 20
-35.00346258737986
 30
0.0
 10
62.5317456916282
 20
-35.00115046632776
 30
0.0
 10
62.44263164512569
 20
-35.0
 30
0.0
  0
SPLINE
  5
2B3
330
23
100
AcDbEntity
 67
     1
  8
0
  6
Continuous
 62
     7
370
    25
100
AcDbSpline
210
0.0
220
0.0
230
1.0
 70
     8
 71
     3
 72
    21
 73
    17
 74
     0
 42
0.000000001
 43
0.00000001
 40
0.0
 40
0.0
 40
0.0
 40
0.0
 40
0.0668606848061326
 40
0.1343232364320259
 40
0.2024149282417946
 40
0.2711622848285416
 40
0.3405910793184562
 40
0.4107263336025106
 40
0.4815923212493622
 40
0.5532125728500601
 40
0.6256098835462417
 40
0.6988063224981489
 40
0.7728232440563295
 40
0.8476813004107926
 40
0.9234004555031131
 40
1.0
 40
1.0
 40
1.0
 40
1.0
 10
87.55736835487438
 20
-35.0
 30
0.0
 10
87.47464781672723
 20
-35.00099124462478
 30
0.0
 10
87.30846210631242
 20
-35.00298265686475
 30
0.0
 10
87.05813793453896
 20
-35.01892809466371
 30
0.0
 10
86.80568562250106
 20
-35.04432992768889
 30
0.0
 10
86.55110527715493
 20
-35.08014246128324
 30
0.0
 10
86.29439689077446
 20
-35.12610597080055
 30
0.0
 10
86.03556048169607
 20
-35.182290755709
 30
0.0
 10
85.77459600928026
 20
-35.2486771060895
 30
0.0
 10
85.51150358092377
 20
-35.32527092916181
 30
0.0
 10
85.24628270504367
 20
-35.41206693598733
 30
0.0
 10
84.97893512094635
 20
-35.50907900000361
 30
0.0
 10
84.70945406891677
 20
-35.6162547176996
 30
0.0
 10
84.4378650169875
 20
-35.7337915737117
 30
0.0
 10
84.16407106311983
 20
-35.86093895545878
 30
0.0
 10
83.9813877638571
 20
-35.95346804833472
 30
0.0
 10
83.88951816709414
 20
-36.00000000000001
 30
0.0
  0
SPLINE
  5
2B6
330
23
100
AcDbEntity
 67
     1
  8
0
  6
Continuous
 62
     7
370
    25
100
AcDbSpline
210
0.0
220
0.0
230
1.0
 70
     8
 71
     3
 72
    20
 73
    16
 74
     0
 42
0.000000001
 43
0.00000001
 40
0.0
 40
0.0
 40
0.0
 40
0.0
 40
0.0824551542648109
 40
0.163890961736317
 40
0.2443316123424492
 40
0.3238022047590064
 40
0.4023287678178778
 40
0.4799382801880652
 40
0.556658687985059
 40
0.6325189199411705
 40
0.7075488997494603
 40
0.7817795551778544
 40
0.8552428235391567
 40
0.927971653098142
 40
0.9999999999999999
 40
0.9999999999999999
 40
0.9999999999999999
 40
0.9999999999999999
 10
58.77478145734531
 20
-47.0
 30
0.0
 10
58.87368253461607
 20
-47.05002236721991
 30
0.0
 10
59.07026203064859
 20
-47.14944870320939
 30
0.0
 10
59.36486250823156
 20
-47.28508230210801
 30
0.0
 10
59.6569063601972
 20
-47.40956819104861
 30
0.0
 10
59.94650569570161
 20
-47.52203813874756
 30
0.0
 10
60.23363110178133
 20
-47.62272005588167
 30
0.0
 10
60.51829038664845
 20
-47.71155398243506
 30
0.0
 10
60.80048155101569
 20
-47.78855371998776
 30
0.0
 10
61.08020516146726
 20
-47.85372082650613
 30
0.0
 10
61.3574610941472
 20
-47.90703362815328
 30
0.0
 10
61.63224937825927
 20
-47.94857358760038
 30
0.0
 10
61.9045700145007
 20
-47.97803848776532
 30
0.0
 10
62.17442286287584
 20
-47.99653741262013
 30
0.0
 10
62.35351759862316
 20
-47.99884953367224
 30
0.0
 10
62.44263164512568
 20
-48.0
 30
0.0
  0
SPLINE
  5
2B8
330
23
100
AcDbEntity
 67
     1
  8
0
  6
Continuous
 62
     7
370
    25
100
AcDbSpline
210
0.0
220
0.0
230
1.0
 70
     8
 71
     3
 72
    21
 73
    17
 74
     0
 42
0.000000001
 43
0.00000001
 40
0.0
 40
0.0
 40
0.0
 40
0.0
 40
0.0668606848061321
 40
0.1343232364320259
 40
0.2024149282417936
 40
0.2711622848285407
 40
0.3405910793184549
 40
0.4107263336025088
 40
0.4815923212493607
 40
0.5532125728500588
 40
0.6256098835462405
 40
0.6988063224981477
 40
0.7728232440563283
 40
0.8476813004107919
 40
0.923400455503113
 40
1.0
 40
1.0
 40
1.0
 40
1.0
 10
62.44263164512568
 20
-34.99999999999999
 30
0.0
 10
62.35991110697851
 20
-35.00099124462477
 30
0.0
 10
62.19372539656369
 20
-35.00298265686473
 30
0.0
 10
61.94340122479021
 20
-35.01892809466369
 30
0.0
 10
61.69094891275234
 20
-35.04432992768889
 30
0.0
 10
61.43636856740618
 20
-35.08014246128324
 30
0.0
 10
61.17966018102573
 20
-35.12610597080054
 30
0.0
 10
60.92082377194731
 20
-35.18229075570901
 30
0.0
 10
60.65985929953148
 20
-35.24867710608946
 30
0.0
 10
60.39676687117502
 20
-35.3252709291618
 30
0.0
 10
60.13154599529489
 20
-35.41206693598729
 30
0.0
 10
59.86419841119756
 20
-35.50907900000361
 30
0.0
 10
59.59471735916795
 20
-35.61625471769956
 30
0.0
 10
59.32312830723871
 20
-35.7337915737117
 30
0.0
 10
59.04933435337099
 20
-35.86093895545875
 30
0.0
 10
58.86665105410825
 20
-35.95346804833469
 30
0.0
 10
58.77478145734531
 20
-35.99999999999999
 30
0.0
  0
SPLINE
  5
2B9
330
23
100
AcDbEntity
 67
     1
  8
0
  6
Continuous
 62
     7
370
    25
100
AcDbSpline
210
0.0
220
0.0
230
1.0
 70
     8
 71
     3
 72
    21
 73
    17
 74
     0
 42
0.000000001
 43
0.00000001
 40
0.0
 40
0.0
 40
0.0
 40
0.0
 40
0.0668606848061305
 40
0.1343232364320246
 40
0.2024149282417929
 40
0.2711622848285395
 40
0.3405910793184534
 40
0.4107263336025077
 40
0.4815923212493596
 40
0.5532125728500574
 40
0.6256098835462393
 40
0.6988063224981463
 40
0.7728232440563271
 40
0.8476813004107913
 40
0.923400455503113
 40
1.0
 40
1.0
 40
1.0
 40
1.0
 10
87.55736835487441
 20
-48.0
 30
0.0
 10
87.6400888930216
 20
-47.99900875537523
 30
0.0
 10
87.80627460343639
 20
-47.99701734313526
 30
0.0
 10
88.05659877520985
 20
-47.98107190533628
 30
0.0
 10
88.30905108724775
 20
-47.95567007231112
 30
0.0
 10
88.56363143259388
 20
-47.91985753871676
 30
0.0
 10
88.82033981897432
 20
-47.87389402919944
 30
0.0
 10
89.07917622805275
 20
-47.817709244291
 30
0.0
 10
89.34014070046857
 20
-47.7513228939105
 30
0.0
 10
89.60323312882501
 20
-47.67472907083819
 30
0.0
 10
89.86845400470517
 20
-47.58793306401267
 30
0.0
 10
90.13580158880247
 20
-47.4909209999964
 30
0.0
 10
90.40528264083207
 20
-47.38374528230042
 30
0.0
 10
90.67687169276134
 20
-47.2662084262883
 30
0.0
 10
90.95066564662903
 20
-47.13906104454123
 30
0.0
 10
91.13334894589178
 20
-47.0465319516653
 30
0.0
 10
91.22521854265472
 20
-47.0
 30
0.0
  0
SPLINE
  5
2BA
330
23
100
AcDbEntity
 67
     1
  8
0
  6
Continuous
 62
     7
370
    25
100
AcDbSpline
210
0.0
220
0.0
230
1.0
 70
     8
 71
     3
 72
    20
 73
    16
 74
     0
 42
0.000000001
 43
0.00000001
 40
0.0
 40
0.0
 40
0.0
 40
0.0
 40
0.0824551542648236
 40
0.1638909617363387
 40
0.2443316123424783
 40
0.3238022047590425
 40
0.4023287678179176
 40
0.4799382801881073
 40
0.5566586879851008
 40
0.6325189199412106
 40
0.7075488997494958
 40
0.7817795551778834
 40
0.8552428235391787
 40
0.927971653098154
 40
1.0
 40
1.0
 40
1.0
 40
1.0
 10
91.22521854265469
 20
-36.00000000000001
 30
0.0
 10
91.12631746538392
 20
-35.94997763278009
 30
0.0
 10
90.92973796935136
 20
-35.85055129679061
 30
0.0
 10
90.63513749176835
 20
-35.71491769789196
 30
0.0
 10
90.34309363980273
 20
-35.59043180895141
 30
0.0
 10
90.05349430429825
 20
-35.47796186125245
 30
0.0
 10
89.76636889821857
 20
-35.3772799441183
 30
0.0
 10
89.48170961335141
 20
-35.28844601756494
 30
0.0
 10
89.19951844898422
 20
-35.21144628001225
 30
0.0
 10
88.91979483853262
 20
-35.14627917349386
 30
0.0
 10
88.64253890585272
 20
-35.09296637184674
 30
0.0
 10
88.36775062174071
 20
-35.05142641239964
 30
0.0
 10
88.09542998549927
 20
-35.02196151223467
 30
0.0
 10
87.8255771371242
 20
-35.00346258737986
 30
0.0
 10
87.64648240137689
 20
-35.00115046632777
 30
0.0
 10
87.55736835487438
 20
-35.0
 30
0.0
  0
SPLINE
  5
2C5
330
23
100
AcDbEntity
 67
     1
  8
0
  6
Continuous
 62
     7
370
    25
100
AcDbSpline
210
0.0
220
0.0
230
1.0
 70
     8
 71
     3
 72
    34
 73
    30
 74
     0
 42
0.000000001
 43
0.00000001
 40
0.0
 40
0.0
 40
0.0
 40
0.0
 40
0.0177485062617467
 40
0.0354549082101973
 40
0.0531357289636973
 40
0.0708075634228042
 40
0.0884870318116161
 40
0.1061907328640022
 40
0.1239351973113789
 40
0.1417368423189591
 40
0.1596119274867342
 40
0.1775765129817695
 40
0.1956464203025274
 40
0.2138371960972981
 40
0.2321640793717529
 40
0.2506419723290464
 40
0.3088534383425336
 40
0.369730773485009
 40
0.4335848566128011
 40
0.5006851197449917
 40
0.6261881394911445
 40
0.7502161352711137
 40
0.7872100024886723
 40
0.8237069269211735
 40
0.8597416586118842
 40
0.8953503006387621
 40
0.9305702662846936
 40
0.9654402197874912
 40
1.0
 40
1.0
 40
1.0
 40
1.0
 10
73.17824510197002
 20
-7.389262134071896
 30
0.0
 10
73.29449610299851
 20
-7.37403615267088
 30
0.0
 10
73.52672232587177
 20
-7.343620310062939
 30
0.0
 10
73.87657267442574
 20
-7.309681371779838
 30
0.0
 10
74.22684135071083
 20
-7.284456888599033
 30
0.0
 10
74.57767987764348
 20
-7.268800049321418
 30
0.0
 10
74.92904654924881
 20
-7.262509544790661
 30
0.0
 10
75.28095135886296
 20
-7.265651770546485
 30
0.0
 10
75.63339047278906
 20
-7.278207007575938
 30
0.0
 10
75.98636378839939
 20
-7.300164300398818
 30
0.0
 10
76.33987033794693
 20
-7.33149570957108
 30
0.0
 10
76.69390917644195
 20
-7.372163755880786
 30
0.0
 10
77.0484805282153
 20
-7.422116489730655
 30
0.0
 10
77.40358032446612
 20
-7.481298462787993
 30
0.0
 10
77.75922115818817
 20
-7.549609603363962
 30
0.0
 10
78.36948999707222
 20
-7.682325713403427
 30
0.0
 10
79.24030301195015
 20
-7.915017765426354
 30
0.0
 10
80.36777748808407
 20
-8.291195696669254
 30
0.0
 10
81.51551735705526
 20
-8.742387431391437
 30
0.0
 10
83.00068054673525
 20
-9.40422293366009
 30
0.0
 10
84.75714123712169
 20
-10.28297286047263
 30
0.0
 10
86.24179554938947
 20
-11.11034919031674
 30
0.0
 10
87.20946781538213
 20
-11.67479066112401
 30
0.0
 10
87.73096923664555
 20
-11.98508424200332
 30
0.0
 10
88.23002337792525
 20
-12.28724518552176
 30
0.0
 10
88.70676999265467
 20
-12.58023032973363
 30
0.0
 10
89.16071277998677
 20
-12.8625467352193
 30
0.0
 10
89.59365503935878
 20
-13.13412237411538
 30
0.0
 10
89.864955686395
 20
-13.30508090948081
 30
0.0
 10
89.99999999999602
 20
-13.3901783035153
 30
0.0
  0
SPLINE
  5
2C7
330
23
100
AcDbEntity
 67
     1
  8
0
  6
Continuous
 62
     7
370
    25
100
AcDbSpline
210
0.0
220
0.0
230
1.0
 70
     8
 71
     3
 72
    33
 73
    29
 74
     0
 42
0.000000001
 43
0.00000001
 40
0.0
 40
0.0
 40
0.0
 40
0.0
 40
0.0201051906718601
 40
0.0403118123865287
 40
0.0606279042324715
 40
0.0810613760985672
 40
0.1016200023945573
 40
0.1223114164628717
 40
0.1431431056798291
 40
0.1641224072377154
 40
0.18525650459343
 40
0.2065524245642046
 40
0.2280170350464494
 40
0.2496570433300031
 40
0.3736424816527752
 40
0.499123723613656
 40
0.5661753017343992
 40
0.6299969876630354
 40
0.6908576309913983
 40
0.7490672216528896
 40
0.7813404292134478
 40
0.8131846776062626
 40
0.8446821361919334
 40
0.8759177125892972
 40
0.9069784630174454
 40
0.9379529182722854
 40
0.9689303490526331
 40
0.9999999999999999
 40
0.9999999999999999
 40
0.9999999999999999
 40
0.9999999999999999
 10
-90.0
 20
-13.39017830351784
 30
0.0
 10
-89.92189841276704
 20
-13.3409642886715
 30
0.0
 10
-89.76530121441107
 20
-13.2422879734028
 30
0.0
 10
-89.52155407440145
 20
-13.0889450562251
 30
0.0
 10
-89.27064299800739
 20
-12.93158572983231
 30
0.0
 10
-89.01196156729412
 20
-12.77007251555109
 30
0.0
 10
-88.74567387691435
 20
-12.60475014046889
 30
0.0
 10
-88.47173582471895
 20
-12.43582839572599
 30
0.0
 10
-88.19015956002458
 20
-12.26354867050533
 30
0.0
 10
-87.90094210491687
 20
-12.08813888118237
 30
0.0
 10
-87.60408419622686
 20
-11.90982496220461
 30
0.0
 10
-87.2995869426966
 20
-11.72882961576743
 30
0.0
 10
-86.98744609391059
 20
-11.54536491959754
 30
0.0
 10
-86.16451705941965
 20
-11.06745638069298
 30
0.0
 10
-84.7598894429265
 20
-10.28452911971241
 30
0.0
 10
-83.00430135798118
 20
-9.405981419699376
 30
0.0
 10
-81.51992424155813
 20
-8.744231273734071
 30
0.0
 10
-80.3729218238253
 20
-8.293084591694619
 30
0.0
 10
-79.24588909723207
 20
-7.916779128445492
 30
0.0
 10
-78.28808621007565
 20
-7.660371023145467
 30
0.0
 10
-77.5003125830521
 20
-7.495804364810957
 30
0.0
 10
-76.87777096792126
 20
-7.393722628660869
 30
0.0
 10
-76.25682869953413
 20
-7.320039602737163
 30
0.0
 10
-75.63747500267013
 20
-7.275158899590202
 30
0.0
 10
-75.01969741274188
 20
-7.2590515636403
 30
0.0
 10
-74.40363399451782
 20
-7.272461812601806
 30
0.0
 10
-73.78883256274956
 20
-7.312817185410991
 30
0.0
 10
-73.3819758250224
 20
-7.363755248220995
 30
0.0
 10
-73.17824510192021
 20
-7.389262134078846
 30
0.0
  0
SPLINE
  5
2CA
330
23
100
AcDbEntity
 67
     1
  8
0
  6
Continuous
 62
     7
370
    25
100
AcDbSpline
210
0.0
220
0.0
230
1.0
 70
     8
 71
     3
 72
    37
 73
    33
 74
     0
 42
0.000000001
 43
0.00000001
 40
0.0
 40
0.0
 40
0.0
 40
0.0
 40
0.0213189509493782
 40
0.0434326861063602
 40
0.0663466420974882
 40
0.0900657051388001
 40
0.1145942801451588
 40
0.1399363497505711
 40
0.1660955248781539
 40
0.1930750882126988
 40
0.2208780316946135
 40
0.2495070889622859
 40
0.3320251295327673
 40
0.4150958188619995
 40
0.4987247535055831
 40
0.5348719755162027
 40
0.5695675574030725
 40
0.6028287417738563
 40
0.6346751016415589
 40
0.6651289385577197
 40
0.6942157577472381
 40
0.7219648345899313
 40
0.748409888064328
 40
0.7793798110588688
 40
0.8092080209713609
 40
0.8380396706383784
 40
0.8660354181658381
 40
0.8933706642665945
 40
0.920233750897083
 40
0.9468230553799953
 40
0.9733430996778069
 40
1.0
 40
1.0
 40
1.0
 40
1.0
 10
85.71428571428153
 20
-17.85357107135219
 30
0.0
 10
85.66134261361131
 20
-17.79130657092406
 30
0.0
 10
85.5534826594153
 20
-17.66445630943203
 30
0.0
 10
85.38259709135113
 20
-17.4640795623064
 30
0.0
 10
85.20089735815947
 20
-17.25202227745235
 30
0.0
 10
85.0075268313775
 20
-17.02775013420419
 30
0.0
 10
84.80223076109574
 20
-16.79141367489276
 30
0.0
 10
84.58460214759778
 20
-16.54296753167113
 30
0.0
 10
84.35428967479723
 20
-16.2824319915605
 30
0.0
 10
84.11097374438793
 20
-16.00976846542298
 30
0.0
 10
83.85425403987568
 20
-15.72511309428536
 30
0.0
 10
83.4173083691088
 20
-15.24434784369631
 30
0.0
 10
82.77672978120714
 20
-14.56453831177561
 30
0.0
 10
81.90063686748877
 20
-13.68594918169531
 30
0.0
 10
81.15348803368312
 20
-12.95960967767506
 30
0.0
 10
80.56237142491676
 20
-12.41039962348538
 30
0.0
 10
80.14814618684031
 20
-12.05183105742912
 30
0.0
 10
79.73762110248668
 20
-11.71786886844097
 30
0.0
 10
79.33133038214176
 20
-11.40911707930351
 30
0.0
 10
78.93028754138739
 20
-11.12543753228742
 30
0.0
 10
78.53532810602543
 20
-10.86680017032133
 30
0.0
 10
78.14708890582745
 20
-10.6334211013098
 30
0.0
 10
77.73892361219436
 20
-10.40926744322798
 30
0.0
 10
77.30640374870116
 20
-10.20178062363273
 30
0.0
 10
76.84545135508888
 20
-10.02029391509494
 30
0.0
 10
76.38593363254785
 20
-9.877723490774228
 30
0.0
 10
75.92842928407612
 20
-9.774342276359397
 30
0.0
 10
75.47366805648431
 20
-9.710219896721945
 30
0.0
 10
75.02224213081382
 20
-9.685177434400906
 30
0.0
 10
74.57508957762776
 20
-9.70016302370481
 30
0.0
 10
74.13184190450988
 20
-9.751811689757918
 30
0.0
 10
73.84335911525254
 20
-9.818779455303655
 30
0.0
 10
73.69874650140545
 20
-9.8523495120963
 30
0.0
  0
SPLINE
  5
2CD
330
23
100
AcDbEntity
 67
     1
  8
0
  6
Continuous
 62
     7
370
    25
100
AcDbSpline
210
0.0
220
0.0
230
1.0
 70
     8
 71
     3
 72
    40
 73
    36
 74
     0
 42
0.000000001
 43
0.00000001
 40
0.0
 40
0.0
 40
0.0
 40
0.0
 40
0.0133549119176355
 40
0.0266505257523145
 40
0.0399123854054986
 40
0.0531662299411705
 40
0.0664378450566932
 40
0.0797529132069297
 40
0.0931368667026991
 40
0.1066147479069991
 40
0.1202110801909148
 40
0.1339497526383326
 40
0.1478539206779412
 40
0.161945923953969
 40
0.1762472219013272
 40
0.1907783467306135
 40
0.2055588728983469
 40
0.2206074016616298
 40
0.2359415589982717
 40
0.2515780050023855
 40
0.3007248385780398
 40
0.3585884490536971
 40
0.4253529391776793
 40
0.50113735264152
 40
0.5507797957319571
 40
0.6005283068670415
 40
0.6503832317412426
 40
0.7003449138401379
 40
0.7504136944521524
 40
0.7924401531674247
 40
0.8342627796131566
 40
0.8759056029352366
 40
0.9173929645629695
 40
0.9587494802876975
 40
1.0
 40
1.0
 40
1.0
 40
1.0
 10
-73.69874650137153
 20
-9.852349512105098
 30
0.0
 10
-73.77090546490437
 20
-9.834638326764027
 30
0.0
 10
-73.9149029938849
 20
-9.79929459676062
 30
0.0
 10
-74.13364511653165
 20
-9.758396032468736
 30
0.0
 10
-74.35350554028555
 20
-9.72659710993396
 30
0.0
 10
-74.57466880528872
 20
-9.70474293988428
 30
0.0
 10
-74.79699813497102
 20
-9.692608074530362
 30
0.0
 10
-75.02044009799862
 20
-9.69025271700704
 30
0.0
 10
-75.24491648347589
 20
-9.697659937894883
 30
0.0
 10
-75.47035342800278
 20
-9.714833054975545
 30
0.0
 10
-75.69667367901727
 20
-9.741769504698693
 30
0.0
 10
-75.92379875959345
 20
-9.778467981892875
 30
0.0
 10
-76.15164843190166
 20
-9.824926610857785
 30
0.0
 10
-76.38014087045897
 20
-9.88114352761114
 30
0.0
 10
-76.60919259991148
 20
-9.947116868656598
 30
0.0
 10
-76.83871855041409
 20
-10.02284465256333
 30
0.0
 10
-77.06863178989774
 20
-10.10832565820297
 30
0.0
 10
-77.29884439981458
 20
-10.20355625291945
 30
0.0
 10
-77.5292639608353
 20
-10.30854273430211
 30
0.0
 10
-77.92288118413158
 20
-10.50439496768664
 30
0.0
 10
-78.50083314597373
 20
-10.8436557524258
 30
0.0
 10
-79.2740475193468
 20
-11.37657666029865
 30
0.0
 10
-80.1164491300644
 20
-12.03396508422501
 30
0.0
 10
-80.87485088420513
 20
-12.69739708501156
 30
0.0
 10
-81.53408438565728
 20
-13.31316469759116
 30
0.0
 10
-82.07814380811163
 20
-13.83791861071508
 30
0.0
 10
-82.60277114783963
 20
-14.36608690364553
 30
0.0
 10
-83.10743816534243
 20
-14.89632699376546
 30
0.0
 10
-83.56271499386679
 20
-15.40279323669105
 30
0.0
 10
-83.97667076835192
 20
-15.87419536990934
 30
0.0
 10
-84.35547830599837
 20
-16.30073508834203
 30
0.0
 10
-84.72037330708619
 20
-16.7125929570138
 30
0.0
 10
-85.0697503542305
 20
-17.10872256802778
 30
0.0
 10
-85.40371181093526
 20
-17.49064446435239
 30
0.0
 10
-85.61084967514509
 20
-17.73269906529888
 30
0.0
 10
-85.71428571428571
 20
-17.8535710713571
 30
0.0
  0
SPLINE
  5
2CF
330
23
100
AcDbEntity
 67
     1
  8
0
  6
Continuous
 62
     7
370
    25
100
AcDbSpline
210
0.0
220
0.0
230
1.0
 70
     8
 71
     3
 72
    33
 73
    29
 74
     0
 42
0.000000001
 43
0.00000001
 40
0.0
 40
0.0
 40
0.0
 40
0.0
 40
0.0474580337894516
 40
0.0937574734282056
 40
0.1389035962774335
 40
0.1829020947026317
 40
0.2257591183635469
 40
0.2674813216690151
 40
0.3080759171047114
 40
0.3475507352422348
 40
0.3859142923506836
 40
0.4231758666571613
 40
0.4593455844398996
 40
0.494434517285029
 40
0.5284547919916994
 40
0.5614197147633739
 40
0.593343911464662
 40
0.6381728177109098
 40
0.6811842364443026
 40
0.7224403127477881
 40
0.7620114626780833
 40
0.7999774786143338
 40
0.8364286954640823
 40
0.8714671662946482
 40
0.9052077657423968
 40
0.9377791035832856
 40
0.9693240941708585
 40
1.0
 40
1.0
 40
1.0
 40
1.0
 10
-65.7059806258588
 20
-19.92617475605263
 30
0.0
 10
-65.77743534324864
 20
-19.73255719193073
 30
0.0
 10
-65.9186003522484
 20
-19.35004885406048
 30
0.0
 10
-66.14014078402846
 20
-18.78743357965742
 30
0.0
 10
-66.36532937056275
 20
-18.24203721015763
 30
0.0
 10
-66.59476604893825
 20
-17.71412724222794
 30
0.0
 10
-66.82799034904197
 20
-17.20363407651745
 30
0.0
 10
-67.06481855843224
 20
-16.71057498223468
 30
0.0
 10
-67.30499923437266
 20
-16.23494478301741
 30
0.0
 10
-67.54830221047602
 20
-15.77674401059025
 30
0.0
 10
-67.79449593748215
 20
-15.3359716661113
 30
0.0
 10
-68.04335353749991
 20
-14.91262703388752
 30
0.0
 10
-68.29465151909011
 20
-14.50670937333826
 30
0.0
 10
-68.54817017630131
 20
-14.11821742796971
 30
0.0
 10
-68.80369423586944
 20
-13.74715158965783
 30
0.0
 10
-69.06101098145241
 20
-13.39350610427554
 30
0.0
 10
-69.35756726937933
 20
-13.00840625309923
 30
0.0
 10
-69.6965470842029
 20
-12.5984469091423
 30
0.0
 10
-70.08220505716788
 20
-12.17161166082914
 30
0.0
 10
-70.47225341441208
 20
-11.77848534984005
 30
0.0
 10
-70.86620655452491
 20
-11.4190657731662
 30
0.0
 10
-71.26359339189193
 20
-11.09336208393138
 30
0.0
 10
-71.66393910217774
 20
-10.80136169929789
 30
0.0
 10
-72.0668019459831
 20
-10.54314785469037
 30
0.0
 10
-72.47164818107579
 20
-10.31849299485174
 30
0.0
 10
-72.87828588603546
 20
-10.12830012994648
 30
0.0
 10
-73.28531681526724
 20
-9.96949588613204
 30
0.0
 10
-73.56222586975343
 20
-9.891032987219434
 30
0.0
 10
-73.69874650137155
 20
-9.852349512105148
 30
0.0
  0
LWPOLYLINE
  5
2D0
330
23
100
AcDbEntity
 67
     1
  8
0
  6
Continuous
 62
     7
370
    25
100
AcDbPolyline
 90
       10
 70
   128
 43
0.0
 10
-73.1782451019
 20
-7.3892621341
 10
-71.7663443035
 20
-7.7536567529
 10
-70.3759415018
 20
-8.3200417607
 10
-69.0162803756
 20
-9.0846517153
 10
-67.6964002269
 20
-10.0424033354
 10
-66.4250758857
 20
-11.1869292945
 10
-65.2107593732
 20
-12.5106205528
 10
-64.061523711
 20
-14.0046769431
 10
-62.9850092501
 20
-15.6591656767
 10
-61.9883728762
 20
-17.463087378
  0
SPLINE
  5
2D2
330
23
100
AcDbEntity
 67
     1
  8
0
  6
Continuous
 62
     7
370
    25
100
AcDbSpline
210
0.0
220
0.0
230
1.0
 70
     8
 71
     3
 72
    35
 73
    31
 74
     0
 42
0.000000001
 43
0.00000001
 40
0.0
 40
0.0
 40
0.0
 40
0.0
 40
0.0167758622757192
 40
0.0337920866664992
 40
0.0510764064665247
 40
0.0686552861347386
 40
0.086553883589181
 40
0.1047960340185678
 40
0.1234042524917311
 40
0.1423997524379053
 40
0.1618024770575948
 40
0.1816311408585431
 40
0.2019032787476444
 40
0.222635300406362
 40
0.2438425480004792
 40
0.2655393555991946
 40
0.2877391089858639
 40
0.3104543048220616
 40
0.3336966083722309
 40
0.3574769092061566
 40
0.3818053744717083
 40
0.4066914994732526
 40
0.4673906079918311
 40
0.5317950542170978
 40
0.5999902424335823
 40
0.6720480995381497
 40
0.7480295835060572
 40
0.8279866788175716
 40
0.9119639871384321
 40
1.0
 40
1.0
 40
1.0
 40
1.0
 10
73.69874650140545
 20
-9.852349512096348
 30
0.0
 10
73.62386641347175
 20
-9.872731179681477
 30
0.0
 10
73.47303336659384
 20
-9.913786540420897
 30
0.0
 10
73.24914095470281
 20
-9.987774638039651
 30
0.0
 10
73.02521094238057
 20
-10.07127772879358
 30
0.0
 10
72.80159158407673
 20
-10.16519499020899
 30
0.0
 10
72.5782854039582
 20
-10.26927704116487
 30
0.0
 10
72.35539022944847
 20
-10.38359009459314
 30
0.0
 10
72.1329780981918
 20
-10.5081138250965
 30
0.0
 10
71.9111286207399
 20
-10.64285203090525
 30
0.0
 10
71.6899198227837
 20
-10.78780213811941
 30
0.0
 10
71.46943069825642
 20
-10.94296360391765
 30
0.0
 10
71.24974051920968
 20
-11.10833557559891
 30
0.0
 10
71.03092903092936
 20
-11.28391751313097
 30
0.0
 10
70.81307639184321
 20
-11.46970899118696
 30
0.0
 10
70.59626317536325
 20
-11.66570972216524
 30
0.0
 10
70.38057034480532
 20
-11.87191954070023
 30
0.0
 10
70.16607923631098
 20
-12.08833831641748
 30
0.0
 10
69.95287150649428
 20
-12.31496621419455
 30
0.0
 10
69.74102919244724
 20
-12.55180260407695
 30
0.0
 10
69.53063432446883
 20
-12.79885020162065
 30
0.0
 10
69.2231765882251
 20
-13.17753255893831
 30
0.0
 10
68.82486289976279
 20
-13.70893662901536
 30
0.0
 10
68.34729542272314
 20
-14.41558382014675
 30
0.0
 10
67.87733189156609
 20
-15.18342544560354
 30
0.0
 10
67.4164727030625
 20
-16.01248093223163
 30
0.0
 10
66.96603419111943
 20
-16.90271794810796
 30
0.0
 10
66.5282442859551
 20
-17.85436869450229
 30
0.0
 10
66.10190366161305
 20
-18.8665681063345
 30
0.0
 10
65.84001475286783
 20
-19.56745995685596
 30
0.0
 10
65.70598062585888
 20
-19.92617475605244
 30
0.0
  0
LWPOLYLINE
  5
2D4
330
23
100
AcDbEntity
 67
     1
  8
0
  6
Continuous
 62
     7
370
    25
100
AcDbPolyline
 90
       10
 70
   128
 43
0.0
 10
61.9883728762
 20
-17.463087378
 10
62.9850092501
 20
-15.6591656767
 10
64.061523711
 20
-14.0046769431
 10
65.2107593732
 20
-12.5106205528
 10
66.4250758857
 20
-11.1869292945
 10
67.6964002269
 20
-10.0424033354
 10
69.0162803756
 20
-9.0846517153
 10
70.3759415018
 20
-8.3200417606
 10
71.7663443036
 20
-7.7536567529
 10
73.178245102
 20
-7.3892621341
  0
SPLINE
  5
2D7
330
23
100
AcDbEntity
 67
     1
  8
0
  6
Continuous
 62
     7
370
    25
100
AcDbSpline
210
0.0
220
0.0
230
1.0
 70
     8
 71
     3
 72
    26
 73
    22
 74
     0
 42
0.000000001
 43
0.00000001
 40
0.0
 40
0.0
 40
0.0
 40
0.0
 40
0.0241469253463755
 40
0.0483698110269007
 40
0.0727097761554065
 40
0.097207350300164
 40
0.1219022870333001
 40
0.1468333958390251
 40
0.17203839528487
 40
0.197553789316681
 40
0.2234147675055031
 40
0.2496551291248965
 40
0.3716718230155013
 40
0.5001925303000474
 40
0.5698523295160217
 40
0.6396872336184517
 40
0.7099462417839318
 40
0.7808738936067399
 40
0.852707906765171
 40
0.9256771472508046
 40
1.0
 40
1.0
 40
1.0
 40
1.0
 10
-62.68504310745237
 20
-25.0
 30
0.0
 10
-62.69789004418058
 20
-24.99912497291509
 30
0.0
 10
-62.72362433096468
 20
-24.99737216612363
 30
0.0
 10
-62.76701516982619
 20
-24.98322355496981
 30
0.0
 10
-62.81395443487369
 20
-24.96064919729652
 30
0.0
 10
-62.86478840208883
 20
-24.92881595688235
 30
0.0
 10
-62.91942342542177
 20
-24.8879502705581
 30
0.0
 10
-62.97788295972
 20
-24.83799247403103
 30
0.0
 10
-63.04015757810111
 20
-24.77896051213614
 30
0.0
 10
-63.10624332895021
 20
-24.71085155399424
 30
0.0
 10
-63.17614011019695
 20
-24.63366766260351
 30
0.0
 10
-63.33903795466045
 20
-24.44296391949038
 30
0.0
 10
-63.62422380660358
 20
-24.06486449292871
 30
0.0
 10
-63.98280675860806
 20
-23.50837429040147
 30
0.0
 10
-64.29138031055693
 20
-22.98555965551127
 30
0.0
 10
-64.53519037048179
 20
-22.54857983576432
 30
0.0
 10
-64.7789521797135
 20
-22.08221079270179
 30
0.0
 10
-65.02046466652807
 20
-21.58672154723545
 30
0.0
 10
-65.25719306512748
 20
-21.06171662564669
 30
0.0
 10
-65.48839665927926
 20
-20.50867172677027
 30
0.0
 10
-65.63300963991347
 20
-20.12152636642919
 30
0.0
 10
-65.7059806258588
 20
-19.9261747560526
 30
0.0
  0
SPLINE
  5
2DC
330
23
100
AcDbEntity
 67
     1
  8
0
  6
Continuous
 62
     7
370
    25
100
AcDbSpline
210
0.0
220
0.0
230
1.0
 70
     8
 71
     3
 72
    27
 73
    23
 74
     0
 42
0.000000001
 43
0.00000001
 40
0.0
 40
0.0
 40
0.0
 40
0.0
 40
0.0401250639029972
 40
0.0798332843470142
 40
0.1191573601308632
 40
0.1581309568277919
 40
0.1967886555460204
 40
0.2351658912151326
 40
0.2732988804846664
 40
0.3112245395797655
 40
0.3489803927320919
 40
0.3866044720803221
 40
0.4241352102004092
 40
0.4616113266669649
 40
0.4990717102502269
 40
0.6274604888561237
 40
0.7500716947632202
 40
0.8024055677481104
 40
0.8532692892530678
 40
0.9029489005204038
 40
0.9517512682206966
 40
0.9999999999999999
 40
0.9999999999999999
 40
0.9999999999999999
 40
0.9999999999999999
 10
65.70598062585888
 20
-19.92617475605249
 30
0.0
 10
65.66692901672232
 20
-20.03201447776592
 30
0.0
 10
65.58923149021005
 20
-20.24259439407917
 30
0.0
 10
65.46833014101931
 20
-20.55050488871915
 30
0.0
 10
65.34536344705941
 20
-20.85034216791994
 30
0.0
 10
65.22024034073078
 20
-21.14167795090786
 30
0.0
 10
65.0933482899915
 20
-21.42462424664491
 30
0.0
 10
64.96496767872311
 20
-21.69915020592494
 30
0.0
 10
64.83542710443574
 20
-21.96526282772553
 30
0.0
 10
64.70506237426329
 20
-22.22295867282938
 30
0.0
 10
64.57422888472325
 20
-22.47223849762529
 30
0.0
 10
64.44329438080547
 20
-22.71309666503914
 30
0.0
 10
64.3126570247444
 20
-22.94554899125566
 30
0.0
 10
64.18268174515846
 20
-23.16953234888602
 30
0.0
 10
63.94983199911172
 20
-23.55973428679522
 30
0.0
 10
63.62628980163093
 20
-24.06089458810478
 30
0.0
 10
63.31349628270984
 20
-24.47481275064762
 30
0.0
 10
63.10589243591869
 20
-24.71194294852177
 30
0.0
 10
62.97673281567362
 20
-24.84066214503474
 30
0.0
 10
62.86344028239155
 20
-24.9319880430451
 30
0.0
 10
62.76454892927083
 20
-24.98931426078117
 30
0.0
 10
62.71144406771899
 20
-24.99645165888379
 30
0.0
 10
62.68504310745239
 20
-25.0
 30
0.0
  0
SPLINE
  5
2DD
330
23
100
AcDbEntity
 67
     1
  8
0
  6
Continuous
 62
     7
370
    25
100
AcDbSpline
210
0.0
220
0.0
230
1.0
 70
    24
 71
     3
 72
    21
 73
    17
 74
     0
 42
0.000000001
 43
0.00000001
 40
0.0
 40
0.0
 40
0.0
 40
0.0
 40
0.0557244595397017
 40
0.1113195561521854
 40
0.1668226815770647
 40
0.2222714136160151
 40
0.2777034406919183
 40
0.333156485288035
 40
0.3886682270408668
 40
0.444276226268552
 40
0.500017848706352
 40
0.6002060119909526
 40
0.7000787852448506
 40
0.7998555205400646
 40
0.8997562025626703
 40
1.0
 40
1.0
 40
1.0
 40
1.0
 10
90.00000000000001
 20
-13.39017830351413
 30
0.0
 10
90.00000000000001
 20
-13.44802479189014
 30
0.0
 10
90.00000000000003
 20
-13.56358347947854
 30
0.0
 10
90.0
 20
-13.72523393675585
 30
0.0
 10
90.0
 20
-13.87800088850432
 30
0.0
 10
90.00000000000001
 20
-14.02107087553509
 30
0.0
 10
89.99999999999999
 20
-14.15466112486715
 30
0.0
 10
90.00000000000003
 20
-14.27871309952902
 30
0.0
 10
90.0
 20
-14.39324286957246
 30
0.0
 10
90.0
 20
-14.49824390270918
 30
0.0
 10
90.00000000000003
 20
-14.61900079784623
 30
0.0
 10
89.99999999999997
 20
-14.74406663087759
 30
0.0
 10
90.0
 20
-14.85858434224416
 30
0.0
 10
90.0
 20
-14.93978372409694
 30
0.0
 10
90.00000000000003
 20
-14.99060325994047
 30
0.0
 10
90.0
 20
-14.99686417464278
 30
0.0
 10
90.0
 20
-14.99999999865793
 30
0.0
  0
SPLINE
  5
2DE
330
23
100
AcDbEntity
 67
     1
  8
0
  6
Continuous
 62
     7
370
    25
100
AcDbSpline
210
0.0
220
0.0
230
1.0
 70
     8
 71
     3
 72
    10
 73
     6
 74
     0
 42
0.000000001
 43
0.00000001
 40
0.0
 40
0.0
 40
0.0
 40
0.0
 40
0.5
 40
0.5
 40
1.0
 40
1.0
 40
1.0
 40
1.0
 10
-90.0
 20
-13.3901783035179
 30
0.0
 10
-90.0
 20
-13.86800260183018
 30
0.0
 10
-89.99999999986834
 20
-14.27145103568383
 30
0.0
 10
-90.00000000013151
 20
-14.83982063525619
 30
0.0
 10
-90.00000000011067
 20
-14.999999963906
 30
0.0
 10
-90.00000000000014
 20
-14.99999999835015
 30
0.0
  0
SPLINE
  5
2FC
330
23
100
AcDbEntity
 67
     1
  8
0
  6
Continuous
 62
     8
370
    25
100
AcDbSpline
210
0.0
220
0.0
230
1.0
 70
     8
 71
     3
 72
     9
 73
     5
 74
     0
 42
0.000000001
 43
0.00000001
 40
0.0
 40
0.0
 40
0.0
 40
0.0
 40
0.3755606227257929
 40
1.0
 40
1.0
 40
1.0
 40
1.0
 10
-62.51648492068834
 20
-24.59687767240538
 30
0.0
 10
-62.5183856479407
 20
-24.6924526492696
 30
0.0
 10
-62.52344668772322
 20
-24.94693879899038
 30
0.0
 10
-62.62292495818988
 20
-24.97960311490881
 30
0.0
 10
-62.6850431074524
 20
-25.0
 30
0.0
  0
SPLINE
  5
2FD
330
23
100
AcDbEntity
 67
     1
  8
0
  6
Continuous
 62
     8
370
    25
100
AcDbSpline
210
0.0
220
0.0
230
1.0
 70
     8
 71
     3
 72
    12
 73
     8
 74
     0
 42
0.000000001
 43
0.00000001
 40
0.0
 40
0.0
 40
0.0
 40
0.0
 40
0.212119958051403
 40
0.4462776894997383
 40
0.707656105735415
 40
0.9999839451358337
 40
1.0
 40
1.0
 40
1.0
 40
1.0
 10
-85.71428571428571
 20
-17.8535710713571
 30
0.0
 10
-85.92906064690733
 20
-18.08459664161798
 30
0.0
 10
-86.38092411875289
 20
-18.57064971582422
 30
0.0
 10
-86.96843828981707
 20
-19.01061744310768
 30
0.0
 10
-87.37057156466098
 20
-19.26718172037083
 30
0.0
 10
-87.55564106156999
 20
-19.36087527485211
 30
0.0
 10
-87.49999388792223
 20
-19.33012364131163
 30
0.0
 10
-87.49999083190558
 20
-19.33012195250161
 30
0.0
  0
SPLINE
  5
2FE
330
23
100
AcDbEntity
 67
     1
  8
0
  6
Continuous
 62
     8
370
    25
100
AcDbSpline
210
0.0
220
0.0
230
1.0
 70
     8
 71
     3
 72
    11
 73
     7
 74
     0
 42
0.000000001
 43
0.00000001
 40
0.0
 40
0.0
 40
0.0
 40
0.0
 40
0.2923052149185111
 40
0.5536859276121485
 40
0.7878561684726187
 40
0.9999999999999999
 40
0.9999999999999999
 40
0.9999999999999999
 40
0.9999999999999999
 10
87.49999083190595
 20
-19.33012195250176
 30
0.0
 10
87.46786625803985
 20
-19.31498480597615
 30
0.0
 10
87.40701573751403
 20
-19.2863119510708
 30
0.0
 10
86.96030030746277
 20
-19.00643739435
 30
0.0
 10
86.38272308046376
 20
-18.57163865700638
 30
0.0
 10
85.92964475721318
 20
-18.08492011889282
 30
0.0
 10
85.71428571428152
 20
-17.8535710713524
 30
0.0
  0
SPLINE
  5
2FF
330
23
100
AcDbEntity
 67
     1
  8
0
  6
Continuous
 62
     8
370
    25
100
AcDbSpline
210
0.0
220
0.0
230
1.0
 70
     8
 71
     3
 72
     9
 73
     5
 74
     0
 42
0.000000001
 43
0.00000001
 40
0.0
 40
0.0
 40
0.0
 40
0.0
 40
0.5507554774704196
 40
1.0
 40
1.0
 40
1.0
 40
1.0
 10
62.6850431074524
 20
-25.0
 30
0.0
 10
62.62422156299308
 20
-24.97561514543316
 30
0.0
 10
62.51378862687653
 20
-24.93133986254566
 30
0.0
 10
62.51061841803875
 20
-24.63605270704139
 30
0.0
 10
62.50919421908309
 20
-24.50339656985775
 30
0.0
  0
SPLINE
  5
300
330
23
100
AcDbEntity
 67
     1
  8
0
  6
Continuous
 62
     8
370
    25
100
AcDbSpline
210
0.0
220
0.0
230
1.0
 70
     8
 71
     3
 72
    18
 73
    14
 74
     0
 42
0.000000001
 43
0.00000001
 40
0.0
 40
0.0
 40
0.0
 40
0.0
 40
0.0683201068372942
 40
0.1611858339814617
 40
0.2574494076142779
 40
0.3351314899929553
 40
0.4226785693819308
 40
0.5202693632910514
 40
0.6280324620098983
 40
0.7655470106094997
 40
0.87338285654265
 40
0.9515328377069965
 40
1.0
 40
1.0
 40
1.0
 40
1.0
 10
57.81122284304885
 20
-19.96685623351787
 30
0.0
 10
57.84925652476957
 20
-19.97753728371159
 30
0.0
 10
57.93898839129226
 20
-20.00273680495024
 30
0.0
 10
58.21583429784266
 20
-19.90875439810856
 30
0.0
 10
58.53514243174722
 20
-19.78457507837092
 30
0.0
 10
58.89472506947338
 20
-19.61923237669437
 30
0.0
 10
59.2772097131873
 20
-19.42322584663013
 30
0.0
 10
59.72372836624999
 20
-19.16933233042605
 30
0.0
 10
60.26685234113808
 20
-18.83410320019672
 30
0.0
 10
60.83328943929059
 20
-18.44036792106021
 30
0.0
 10
61.34695502041519
 20
-18.03282197569626
 30
0.0
 10
61.71856696080891
 20
-17.71683106043594
 30
0.0
 10
61.91368470222276
 20
-17.53332917487649
 30
0.0
 10
61.9883728762024
 20
-17.4630873780263
 30
0.0
  0
SPLINE
  5
301
330
23
100
AcDbEntity
 67
     1
  8
0
  6
Continuous
 62
     8
370
    25
100
AcDbSpline
210
0.0
220
0.0
230
1.0
 70
     8
 71
     3
 72
    17
 73
    13
 74
     0
 42
0.000000001
 43
0.00000001
 40
0.0
 40
0.0
 40
0.0
 40
0.0
 40
0.0485737875123768
 40
0.1267658442942448
 40
0.1953587596231541
 40
0.2771205918193795
 40
0.372050452245311
 40
0.5134029608381292
 40
0.6368014102369212
 40
0.7426050285675606
 40
0.9314212090783127
 40
1.0
 40
1.0
 40
1.0
 40
1.0
 10
-61.9883728762024
 20
-17.4630873780263
 30
0.0
 10
-61.91356522084207
 20
-17.53344897369545
 30
0.0
 10
-61.71833532263804
 20
-17.71707573079397
 30
0.0
 10
-61.40886207314627
 20
-17.98019238866657
 30
0.0
 10
-61.04629984917977
 20
-18.27229834320383
 30
0.0
 10
-60.65570875462942
 20
-18.56527427493672
 30
0.0
 10
-60.14606699895045
 20
-18.91167958172695
 30
0.0
 10
-59.57907653584286
 20
-19.25689806553978
 30
0.0
 10
-59.0235783213863
 20
-19.55926835228694
 30
0.0
 10
-58.4490428700605
 20
-19.82301551205923
 30
0.0
 10
-57.99715109128498
 20
-20.01276369557882
 30
0.0
 10
-57.85035576665186
 20
-19.97646856593263
 30
0.0
 10
-57.81124449023386
 20
-19.96679830666677
 30
0.0
  0
LINE
  5
302
330
23
100
AcDbEntity
 67
     1
  8
0
  6
Continuous
 62
     7
370
    25
100
AcDbLine
 10
-130.5
 20
-15.0
 30
0.0
 11
-90.5
 21
-15.0
 31
0.0
  0
LINE
  5
303
330
23
100
AcDbEntity
 67
     1
  8
0
  6
Continuous
 62
     7
370
    25
100
AcDbLine
 10
-112.5
 20
17.5
 30
0.0
 11
-130.5
 21
17.5
 31
0.0
  0
LINE
  5
304
330
23
100
AcDbEntity
 67
     1
  8
0
  6
Continuous
 62
     7
370
    25
100
AcDbLine
 10
112.5
 20
15.0
 30
0.0
 11
90.5
 21
15.0
 31
0.0
  0
LINE
  5
305
330
23
100
AcDbEntity
 67
     1
  8
0
  6
Continuous
 62
     7
370
    25
100
AcDbLine
 10
90.5
 20
-15.0
 30
0.0
 11
130.5
 21
-15.0
 31
0.0
  0
LINE
  5
306
330
23
100
AcDbEntity
 67
     1
  8
0
  6
Continuous
 62
     7
370
    25
100
AcDbLine
 10
-85.3
 20
-25.0
 30
0.0
 11
-85.3
 21
-35.0
 31
0.0
  0
LINE
  5
307
330
23
100
AcDbEntity
 67
     1
  8
0
  6
Continuous
 62
     7
370
    25
100
AcDbLine
 10
-64.7
 20
-35.0
 30
0.0
 11
-64.7
 21
-25.0
 31
0.0
  0
LINE
  5
308
330
23
100
AcDbEntity
 67
     1
  8
0
  6
Continuous
 62
     7
370
    25
100
AcDbLine
 10
-60.4999999951
 20
-48.0
 30
0.0
 11
-58.75
 21
-47.0
 31
0.0
  0
LINE
  5
309
330
23
100
AcDbEntity
 67
     1
  8
0
  6
Continuous
 62
     7
370
    25
100
AcDbLine
 10
-58.75
 20
-36.0
 30
0.0
 11
-60.4999999951
 21
-35.0
 31
0.0
  0
LINE
  5
30A
330
23
100
AcDbEntity
 67
     1
  8
0
  6
Continuous
 62
     7
370
    25
100
AcDbLine
 10
-89.5000000049
 20
-35.0
 30
0.0
 11
-91.25
 21
-36.0
 31
0.0
  0
LINE
  5
30B
330
23
100
AcDbEntity
 67
     1
  8
0
  6
Continuous
 62
     7
370
    25
100
AcDbLine
 10
-91.25
 20
-47.0
 30
0.0
 11
-89.5000000049
 21
-48.0
 31
0.0
  0
LINE
  5
30C
330
23
100
AcDbEntity
 67
     1
  8
0
  6
Continuous
 62
     7
370
    25
100
AcDbLine
 10
-58.75
 20
-47.0
 30
0.0
 11
-58.75
 21
-36.0
 31
0.0
  0
LINE
  5
30D
330
23
100
AcDbEntity
 67
     1
  8
0
  6
Continuous
 62
     7
370
    25
100
AcDbLine
 10
-91.25
 20
-36.0
 30
0.0
 11
-91.25
 21
-47.0
 31
0.0
  0
LINE
  5
30E
330
23
100
AcDbEntity
 67
     1
  8
0
  6
Continuous
 62
     7
370
    25
100
AcDbLine
 10
-42.75
 20
-66.5
 30
0.0
 11
-42.75
 21
-61.5206232339
 31
0.0
  0
LINE
  5
30F
330
23
100
AcDbEntity
 67
     1
  8
0
  6
Continuous
 62
     7
370
    25
100
AcDbLine
 10
-107.25
 20
-61.5206232339
 30
0.0
 11
-107.25
 21
-66.5
 31
0.0
  0
LINE
  5
310
330
23
100
AcDbEntity
 67
     1
  8
0
  6
Continuous
 62
     7
370
    25
100
AcDbLine
 10
-43.5764495405
 20
-59.9011235484
 30
0.0
 11
-59.4749095673
 21
-48.3805003144
 31
0.0
  0
LINE
  5
311
330
23
100
AcDbEntity
 67
     1
  8
0
  6
Continuous
 62
     7
370
    25
100
AcDbLine
 10
-90.5250904327
 20
-48.3805003144
 30
0.0
 11
-106.4235504595
 21
-59.9011235484
 31
0.0
  0
LINE
  5
312
330
23
100
AcDbEntity
 67
     1
  8
0
  6
Continuous
 62
     7
370
    25
100
AcDbLine
 10
107.25
 20
-66.5
 30
0.0
 11
107.25
 21
-61.5206232339
 31
0.0
  0
LINE
  5
313
330
23
100
AcDbEntity
 67
     1
  8
0
  6
Continuous
 62
     7
370
    25
100
AcDbLine
 10
42.75
 20
-61.5206232339
 30
0.0
 11
42.75
 21
-66.5
 31
0.0
  0
LINE
  5
314
330
23
100
AcDbEntity
 67
     1
  8
0
  6
Continuous
 62
     7
370
    25
100
AcDbLine
 10
106.4235504595
 20
-59.9011235484
 30
0.0
 11
90.5250904327
 21
-48.3805003144
 31
0.0
  0
LINE
  5
315
330
23
100
AcDbEntity
 67
     1
  8
0
  6
Continuous
 62
     7
370
    25
100
AcDbLine
 10
59.4749095673
 20
-48.3805003144
 30
0.0
 11
43.5764495405
 21
-59.9011235484
 31
0.0
  0
LINE
  5
316
330
23
100
AcDbEntity
 67
     1
  8
0
  6
Continuous
 62
     7
370
    25
100
AcDbLine
 10
58.75
 20
-47.0
 30
0.0
 11
60.4999999951
 21
-48.0
 31
0.0
  0
LINE
  5
317
330
23
100
AcDbEntity
 67
     1
  8
0
  6
Continuous
 62
     7
370
    25
100
AcDbLine
 10
60.4999999951
 20
-35.0
 30
0.0
 11
58.75
 21
-36.0
 31
0.0
  0
LINE
  5
318
330
23
100
AcDbEntity
 67
     1
  8
0
  6
Continuous
 62
     7
370
    25
100
AcDbLine
 10
91.25
 20
-36.0
 30
0.0
 11
89.5000000049
 21
-35.0
 31
0.0
  0
LINE
  5
319
330
23
100
AcDbEntity
 67
     1
  8
0
  6
Continuous
 62
     7
370
    25
100
AcDbLine
 10
89.5000000049
 20
-48.0
 30
0.0
 11
91.25
 21
-47.0
 31
0.0
  0
LINE
  5
31A
330
23
100
AcDbEntity
 67
     1
  8
0
  6
Continuous
 62
     7
370
    25
100
AcDbLine
 10
58.75
 20
-36.0
 30
0.0
 11
58.75
 21
-47.0
 31
0.0
  0
LINE
  5
31B
330
23
100
AcDbEntity
 67
     1
  8
0
  6
Continuous
 62
     7
370
    25
100
AcDbLine
 10
91.25
 20
-47.0
 30
0.0
 11
91.25
 21
-36.0
 31
0.0
  0
LINE
  5
31C
330
23
100
AcDbEntity
 67
     1
  8
0
  6
Continuous
 62
     7
370
    25
100
AcDbLine
 10
64.7
 20
-25.0
 30
0.0
 11
64.7
 21
-35.0
 31
0.0
  0
LINE
  5
31D
330
23
100
AcDbEntity
 67
     1
  8
0
  6
Continuous
 62
     7
370
    25
100
AcDbLine
 10
85.3
 20
-35.0
 30
0.0
 11
85.3
 21
-25.0
 31
0.0
  0
LINE
  5
31E
330
23
100
AcDbEntity
 67
     1
  8
0
  6
Continuous
 62
     7
370
    25
100
AcDbLine
 10
90.0
 20
15.0
 30
0.0
 11
-90.0
 21
15.0
 31
0.0
  0
LINE
  5
31F
330
23
100
AcDbEntity
 67
     1
  8
0
  6
Continuous
 62
     7
370
    25
100
AcDbLine
 10
-62.5
 20
-25.0
 30
0.0
 11
-62.5
 21
-24.502353044
 31
0.0
  0
LINE
  5
320
330
23
100
AcDbEntity
 67
     1
  8
0
  6
Continuous
 62
     7
370
    25
100
AcDbLine
 10
-87.5
 20
-19.3301219525
 30
0.0
 11
-87.5
 21
-25.0
 31
0.0
  0
LINE
  5
321
330
23
100
AcDbEntity
 67
     1
  8
0
  6
Continuous
 62
     7
370
    25
100
AcDbLine
 10
87.5
 20
-25.0
 30
0.0
 11
87.5
 21
-19.3301219525
 31
0.0
  0
LINE
  5
322
330
23
100
AcDbEntity
 67
     1
  8
0
  6
Continuous
 62
     7
370
    25
100
AcDbLine
 10
62.5
 20
-24.5033965699
 30
0.0
 11
62.5
 21
-25.0
 31
0.0
  0
LINE
  5
323
330
23
100
AcDbEntity
 67
     1
  8
0
  6
Continuous
 62
     7
370
    25
100
AcDbLine
 10
-57.8249716762
 20
-20.0
 30
0.0
 11
57.824934788
 21
-20.0
 31
0.0
  0
LINE
  5
324
330
23
100
AcDbEntity
 67
     1
  8
0
  6
Continuous
 62
     7
370
    25
100
AcDbLine
 10
-90.5
 20
15.0
 30
0.0
 11
-112.5
 21
15.0
 31
0.0
  0
LINE
  5
325
330
23
100
AcDbEntity
 67
     1
  8
0
  6
Continuous
 62
     7
370
    25
100
AcDbLine
 10
130.5
 20
17.5
 30
0.0
 11
112.5
 21
17.5
 31
0.0
  0
LINE
  5
326
330
23
100
AcDbEntity
 67
     1
  8
0
  6
Continuous
 62
     7
370
    25
100
AcDbLine
 10
-125.5
 20
14.248766394
 30
0.0
 11
-130.5
 21
14.248766394
 31
0.0
  0
LINE
  5
327
330
23
100
AcDbEntity
 67
     1
  8
0
  6
Continuous
 62
     7
370
    25
100
AcDbLine
 10
-125.5
 20
15.1986841536
 30
0.0
 11
-125.5
 21
-15.0
 31
0.0
  0
LINE
  5
328
330
23
100
AcDbEntity
 67
     1
  8
0
  6
Continuous
 62
     7
370
    25
100
AcDbLine
 10
-130.5
 20
17.5
 30
0.0
 11
-130.5
 21
-15.0
 31
0.0
  0
LINE
  5
329
330
23
100
AcDbEntity
 67
     1
  8
0
  6
Continuous
 62
     7
370
    25
100
AcDbLine
 10
-130.5
 20
15.1986841536
 30
0.0
 11
-125.5
 21
15.1986841536
 31
0.0
  0
LINE
  5
32A
330
23
100
AcDbEntity
 67
     1
  8
0
  6
Continuous
 62
     7
370
    25
100
AcDbLine
 10
-112.5
 20
14.4568322946
 30
0.0
 11
-125.5
 21
14.4568322948
 31
0.0
  0
LINE
  5
32B
330
23
100
AcDbEntity
 67
     1
  8
0
  6
Continuous
 62
     7
370
    25
100
AcDbLine
 10
-112.5
 20
16.6358047596
 30
0.0
 11
-130.5
 21
16.6358047596
 31
0.0
  0
LINE
  5
32C
330
23
100
AcDbEntity
 67
     1
  8
0
  6
Continuous
 62
     7
370
    25
100
AcDbLine
 10
-112.5
 20
14.4568322946
 30
0.0
 11
-112.5
 21
17.5
 31
0.0
  0
LINE
  5
32D
330
23
100
AcDbEntity
 67
     1
  8
0
  6
Continuous
 62
     7
370
    25
100
AcDbLine
 10
-130.5
 20
17.1250931349
 30
0.0
 11
-112.5
 21
17.1250931349
 31
0.0
  0
LINE
  5
32E
330
23
100
AcDbEntity
 67
     1
  8
0
  6
Continuous
 62
     7
370
    25
100
AcDbLine
 10
125.5
 20
-15.0
 30
0.0
 11
125.5
 21
15.1986841536
 31
0.0
  0
LINE
  5
32F
330
23
100
AcDbEntity
 67
     1
  8
0
  6
Continuous
 62
     7
370
    25
100
AcDbLine
 10
90.5
 20
-15.0
 30
0.0
 11
90.5
 21
15.0
 31
0.0
  0
LINE
  5
330
330
23
100
AcDbEntity
 67
     1
  8
0
  6
Continuous
 62
     7
370
    25
100
AcDbLine
 10
-83.8895181671
 20
-47.0
 30
0.0
 11
-82.3357003756
 21
-47.0
 31
0.0
  0
LINE
  5
331
330
23
100
AcDbEntity
 67
     1
  8
0
  6
Continuous
 62
     7
370
    25
100
AcDbLine
 10
-60.4999999951
 20
-48.0
 30
0.0
 11
-89.5000000049
 21
-48.0
 31
0.0
  0
LINE
  5
332
330
23
100
AcDbEntity
 67
     1
  8
0
  6
Continuous
 62
     7
370
    25
100
AcDbLine
 10
-82.3357003756
 20
-36.0
 30
0.0
 11
-83.8895181671
 21
-36.0
 31
0.0
  0
LINE
  5
333
330
23
100
AcDbEntity
 67
     1
  8
0
  6
Continuous
 62
     7
370
    25
100
AcDbLine
 10
-82.3357003756
 20
-36.0
 30
0.0
 11
-82.3357003756
 21
-47.0
 31
0.0
  0
LINE
  5
334
330
23
100
AcDbEntity
 67
     1
  8
0
  6
Continuous
 62
     7
370
    25
100
AcDbLine
 10
-83.8895181671
 20
-47.0
 30
0.0
 11
-83.8895181671
 21
-36.0
 31
0.0
  0
LINE
  5
335
330
23
100
AcDbEntity
 67
     1
  8
0
  6
Continuous
 62
     7
370
    25
100
AcDbLine
 10
-67.6642996244
 20
-47.0
 30
0.0
 11
-67.6642996244
 21
-36.0
 31
0.0
  0
LINE
  5
336
330
23
100
AcDbEntity
 67
     1
  8
0
  6
Continuous
 62
     7
370
    25
100
AcDbLine
 10
-67.6642996244
 20
-47.0
 30
0.0
 11
-66.1104818329
 21
-47.0
 31
0.0
  0
LINE
  5
337
330
23
100
AcDbEntity
 67
     1
  8
0
  6
Continuous
 62
     7
370
    25
100
AcDbLine
 10
-66.1104818329
 20
-36.0
 30
0.0
 11
-67.6642996244
 21
-36.0
 31
0.0
  0
LINE
  5
338
330
23
100
AcDbEntity
 67
     1
  8
0
  6
Continuous
 62
     7
370
    25
100
AcDbLine
 10
-89.5000000049
 20
-35.0
 30
0.0
 11
-60.4999999951
 21
-35.0
 31
0.0
  0
LINE
  5
339
330
23
100
AcDbEntity
 67
     1
  8
0
  6
Continuous
 62
     7
370
    25
100
AcDbLine
 10
-66.1104818329
 20
-36.0
 30
0.0
 11
-66.1104818329
 21
-47.0
 31
0.0
  0
LINE
  5
33A
330
23
100
AcDbEntity
 67
     1
  8
0
  6
Continuous
 62
     7
370
    25
100
AcDbLine
 10
-58.7747814573
 20
-47.0
 30
0.0
 11
-58.7747814573
 21
-36.0
 31
0.0
  0
LINE
  5
33B
330
23
100
AcDbEntity
 67
     1
  8
0
  6
Continuous
 62
     7
370
    25
100
AcDbLine
 10
-91.2252185427
 20
-36.0
 30
0.0
 11
-91.2252185427
 21
-47.0
 31
0.0
  0
LINE
  5
33C
330
23
100
AcDbEntity
 67
     1
  8
0
  6
Continuous
 62
     7
370
    25
100
AcDbLine
 10
-58.7747814573
 20
-47.0
 30
0.0
 11
-58.75
 21
-47.0
 31
0.0
  0
LINE
  5
33D
330
23
100
AcDbEntity
 67
     1
  8
0
  6
Continuous
 62
     7
370
    25
100
AcDbLine
 10
-58.75
 20
-36.0
 30
0.0
 11
-58.7747814573
 21
-36.0
 31
0.0
  0
LINE
  5
33E
330
23
100
AcDbEntity
 67
     1
  8
0
  6
Continuous
 62
     7
370
    25
100
AcDbLine
 10
-91.2252185427
 20
-36.0
 30
0.0
 11
-91.25
 21
-36.0
 31
0.0
  0
LINE
  5
33F
330
23
100
AcDbEntity
 67
     1
  8
0
  6
Continuous
 62
     7
370
    25
100
AcDbLine
 10
-91.25
 20
-47.0
 30
0.0
 11
-91.2252185427
 21
-47.0
 31
0.0
  0
LINE
  5
340
330
23
100
AcDbEntity
 67
     1
  8
0
  6
Continuous
 62
     7
370
    25
100
AcDbLine
 10
-42.75
 20
-66.5
 30
0.0
 11
-107.25
 21
-66.5
 31
0.0
  0
LINE
  5
341
330
23
100
AcDbEntity
 67
     1
  8
0
  6
Continuous
 62
     7
370
    25
100
AcDbLine
 10
107.25
 20
-66.5
 30
0.0
 11
42.75
 21
-66.5
 31
0.0
  0
LINE
  5
342
330
23
100
AcDbEntity
 67
     1
  8
0
  6
Continuous
 62
     7
370
    25
100
AcDbLine
 10
89.5000000049
 20
-48.0
 30
0.0
 11
60.4999999951
 21
-48.0
 31
0.0
  0
LINE
  5
343
330
23
100
AcDbEntity
 67
     1
  8
0
  6
Continuous
 62
     7
370
    25
100
AcDbLine
 10
66.1104818329
 20
-47.0
 30
0.0
 11
67.6642996244
 21
-47.0
 31
0.0
  0
LINE
  5
344
330
23
100
AcDbEntity
 67
     1
  8
0
  6
Continuous
 62
     7
370
    25
100
AcDbLine
 10
82.3357003756
 20
-47.0
 30
0.0
 11
83.8895181671
 21
-47.0
 31
0.0
  0
LINE
  5
345
330
23
100
AcDbEntity
 67
     1
  8
0
  6
Continuous
 62
     7
370
    25
100
AcDbLine
 10
82.3357003756
 20
-47.0
 30
0.0
 11
82.3357003756
 21
-36.0
 31
0.0
  0
LINE
  5
346
330
23
100
AcDbEntity
 67
     1
  8
0
  6
Continuous
 62
     7
370
    25
100
AcDbLine
 10
83.8895181671
 20
-36.0
 30
0.0
 11
82.3357003756
 21
-36.0
 31
0.0
  0
LINE
  5
347
330
23
100
AcDbEntity
 67
     1
  8
0
  6
Continuous
 62
     7
370
    25
100
AcDbLine
 10
83.8895181671
 20
-36.0
 30
0.0
 11
83.8895181671
 21
-47.0
 31
0.0
  0
LINE
  5
348
330
23
100
AcDbEntity
 67
     1
  8
0
  6
Continuous
 62
     7
370
    25
100
AcDbLine
 10
67.6642996244
 20
-36.0
 30
0.0
 11
67.6642996244
 21
-47.0
 31
0.0
  0
LINE
  5
349
330
23
100
AcDbEntity
 67
     1
  8
0
  6
Continuous
 62
     7
370
    25
100
AcDbLine
 10
67.6642996244
 20
-36.0
 30
0.0
 11
66.1104818329
 21
-36.0
 31
0.0
  0
LINE
  5
34A
330
23
100
AcDbEntity
 67
     1
  8
0
  6
Continuous
 62
     7
370
    25
100
AcDbLine
 10
60.4999999951
 20
-35.0
 30
0.0
 11
89.5000000049
 21
-35.0
 31
0.0
  0
LINE
  5
34B
330
23
100
AcDbEntity
 67
     1
  8
0
  6
Continuous
 62
     7
370
    25
100
AcDbLine
 10
66.1104818329
 20
-47.0
 30
0.0
 11
66.1104818329
 21
-36.0
 31
0.0
  0
LINE
  5
34C
330
23
100
AcDbEntity
 67
     1
  8
0
  6
Continuous
 62
     7
370
    25
100
AcDbLine
 10
58.7747814573
 20
-36.0
 30
0.0
 11
58.7747814573
 21
-47.0
 31
0.0
  0
LINE
  5
34D
330
23
100
AcDbEntity
 67
     1
  8
0
  6
Continuous
 62
     7
370
    25
100
AcDbLine
 10
91.2252185427
 20
-47.0
 30
0.0
 11
91.2252185427
 21
-36.0
 31
0.0
  0
LINE
  5
34E
330
23
100
AcDbEntity
 67
     1
  8
0
  6
Continuous
 62
     7
370
    25
100
AcDbLine
 10
58.75
 20
-47.0
 30
0.0
 11
58.7747814573
 21
-47.0
 31
0.0
  0
LINE
  5
34F
330
23
100
AcDbEntity
 67
     1
  8
0
  6
Continuous
 62
     7
370
    25
100
AcDbLine
 10
58.7747814573
 20
-36.0
 30
0.0
 11
58.75
 21
-36.0
 31
0.0
  0
LINE
  5
350
330
23
100
AcDbEntity
 67
     1
  8
0
  6
Continuous
 62
     7
370
    25
100
AcDbLine
 10
91.25
 20
-36.0
 30
0.0
 11
91.2252185427
 21
-36.0
 31
0.0
  0
LINE
  5
351
330
23
100
AcDbEntity
 67
     1
  8
0
  6
Continuous
 62
     7
370
    25
100
AcDbLine
 10
91.2252185427
 20
-47.0
 30
0.0
 11
91.25
 21
-47.0
 31
0.0
  0
LINE
  5
352
330
23
100
AcDbEntity
 67
     1
  8
0
  6
Continuous
 62
     7
370
    25
100
AcDbLine
 10
90.0
 20
15.0
 30
0.0
 11
90.0
 21
-13.3901783035
 31
0.0
  0
LINE
  5
353
330
23
100
AcDbEntity
 67
     1
  8
0
  6
Continuous
 62
     7
370
    25
100
AcDbLine
 10
-73.1782451019
 20
-7.3892621341
 30
0.0
 11
73.178245102
 21
-7.3892621341
 31
0.0
  0
LINE
  5
354
330
23
100
AcDbEntity
 67
     1
  8
0
  6
Continuous
 62
     7
370
    25
100
AcDbLine
 10
-90.0
 20
15.0
 30
0.0
 11
-90.0
 21
-13.3901783035
 31
0.0
  0
LINE
  5
355
330
23
100
AcDbEntity
 67
     1
  8
0
  6
Continuous
 62
     7
370
    25
100
AcDbLine
 10
-61.9883728762
 20
-17.463087378
 30
0.0
 11
61.9883728762
 21
-17.463087378
 31
0.0
  0
LINE
  5
356
330
23
100
AcDbEntity
 67
     1
  8
0
  6
Continuous
 62
     7
370
    25
100
AcDbLine
 10
-62.5094468285
 20
-24.502353044
 30
0.0
 11
-62.5164849207
 21
-24.5968776724
 31
0.0
  0
LINE
  5
357
330
23
100
AcDbEntity
 67
     1
  8
0
  6
Continuous
 62
     7
370
    25
100
AcDbLine
 10
-62.5
 20
-25.0
 30
0.0
 11
-87.5
 21
-25.0
 31
0.0
  0
LINE
  5
358
330
23
100
AcDbEntity
 67
     1
  8
0
  6
Continuous
 62
     7
370
    25
100
AcDbLine
 10
87.5
 20
-25.0
 30
0.0
 11
62.5
 21
-25.0
 31
0.0
  0
LINE
  5
359
330
23
100
AcDbEntity
 67
     1
  8
0
  6
Continuous
 62
     7
370
    25
100
AcDbLine
 10
-90.5
 20
15.0
 30
0.0
 11
-90.5
 21
-15.0
 31
0.0
  0
LINE
  5
35A
330
23
100
AcDbEntity
 67
     1
  8
0
  6
Continuous
 62
     7
370
    25
100
AcDbLine
 10
130.5
 20
14.248766394
 30
0.0
 11
125.5
 21
14.248766394
 31
0.0
  0
LINE
  5
35B
330
23
100
AcDbEntity
 67
     1
  8
0
  6
Continuous
 62
     7
370
    25
100
AcDbLine
 10
130.5
 20
-15.0
 30
0.0
 11
130.5
 21
17.5
 31
0.0
  0
LINE
  5
35C
330
23
100
AcDbEntity
 67
     1
  8
0
  6
Continuous
 62
     7
370
    25
100
AcDbLine
 10
125.5
 20
15.1986841536
 30
0.0
 11
130.5
 21
15.1986841536
 31
0.0
  0
LINE
  5
35D
330
23
100
AcDbEntity
 67
     1
  8
0
  6
Continuous
 62
     7
370
    25
100
AcDbLine
 10
112.5
 20
14.4568322946
 30
0.0
 11
125.5
 21
14.4568322946
 31
0.0
  0
LINE
  5
35E
330
23
100
AcDbEntity
 67
     1
  8
0
  6
Continuous
 62
     7
370
    25
100
AcDbLine
 10
112.5
 20
17.5
 30
0.0
 11
112.5
 21
14.4568322946
 31
0.0
  0
LINE
  5
35F
330
23
100
AcDbEntity
 67
     1
  8
0
  6
Continuous
 62
     7
370
    25
100
AcDbLine
 10
130.5
 20
16.6358047596
 30
0.0
 11
112.5
 21
16.6358047596
 31
0.0
  0
LINE
  5
360
330
23
100
AcDbEntity
 67
     1
  8
0
  6
Continuous
 62
     7
370
    25
100
AcDbLine
 10
112.5
 20
17.1250931349
 30
0.0
 11
130.5
 21
17.1250931349
 31
0.0
  0
LINE
  5
361
330
23
100
AcDbEntity
 67
     1
  8
0
  6
Continuous
 62
     8
370
    25
100
AcDbLine
 10
-42.75
 20
-61.5206232339
 30
0.0
 11
-107.25
 21
-61.5206232339
 31
0.0
  0
LINE
  5
362
330
23
100
AcDbEntity
 67
     1
  8
0
  6
Continuous
 62
     8
370
    25
100
AcDbLine
 10
-106.4235504968
 20
-59.9011235484
 30
0.0
 11
-43.5764495032
 21
-59.9011235484
 31
0.0
  0
LINE
  5
363
330
23
100
AcDbEntity
 67
     1
  8
0
  6
Continuous
 62
     8
370
    25
100
AcDbLine
 10
-59.4749095673
 20
-48.3805003144
 30
0.0
 11
-90.5250904339
 21
-48.3805003144
 31
0.0
  0
LINE
  5
364
330
23
100
AcDbEntity
 67
     1
  8
0
  6
Continuous
 62
     8
370
    25
100
AcDbLine
 10
107.25
 20
-61.5206232339
 30
0.0
 11
42.75
 21
-61.5206232339
 31
0.0
  0
LINE
  5
365
330
23
100
AcDbEntity
 67
     1
  8
0
  6
Continuous
 62
     8
370
    25
100
AcDbLine
 10
43.5764495032
 20
-59.9011235484
 30
0.0
 11
106.4235504968
 21
-59.9011235484
 31
0.0
  0
LINE
  5
366
330
23
100
AcDbEntity
 67
     1
  8
0
  6
Continuous
 62
     8
370
    25
100
AcDbLine
 10
90.5250904327
 20
-48.3805003144
 30
0.0
 11
59.4749095661
 21
-48.3805003144
 31
0.0
  0
ARC
  5
367
330
23
100
AcDbEntity
 67
     1
  8
0
  6
Continuous
 62
     7
370
    25
100
AcDbCircle
 10
-105.25
 20
-61.5206232339
 30
0.0
 40
2.000000000000087
100
AcDbArc
 50
125.9285024228
 51
180.0
  0
ARC
  5
368
330
23
100
AcDbEntity
 67
     1
  8
0
  6
Continuous
 62
     7
370
    25
100
AcDbCircle
 10
-44.75
 20
-61.5206232339
 30
0.0
 40
2.000000000000088
100
AcDbArc
 50
0.0
 51
54.0714975772
  0
ARC
  5
369
330
23
100
AcDbEntity
 67
     1
  8
0
  6
Continuous
 62
     7
370
    25
100
AcDbCircle
 10
-60.6484600628
 20
-50.0
 30
0.0
 40
1.999999999999152
100
AcDbArc
 50
54.0714975772
 51
85.9892219194
  0
ARC
  5
36A
330
23
100
AcDbEntity
 67
     1
  8
0
  6
Continuous
 62
     7
370
    25
100
AcDbCircle
 10
-89.3515399372
 20
-50.0
 30
0.0
 40
1.9999999999999
100
AcDbArc
 50
94.0107780806
 51
125.9285024228
  0
ARC
  5
36B
330
23
100
AcDbEntity
 67
     1
  8
0
  6
Continuous
 62
     7
370
    25
100
AcDbCircle
 10
44.75
 20
-61.5206232339
 30
0.0
 40
2.00000000000005
100
AcDbArc
 50
125.9285024228
 51
180.0
  0
ARC
  5
36C
330
23
100
AcDbEntity
 67
     1
  8
0
  6
Continuous
 62
     7
370
    25
100
AcDbCircle
 10
105.25
 20
-61.5206232339
 30
0.0
 40
2.000000000000087
100
AcDbArc
 50
0.0
 51
54.0714975772
  0
ARC
  5
36D
330
23
100
AcDbEntity
 67
     1
  8
0
  6
Continuous
 62
     7
370
    25
100
AcDbCircle
 10
89.3515399372
 20
-50.0
 30
0.0
 40
1.999999999999201
100
AcDbArc
 50
54.0714975772
 51
85.9892219194
  0
ARC
  5
36E
330
23
100
AcDbEntity
 67
     1
  8
0
  6
Continuous
 62
     7
370
    25
100
AcDbCircle
 10
60.6484600628
 20
-50.0
 30
0.0
 40
1.999999999999865
100
AcDbArc
 50
94.0107780806
 51
125.9285024228
  0
ARC
  5
36F
330
23
100
AcDbEntity
 67
     1
  8
0
  6
Continuous
 62
     7
370
    25
100
AcDbCircle
 10
91.5945232377
 20
-19.2104776452
 30
0.0
 40
6.034765014665257
100
AcDbArc
 50
105.3207837392
 51
167.0060429648
  0
ARC
  5
370
330
23
100
AcDbEntity
 67
     1
  8
0
  6
Continuous
 62
     7
370
    25
100
AcDbCircle
 10
30.6342226429
 20
-17.6662356685
 30
0.0
 40
43.76768250693388
100
AcDbArc
 50
10.2842037741
 51
13.5802669775
  0
ARC
  5
371
330
23
100
AcDbEntity
 67
     1
  8
0
  6
Continuous
 62
     7
370
    25
100
AcDbCircle
 10
-30.6342226441
 20
-17.6662356685
 30
0.0
 40
43.76768250569327
100
AcDbArc
 50
166.4197330221
 51
169.7157962256
  0
ARC
  5
372
330
23
100
AcDbEntity
 67
     1
  8
0
  6
Continuous
 62
     7
370
    25
100
AcDbCircle
 10
-91.5945232377
 20
-19.2104776452
 30
0.0
 40
6.034765014663088
100
AcDbArc
 50
12.9939570352
 51
74.6792162608
  0
ARC
  5
373
330
23
100
AcDbEntity
 67
     1
  8
0
  6
Continuous
 62
     7
370
    25
100
AcDbCircle
 10
-58.5940329727
 20
-26.6233502001
 30
0.0
 40
9.768928208870115
100
AcDbArc
 50
110.3322116517
 51
136.7204245458
  0
ARC
  5
374
330
23
100
AcDbEntity
 67
     1
  8
0
  6
Continuous
 62
     7
370
    25
100
AcDbCircle
 10
58.5940329727
 20
-26.6233502001
 30
0.0
 40
9.76892820886935
100
AcDbArc
 50
43.2795754542
 51
69.6677883483
  0
VIEWPORT
  5
377
330
23
100
AcDbEntity
 67
     1
  8
0
100
AcDbViewport
 10
0.0
 20
0.0
 30
0.0
 40
205.6
 41
156.0
 68
     1
 69
     1
 12
0.0
 22
0.0
 13
0.0
 23
0.0
 14
10.0
 24
10.0
 15
10.0
 25
10.0
 16
0.0
 26
0.0
 36
1.0
 17
0.0
 27
0.0
 37
0.0
 42
50.0
 43
0.0
 44
0.0
 45
201.9957198444
 50
0.0
 51
0.0
 72
   100
 90
   557152
  1

281
     0
 71
     1
 74
     0
110
0.0
120
0.0
130
0.0
111
1.0
121
0.0
131
0.0
112
0.0
122
1.0
132
0.0
 79
     0
146
0.0
  0
ENDSEC
  0
SECTION
  2
OBJECTS
  0
DICTIONARY
  5
C
330
0
100
AcDbDictionary
281
     1
  3
ACAD_GROUP
350
D
  3
ACAD_LAYOUT
350
1A
  3
ACAD_MLINESTYLE
350
17
  3
ACAD_PLOTSETTINGS
350
19
  3
ACAD_PLOTSTYLENAME
350
E
  3
ACAD_SCALELIST
350
47
  0
DICTIONARY
  5
D
102
{ACAD_REACTORS
330
C
102
}
330
C
100
AcDbDictionary
281
     1
  0
DICTIONARY
  5
1A
102
{ACAD_REACTORS
330
C
102
}
330
C
100
AcDbDictionary
281
     1
  3
_Bottom
350
26
  3
_Right
350
1E
  3
Model
350
22
  0
DICTIONARY
  5
17
102
{ACAD_REACTORS
330
C
102
}
330
C
100
AcDbDictionary
281
     1
  3
Standard
350
18
  0
DICTIONARY
  5
19
102
{ACAD_REACTORS
330
C
102
}
330
C
100
AcDbDictionary
281
     1
  0
ACDBDICTIONARYWDFLT
  5
E
102
{ACAD_REACTORS
330
C
102
}
330
C
100
AcDbDictionary
281
     1
  3
Normal
350
F
100
AcDbDictionaryWithDefault
340
F
  0
DICTIONARY
  5
47
102
{ACAD_REACTORS
330
C
102
}
330
C
100
AcDbDictionary
281
     1
  3
A0
350
48
  3
A1
350
49
  3
A2
350
4A
  3
A3
350
4B
  3
A4
350
4C
  3
A5
350
4D
  3
A6
350
4E
  3
A7
350
4F
  3
A8
350
50
  3
A9
350
51
  3
B0
350
52
  3
B1
350
53
  3
B2
350
54
  3
B3
350
55
  3
B4
350
56
  3
B5
350
57
  3
B6
350
58
  3
B7
350
59
  3
B8
350
5A
  3
B9
350
5B
  3
C0
350
5C
  3
C1
350
5D
  3
C2
350
5E
  3
C3
350
5F
  3
C4
350
60
  3
C5
350
61
  3
C6
350
62
  3
C7
350
63
  3
C8
350
64
  3
C9
350
65
  3
D0
350
66
  3
D1
350
67
  3
D2
350
68
  0
LAYOUT
  5
26
102
{ACAD_REACTORS
330
1A
102
}
330
1A
100
AcDbPlotSettings
  1

  2
none_device
  4
ANSI_A_(11.00_x_8.50_Inches)
  6

 40
6.35
 41
19.05
 42
6.35000508
 43
19.05000254
 44
279.4
 45
215.9
 46
133.34999746
 47
88.89999873
 48
0.0
 49
0.0
140
0.0
141
0.0
142
0.0417241379
143
1.0
 70
  1696
 72
     0
 73
     0
 74
     1
  7

 75
     0
147
0.0402298843
148
3314.7
149
819.15
100
AcDbLayout
  1
_Bottom
 70
     1
 71
     2
 10
0.0
 20
0.0
 11
0.0
 21
0.0
 12
0.0
 22
0.0
 32
0.0
 14
-130.5
 24
-32.25
 34
0.0
 15
130.5
 25
32.25
 35
0.0
146
0.0
 13
0.0
 23
0.0
 33
0.0
 16
1.0
 26
0.0
 36
0.0
 17
0.0
 27
1.0
 37
0.0
 76
     0
330
23
331
377
  0
LAYOUT
  5
1E
102
{ACAD_REACTORS
330
1A
102
}
330
1A
100
AcDbPlotSettings
  1

  2
none_device
  4
ISO_A4_(210.00_x_297.00_MM)
  6

 40
7.5
 41
20.0
 42
7.5
 43
20.0
 44
210.0
 45
297.0
 46
0.0
 47
0.0
 48
0.0
 49
0.0
140
0.0
141
0.0
142
1.0
143
0.3307692308
 70
   688
 72
     1
 73
     1
 74
     1
  7

 75
     0
147
3.023255814
148
17.5
149
32.25
100
AcDbLayout
  1
_Right
 70
     1
 71
     1
 10
-24.1153846154
 20
-34.7307692308
 11
74.1230769231
 21
34.7307692308
 12
0.0
 22
0.0
 32
0.0
 14
1.0000000000E+20
 24
1.0000000000E+20
 34
1.0000000000E+20
 15
-1.0000000000E+20
 25
-1.0000000000E+20
 35
-1.0000000000E+20
146
0.0
 13
0.0
 23
0.0
 33
0.0
 16
1.0
 26
0.0
 36
0.0
 17
0.0
 27
1.0
 37
0.0
 76
     0
330
1B
331
375
  0
LAYOUT
  5
22
102
{ACAD_REACTORS
330
1A
102
}
330
1A
100
AcDbPlotSettings
  1

  2
none_device
  4
Letter_(8.50_x_11.00_Inches)
  6

 40
6.35
 41
6.35
 42
6.35000508
 43
6.35000508
 44
215.9
 45
279.4
 46
0.0
 47
0.0
 48
0.0
 49
0.0
140
0.0
141
0.0
142
1.0
143
1.0
 70
  1712
 72
     1
 73
     0
 74
     0
  7

 75
     0
147
1.0
148
0.0
149
0.0
100
AcDbLayout
  1
Model
 70
     1
 71
     0
 10
0.0
 20
0.0
 11
420.0
 21
297.0
 12
0.0
 22
0.0
 32
0.0
 14
-130.5
 24
-32.25
 34
0.0
 15
130.5
 25
32.25
 35
0.0
146
0.0
 13
0.0
 23
0.0
 33
0.0
 16
1.0
 26
0.0
 36
0.0
 17
0.0
 27
1.0
 37
0.0
 76
     0
330
1F
331
29
  0
MLINESTYLE
  5
18
102
{ACAD_REACTORS
330
17
102
}
330
17
100
AcDbMlineStyle
  2
Standard
 70
     0
  3

 62
   256
 51
90.0
 52
90.0
 71
     2
 49
0.5
 62
   256
  6
BYLAYER
 49
-0.5
 62
   256
  6
BYLAYER
  0
ACDBPLACEHOLDER
  5
F
102
{ACAD_REACTORS
330
E
102
}
330
E
  0
SCALE
  5
48
102
{ACAD_REACTORS
330
47
102
}
330
47
100
AcDbScale
 70
     0
300
1:1
140
1.0
141
1.0
290
     1
  0
SCALE
  5
49
102
{ACAD_REACTORS
330
47
102
}
330
47
100
AcDbScale
 70
     0
300
1:2
140
1.0
141
2.0
290
     0
  0
SCALE
  5
4A
102
{ACAD_REACTORS
330
47
102
}
330
47
100
AcDbScale
 70
     0
300
1:4
140
1.0
141
4.0
290
     0
  0
SCALE
  5
4B
102
{ACAD_REACTORS
330
47
102
}
330
47
100
AcDbScale
 70
     0
300
1:5
140
1.0
141
5.0
290
     0
  0
SCALE
  5
4C
102
{ACAD_REACTORS
330
47
102
}
330
47
100
AcDbScale
 70
     0
300
1:8
140
1.0
141
8.0
290
     0
  0
SCALE
  5
4D
102
{ACAD_REACTORS
330
47
102
}
330
47
100
AcDbScale
 70
     0
300
1:10
140
1.0
141
10.0
290
     0
  0
SCALE
  5
4E
102
{ACAD_REACTORS
330
47
102
}
330
47
100
AcDbScale
 70
     0
300
1:16
140
1.0
141
16.0
290
     0
  0
SCALE
  5
4F
102
{ACAD_REACTORS
330
47
102
}
330
47
100
AcDbScale
 70
     0
300
1:20
140
1.0
141
20.0
290
     0
  0
SCALE
  5
50
102
{ACAD_REACTORS
330
47
102
}
330
47
100
AcDbScale
 70
     0
300
1:30
140
1.0
141
30.0
290
     0
  0
SCALE
  5
51
102
{ACAD_REACTORS
330
47
102
}
330
47
100
AcDbScale
 70
     0
300
1:40
140
1.0
141
40.0
290
     0
  0
SCALE
  5
52
102
{ACAD_REACTORS
330
47
102
}
330
47
100
AcDbScale
 70
     0
300
1:50
140
1.0
141
50.0
290
     0
  0
SCALE
  5
53
102
{ACAD_REACTORS
330
47
102
}
330
47
100
AcDbScale
 70
     0
300
1:100
140
1.0
141
100.0
290
     0
  0
SCALE
  5
54
102
{ACAD_REACTORS
330
47
102
}
330
47
100
AcDbScale
 70
     0
300
2:1
140
2.0
141
1.0
290
     0
  0
SCALE
  5
55
102
{ACAD_REACTORS
330
47
102
}
330
47
100
AcDbScale
 70
     0
300
4:1
140
4.0
141
1.0
290
     0
  0
SCALE
  5
56
102
{ACAD_REACTORS
330
47
102
}
330
47
100
AcDbScale
 70
     0
300
8:1
140
8.0
141
1.0
290
     0
  0
SCALE
  5
57
102
{ACAD_REACTORS
330
47
102
}
330
47
100
AcDbScale
 70
     0
300
10:1
140
10.0
141
1.0
290
     0
  0
SCALE
  5
58
102
{ACAD_REACTORS
330
47
102
}
330
47
100
AcDbScale
 70
     0
300
100:1
140
100.0
141
1.0
290
     0
  0
SCALE
  5
59
102
{ACAD_REACTORS
330
47
102
}
330
47
100
AcDbScale
 70
     0
300
1/128" = 1'-0"
140
0.0078125
141
12.0
290
     0
  0
SCALE
  5
5A
102
{ACAD_REACTORS
330
47
102
}
330
47
100
AcDbScale
 70
     0
300
1/64" = 1'-0"
140
0.015625
141
12.0
290
     0
  0
SCALE
  5
5B
102
{ACAD_REACTORS
330
47
102
}
330
47
100
AcDbScale
 70
     0
300
1/32" = 1'-0"
140
0.03125
141
12.0
290
     0
  0
SCALE
  5
5C
102
{ACAD_REACTORS
330
47
102
}
330
47
100
AcDbScale
 70
     0
300
1/16" = 1'-0"
140
0.0625
141
12.0
290
     0
  0
SCALE
  5
5D
102
{ACAD_REACTORS
330
47
102
}
330
47
100
AcDbScale
 70
     0
300
3/32" = 1'-0"
140
0.09375
141
12.0
290
     0
  0
SCALE
  5
5E
102
{ACAD_REACTORS
330
47
102
}
330
47
100
AcDbScale
 70
     0
300
1/8" = 1'-0"
140
0.125
141
12.0
290
     0
  0
SCALE
  5
5F
102
{ACAD_REACTORS
330
47
102
}
330
47
100
AcDbScale
 70
     0
300
3/16" = 1'-0"
140
0.1875
141
12.0
290
     0
  0
SCALE
  5
60
102
{ACAD_REACTORS
330
47
102
}
330
47
100
AcDbScale
 70
     0
300
1/4" = 1'-0"
140
0.25
141
12.0
290
     0
  0
SCALE
  5
61
102
{ACAD_REACTORS
330
47
102
}
330
47
100
AcDbScale
 70
     0
300
3/8" = 1'-0"
140
0.375
141
12.0
290
     0
  0
SCALE
  5
62
102
{ACAD_REACTORS
330
47
102
}
330
47
100
AcDbScale
 70
     0
300
1/2" = 1'-0"
140
0.5
141
12.0
290
     0
  0
SCALE
  5
63
102
{ACAD_REACTORS
330
47
102
}
330
47
100
AcDbScale
 70
     0
300
3/4" = 1'-0"
140
0.75
141
12.0
290
     0
  0
SCALE
  5
64
102
{ACAD_REACTORS
330
47
102
}
330
47
100
AcDbScale
 70
     0
300
1" = 1'-0"
140
1.0
141
12.0
290
     0
  0
SCALE
  5
65
102
{ACAD_REACTORS
330
47
102
}
330
47
100
AcDbScale
 70
     0
300
1-1/2" = 1'-0"
140
1.5
141
12.0
290
     0
  0
SCALE
  5
66
102
{ACAD_REACTORS
330
47
102
}
330
47
100
AcDbScale
 70
     0
300
3" = 1'-0"
140
3.0
141
12.0
290
     0
  0
SCALE
  5
67
102
{ACAD_REACTORS
330
47
102
}
330
47
100
AcDbScale
 70
     0
300
6" = 1'-0"
140
6.0
141
12.0
290
     0
  0
SCALE
  5
68
102
{ACAD_REACTORS
330
47
102
}
330
47
100
AcDbScale
 70
     0
300
1'-0" = 1'-0"
140
12.0
141
12.0
290
     0
  0
ENDSEC
  0
EOF
