  0
SECTION
  2
HEADER
  9
$ACADVER
  1
AC1015
  9
$ACADMAINTVER
 70
     6
  9
$DWGCODEPAGE
  3
ANSI_1252
  9
$INSBASE
 10
0.0
 20
0.0
 30
0.0
  9
$EXTMIN
 10
-395.0
 20
210.0
 30
0.0
  9
$EXTMAX
 10
-250.0
 20
620.0
 30
0.0
  9
$LIMMIN
 10
0.0
 20
0.0
  9
$LIMMAX
 10
420.0
 20
297.0
  9
$ORTHOMODE
 70
     0
  9
$REGENMODE
 70
     1
  9
$FILLMODE
 70
     1
  9
$QTEXTMODE
 70
     0
  9
$MIRRTEXT
 70
     1
  9
$LTSCALE
 40
1.0
  9
$ATTMODE
 70
     1
  9
$TEXTSIZE
 40
3.5
  9
$TRACEWID
 40
1.0
  9
$TEXTSTYLE
  7
Standard
  9
$CLAYER
  8
0
  9
$CELTYPE
  6
ByLayer
  9
$CECOLOR
 62
   256
  9
$CELTSCALE
 40
1.0
  9
$DISPSILH
 70
     0
  9
$DIMSCALE
 40
1.0
  9
$DIMASZ
 40
3.302
  9
$DIMEXO
 40
1.0
  9
$DIMDLI
 40
3.75
  9
$DIMRND
 40
0.0
  9
$DIMDLE
 40
0.0
  9
$DIMEXE
 40
1.0
  9
$DIMTP
 40
0.0
  9
$DIMTM
 40
0.0
  9
$DIMTXT
 40
3.5
  9
$DIMCEN
 40
2.5
  9
$DIMTSZ
 40
0.0
  9
$DIMTOL
 70
     0
  9
$DIMLIM
 70
     0
  9
$DIMTIH
 70
     1
  9
$DIMTOH
 70
     1
  9
$DIMSE1
 70
     0
  9
$DIMSE2
 70
     0
  9
$DIMTAD
 70
     1
  9
$DIMZIN
 70
     1
  9
$DIMBLK
  1

  9
$DIMASO
 70
     1
  9
$DIMSHO
 70
     1
  9
$DIMPOST
  1

  9
$DIMAPOST
  1

  9
$DIMALT
 70
     0
  9
$DIMALTD
 70
     3
  9
$DIMALTF
 40
0.0393700787
  9
$DIMLFAC
 40
1.0
  9
$DIMTOFL
 70
     1
  9
$DIMTVP
 40
0.0
  9
$DIMTIX
 70
     0
  9
$DIMSOXD
 70
     0
  9
$DIMSAH
 70
     0
  9
$DIMBLK1
  1

  9
$DIMBLK2
  1

  9
$DIMSTYLE
  2
ISO-25
  9
$DIMCLRD
 70
     0
  9
$DIMCLRE
 70
     0
  9
$DIMCLRT
 70
     0
  9
$DIMTFAC
 40
1.0
  9
$DIMGAP
 40
1.524
  9
$DIMJUST
 70
     0
  9
$DIMSD1
 70
     0
  9
$DIMSD2
 70
     0
  9
$DIMTOLJ
 70
     0
  9
$DIMTZIN
 70
     1
  9
$DIMALTZ
 70
     0
  9
$DIMALTTZ
 70
     0
  9
$DIMUPT
 70
     0
  9
$DIMDEC
 70
     2
  9
$DIMTDEC
 70
     2
  9
$DIMALTU
 70
     2
  9
$DIMALTTD
 70
     3
  9
$DIMTXSTY
  7
Standard
  9
$DIMAUNIT
 70
     0
  9
$DIMADEC
 70
     2
  9
$DIMALTRND
 40
0.0
  9
$DIMAZIN
 70
     0
  9
$DIMDSEP
 70
    44
  9
$DIMATFIT
 70
     3
  9
$DIMFRAC
 70
     0
  9
$DIMLDRBLK
  1

  9
$DIMLUNIT
 70
     2
  9
$DIMLWD
 70
    -2
  9
$DIMLWE
 70
    -2
  9
$DIMTMOVE
 70
     0
  9
$LUNITS
 70
     2
  9
$LUPREC
 70
     2
  9
$SKETCHINC
 40
1.0
  9
$FILLETRAD
 40
10.0
  9
$AUNITS
 70
     0
  9
$AUPREC
 70
     2
  9
$MENU
  1
.
  9
$ELEVATION
 40
0.0
  9
$PELEVATION
 40
0.0
  9
$THICKNESS
 40
0.0
  9
$LIMCHECK
 70
     0
  9
$CHAMFERA
 40
0.0
  9
$CHAMFERB
 40
0.0
  9
$CHAMFERC
 40
0.0
  9
$CHAMFERD
 40
0.0
  9
$SKPOLY
 70
     0
  9
$TDCREATE
 40
2459314.694606585
  9
$TDUCREATE
 40
2459314.652939919
  9
$TDUPDATE
 40
2459314.694643854
  9
$TDUUPDATE
 40
2459314.652977188
  9
$TDINDWG
 40
0.0000000116
  9
$TDUSRTIMER
 40
0.0000000116
  9
$USRTIMER
 70
     1
  9
$ANGBASE
 50
0.0
  9
$ANGDIR
 70
     0
  9
$PDMODE
 70
     0
  9
$PDSIZE
 40
-1.0
  9
$PLINEWID
 40
0.0
  9
$SPLFRAME
 70
     0
  9
$SPLINETYPE
 70
     6
  9
$SPLINESEGS
 70
     8
  9
$HANDSEED
  5
3E3
  9
$SURFTAB1
 70
     6
  9
$SURFTAB2
 70
     6
  9
$SURFTYPE
 70
     6
  9
$SURFU
 70
     6
  9
$SURFV
 70
     6
  9
$UCSBASE
  2

  9
$UCSNAME
  2

  9
$UCSORG
 10
0.0
 20
0.0
 30
0.0
  9
$UCSXDIR
 10
1.0
 20
0.0
 30
0.0
  9
$UCSYDIR
 10
0.0
 20
1.0
 30
0.0
  9
$UCSORTHOREF
  2

  9
$UCSORTHOVIEW
 70
     0
  9
$UCSORGTOP
 10
0.0
 20
0.0
 30
0.0
  9
$UCSORGBOTTOM
 10
0.0
 20
0.0
 30
0.0
  9
$UCSORGLEFT
 10
0.0
 20
0.0
 30
0.0
  9
$UCSORGRIGHT
 10
0.0
 20
0.0
 30
0.0
  9
$UCSORGFRONT
 10
0.0
 20
0.0
 30
0.0
  9
$UCSORGBACK
 10
0.0
 20
0.0
 30
0.0
  9
$PUCSBASE
  2

  9
$PUCSNAME
  2

  9
$PUCSORG
 10
0.0
 20
0.0
 30
0.0
  9
$PUCSXDIR
 10
1.0
 20
0.0
 30
0.0
  9
$PUCSYDIR
 10
0.0
 20
1.0
 30
0.0
  9
$PUCSORTHOREF
  2

  9
$PUCSORTHOVIEW
 70
     0
  9
$PUCSORGTOP
 10
0.0
 20
0.0
 30
0.0
  9
$PUCSORGBOTTOM
 10
0.0
 20
0.0
 30
0.0
  9
$PUCSORGLEFT
 10
0.0
 20
0.0
 30
0.0
  9
$PUCSORGRIGHT
 10
0.0
 20
0.0
 30
0.0
  9
$PUCSORGFRONT
 10
0.0
 20
0.0
 30
0.0
  9
$PUCSORGBACK
 10
0.0
 20
0.0
 30
0.0
  9
$USERI1
 70
     0
  9
$USERI2
 70
     0
  9
$USERI3
 70
     0
  9
$USERI4
 70
     0
  9
$USERI5
 70
     0
  9
$USERR1
 40
0.0
  9
$USERR2
 40
0.0
  9
$USERR3
 40
0.0
  9
$USERR4
 40
0.0
  9
$USERR5
 40
0.0
  9
$WORLDVIEW
 70
     1
  9
$SHADEDGE
 70
     3
  9
$SHADEDIF
 70
    70
  9
$TILEMODE
 70
     1
  9
$MAXACTVP
 70
    64
  9
$PINSBASE
 10
0.0
 20
0.0
 30
0.0
  9
$PLIMCHECK
 70
     0
  9
$PEXTMIN
 10
250.0
 20
210.0
 30
0.0
  9
$PEXTMAX
 10
395.0
 20
620.0
 30
0.0
  9
$PLIMMIN
 10
207.9487179487
 20
194.2307692308
  9
$PLIMMAX
 10
832.4102564103
 20
635.7692307692
  9
$UNITMODE
 70
     0
  9
$VISRETAIN
 70
     1
  9
$PLINEGEN
 70
     0
  9
$PSLTSCALE
 70
     1
  9
$TREEDEPTH
 70
  3020
  9
$CMLSTYLE
  2
Standard
  9
$CMLJUST
 70
     0
  9
$CMLSCALE
 40
20.0
  9
$PROXYGRAPHICS
 70
     1
  9
$MEASUREMENT
 70
     1
  9
$CELWEIGHT
370
    -1
  9
$ENDCAPS
280
     0
  9
$JOINSTYLE
280
     0
  9
$LWDISPLAY
290
     1
  9
$INSUNITS
 70
     4
  9
$HYPERLINKBASE
  1

  9
$STYLESHEET
  1

  9
$XEDIT
290
     1
  9
$CEPSNTYPE
380
     0
  9
$PSTYLEMODE
290
     1
  9
$FINGERPRINTGUID
  2
{2bd6ad52-d39e-4876-b72f-310839ffd390}
  9
$VERSIONGUID
  2
{FAEB1C32-E019-11D5-929B-00C0DF256EC4}
  9
$EXTNAMES
290
     1
  9
$PSVPSCALE
 40
0.0
  9
$OLESTARTUP
290
     0
  0
ENDSEC
  0
SECTION
  2
CLASSES
  0
CLASS
  1
ACDBDICTIONARYWDFLT
  2
AcDbDictionaryWithDefault
  3
ObjectDBX Classes
 90
        0
280
     0
281
     0
  0
CLASS
  1
VISUALSTYLE
  2
AcDbVisualStyle
  3
ObjectDBX Classes
 90
     4095
280
     0
281
     0
  0
CLASS
  1
MATERIAL
  2
AcDbMaterial
  3
ObjectDBX Classes
 90
     1153
280
     0
281
     0
  0
CLASS
  1
SCALE
  2
AcDbScale
  3
ObjectDBX Classes
 90
     1153
280
     0
281
     0
  0
CLASS
  1
TABLESTYLE
  2
AcDbTableStyle
  3
ObjectDBX Classes
 90
     4095
280
     0
281
     0
  0
CLASS
  1
MLEADERSTYLE
  2
AcDbMLeaderStyle
  3
ACDB_MLEADERSTYLE_CLASS
 90
     4095
280
     0
281
     0
  0
CLASS
  1
SUN
  2
AcDbSun
  3
SCENEOE
 90
     1153
280
     0
281
     0
  0
CLASS
  1
ACDBPLACEHOLDER
  2
AcDbPlaceHolder
  3
ObjectDBX Classes
 90
        0
280
     0
281
     0
  0
CLASS
  1
LAYOUT
  2
AcDbLayout
  3
ObjectDBX Classes
 90
        0
280
     0
281
     0
  0
ENDSEC
  0
SECTION
  2
TABLES
  0
TABLE
  2
VPORT
  5
8
330
0
100
AcDbSymbolTable
 70
     1
  0
VPORT
  5
29
330
8
100
AcDbSymbolTableRecord
100
AcDbViewportTableRecord
  2
*Active
 70
     0
 10
0.0
 20
0.0
 11
1.0
 21
1.0
 12
-322.5
 22
415.0
 13
0.0
 23
0.0
 14
10.0
 24
10.0
 15
10.0
 25
10.0
 16
0.0
 26
0.0
 36
1.0
 17
0.0
 27
0.0
 37
0.0
 40
418.2
 41
0.3536585366
 42
50.0
 43
0.0
 44
0.0
 50
0.0
 51
0.0
 71
     0
 72
   100
 73
     1
 74
     3
 75
     0
 76
     0
 77
     0
 78
     0
281
     0
 65
     1
110
0.0
120
0.0
130
0.0
111
1.0
121
0.0
131
0.0
112
0.0
122
1.0
132
0.0
 79
     0
146
0.0
  0
ENDTAB
  0
TABLE
  2
LTYPE
  5
5
330
0
100
AcDbSymbolTable
 70
     6
  0
LTYPE
  5
14
330
5
100
AcDbSymbolTableRecord
100
AcDbLinetypeTableRecord
  2
ByBlock
 70
     0
  3

 72
    65
 73
     0
 40
0.0
  0
LTYPE
  5
15
330
5
100
AcDbSymbolTableRecord
100
AcDbLinetypeTableRecord
  2
ByLayer
 70
     0
  3

 72
    65
 73
     0
 40
0.0
  0
LTYPE
  5
16
330
5
100
AcDbSymbolTableRecord
100
AcDbLinetypeTableRecord
  2
Continuous
 70
     0
  3
Solid line
 72
    65
 73
     0
 40
0.0
  0
LTYPE
  5
6E
330
5
100
AcDbSymbolTableRecord
100
AcDbLinetypeTableRecord
  2
HIDDEN
 70
     0
  3
Hidden __ __ __ __ __ __ __ __ __ __ __ __ __ __
 72
    65
 73
     2
 40
1.905
 49
1.27
 74
     0
 49
-0.635
 74
     0
  0
LTYPE
  5
6F
330
5
100
AcDbSymbolTableRecord
100
AcDbLinetypeTableRecord
  2
PHANTOM
 70
     0
  3
Phantom ______  __  __  ______  __  __  ______
 72
    65
 73
     6
 40
12.7
 49
6.35
 74
     0
 49
-1.27
 74
     0
 49
1.27
 74
     0
 49
-1.27
 74
     0
 49
1.27
 74
     0
 49
-1.27
 74
     0
  0
LTYPE
  5
70
330
5
100
AcDbSymbolTableRecord
100
AcDbLinetypeTableRecord
  2
CENTER
 70
     0
  3
Center ____ _ ____ _ ____ _ ____ _ ____ _ ____
 72
    65
 73
     4
 40
10.16
 49
6.35
 74
     0
 49
-1.27
 74
     0
 49
1.27
 74
     0
 49
-1.27
 74
     0
  0
LTYPE
  5
71
330
5
100
AcDbSymbolTableRecord
100
AcDbLinetypeTableRecord
  2
CENTERX2
 70
     0
  3
Center (2x) ________  __  ________  __  _____
 72
    65
 73
     4
 40
20.32
 49
12.7
 74
     0
 49
-2.54
 74
     0
 49
2.54
 74
     0
 49
-2.54
 74
     0
  0
LTYPE
  5
72
330
5
100
AcDbSymbolTableRecord
100
AcDbLinetypeTableRecord
  2
DOT2
 70
     0
  3
Dot (.5x) ........................................
 72
    65
 73
     2
 40
0.635
 49
0.0
 74
     0
 49
-0.635
 74
     0
  0
ENDTAB
  0
TABLE
  2
LAYER
  5
2
330
0
100
AcDbSymbolTable
 70
     1
  0
LAYER
  5
10
330
2
100
AcDbSymbolTableRecord
100
AcDbLayerTableRecord
  2
0
 70
     0
 62
     7
  6
Continuous
370
    -3
390
F
  0
ENDTAB
  0
TABLE
  2
STYLE
  5
3
330
0
100
AcDbSymbolTable
 70
     1
  0
STYLE
  5
11
330
3
100
AcDbSymbolTableRecord
100
AcDbTextStyleTableRecord
  2
Standard
 70
     0
 40
0.0
 41
1.0
 50
0.0
 71
     0
 42
3.5
  3
txt
  4

  0
ENDTAB
  0
TABLE
  2
VIEW
  5
6
330
0
100
AcDbSymbolTable
 70
     0
  0
ENDTAB
  0
TABLE
  2
UCS
  5
7
330
0
100
AcDbSymbolTable
 70
     0
  0
ENDTAB
  0
TABLE
  2
APPID
  5
9
330
0
100
AcDbSymbolTable
 70
     1
  0
APPID
  5
12
330
9
100
AcDbSymbolTableRecord
100
AcDbRegAppTableRecord
  2
ACAD
 70
     0
  0
ENDTAB
  0
TABLE
  2
DIMSTYLE
  5
A
330
0
100
AcDbSymbolTable
 70
     1
100
AcDbDimStyleTable
  0
DIMSTYLE
105
27
330
A
100
AcDbSymbolTableRecord
100
AcDbDimStyleTableRecord
  2
ISO-25
 70
     0
 41
2.5
 42
0.625
 43
3.75
 44
1.25
 73
     0
 74
     0
 77
     1
 78
     8
140
2.5
141
2.5
143
0.0393700787
147
0.625
171
     3
172
     1
178
     0
271
     2
272
     2
274
     3
278
    44
283
     0
284
     8
340
11
  0
ENDTAB
  0
TABLE
  2
BLOCK_RECORD
  5
1
330
0
100
AcDbSymbolTable
 70
     7
  0
BLOCK_RECORD
  5
1F
330
1
100
AcDbSymbolTableRecord
100
AcDbBlockTableRecord
  2
*Model_Space
340
22
  0
BLOCK_RECORD
  5
1B
330
1
100
AcDbSymbolTableRecord
100
AcDbBlockTableRecord
  2
*Paper_Space
340
1E
  0
BLOCK_RECORD
  5
23
330
1
100
AcDbSymbolTableRecord
100
AcDbBlockTableRecord
  2
*Paper_Space0
340
26
  0
BLOCK_RECORD
  5
14F
330
1
100
AcDbSymbolTableRecord
100
AcDbBlockTableRecord
  2
*Paper_Space1
340
150
  0
BLOCK_RECORD
  5
18D
330
1
100
AcDbSymbolTableRecord
100
AcDbBlockTableRecord
  2
*Paper_Space2
340
18E
  0
BLOCK_RECORD
  5
1BB
330
1
100
AcDbSymbolTableRecord
100
AcDbBlockTableRecord
  2
*Paper_Space3
340
1BC
  0
BLOCK_RECORD
  5
252
330
1
100
AcDbSymbolTableRecord
100
AcDbBlockTableRecord
  2
*Paper_Space4
340
253
  0
BLOCK_RECORD
  5
2D8
330
1
100
AcDbSymbolTableRecord
100
AcDbBlockTableRecord
  2
*Paper_Space5
340
2D9
  0
BLOCK_RECORD
  5
352
330
1
100
AcDbSymbolTableRecord
100
AcDbBlockTableRecord
  2
*Paper_Space6
340
353
  0
ENDTAB
  0
ENDSEC
  0
SECTION
  2
BLOCKS
  0
BLOCK
  5
20
330
1F
100
AcDbEntity
  8
0
100
AcDbBlockBegin
  2
*Model_Space
 70
     0
 10
0.0
 20
0.0
 30
0.0
  3
*Model_Space
  1

  0
ENDBLK
  5
21
330
1F
100
AcDbEntity
  8
0
100
AcDbBlockEnd
  0
BLOCK
  5
1C
330
1B
100
AcDbEntity
 67
     1
  8
0
100
AcDbBlockBegin
  2
*Paper_Space
 70
     0
 10
0.0
 20
0.0
 30
0.0
  3
*Paper_Space
  1

  0
ENDBLK
  5
1D
330
1B
100
AcDbEntity
 67
     1
  8
0
100
AcDbBlockEnd
  0
BLOCK
  5
24
330
23
100
AcDbEntity
  8
0
100
AcDbBlockBegin
  2
*Paper_Space0
 70
     0
 10
0.0
 20
0.0
 30
0.0
  3
*Paper_Space0
  1

  0
SPLINE
  5
FC
330
23
100
AcDbEntity
  8
0
  6
Continuous
 62
     7
370
    25
100
AcDbSpline
210
0.0
220
0.0
230
1.0
 70
     8
 71
     3
 72
    18
 73
    14
 74
     0
 42
0.000000001
 43
0.00000001
 40
0.0
 40
0.0
 40
0.0
 40
0.0
 40
0.2500000000000152
 40
0.2500000000000152
 40
0.3750000000000188
 40
0.3750000000000188
 40
0.5000000000000223
 40
0.5000000000000223
 40
0.7500000000000179
 40
0.7500000000000179
 40
0.8750000000000089
 40
0.8750000000000089
 40
1.0
 40
1.0
 40
1.0
 40
1.0
 10
-118.6622869477694
 20
510.0
 30
0.0
 10
-118.2151966464637
 20
509.9999999999999
 30
0.0
 10
-117.7780042699374
 20
510.001004506577
 30
0.0
 10
-117.1367228676537
 20
509.9949036158063
 30
0.0
 10
-116.9241870515313
 20
509.991352106024
 30
0.0
 10
-116.5162122407637
 20
509.9778135093209
 30
0.0
 10
-116.3195221995342
 20
509.9678447664509
 30
0.0
 10
-115.7514105400716
 20
509.9213397207935
 30
0.0
 10
-115.3974815445408
 20
509.8668221391407
 30
0.0
 10
-114.9492411790534
 20
509.7218072765297
 30
0.0
 10
-114.8121756310351
 20
509.6629462153551
 30
0.0
 10
-114.5625378417484
 20
509.5179103232814
 30
0.0
 10
-114.4497554924545
 20
509.4311084023436
 30
0.0
 10
-114.3520840699533
 20
509.3301270189222
 30
0.0
  0
SPLINE
  5
FE
330
23
100
AcDbEntity
  8
0
  6
Continuous
 62
     7
370
    25
100
AcDbSpline
210
0.0
220
0.0
230
1.0
 70
     8
 71
     3
 72
    18
 73
    14
 74
     0
 42
0.000000001
 43
0.00000001
 40
0.0
 40
0.0
 40
0.0
 40
0.0
 40
0.2499999999999978
 40
0.2499999999999978
 40
0.4999999999999956
 40
0.4999999999999956
 40
0.6249999999999967
 40
0.6249999999999967
 40
0.7499999999999978
 40
0.7499999999999978
 40
0.8749999999999989
 40
0.8749999999999989
 40
1.0
 40
1.0
 40
1.0
 40
1.0
 10
114.3520840699534
 20
509.3301270189222
 30
0.0
 10
114.546848175309
 20
509.5314914333643
 30
0.0
 10
114.7928227556368
 20
509.6707695160133
 30
0.0
 10
115.3979643933013
 20
509.867406933629
 30
0.0
 10
115.7433810231755
 20
509.9204758844717
 30
0.0
 10
116.3165609884283
 20
509.9677037665538
 30
0.0
 10
116.515665680464
 20
509.9777811745041
 30
0.0
 10
116.9222525775733
 20
509.9913020216602
 30
0.0
 10
117.130798863245
 20
509.9948183360585
 30
0.0
 10
117.5584099141813
 20
509.9989435130668
 30
0.0
 10
117.7779296612193
 20
509.9995428130782
 30
0.0
 10
118.2177380194827
 20
510.0000647185921
 30
0.0
 10
118.4392140749784
 20
509.9999999999999
 30
0.0
 10
118.6622869477694
 20
510.0
 30
0.0
  0
LINE
  5
125
330
23
100
AcDbEntity
  8
0
  6
Continuous
 62
     7
370
    25
100
AcDbLine
 10
-182.5
 20
586.0
 30
0.0
 11
182.5
 21
586.0
 31
0.0
  0
LINE
  5
126
330
23
100
AcDbEntity
  8
0
  6
Continuous
 62
     7
370
    25
100
AcDbLine
 10
-177.5
 20
620.0
 30
0.0
 11
-177.5
 21
585.0
 31
0.0
  0
LINE
  5
127
330
23
100
AcDbEntity
  8
0
  6
Continuous
 62
     7
370
    25
100
AcDbLine
 10
182.5
 20
615.0
 30
0.0
 11
-182.5
 21
615.0
 31
0.0
  0
LINE
  5
128
330
23
100
AcDbEntity
  8
0
  6
Continuous
 62
     7
370
    25
100
AcDbLine
 10
177.5
 20
585.0
 30
0.0
 11
177.5
 21
620.0
 31
0.0
  0
LINE
  5
129
330
23
100
AcDbEntity
  8
0
  6
Continuous
 62
     7
370
    25
100
AcDbLine
 10
-177.5
 20
620.0
 30
0.0
 11
177.5
 21
620.0
 31
0.0
  0
LINE
  5
12A
330
23
100
AcDbEntity
  8
0
  6
Continuous
 62
     7
370
    25
100
AcDbLine
 10
-182.5
 20
586.0
 30
0.0
 11
-182.5
 21
615.0
 31
0.0
  0
LINE
  5
12B
330
23
100
AcDbEntity
  8
0
  6
Continuous
 62
     7
370
    25
100
AcDbLine
 10
182.5
 20
615.0
 30
0.0
 11
182.5
 21
586.0
 31
0.0
  0
LINE
  5
12C
330
23
100
AcDbEntity
  8
0
  6
Continuous
 62
     7
370
    25
100
AcDbLine
 10
110.1638896601
 20
505.0
 30
0.0
 11
-110.1638896601
 21
505.0
 31
0.0
  0
LINE
  5
12D
330
23
100
AcDbEntity
  8
0
  6
Continuous
 62
     7
370
    25
100
AcDbLine
 10
-110.1638896601
 20
505.0
 30
0.0
 11
-114.35208407
 21
509.3301270189
 31
0.0
  0
LINE
  5
12E
330
23
100
AcDbEntity
  8
0
  6
Continuous
 62
     7
370
    25
100
AcDbLine
 10
118.6622869478
 20
510.0
 30
0.0
 11
-118.6622869478
 21
510.0
 31
0.0
  0
LINE
  5
12F
330
23
100
AcDbEntity
  8
0
  6
Continuous
 62
     7
370
    25
100
AcDbLine
 10
110.1638896601
 20
505.0
 30
0.0
 11
114.35208407
 21
509.3301270189
 31
0.0
  0
LINE
  5
130
330
23
100
AcDbEntity
  8
0
  6
Continuous
 62
     7
370
    25
100
AcDbLine
 10
-114.35208407
 20
509.3301270189
 30
0.0
 11
-124.1678968855
 21
214.8557425535
 31
0.0
  0
LINE
  5
131
330
23
100
AcDbEntity
  8
0
  6
Continuous
 62
     7
370
    25
100
AcDbLine
 10
-128.4956202811
 20
215.0
 30
0.0
 11
-124.1678968855
 21
214.8557425535
 31
0.0
  0
LINE
  5
132
330
23
100
AcDbEntity
  8
0
  6
Continuous
 62
     7
370
    25
100
AcDbLine
 10
-128.4956202811
 20
215.0
 30
0.0
 11
-118.6622869478
 21
510.0
 31
0.0
  0
LINE
  5
133
330
23
100
AcDbEntity
  8
0
  6
Continuous
 62
     7
370
    25
100
AcDbLine
 10
118.6622869478
 20
510.0
 30
0.0
 11
128.4956202811
 21
215.0
 31
0.0
  0
LINE
  5
134
330
23
100
AcDbEntity
  8
0
  6
Continuous
 62
     7
370
    25
100
AcDbLine
 10
128.4956202811
 20
215.0
 30
0.0
 11
124.1678968855
 21
214.8557425535
 31
0.0
  0
LINE
  5
135
330
23
100
AcDbEntity
  8
0
  6
Continuous
 62
     7
370
    25
100
AcDbLine
 10
124.1678968855
 20
214.8557425535
 30
0.0
 11
114.35208407
 21
509.3301270189
 31
0.0
  0
LINE
  5
136
330
23
100
AcDbEntity
  8
0
  6
Continuous
 62
     7
370
    25
100
AcDbLine
 10
-180.0
 20
215.0
 30
0.0
 11
-128.4956202811
 21
215.0
 31
0.0
  0
LINE
  5
137
330
23
100
AcDbEntity
  8
0
  6
Continuous
 62
     7
370
    25
100
AcDbLine
 10
-175.0
 20
585.0
 30
0.0
 11
-175.0
 21
210.0
 31
0.0
  0
LINE
  5
138
330
23
100
AcDbEntity
  8
0
  6
Continuous
 62
     7
370
    25
100
AcDbLine
 10
-181.5
 20
585.0
 30
0.0
 11
181.5
 21
585.0
 31
0.0
  0
LINE
  5
139
330
23
100
AcDbEntity
  8
0
  6
Continuous
 62
     7
370
    25
100
AcDbLine
 10
175.0
 20
210.0
 30
0.0
 11
175.0
 21
585.0
 31
0.0
  0
LINE
  5
13A
330
23
100
AcDbEntity
  8
0
  6
Continuous
 62
     7
370
    25
100
AcDbLine
 10
128.4956202811
 20
215.0
 30
0.0
 11
180.0
 21
215.0
 31
0.0
  0
LINE
  5
13B
330
23
100
AcDbEntity
  8
0
  6
Continuous
 62
     7
370
    25
100
AcDbLine
 10
-180.0
 20
215.0
 30
0.0
 11
-180.0
 21
585.0
 31
0.0
  0
LINE
  5
13C
330
23
100
AcDbEntity
  8
0
  6
Continuous
 62
     7
370
    25
100
AcDbLine
 10
-128.4956202811
 20
215.0
 30
0.0
 11
-128.4956202811
 21
210.0
 31
0.0
  0
LINE
  5
13D
330
23
100
AcDbEntity
  8
0
  6
Continuous
 62
     7
370
    25
100
AcDbLine
 10
180.0
 20
585.0
 30
0.0
 11
180.0
 21
215.0
 31
0.0
  0
LINE
  5
13E
330
23
100
AcDbEntity
  8
0
  6
Continuous
 62
     7
370
    25
100
AcDbLine
 10
128.4956202811
 20
215.0
 30
0.0
 11
128.4956202811
 21
210.0
 31
0.0
  0
LINE
  5
13F
330
23
100
AcDbEntity
  8
0
  6
Continuous
 62
     7
370
    25
100
AcDbLine
 10
175.0
 20
210.0
 30
0.0
 11
-175.0
 21
210.0
 31
0.0
  0
LINE
  5
140
330
23
100
AcDbEntity
  8
0
  6
Continuous
 62
     7
370
    25
100
AcDbLine
 10
-119.8305563267
 20
210.0
 30
0.0
 11
-119.8305563267
 21
215.0
 31
0.0
  0
LINE
  5
141
330
23
100
AcDbEntity
  8
0
  6
Continuous
 62
     7
370
    25
100
AcDbLine
 10
-119.8305563267
 20
215.0
 30
0.0
 11
-124.1678968855
 21
214.8557425535
 31
0.0
  0
LINE
  5
142
330
23
100
AcDbEntity
  8
0
  6
Continuous
 62
     7
370
    25
100
AcDbLine
 10
119.8305563267
 20
215.0
 30
0.0
 11
110.1638896601
 21
505.0
 31
0.0
  0
LINE
  5
143
330
23
100
AcDbEntity
  8
0
  6
Continuous
 62
     7
370
    25
100
AcDbLine
 10
124.1678968855
 20
214.8557425535
 30
0.0
 11
119.8305563267
 21
215.0
 31
0.0
  0
LINE
  5
144
330
23
100
AcDbEntity
  8
0
  6
Continuous
 62
     7
370
    25
100
AcDbLine
 10
-110.1638896601
 20
505.0
 30
0.0
 11
-119.8305563267
 21
215.0
 31
0.0
  0
LINE
  5
145
330
23
100
AcDbEntity
  8
0
  6
Continuous
 62
     7
370
    25
100
AcDbLine
 10
119.8305563267
 20
210.0
 30
0.0
 11
119.8305563267
 21
215.0
 31
0.0
  0
LINE
  5
146
330
23
100
AcDbEntity
  8
0
  6
Continuous
 62
     7
370
    25
100
AcDbLine
 10
-119.8305563267
 20
215.0
 30
0.0
 11
119.8305563267
 21
215.0
 31
0.0
  0
ARC
  5
147
330
23
100
AcDbEntity
  8
0
  6
Continuous
 62
     7
370
    25
100
AcDbCircle
 10
-181.5
 20
586.0
 30
0.0
 40
0.9999999999998863
100
AcDbArc
 50
180.0
 51
270.0
  0
ARC
  5
148
330
23
100
AcDbEntity
  8
0
  6
Continuous
 62
     7
370
    25
100
AcDbCircle
 10
-177.5
 20
615.0
 30
0.0
 40
5.0
100
AcDbArc
 50
90.0
 51
180.0
  0
ARC
  5
149
330
23
100
AcDbEntity
  8
0
  6
Continuous
 62
     7
370
    25
100
AcDbCircle
 10
181.5
 20
586.0
 30
0.0
 40
0.9999999999998863
100
AcDbArc
 50
270.0
 51
0.0
  0
ARC
  5
14A
330
23
100
AcDbEntity
  8
0
  6
Continuous
 62
     7
370
    25
100
AcDbCircle
 10
177.5
 20
615.0
 30
0.0
 40
4.999999999999915
100
AcDbArc
 50
360.0
 51
90.0
  0
ARC
  5
14B
330
23
100
AcDbEntity
  8
0
  6
Continuous
 62
     7
370
    25
100
AcDbCircle
 10
-128.842851763
 20
214.6659052299
 30
0.0
 40
4.678807681060888
100
AcDbArc
 50
274.2560429095
 51
2.3253496859
  0
ARC
  5
14C
330
23
100
AcDbEntity
  8
0
  6
Continuous
 62
     7
370
    25
100
AcDbCircle
 10
-175.0
 20
215.0
 30
0.0
 40
5.0
100
AcDbArc
 50
180.0
 51
270.0
  0
ARC
  5
14D
330
23
100
AcDbEntity
  8
0
  6
Continuous
 62
     7
370
    25
100
AcDbCircle
 10
128.842851763
 20
214.6659052299
 30
0.0
 40
4.678807681060913
100
AcDbArc
 50
177.6746503141
 51
265.7439570905
  0
ARC
  5
14E
330
23
100
AcDbEntity
  8
0
  6
Continuous
 62
     7
370
    25
100
AcDbCircle
 10
175.0
 20
215.0
 30
0.0
 40
5.0
100
AcDbArc
 50
270.0
 51
0.0
  0
VIEWPORT
  5
3D5
330
23
100
AcDbEntity
  8
0
100
AcDbViewport
 10
0.0
 20
0.0
 30
0.0
 40
205.6
 41
156.0
 68
     1
 69
     1
 12
-322.5
 22
415.0
 13
0.0
 23
0.0
 14
10.0
 24
10.0
 15
10.0
 25
10.0
 16
0.0
 26
0.0
 36
1.0
 17
0.0
 27
0.0
 37
0.0
 42
50.0
 43
0.0
 44
0.0
 45
418.2
 50
0.0
 51
0.0
 72
   100
 90
   557152
  1

281
     0
 71
     1
 74
     0
110
0.0
120
0.0
130
0.0
111
1.0
121
0.0
131
0.0
112
0.0
122
1.0
132
0.0
 79
     0
146
0.0
  0
ENDBLK
  5
25
330
23
100
AcDbEntity
  8
0
100
AcDbBlockEnd
  0
BLOCK
  5
151
330
14F
100
AcDbEntity
  8
0
100
AcDbBlockBegin
  2
*Paper_Space1
 70
     0
 10
0.0
 20
0.0
 30
0.0
  3
*Paper_Space1
  1

  0
LINE
  5
179
330
14F
100
AcDbEntity
  8
0
  6
Continuous
 62
     7
370
    25
100
AcDbLine
 10
-142.5
 20
620.0
 30
0.0
 11
-142.5
 21
585.0
 31
0.0
  0
LINE
  5
17A
330
14F
100
AcDbEntity
  8
0
  6
Continuous
 62
     7
370
    25
100
AcDbLine
 10
-182.5
 20
586.0
 30
0.0
 11
-182.5
 21
615.0
 31
0.0
  0
LINE
  5
17B
330
14F
100
AcDbEntity
  8
0
  6
Continuous
 62
     7
370
    25
100
AcDbLine
 10
182.5
 20
615.0
 30
0.0
 11
-182.5
 21
615.0
 31
0.0
  0
LINE
  5
17C
330
14F
100
AcDbEntity
  8
0
  6
Continuous
 62
     7
370
    25
100
AcDbLine
 10
182.5
 20
615.0
 30
0.0
 11
182.5
 21
586.0
 31
0.0
  0
LINE
  5
17D
330
14F
100
AcDbEntity
  8
0
  6
Continuous
 62
     7
370
    25
100
AcDbLine
 10
-182.5
 20
586.0
 30
0.0
 11
182.5
 21
586.0
 31
0.0
  0
LINE
  5
17E
330
14F
100
AcDbEntity
  8
0
  6
Continuous
 62
     7
370
    25
100
AcDbLine
 10
142.5
 20
585.0
 30
0.0
 11
142.5
 21
620.0
 31
0.0
  0
LINE
  5
17F
330
14F
100
AcDbEntity
  8
0
  6
Continuous
 62
     7
370
    25
100
AcDbLine
 10
-177.5
 20
620.0
 30
0.0
 11
177.5
 21
620.0
 31
0.0
  0
LINE
  5
180
330
14F
100
AcDbEntity
  8
0
  6
Continuous
 62
     7
370
    25
100
AcDbLine
 10
181.5
 20
585.0
 30
0.0
 11
-181.5
 21
585.0
 31
0.0
  0
LINE
  5
181
330
14F
100
AcDbEntity
  8
0
  6
Continuous
 62
     7
370
    25
100
AcDbLine
 10
140.0
 20
210.0
 30
0.0
 11
140.0
 21
585.0
 31
0.0
  0
LINE
  5
182
330
14F
100
AcDbEntity
  8
0
  6
Continuous
 62
     7
370
    25
100
AcDbLine
 10
-180.0
 20
215.0
 30
0.0
 11
180.0
 21
215.0
 31
0.0
  0
LINE
  5
183
330
14F
100
AcDbEntity
  8
0
  6
Continuous
 62
     7
370
    25
100
AcDbLine
 10
-140.0
 20
585.0
 30
0.0
 11
-140.0
 21
210.0
 31
0.0
  0
LINE
  5
184
330
14F
100
AcDbEntity
  8
0
  6
Continuous
 62
     7
370
    25
100
AcDbLine
 10
175.0
 20
210.0
 30
0.0
 11
-175.0
 21
210.0
 31
0.0
  0
LINE
  5
185
330
14F
100
AcDbEntity
  8
0
  6
Continuous
 62
     7
370
    25
100
AcDbLine
 10
-180.0
 20
215.0
 30
0.0
 11
-180.0
 21
585.0
 31
0.0
  0
LINE
  5
186
330
14F
100
AcDbEntity
  8
0
  6
Continuous
 62
     7
370
    25
100
AcDbLine
 10
180.0
 20
585.0
 30
0.0
 11
180.0
 21
215.0
 31
0.0
  0
ARC
  5
187
330
14F
100
AcDbEntity
  8
0
  6
Continuous
 62
     7
370
    25
100
AcDbCircle
 10
-177.5
 20
615.0
 30
0.0
 40
5.0
100
AcDbArc
 50
90.0
 51
180.0
  0
ARC
  5
188
330
14F
100
AcDbEntity
  8
0
  6
Continuous
 62
     7
370
    25
100
AcDbCircle
 10
177.5
 20
615.0
 30
0.0
 40
5.0
100
AcDbArc
 50
0.0
 51
90.0
  0
ARC
  5
189
330
14F
100
AcDbEntity
  8
0
  6
Continuous
 62
     7
370
    25
100
AcDbCircle
 10
181.5
 20
586.0
 30
0.0
 40
0.9999999999998863
100
AcDbArc
 50
270.0
 51
0.0
  0
ARC
  5
18A
330
14F
100
AcDbEntity
  8
0
  6
Continuous
 62
     7
370
    25
100
AcDbCircle
 10
-181.5
 20
586.0
 30
0.0
 40
0.9999999999999147
100
AcDbArc
 50
180.0
 51
270.0
  0
ARC
  5
18B
330
14F
100
AcDbEntity
  8
0
  6
Continuous
 62
     7
370
    25
100
AcDbCircle
 10
-175.0
 20
215.0
 30
0.0
 40
5.0
100
AcDbArc
 50
180.0
 51
270.0
  0
ARC
  5
18C
330
14F
100
AcDbEntity
  8
0
  6
Continuous
 62
     7
370
    25
100
AcDbCircle
 10
175.0
 20
215.0
 30
0.0
 40
5.0
100
AcDbArc
 50
270.0
 51
0.0
  0
VIEWPORT
  5
3D7
330
14F
100
AcDbEntity
  8
0
100
AcDbViewport
 10
0.0
 20
0.0
 30
0.0
 40
205.6
 41
156.0
 68
     1
 69
     1
 12
-322.5
 22
415.0
 13
0.0
 23
0.0
 14
10.0
 24
10.0
 15
10.0
 25
10.0
 16
0.0
 26
0.0
 36
1.0
 17
0.0
 27
0.0
 37
0.0
 42
50.0
 43
0.0
 44
0.0
 45
418.2
 50
0.0
 51
0.0
 72
   100
 90
   557152
  1

281
     0
 71
     1
 74
     0
110
0.0
120
0.0
130
0.0
111
1.0
121
0.0
131
0.0
112
0.0
122
1.0
132
0.0
 79
     0
146
0.0
  0
ENDBLK
  5
152
330
14F
100
AcDbEntity
  8
0
100
AcDbBlockEnd
  0
BLOCK
  5
18F
330
18D
100
AcDbEntity
  8
0
100
AcDbBlockBegin
  2
*Paper_Space2
 70
     0
 10
0.0
 20
0.0
 30
0.0
  3
*Paper_Space2
  1

  0
CIRCLE
  5
1A1
330
18D
100
AcDbEntity
  8
0
  6
Continuous
 62
     7
370
    25
100
AcDbCircle
 10
-322.5
 20
0.0
 30
0.0
 40
17.00000000000017
  0
CIRCLE
  5
1A8
330
18D
100
AcDbEntity
  8
0
  6
Continuous
 62
     7
370
    25
100
AcDbCircle
 10
-322.5
 20
0.0
 30
0.0
 40
15.00000000000006
  0
LINE
  5
1A9
330
18D
100
AcDbEntity
  8
0
  6
Continuous
 62
     7
370
    25
100
AcDbLine
 10
-290.0
 20
-182.5
 30
0.0
 11
-290.0
 21
-177.5
 31
0.0
  0
LINE
  5
1AA
330
18D
100
AcDbEntity
  8
0
  6
Continuous
 62
     7
370
    25
100
AcDbLine
 10
-250.0
 20
-142.5
 30
0.0
 11
-255.0
 21
-142.5
 31
0.0
  0
LINE
  5
1AB
330
18D
100
AcDbEntity
  8
0
  6
Continuous
 62
     7
370
    25
100
AcDbLine
 10
-395.0
 20
-177.5
 30
0.0
 11
-290.0
 21
-177.5
 31
0.0
  0
LINE
  5
1AC
330
18D
100
AcDbEntity
  8
0
  6
Continuous
 62
     7
370
    25
100
AcDbLine
 10
-290.0
 20
177.5
 30
0.0
 11
-395.0
 21
177.5
 31
0.0
  0
LINE
  5
1AD
330
18D
100
AcDbEntity
  8
0
  6
Continuous
 62
     7
370
    25
100
AcDbLine
 10
-390.0
 20
182.5
 30
0.0
 11
-390.0
 21
-182.5
 31
0.0
  0
LINE
  5
1AE
330
18D
100
AcDbEntity
  8
0
  6
Continuous
 62
     7
370
    25
100
AcDbLine
 10
-390.0
 20
182.5
 30
0.0
 11
-290.0
 21
182.5
 31
0.0
  0
LINE
  5
1AF
330
18D
100
AcDbEntity
  8
0
  6
Continuous
 62
     7
370
    25
100
AcDbLine
 10
-290.0
 20
177.5
 30
0.0
 11
-290.0
 21
182.5
 31
0.0
  0
LINE
  5
1B0
330
18D
100
AcDbEntity
  8
0
  6
Continuous
 62
     7
370
    25
100
AcDbLine
 10
-290.0
 20
-182.5
 30
0.0
 11
-390.0
 21
-182.5
 31
0.0
  0
LINE
  5
1B1
330
18D
100
AcDbEntity
  8
0
  6
Continuous
 62
     7
370
    25
100
AcDbLine
 10
-255.0
 20
-142.5
 30
0.0
 11
-255.0
 21
142.5
 31
0.0
  0
LINE
  5
1B2
330
18D
100
AcDbEntity
  8
0
  6
Continuous
 62
     7
370
    25
100
AcDbLine
 10
-255.0
 20
142.5
 30
0.0
 11
-250.0
 21
142.5
 31
0.0
  0
LINE
  5
1B3
330
18D
100
AcDbEntity
  8
0
  6
Continuous
 62
     7
370
    25
100
AcDbLine
 10
-250.0
 20
142.5
 30
0.0
 11
-250.0
 21
-142.5
 31
0.0
  0
LINE
  5
1B4
330
18D
100
AcDbEntity
  8
0
  6
Continuous
 62
     7
370
    25
100
AcDbLine
 10
-395.0
 20
-177.5
 30
0.0
 11
-395.0
 21
177.5
 31
0.0
  0
ARC
  5
1B5
330
18D
100
AcDbEntity
  8
0
  6
Continuous
 62
     7
370
    25
100
AcDbCircle
 10
-290.0
 20
-142.5
 30
0.0
 40
40.00000000000006
100
AcDbArc
 50
270.0
 51
0.0
  0
ARC
  5
1B6
330
18D
100
AcDbEntity
  8
0
  6
Continuous
 62
     7
370
    25
100
AcDbCircle
 10
-290.0
 20
-142.5
 30
0.0
 40
35.00000000000003
100
AcDbArc
 50
270.0
 51
0.0
  0
ARC
  5
1B7
330
18D
100
AcDbEntity
  8
0
  6
Continuous
 62
     7
370
    25
100
AcDbCircle
 10
-390.0
 20
-177.5
 30
0.0
 40
5.0
100
AcDbArc
 50
180.0
 51
270.0
  0
ARC
  5
1B8
330
18D
100
AcDbEntity
  8
0
  6
Continuous
 62
     7
370
    25
100
AcDbCircle
 10
-290.0
 20
142.5
 30
0.0
 40
35.00000000000006
100
AcDbArc
 50
0.0
 51
90.0
  0
ARC
  5
1B9
330
18D
100
AcDbEntity
  8
0
  6
Continuous
 62
     7
370
    25
100
AcDbCircle
 10
-390.0
 20
177.5
 30
0.0
 40
5.0
100
AcDbArc
 50
90.0
 51
180.0
  0
ARC
  5
1BA
330
18D
100
AcDbEntity
  8
0
  6
Continuous
 62
     7
370
    25
100
AcDbCircle
 10
-290.0
 20
142.5
 30
0.0
 40
40.0
100
AcDbArc
 50
0.0
 51
90.0
  0
VIEWPORT
  5
3D9
330
18D
100
AcDbEntity
  8
0
100
AcDbViewport
 10
0.0
 20
0.0
 30
0.0
 40
205.6
 41
156.0
 68
     1
 69
     1
 12
-322.5
 22
415.0
 13
0.0
 23
0.0
 14
10.0
 24
10.0
 15
10.0
 25
10.0
 16
0.0
 26
0.0
 36
1.0
 17
0.0
 27
0.0
 37
0.0
 42
50.0
 43
0.0
 44
0.0
 45
418.2
 50
0.0
 51
0.0
 72
   100
 90
   557152
  1

281
     0
 71
     1
 74
     0
110
0.0
120
0.0
130
0.0
111
1.0
121
0.0
131
0.0
112
0.0
122
1.0
132
0.0
 79
     0
146
0.0
  0
ENDBLK
  5
190
330
18D
100
AcDbEntity
  8
0
100
AcDbBlockEnd
  0
BLOCK
  5
1BD
330
1BB
100
AcDbEntity
  8
0
100
AcDbBlockBegin
  2
*Paper_Space3
 70
     0
 10
0.0
 20
0.0
 30
0.0
  3
*Paper_Space3
  1

  0
CIRCLE
  5
1D4
330
1BB
100
AcDbEntity
  8
0
  6
Continuous
 62
     7
370
    25
100
AcDbCircle
 10
-322.5
 20
0.0
 30
0.0
 40
15.00000000000006
  0
CIRCLE
  5
1F3
330
1BB
100
AcDbEntity
  8
0
  6
Continuous
 62
     7
370
    25
100
AcDbCircle
 10
-321.0
 20
80.0
 30
0.0
 40
5.000000000000057
  0
CIRCLE
  5
1F4
330
1BB
100
AcDbEntity
  8
0
  6
Continuous
 62
     7
370
    25
100
AcDbCircle
 10
-321.0
 20
-80.0
 30
0.0
 40
5.000000000000057
  0
CIRCLE
  5
1F5
330
1BB
100
AcDbEntity
  8
0
  6
Continuous
 62
     7
370
    25
100
AcDbCircle
 10
-325.0
 20
0.0
 30
0.0
 40
34.0
  0
CIRCLE
  5
1F6
330
1BB
100
AcDbEntity
  8
0
  6
Continuous
 62
     7
370
    25
100
AcDbCircle
 10
-360.0
 20
110.0
 30
0.0
 40
11.99999999999983
  0
SPLINE
  5
201
330
1BB
100
AcDbEntity
  8
0
  6
Continuous
 62
     7
370
    25
100
AcDbSpline
210
0.0
220
0.0
230
1.0
 70
     8
 71
     3
 72
    18
 73
    14
 74
     0
 42
0.000000001
 43
0.00000001
 40
0.0
 40
0.0
 40
0.0
 40
0.0
 40
0.2500000000000152
 40
0.2500000000000152
 40
0.3750000000000188
 40
0.3750000000000188
 40
0.5000000000000223
 40
0.5000000000000223
 40
0.7500000000000179
 40
0.7500000000000179
 40
0.8750000000000089
 40
0.8750000000000089
 40
1.0
 40
1.0
 40
1.0
 40
1.0
 10
-395.0000000000005
 20
-118.6622869477694
 30
0.0
 10
-395.0000000000005
 20
-118.2151966464637
 30
0.0
 10
-394.9411687809475
 20
-117.7780042699374
 30
0.0
 10
-394.7669449301333
 20
-117.1367228676537
 30
0.0
 10
-394.6936567358037
 20
-116.9241870515313
 30
0.0
 10
-394.5216541959512
 20
-116.5162122407637
 30
0.0
 10
-394.4227785714266
 20
-116.3195221995342
 30
0.0
 10
-394.0883640215649
 20
-115.7514105400716
 30
0.0
 10
-393.8091645643583
 20
-115.3974815445408
 30
0.0
 10
-393.3475630918205
 20
-114.9492411790534
 30
0.0
 10
-393.1860531550859
 20
-114.8121756310351
 30
0.0
 10
-392.8501263120234
 20
-114.5625378417484
 30
0.0
 10
-392.674904886705
 20
-114.4497554924545
 30
0.0
 10
-392.5000000000005
 20
-114.3520840699533
 30
0.0
  0
SPLINE
  5
204
330
1BB
100
AcDbEntity
  8
0
  6
Continuous
 62
     7
370
    25
100
AcDbSpline
210
0.0
220
0.0
230
1.0
 70
     8
 71
     3
 72
    18
 73
    14
 74
     0
 42
0.000000001
 43
0.00000001
 40
0.0
 40
0.0
 40
0.0
 40
0.0
 40
0.2499999999999978
 40
0.2499999999999978
 40
0.4999999999999956
 40
0.4999999999999956
 40
0.6249999999999967
 40
0.6249999999999967
 40
0.7499999999999978
 40
0.7499999999999978
 40
0.8749999999999989
 40
0.8749999999999989
 40
1.0
 40
1.0
 40
1.0
 40
1.0
 10
-392.5000000000005
 20
114.3520840699534
 30
0.0
 10
-392.8487733966505
 20
114.546848175309
 30
0.0
 10
-393.1858769595851
 20
114.7928227556368
 30
0.0
 10
-393.8102605243399
 20
115.3979643933013
 30
0.0
 10
-394.0830727150323
 20
115.7433810231755
 30
0.0
 10
-394.4213127514248
 20
116.3165609884283
 30
0.0
 10
-394.5213588367976
 20
116.515665680464
 30
0.0
 10
-394.6929056937529
 20
116.9222525775733
 30
0.0
 10
-394.7650516324762
 20
117.130798863245
 30
0.0
 10
-394.8817853697894
 20
117.5584099141813
 30
0.0
 10
-394.9262489556831
 20
117.7779296612193
 30
0.0
 10
-394.9851552624679
 20
118.2177380194827
 30
0.0
 10
-395.0000000000005
 20
118.4392140749784
 30
0.0
 10
-395.0000000000005
 20
118.6622869477694
 30
0.0
  0
LINE
  5
211
330
1BB
100
AcDbEntity
  8
0
  6
Continuous
 62
     7
370
    25
100
AcDbLine
 10
-367.0
 20
119.7467943448
 30
0.0
 11
-367.0
 21
100.2532056552
 31
0.0
  0
LINE
  5
212
330
1BB
100
AcDbEntity
  8
0
  6
Continuous
 62
     7
370
    25
100
AcDbLine
 10
-250.0
 20
142.5
 30
0.0
 11
-250.0
 21
-142.5
 31
0.0
  0
LINE
  5
213
330
1BB
100
AcDbEntity
  8
0
  6
Continuous
 62
     7
370
    25
100
AcDbLine
 10
-250.0
 20
-142.5
 30
0.0
 11
-251.0
 21
-142.5
 31
0.0
  0
LINE
  5
214
330
1BB
100
AcDbEntity
  8
0
  6
Continuous
 62
     7
370
    25
100
AcDbLine
 10
-251.0
 20
-142.5
 30
0.0
 11
-251.0
 21
142.5
 31
0.0
  0
LINE
  5
215
330
1BB
100
AcDbEntity
  8
0
  6
Continuous
 62
     7
370
    25
100
AcDbLine
 10
-250.0
 20
142.5
 30
0.0
 11
-251.0
 21
142.5
 31
0.0
  0
LINE
  5
216
330
1BB
100
AcDbEntity
  8
0
  6
Continuous
 62
     7
370
    25
100
AcDbLine
 10
-390.0
 20
-181.5
 30
0.0
 11
-390.0
 21
-182.5
 31
0.0
  0
LINE
  5
217
330
1BB
100
AcDbEntity
  8
0
  6
Continuous
 62
     7
370
    25
100
AcDbLine
 10
-290.0
 20
182.5
 30
0.0
 11
-290.0
 21
181.5
 31
0.0
  0
LINE
  5
218
330
1BB
100
AcDbEntity
  8
0
  6
Continuous
 62
     7
370
    25
100
AcDbLine
 10
-390.0
 20
-181.5
 30
0.0
 11
-290.0
 21
-181.5
 31
0.0
  0
LINE
  5
219
330
1BB
100
AcDbEntity
  8
0
  6
Continuous
 62
     7
370
    25
100
AcDbLine
 10
-290.0
 20
-181.5
 30
0.0
 11
-290.0
 21
-182.5
 31
0.0
  0
LINE
  5
21A
330
1BB
100
AcDbEntity
  8
0
  6
Continuous
 62
     7
370
    25
100
AcDbLine
 10
-290.0
 20
-182.5
 30
0.0
 11
-390.0
 21
-182.5
 31
0.0
  0
LINE
  5
21B
330
1BB
100
AcDbEntity
  8
0
  6
Continuous
 62
     7
370
    25
100
AcDbLine
 10
-290.0
 20
181.5
 30
0.0
 11
-390.0
 21
181.5
 31
0.0
  0
LINE
  5
21C
330
1BB
100
AcDbEntity
  8
0
  6
Continuous
 62
     7
370
    25
100
AcDbLine
 10
-395.0
 20
177.5
 30
0.0
 11
-395.0
 21
-177.5
 31
0.0
  0
LINE
  5
21D
330
1BB
100
AcDbEntity
  8
0
  6
Continuous
 62
     7
370
    25
100
AcDbLine
 10
-390.0
 20
182.5
 30
0.0
 11
-390.0
 21
181.5
 31
0.0
  0
LINE
  5
21E
330
1BB
100
AcDbEntity
  8
0
  6
Continuous
 62
     7
370
    25
100
AcDbLine
 10
-390.0
 20
182.5
 30
0.0
 11
-290.0
 21
182.5
 31
0.0
  0
LINE
  5
21F
330
1BB
100
AcDbEntity
  8
0
  6
Continuous
 62
     7
370
    25
100
AcDbLine
 10
-395.0
 20
-175.0
 30
0.0
 11
-295.0
 21
-175.0
 31
0.0
  0
LINE
  5
220
330
1BB
100
AcDbEntity
  8
0
  6
Continuous
 62
     7
370
    25
100
AcDbLine
 10
-390.0
 20
-128.4956202811
 30
0.0
 11
-390.0
 21
-180.0
 31
0.0
  0
LINE
  5
221
330
1BB
100
AcDbEntity
  8
0
  6
Continuous
 62
     7
370
    25
100
AcDbLine
 10
-395.0
 20
-128.4956202811
 30
0.0
 11
-390.0
 21
-128.4956202811
 31
0.0
  0
LINE
  5
222
330
1BB
100
AcDbEntity
  8
0
  6
Continuous
 62
     7
370
    25
100
AcDbLine
 10
-392.5
 20
-124.1678968855
 30
0.0
 11
-390.0
 21
-128.4956202811
 31
0.0
  0
LINE
  5
223
330
1BB
100
AcDbEntity
  8
0
  6
Continuous
 62
     7
370
    25
100
AcDbLine
 10
-385.0
 20
-119.8305563267
 30
0.0
 11
-390.0
 21
-119.8305563267
 31
0.0
  0
LINE
  5
224
330
1BB
100
AcDbEntity
  8
0
  6
Continuous
 62
     7
370
    25
100
AcDbLine
 10
-385.0
 20
119.8305563267
 30
0.0
 11
-385.0
 21
-119.8305563267
 31
0.0
  0
LINE
  5
225
330
1BB
100
AcDbEntity
  8
0
  6
Continuous
 62
     7
370
    25
100
AcDbLine
 10
-390.0
 20
-119.8305563267
 30
0.0
 11
-390.0
 21
119.8305563267
 31
0.0
  0
LINE
  5
226
330
1BB
100
AcDbEntity
  8
0
  6
Continuous
 62
     7
370
    25
100
AcDbLine
 10
-385.0
 20
119.8305563267
 30
0.0
 11
-390.0
 21
119.8305563267
 31
0.0
  0
LINE
  5
227
330
1BB
100
AcDbEntity
  8
0
  6
Continuous
 62
     7
370
    25
100
AcDbLine
 10
-295.0
 20
-180.0
 30
0.0
 11
-390.0
 21
-180.0
 31
0.0
  0
LINE
  5
228
330
1BB
100
AcDbEntity
  8
0
  6
Continuous
 62
     7
370
    25
100
AcDbLine
 10
-295.0
 20
-180.0
 30
0.0
 11
-295.0
 21
-175.0
 31
0.0
  0
LINE
  5
229
330
1BB
100
AcDbEntity
  8
0
  6
Continuous
 62
     7
370
    25
100
AcDbLine
 10
-255.0
 20
-140.0
 30
0.0
 11
-260.0
 21
-140.0
 31
0.0
  0
LINE
  5
22A
330
1BB
100
AcDbEntity
  8
0
  6
Continuous
 62
     7
370
    25
100
AcDbLine
 10
-390.0
 20
128.4956202811
 30
0.0
 11
-392.5
 21
124.1678968855
 31
0.0
  0
LINE
  5
22B
330
1BB
100
AcDbEntity
  8
0
  6
Continuous
 62
     7
370
    25
100
AcDbLine
 10
-390.0
 20
180.0
 30
0.0
 11
-295.0
 21
180.0
 31
0.0
  0
LINE
  5
22C
330
1BB
100
AcDbEntity
  8
0
  6
Continuous
 62
     7
370
    25
100
AcDbLine
 10
-295.0
 20
180.0
 30
0.0
 11
-295.0
 21
175.0
 31
0.0
  0
LINE
  5
22D
330
1BB
100
AcDbEntity
  8
0
  6
Continuous
 62
     7
370
    25
100
AcDbLine
 10
-295.0
 20
175.0
 30
0.0
 11
-395.0
 21
175.0
 31
0.0
  0
LINE
  5
22E
330
1BB
100
AcDbEntity
  8
0
  6
Continuous
 62
     7
370
    25
100
AcDbLine
 10
-390.0
 20
180.0
 30
0.0
 11
-390.0
 21
128.4956202811
 31
0.0
  0
LINE
  5
22F
330
1BB
100
AcDbEntity
  8
0
  6
Continuous
 62
     7
370
    25
100
AcDbLine
 10
-260.0
 20
-140.0
 30
0.0
 11
-260.0
 21
140.0
 31
0.0
  0
LINE
  5
230
330
1BB
100
AcDbEntity
  8
0
  6
Continuous
 62
     7
370
    25
100
AcDbLine
 10
-395.0
 20
128.4956202811
 30
0.0
 11
-390.0
 21
128.4956202811
 31
0.0
  0
LINE
  5
231
330
1BB
100
AcDbEntity
  8
0
  6
Continuous
 62
     7
370
    25
100
AcDbLine
 10
-255.0
 20
140.0
 30
0.0
 11
-255.0
 21
-140.0
 31
0.0
  0
LINE
  5
232
330
1BB
100
AcDbEntity
  8
0
  6
Continuous
 62
     7
370
    25
100
AcDbLine
 10
-255.0
 20
140.0
 30
0.0
 11
-260.0
 21
140.0
 31
0.0
  0
LINE
  5
233
330
1BB
100
AcDbEntity
  8
0
  6
Continuous
 62
     7
370
    25
100
AcDbLine
 10
-392.5
 20
-114.35208407
 30
0.0
 11
-392.5
 21
-124.1678968855
 31
0.0
  0
LINE
  5
234
330
1BB
100
AcDbEntity
  8
0
  6
Continuous
 62
     7
370
    25
100
AcDbLine
 10
-392.5
 20
124.1678968855
 30
0.0
 11
-392.5
 21
114.35208407
 31
0.0
  0
LINE
  5
235
330
1BB
100
AcDbEntity
  8
0
  6
Continuous
 62
     8
370
    25
100
AcDbLine
 10
-367.7950231112
 20
119.1234650597
 30
0.0
 11
-367.7950231112
 21
100.8765349403
 31
0.0
  0
LINE
  5
236
330
1BB
100
AcDbEntity
  8
0
  6
Continuous
 62
     8
370
    25
100
AcDbLine
 10
-368.7912178093
 20
101.8321061815
 30
0.0
 11
-368.7912178093
 21
118.1678938185
 31
0.0
  0
LINE
  5
237
330
1BB
100
AcDbEntity
  8
0
  6
Continuous
 62
     8
370
    25
100
AcDbLine
 10
-365.505987919
 20
99.3377255224
 30
0.0
 11
-365.505987919
 21
120.6622744776
 31
0.0
  0
LINE
  5
238
330
1BB
100
AcDbEntity
  8
0
  6
Continuous
 62
     8
370
    25
100
AcDbLine
 10
-394.3301270189
 20
-177.5
 30
0.0
 11
-395.0
 21
-177.5
 31
0.0
  0
LINE
  5
239
330
1BB
100
AcDbEntity
  8
0
  6
Continuous
 62
     8
370
    25
100
AcDbLine
 10
-394.3301270189
 20
177.5
 30
0.0
 11
-395.0
 21
177.5
 31
0.0
  0
LINE
  5
23A
330
1BB
100
AcDbEntity
  8
0
  6
Continuous
 62
     8
370
    25
100
AcDbLine
 10
-299.1901671413
 20
-22.1326123131
 30
0.0
 11
-299.1901671413
 21
22.1326123131
 31
0.0
  0
LINE
  5
23B
330
1BB
100
AcDbEntity
  8
0
  6
Continuous
 62
     8
370
    25
100
AcDbLine
 10
-345.8098328587
 20
26.8877454687
 30
0.0
 11
-345.8098328587
 21
-26.8877454687
 31
0.0
  0
ARC
  5
23C
330
1BB
100
AcDbEntity
  8
0
  6
Continuous
 62
     7
370
    25
100
AcDbCircle
 10
-390.0
 20
-177.5
 30
0.0
 40
5.0
100
AcDbArc
 50
180.0
 51
270.0
  0
ARC
  5
23D
330
1BB
100
AcDbEntity
  8
0
  6
Continuous
 62
     7
370
    25
100
AcDbCircle
 10
-290.0
 20
142.5
 30
0.0
 40
39.99999999999989
100
AcDbArc
 50
0.0
 51
90.0
  0
ARC
  5
23E
330
1BB
100
AcDbEntity
  8
0
  6
Continuous
 62
     7
370
    25
100
AcDbCircle
 10
-290.0
 20
142.5
 30
0.0
 40
39.00000000000006
100
AcDbArc
 50
0.0
 51
90.0
  0
ARC
  5
23F
330
1BB
100
AcDbEntity
  8
0
  6
Continuous
 62
     7
370
    25
100
AcDbCircle
 10
-290.0
 20
-142.5
 30
0.0
 40
38.99999999999994
100
AcDbArc
 50
270.0
 51
0.0
  0
ARC
  5
240
330
1BB
100
AcDbEntity
  8
0
  6
Continuous
 62
     7
370
    25
100
AcDbCircle
 10
-290.0
 20
-142.5
 30
0.0
 40
39.99999999999994
100
AcDbArc
 50
270.0
 51
0.0
  0
ARC
  5
241
330
1BB
100
AcDbEntity
  8
0
  6
Continuous
 62
     7
370
    25
100
AcDbCircle
 10
-390.0
 20
177.5
 30
0.0
 40
5.0
100
AcDbArc
 50
90.0
 51
180.0
  0
ARC
  5
242
330
1BB
100
AcDbEntity
  8
0
  6
Continuous
 62
     7
370
    25
100
AcDbCircle
 10
-390.0
 20
-175.0
 30
0.0
 40
5.0
100
AcDbArc
 50
180.0
 51
270.0
  0
ARC
  5
243
330
1BB
100
AcDbEntity
  8
0
  6
Continuous
 62
     7
370
    25
100
AcDbCircle
 10
-390.0032552063
 20
-128.4961441339
 30
0.0
 40
4.996744821202427
100
AcDbArc
 50
119.9784518558
 51
179.993993179
  0
ARC
  5
244
330
1BB
100
AcDbEntity
  8
0
  6
Continuous
 62
     7
370
    25
100
AcDbCircle
 10
-395.0064755748
 20
-119.8316283088
 30
0.0
 40
10.006475632204
100
AcDbArc
 50
300.0214092865
 51
0.0061380298
  0
ARC
  5
245
330
1BB
100
AcDbEntity
  8
0
  6
Continuous
 62
     7
370
    25
100
AcDbCircle
 10
-395.0097169557
 20
-119.8321631113
 30
0.0
 40
5.0097172133993
100
AcDbArc
 50
300.0641812321
 51
0.0183766813
  0
ARC
  5
246
330
1BB
100
AcDbEntity
  8
0
  6
Continuous
 62
     7
370
    25
100
AcDbCircle
 10
-295.0
 20
-140.0
 30
0.0
 40
40.0
100
AcDbArc
 50
270.0
 51
0.0
  0
ARC
  5
247
330
1BB
100
AcDbEntity
  8
0
  6
Continuous
 62
     7
370
    25
100
AcDbCircle
 10
-295.0
 20
-140.0
 30
0.0
 40
35.00000000000003
100
AcDbArc
 50
270.0
 51
0.0
  0
ARC
  5
248
330
1BB
100
AcDbEntity
  8
0
  6
Continuous
 62
     7
370
    25
100
AcDbCircle
 10
-395.0099555597
 20
119.8320255823
 30
0.0
 40
5.009955775187604
100
AcDbArc
 50
359.9831970282
 51
59.9342450584
  0
ARC
  5
249
330
1BB
100
AcDbEntity
  8
0
  6
Continuous
 62
     7
370
    25
100
AcDbCircle
 10
-395.0063442285
 20
119.8317040995
 30
0.0
 40
10.00634429428874
100
AcDbArc
 50
359.993427916
 51
59.9790247677
  0
ARC
  5
24A
330
1BB
100
AcDbEntity
  8
0
  6
Continuous
 62
     7
370
    25
100
AcDbCircle
 10
-295.0
 20
140.0
 30
0.0
 40
35.00000000000009
100
AcDbArc
 50
0.0
 51
90.0
  0
ARC
  5
24B
330
1BB
100
AcDbEntity
  8
0
  6
Continuous
 62
     7
370
    25
100
AcDbCircle
 10
-390.0032552063
 20
128.4961441339
 30
0.0
 40
4.99674482120233
100
AcDbArc
 50
180.006006821
 51
240.0215481442
  0
ARC
  5
24C
330
1BB
100
AcDbEntity
  8
0
  6
Continuous
 62
     7
370
    25
100
AcDbCircle
 10
-390.0
 20
175.0
 30
0.0
 40
5.0
100
AcDbArc
 50
90.0
 51
180.0
  0
ARC
  5
24D
330
1BB
100
AcDbEntity
  8
0
  6
Continuous
 62
     7
370
    25
100
AcDbCircle
 10
-295.0
 20
140.0
 30
0.0
 40
40.00000000000006
100
AcDbArc
 50
0.0
 51
90.0
  0
ARC
  5
24E
330
1BB
100
AcDbEntity
  8
0
  6
Continuous
 62
     7
370
    25
100
AcDbCircle
 10
-394.8159116668
 20
-110.1294373531
 30
0.0
 40
4.81603489856852
100
AcDbArc
 50
298.7425772551
 51
359.5901216117
  0
ARC
  5
24F
330
1BB
100
AcDbEntity
  8
0
  6
Continuous
 62
     7
370
    25
100
AcDbCircle
 10
-394.8159116668
 20
110.1294373531
 30
0.0
 40
4.816034898568521
100
AcDbArc
 50
0.4098783883
 51
61.2574227449
  0
ARC
  5
250
330
1BB
100
AcDbEntity
  8
0
  6
Continuous
 62
     8
370
    25
100
AcDbCircle
 10
-390.0
 20
-177.5
 30
0.0
 40
4.000000000000116
100
AcDbArc
 50
187.9032080481
 51
270.0
  0
ARC
  5
251
330
1BB
100
AcDbEntity
  8
0
  6
Continuous
 62
     8
370
    25
100
AcDbCircle
 10
-390.0
 20
177.5
 30
0.0
 40
4.000000000000047
100
AcDbArc
 50
90.0
 51
172.0967920789
  0
VIEWPORT
  5
3DB
330
1BB
100
AcDbEntity
  8
0
100
AcDbViewport
 10
0.0
 20
0.0
 30
0.0
 40
205.6
 41
156.0
 68
     1
 69
     1
 12
-322.5
 22
415.0
 13
0.0
 23
0.0
 14
10.0
 24
10.0
 15
10.0
 25
10.0
 16
0.0
 26
0.0
 36
1.0
 17
0.0
 27
0.0
 37
0.0
 42
50.0
 43
0.0
 44
0.0
 45
418.2
 50
0.0
 51
0.0
 72
   100
 90
   557152
  1

281
     0
 71
     1
 74
     0
110
0.0
120
0.0
130
0.0
111
1.0
121
0.0
131
0.0
112
0.0
122
1.0
132
0.0
 79
     0
146
0.0
  0
ENDBLK
  5
1BE
330
1BB
100
AcDbEntity
  8
0
100
AcDbBlockEnd
  0
BLOCK
  5
254
330
252
100
AcDbEntity
  8
0
100
AcDbBlockBegin
  2
*Paper_Space4
 70
     0
 10
0.0
 20
0.0
 30
0.0
  3
*Paper_Space4
  1

  0
SPLINE
  5
256
330
252
100
AcDbEntity
  8
0
  6
Continuous
 62
     7
370
    25
100
AcDbSpline
210
0.0
220
0.0
230
1.0
 70
     8
 71
     3
 72
    25
 73
    21
 74
     0
 42
0.000000001
 43
0.00000001
 40
0.0
 40
0.0
 40
0.0
 40
0.0
 40
0.0301897059999762
 40
0.0874390363131801
 40
0.1446749771775613
 40
0.2018845109068546
 40
0.2590662199759997
 40
0.3162225293269758
 40
0.3733579914530891
 40
0.4304782773591226
 40
0.4875896196925006
 40
0.5446985287275525
 40
0.6018110312499514
 40
0.6589322730849533
 40
0.7160690387845825
 40
0.7732280613059034
 40
0.8304158076929533
 40
0.8876380408234582
 40
0.9448989939033224
 40
1.0
 40
1.0
 40
1.0
 40
1.0
 10
-333.9008066957755
 20
521.9170069690513
 30
0.0
 10
-333.4479905218046
 20
521.6629615803008
 30
0.0
 10
-332.1364901753267
 20
520.9271649490863
 30
0.0
 10
-329.8033312710941
 20
519.8164639675381
 30
0.0
 10
-326.8569467177199
 20
518.6420370571982
 30
0.0
 10
-323.7427026399287
 20
517.6286719235446
 30
0.0
 10
-320.4892779695822
 20
516.78146319833
 30
0.0
 10
-317.1212113059785
 20
516.1071131406533
 30
0.0
 10
-313.6651529703998
 20
515.6103061848659
 30
0.0
 10
-310.1480170774901
 20
515.2946568436671
 30
0.0
 10
-306.5972506451092
 20
515.1624208021684
 30
0.0
 10
-303.0405313516289
 20
515.2145471831963
 30
0.0
 10
-299.505600736181
 20
515.450640165568
 30
0.0
 10
-296.0200520395239
 20
515.8689923149094
 30
0.0
 10
-292.6109426044642
 20
516.4665091600863
 30
0.0
 10
-289.3051835132507
 20
517.2391308150395
 30
0.0
 10
-286.1271018798819
 20
518.1804859813865
 30
0.0
 10
-283.1067965858268
 20
519.2871654088015
 30
0.0
 10
-280.2847669086491
 20
520.5232836554151
 30
0.0
 10
-278.5817156727481
 20
521.458424639063
 30
0.0
 10
-277.7465590305887
 20
521.9170069690513
 30
0.0
  0
SPLINE
  5
25C
330
252
100
AcDbEntity
  8
0
  6
Continuous
 62
     7
370
    25
100
AcDbSpline
210
0.0
220
0.0
230
1.0
 70
     8
 71
     3
 72
    12
 73
     8
 74
     0
 42
0.000000001
 43
0.00000001
 40
0.0
 40
0.0
 40
0.0
 40
0.0
 40
0.0225653663421659
 40
0.3056854626893775
 40
0.5834324709674497
 40
0.8738179293648387
 40
1.0
 40
1.0
 40
1.0
 40
1.0
 10
-406.2722117952446
 20
565.2344397533268
 30
0.0
 10
-406.2757672252799
 20
565.211882240629
 30
0.0
 10
-406.3239314455675
 20
564.9063031686301
 30
0.0
 10
-406.1299463093529
 20
564.3124319318567
 30
0.0
 10
-405.6882954332478
 20
563.5643287575389
 30
0.0
 10
-405.1313872337321
 20
563.0573672096554
 30
0.0
 10
-404.7323552191913
 20
562.8117977650843
 30
0.0
 10
-404.6114848144301
 20
562.7374125601868
 30
0.0
  0
SPLINE
  5
25E
330
252
100
AcDbEntity
  8
0
  6
Continuous
 62
     7
370
    25
100
AcDbSpline
210
0.0
220
0.0
230
1.0
 70
     8
 71
     3
 72
    30
 73
    26
 74
     0
 42
0.000000001
 43
0.00000001
 40
0.0
 40
0.0
 40
0.0
 40
0.0
 40
0.0306391390596207
 40
0.0768668882548968
 40
0.1202472286069771
 40
0.1664479891412552
 40
0.2110925068549993
 40
0.255214601202842
 40
0.2992774912915944
 40
0.3434539715386378
 40
0.3878155620062351
 40
0.4323514670318951
 40
0.4770168663700787
 40
0.5217541408292758
 40
0.5665013435105964
 40
0.6111761974441989
 40
0.6557128940956701
 40
0.7000505460304668
 40
0.7441396997001065
 40
0.7879635980154833
 40
0.8315841233037147
 40
0.8751831852691431
 40
0.9191483627730958
 40
0.9643889962401291
 40
1.0
 40
1.0
 40
1.0
 40
1.0
 10
-213.0753005103565
 20
636.3217203640205
 30
0.0
 10
-213.0692750772901
 20
636.114513808375
 30
0.0
 10
-213.0541585856257
 20
635.5946779498186
 30
0.0
 10
-213.3162130064368
 20
634.7615951821898
 30
0.0
 10
-213.8410125908798
 20
633.7801542644007
 30
0.0
 10
-214.6603013724161
 20
632.794549283561
 30
0.0
 10
-215.7779127221175
 20
631.8320689668792
 30
0.0
 10
-217.1440008237138
 20
630.952296200388
 30
0.0
 10
-218.7373532243052
 20
630.1745293353949
 30
0.0
 10
-220.5299623501805
 20
629.5193175221804
 30
0.0
 10
-222.4864831298961
 20
629.0052842281741
 30
0.0
 10
-224.5663211448697
 20
628.6474977369271
 30
0.0
 10
-226.7245534835811
 20
628.4567236324864
 30
0.0
 10
-228.9136892472997
 20
628.43890663326
 30
0.0
 10
-231.0847965521284
 20
628.5949423730744
 30
0.0
 10
-233.189069142555
 20
628.9204824054987
 30
0.0
 10
-235.1791555637774
 20
629.4058494007401
 30
0.0
 10
-237.0107638300057
 20
630.036084568991
 30
0.0
 10
-238.6438291229894
 20
630.7909032471281
 30
0.0
 10
-240.0447298725272
 20
631.6449120847454
 30
0.0
 10
-241.187214222126
 20
632.5681847632029
 30
0.0
 10
-242.0591972691112
 20
633.5281390127179
 30
0.0
 10
-242.6507734406196
 20
634.49541432073
 30
0.0
 10
-242.980866515806
 20
635.3718330452344
 30
0.0
 10
-243.0046706749248
 20
635.918818198551
 30
0.0
 10
-243.0151551874091
 20
636.159737133769
 30
0.0
  0
SPLINE
  5
25F
330
252
100
AcDbEntity
  8
0
  6
Continuous
 62
     7
370
    25
100
AcDbSpline
210
0.0
220
0.0
230
1.0
 70
     8
 71
     3
 72
    17
 73
    13
 74
     0
 42
0.000000001
 43
0.00000001
 40
0.0
 40
0.0
 40
0.0
 40
0.0
 40
0.0582462966192591
 40
0.162160794789595
 40
0.2662345822877586
 40
0.3713422382242988
 40
0.4781750008736275
 40
0.5871358003224962
 40
0.6982736472525806
 40
0.8113001614936187
 40
0.9257059546316628
 40
1.0
 40
1.0
 40
1.0
 40
1.0
 10
-64.33778757491207
 20
678.8192140032473
 30
0.0
 10
-64.33460519745249
 20
679.247653969791
 30
0.0
 10
-64.32574528895834
 20
680.4404536759852
 30
0.0
 10
-64.65999912069076
 20
682.3836475980977
 30
0.0
 10
-65.3027081382988
 20
684.6157423866769
 30
0.0
 10
-66.26008101103373
 20
686.7876921898599
 30
0.0
 10
-67.50907775947002
 20
688.8907206140597
 30
0.0
 10
-69.052408207086
 20
690.913746812908
 30
0.0
 10
-70.88263358929714
 20
692.843617261545
 30
0.0
 10
-72.99377288724202
 20
694.6605062346291
 30
0.0
 10
-75.07234990206568
 20
696.155540696398
 30
0.0
 10
-76.49112309801862
 20
697.0041350403146
 30
0.0
 10
-77.04971605189631
 20
697.3382397601982
 30
0.0
  0
SPLINE
  5
261
330
252
100
AcDbEntity
  8
0
  6
Continuous
 62
     7
370
    25
100
AcDbSpline
210
0.0
220
0.0
230
1.0
 70
     8
 71
     3
 72
    14
 73
    10
 74
     0
 42
0.000000001
 43
0.00000001
 40
0.0
 40
0.0
 40
0.0
 40
0.0
 40
0.0911038976080081
 40
0.2640345299469812
 40
0.4370445114255467
 40
0.6099305066338939
 40
0.7824943755020067
 40
0.9544775874645121
 40
1.0
 40
1.0
 40
1.0
 40
1.0
 10
-76.22112639242235
 20
638.2551629037871
 30
0.0
 10
-75.78049042734392
 20
638.5169103987002
 30
0.0
 10
-74.50345274869485
 20
639.2754989838073
 30
0.0
 10
-72.56462914405908
 20
640.6320983293257
 30
0.0
 10
-70.50430943715075
 20
642.3555391648721
 30
0.0
 10
-68.7087351877263
 20
644.1865334555405
 30
0.0
 10
-67.22173105227571
 20
646.1136872434389
 30
0.0
 10
-66.25479414878643
 20
647.6153373403025
 30
0.0
 10
-65.88734275048974
 20
648.4878108898191
 30
0.0
 10
-65.81043773169498
 20
648.6704135279764
 30
0.0
  0
SPLINE
  5
266
330
252
100
AcDbEntity
  8
0
  6
Continuous
 62
     7
370
    25
100
AcDbSpline
210
0.0
220
0.0
230
1.0
 70
     8
 71
     3
 72
    25
 73
    21
 74
     0
 42
0.000000001
 43
0.00000001
 40
0.0
 40
0.0
 40
0.0
 40
0.0
 40
0.0321720212617295
 40
0.0921457072068489
 40
0.1520221625771201
 40
0.2117870431186169
 40
0.2714205532832471
 40
0.3309301630465475
 40
0.3903387102367007
 40
0.4496772076511154
 40
0.5089808506016384
 40
0.568286969357209
 40
0.6276256938642764
 40
0.6870316409773386
 40
0.7465439235107513
 40
0.8062004856254487
 40
0.866035597075076
 40
0.9260749529581103
 40
0.9830360640336
 40
1.0
 40
1.0
 40
1.0
 40
1.0
 10
-334.8399839892676
 20
220.2105169528959
 30
0.0
 10
-334.3601431180375
 20
219.9417316735438
 30
0.0
 10
-332.9858037171477
 20
219.1718885402449
 30
0.0
 10
-330.5612313078008
 20
218.0289330203472
 30
0.0
 10
-327.5285658803382
 20
216.8411194071911
 30
0.0
 10
-324.3424606068017
 20
215.8335644704222
 30
0.0
 10
-321.0319152337887
 20
215.008071114002
 30
0.0
 10
-317.6217367823619
 20
214.3690593337454
 30
0.0
 10
-314.1379720977342
 20
213.9190656534498
 30
0.0
 10
-310.606402760531
 20
213.6600283198515
 30
0.0
 10
-307.0529858236748
 20
213.5929992947883
 30
0.0
 10
-303.5038315198511
 20
213.718230306564
 30
0.0
 10
-299.9850200889397
 20
214.0351201894692
 30
0.0
 10
-296.5223568401536
 20
214.5422657735691
 30
0.0
 10
-293.1409931423989
 20
215.2375292459879
 30
0.0
 10
-289.865710427677
 20
216.1183679453109
 30
0.0
 10
-286.7199407081086
 20
217.1811737728058
 30
0.0
 10
-283.7845399715333
 20
218.4014857252243
 30
0.0
 10
-281.6906095312226
 20
219.4451856872246
 30
0.0
 10
-280.5944554013686
 20
220.0676720210437
 30
0.0
 10
-280.3429156430291
 20
220.2105169528958
 30
0.0
  0
SPLINE
  5
26A
330
252
100
AcDbEntity
  8
0
  6
Continuous
 62
     7
370
    25
100
AcDbSpline
210
0.0
220
0.0
230
1.0
 70
     8
 71
     3
 72
    17
 73
    13
 74
     0
 42
0.000000001
 43
0.00000001
 40
0.0
 40
0.0
 40
0.0
 40
0.0
 40
0.0621477073473809
 40
0.17860617497786
 40
0.295103319434715
 40
0.4109608555662763
 40
0.5255150044469441
 40
0.6380996262366433
 40
0.7482715712590674
 40
0.8559887336390337
 40
0.9616381313405222
 40
0.9999999999999999
 40
0.9999999999999999
 40
0.9999999999999999
 40
0.9999999999999999
 10
-82.35301691079542
 20
334.5076526080749
 30
0.0
 10
-81.88413019888353
 20
334.7866037590939
 30
0.0
 10
-80.53659759169618
 20
335.5882809281437
 30
0.0
 10
-78.48159101237803
 20
337.0389735420964
 30
0.0
 10
-76.28641385421663
 20
338.90250084808
 30
0.0
 10
-74.36887684103804
 20
340.9097063943736
 30
0.0
 10
-72.75102863530758
 20
343.0365503543713
 30
0.0
 10
-71.45617120790953
 20
345.2578397317584
 30
0.0
 10
-70.48860122443983
 20
347.5437927717779
 30
0.0
 10
-69.88000177018672
 20
349.8644579388914
 30
0.0
 10
-69.59833976784668
 20
351.7100156758303
 30
0.0
 10
-69.63021657514997
 20
352.7699267003406
 30
0.0
 10
-69.63870795173428
 20
353.0522668848306
 30
0.0
  0
LWPOLYLINE
  5
26B
330
252
100
AcDbEntity
  8
0
  6
Continuous
 62
     7
370
    25
100
AcDbPolyline
 90
       17
 70
   128
 43
0.0
 10
-277.5394116157
 20
546.0545353202
 10
-280.4479514966
 20
544.5327201151
 10
-283.6008735424
 20
543.1828099505
 10
-286.9678133901
 20
542.0178051993
 10
-290.5163455686
 20
541.048925494
 10
-294.212295773
 20
540.285501676
 10
-298.0200699825
 20
539.7348859338
 10
-301.90299725
 20
539.4023809981
 10
-305.8236828632
 20
539.2911890732
 10
-309.7443684764
 20
539.4023809981
 10
-313.6272957438
 20
539.7348859338
 10
-317.4350699534
 20
540.285501676
 10
-321.1310201578
 20
541.048925494
 10
-324.6795523362
 20
542.0178051993
 10
-328.046492184
 20
543.1828099505
 10
-331.1994142297
 20
544.5327201151
 10
-334.1079541106
 20
546.0545353202
  0
LWPOLYLINE
  5
26D
330
252
100
AcDbEntity
  8
0
  6
Continuous
 62
     7
370
    25
100
AcDbPolyline
 90
       16
 70
   128
 43
0.0
 10
-330.5724202047
 20
552.1782596592
 10
-327.8498965499
 20
550.7631131245
 10
-324.8860490887
 20
549.5200041484
 10
-321.7133503541
 20
548.462552493
 10
-318.3665610973
 20
547.60234382
 10
-314.8823494418
 20
546.9488027555
 10
-311.2988891396
 20
546.5090896322
 10
-307.6554413317
 20
546.2880220392
 10
-303.9919243947
 20
546.2880220392
 10
-300.3484765868
 20
546.5090896322
 10
-296.7650162846
 20
546.9488027555
 10
-293.2808046291
 20
547.60234382
 10
-289.9340153723
 20
548.462552493
 10
-286.7613166377
 20
549.5200041484
 10
-283.7974691764
 20
550.7631131245
 10
-281.0749455217
 20
552.1782596592
  0
LWPOLYLINE
  5
270
330
252
100
AcDbEntity
  8
0
  6
Continuous
 62
     7
370
    25
100
AcDbPolyline
 90
       17
 70
   128
 43
0.0
 10
-334.1079541106
 20
522.3748517755
 10
-331.1994142297
 20
520.8530365704
 10
-328.046492184
 20
519.5031264058
 10
-324.6795523362
 20
518.3381216546
 10
-321.1310201578
 20
517.3692419493
 10
-317.4350699534
 20
516.6058181313
 10
-313.6272957438
 20
516.0552023891
 10
-309.7443684764
 20
515.7226974535
 10
-305.8236828632
 20
515.6115055286
 10
-301.90299725
 20
515.7226974535
 10
-298.0200699825
 20
516.0552023891
 10
-294.212295773
 20
516.6058181313
 10
-290.5163455686
 20
517.3692419493
 10
-286.9678133901
 20
518.3381216546
 10
-283.6008735424
 20
519.5031264058
 10
-280.4479514966
 20
520.8530365704
 10
-277.5394116157
 20
522.3748517755
  0
LWPOLYLINE
  5
272
330
252
100
AcDbEntity
  8
0
  6
Continuous
 62
     7
370
    25
100
AcDbPolyline
 90
       16
 70
   128
 43
0.0
 10
-79.5495128835
 20
668.5164155939
 10
-77.098141574
 20
670.0880950457
 10
-74.9447803469
 20
671.7990877656
 10
-73.1130218784
 20
673.6306477592
 10
-71.6229352976
 20
675.5627080721
 10
-70.4908463049
 20
677.5741006471
 10
-69.7291583042
 20
679.6427882463
 10
-69.3462165086
 20
681.7461058955
 10
-69.3462165086
 20
683.8610092062
 10
-69.7291583042
 20
685.9643268553
 10
-70.4908463049
 20
688.0330144545
 10
-71.6229352976
 20
690.0444070295
 10
-73.1130218784
 20
691.9764673424
 10
-74.9447803469
 20
693.8080273361
 10
-77.098141574
 20
695.519020056
 10
-79.5495128835
 20
697.0906995077
  0
LWPOLYLINE
  5
277
330
252
100
AcDbEntity
  8
0
  6
Continuous
 62
     7
370
    25
100
AcDbPolyline
 90
       44
 70
   128
 43
0.0
 10
-240.0627522128
 20
644.8405803511
 10
-238.184406067
 20
645.7770237674
 10
-236.0898908005
 20
646.5456057853
 10
-233.8238473697
 20
647.1299454136
 10
-231.4345725562
 20
647.5175884676
 10
-228.9729896045
 20
647.7002730085
 10
-226.4915628816
 20
647.6741054325
 10
-224.0431796899
 20
647.4396434562
 10
-221.6800230664
 20
647.0018842294
 10
-219.4524595917
 20
646.3701578301
 10
-217.4079659139
 20
645.5579284096
 10
-215.5901168662
 20
644.582507228
 10
-214.0376567449
 20
643.4646836943
 10
-212.7836735424
 20
642.2282822763
 10
-211.8548937334
 20
640.8996547237
 10
-211.271112647
 20
639.5071184261
 10
-211.0447725636
 20
638.080352877
 10
-211.1806975291
 20
636.649767107
 10
-211.6759905388
 20
635.2458515682
 10
-212.5200952822
 20
633.8985282827
 10
-213.6950211321
 20
632.6365131073
 10
-215.1757265839
 20
631.4867037044
 10
-216.9306529716
 20
630.4736062651
 10
-218.9223970861
 20
629.6188132026
 10
-221.1085083596
 20
628.9405429468
 10
-223.4423936255
 20
628.4532516508
 10
-225.8743101716
 20
628.1673250824
 10
-228.3524259188
 20
628.08885727
 10
-230.8239241323
 20
628.2195206189
 10
-233.2361291185
 20
628.5565302666
 10
-235.5376289163
 20
629.0927034376
 10
-237.679371053
 20
629.8166125316
 10
-239.6157080135
 20
630.7128286831
 10
-241.3053701372
 20
631.7622506008
 10
-242.7123452095
 20
632.9425116784
 10
-243.8066459994
 20
634.2284567002
 10
-244.5649493854
 20
635.5926779807
 10
-244.9710934474
 20
637.0060995118
 10
-245.0164219299
 20
638.4385966674
 10
-244.6999687349
 20
639.8596382576
 10
-244.0284785129
 20
641.2389372483
 10
-243.0162629122
 20
642.5470962759
 10
-241.6848955509
 20
643.7562342021
 10
-240.0627522128
 20
644.8405803511
  0
LWPOLYLINE
  5
281
330
252
100
AcDbEntity
  8
0
  6
Continuous
 62
     7
370
    25
100
AcDbPolyline
 90
       14
 70
   128
 43
0.0
 10
-238.6485386505
 20
635.8587641204
 10
-236.905143613
 20
636.7216852964
 10
-234.954002523
 20
637.4208609751
 10
-232.840848474
 20
637.9399030711
 10
-230.6152120059
 20
638.2666456776
 10
-228.329260151
 20
638.3934302248
 10
-226.0365736834
 20
638.3172849904
 10
-223.7908912307
 20
638.0399947542
 10
-221.6448496862
 20
637.5680589642
 10
-219.6487504449
 20
636.9125393954
 10
-217.8493803811
 20
636.088800871
 10
-216.2889152041
 20
635.1161511237
 10
-215.003930895
 20
634.0173882392
 10
-214.2757670984
 20
633.1749317381
  0
LWPOLYLINE
  5
284
330
252
100
AcDbEntity
  8
0
  6
Continuous
 62
     7
370
    25
100
AcDbPolyline
 90
       17
 70
   128
 43
0.0
 10
-335.8757210636
 20
222.4997409852
 10
-332.9671811827
 20
220.9779257801
 10
-329.8142591369
 20
219.6280156155
 10
-326.4473192892
 20
218.4630108643
 10
-322.8987871108
 20
217.4941311591
 10
-319.2028369063
 20
216.730707341
 10
-315.3950626968
 20
216.1800915989
 10
-311.5121354293
 20
215.8475866632
 10
-307.5914498161
 20
215.7363947383
 10
-303.670764203
 20
215.8475866632
 10
-299.7878369355
 20
216.1800915989
 10
-295.980062726
 20
216.730707341
 10
-292.2841125215
 20
217.4941311591
 10
-288.7355803431
 20
218.4630108643
 10
-285.3686404954
 20
219.6280156155
 10
-282.2157184496
 20
220.9779257801
 10
-279.3071785687
 20
222.4997409852
  0
LWPOLYLINE
  5
290
330
252
100
AcDbEntity
  8
0
  6
Continuous
 62
     8
370
    25
100
AcDbPolyline
 90
        7
 70
   128
 43
0.0
 10
-238.6485386505
 20
642.3910906155
 10
-240.1433239334
 20
641.384650083
 10
-241.3544629617
 20
640.2582803072
 10
-242.2535676631
 20
639.038382441
 10
-242.8195637854
 20
637.7535498564
 10
-243.0391848591
 20
636.4338979401
 10
-243.0419369327
 20
636.2680297768
  0
LWPOLYLINE
  5
291
330
252
100
AcDbEntity
  8
0
  6
Continuous
 62
     8
370
    25
100
AcDbPolyline
 90
       17
 70
   128
 43
0.0
 10
-213.0424730623
 20
636.3412420618
 10
-213.0666995356
 20
636.7653908324
 10
-213.3737176524
 20
638.0792181683
 10
-214.0245463969
 20
639.3505927834
 10
-215.003930895
 20
640.5497147343
 10
-216.2889152041
 20
641.6484776188
 10
-217.8493803811
 20
642.6211273661
 10
-219.6487504449
 20
643.4448658905
 10
-221.6448496862
 20
644.1003854593
 10
-223.7908912307
 20
644.5723212492
 10
-226.0365736834
 20
644.8496114855
 10
-228.329260151
 20
644.9257567199
 10
-230.6152120059
 20
644.7989721727
 10
-232.840848474
 20
644.4722295662
 10
-234.954002523
 20
643.9531874702
 10
-236.905143613
 20
643.2540117915
 10
-238.6485386505
 20
642.3910906155
  0
LWPOLYLINE
  5
293
330
252
100
AcDbEntity
  8
0
  6
Continuous
 62
     8
370
    25
100
AcDbPolyline
 90
       10
 70
   128
 43
0.0
 10
-64.2984825815
 20
678.7995606196
 10
-64.298250225
 20
678.7208534914
 10
-64.4908611581
 20
676.457489864
 10
-65.0668390089
 20
674.2159236655
 10
-66.0206367957
 20
672.017742404
 10
-67.3430689246
 20
669.8841157665
 10
-69.0213996511
 20
667.8355917439
 10
-71.0394657329
 20
665.8918987425
 10
-73.3778320905
 20
664.0717555883
 10
-76.0139789776
 20
662.3926912549
  0
LWPOLYLINE
  5
29B
330
252
100
AcDbEntity
  8
0
  6
Continuous
 62
     8
370
    25
100
AcDbPolyline
 90
        9
 70
   128
 43
0.0
 10
-81.3172798365
 20
336.7968766404
 10
-78.6811329494
 20
338.4759409738
 10
-76.3427665918
 20
340.296084128
 10
-74.32470051
 20
342.2397771294
 10
-72.6463697835
 20
344.288301152
 10
-71.3239376546
 20
346.4219277894
 10
-70.3701398678
 20
348.620109051
 10
-69.794162017
 20
350.8616752494
 10
-69.6015510839
 20
353.1250388769
  0
LINE
  5
2A0
330
252
100
AcDbEntity
  8
0
  6
Continuous
 62
     7
370
    25
100
AcDbLine
 10
-404.6114848144
 20
562.7374125602
 30
0.0
 11
-333.9008066958
 21
521.9170069691
 31
0.0
  0
LINE
  5
2A1
330
252
100
AcDbEntity
  8
0
  6
Continuous
 62
     7
370
    25
100
AcDbLine
 10
-277.7465590306
 20
521.9170069691
 30
0.0
 11
-76.2211263924
 21
638.2551629038
 31
0.0
  0
LINE
  5
2A2
330
252
100
AcDbEntity
  8
0
  6
Continuous
 62
     7
370
    25
100
AcDbLine
 10
-406.2830983234
 20
588.9159611909
 30
0.0
 11
-406.2830983234
 21
565.2362776462
 31
0.0
  0
LINE
  5
2A3
330
252
100
AcDbEntity
  8
0
  6
Continuous
 62
     7
370
    25
100
AcDbLine
 10
-152.7599878337
 20
738.1586453513
 30
0.0
 11
-403.782895155
 21
593.2462055028
 31
0.0
  0
LINE
  5
2A4
330
252
100
AcDbEntity
  8
0
  6
Continuous
 62
     7
370
    25
100
AcDbLine
 10
-240.0384471599
 20
631.6857342001
 30
0.0
 11
-228.4211602346
 21
638.3922511898
 31
0.0
  0
LINE
  5
2A5
330
252
100
AcDbEntity
  8
0
  6
Continuous
 62
     7
370
    25
100
AcDbLine
 10
-64.298250225
 20
655.0411699467
 30
0.0
 11
-64.298250225
 21
678.7208534914
 31
0.0
  0
LINE
  5
2A6
330
252
100
AcDbEntity
  8
0
  6
Continuous
 62
     7
370
    25
100
AcDbLine
 10
-77.0497160519
 20
697.3382397602
 30
0.0
 11
-147.7603941706
 21
738.1586453513
 31
0.0
  0
LINE
  5
2A7
330
252
100
AcDbEntity
  8
0
  6
Continuous
 62
     7
370
    25
100
AcDbLine
 10
-404.5153313704
 20
562.6819043585
 30
0.0
 11
-404.5153313704
 21
263.3201465764
 31
0.0
  0
LINE
  5
2A8
330
252
100
AcDbEntity
  8
0
  6
Continuous
 62
     7
370
    25
100
AcDbLine
 10
-69.6015510839
 20
353.1250388769
 30
0.0
 11
-69.6015510839
 21
643.3420599124
 31
0.0
  0
LINE
  5
2A9
330
252
100
AcDbEntity
  8
0
  6
Continuous
 62
     7
370
    25
100
AcDbLine
 10
-280.342915643
 20
220.2105169529
 30
0.0
 11
-82.3530169108
 21
334.5076526081
 31
0.0
  0
LINE
  5
2AA
330
252
100
AcDbEntity
  8
0
  6
Continuous
 62
     7
370
    25
100
AcDbLine
 10
-402.015128202
 20
258.9899022645
 30
0.0
 11
-334.8399839893
 21
220.2105169529
 31
0.0
  0
LINE
  5
2AB
330
252
100
AcDbEntity
  8
0
  6
Continuous
 62
     7
370
    25
100
AcDbLine
 10
-277.5394116157
 20
546.0545353202
 30
0.0
 11
-277.5394116157
 21
522.3748517755
 31
0.0
  0
LINE
  5
2AC
330
252
100
AcDbEntity
  8
0
  6
Continuous
 62
     7
370
    25
100
AcDbLine
 10
-334.1079541106
 20
522.3748517755
 30
0.0
 11
-334.1079541106
 21
546.0545353202
 31
0.0
  0
LINE
  5
2AD
330
252
100
AcDbEntity
  8
0
  6
Continuous
 62
     7
370
    25
100
AcDbLine
 10
-281.0749455217
 20
552.1782596592
 30
0.0
 11
-79.5495128835
 21
668.5164155939
 31
0.0
  0
LINE
  5
2AE
330
252
100
AcDbEntity
  8
0
  6
Continuous
 62
     7
370
    25
100
AcDbLine
 10
-401.2830983234
 20
592.9986652503
 30
0.0
 11
-330.5724202047
 21
552.1782596592
 31
0.0
  0
LINE
  5
2AF
330
252
100
AcDbEntity
  8
0
  6
Continuous
 62
     7
370
    25
100
AcDbLine
 10
-150.2601910021
 20
737.9111050989
 30
0.0
 11
-401.2830983234
 21
592.9986652503
 31
0.0
  0
LINE
  5
2B0
330
252
100
AcDbEntity
  8
0
  6
Continuous
 62
     7
370
    25
100
AcDbLine
 10
-79.5495128835
 20
697.0906995077
 30
0.0
 11
-150.2601910021
 21
737.9111050989
 31
0.0
  0
LINE
  5
2B1
330
252
100
AcDbEntity
  8
0
  6
Continuous
 62
     7
370
    25
100
AcDbLine
 10
-76.0139789776
 20
662.3926912549
 30
0.0
 11
-277.5394116157
 21
546.0545353202
 31
0.0
  0
LINE
  5
2B2
330
252
100
AcDbEntity
  8
0
  6
Continuous
 62
     7
370
    25
100
AcDbLine
 10
-334.1079541106
 20
546.0545353202
 30
0.0
 11
-404.8186322293
 21
586.8749409113
 31
0.0
  0
LINE
  5
2B3
330
252
100
AcDbEntity
  8
0
  6
Continuous
 62
     7
370
    25
100
AcDbLine
 10
-404.8186322293
 20
563.1952573667
 30
0.0
 11
-334.1079541106
 21
522.3748517755
 31
0.0
  0
LINE
  5
2B4
330
252
100
AcDbEntity
  8
0
  6
Continuous
 62
     7
370
    25
100
AcDbLine
 10
-404.8186322293
 20
586.8749409113
 30
0.0
 11
-404.8186322293
 21
563.1952573667
 31
0.0
  0
LINE
  5
2B5
330
252
100
AcDbEntity
  8
0
  6
Continuous
 62
     7
370
    25
100
AcDbLine
 10
-76.0139789776
 20
638.7130077103
 30
0.0
 11
-76.0139789776
 21
662.3926912549
 31
0.0
  0
LINE
  5
2B6
330
252
100
AcDbEntity
  8
0
  6
Continuous
 62
     7
370
    25
100
AcDbLine
 10
-277.5394116157
 20
522.3748517755
 30
0.0
 11
-76.0139789776
 21
638.7130077103
 31
0.0
  0
LINE
  5
2B7
330
252
100
AcDbEntity
  8
0
  6
Continuous
 62
     7
370
    25
100
AcDbLine
 10
-243.0419369327
 20
636.2680297768
 30
0.0
 11
-243.0397864738
 21
636.1214064918
 31
0.0
  0
LINE
  5
2B8
330
252
100
AcDbEntity
  8
0
  6
Continuous
 62
     7
370
    25
100
AcDbLine
 10
-279.3071785687
 20
222.4997409852
 30
0.0
 11
-81.3172798365
 21
336.7968766404
 31
0.0
  0
LINE
  5
2B9
330
252
100
AcDbEntity
  8
0
  6
Continuous
 62
     7
370
    25
100
AcDbLine
 10
-403.0508652763
 20
261.2791262968
 30
0.0
 11
-335.8757210636
 21
222.4997409852
 31
0.0
  0
LINE
  5
2BA
330
252
100
AcDbEntity
  8
0
  6
Continuous
 62
     8
370
    25
100
AcDbLine
 10
-240.2339207598
 20
631.8430913005
 30
0.0
 11
-228.9095310928
 21
638.3805223021
 31
0.0
  0
LINE
  5
2BB
330
252
100
AcDbEntity
  8
0
  6
Continuous
 62
     8
370
    25
100
AcDbLine
 10
-279.3071785687
 20
521.0906941995
 30
0.0
 11
-279.3071785687
 21
222.4997409852
 31
0.0
  0
LINE
  5
2BC
330
252
100
AcDbEntity
  8
0
  6
Continuous
 62
     8
370
    25
100
AcDbLine
 10
-335.8757210636
 20
222.4997409852
 30
0.0
 11
-335.8757210636
 21
523.057100766
 31
0.0
  0
LINE
  5
2BD
330
252
100
AcDbEntity
  8
0
  6
Continuous
 62
     8
370
    25
100
AcDbLine
 10
-81.3172798365
 20
336.7968766404
 30
0.0
 11
-81.3172798365
 21
635.3132161416
 31
0.0
  0
LINE
  5
2BE
330
252
100
AcDbEntity
  8
0
  6
Continuous
 62
     8
370
    25
100
AcDbLine
 10
-403.0508652763
 20
561.8364860776
 30
0.0
 11
-403.0508652763
 21
261.2791262968
 31
0.0
  0
ARC
  5
2BF
330
252
100
AcDbEntity
  8
0
  6
Continuous
 62
     7
370
    25
100
AcDbCircle
 10
-401.2830983234
 20
588.9159611909
 30
0.0
 40
5.000000000000178
100
AcDbArc
 50
119.9973117337
 51
180.0
  0
ARC
  5
2C0
330
252
100
AcDbEntity
  8
0
  6
Continuous
 62
     7
370
    25
100
AcDbCircle
 10
-150.2601910021
 20
733.8284010394
 30
0.0
 40
4.999999999999416
100
AcDbArc
 50
60.0026882663
 51
119.9973117337
  0
ARC
  5
2C1
330
252
100
AcDbEntity
  8
0
  6
Continuous
 62
     7
370
    25
100
AcDbCircle
 10
-399.5153313704
 20
263.3201465764
 30
0.0
 40
4.999999999999456
100
AcDbArc
 50
180.0
 51
240.0026882664
  0
ARC
  5
2C2
330
252
100
AcDbEntity
  8
0
  6
Continuous
 62
     7
370
    25
100
AcDbCircle
 10
-326.4318736038
 20
545.7052310589
 30
0.0
 40
7.684024037860665
100
AcDbArc
 50
122.60547834
 51
177.3945215143
  0
ARC
  5
2C3
330
252
100
AcDbEntity
  8
0
  6
Continuous
 62
     7
370
    25
100
AcDbCircle
 10
-285.2154921226
 20
545.7052310589
 30
0.0
 40
7.684024037860446
100
AcDbArc
 50
2.6054784857
 51
57.39452166
  0
ARC
  5
2C4
330
252
100
AcDbEntity
  8
0
  6
Continuous
 62
     7
370
    25
100
AcDbCircle
 10
-83.6900594844
 20
662.0433869936
 30
0.0
 40
7.684024037860012
100
AcDbArc
 50
2.6054784857
 51
57.39452166
  0
ARC
  5
2C5
330
252
100
AcDbEntity
  8
0
  6
Continuous
 62
     7
370
    25
100
AcDbCircle
 10
-397.1425517225
 20
586.52563665
 30
0.0
 40
7.684024037860106
100
AcDbArc
 50
122.60547834
 51
177.3945215143
  0
ARC
  5
2C6
330
252
100
AcDbEntity
  8
0
  6
Continuous
 62
     7
370
    25
100
AcDbCircle
 10
-233.7756928582
 20
626.9196128847
 30
0.0
 40
10.1810142387239
100
AcDbArc
 50
118.5953668994
 51
142.0236143257
  0
ARC
  5
2C7
330
252
100
AcDbEntity
  8
0
  6
Continuous
 62
     7
370
    25
100
AcDbCircle
 10
-78.5182627832
 20
655.1380044069
 30
0.0
 40
14.22034226265828
100
AcDbArc
 50
334.1569666053
 51
359.6098371856
  0
ARC
  5
2C8
330
252
100
AcDbEntity
  8
0
  6
Continuous
 62
     8
370
    25
100
AcDbCircle
 10
-278.0150589924
 20
522.3142787055
 30
0.0
 40
0.4794888150429099
100
AcDbArc
 50
304.0399388412
 51
7.2574775034
  0
ARC
  5
2C9
330
252
100
AcDbEntity
  8
0
  6
Continuous
 62
     8
370
    25
100
AcDbCircle
 10
-333.6323062448
 20
522.3142788213
 30
0.0
 40
0.4794892856812534
100
AcDbArc
 50
172.7425436126
 51
235.9598508264
  0
ARC
  5
2CA
330
252
100
AcDbEntity
  8
0
  6
Continuous
 62
     8
370
    25
100
AcDbCircle
 10
-404.3429466731
 20
563.1346933382
 30
0.0
 40
0.4795255467190024
100
AcDbArc
 50
172.7441704605
 51
235.9436491461
  0
ARC
  5
2CB
330
252
100
AcDbEntity
  8
0
  6
Continuous
 62
     8
370
    25
100
AcDbCircle
 10
-76.4896645335
 20
638.6524436817
 30
0.0
 40
0.4795255464646928
100
AcDbArc
 50
304.0563508352
 51
7.2558295582
  0
ARC
  5
2CC
330
252
100
AcDbEntity
  8
0
  6
Continuous
 62
     8
370
    25
100
AcDbCircle
 10
-402.7476985976
 20
590.9542586047
 30
0.0
 40
2.514886179508984
100
AcDbArc
 50
54.3824225248
 51
114.3071190461
  0
ARC
  5
2CD
330
252
100
AcDbEntity
  8
0
  6
Continuous
 62
     8
370
    25
100
AcDbCircle
 10
-403.7808130109
 20
589.1654930754
 30
0.0
 40
2.514696392469331
100
AcDbArc
 50
185.6947992512
 51
245.6253417064
  0
ARC
  5
2CE
330
252
100
AcDbEntity
  8
0
  6
Continuous
 62
     8
370
    25
100
AcDbCircle
 10
-403.7808130109
 20
565.4858095307
 30
0.0
 40
2.514696392469574
100
AcDbArc
 50
185.6947992512
 51
245.6253417064
  0
ARC
  5
2CF
330
252
100
AcDbEntity
  8
0
  6
Continuous
 62
     8
370
    25
100
AcDbCircle
 10
-151.7247912764
 20
735.8666984533
 30
0.0
 40
2.514886179509145
100
AcDbArc
 50
54.3824225248
 51
114.3071190461
  0
ARC
  5
2D0
330
252
100
AcDbEntity
  8
0
  6
Continuous
 62
     8
370
    25
100
AcDbCircle
 10
-78.0984594303
 20
695.1827126863
 30
0.0
 40
2.397075266823124
100
AcDbArc
 50
64.0420240873
 51
127.2535495555
  0
ARC
  5
2D1
330
252
100
AcDbEntity
  8
0
  6
Continuous
 62
     8
370
    25
100
AcDbCircle
 10
-87.1701703503
 20
660.237138448
 30
0.0
 40
24.24353130142915
100
AcDbArc
 50
297.3981991494
 51
332.2239779107
  0
ARC
  5
2D2
330
252
100
AcDbEntity
  8
0
  6
Continuous
 62
     8
370
    25
100
AcDbCircle
 10
-148.7955907279
 20
735.8666984533
 30
0.0
 40
2.514886179509841
100
AcDbArc
 50
65.6928809539
 51
125.6175774752
  0
ARC
  5
2D3
330
252
100
AcDbEntity
  8
0
  6
Continuous
 62
     8
370
    25
100
AcDbCircle
 10
-402.0130460579
 20
263.5696784609
 30
0.0
 40
2.514696392468545
100
AcDbArc
 50
185.6947992512
 51
245.6253417064
  0
ARC
  5
2D4
330
252
100
AcDbEntity
  8
0
  6
Continuous
 62
     8
370
    25
100
AcDbCircle
 10
-281.685414749
 20
222.1968754686
 30
0.0
 40
2.397443398789172
100
AcDbArc
 50
304.0398784014
 51
7.2574835748
  0
ARC
  5
2D5
330
252
100
AcDbEntity
  8
0
  6
Continuous
 62
     8
370
    25
100
AcDbCircle
 10
-333.4974874652
 20
222.1968748571
 30
0.0
 40
2.397440914862626
100
AcDbArc
 50
172.7424941353
 51
235.9603436092
  0
ARC
  5
2D6
330
252
100
AcDbEntity
  8
0
  6
Continuous
 62
     8
370
    25
100
AcDbCircle
 10
-83.6957076159
 20
336.4940564974
 30
0.0
 40
2.397627731921979
100
AcDbArc
 50
304.0563508293
 51
7.2558295641
  0
ARC
  5
2D7
330
252
100
AcDbEntity
  8
0
  6
Continuous
 62
     8
370
    25
100
AcDbCircle
 10
-400.6724374968
 20
260.9763061538
 30
0.0
 40
2.397627732078596
100
AcDbArc
 50
172.7441704382
 51
235.9436491684
  0
VIEWPORT
  5
3DD
330
252
100
AcDbEntity
  8
0
100
AcDbViewport
 10
0.0
 20
0.0
 30
0.0
 40
205.6
 41
156.0
 68
     1
 69
     1
 12
-322.5
 22
415.0
 13
0.0
 23
0.0
 14
10.0
 24
10.0
 15
10.0
 25
10.0
 16
0.0
 26
0.0
 36
1.0
 17
0.0
 27
0.0
 37
0.0
 42
50.0
 43
0.0
 44
0.0
 45
418.2
 50
0.0
 51
0.0
 72
   100
 90
   557152
  1

281
     0
 71
     1
 74
     0
110
0.0
120
0.0
130
0.0
111
1.0
121
0.0
131
0.0
112
0.0
122
1.0
132
0.0
 79
     0
146
0.0
  0
ENDBLK
  5
255
330
252
100
AcDbEntity
  8
0
100
AcDbBlockEnd
  0
BLOCK
  5
2DA
330
2D8
100
AcDbEntity
  8
0
100
AcDbBlockBegin
  2
*Paper_Space5
 70
     0
 10
0.0
 20
0.0
 30
0.0
  3
*Paper_Space5
  1

  0
SPLINE
  5
2DC
330
2D8
100
AcDbEntity
  8
0
  6
Continuous
 62
     7
370
    25
100
AcDbSpline
210
0.0
220
0.0
230
1.0
 70
     8
 71
     3
 72
    25
 73
    21
 74
     0
 42
0.000000001
 43
0.00000001
 40
0.0
 40
0.0
 40
0.0
 40
0.0
 40
0.0301104838271487
 40
0.087300287903256
 40
0.1444708226332824
 40
0.2016160236126182
 40
0.2587440217392102
 40
0.3158628805939893
 40
0.3729805827551693
 40
0.4301034625391446
 40
0.4872386294272983
 40
0.5443944103341689
 40
0.6015794360359823
 40
0.658802606698133
 40
0.7160728199697359
 40
0.7733982409615768
 40
0.8307847269974092
 40
0.8882327647793953
 40
0.945731975300705
 40
1.0
 40
1.0
 40
1.0
 40
1.0
 10
-341.4487335689325
 20
488.3662670958387
 30
0.0
 10
-340.8914454309912
 20
488.2200081091395
 30
0.0
 10
-339.2756821252064
 20
487.7959547554782
 30
0.0
 10
-336.4976954154207
 20
487.2083247227599
 30
0.0
 10
-333.100762883784
 20
486.6588619569122
 30
0.0
 10
-329.6228964314921
 20
486.2710489853548
 30
0.0
 10
-326.0940865150915
 20
486.0451791825196
 30
0.0
 10
-322.5410774744376
 20
485.9835066652724
 30
0.0
 10
-318.9917330236343
 20
486.0862735338748
 30
0.0
 10
-315.4736609544372
 20
486.3527667377941
 30
0.0
 10
-312.0142715486382
 20
486.7810397988325
 30
0.0
 10
-308.6404455492673
 20
487.3680282317551
 30
0.0
 10
-305.3783466994544
 20
488.1095761635659
 30
0.0
 10
-302.2532962211915
 20
489.0005231596385
 30
0.0
 10
-299.2894007670782
 20
490.0347173256545
 30
0.0
 10
-296.5101802115826
 20
491.2053556410201
 30
0.0
 10
-293.9356436244461
 20
492.5041429844962
 30
0.0
 10
-291.5929134191064
 20
493.9248189658281
 30
0.0
 10
-289.5164681656261
 20
495.4213867229593
 30
0.0
 10
-288.3573616861514
 20
496.4882182144486
 30
0.0
 10
-287.7945633049165
 20
497.0062129345996
 30
0.0
  0
SPLINE
  5
2E2
330
2D8
100
AcDbEntity
  8
0
  6
Continuous
 62
     7
370
    25
100
AcDbSpline
210
0.0
220
0.0
230
1.0
 70
     8
 71
     3
 72
    13
 73
     9
 74
     0
 42
0.000000001
 43
0.00000001
 40
0.0
 40
0.0
 40
0.0
 40
0.0
 40
0.0665039766977615
 40
0.2640122579078426
 40
0.4596089538649628
 40
0.670748448771263
 40
0.9012804110903475
 40
1.0
 40
1.0
 40
1.0
 40
1.0
 10
-432.7286230776609
 20
515.2282199430356
 30
0.0
 10
-432.7390792239942
 20
515.1387746640505
 30
0.0
 10
-432.7805887838666
 20
514.7836883784386
 30
0.0
 10
-432.5429079643592
 20
514.1787934595433
 30
0.0
 10
-432.0590644075318
 20
513.5154579743531
 30
0.0
 10
-431.327978602952
 20
512.9602451205619
 30
0.0
 10
-430.5681036420903
 20
512.6029185270189
 30
0.0
 10
-430.0468372049813
 20
512.4490046169162
 30
0.0
 10
-429.8905457366745
 20
512.4028565642308
 30
0.0
  0
SPLINE
  5
2E3
330
2D8
100
AcDbEntity
  8
0
  6
Continuous
 62
     7
370
    25
100
AcDbSpline
210
0.0
220
0.0
230
1.0
 70
     8
 71
     3
 72
    31
 73
    27
 74
     0
 42
0.000000001
 43
0.00000001
 40
0.0
 40
0.0
 40
0.0
 40
0.0
 40
0.0128667846300142
 40
0.0610629875309077
 40
0.1040731927704975
 40
0.1452612554397862
 40
0.1890661914263544
 40
0.2322810027157724
 40
0.275493239555235
 40
0.3189530017873095
 40
0.3627264377316836
 40
0.406778185142712
 40
0.4510396485355102
 40
0.495434966825458
 40
0.5398891839656847
 40
0.5843206590731451
 40
0.6286395982245251
 40
0.6727685427532688
 40
0.7166270932912393
 40
0.7601394506932855
 40
0.8032588441439003
 40
0.8460288770228958
 40
0.8887007046191392
 40
0.9317537730936181
 40
0.976592302034412
 40
0.9999999999999999
 40
0.9999999999999999
 40
0.9999999999999999
 40
0.9999999999999999
 10
-270.2476424876278
 20
607.2952148333859
 30
0.0
 10
-270.2397766021768
 20
607.2273949894042
 30
0.0
 10
-270.202446804638
 20
606.9055366225715
 30
0.0
 10
-270.3548623224509
 20
606.354625283649
 30
0.0
 10
-270.7332704479261
 20
605.5691514019426
 30
0.0
 10
-271.380292476976
 20
604.756300794117
 30
0.0
 10
-272.306315954317
 20
603.9290271433142
 30
0.0
 10
-273.526934791137
 20
603.1226032239352
 30
0.0
 10
-274.9914733057695
 20
602.3877470173777
 30
0.0
 10
-276.6762070486469
 20
601.7465125842316
 30
0.0
 10
-278.5492183795092
 20
601.2190475514896
 30
0.0
 10
-280.5718129362074
 20
600.8223073857096
 30
0.0
 10
-282.7000802148151
 20
600.5691029068238
 30
0.0
 10
-284.8869678163907
 20
600.4676659646843
 30
0.0
 10
-287.0836514751813
 20
600.5215553565173
 30
0.0
 10
-289.2406275423879
 20
600.7295793764152
 30
0.0
 10
-291.3090869308638
 20
601.0856820854684
 30
0.0
 10
-293.2421498457446
 20
601.5788410299574
 30
0.0
 10
-294.9961793317433
 20
602.1928927559004
 30
0.0
 10
-296.5319731859199
 20
602.9061472314663
 30
0.0
 10
-297.8174413877056
 20
603.6911393655597
 30
0.0
 10
-298.8290842879269
 20
604.5149484692378
 30
0.0
 10
-299.5610443841213
 20
605.3400910908299
 30
0.0
 10
-300.0100113741442
 20
606.1329462828631
 30
0.0
 10
-300.2155363172939
 20
606.7437707400185
 30
0.0
 10
-300.1999220706193
 20
607.0997554332705
 30
0.0
 10
-300.1945665574036
 20
607.2218542299032
 30
0.0
  0
SPLINE
  5
2E4
330
2D8
100
AcDbEntity
  8
0
  6
Continuous
 62
     7
370
    25
100
AcDbSpline
210
0.0
220
0.0
230
1.0
 70
     8
 71
     3
 72
    20
 73
    16
 74
     0
 42
0.000000001
 43
0.00000001
 40
0.0
 40
0.0
 40
0.0
 40
0.0
 40
0.0602973625744353
 40
0.1336553394851134
 40
0.2073832392815406
 40
0.2823667003100599
 40
0.359284630951477
 40
0.4384854955450818
 40
0.5198953631818021
 40
0.603048635779932
 40
0.6872782179602589
 40
0.7719587213042026
 40
0.856569205289441
 40
0.9409164259400211
 40
1.0
 40
1.0
 40
1.0
 40
1.0
 10
-150.0008597458407
 20
661.7407927777691
 30
0.0
 10
-150.0105260632403
 20
662.3220778170495
 30
0.0
 10
-150.0319524553487
 20
663.610556217191
 30
0.0
 10
-150.4422888524432
 20
665.5805647601152
 30
0.0
 10
-151.1459647081969
 20
667.621620233745
 30
0.0
 10
-152.1532901532855
 20
669.59904866383
 30
0.0
 10
-153.4516081793568
 20
671.5086695154813
 30
0.0
 10
-155.0452879012749
 20
673.3427765175626
 30
0.0
 10
-156.9309103537602
 20
675.088443043542
 30
0.0
 10
-159.0977608391587
 20
676.7285654522395
 30
0.0
 10
-161.5254410432909
 20
678.2448002702037
 30
0.0
 10
-164.1850324266456
 20
679.6220226481594
 30
0.0
 10
-167.0489300665749
 20
680.8455375798676
 30
0.0
 10
-169.7788028375399
 20
681.8146688181798
 30
0.0
 10
-171.5867489518726
 20
682.329678782782
 30
0.0
 10
-172.3314977929996
 20
682.5418272927767
 30
0.0
  0
SPLINE
  5
2E6
330
2D8
100
AcDbEntity
  8
0
  6
Continuous
 62
     7
370
    25
100
AcDbSpline
210
0.0
220
0.0
230
1.0
 70
     8
 71
     3
 72
    11
 73
     7
 74
     0
 42
0.000000001
 43
0.00000001
 40
0.0
 40
0.0
 40
0.0
 40
0.0
 40
0.1800584059797375
 40
0.520548213957744
 40
0.8598375178100768
 40
1.0
 40
1.0
 40
1.0
 40
1.0
 10
-154.7863774598488
 20
626.8262798738175
 30
0.0
 10
-154.4929750602313
 20
627.122377101361
 30
0.0
 10
-153.6447497621079
 20
627.9783931374748
 30
0.0
 10
-152.4756464294268
 20
629.4618612227436
 30
0.0
 10
-151.5305899522977
 20
630.9227346818898
 30
0.0
 10
-151.172100091836
 20
631.8132973559368
 30
0.0
 10
-151.0672995046966
 20
632.0736436067466
 30
0.0
  0
SPLINE
  5
2EA
330
2D8
100
AcDbEntity
  8
0
  6
Continuous
 62
     7
370
    25
100
AcDbSpline
210
0.0
220
0.0
230
1.0
 70
     8
 71
     3
 72
    25
 73
    21
 74
     0
 42
0.000000001
 43
0.00000001
 40
0.0
 40
0.0
 40
0.0
 40
0.0
 40
0.0316867641037173
 40
0.0914483348131362
 40
0.1510449650618262
 40
0.2105082678361113
 40
0.2698846466138575
 40
0.3292209531371503
 40
0.388564138594315
 40
0.4479479113576747
 40
0.5074188756089657
 40
0.567027223011608
 40
0.6268249013448958
 40
0.6868643794078544
 40
0.747194590420028
 40
0.8078513372349911
 40
0.8688376010142759
 40
0.9300876847240563
 40
0.9870502551166497
 40
0.9999999999999999
 40
0.9999999999999999
 40
0.9999999999999999
 40
0.9999999999999999
 10
-343.8863649159676
 20
170.6598531970995
 30
0.0
 10
-343.3183483148658
 20
170.5110685887399
 30
0.0
 10
-341.6790464238002
 20
170.0816746425554
 30
0.0
 10
-338.8718706299824
 20
169.4965021953685
 30
0.0
 10
-335.4553729234684
 20
168.9616794928542
 30
0.0
 10
-331.9707278191943
 20
168.5986818906416
 30
0.0
 10
-328.445931993099
 20
168.4059960443508
 30
0.0
 10
-324.9057460237189
 20
168.3849388387795
 30
0.0
 10
-321.3761234457396
 20
168.5352873533249
 30
0.0
 10
-317.8826814515027
 20
168.8563946579341
 30
0.0
 10
-314.4507112186213
 20
169.3469292620489
 30
0.0
 10
-311.104637227638
 20
170.0051442062325
 30
0.0
 10
-307.8681249012826
 20
170.8290245521766
 30
0.0
 10
-304.7640911640432
 20
171.81652254987
 30
0.0
 10
-301.8147652244517
 20
172.9657517780183
 30
0.0
 10
-299.0424081723752
 20
174.2752864826784
 30
0.0
 10
-296.4690398663594
 20
175.7434588762423
 30
0.0
 10
-294.1776231015839
 20
177.330974281264
 30
0.0
 10
-292.6690922304389
 20
178.5949983870156
 30
0.0
 10
-291.9304861083548
 20
179.3051451224554
 30
0.0
 10
-291.7936752930855
 20
179.4366844516478
 30
0.0
  0
SPLINE
  5
2EF
330
2D8
100
AcDbEntity
  8
0
  6
Continuous
 62
     7
370
    25
100
AcDbSpline
210
0.0
220
0.0
230
1.0
 70
     8
 71
     3
 72
    14
 73
    10
 74
     0
 42
0.000000001
 43
0.00000001
 40
0.0
 40
0.0
 40
0.0
 40
0.0
 40
0.0998368089525752
 40
0.2810755126386212
 40
0.4589216909978028
 40
0.6312383007544818
 40
0.7979971193466269
 40
0.9602923272947458
 40
1.0
 40
1.0
 40
1.0
 40
1.0
 10
-161.1189663926681
 20
306.9792063568443
 30
0.0
 10
-160.7821277676344
 20
307.3202625300825
 30
0.0
 10
-159.8338093047238
 20
308.2804548653266
 30
0.0
 10
-158.4986504919147
 20
309.9636128117079
 30
0.0
 10
-157.2357926191589
 20
312.044556419688
 30
0.0
 10
-156.3129454147713
 20
314.192356228838
 30
0.0
 10
-155.7647405433385
 20
316.3652308745196
 30
0.0
 10
-155.5336163971264
 20
318.0043367241612
 30
0.0
 10
-155.5858096273292
 20
318.9019762600497
 30
0.0
 10
-155.5960692419229
 20
319.0784251145563
 30
0.0
  0
LWPOLYLINE
  5
2F0
330
2D8
100
AcDbEntity
  8
0
  6
Continuous
 62
     7
370
    25
100
AcDbPolyline
 90
       17
 70
   128
 43
0.0
 10
-287.6086233419
 20
522.3393301332
 10
-289.6087378387
 20
520.5997196228
 10
-291.9302873389
 20
518.9694567111
 10
-294.5509140516
 20
517.4642417212
 10
-297.4453799092
 20
516.0985706962
 10
-300.585809623
 20
514.8855957946
 10
-303.9419591383
 20
513.8369986279
 10
-307.4815069005
 20
512.9628777599
 10
-311.1703651297
 20
512.2716514525
 10
-314.9730081048
 20
511.7699765929
 10
-318.852814295
 20
511.4626845842
 10
-322.7724190459
 20
511.3527348165
 10
-326.694074421
 20
511.4411861661
 10
-330.5800127353
 20
511.7271867981
 10
-334.3928102786
 20
512.2079823701
 10
-338.0957477261
 20
512.878942558
 10
-341.6531637662
 20
513.7336056484
  0
LWPOLYLINE
  5
2F2
330
2D8
100
AcDbEntity
  8
0
  6
Continuous
 62
     7
370
    25
100
AcDbPolyline
 90
       16
 70
   128
 43
0.0
 10
-339.3196868215
 20
520.2969871859
 10
-335.9945652555
 20
519.5049458801
 10
-332.5269119851
 20
518.8962551647
 10
-328.9547193452
 20
518.4775839823
 10
-325.3171250261
 20
518.2535193822
 10
-321.6539832721
 20
518.226516263
 10
-318.005428231
 20
518.3968704765
 10
-314.4114342354
 20
518.7627155863
 10
-310.9113778354
 20
519.3200433167
 10
-307.5436063814
 20
520.0627474687
 10
-304.3450178824
 20
520.98269082
 10
-301.3506567431
 20
522.0697942788
 10
-298.5933298109
 20
523.3121473121
 10
-296.1032469366
 20
524.6961384401
 10
-293.9076899892
 20
526.2066043663
 10
-292.0307139503
 20
527.8269961101
  0
LWPOLYLINE
  5
2F5
330
2D8
100
AcDbEntity
  8
0
  6
Continuous
 62
     7
370
    25
100
AcDbPolyline
 90
       17
 70
   128
 43
0.0
 10
-341.6531637662
 20
488.875753928
 10
-338.0957477261
 20
488.0210908377
 10
-334.3928102786
 20
487.3501306498
 10
-330.5800127353
 20
486.8693350777
 10
-326.694074421
 20
486.5833344457
 10
-322.7724190459
 20
486.4948830961
 10
-318.852814295
 20
486.6048328639
 10
-314.9730081048
 20
486.9121248726
 10
-311.1703651297
 20
487.4137997322
 10
-307.4815069005
 20
488.1050260396
 10
-303.9419591383
 20
488.9791469075
 10
-300.585809623
 20
490.0277440742
 10
-297.4453799092
 20
491.2407189758
 10
-294.5509140516
 20
492.6063900008
 10
-291.9302873389
 20
494.1116049908
 10
-289.6087378387
 20
495.7418679024
 10
-287.6086233419
 20
497.4814784128
  0
LWPOLYLINE
  5
2F7
330
2D8
100
AcDbEntity
  8
0
  6
Continuous
 62
     7
370
    25
100
AcDbPolyline
 90
       16
 70
   128
 43
0.0
 10
-159.0225281052
 20
657.6470630493
 10
-157.4846975169
 20
659.3596272596
 10
-156.3028611728
 20
661.1456007244
 10
-155.4899675195
 20
662.9854159448
 10
-155.0549227898
 20
664.8589155203
 10
-155.0024934247
 20
666.7455729974
 10
-155.3332538516
 20
668.6247177619
 10
-156.0435801897
 20
670.4757615107
 10
-157.1256899553
 20
672.278423821
 10
-158.5677273271
 20
674.0129543474
 10
-160.3538930421
 20
675.6603492104
 10
-162.4646174948
 20
677.2025592071
 10
-164.8767751465
 20
678.6226875622
 10
-167.5639378931
 20
679.9051750522
 10
-170.4966646173
 20
681.0359704757
 10
-173.6428237514
 20
682.0026846014
  0
LWPOLYLINE
  5
2FC
330
2D8
100
AcDbEntity
  8
0
  6
Continuous
 62
     7
370
    25
100
AcDbPolyline
 90
       44
 70
   128
 43
0.0
 10
-300.2599523095
 20
613.0479476805
 10
-298.9445550056
 20
614.131887272
 10
-297.3367458862
 20
615.1056338834
 10
-295.4707926113
 20
615.9484337964
 10
-293.3864647354
 20
616.6423241941
 10
-291.1281860885
 20
617.1725160073
 10
-288.7440879592
 20
617.5277091179
 10
-286.28498326
 20
617.7003332016
 10
-283.8032835381
 20
617.6867090757
 10
-281.3518819146
 20
617.4871271148
 10
-278.983025759
 20
617.1058410618
 10
-276.7472031276
 20
616.550977367
 10
-274.6920666981
 20
615.8343619868
 10
-272.8614181355
 20
614.9712683338
 10
-271.2942745355
 20
613.9800917508
 10
-270.0240368432
 20
612.8819574458
 10
-269.0777779697
 20
611.7002702449
 10
-268.4756657801
 20
610.4602157594
 10
-268.2305332503
 20
609.1882235976
 10
-268.3476049545
 20
607.9114040641
 10
-268.8243857128
 20
606.6569703505
 10
-269.6507137708
 20
605.4516585335
 10
-270.8089773809
 20
604.3211577419
 10
-272.2744901649
 20
603.2895626373
 10
-274.0160172624
 20
602.3788598784
 10
-275.9964410466
 20
601.6084595135
 10
-278.1735522231
 20
600.9947812886
 10
-280.5009494468
 20
600.5509046898
 10
-282.9290282866
 20
600.2862901762
 10
-285.4060384577
 20
600.2065775466
 10
-287.8791867886
 20
600.3134657374
 10
-290.2957624164
 20
600.6046766124
 10
-292.6042602272
 20
601.0740035173
 10
-294.755478598
 20
601.711443564
 10
-296.7035680442
 20
602.5034108246
 10
-298.4070084212
 20
603.4330258919
 10
-299.829493855
 20
604.4804756348
 10
-300.9407065381
 20
605.6234354803
 10
-301.7169629014
 20
606.8375452239
 10
-302.1417183883
 20
608.0969282242
 10
-302.2059200729
 20
609.374742919
 10
-301.908199608
 20
610.6437549066
 10
-301.2549023881
 20
611.8769173996
 10
-300.2599523095
 20
613.0479476805
  0
LWPOLYLINE
  5
305
330
2D8
100
AcDbEntity
  8
0
  6
Continuous
 62
     7
370
    25
100
AcDbPolyline
 90
       16
 70
   128
 43
0.0
 10
-298.4911160661
 20
603.9955428841
 10
-297.2670302263
 20
604.9962849454
 10
-295.7606857535
 20
605.8890608683
 10
-294.0073900853
 20
606.6529447418
 10
-292.0482389863
 20
607.2700317754
 10
-289.9291532978
 20
607.725857972
 10
-287.6998025921
 20
608.0097391519
 10
-285.4124409603
 20
608.1150213808
 10
-283.1206822205
 20
608.0392369326
 10
-280.878243255
 20
607.7841621305
 10
-278.7376849326
 20
607.3557757116
 10
-276.7491801261
 20
606.7641186906
 10
-274.9593377029
 20
606.0230590064
 10
-273.4101100522
 20
605.1499664702
 10
-272.1378097573
 20
604.1653056308
 10
-272.109658948
 20
604.1393022356
  0
LWPOLYLINE
  5
307
330
2D8
100
AcDbEntity
  8
0
  6
Continuous
 62
     7
370
    25
100
AcDbPolyline
 90
       17
 70
   128
 43
0.0
 10
-344.9085159023
 20
173.2072873579
 10
-341.3510998622
 20
172.3526242676
 10
-337.6481624146
 20
171.6816640797
 10
-333.8353648714
 20
171.2008685077
 10
-329.9494265571
 20
170.9148678756
 10
-326.0277711819
 20
170.8264165261
 10
-322.108166431
 20
170.9363662938
 10
-318.2283602408
 20
171.2436583025
 10
-314.4257172658
 20
171.7453331621
 10
-310.7368590365
 20
172.4365594695
 10
-307.1973112744
 20
173.3106803375
 10
-303.8411617591
 20
174.3592775042
 10
-300.7007320452
 20
175.5722524057
 10
-297.8062661877
 20
176.9379234308
 10
-295.1856394749
 20
178.4431384207
 10
-292.8640899747
 20
180.0734013324
 10
-290.863975478
 20
181.8130118428
  0
LWPOLYLINE
  5
30B
330
2D8
100
AcDbEntity
  8
0
  6
Continuous
 62
     8
370
    25
100
AcDbPolyline
 90
        6
 70
   128
 43
0.0
 10
-341.6531637662
 20
488.875753928
 10
-341.6441963452
 20
488.7172813611
 10
-341.617638695
 20
488.5824037618
 10
-341.5745114114
 20
488.4763044005
 10
-341.5164718515
 20
488.4030606163
 10
-341.4488014114
 20
488.36628555
  0
LWPOLYLINE
  5
30C
330
2D8
100
AcDbEntity
  8
0
  6
Continuous
 62
     8
370
    25
100
AcDbPolyline
 90
        6
 70
   128
 43
0.0
 10
-430.0949759339
 20
512.9123433964
 10
-430.0860085129
 20
512.7538708295
 10
-430.0594508628
 20
512.6189932302
 10
-430.0163235791
 20
512.5128938689
 10
-429.9582840193
 20
512.4396500847
 10
-429.8905457367
 20
512.4028565642
  0
LWPOLYLINE
  5
30F
330
2D8
100
AcDbEntity
  8
0
  6
Continuous
 62
     8
370
    25
100
AcDbPolyline
 90
        7
 70
   128
 43
0.0
 10
-432.7614989893
 20
540.0477401508
 10
-432.7347432829
 20
539.7816886118
 10
-432.5384066168
 20
539.2870943833
 10
-432.1584960695
 20
538.8217313449
 10
-431.6096113903
 20
538.4034831375
 10
-430.9128459095
 20
538.0484228049
 10
-430.0949759339
 20
537.7701951168
  0
LWPOLYLINE
  5
310
330
2D8
100
AcDbEntity
  8
0
  6
Continuous
 62
     8
370
    25
100
AcDbPolyline
 90
        7
 70
   128
 43
0.0
 10
-432.7614989893
 20
515.1898884304
 10
-432.7347432829
 20
514.9238368915
 10
-432.5384066168
 20
514.4292426629
 10
-432.1584960695
 20
513.9638796246
 10
-431.6096113903
 20
513.5456314171
 10
-430.9128459095
 20
513.1905710846
 10
-430.0949759339
 20
512.9123433964
  0
LWPOLYLINE
  5
313
330
2D8
100
AcDbEntity
  8
0
  6
Continuous
 62
     8
370
    25
100
AcDbPolyline
 90
       19
 70
   128
 43
0.0
 10
-270.2255104303
 20
607.3202033653
 10
-270.2442092617
 20
607.6398287721
 10
-270.5360878601
 20
608.8130100101
 10
-271.1722584585
 20
609.9494945094
 10
-272.1378097573
 20
611.0226440364
 10
-273.4101100522
 20
612.0073048758
 10
-274.9593377029
 20
612.8803974121
 10
-276.7491801261
 20
613.6214570962
 10
-278.7376849326
 20
614.2131141172
 10
-280.878243255
 20
614.6415005361
 10
-283.1206822205
 20
614.8965753382
 10
-285.4124409603
 20
614.9723597864
 10
-287.6998025921
 20
614.8670775575
 10
-289.9291532978
 20
614.5831963776
 10
-292.0482389863
 20
614.127370181
 10
-294.0073900853
 20
613.5102831474
 10
-295.7606857535
 20
612.7463992739
 10
-297.2670302263
 20
611.8536233511
 10
-298.4911160661
 20
610.8528812897
  0
LWPOLYLINE
  5
31C
330
2D8
100
AcDbEntity
  8
0
  6
Continuous
 62
     8
370
    25
100
AcDbPolyline
 90
        7
 70
   128
 43
0.0
 10
-428.9282374616
 20
196.0420473529
 10
-429.7461074372
 20
196.3202750411
 10
-430.442872918
 20
196.6753353736
 10
-430.9917575972
 20
197.0935835811
 10
-431.3716681445
 20
197.5589466194
 10
-431.5680048106
 20
198.053540848
 10
-431.594760517
 20
198.3195923869
  0
LWPOLYLINE
  5
31E
330
2D8
100
AcDbEntity
  8
0
  6
Continuous
 62
     8
370
    25
100
AcDbPolyline
 90
        6
 70
   128
 43
0.0
 10
-344.9085159023
 20
173.2072873579
 10
-344.8636787971
 20
172.4149245236
 10
-344.7308905463
 20
171.7405365269
 10
-344.5152541281
 20
171.2100397206
 10
-344.2250563289
 20
170.8438207993
 10
-343.8866914372
 20
170.6599420127
  0
LWPOLYLINE
  5
31F
330
2D8
100
AcDbEntity
  8
0
  6
Continuous
 62
     8
370
    25
100
AcDbPolyline
 90
        6
 70
   128
 43
0.0
 10
-428.9282374616
 20
196.0420473529
 10
-428.8834003564
 20
195.2496845185
 10
-428.7506121057
 20
194.5752965219
 10
-428.5349756874
 20
194.0447997156
 10
-428.2447778883
 20
193.6785807942
 10
-427.9060864753
 20
193.4946131921
  0
LINE
  5
322
330
2D8
100
AcDbEntity
  8
0
  6
Continuous
 62
     7
370
    25
100
AcDbLine
 10
-429.8905457367
 20
512.4028565642
 30
0.0
 11
-341.4487335689
 21
488.3662670958
 31
0.0
  0
LINE
  5
323
330
2D8
100
AcDbEntity
  8
0
  6
Continuous
 62
     7
370
    25
100
AcDbLine
 10
-287.7945633049
 20
497.0062129346
 30
0.0
 11
-154.7863774598
 21
626.8262798738
 31
0.0
  0
LINE
  5
324
330
2D8
100
AcDbEntity
  8
0
  6
Continuous
 62
     7
370
    25
100
AcDbLine
 10
-432.7614989893
 20
540.0477401508
 30
0.0
 11
-432.7614989893
 21
515.1898884304
 31
0.0
  0
LINE
  5
325
330
2D8
100
AcDbEntity
  8
0
  6
Continuous
 62
     7
370
    25
100
AcDbLine
 10
-265.5770267124
 20
705.3315944308
 30
0.0
 11
-431.2538897825
 21
543.6258970153
 31
0.0
  0
LINE
  5
326
330
2D8
100
AcDbEntity
  8
0
  6
Continuous
 62
     7
370
    25
100
AcDbLine
 10
-149.9771623639
 20
636.9161811394
 30
0.0
 11
-149.9771623639
 21
661.7740328598
 31
0.0
  0
LINE
  5
327
330
2D8
100
AcDbEntity
  8
0
  6
Continuous
 62
     7
370
    25
100
AcDbLine
 10
-172.331497793
 20
682.5418272928
 30
0.0
 11
-260.7733099607
 21
706.5784167612
 31
0.0
  0
LINE
  5
328
330
2D8
100
AcDbEntity
  8
0
  6
Continuous
 62
     7
370
    25
100
AcDbLine
 10
-431.594760517
 20
513.20867472
 30
0.0
 11
-431.594760517
 21
198.3195923869
 31
0.0
  0
LINE
  5
329
330
2D8
100
AcDbEntity
  8
0
  6
Continuous
 62
     7
370
    25
100
AcDbLine
 10
-427.9060864753
 20
193.4946131921
 30
0.0
 11
-343.886364916
 21
170.6598531971
 31
0.0
  0
LINE
  5
32A
330
2D8
100
AcDbEntity
  8
0
  6
Continuous
 62
     7
370
    25
100
AcDbLine
 10
-291.7936752931
 20
179.4366844516
 30
0.0
 11
-161.1189663927
 21
306.9792063568
 31
0.0
  0
LINE
  5
32B
330
2D8
100
AcDbEntity
  8
0
  6
Continuous
 62
     7
370
    25
100
AcDbLine
 10
-155.5659914446
 20
318.9701695353
 30
0.0
 11
-155.5659914446
 21
626.0653527245
 31
0.0
  0
LINE
  5
32C
330
2D8
100
AcDbEntity
  8
0
  6
Continuous
 62
     7
370
    25
100
AcDbLine
 10
-287.6086233419
 20
522.3393301332
 30
0.0
 11
-287.6086233419
 21
497.4814784128
 31
0.0
  0
LINE
  5
32D
330
2D8
100
AcDbEntity
  8
0
  6
Continuous
 62
     7
370
    25
100
AcDbLine
 10
-341.6531637662
 20
488.875753928
 30
0.0
 11
-341.6531637662
 21
513.7336056484
 31
0.0
  0
LINE
  5
32E
330
2D8
100
AcDbEntity
  8
0
  6
Continuous
 62
     7
370
    25
100
AcDbLine
 10
-292.0307139503
 20
527.8269961101
 30
0.0
 11
-159.0225281052
 21
657.6470630493
 31
0.0
  0
LINE
  5
32F
330
2D8
100
AcDbEntity
  8
0
  6
Continuous
 62
     7
370
    25
100
AcDbLine
 10
-427.7614989893
 20
544.3335766543
 30
0.0
 11
-339.3196868215
 21
520.2969871859
 31
0.0
  0
LINE
  5
330
330
2D8
100
AcDbEntity
  8
0
  6
Continuous
 62
     7
370
    25
100
AcDbLine
 10
-262.0846359191
 20
706.0392740698
 30
0.0
 11
-427.7614989893
 21
544.3335766543
 31
0.0
  0
LINE
  5
331
330
2D8
100
AcDbEntity
  8
0
  6
Continuous
 62
     7
370
    25
100
AcDbLine
 10
-173.6428237514
 20
682.0026846014
 30
0.0
 11
-262.0846359191
 21
706.0392740698
 31
0.0
  0
LINE
  5
332
330
2D8
100
AcDbEntity
  8
0
  6
Continuous
 62
     7
370
    25
100
AcDbLine
 10
-341.6531637662
 20
513.7336056484
 30
0.0
 11
-430.0949759339
 21
537.7701951168
 31
0.0
  0
LINE
  5
333
330
2D8
100
AcDbEntity
  8
0
  6
Continuous
 62
     7
370
    25
100
AcDbLine
 10
-430.0949759339
 20
512.9123433964
 30
0.0
 11
-341.6531637662
 21
488.875753928
 31
0.0
  0
LINE
  5
334
330
2D8
100
AcDbEntity
  8
0
  6
Continuous
 62
     7
370
    25
100
AcDbLine
 10
-430.0949759339
 20
537.7701951168
 30
0.0
 11
-430.0949759339
 21
512.9123433964
 31
0.0
  0
LINE
  5
335
330
2D8
100
AcDbEntity
  8
0
  6
Continuous
 62
     7
370
    25
100
AcDbLine
 10
-154.6004374968
 20
652.1593970724
 30
0.0
 11
-287.6086233419
 21
522.3393301332
 31
0.0
  0
LINE
  5
336
330
2D8
100
AcDbEntity
  8
0
  6
Continuous
 62
     7
370
    25
100
AcDbLine
 10
-154.6004374968
 20
627.301545352
 30
0.0
 11
-154.6004374968
 21
652.1593970724
 31
0.0
  0
LINE
  5
337
330
2D8
100
AcDbEntity
  8
0
  6
Continuous
 62
     7
370
    25
100
AcDbLine
 10
-287.6086233419
 20
497.4814784128
 30
0.0
 11
-154.6004374968
 21
627.301545352
 31
0.0
  0
LINE
  5
338
330
2D8
100
AcDbEntity
  8
0
  6
Continuous
 62
     7
370
    25
100
AcDbLine
 10
-428.9282374616
 20
196.0420473529
 30
0.0
 11
-344.9085159023
 21
173.2072873579
 31
0.0
  0
LINE
  5
339
330
2D8
100
AcDbEntity
  8
0
  6
Continuous
 62
     7
370
    25
100
AcDbLine
 10
-290.863975478
 20
181.8130118428
 30
0.0
 11
-160.1892665775
 21
309.355533748
 31
0.0
  0
LINE
  5
33A
330
2D8
100
AcDbEntity
  8
0
  6
Continuous
 62
     8
370
    25
100
AcDbLine
 10
-290.863975478
 20
494.5009424178
 30
0.0
 11
-290.863975478
 21
181.8130118428
 31
0.0
  0
LINE
  5
33B
330
2D8
100
AcDbEntity
  8
0
  6
Continuous
 62
     8
370
    25
100
AcDbLine
 10
-344.9085159023
 20
173.2072873579
 30
0.0
 11
-344.9085159023
 21
489.3065617999
 31
0.0
  0
LINE
  5
33C
330
2D8
100
AcDbEntity
  8
0
  6
Continuous
 62
     8
370
    25
100
AcDbLine
 10
-428.9282374616
 20
512.1413217948
 30
0.0
 11
-428.9282374616
 21
196.0420473529
 31
0.0
  0
LINE
  5
33D
330
2D8
100
AcDbEntity
  8
0
  6
Continuous
 62
     8
370
    25
100
AcDbLine
 10
-160.1892665775
 20
309.355533748
 30
0.0
 11
-160.1892665775
 21
621.5528944617
 31
0.0
  0
ARC
  5
33E
330
2D8
100
AcDbEntity
  8
0
  6
Continuous
 62
     7
370
    25
100
AcDbCircle
 10
-427.7614989893
 20
540.0477401508
 30
0.0
 40
4.999999999999829
100
AcDbArc
 50
134.305033619
 51
180.0
  0
ARC
  5
33F
330
2D8
100
AcDbEntity
  8
0
  6
Continuous
 62
     7
370
    25
100
AcDbCircle
 10
-262.0846359191
 20
701.7534375663
 30
0.0
 40
5.000000000000246
100
AcDbArc
 50
74.7954868413
 51
134.305033619
  0
ARC
  5
340
330
2D8
100
AcDbEntity
  8
0
  6
Continuous
 62
     7
370
    25
100
AcDbCircle
 10
-426.594760517
 20
198.3195923869
 30
0.0
 40
5.000000000000146
100
AcDbArc
 50
180.0
 51
254.7954868413
  0
ARC
  5
341
330
2D8
100
AcDbEntity
  8
0
  6
Continuous
 62
     7
370
    25
100
AcDbCircle
 10
-331.4283865243
 20
513.7948947825
 30
0.0
 40
10.22496092917774
100
AcDbArc
 50
140.5129436103
 51
180.3434369839
  0
ARC
  5
342
330
2D8
100
AcDbEntity
  8
0
  6
Continuous
 62
     7
370
    25
100
AcDbCircle
 10
-293.670484316
 20
521.9800850771
 30
0.0
 40
6.072496643082235
100
AcDbArc
 50
3.391562315
 51
74.3338098233
  0
ARC
  5
343
330
2D8
100
AcDbEntity
  8
0
  6
Continuous
 62
     7
370
    25
100
AcDbCircle
 10
-419.8701986921
 20
537.8314842509
 30
0.0
 40
10.22496092917661
100
AcDbArc
 50
140.5129436103
 51
180.3434369839
  0
ARC
  5
344
330
2D8
100
AcDbEntity
  8
0
  6
Continuous
 62
     7
370
    25
100
AcDbCircle
 10
-160.662298471
 20
651.8001520163
 30
0.0
 40
6.072496643082449
100
AcDbArc
 50
3.391562315
 51
74.3338098233
  0
ARC
  5
345
330
2D8
100
AcDbEntity
  8
0
  6
Continuous
 62
     7
370
    25
100
AcDbCircle
 10
-161.3450874728
 20
637.0016732557
 30
0.0
 40
11.3682465746856
100
AcDbArc
 50
335.884932
 51
359.5691170503
  0
ARC
  5
346
330
2D8
100
AcDbEntity
  8
0
  6
Continuous
 62
     8
370
    25
100
AcDbCircle
 10
-288.2539039618
 20
497.4599357551
 30
0.0
 40
0.6456401200211175
100
AcDbArc
 50
315.3259803543
 51
1.9121062556
  0
ARC
  5
347
330
2D8
100
AcDbEntity
  8
0
  6
Continuous
 62
     8
370
    25
100
AcDbCircle
 10
-155.2457574264
 20
627.2800106331
 30
0.0
 40
0.6456791429323239
100
AcDbArc
 50
315.3544713609
 51
1.9112857849
  0
ARC
  5
348
330
2D8
100
AcDbEntity
  8
0
  6
Continuous
 62
     8
370
    25
100
AcDbCircle
 10
-428.8916312384
 20
540.9394723621
 30
0.0
 40
3.577309442424093
100
AcDbArc
 50
71.583829316
 51
131.326192755
  0
ARC
  5
349
330
2D8
100
AcDbEntity
  8
0
  6
Continuous
 62
     8
370
    25
100
AcDbCircle
 10
-263.2260884917
 20
702.7010354426
 30
0.0
 40
3.52799533841387
100
AcDbArc
 50
71.12277008
 51
131.7872519911
  0
ARC
  5
34A
330
2D8
100
AcDbEntity
  8
0
  6
Continuous
 62
     8
370
    25
100
AcDbCircle
 10
-295.2676326657
 20
607.0851484066
 30
0.0
 40
4.958493351011883
100
AcDbArc
 50
130.5486381055
 51
178.5953910773
  0
ARC
  5
34B
330
2D8
100
AcDbEntity
  8
0
  6
Continuous
 62
     8
370
    25
100
AcDbCircle
 10
-172.5492692683
 20
681.2072107092
 30
0.0
 40
1.352272206557001
100
AcDbArc
 50
80.7347813639
 51
143.9670912309
  0
ARC
  5
34C
330
2D8
100
AcDbEntity
  8
0
  6
Continuous
 62
     8
370
    25
100
AcDbCircle
 10
-163.7093496423
 20
662.4601410876
 30
0.0
 40
13.75054936136302
100
AcDbArc
 50
311.4862177507
 51
357.036326215
  0
ARC
  5
34D
330
2D8
100
AcDbEntity
  8
0
  6
Continuous
 62
     8
370
    25
100
AcDbCircle
 10
-165.7207015572
 20
639.1215775652
 30
0.0
 40
16.22878412860161
100
AcDbArc
 50
313.2527979291
 51
335.3654235788
  0
ARC
  5
34E
330
2D8
100
AcDbEntity
  8
0
  6
Continuous
 62
     8
370
    25
100
AcDbCircle
 10
-260.9910966763
 20
705.2438240023
 30
0.0
 40
1.352245867206519
100
AcDbArc
 50
80.7318299956
 51
143.9675277132
  0
ARC
  5
34F
330
2D8
100
AcDbEntity
  8
0
  6
Continuous
 62
     8
370
    25
100
AcDbCircle
 10
-294.0903761286
 20
181.7052980593
 30
0.0
 40
3.2281981688457
100
AcDbArc
 50
315.3256251851
 51
1.9121164795
  0
ARC
  5
350
330
2D8
100
AcDbEntity
  8
0
  6
Continuous
 62
     8
370
    25
100
AcDbCircle
 10
-163.4158662254
 20
309.2478601535
 30
0.0
 40
3.228395714669848
100
AcDbArc
 50
315.3544713609
 51
1.9112857848
  0
ARC
  5
351
330
2D8
100
AcDbEntity
  8
0
  6
Continuous
 62
     8
370
    25
100
AcDbCircle
 10
-169.0755701872
 20
319.5474719356
 30
0.0
 40
13.5219079964405
100
AcDbArc
 50
311.085022242
 51
357.5530784637
  0
VIEWPORT
  5
3DF
330
2D8
100
AcDbEntity
  8
0
100
AcDbViewport
 10
0.0
 20
0.0
 30
0.0
 40
205.6
 41
156.0
 68
     1
 69
     1
 12
-322.5
 22
415.0
 13
0.0
 23
0.0
 14
10.0
 24
10.0
 15
10.0
 25
10.0
 16
0.0
 26
0.0
 36
1.0
 17
0.0
 27
0.0
 37
0.0
 42
50.0
 43
0.0
 44
0.0
 45
418.2
 50
0.0
 51
0.0
 72
   100
 90
   557152
  1

281
     0
 71
     1
 74
     0
110
0.0
120
0.0
130
0.0
111
1.0
121
0.0
131
0.0
112
0.0
122
1.0
132
0.0
 79
     0
146
0.0
  0
ENDBLK
  5
2DB
330
2D8
100
AcDbEntity
  8
0
100
AcDbBlockEnd
  0
BLOCK
  5
354
330
352
100
AcDbEntity
  8
0
100
AcDbBlockBegin
  2
*Paper_Space6
 70
     0
 10
0.0
 20
0.0
 30
0.0
  3
*Paper_Space6
  1

  0
SPLINE
  5
356
330
352
100
AcDbEntity
  8
0
  6
Continuous
 62
     7
370
    25
100
AcDbSpline
210
0.0
220
0.0
230
1.0
 70
     8
 71
     3
 72
    16
 73
    12
 74
     0
 42
0.000000001
 43
0.00000001
 40
0.0
 40
0.0
 40
0.0
 40
0.0
 40
0.0486082770775489
 40
0.1683857135501552
 40
0.2883073157939739
 40
0.4084192251256213
 40
0.5287801266645799
 40
0.6494631289019339
 40
0.7705526830129884
 40
0.8921245494793272
 40
1.0
 40
1.0
 40
1.0
 40
1.0
 10
-304.2116676304292
 20
529.603651445714
 30
0.0
 10
-303.7765838666883
 20
529.6718642909872
 30
0.0
 10
-302.2693942599734
 20
529.9081629075023
 30
0.0
 10
-299.8397168157178
 20
530.4128149613077
 30
0.0
 10
-296.9490055401705
 20
531.1107161836825
 30
0.0
 10
-294.2579627060729
 20
531.9012908012282
 30
0.0
 10
-291.7762504293929
 20
532.7726899449408
 30
0.0
 10
-289.5231504419851
 20
533.7223659133414
 30
0.0
 10
-287.5209480345574
 20
534.7479126550908
 30
0.0
 10
-285.8284913260949
 20
535.7987618132586
 30
0.0
 10
-284.9309183775069
 20
536.537316532222
 30
0.0
 10
-284.5089213479685
 20
536.8845505905172
 30
0.0
  0
SPLINE
  5
35D
330
352
100
AcDbEntity
  8
0
  6
Continuous
 62
     7
370
    25
100
AcDbSpline
210
0.0
220
0.0
230
1.0
 70
     8
 71
     3
 72
    13
 73
     9
 74
     0
 42
0.000000001
 43
0.00000001
 40
0.0
 40
0.0
 40
0.0
 40
0.0
 40
0.0921954363654638
 40
0.2406009620743854
 40
0.3931460221759155
 40
0.5795524633223196
 40
0.805755357930226
 40
1.0
 40
1.0
 40
1.0
 40
1.0
 10
-432.5331553170888
 20
543.1011105586554
 30
0.0
 10
-432.5352592595622
 20
542.9665651357213
 30
0.0
 10
-432.54074988473
 20
542.6154440881216
 30
0.0
 10
-432.2420031732212
 20
542.1257845606838
 30
0.0
 10
-431.7746052165509
 20
541.6896415627755
 30
0.0
 10
-431.0902560219521
 20
541.3241749004361
 30
0.0
 10
-430.1939938342591
 20
541.0321419358412
 30
0.0
 10
-429.4501757875834
 20
540.9166644502678
 30
0.0
 10
-429.1065356003122
 20
540.8633144341645
 30
0.0
  0
SPLINE
  5
35F
330
352
100
AcDbEntity
  8
0
  6
Continuous
 62
     7
370
    25
100
AcDbSpline
210
0.0
220
0.0
230
1.0
 70
     8
 71
     3
 72
    30
 73
    26
 74
     0
 42
0.000000001
 43
0.00000001
 40
0.0
 40
0.0
 40
0.0
 40
0.0
 40
0.0414059326933249
 40
0.0797171964420504
 40
0.1202314517669549
 40
0.1608395596001941
 40
0.2026137268476249
 40
0.2456967509294355
 40
0.2898445214886177
 40
0.3347691575240587
 40
0.3802296885816475
 40
0.4260443069391288
 40
0.4720783951466321
 40
0.5182287285239444
 40
0.5644096368450852
 40
0.6105179686796648
 40
0.6564636671720554
 40
0.70213981427819
 40
0.7474056417076724
 40
0.7920700458583304
 40
0.8358799463772728
 40
0.8785422561726256
 40
0.9198642533424122
 40
0.9602080197554265
 40
1.0
 40
1.0
 40
1.0
 40
1.0
 10
-286.6704711129112
 20
620.6771595414693
 30
0.0
 10
-286.6726539397898
 20
620.6616098314365
 30
0.0
 10
-286.6768564496178
 20
620.6316725927688
 30
0.0
 10
-286.8923489525318
 20
620.3246803194479
 30
0.0
 10
-287.3812522487788
 20
619.903014939447
 30
0.0
 10
-288.1715329855163
 20
619.4143828200016
 30
0.0
 10
-289.2440974426443
 20
618.9152667649238
 30
0.0
 10
-290.5914631278101
 20
618.4330457097404
 30
0.0
 10
-292.190691583912
 20
617.993219690724
 30
0.0
 10
-294.0068039155018
 20
617.6163487219098
 30
0.0
 10
-295.997886885393
 20
617.3180859655231
 30
0.0
 10
-298.1182290292213
 20
617.1095505383686
 30
0.0
 10
-300.3201039260114
 20
616.99799823413
 30
0.0
 10
-302.554825312138
 20
616.9872925130519
 30
0.0
 10
-304.7730976976464
 20
617.0781766165088
 30
0.0
 10
-306.9259388887774
 20
617.2683069862354
 30
0.0
 10
-308.965327087625
 20
617.5521573417727
 30
0.0
 10
-310.8450436736996
 20
617.9207863829414
 30
0.0
 10
-312.520900221706
 20
618.3610872816523
 30
0.0
 10
-313.9515442320642
 20
618.8546048672628
 30
0.0
 10
-315.1000899475726
 20
619.3746805632142
 30
0.0
 10
-315.9380969532943
 20
619.8846745867471
 30
0.0
 10
-316.453288086803
 20
620.3259405089159
 30
0.0
 10
-316.6660780470802
 20
620.6345641101193
 30
0.0
 10
-316.6695813302186
 20
620.6623269637295
 30
0.0
 10
-316.6713209106088
 20
620.6761128079808
 30
0.0
  0
SPLINE
  5
360
330
352
100
AcDbEntity
  8
0
  6
Continuous
 62
     7
370
    25
100
AcDbSpline
210
0.0
220
0.0
230
1.0
 70
     8
 71
     3
 72
    22
 73
    18
 74
     0
 42
0.000000001
 43
0.00000001
 40
0.0
 40
0.0
 40
0.0
 40
0.0
 40
0.0213076342363506
 40
0.0784108882738073
 40
0.1353895803143293
 40
0.1939922267346474
 40
0.2560327215850345
 40
0.3231749367275252
 40
0.3962940944282723
 40
0.4743945670476449
 40
0.5547029456689676
 40
0.6343895904303768
 40
0.7128766495515917
 40
0.7902594139000265
 40
0.8667711450286599
 40
0.9426298699991662
 40
0.9999999999999999
 40
0.9999999999999999
 40
0.9999999999999999
 40
0.9999999999999999
 10
-180.9269015574373
 20
658.4277502274165
 30
0.0
 10
-180.9165613579958
 20
658.6354950640737
 30
0.0
 10
-180.8785100091627
 20
659.3999843075013
 30
0.0
 10
-181.1433011421136
 20
660.7073488297792
 30
0.0
 10
-181.6881158898471
 20
662.2756879764327
 30
0.0
 10
-182.5160324578785
 20
663.7482361912743
 30
0.0
 10
-183.5996656157751
 20
665.1422968472009
 30
0.0
 10
-184.9699324912154
 20
666.4770388859363
 30
0.0
 10
-186.6552709052431
 20
667.7583961810972
 30
0.0
 10
-188.6669498610242
 20
668.9726915345731
 30
0.0
 10
-190.9738118590552
 20
670.0934600790389
 30
0.0
 10
-193.5206369020202
 20
671.101258882443
 30
0.0
 10
-196.257735159444
 20
671.9899271154122
 30
0.0
 10
-199.1585868646599
 20
672.76401375004
 30
0.0
 10
-202.2066691571101
 20
673.4250254600976
 30
0.0
 10
-205.1247408498004
 20
673.9394893050359
 30
0.0
 10
-207.0572635619038
 20
674.1988406923069
 30
0.0
 10
-207.8894337343997
 20
674.3105208745532
 30
0.0
  0
SPLINE
  5
362
330
352
100
AcDbEntity
  8
0
  6
Continuous
 62
     7
370
    25
100
AcDbSpline
210
0.0
220
0.0
230
1.0
 70
     8
 71
     3
 72
    12
 73
     8
 74
     0
 42
0.000000001
 43
0.00000001
 40
0.0
 40
0.0
 40
0.0
 40
0.0
 40
0.1299901197792478
 40
0.3788494267909314
 40
0.6241262857593616
 40
0.8612034083013905
 40
1.0
 40
1.0
 40
1.0
 40
1.0
 10
-183.7462050520012
 20
625.748913508167
 30
0.0
 10
-183.5189237582569
 20
625.958398841989
 30
0.0
 10
-182.8565242774231
 20
626.5689329254595
 30
0.0
 10
-181.9857190362144
 20
627.629857374932
 30
0.0
 10
-181.2764081051683
 20
628.945033606772
 30
0.0
 10
-180.9118362795491
 20
630.1200113490463
 30
0.0
 10
-180.9233872521248
 20
630.8440500042626
 30
0.0
 10
-180.9276526092476
 20
631.1114113381218
 30
0.0
  0
SPLINE
  5
366
330
352
100
AcDbEntity
  8
0
  6
Continuous
 62
     7
370
    25
100
AcDbSpline
210
0.0
220
0.0
230
1.0
 70
     8
 71
     3
 72
    24
 73
    20
 74
     0
 42
0.000000001
 43
0.00000001
 40
0.0
 40
0.0
 40
0.0
 40
0.0
 40
0.0314835164913414
 40
0.0913511044416237
 40
0.1510826566774186
 40
0.2107160692969622
 40
0.2703104689769698
 40
0.3299174015337815
 40
0.3895783032656707
 40
0.4493521960087711
 40
0.5093058630138146
 40
0.5695192719262817
 40
0.630092526643061
 40
0.6911548085843509
 40
0.7528748189728244
 40
0.8154680272768371
 40
0.8791800913309861
 40
0.9441714216414465
 40
0.9999999999999999
 40
0.9999999999999999
 40
0.9999999999999999
 40
0.9999999999999999
 10
-338.4440756229434
 20
177.9434067507201
 30
0.0
 10
-337.8654282380815
 20
177.8738075114934
 30
0.0
 10
-336.1864519488881
 20
177.6718616020078
 30
0.0
 10
-333.3360365629555
 20
177.4190168705538
 30
0.0
 10
-329.8951176247721
 20
177.2222865296808
 30
0.0
 10
-326.4210588985945
 20
177.1367569966538
 30
0.0
 10
-322.9417601070094
 20
177.1608221942085
 30
0.0
 10
-319.4825233984977
 20
177.2947207255842
 30
0.0
 10
-316.0690989892983
 20
177.5376662702544
 30
0.0
 10
-312.7263219494143
 20
177.8886951634222
 30
0.0
 10
-309.4777348747934
 20
178.3466696798017
 30
0.0
 10
-306.3453332114767
 20
178.9105923084097
 30
0.0
 10
-303.3491490715419
 20
179.58008607673
 30
0.0
 10
-300.5065991881178
 20
180.3560055400287
 30
0.0
 10
-297.8327742473693
 20
181.242117223339
 30
0.0
 10
-295.3380877684779
 20
182.2449810421182
 30
0.0
 10
-293.0395082327756
 20
183.3835917930853
 30
0.0
 10
-291.0400721005834
 20
184.5962722194187
 30
0.0
 10
-289.9169766811482
 20
185.5170803724131
 30
0.0
 10
-289.3980156811045
 20
185.9425682799026
 30
0.0
  0
SPLINE
  5
36B
330
352
100
AcDbEntity
  8
0
  6
Continuous
 62
     7
370
    25
100
AcDbSpline
210
0.0
220
0.0
230
1.0
 70
     8
 71
     3
 72
    13
 73
     9
 74
     0
 42
0.000000001
 43
0.00000001
 40
0.0
 40
0.0
 40
0.0
 40
0.0
 40
0.1327510408430699
 40
0.3393499171389692
 40
0.5296122204789194
 40
0.7088342041866699
 40
0.881832629135425
 40
1.0
 40
1.0
 40
1.0
 40
1.0
 10
-190.403066337698
 20
273.2479072867162
 30
0.0
 10
-190.1090585464536
 20
273.5191580882812
 30
0.0
 10
-189.3574899036515
 20
274.2125533072595
 30
0.0
 10
-188.3444950791675
 20
275.4252578702394
 30
0.0
 10
-187.4346811978784
 20
276.8993424668373
 30
0.0
 10
-186.8217287659496
 20
278.4325007910218
 30
0.0
 10
-186.4808608432702
 20
279.8541840478729
 30
0.0
 10
-186.4856356443836
 20
280.7576569233408
 30
0.0
 10
-186.487573460233
 20
281.1243243543256
 30
0.0
  0
LWPOLYLINE
  5
36C
330
352
100
AcDbEntity
  8
0
  6
Continuous
 62
     7
370
    25
100
AcDbPolyline
 90
       17
 70
   128
 43
0.0
 10
-284.234944829
 20
564.8581616671
 10
-285.8012875509
 20
563.6583725596
 10
-287.7128875964
 20
562.5155369095
 10
-289.9513352122
 20
561.4406608486
 10
-292.495072924
 20
560.4440960212
 10
-295.3196031471
 20
559.5354398911
 10
-298.3977241115
 20
558.7234433138
 10
-301.6997918296
 20
558.0159262601
 10
-305.1940055842
 20
557.4197025059
 10
-308.8467141866
 20
556.9405140121
 10
-312.6227400563
 20
556.5829756257
 10
-316.485718
 20
556.3505306368
 10
-320.3984454282
 20
556.2454176178
 10
-324.3232406371
 20
556.2686488645
 10
-328.2223057032
 20
556.4200006472
 10
-332.0580904985
 20
556.6980153657
 10
-335.7936543185
 20
557.1000155861
  0
LWPOLYLINE
  5
36E
330
352
100
AcDbEntity
  8
0
  6
Continuous
 62
     7
370
    25
100
AcDbPolyline
 90
       16
 70
   128
 43
0.0
 10
-334.0258873659
 20
563.373084705
 10
-330.5358894332
 20
563.0017102642
 10
-326.9485524756
 20
562.7539716251
 10
-323.3031801075
 20
562.6325830639
 10
-319.6397117913
 20
562.6388745391
 10
-315.9982852525
 20
562.7727771201
 10
-312.4187967224
 20
563.0328237421
 10
-308.9404638264
 20
563.4161652798
 10
-305.6013959075
 20
563.9186017633
 10
-302.4381764926
 20
564.5346283933
 10
-299.4854624755
 20
565.257495853
 10
-296.7756044089
 20
566.0792842553
 10
-294.338292065
 20
566.9909899146
 10
-292.2002291476
 20
567.9826239928
 10
-290.3848407217
 20
569.0433219394
 10
-288.9120165626
 20
570.1614625258
  0
LWPOLYLINE
  5
371
330
352
100
AcDbEntity
  8
0
  6
Continuous
 62
     7
370
    25
100
AcDbPolyline
 90
       17
 70
   128
 43
0.0
 10
-335.7936543185
 20
529.7585533794
 10
-332.0580904985
 20
529.356553159
 10
-328.2223057032
 20
529.0785384405
 10
-324.3232406371
 20
528.9271866578
 10
-320.3984454282
 20
528.9039554111
 10
-316.485718
 20
529.0090684301
 10
-312.6227400563
 20
529.241513419
 10
-308.8467141866
 20
529.5990518054
 10
-305.1940055842
 20
530.0782402992
 10
-301.6997918296
 20
530.6744640534
 10
-298.3977241115
 20
531.3819811071
 10
-295.3196031471
 20
532.1939776844
 10
-292.495072924
 20
533.1026338145
 10
-289.9513352121
 20
534.099198642
 10
-287.7128875964
 20
535.1740747028
 10
-285.8012875509
 20
536.3169103529
 10
-284.234944829
 20
537.5166994604
  0
LWPOLYLINE
  5
373
330
352
100
AcDbEntity
  8
0
  6
Continuous
 62
     7
370
    25
100
AcDbPolyline
 90
       16
 70
   128
 43
0.0
 10
-188.1493002667
 20
659.0258254435
 10
-187.0351769442
 20
660.1891580874
 10
-186.2919610266
 20
661.384937073
 10
-185.9277953429
 20
662.6000611954
 10
-185.9466697686
 20
663.8212173005
 10
-186.3483775116
 20
665.0350261465
 10
-187.1285173777
 20
666.2281889896
 10
-188.2785419914
 20
667.387633288
 10
-189.7858514422
 20
668.5006559274
 10
-191.6339313325
 20
669.5550623988
 10
-193.8025337121
 20
670.5393004042
 10
-196.2678989197
 20
671.4425864262
 10
-199.0030158982
 20
672.255023874
 10
-201.9779181334
 20
672.9677115129
 10
-205.1600119741
 20
673.5728409881
 10
-208.5144337341
 20
674.0637823743
  0
LWPOLYLINE
  5
378
330
352
100
AcDbEntity
  8
0
  6
Continuous
 62
     7
370
    25
100
AcDbPolyline
 90
       44
 70
   128
 43
0.0
 10
-317.5731707128
 20
624.5520644817
 10
-316.5285861135
 20
625.3024996343
 10
-315.167340564
 20
625.9942400966
 10
-313.51844665
 20
626.6125426216
 10
-311.6170476825
 20
627.1442291644
 10
-309.5036686794
 20
627.5779677494
 10
-307.223352645
 20
627.9045139917
 10
-304.8247005566
 20
628.1169081251
 10
-302.3588355191
 20
628.2106233375
 10
-299.8783131645
 20
628.1836622517
 10
-297.4360015205
 20
628.0365994965
 10
-295.0839542193
 20
627.7725694592
 10
-292.8723010658
 20
627.3971994816
 10
-290.8481796071
 20
626.9184899232
 10
-289.0547304779
 20
626.346643647
 10
-287.5301779328
 20
625.6938485636
 10
-286.3070151624
 20
624.9740178669
 10
-285.4113117576
 20
624.2024934984
 10
-284.8621580812
 20
623.3957191606
 10
-284.6712583906
 20
622.5708898477
 10
-284.8426813813
 20
621.7455853647
 10
-285.3727734697
 20
620.9373956436
 10
-286.2502366633
 20
620.1635458452
 10
-287.4563693577
 20
619.4405292345
 10
-288.9654649283
 20
618.7837556553
 10
-290.7453596232
 20
618.2072230961
 10
-292.7581180771
 20
617.7232193475
 10
-294.960841838
 20
617.3420601091
 10
-297.3065836732
 20
617.0718691284
 10
-299.7453481681
 20
616.9184050568
 10
-302.2251572914
 20
616.8849387149
 10
-304.6931582171
 20
616.9721833794
 10
-307.0967497902
 20
617.1782795818
 10
-309.3847036294
 20
617.4988347395
 10
-311.5082559708
 20
617.9270167757
 10
-313.422146983
 20
618.4536997338
 10
-315.085585402
 20
619.0676582808
 10
-316.4631179258
 20
619.7558069563
 10
-317.5253848402
 20
620.503479066
 10
-318.2497457703
 20
621.2947392769
 10
-318.6207622204
 20
622.1127232515
 10
-318.630526619
 20
622.9399970814
 10
-318.278830855
 20
623.7589288611
 10
-317.5731707128
 20
624.5520644817
  0
LWPOLYLINE
  5
383
330
352
100
AcDbEntity
  8
0
  6
Continuous
 62
     7
370
    25
100
AcDbPolyline
 90
       17
 70
   128
 43
0.0
 10
-339.5868425758
 20
181.3451665482
 10
-335.8512787558
 20
180.9431663278
 10
-332.0154939605
 20
180.6651516093
 10
-328.1164288944
 20
180.5137998266
 10
-324.1916336856
 20
180.4905685799
 10
-320.2789062573
 20
180.5956815989
 10
-316.4159283136
 20
180.8281265878
 10
-312.639902444
 20
181.1856649742
 10
-308.9871938415
 20
181.664853468
 10
-305.492980087
 20
182.2610772221
 10
-302.1909123689
 20
182.9685942759
 10
-299.1127914045
 20
183.7805908532
 10
-296.2882611813
 20
184.6892469833
 10
-293.7445234695
 20
185.6858118107
 10
-291.5060758537
 20
186.7606878716
 10
-289.5944758082
 20
187.9035235217
 10
-288.0281330864
 20
189.1033126291
  0
LWPOLYLINE
  5
388
330
352
100
AcDbEntity
  8
0
  6
Continuous
 62
     8
370
    25
100
AcDbPolyline
 90
        8
 70
   128
 43
0.0
 10
-335.7936543185
 20
529.7585533794
 10
-335.7868608892
 20
529.5806117013
 10
-335.7667416691
 20
529.4214907051
 10
-335.7340698285
 20
529.2873053213
 10
-335.6901009279
 20
529.183212219
 10
-335.6365246675
 20
529.1132116378
 10
-335.575399953
 20
529.0799936607
 10
-335.5651271025
 20
529.0782047207
  0
LWPOLYLINE
  5
389
330
352
100
AcDbEntity
  8
0
  6
Continuous
 62
     8
370
    25
100
AcDbPolyline
 90
        8
 70
   128
 43
0.0
 10
-429.3350889909
 20
541.5436663937
 10
-429.3282955616
 20
541.3657247156
 10
-429.3081763415
 20
541.2066037193
 10
-429.2755045009
 20
541.0724183355
 10
-429.2315356003
 20
540.9683252333
 10
-429.1779593399
 20
540.898324652
 10
-429.1168346254
 20
540.8651066749
 10
-429.1065356003
 20
540.8633144342
  0
LWPOLYLINE
  5
38C
330
352
100
AcDbEntity
  8
0
  6
Continuous
 62
     8
370
    25
100
AcDbPolyline
 90
        8
 70
   128
 43
0.0
 10
-432.5673220383
 20
570.4441525112
 10
-432.5648680101
 20
570.391941125
 10
-432.4382837571
 20
570.0679534012
 10
-432.124511177
 20
569.7584227983
 10
-431.6356083739
 20
569.4752444036
 10
-430.9903636085
 20
569.2293006042
 10
-430.2135732752
 20
569.0300428823
 10
-429.3350889909
 20
568.8851286003
  0
LWPOLYLINE
  5
38D
330
352
100
AcDbEntity
  8
0
  6
Continuous
 62
     8
370
    25
100
AcDbPolyline
 90
        8
 70
   128
 43
0.0
 10
-432.5673220383
 20
543.1026903045
 10
-432.5648680101
 20
543.0504789183
 10
-432.4382837571
 20
542.7264911945
 10
-432.124511177
 20
542.4169605916
 10
-431.6356083739
 20
542.133782197
 10
-430.9903636085
 20
541.8878383975
 10
-430.2135732752
 20
541.6885806756
 10
-429.3350889909
 20
541.5436663937
  0
LWPOLYLINE
  5
391
330
352
100
AcDbEntity
  8
0
  6
Continuous
 62
     8
370
    25
100
AcDbPolyline
 90
       20
 70
   128
 43
0.0
 10
-286.6711375667
 20
620.656991617
 10
-286.6746759301
 20
620.7717382648
 10
-286.9002348818
 20
621.5335294622
 10
-287.4720110212
 20
622.2749156521
 10
-288.3766024004
 20
622.9785193705
 10
-289.5928061639
 20
623.6278487427
 10
-291.0921155266
 20
624.2076840385
 10
-292.8393879475
 20
624.7044344101
 10
-294.7936688422
 20
625.1064564497
 10
-296.9091515227
 20
625.4043271015
 10
-299.1362508681
 20
625.5910645298
 10
-301.4227655574
 20
625.6622917677
 10
-303.7151016241
 20
625.616339309
 10
-305.9595286537
 20
625.4542842404
 10
-308.103439179
 20
625.1799249954
 10
-310.0965817544
 20
624.7996923221
 10
-311.8922388071
 20
624.3224985521
 10
-313.4483216579
 20
623.759528703
 10
-314.7283570435
 20
623.1239783109
 10
-315.7023420194
 20
622.4307441382
  0
LWPOLYLINE
  5
392
330
352
100
AcDbEntity
  8
0
  6
Continuous
 62
     8
370
    25
100
AcDbPolyline
 90
        3
 70
   128
 43
0.0
 10
-208.5144337341
 20
674.0637823743
 10
-208.1695595101
 20
674.2773537943
 10
-207.8888033661
 20
674.3104410894
  0
LWPOLYLINE
  5
395
330
352
100
AcDbEntity
  8
0
  6
Continuous
 62
     8
370
    25
100
AcDbPolyline
 90
        3
 70
   128
 43
0.0
 10
-302.0558684065
 20
685.8488953886
 10
-301.7109941825
 20
686.0624668085
 10
-301.4308684068
 20
686.0956338888
  0
LWPOLYLINE
  5
39A
330
352
100
AcDbEntity
  8
0
  6
Continuous
 62
     8
370
    25
100
AcDbPolyline
 90
        8
 70
   128
 43
0.0
 10
-428.4512055146
 20
192.5410239117
 10
-429.3296897989
 20
192.6859381937
 10
-430.1064801322
 20
192.8851959156
 10
-430.7517248976
 20
193.131139715
 10
-431.2406277007
 20
193.4143181096
 10
-431.5544002809
 20
193.7238487126
 10
-431.6809845339
 20
194.0478364363
 10
-431.683438562
 20
194.1000478226
  0
LWPOLYLINE
  5
39C
330
352
100
AcDbEntity
  8
0
  6
Continuous
 62
     8
370
    25
100
AcDbPolyline
 90
        8
 70
   128
 43
0.0
 10
-339.5868425758
 20
181.3451665482
 10
-339.5528754295
 20
180.4554581578
 10
-339.452279329
 20
179.6598531765
 10
-339.2889201259
 20
178.9889262576
 10
-339.069075623
 20
178.4684607462
 10
-338.801194321
 20
178.1184578401
 10
-338.4955707483
 20
177.9523679546
 10
-338.4442065522
 20
177.9434232621
  0
LWPOLYLINE
  5
39D
330
352
100
AcDbEntity
  8
0
  6
Continuous
 62
     8
370
    25
100
AcDbPolyline
 90
        8
 70
   128
 43
0.0
 10
-428.4512055146
 20
192.5410239117
 10
-428.4172383683
 20
191.6513155214
 10
-428.3166422678
 20
190.8557105401
 10
-428.1532830647
 20
190.1847836211
 10
-427.9334385618
 20
189.6643181097
 10
-427.6655572598
 20
189.3143152036
 10
-427.3599336871
 20
189.1482253182
 10
-427.3084385617
 20
189.1392641143
  0
LINE
  5
3A0
330
352
100
AcDbEntity
  8
0
  6
Continuous
 62
     7
370
    25
100
AcDbLine
 10
-335.5651009279
 20
529.0782014199
 30
0.0
 11
-333.8408151426
 21
528.8763652562
 31
0.0
  0
LINE
  5
3A1
330
352
100
AcDbEntity
  8
0
  6
Continuous
 62
     7
370
    25
100
AcDbLine
 10
-429.1065356003
 20
540.8633144342
 30
0.0
 11
-335.5651009279
 21
529.0782014199
 31
0.0
  0
LINE
  5
3A2
330
352
100
AcDbEntity
  8
0
  6
Continuous
 62
     7
370
    25
100
AcDbLine
 10
-284.508921348
 20
536.8845505905
 30
0.0
 11
-183.746205052
 21
625.7489135082
 31
0.0
  0
LINE
  5
3A3
330
352
100
AcDbEntity
  8
0
  6
Continuous
 62
     7
370
    25
100
AcDbLine
 10
-432.5673220383
 20
570.4441525112
 30
0.0
 11
-432.5673220383
 21
543.1026903045
 31
0.0
  0
LINE
  5
3A4
330
352
100
AcDbEntity
  8
0
  6
Continuous
 62
     7
370
    25
100
AcDbLine
 10
-305.3630575454
 20
684.8848501805
 30
0.0
 11
-430.8745111772
 21
574.1941525111
 31
0.0
  0
LINE
  5
3A5
330
352
100
AcDbEntity
  8
0
  6
Continuous
 62
     7
370
    25
100
AcDbLine
 10
-308.3506469784
 20
617.4846597275
 30
0.0
 11
-308.1937362382
 21
617.6230419932
 31
0.0
  0
LINE
  5
3A6
330
352
100
AcDbEntity
  8
0
  6
Continuous
 62
     7
370
    25
100
AcDbLine
 10
-180.888802402
 20
631.0951075837
 30
0.0
 11
-180.888802402
 21
658.4365697904
 31
0.0
  0
LINE
  5
3A7
330
352
100
AcDbEntity
  8
0
  6
Continuous
 62
     7
370
    25
100
AcDbLine
 10
-207.8894337344
 20
674.3105208746
 30
0.0
 11
-301.4308684068
 21
686.0956338888
 31
0.0
  0
LINE
  5
3A8
330
352
100
AcDbEntity
  8
0
  6
Continuous
 62
     7
370
    25
100
AcDbLine
 10
-431.683438562
 20
541.6780866093
 30
0.0
 11
-431.683438562
 21
194.1000478226
 31
0.0
  0
LINE
  5
3A9
330
352
100
AcDbEntity
  8
0
  6
Continuous
 62
     7
370
    25
100
AcDbLine
 10
-427.3084385617
 20
189.1392641143
 30
0.0
 11
-338.4440756229
 21
177.9434067507
 31
0.0
  0
LINE
  5
3AA
330
352
100
AcDbEntity
  8
0
  6
Continuous
 62
     7
370
    25
100
AcDbLine
 10
-289.3980156811
 20
185.9425682799
 30
0.0
 11
-190.4030663377
 21
273.2479072867
 31
0.0
  0
LINE
  5
3AB
330
352
100
AcDbEntity
  8
0
  6
Continuous
 62
     7
370
    25
100
AcDbLine
 10
-186.4497576119
 20
281.1226968417
 30
0.0
 11
-186.4497576119
 21
623.3646042648
 31
0.0
  0
LINE
  5
3AC
330
352
100
AcDbEntity
  8
0
  6
Continuous
 62
     7
370
    25
100
AcDbLine
 10
-284.234944829
 20
564.8581616671
 30
0.0
 11
-284.234944829
 21
537.5166994604
 31
0.0
  0
LINE
  5
3AD
330
352
100
AcDbEntity
  8
0
  6
Continuous
 62
     7
370
    25
100
AcDbLine
 10
-335.7936543185
 20
529.7585533794
 30
0.0
 11
-335.7936543185
 21
557.1000155861
 31
0.0
  0
LINE
  5
3AE
330
352
100
AcDbEntity
  8
0
  6
Continuous
 62
     7
370
    25
100
AcDbLine
 10
-288.9120165626
 20
570.1614625258
 30
0.0
 11
-188.1493002667
 21
659.0258254435
 31
0.0
  0
LINE
  5
3AF
330
352
100
AcDbEntity
  8
0
  6
Continuous
 62
     7
370
    25
100
AcDbLine
 10
-427.5673220383
 20
575.1581977192
 30
0.0
 11
-334.0258873659
 21
563.373084705
 31
0.0
  0
LINE
  5
3B0
330
352
100
AcDbEntity
  8
0
  6
Continuous
 62
     7
370
    25
100
AcDbLine
 10
-302.0558684065
 20
685.8488953886
 30
0.0
 11
-427.5673220383
 21
575.1581977192
 31
0.0
  0
LINE
  5
3B1
330
352
100
AcDbEntity
  8
0
  6
Continuous
 62
     7
370
    25
100
AcDbLine
 10
-208.5144337341
 20
674.0637823743
 30
0.0
 11
-302.0558684065
 21
685.8488953886
 31
0.0
  0
LINE
  5
3B2
330
352
100
AcDbEntity
  8
0
  6
Continuous
 62
     7
370
    25
100
AcDbLine
 10
-335.7936543185
 20
557.1000155861
 30
0.0
 11
-429.3350889909
 21
568.8851286003
 31
0.0
  0
LINE
  5
3B3
330
352
100
AcDbEntity
  8
0
  6
Continuous
 62
     7
370
    25
100
AcDbLine
 10
-429.3350889909
 20
541.5436663937
 30
0.0
 11
-335.7936543185
 21
529.7585533794
 31
0.0
  0
LINE
  5
3B4
330
352
100
AcDbEntity
  8
0
  6
Continuous
 62
     7
370
    25
100
AcDbLine
 10
-429.3350889909
 20
568.8851286003
 30
0.0
 11
-429.3350889909
 21
541.5436663937
 31
0.0
  0
LINE
  5
3B5
330
352
100
AcDbEntity
  8
0
  6
Continuous
 62
     7
370
    25
100
AcDbLine
 10
-183.4722285331
 20
653.7225245847
 30
0.0
 11
-284.234944829
 21
564.8581616671
 31
0.0
  0
LINE
  5
3B6
330
352
100
AcDbEntity
  8
0
  6
Continuous
 62
     7
370
    25
100
AcDbLine
 10
-183.4722285331
 20
626.381062378
 30
0.0
 11
-183.4722285331
 21
653.7225245847
 31
0.0
  0
LINE
  5
3B7
330
352
100
AcDbEntity
  8
0
  6
Continuous
 62
     7
370
    25
100
AcDbLine
 10
-284.234944829
 20
537.5166994604
 30
0.0
 11
-183.4722285331
 21
626.381062378
 31
0.0
  0
LINE
  5
3B8
330
352
100
AcDbEntity
  8
0
  6
Continuous
 62
     7
370
    25
100
AcDbLine
 10
-428.4512055146
 20
192.5410239117
 30
0.0
 11
-339.5868425758
 21
181.3451665482
 31
0.0
  0
LINE
  5
3B9
330
352
100
AcDbEntity
  8
0
  6
Continuous
 62
     7
370
    25
100
AcDbLine
 10
-288.0281330864
 20
189.1033126291
 30
0.0
 11
-189.033183743
 21
276.408651636
 31
0.0
  0
LINE
  5
3BA
330
352
100
AcDbEntity
  8
0
  6
Continuous
 62
     7
370
    25
100
AcDbLine
 10
-300.0304471017
 20
617.029698617
 30
0.0
 11
-300.0304471017
 21
618.0905056352
 31
0.0
  0
LINE
  5
3BB
330
352
100
AcDbEntity
  8
0
  6
Continuous
 62
     8
370
    25
100
AcDbLine
 10
-308.656164506
 20
617.527159337
 30
0.0
 11
-308.6305042695
 21
617.5497895385
 31
0.0
  0
LINE
  5
3BC
330
352
100
AcDbEntity
  8
0
  6
Continuous
 62
     8
370
    25
100
AcDbLine
 10
-288.0281330864
 20
534.5204199241
 30
0.0
 11
-288.0281330864
 21
189.1033126291
 31
0.0
  0
LINE
  5
3BD
330
352
100
AcDbEntity
  8
0
  6
Continuous
 62
     8
370
    25
100
AcDbLine
 10
-339.5868425758
 20
181.3451665482
 30
0.0
 11
-339.5868425758
 21
529.5848932405
 31
0.0
  0
LINE
  5
3BE
330
352
100
AcDbEntity
  8
0
  6
Continuous
 62
     8
370
    25
100
AcDbLine
 10
-428.4512055146
 20
540.780750604
 30
0.0
 11
-428.4512055146
 21
192.5410239117
 31
0.0
  0
LINE
  5
3BF
330
352
100
AcDbEntity
  8
0
  6
Continuous
 62
     8
370
    25
100
AcDbLine
 10
-189.033183743
 20
276.408651636
 30
0.0
 11
-189.033183743
 21
621.0862365737
 31
0.0
  0
ARC
  5
3C0
330
352
100
AcDbEntity
  8
0
  6
Continuous
 62
     7
370
    25
100
AcDbCircle
 10
-427.5673220383
 20
570.4441525112
 30
0.0
 40
4.999999999999886
100
AcDbArc
 50
131.40962211
 51
180.0
  0
ARC
  5
3C1
330
352
100
AcDbEntity
  8
0
  6
Continuous
 62
     7
370
    25
100
AcDbCircle
 10
-302.0558684065
 20
681.1348501805
 30
0.0
 40
5.000000000000252
100
AcDbArc
 50
82.8192442221
 51
131.40962211
  0
ARC
  5
3C2
330
352
100
AcDbEntity
  8
0
  6
Continuous
 62
     7
370
    25
100
AcDbCircle
 10
-426.683438562
 20
194.1000478226
 30
0.0
 40
5.000000000000005
100
AcDbArc
 50
180.0
 51
262.8192442221
  0
ARC
  5
3C3
330
352
100
AcDbEntity
  8
0
  6
Continuous
 62
     7
370
    25
100
AcDbCircle
 10
-325.968786775
 20
557.7169579239
 30
0.0
 40
9.844218612742138
100
AcDbArc
 50
144.9309440897
 51
183.5931111895
  0
ARC
  5
3C4
330
352
100
AcDbEntity
  8
0
  6
Continuous
 62
     7
370
    25
100
AcDbCircle
 10
-289.6945730122
 20
564.7572674002
 30
0.0
 40
5.460560369788551
100
AcDbArc
 50
1.0587090425
 51
81.7605351794
  0
ARC
  5
3C5
330
352
100
AcDbEntity
  8
0
  6
Continuous
 62
     7
370
    25
100
AcDbCircle
 10
-321.7055533374
 20
639.7431955928
 30
0.0
 40
111.4665507228183
100
AcDbArc
 50
263.9041843481
 51
278.8766468372
  0
ARC
  5
3C6
330
352
100
AcDbEntity
  8
0
  6
Continuous
 62
     7
370
    25
100
AcDbCircle
 10
-419.5102214474
 20
569.5020709382
 30
0.0
 40
9.844218612741974
100
AcDbArc
 50
144.9309440897
 51
183.5931111895
  0
ARC
  5
3C7
330
352
100
AcDbEntity
  8
0
  6
Continuous
 62
     7
370
    25
100
AcDbCircle
 10
-188.9318567163
 20
653.6216303179
 30
0.0
 40
5.460560369788375
100
AcDbArc
 50
1.0587090425
 51
81.7605351794
  0
ARC
  5
3C8
330
352
100
AcDbEntity
  8
0
  6
Continuous
 62
     7
370
    25
100
AcDbCircle
 10
-301.6699387797
 20
576.0067078562
 30
0.0
 40
42.1221688378158
100
AcDbArc
 50
80.5714569081
 51
99.511588263
  0
ARC
  5
3C9
330
352
100
AcDbEntity
  8
0
  6
Continuous
 62
     8
370
    25
100
AcDbCircle
 10
-285.0608685
 20
537.4992151368
 30
0.0
 40
0.8261087166934599
100
AcDbArc
 50
311.9107740635
 51
1.2127371759
  0
ARC
  5
3CA
330
352
100
AcDbEntity
  8
0
  6
Continuous
 62
     8
370
    25
100
AcDbCircle
 10
-184.3056820249
 20
626.366839499
 30
0.0
 40
0.8335748397323903
100
AcDbArc
 50
312.158037431
 51
0.9776572489
  0
ARC
  5
3CB
330
352
100
AcDbEntity
  8
0
  6
Continuous
 62
     8
370
    25
100
AcDbCircle
 10
-428.1587870969
 20
571.0325045144
 30
0.0
 40
4.167874198619494
100
AcDbArc
 50
81.8415869733
 51
130.6612067915
  0
ARC
  5
3CC
330
352
100
AcDbEntity
  8
0
  6
Continuous
 62
     8
370
    25
100
AcDbCircle
 10
-302.647333465
 20
681.7232021838
 30
0.0
 40
4.167874198618739
100
AcDbArc
 50
81.8415869733
 51
130.6612067915
  0
ARC
  5
3CD
330
352
100
AcDbEntity
  8
0
  6
Continuous
 62
     8
370
    25
100
AcDbCircle
 10
-314.3373846016
 20
620.5315711555
 30
0.0
 40
2.338796008740049
100
AcDbArc
 50
125.7052359781
 51
176.1628450608
  0
ARC
  5
3CE
330
352
100
AcDbEntity
  8
0
  6
Continuous
 62
     8
370
    25
100
AcDbCircle
 10
-187.2858056293
 20
658.8778324405
 30
0.0
 40
6.412532210975295
100
AcDbArc
 50
306.4917398621
 51
356.0114231159
  0
ARC
  5
3CF
330
352
100
AcDbEntity
  8
0
  6
Continuous
 62
     8
370
    25
100
AcDbCircle
 10
-187.2842094863
 20
631.5350493539
 30
0.0
 40
6.410521081427563
100
AcDbArc
 50
306.4872917922
 51
356.0648073762
  0
ARC
  5
3D0
330
352
100
AcDbEntity
  8
0
  6
Continuous
 62
     8
370
    25
100
AcDbCircle
 10
-292.1577429988
 20
189.015888934
 30
0.0
 40
4.130535187027196
100
AcDbArc
 50
311.908832757
 51
1.2127684644
  0
ARC
  5
3D1
330
352
100
AcDbEntity
  8
0
  6
Continuous
 62
     8
370
    25
100
AcDbCircle
 10
-193.2004512024
 20
276.337537241
 30
0.0
 40
4.167874198663556
100
AcDbArc
 50
312.158037431
 51
0.9776572489
  0
ARC
  5
3D2
330
352
100
AcDbEntity
  8
0
  6
Continuous
 62
     8
370
    25
100
AcDbCircle
 10
-192.8451646963
 20
281.5626386118
 30
0.0
 40
6.410521081428281
100
AcDbArc
 50
306.4872917922
 51
356.0648073762
  0
VIEWPORT
  5
3E1
330
352
100
AcDbEntity
  8
0
100
AcDbViewport
 10
0.0
 20
0.0
 30
0.0
 40
205.6
 41
156.0
 68
     1
 69
     1
 12
-322.5
 22
415.0
 13
0.0
 23
0.0
 14
10.0
 24
10.0
 15
10.0
 25
10.0
 16
0.0
 26
0.0
 36
1.0
 17
0.0
 27
0.0
 37
0.0
 42
50.0
 43
0.0
 44
0.0
 45
418.2
 50
0.0
 51
0.0
 72
   100
 90
   557152
  1

281
     0
 71
     1
 74
     0
110
0.0
120
0.0
130
0.0
111
1.0
121
0.0
131
0.0
112
0.0
122
1.0
132
0.0
 79
     0
146
0.0
  0
ENDBLK
  5
355
330
352
100
AcDbEntity
  8
0
100
AcDbBlockEnd
  0
ENDSEC
  0
SECTION
  2
ENTITIES
  0
LINE
  5
98
330
1F
100
AcDbEntity
  8
0
  6
Continuous
 62
     7
370
    25
100
AcDbLine
 10
-250.0
 20
615.0
 30
0.0
 11
-395.0
 21
615.0
 31
0.0
  0
LINE
  5
99
330
1F
100
AcDbEntity
  8
0
  6
Continuous
 62
     7
370
    25
100
AcDbLine
 10
-290.0
 20
585.0
 30
0.0
 11
-290.0
 21
620.0
 31
0.0
  0
LINE
  5
9A
330
1F
100
AcDbEntity
  8
0
  6
Continuous
 62
     7
370
    25
100
AcDbLine
 10
-395.0
 20
586.0
 30
0.0
 11
-250.0
 21
586.0
 31
0.0
  0
LINE
  5
9B
330
1F
100
AcDbEntity
  8
0
  6
Continuous
 62
     7
370
    25
100
AcDbLine
 10
-251.0
 20
585.0
 30
0.0
 11
-393.9620070671
 21
585.0
 31
0.0
  0
LINE
  5
9C
330
1F
100
AcDbEntity
  8
0
  6
Continuous
 62
     7
370
    25
100
AcDbLine
 10
-395.0
 20
586.0
 30
0.0
 11
-395.0
 21
615.0
 31
0.0
  0
LINE
  5
9D
330
1F
100
AcDbEntity
  8
0
  6
Continuous
 62
     7
370
    25
100
AcDbLine
 10
-390.0
 20
620.0
 30
0.0
 11
-255.0
 21
620.0
 31
0.0
  0
LINE
  5
9E
330
1F
100
AcDbEntity
  8
0
  6
Continuous
 62
     7
370
    25
100
AcDbLine
 10
-250.0
 20
615.0
 30
0.0
 11
-250.0
 21
586.0
 31
0.0
  0
LINE
  5
9F
330
1F
100
AcDbEntity
  8
0
  6
Continuous
 62
     7
370
    25
100
AcDbLine
 10
-395.0
 20
215.0
 30
0.0
 11
-255.0
 21
215.0
 31
0.0
  0
LINE
  5
A0
330
1F
100
AcDbEntity
  8
0
  6
Continuous
 62
     7
370
    25
100
AcDbLine
 10
-260.0
 20
210.0
 30
0.0
 11
-390.0
 21
210.0
 31
0.0
  0
LINE
  5
A1
330
1F
100
AcDbEntity
  8
0
  6
Continuous
 62
     7
370
    25
100
AcDbLine
 10
-295.0
 20
210.0
 30
0.0
 11
-295.0
 21
585.0
 31
0.0
  0
LINE
  5
A2
330
1F
100
AcDbEntity
  8
0
  6
Continuous
 62
     7
370
    25
100
AcDbLine
 10
-390.0
 20
620.0
 30
0.0
 11
-390.0
 21
210.0
 31
0.0
  0
LINE
  5
A3
330
1F
100
AcDbEntity
  8
0
  6
Continuous
 62
     7
370
    25
100
AcDbLine
 10
-395.0
 20
215.0
 30
0.0
 11
-395.0
 21
585.0
 31
0.0
  0
LINE
  5
A4
330
1F
100
AcDbEntity
  8
0
  6
Continuous
 62
     7
370
    25
100
AcDbLine
 10
-395.0
 20
585.0
 30
0.0
 11
-394.0
 21
585.0
 31
0.0
  0
LINE
  5
A5
330
1F
100
AcDbEntity
  8
0
  6
Continuous
 62
     7
370
    25
100
AcDbLine
 10
-255.0
 20
585.0
 30
0.0
 11
-255.0
 21
215.0
 31
0.0
  0
ARC
  5
A6
330
1F
100
AcDbEntity
  8
0
  6
Continuous
 62
     7
370
    25
100
AcDbCircle
 10
-390.0
 20
615.0
 30
0.0
 40
5.0
100
AcDbArc
 50
90.0
 51
180.0
  0
ARC
  5
A7
330
1F
100
AcDbEntity
  8
0
  6
Continuous
 62
     7
370
    25
100
AcDbCircle
 10
-394.0
 20
586.0
 30
0.0
 40
0.9999999999998863
100
AcDbArc
 50
180.0
 51
270.0
  0
ARC
  5
A8
330
1F
100
AcDbEntity
  8
0
  6
Continuous
 62
     7
370
    25
100
AcDbCircle
 10
-255.0
 20
615.0
 30
0.0
 40
5.0
100
AcDbArc
 50
0.0
 51
90.0
  0
ARC
  5
A9
330
1F
100
AcDbEntity
  8
0
  6
Continuous
 62
     7
370
    25
100
AcDbCircle
 10
-251.0
 20
586.0
 30
0.0
 40
0.9999999999998863
100
AcDbArc
 50
270.0
 51
0.0
  0
ARC
  5
AA
330
1F
100
AcDbEntity
  8
0
  6
Continuous
 62
     7
370
    25
100
AcDbCircle
 10
-260.0
 20
215.0
 30
0.0
 40
5.0
100
AcDbArc
 50
270.0
 51
0.0
  0
ARC
  5
AB
330
1F
100
AcDbEntity
  8
0
  6
Continuous
 62
     7
370
    25
100
AcDbCircle
 10
-390.0
 20
215.0
 30
0.0
 40
5.0
100
AcDbArc
 50
180.0
 51
270.0
  0
LINE
  5
D1
330
1B
100
AcDbEntity
 67
     1
  8
0
  6
Continuous
 62
     7
370
    25
100
AcDbLine
 10
395.0
 20
615.0
 30
0.0
 11
250.0
 21
615.0
 31
0.0
  0
LINE
  5
D2
330
1B
100
AcDbEntity
 67
     1
  8
0
  6
Continuous
 62
     7
370
    25
100
AcDbLine
 10
390.0
 20
210.0
 30
0.0
 11
390.0
 21
620.0
 31
0.0
  0
LINE
  5
D3
330
1B
100
AcDbEntity
 67
     1
  8
0
  6
Continuous
 62
     7
370
    25
100
AcDbLine
 10
250.0
 20
586.0
 30
0.0
 11
395.0
 21
586.0
 31
0.0
  0
LINE
  5
D4
330
1B
100
AcDbEntity
 67
     1
  8
0
  6
Continuous
 62
     7
370
    25
100
AcDbLine
 10
290.0
 20
620.0
 30
0.0
 11
290.0
 21
585.0
 31
0.0
  0
LINE
  5
D5
330
1B
100
AcDbEntity
 67
     1
  8
0
  6
Continuous
 62
     7
370
    25
100
AcDbLine
 10
393.9620070671
 20
585.0
 30
0.0
 11
251.0
 21
585.0
 31
0.0
  0
LINE
  5
D6
330
1B
100
AcDbEntity
 67
     1
  8
0
  6
Continuous
 62
     7
370
    25
100
AcDbLine
 10
255.0
 20
620.0
 30
0.0
 11
390.0
 21
620.0
 31
0.0
  0
LINE
  5
D7
330
1B
100
AcDbEntity
 67
     1
  8
0
  6
Continuous
 62
     7
370
    25
100
AcDbLine
 10
250.0
 20
586.0
 30
0.0
 11
250.0
 21
615.0
 31
0.0
  0
LINE
  5
D8
330
1B
100
AcDbEntity
 67
     1
  8
0
  6
Continuous
 62
     7
370
    25
100
AcDbLine
 10
395.0
 20
615.0
 30
0.0
 11
395.0
 21
586.0
 31
0.0
  0
LINE
  5
D9
330
1B
100
AcDbEntity
 67
     1
  8
0
  6
Continuous
 62
     7
370
    25
100
AcDbLine
 10
395.0
 20
585.0
 30
0.0
 11
395.0
 21
215.0
 31
0.0
  0
LINE
  5
DA
330
1B
100
AcDbEntity
 67
     1
  8
0
  6
Continuous
 62
     7
370
    25
100
AcDbLine
 10
394.0
 20
585.0
 30
0.0
 11
395.0
 21
585.0
 31
0.0
  0
LINE
  5
DB
330
1B
100
AcDbEntity
 67
     1
  8
0
  6
Continuous
 62
     7
370
    25
100
AcDbLine
 10
295.0
 20
585.0
 30
0.0
 11
295.0
 21
210.0
 31
0.0
  0
LINE
  5
DC
330
1B
100
AcDbEntity
 67
     1
  8
0
  6
Continuous
 62
     7
370
    25
100
AcDbLine
 10
255.0
 20
215.0
 30
0.0
 11
395.0
 21
215.0
 31
0.0
  0
LINE
  5
DD
330
1B
100
AcDbEntity
 67
     1
  8
0
  6
Continuous
 62
     7
370
    25
100
AcDbLine
 10
255.0
 20
215.0
 30
0.0
 11
255.0
 21
585.0
 31
0.0
  0
LINE
  5
DE
330
1B
100
AcDbEntity
 67
     1
  8
0
  6
Continuous
 62
     7
370
    25
100
AcDbLine
 10
390.0
 20
210.0
 30
0.0
 11
260.0
 21
210.0
 31
0.0
  0
ARC
  5
DF
330
1B
100
AcDbEntity
 67
     1
  8
0
  6
Continuous
 62
     7
370
    25
100
AcDbCircle
 10
251.0
 20
586.0
 30
0.0
 40
0.9999999999998863
100
AcDbArc
 50
180.0
 51
270.0
  0
ARC
  5
E0
330
1B
100
AcDbEntity
 67
     1
  8
0
  6
Continuous
 62
     7
370
    25
100
AcDbCircle
 10
255.0
 20
615.0
 30
0.0
 40
5.0
100
AcDbArc
 50
90.0
 51
180.0
  0
ARC
  5
E1
330
1B
100
AcDbEntity
 67
     1
  8
0
  6
Continuous
 62
     7
370
    25
100
AcDbCircle
 10
394.0
 20
586.0
 30
0.0
 40
1.0
100
AcDbArc
 50
270.0
 51
0.0
  0
ARC
  5
E2
330
1B
100
AcDbEntity
 67
     1
  8
0
  6
Continuous
 62
     7
370
    25
100
AcDbCircle
 10
390.0
 20
615.0
 30
0.0
 40
5.0
100
AcDbArc
 50
0.0
 51
90.0
  0
ARC
  5
E3
330
1B
100
AcDbEntity
 67
     1
  8
0
  6
Continuous
 62
     7
370
    25
100
AcDbCircle
 10
390.0
 20
215.0
 30
0.0
 40
4.999999999999943
100
AcDbArc
 50
270.0
 51
0.0
  0
ARC
  5
E4
330
1B
100
AcDbEntity
 67
     1
  8
0
  6
Continuous
 62
     7
370
    25
100
AcDbCircle
 10
260.0
 20
215.0
 30
0.0
 40
4.999999999999943
100
AcDbArc
 50
180.0
 51
270.0
  0
VIEWPORT
  5
3D3
330
1B
100
AcDbEntity
 67
     1
  8
0
100
AcDbViewport
 10
0.0
 20
0.0
 30
0.0
 40
205.6
 41
156.0
 68
     1
 69
     1
 12
-322.5
 22
415.0
 13
0.0
 23
0.0
 14
10.0
 24
10.0
 15
10.0
 25
10.0
 16
0.0
 26
0.0
 36
1.0
 17
0.0
 27
0.0
 37
0.0
 42
50.0
 43
0.0
 44
0.0
 45
418.2
 50
0.0
 51
0.0
 72
   100
 90
   557152
  1

281
     0
 71
     1
 74
     0
110
0.0
120
0.0
130
0.0
111
1.0
121
0.0
131
0.0
112
0.0
122
1.0
132
0.0
 79
     0
146
0.0
  0
ENDSEC
  0
SECTION
  2
OBJECTS
  0
DICTIONARY
  5
C
330
0
100
AcDbDictionary
281
     1
  3
ACAD_GROUP
350
D
  3
ACAD_LAYOUT
350
1A
  3
ACAD_MLINESTYLE
350
17
  3
ACAD_PLOTSETTINGS
350
19
  3
ACAD_PLOTSTYLENAME
350
E
  3
ACAD_SCALELIST
350
47
  0
DICTIONARY
  5
D
102
{ACAD_REACTORS
330
C
102
}
330
C
100
AcDbDictionary
281
     1
  0
DICTIONARY
  5
1A
102
{ACAD_REACTORS
330
C
102
}
330
C
100
AcDbDictionary
281
     1
  3
_Back
350
1E
  3
_Bottom
350
1BC
  3
_Dimetric
350
353
  3
_Isometric
350
253
  3
_Left
350
26
  3
_Right
350
150
  3
_Top
350
18E
  3
_Trimetric
350
2D9
  3
Model
350
22
  0
DICTIONARY
  5
17
102
{ACAD_REACTORS
330
C
102
}
330
C
100
AcDbDictionary
281
     1
  3
Standard
350
18
  0
DICTIONARY
  5
19
102
{ACAD_REACTORS
330
C
102
}
330
C
100
AcDbDictionary
281
     1
  0
ACDBDICTIONARYWDFLT
  5
E
102
{ACAD_REACTORS
330
C
102
}
330
C
100
AcDbDictionary
281
     1
  3
Normal
350
F
100
AcDbDictionaryWithDefault
340
F
  0
DICTIONARY
  5
47
102
{ACAD_REACTORS
330
C
102
}
330
C
100
AcDbDictionary
281
     1
  3
A0
350
48
  3
A1
350
49
  3
A2
350
4A
  3
A3
350
4B
  3
A4
350
4C
  3
A5
350
4D
  3
A6
350
4E
  3
A7
350
4F
  3
A8
350
50
  3
A9
350
51
  3
B0
350
52
  3
B1
350
53
  3
B2
350
54
  3
B3
350
55
  3
B4
350
56
  3
B5
350
57
  3
B6
350
58
  3
B7
350
59
  3
B8
350
5A
  3
B9
350
5B
  3
C0
350
5C
  3
C1
350
5D
  3
C2
350
5E
  3
C3
350
5F
  3
C4
350
60
  3
C5
350
61
  3
C6
350
62
  3
C7
350
63
  3
C8
350
64
  3
C9
350
65
  3
D0
350
66
  3
D1
350
67
  3
D2
350
68
  0
LAYOUT
  5
1E
102
{ACAD_REACTORS
330
1A
102
}
330
1A
100
AcDbPlotSettings
  1

  2
none_device
  4
ISO_A4_(210.00_x_297.00_MM)
  6

 40
7.5
 41
20.0
 42
7.5
 43
20.0
 44
210.0
 45
297.0
 46
0.0
 47
0.0
 48
0.0
 49
0.0
140
0.0
141
0.0
142
1.0
143
2.1025641026
 70
   688
 72
     1
 73
     1
 74
     1
  7

 75
     0
147
0.4756097561
148
-250.0
149
-210.0
100
AcDbLayout
  1
_Back
 70
     1
 71
     1
 10
207.9487179487
 20
194.2307692308
 11
832.4102564103
 21
635.7692307692
 12
0.0
 22
0.0
 32
0.0
 14
250.0
 24
210.0
 34
0.0
 15
395.0
 25
620.0
 35
0.0
146
0.0
 13
0.0
 23
0.0
 33
0.0
 16
1.0
 26
0.0
 36
0.0
 17
0.0
 27
1.0
 37
0.0
 76
     0
330
1B
331
3D3
  0
LAYOUT
  5
1BC
102
{ACAD_REACTORS
330
1A
102
}
330
1A
100
AcDbPlotSettings
  1

  2
none_device
  4
ISO_A4_(210.00_x_297.00_MM)
  6

 40
7.5
 41
20.0
 42
7.5
 43
20.0
 44
210.0
 45
297.0
 46
0.0
 47
0.0
 48
0.0
 49
0.0
140
0.0
141
0.0
142
1.0
143
2.1025641026
 70
   688
 72
     1
 73
     1
 74
     1
  7

 75
     0
147
0.4756097561
148
-250.0
149
-210.0
100
AcDbLayout
  1
_Bottom
 70
     1
 71
     5
 10
0.0
 20
0.0
 11
0.0
 21
0.0
 12
0.0
 22
0.0
 32
0.0
 14
0.0
 24
0.0
 34
0.0
 15
0.0
 25
0.0
 35
0.0
146
0.0
 13
0.0
 23
0.0
 33
0.0
 16
1.0
 26
0.0
 36
0.0
 17
0.0
 27
1.0
 37
0.0
 76
     0
330
1BB
331
3DB
  0
LAYOUT
  5
353
102
{ACAD_REACTORS
330
1A
102
}
330
1A
100
AcDbPlotSettings
  1

  2
none_device
  4
ISO_A4_(210.00_x_297.00_MM)
  6

 40
7.5
 41
20.0
 42
7.5
 43
20.0
 44
210.0
 45
297.0
 46
0.0
 47
0.0
 48
0.0
 49
0.0
140
0.0
141
0.0
142
1.0
143
2.1025641026
 70
   688
 72
     1
 73
     1
 74
     1
  7

 75
     0
147
0.4756097561
148
-250.0
149
-210.0
100
AcDbLayout
  1
_Dimetric
 70
     1
 71
     8
 10
0.0
 20
0.0
 11
0.0
 21
0.0
 12
0.0
 22
0.0
 32
0.0
 14
0.0
 24
0.0
 34
0.0
 15
0.0
 25
0.0
 35
0.0
146
0.0
 13
0.0
 23
0.0
 33
0.0
 16
1.0
 26
0.0
 36
0.0
 17
0.0
 27
1.0
 37
0.0
 76
     0
330
352
331
3E1
  0
LAYOUT
  5
253
102
{ACAD_REACTORS
330
1A
102
}
330
1A
100
AcDbPlotSettings
  1

  2
none_device
  4
ISO_A4_(210.00_x_297.00_MM)
  6

 40
7.5
 41
20.0
 42
7.5
 43
20.0
 44
210.0
 45
297.0
 46
0.0
 47
0.0
 48
0.0
 49
0.0
140
0.0
141
0.0
142
1.0
143
2.1025641026
 70
   688
 72
     1
 73
     1
 74
     1
  7

 75
     0
147
0.4756097561
148
-250.0
149
-210.0
100
AcDbLayout
  1
_Isometric
 70
     1
 71
     6
 10
0.0
 20
0.0
 11
0.0
 21
0.0
 12
0.0
 22
0.0
 32
0.0
 14
0.0
 24
0.0
 34
0.0
 15
0.0
 25
0.0
 35
0.0
146
0.0
 13
0.0
 23
0.0
 33
0.0
 16
1.0
 26
0.0
 36
0.0
 17
0.0
 27
1.0
 37
0.0
 76
     0
330
252
331
3DD
  0
LAYOUT
  5
26
102
{ACAD_REACTORS
330
1A
102
}
330
1A
100
AcDbPlotSettings
  1

  2
none_device
  4
ISO_A4_(210.00_x_297.00_MM)
  6

 40
7.5
 41
20.0
 42
7.5
 43
20.0
 44
210.0
 45
297.0
 46
0.0
 47
0.0
 48
0.0
 49
0.0
140
0.0
141
0.0
142
1.0
143
2.1025641026
 70
   688
 72
     1
 73
     1
 74
     1
  7

 75
     0
147
0.4756097561
148
-250.0
149
-210.0
100
AcDbLayout
  1
_Left
 70
     1
 71
     2
 10
0.0
 20
0.0
 11
0.0
 21
0.0
 12
0.0
 22
0.0
 32
0.0
 14
0.0
 24
0.0
 34
0.0
 15
0.0
 25
0.0
 35
0.0
146
0.0
 13
0.0
 23
0.0
 33
0.0
 16
1.0
 26
0.0
 36
0.0
 17
0.0
 27
1.0
 37
0.0
 76
     0
330
23
331
3D5
  0
LAYOUT
  5
150
102
{ACAD_REACTORS
330
1A
102
}
330
1A
100
AcDbPlotSettings
  1

  2
none_device
  4
ISO_A4_(210.00_x_297.00_MM)
  6

 40
7.5
 41
20.0
 42
7.5
 43
20.0
 44
210.0
 45
297.0
 46
0.0
 47
0.0
 48
0.0
 49
0.0
140
0.0
141
0.0
142
1.0
143
2.1025641026
 70
   688
 72
     1
 73
     1
 74
     1
  7

 75
     0
147
0.4756097561
148
-250.0
149
-210.0
100
AcDbLayout
  1
_Right
 70
     1
 71
     3
 10
0.0
 20
0.0
 11
0.0
 21
0.0
 12
0.0
 22
0.0
 32
0.0
 14
0.0
 24
0.0
 34
0.0
 15
0.0
 25
0.0
 35
0.0
146
0.0
 13
0.0
 23
0.0
 33
0.0
 16
1.0
 26
0.0
 36
0.0
 17
0.0
 27
1.0
 37
0.0
 76
     0
330
14F
331
3D7
  0
LAYOUT
  5
18E
102
{ACAD_REACTORS
330
1A
102
}
330
1A
100
AcDbPlotSettings
  1

  2
none_device
  4
ISO_A4_(210.00_x_297.00_MM)
  6

 40
7.5
 41
20.0
 42
7.5
 43
20.0
 44
210.0
 45
297.0
 46
0.0
 47
0.0
 48
0.0
 49
0.0
140
0.0
141
0.0
142
1.0
143
2.1025641026
 70
   688
 72
     1
 73
     1
 74
     1
  7

 75
     0
147
0.4756097561
148
-250.0
149
-210.0
100
AcDbLayout
  1
_Top
 70
     1
 71
     4
 10
0.0
 20
0.0
 11
0.0
 21
0.0
 12
0.0
 22
0.0
 32
0.0
 14
0.0
 24
0.0
 34
0.0
 15
0.0
 25
0.0
 35
0.0
146
0.0
 13
0.0
 23
0.0
 33
0.0
 16
1.0
 26
0.0
 36
0.0
 17
0.0
 27
1.0
 37
0.0
 76
     0
330
18D
331
3D9
  0
LAYOUT
  5
2D9
102
{ACAD_REACTORS
330
1A
102
}
330
1A
100
AcDbPlotSettings
  1

  2
none_device
  4
ISO_A4_(210.00_x_297.00_MM)
  6

 40
7.5
 41
20.0
 42
7.5
 43
20.0
 44
210.0
 45
297.0
 46
0.0
 47
0.0
 48
0.0
 49
0.0
140
0.0
141
0.0
142
1.0
143
2.1025641026
 70
   688
 72
     1
 73
     1
 74
     1
  7

 75
     0
147
0.4756097561
148
-250.0
149
-210.0
100
AcDbLayout
  1
_Trimetric
 70
     1
 71
     7
 10
0.0
 20
0.0
 11
0.0
 21
0.0
 12
0.0
 22
0.0
 32
0.0
 14
0.0
 24
0.0
 34
0.0
 15
0.0
 25
0.0
 35
0.0
146
0.0
 13
0.0
 23
0.0
 33
0.0
 16
1.0
 26
0.0
 36
0.0
 17
0.0
 27
1.0
 37
0.0
 76
     0
330
2D8
331
3DF
  0
LAYOUT
  5
22
102
{ACAD_REACTORS
330
1A
102
}
330
1A
100
AcDbPlotSettings
  1

  2
none_device
  4
ANSI_A_(11.00_x_8.50_Inches)
  6

 40
6.35
 41
19.05
 42
6.35000508
 43
19.05000254
 44
279.4
 45
215.9
 46
301.4755401429
 47
-127.447598831
 48
0.0
 49
0.0
140
0.0
141
0.0
142
0.0205243902
143
1.0
 70
  1696
 72
     0
 73
     0
 74
     0
  7

 75
     0
147
0.0179189148
148
-1300.4909072572
149
0.0
100
AcDbLayout
  1
Model
 70
     1
 71
     0
 10
0.0
 20
0.0
 11
420.0
 21
297.0
 12
0.0
 22
0.0
 32
0.0
 14
-395.0
 24
210.0
 34
0.0
 15
-250.0
 25
620.0
 35
0.0
146
0.0
 13
0.0
 23
0.0
 33
0.0
 16
1.0
 26
0.0
 36
0.0
 17
0.0
 27
1.0
 37
0.0
 76
     0
330
1F
331
29
  0
MLINESTYLE
  5
18
102
{ACAD_REACTORS
330
17
102
}
330
17
100
AcDbMlineStyle
  2
Standard
 70
     0
  3

 62
   256
 51
90.0
 52
90.0
 71
     2
 49
0.5
 62
   256
  6
BYLAYER
 49
-0.5
 62
   256
  6
BYLAYER
  0
ACDBPLACEHOLDER
  5
F
102
{ACAD_REACTORS
330
E
102
}
330
E
  0
SCALE
  5
48
102
{ACAD_REACTORS
330
47
102
}
330
47
100
AcDbScale
 70
     0
300
1:1
140
1.0
141
1.0
290
     1
  0
SCALE
  5
49
102
{ACAD_REACTORS
330
47
102
}
330
47
100
AcDbScale
 70
     0
300
1:2
140
1.0
141
2.0
290
     0
  0
SCALE
  5
4A
102
{ACAD_REACTORS
330
47
102
}
330
47
100
AcDbScale
 70
     0
300
1:4
140
1.0
141
4.0
290
     0
  0
SCALE
  5
4B
102
{ACAD_REACTORS
330
47
102
}
330
47
100
AcDbScale
 70
     0
300
1:5
140
1.0
141
5.0
290
     0
  0
SCALE
  5
4C
102
{ACAD_REACTORS
330
47
102
}
330
47
100
AcDbScale
 70
     0
300
1:8
140
1.0
141
8.0
290
     0
  0
SCALE
  5
4D
102
{ACAD_REACTORS
330
47
102
}
330
47
100
AcDbScale
 70
     0
300
1:10
140
1.0
141
10.0
290
     0
  0
SCALE
  5
4E
102
{ACAD_REACTORS
330
47
102
}
330
47
100
AcDbScale
 70
     0
300
1:16
140
1.0
141
16.0
290
     0
  0
SCALE
  5
4F
102
{ACAD_REACTORS
330
47
102
}
330
47
100
AcDbScale
 70
     0
300
1:20
140
1.0
141
20.0
290
     0
  0
SCALE
  5
50
102
{ACAD_REACTORS
330
47
102
}
330
47
100
AcDbScale
 70
     0
300
1:30
140
1.0
141
30.0
290
     0
  0
SCALE
  5
51
102
{ACAD_REACTORS
330
47
102
}
330
47
100
AcDbScale
 70
     0
300
1:40
140
1.0
141
40.0
290
     0
  0
SCALE
  5
52
102
{ACAD_REACTORS
330
47
102
}
330
47
100
AcDbScale
 70
     0
300
1:50
140
1.0
141
50.0
290
     0
  0
SCALE
  5
53
102
{ACAD_REACTORS
330
47
102
}
330
47
100
AcDbScale
 70
     0
300
1:100
140
1.0
141
100.0
290
     0
  0
SCALE
  5
54
102
{ACAD_REACTORS
330
47
102
}
330
47
100
AcDbScale
 70
     0
300
2:1
140
2.0
141
1.0
290
     0
  0
SCALE
  5
55
102
{ACAD_REACTORS
330
47
102
}
330
47
100
AcDbScale
 70
     0
300
4:1
140
4.0
141
1.0
290
     0
  0
SCALE
  5
56
102
{ACAD_REACTORS
330
47
102
}
330
47
100
AcDbScale
 70
     0
300
8:1
140
8.0
141
1.0
290
     0
  0
SCALE
  5
57
102
{ACAD_REACTORS
330
47
102
}
330
47
100
AcDbScale
 70
     0
300
10:1
140
10.0
141
1.0
290
     0
  0
SCALE
  5
58
102
{ACAD_REACTORS
330
47
102
}
330
47
100
AcDbScale
 70
     0
300
100:1
140
100.0
141
1.0
290
     0
  0
SCALE
  5
59
102
{ACAD_REACTORS
330
47
102
}
330
47
100
AcDbScale
 70
     0
300
1/128" = 1'-0"
140
0.0078125
141
12.0
290
     0
  0
SCALE
  5
5A
102
{ACAD_REACTORS
330
47
102
}
330
47
100
AcDbScale
 70
     0
300
1/64" = 1'-0"
140
0.015625
141
12.0
290
     0
  0
SCALE
  5
5B
102
{ACAD_REACTORS
330
47
102
}
330
47
100
AcDbScale
 70
     0
300
1/32" = 1'-0"
140
0.03125
141
12.0
290
     0
  0
SCALE
  5
5C
102
{ACAD_REACTORS
330
47
102
}
330
47
100
AcDbScale
 70
     0
300
1/16" = 1'-0"
140
0.0625
141
12.0
290
     0
  0
SCALE
  5
5D
102
{ACAD_REACTORS
330
47
102
}
330
47
100
AcDbScale
 70
     0
300
3/32" = 1'-0"
140
0.09375
141
12.0
290
     0
  0
SCALE
  5
5E
102
{ACAD_REACTORS
330
47
102
}
330
47
100
AcDbScale
 70
     0
300
1/8" = 1'-0"
140
0.125
141
12.0
290
     0
  0
SCALE
  5
5F
102
{ACAD_REACTORS
330
47
102
}
330
47
100
AcDbScale
 70
     0
300
3/16" = 1'-0"
140
0.1875
141
12.0
290
     0
  0
SCALE
  5
60
102
{ACAD_REACTORS
330
47
102
}
330
47
100
AcDbScale
 70
     0
300
1/4" = 1'-0"
140
0.25
141
12.0
290
     0
  0
SCALE
  5
61
102
{ACAD_REACTORS
330
47
102
}
330
47
100
AcDbScale
 70
     0
300
3/8" = 1'-0"
140
0.375
141
12.0
290
     0
  0
SCALE
  5
62
102
{ACAD_REACTORS
330
47
102
}
330
47
100
AcDbScale
 70
     0
300
1/2" = 1'-0"
140
0.5
141
12.0
290
     0
  0
SCALE
  5
63
102
{ACAD_REACTORS
330
47
102
}
330
47
100
AcDbScale
 70
     0
300
3/4" = 1'-0"
140
0.75
141
12.0
290
     0
  0
SCALE
  5
64
102
{ACAD_REACTORS
330
47
102
}
330
47
100
AcDbScale
 70
     0
300
1" = 1'-0"
140
1.0
141
12.0
290
     0
  0
SCALE
  5
65
102
{ACAD_REACTORS
330
47
102
}
330
47
100
AcDbScale
 70
     0
300
1-1/2" = 1'-0"
140
1.5
141
12.0
290
     0
  0
SCALE
  5
66
102
{ACAD_REACTORS
330
47
102
}
330
47
100
AcDbScale
 70
     0
300
3" = 1'-0"
140
3.0
141
12.0
290
     0
  0
SCALE
  5
67
102
{ACAD_REACTORS
330
47
102
}
330
47
100
AcDbScale
 70
     0
300
6" = 1'-0"
140
6.0
141
12.0
290
     0
  0
SCALE
  5
68
102
{ACAD_REACTORS
330
47
102
}
330
47
100
AcDbScale
 70
     0
300
1'-0" = 1'-0"
140
12.0
141
12.0
290
     0
  0
ENDSEC
  0
EOF
