  0
SECTION
  2
HEADER
  9
$ACADVER
  1
AC1015
  9
$ACADMAINTVER
 70
     6
  9
$DWGCODEPAGE
  3
ANSI_1252
  9
$INSBASE
 10
0.0
 20
0.0
 30
0.0
  9
$EXTMIN
 10
-1.2951507094
 20
3.3404698063
 30
0.0
  9
$EXTMAX
 10
9.5316209441
 20
7.2774776803
 30
0.0
  9
$LIMMIN
 10
0.0
 20
0.0
  9
$LIMMAX
 10
12.0
 20
9.0
  9
$ORTHOMODE
 70
     0
  9
$REGENMODE
 70
     1
  9
$FILLMODE
 70
     1
  9
$QTEXTMODE
 70
     0
  9
$MIRRTEXT
 70
     1
  9
$LTSCALE
 40
1.0
  9
$ATTMODE
 70
     1
  9
$TEXTSIZE
 40
0.1377952756
  9
$TRACEWID
 40
0.05
  9
$TEXTSTYLE
  7
Standard
  9
$CLAYER
  8
0
  9
$CELTYPE
  6
ByLayer
  9
$CECOLOR
 62
   256
  9
$CELTSCALE
 40
1.0
  9
$DISPSILH
 70
     0
  9
$DIMSCALE
 40
1.0
  9
$DIMASZ
 40
0.13
  9
$DIMEXO
 40
0.0393700787
  9
$DIMDLI
 40
0.38
  9
$DIMRND
 40
0.0
  9
$DIMDLE
 40
0.0
  9
$DIMEXE
 40
0.0393700787
  9
$DIMTP
 40
0.0
  9
$DIMTM
 40
0.0
  9
$DIMTXT
 40
0.1377952756
  9
$DIMCEN
 40
0.09
  9
$DIMTSZ
 40
0.0
  9
$DIMTOL
 70
     0
  9
$DIMLIM
 70
     0
  9
$DIMTIH
 70
     1
  9
$DIMTOH
 70
     1
  9
$DIMSE1
 70
     0
  9
$DIMSE2
 70
     0
  9
$DIMTAD
 70
     1
  9
$DIMZIN
 70
     1
  9
$DIMBLK
  1

  9
$DIMASO
 70
     1
  9
$DIMSHO
 70
     1
  9
$DIMPOST
  1

  9
$DIMAPOST
  1

  9
$DIMALT
 70
     0
  9
$DIMALTD
 70
     2
  9
$DIMALTF
 40
25.4
  9
$DIMLFAC
 40
1.0
  9
$DIMTOFL
 70
     0
  9
$DIMTVP
 40
0.0
  9
$DIMTIX
 70
     0
  9
$DIMSOXD
 70
     0
  9
$DIMSAH
 70
     0
  9
$DIMBLK1
  1

  9
$DIMBLK2
  1

  9
$DIMSTYLE
  2
Standard
  9
$DIMCLRD
 70
     0
  9
$DIMCLRE
 70
     0
  9
$DIMCLRT
 70
     0
  9
$DIMTFAC
 40
1.0
  9
$DIMGAP
 40
0.06
  9
$DIMJUST
 70
     0
  9
$DIMSD1
 70
     0
  9
$DIMSD2
 70
     0
  9
$DIMTOLJ
 70
     1
  9
$DIMTZIN
 70
     1
  9
$DIMALTZ
 70
     0
  9
$DIMALTTZ
 70
     0
  9
$DIMUPT
 70
     0
  9
$DIMDEC
 70
     2
  9
$DIMTDEC
 70
     2
  9
$DIMALTU
 70
     2
  9
$DIMALTTD
 70
     2
  9
$DIMTXSTY
  7
Standard
  9
$DIMAUNIT
 70
     0
  9
$DIMADEC
 70
     2
  9
$DIMALTRND
 40
0.0
  9
$DIMAZIN
 70
     0
  9
$DIMDSEP
 70
    46
  9
$DIMATFIT
 70
     3
  9
$DIMFRAC
 70
     0
  9
$DIMLDRBLK
  1

  9
$DIMLUNIT
 70
     2
  9
$DIMLWD
 70
    -2
  9
$DIMLWE
 70
    -2
  9
$DIMTMOVE
 70
     0
  9
$LUNITS
 70
     2
  9
$LUPREC
 70
     2
  9
$SKETCHINC
 40
0.1
  9
$FILLETRAD
 40
0.5
  9
$AUNITS
 70
     0
  9
$AUPREC
 70
     2
  9
$MENU
  1
.
  9
$ELEVATION
 40
0.0
  9
$PELEVATION
 40
0.0
  9
$THICKNESS
 40
0.0
  9
$LIMCHECK
 70
     0
  9
$CHAMFERA
 40
0.0
  9
$CHAMFERB
 40
0.0
  9
$CHAMFERC
 40
0.0
  9
$CHAMFERD
 40
0.0
  9
$SKPOLY
 70
     0
  9
$TDCREATE
 40
2460356.493323368
  9
$TDUCREATE
 40
2460356.493323368
  9
$TDUPDATE
 40
2460356.493359016
  9
$TDUUPDATE
 40
2460356.493359016
  9
$TDINDWG
 40
0.0000000116
  9
$TDUSRTIMER
 40
0.0000000116
  9
$USRTIMER
 70
     1
  9
$ANGBASE
 50
0.0
  9
$ANGDIR
 70
     0
  9
$PDMODE
 70
     0
  9
$PDSIZE
 40
-1.0
  9
$PLINEWID
 40
0.0
  9
$SPLFRAME
 70
     0
  9
$SPLINETYPE
 70
     6
  9
$SPLINESEGS
 70
     8
  9
$HANDSEED
  5
2E8
  9
$SURFTAB1
 70
     6
  9
$SURFTAB2
 70
     6
  9
$SURFTYPE
 70
     6
  9
$SURFU
 70
     6
  9
$SURFV
 70
     6
  9
$UCSBASE
  2

  9
$UCSNAME
  2

  9
$UCSORG
 10
0.0
 20
0.0
 30
0.0
  9
$UCSXDIR
 10
1.0
 20
0.0
 30
0.0
  9
$UCSYDIR
 10
0.0
 20
1.0
 30
0.0
  9
$UCSORTHOREF
  2

  9
$UCSORTHOVIEW
 70
     0
  9
$UCSORGTOP
 10
0.0
 20
0.0
 30
0.0
  9
$UCSORGBOTTOM
 10
0.0
 20
0.0
 30
0.0
  9
$UCSORGLEFT
 10
0.0
 20
0.0
 30
0.0
  9
$UCSORGRIGHT
 10
0.0
 20
0.0
 30
0.0
  9
$UCSORGFRONT
 10
0.0
 20
0.0
 30
0.0
  9
$UCSORGBACK
 10
0.0
 20
0.0
 30
0.0
  9
$PUCSBASE
  2

  9
$PUCSNAME
  2

  9
$PUCSORG
 10
0.0
 20
0.0
 30
0.0
  9
$PUCSXDIR
 10
1.0
 20
0.0
 30
0.0
  9
$PUCSYDIR
 10
0.0
 20
1.0
 30
0.0
  9
$PUCSORTHOREF
  2

  9
$PUCSORTHOVIEW
 70
     0
  9
$PUCSORGTOP
 10
0.0
 20
0.0
 30
0.0
  9
$PUCSORGBOTTOM
 10
0.0
 20
0.0
 30
0.0
  9
$PUCSORGLEFT
 10
0.0
 20
0.0
 30
0.0
  9
$PUCSORGRIGHT
 10
0.0
 20
0.0
 30
0.0
  9
$PUCSORGFRONT
 10
0.0
 20
0.0
 30
0.0
  9
$PUCSORGBACK
 10
0.0
 20
0.0
 30
0.0
  9
$USERI1
 70
     0
  9
$USERI2
 70
     0
  9
$USERI3
 70
     0
  9
$USERI4
 70
     0
  9
$USERI5
 70
     0
  9
$USERR1
 40
0.0
  9
$USERR2
 40
0.0
  9
$USERR3
 40
0.0
  9
$USERR4
 40
0.0
  9
$USERR5
 40
0.0
  9
$WORLDVIEW
 70
     1
  9
$SHADEDGE
 70
     3
  9
$SHADEDIF
 70
    70
  9
$TILEMODE
 70
     1
  9
$MAXACTVP
 70
    64
  9
$PINSBASE
 10
0.0
 20
0.0
 30
0.0
  9
$PLIMCHECK
 70
     0
  9
$PEXTMIN
 10
-9.5316209441
 20
3.3404698063
 30
0.0
  9
$PEXTMAX
 10
1.2951507094
 20
7.2774776803
 30
0.0
  9
$PLIMMIN
 10
-9.7894016372
 20
3.0826895191
  9
$PLIMMAX
 10
1.5529309965
 20
11.8472192816
  9
$UNITMODE
 70
     0
  9
$VISRETAIN
 70
     1
  9
$PLINEGEN
 70
     0
  9
$PSLTSCALE
 70
     1
  9
$TREEDEPTH
 70
  3020
  9
$CMLSTYLE
  2
Standard
  9
$CMLJUST
 70
     0
  9
$CMLSCALE
 40
1.0
  9
$PROXYGRAPHICS
 70
     1
  9
$MEASUREMENT
 70
     0
  9
$CELWEIGHT
370
    -1
  9
$ENDCAPS
280
     0
  9
$JOINSTYLE
280
     0
  9
$LWDISPLAY
290
     1
  9
$INSUNITS
 70
     1
  9
$HYPERLINKBASE
  1

  9
$STYLESHEET
  1

  9
$XEDIT
290
     1
  9
$CEPSNTYPE
380
     0
  9
$PSTYLEMODE
290
     1
  9
$FINGERPRINTGUID
  2
{2d360a65-4b1c-4911-86fa-8adbc4847f24}
  9
$VERSIONGUID
  2
{FAEB1C32-E019-11D5-929B-00C0DF256EC4}
  9
$EXTNAMES
290
     1
  9
$PSVPSCALE
 40
0.0
  9
$OLESTARTUP
290
     0
  0
ENDSEC
  0
SECTION
  2
CLASSES
  0
CLASS
  1
ACDBDICTIONARYWDFLT
  2
AcDbDictionaryWithDefault
  3
ObjectDBX Classes
 90
        0
280
     0
281
     0
  0
CLASS
  1
VISUALSTYLE
  2
AcDbVisualStyle
  3
ObjectDBX Classes
 90
     4095
280
     0
281
     0
  0
CLASS
  1
MATERIAL
  2
AcDbMaterial
  3
ObjectDBX Classes
 90
     1153
280
     0
281
     0
  0
CLASS
  1
SCALE
  2
AcDbScale
  3
ObjectDBX Classes
 90
     1153
280
     0
281
     0
  0
CLASS
  1
TABLESTYLE
  2
AcDbTableStyle
  3
ObjectDBX Classes
 90
     4095
280
     0
281
     0
  0
CLASS
  1
MLEADERSTYLE
  2
AcDbMLeaderStyle
  3
ACDB_MLEADERSTYLE_CLASS
 90
     4095
280
     0
281
     0
  0
CLASS
  1
SUN
  2
AcDbSun
  3
SCENEOE
 90
     1153
280
     0
281
     0
  0
CLASS
  1
ACDBPLACEHOLDER
  2
AcDbPlaceHolder
  3
ObjectDBX Classes
 90
        0
280
     0
281
     0
  0
CLASS
  1
LAYOUT
  2
AcDbLayout
  3
ObjectDBX Classes
 90
        0
280
     0
281
     0
  0
ENDSEC
  0
SECTION
  2
TABLES
  0
TABLE
  2
VPORT
  5
8
330
0
100
AcDbSymbolTable
 70
     1
  0
VPORT
  5
29
330
8
100
AcDbSymbolTableRecord
100
AcDbViewportTableRecord
  2
*Active
 70
     0
 10
0.0
 20
0.0
 11
1.0
 21
1.0
 12
4.1182351174
 22
5.3089737433
 13
0.0
 23
0.0
 14
0.5
 24
0.5
 15
0.5
 25
0.5
 16
0.0
 26
0.0
 36
1.0
 17
0.0
 27
0.0
 37
0.0
 40
4.0157480315
 41
2.75
 42
50.0
 43
0.0
 44
0.0
 50
0.0
 51
0.0
 71
     0
 72
   100
 73
     1
 74
     3
 75
     0
 76
     0
 77
     0
 78
     0
281
     0
 65
     1
110
0.0
120
0.0
130
0.0
111
1.0
121
0.0
131
0.0
112
0.0
122
1.0
132
0.0
 79
     0
146
0.0
  0
ENDTAB
  0
TABLE
  2
LTYPE
  5
5
330
0
100
AcDbSymbolTable
 70
     6
  0
LTYPE
  5
14
330
5
100
AcDbSymbolTableRecord
100
AcDbLinetypeTableRecord
  2
ByBlock
 70
     0
  3

 72
    65
 73
     0
 40
0.0
  0
LTYPE
  5
15
330
5
100
AcDbSymbolTableRecord
100
AcDbLinetypeTableRecord
  2
ByLayer
 70
     0
  3

 72
    65
 73
     0
 40
0.0
  0
LTYPE
  5
16
330
5
100
AcDbSymbolTableRecord
100
AcDbLinetypeTableRecord
  2
Continuous
 70
     0
  3
Solid line
 72
    65
 73
     0
 40
0.0
  0
LTYPE
  5
6E
330
5
100
AcDbSymbolTableRecord
100
AcDbLinetypeTableRecord
  2
HIDDEN
 70
     0
  3
Hidden __ __ __ __ __ __ __ __ __ __ __ __ __ __
 72
    65
 73
     2
 40
0.075
 49
0.05
 74
     0
 49
-0.025
 74
     0
  0
LTYPE
  5
6F
330
5
100
AcDbSymbolTableRecord
100
AcDbLinetypeTableRecord
  2
PHANTOM
 70
     0
  3
Phantom ______  __  __  ______  __  __  ______
 72
    65
 73
     6
 40
0.5
 49
0.25
 74
     0
 49
-0.05
 74
     0
 49
0.05
 74
     0
 49
-0.05
 74
     0
 49
0.05
 74
     0
 49
-0.05
 74
     0
  0
LTYPE
  5
70
330
5
100
AcDbSymbolTableRecord
100
AcDbLinetypeTableRecord
  2
CENTER
 70
     0
  3
Center ____ _ ____ _ ____ _ ____ _ ____ _ ____
 72
    65
 73
     4
 40
0.4
 49
0.25
 74
     0
 49
-0.05
 74
     0
 49
0.05
 74
     0
 49
-0.05
 74
     0
  0
LTYPE
  5
71
330
5
100
AcDbSymbolTableRecord
100
AcDbLinetypeTableRecord
  2
CENTERX2
 70
     0
  3
Center (2x) ________  __  ________  __  _____
 72
    65
 73
     4
 40
0.8
 49
0.5
 74
     0
 49
-0.1
 74
     0
 49
0.1
 74
     0
 49
-0.1
 74
     0
  0
LTYPE
  5
72
330
5
100
AcDbSymbolTableRecord
100
AcDbLinetypeTableRecord
  2
DOT2
 70
     0
  3
Dot (.5x) ........................................
 72
    65
 73
     2
 40
0.025
 49
0.0
 74
     0
 49
-0.025
 74
     0
  0
ENDTAB
  0
TABLE
  2
LAYER
  5
2
330
0
100
AcDbSymbolTable
 70
     1
  0
LAYER
  5
10
330
2
100
AcDbSymbolTableRecord
100
AcDbLayerTableRecord
  2
0
 70
     0
 62
     7
  6
Continuous
370
    -3
390
F
  0
ENDTAB
  0
TABLE
  2
STYLE
  5
3
330
0
100
AcDbSymbolTable
 70
     1
  0
STYLE
  5
11
330
3
100
AcDbSymbolTableRecord
100
AcDbTextStyleTableRecord
  2
Standard
 70
     0
 40
0.0
 41
1.0
 50
0.0
 71
     0
 42
0.1377952756
  3
txt
  4

  0
ENDTAB
  0
TABLE
  2
VIEW
  5
6
330
0
100
AcDbSymbolTable
 70
     0
  0
ENDTAB
  0
TABLE
  2
UCS
  5
7
330
0
100
AcDbSymbolTable
 70
     0
  0
ENDTAB
  0
TABLE
  2
APPID
  5
9
330
0
100
AcDbSymbolTable
 70
     1
  0
APPID
  5
12
330
9
100
AcDbSymbolTableRecord
100
AcDbRegAppTableRecord
  2
ACAD
 70
     0
  0
ENDTAB
  0
TABLE
  2
DIMSTYLE
  5
A
330
0
100
AcDbSymbolTable
 70
     1
100
AcDbDimStyleTable
  0
DIMSTYLE
105
27
330
A
100
AcDbSymbolTableRecord
100
AcDbDimStyleTableRecord
  2
Standard
 70
     0
178
     0
340
11
  0
ENDTAB
  0
TABLE
  2
BLOCK_RECORD
  5
1
330
0
100
AcDbSymbolTable
 70
     5
  0
BLOCK_RECORD
  5
1F
330
1
100
AcDbSymbolTableRecord
100
AcDbBlockTableRecord
  2
*Model_Space
340
22
  0
BLOCK_RECORD
  5
1B
330
1
100
AcDbSymbolTableRecord
100
AcDbBlockTableRecord
  2
*Paper_Space
340
1E
  0
BLOCK_RECORD
  5
23
330
1
100
AcDbSymbolTableRecord
100
AcDbBlockTableRecord
  2
*Paper_Space0
340
26
  0
BLOCK_RECORD
  5
152
330
1
100
AcDbSymbolTableRecord
100
AcDbBlockTableRecord
  2
*Paper_Space1
340
153
  0
BLOCK_RECORD
  5
1A0
330
1
100
AcDbSymbolTableRecord
100
AcDbBlockTableRecord
  2
*Paper_Space2
340
1A1
  0
BLOCK_RECORD
  5
1E8
330
1
100
AcDbSymbolTableRecord
100
AcDbBlockTableRecord
  2
*Paper_Space3
340
1E9
  0
BLOCK_RECORD
  5
22C
330
1
100
AcDbSymbolTableRecord
100
AcDbBlockTableRecord
  2
*Paper_Space4
340
22D
  0
ENDTAB
  0
ENDSEC
  0
SECTION
  2
BLOCKS
  0
BLOCK
  5
20
330
1F
100
AcDbEntity
  8
0
100
AcDbBlockBegin
  2
*Model_Space
 70
     0
 10
0.0
 20
0.0
 30
0.0
  3
*Model_Space
  1

  0
ENDBLK
  5
21
330
1F
100
AcDbEntity
  8
0
100
AcDbBlockEnd
  0
BLOCK
  5
1C
330
1B
100
AcDbEntity
 67
     1
  8
0
100
AcDbBlockBegin
  2
*Paper_Space
 70
     0
 10
0.0
 20
0.0
 30
0.0
  3
*Paper_Space
  1

  0
ENDBLK
  5
1D
330
1B
100
AcDbEntity
 67
     1
  8
0
100
AcDbBlockEnd
  0
BLOCK
  5
24
330
23
100
AcDbEntity
  8
0
100
AcDbBlockBegin
  2
*Paper_Space0
 70
     0
 10
0.0
 20
0.0
 30
0.0
  3
*Paper_Space0
  1

  0
SPLINE
  5
12C
330
23
100
AcDbEntity
  8
0
  6
Continuous
 62
     7
370
    25
100
AcDbSpline
210
0.0
220
0.0
230
1.0
 70
     8
 71
     3
 72
    10
 73
     6
 74
     0
 42
0.000000001
 43
0.00000001
 40
0.0
 40
0.0
 40
0.0
 40
0.0
 40
0.4266149572753364
 40
0.8533055715303571
 40
0.9999999999999999
 40
0.9999999999999999
 40
0.9999999999999999
 40
0.9999999999999999
 10
9.245046322009605
 20
6.130080113298636
 30
0.0
 10
9.23547293865722
 20
6.131311123647901
 30
0.0
 10
9.216324474184333
 20
6.133773362656929
 30
0.0
 10
9.204333612509217
 20
6.135839908247233
 30
0.0
 10
9.206138053193454
 20
6.13554020398102
 30
0.0
 10
9.2065997000366
 20
6.135463527851081
 30
0.0
  0
SPLINE
  5
12D
330
23
100
AcDbEntity
  8
0
  6
Continuous
 62
     7
370
    25
100
AcDbSpline
210
0.0
220
0.0
230
1.0
 70
     8
 71
     3
 72
    15
 73
    11
 74
     0
 42
0.000000001
 43
0.00000001
 40
0.0
 40
0.0
 40
0.0
 40
0.0
 40
0.0430166330707142
 40
0.1858930057063417
 40
0.3292251091584326
 40
0.4736395811908807
 40
0.6173734480184268
 40
0.7587292103976081
 40
0.8989794196191515
 40
1.0
 40
1.0
 40
1.0
 40
1.0
 10
9.473030751044751
 20
6.135483129888446
 30
0.0
 10
9.47349461126674
 20
6.135558863332265
 30
0.0
 10
9.475499146832123
 20
6.135886139469402
 30
0.0
 10
9.463643153342966
 20
6.133926328610908
 30
0.0
 10
9.438438929045642
 20
6.130355350074039
 30
0.0
 10
9.400905579091202
 20
6.12648844294335
 30
0.0
 10
9.356697611443563
 20
6.124275954898416
 30
0.0
 10
9.311073454934148
 20
6.124633703019689
 30
0.0
 10
9.272441275072321
 20
6.127089070894821
 30
0.0
 10
9.253131404779985
 20
6.129197365832369
 30
0.0
 10
9.245046322009605
 20
6.130080113298636
 30
0.0
  0
LINE
  5
133
330
23
100
AcDbEntity
  8
0
  6
Continuous
 62
     7
370
    25
100
AcDbLine
 10
9.1173155745
 20
6.1357453968
 30
0.0
 11
9.1173155745
 21
6.2420312103
 31
0.0
  0
LINE
  5
134
330
23
100
AcDbEntity
  8
0
  6
Continuous
 62
     7
370
    25
100
AcDbLine
 10
8.8141659682
 20
6.2420312103
 30
0.0
 11
8.8141659682
 21
6.1357453968
 31
0.0
  0
LINE
  5
135
330
23
100
AcDbEntity
  8
0
  6
Continuous
 62
     7
370
    25
100
AcDbLine
 10
9.2048775459
 20
4.4822020897
 30
0.0
 11
9.2413313225
 21
3.9900761055
 31
0.0
  0
LINE
  5
136
330
23
100
AcDbEntity
  8
0
  6
Continuous
 62
     7
370
    25
100
AcDbLine
 10
9.4381817162
 20
3.9900761055
 30
0.0
 11
9.4746354928
 21
4.4822020897
 31
0.0
  0
LINE
  5
137
330
23
100
AcDbEntity
  8
0
  6
Continuous
 62
     7
370
    25
100
AcDbLine
 10
8.0011738422
 20
4.4822020897
 30
0.0
 11
9.7334573068
 21
4.4822020897
 31
0.0
  0
LINE
  5
138
330
23
100
AcDbEntity
  8
0
  6
Continuous
 62
     7
370
    25
100
AcDbLine
 10
9.2065997
 20
6.1357453968
 30
0.0
 11
8.0011738422
 21
6.1357453968
 31
0.0
  0
LINE
  5
139
330
23
100
AcDbEntity
  8
0
  6
Continuous
 62
     7
370
    25
100
AcDbLine
 10
9.7334573068
 20
6.1357453968
 30
0.0
 11
9.473030751
 21
6.1357453968
 31
0.0
  0
LINE
  5
13A
330
23
100
AcDbEntity
  8
0
  6
Continuous
 62
     7
370
    25
100
AcDbLine
 10
9.474646009
 20
6.1356034282
 30
0.0
 11
9.4381817162
 21
6.6278713811
 31
0.0
  0
LINE
  5
13B
330
23
100
AcDbEntity
  8
0
  6
Continuous
 62
     7
370
    25
100
AcDbLine
 10
9.2413313225
 20
6.6278713811
 30
0.0
 11
9.2048662086
 21
6.1355923434
 31
0.0
  0
LINE
  5
13C
330
23
100
AcDbEntity
  8
0
  6
Continuous
 62
     7
370
    25
100
AcDbLine
 10
7.8436935272
 20
7.2774776803
 30
0.0
 11
7.8436935272
 21
3.3404698063
 31
0.0
  0
LINE
  5
13D
330
23
100
AcDbEntity
  8
0
  6
Continuous
 62
     7
370
    25
100
AcDbLine
 10
7.9814888028
 20
7.2774776803
 30
0.0
 11
7.8436935272
 21
7.2774776803
 31
0.0
  0
LINE
  5
13E
330
23
100
AcDbEntity
  8
0
  6
Continuous
 62
     7
370
    25
100
AcDbLine
 10
7.9814888028
 20
3.3404698063
 30
0.0
 11
7.9814888028
 21
7.2774776803
 31
0.0
  0
LINE
  5
13F
330
23
100
AcDbEntity
  8
0
  6
Continuous
 62
     7
370
    25
100
AcDbLine
 10
8.0011738422
 20
6.6869264992
 30
0.0
 11
7.8436935272
 21
6.6869264992
 31
0.0
  0
LINE
  5
140
330
23
100
AcDbEntity
  8
0
  6
Continuous
 62
     7
370
    25
100
AcDbLine
 10
8.0011738422
 20
7.2577926409
 30
0.0
 11
8.0011738422
 21
3.3601548456
 31
0.0
  0
LINE
  5
141
330
23
100
AcDbEntity
  8
0
  6
Continuous
 62
     7
370
    25
100
AcDbLine
 10
8.0011738422
 20
3.9310209874
 30
0.0
 11
7.8436935272
 21
3.9310209874
 31
0.0
  0
LINE
  5
142
330
23
100
AcDbEntity
  8
0
  6
Continuous
 62
     7
370
    25
100
AcDbLine
 10
7.9814888028
 20
3.3404698063
 30
0.0
 11
7.8436935272
 21
3.3404698063
 31
0.0
  0
LINE
  5
143
330
23
100
AcDbEntity
  8
0
  6
Continuous
 62
     7
370
    25
100
AcDbLine
 10
9.4381817162
 20
3.9900761055
 30
0.0
 11
9.2413313225
 21
3.9900761055
 31
0.0
  0
LINE
  5
144
330
23
100
AcDbEntity
  8
0
  6
Continuous
 62
     7
370
    25
100
AcDbLine
 10
9.7728273855
 20
6.0963753181
 30
0.0
 11
9.7728273855
 21
4.5215721685
 31
0.0
  0
LINE
  5
145
330
23
100
AcDbEntity
  8
0
  6
Continuous
 62
     7
370
    25
100
AcDbLine
 10
9.2413313225
 20
6.6278713811
 30
0.0
 11
9.4381817162
 21
6.6278713811
 31
0.0
  0
LINE
  5
146
330
23
100
AcDbEntity
  8
0
  6
Continuous
 62
     8
370
    25
100
AcDbLine
 10
9.1173155745
 20
6.2420312103
 30
0.0
 11
8.8141659682
 21
6.2420312103
 31
0.0
  0
LINE
  5
147
330
23
100
AcDbEntity
  8
0
  6
Continuous
 62
     8
370
    25
100
AcDbLine
 10
8.8249530643
 20
6.2595904637
 30
0.0
 11
9.1065284784
 21
6.2595904637
 31
0.0
  0
LINE
  5
148
330
23
100
AcDbEntity
  8
0
  6
Continuous
 62
     8
370
    25
100
AcDbLine
 10
9.7334573068
 20
4.4822020897
 30
0.0
 11
9.7334573068
 21
6.1357453968
 31
0.0
  0
ARC
  5
149
330
23
100
AcDbEntity
  8
0
  6
Continuous
 62
     7
370
    25
100
AcDbCircle
 10
9.0976305351
 20
6.2420312103
 30
0.0
 40
0.0196850393700831
100
AcDbArc
 50
0.0
 51
63.12692886
  0
ARC
  5
14A
330
23
100
AcDbEntity
  8
0
  6
Continuous
 62
     7
370
    25
100
AcDbCircle
 10
8.8338510075
 20
6.2420312103
 30
0.0
 40
0.0196850393700763
100
AcDbArc
 50
116.8730711399
 51
180.0
  0
ARC
  5
14B
330
23
100
AcDbEntity
  8
0
  6
Continuous
 62
     7
370
    25
100
AcDbCircle
 10
8.9657407713
 20
5.9817591763
 30
0.0
 40
0.311466535433065
100
AcDbArc
 50
63.12692886
 51
116.87307114
  0
ARC
  5
14C
330
23
100
AcDbEntity
  8
0
  6
Continuous
 62
     7
370
    25
100
AcDbCircle
 10
9.3397565194
 20
3.9900761055
 30
0.0
 40
0.0984251968503944
100
AcDbArc
 50
180.0
 51
0.0
  0
ARC
  5
14D
330
23
100
AcDbEntity
  8
0
  6
Continuous
 62
     7
370
    25
100
AcDbCircle
 10
9.7334573068
 20
6.0963753181
 30
0.0
 40
0.0393700787401592
100
AcDbArc
 50
0.0
 51
90.0
  0
ARC
  5
14E
330
23
100
AcDbEntity
  8
0
  6
Continuous
 62
     7
370
    25
100
AcDbCircle
 10
9.7334573068
 20
4.5215721685
 30
0.0
 40
0.0393700787401592
100
AcDbArc
 50
270.0
 51
0.0
  0
ARC
  5
14F
330
23
100
AcDbEntity
  8
0
  6
Continuous
 62
     7
370
    25
100
AcDbCircle
 10
9.3397565194
 20
6.6278713811
 30
0.0
 40
0.0984251968503944
100
AcDbArc
 50
0.0
 51
180.0
  0
ARC
  5
150
330
23
100
AcDbEntity
  8
0
  6
Continuous
 62
     7
370
    25
100
AcDbCircle
 10
7.9814888028
 20
7.2577926409
 30
0.0
 40
0.0196850393700814
100
AcDbArc
 50
0.0
 51
90.0
  0
ARC
  5
151
330
23
100
AcDbEntity
  8
0
  6
Continuous
 62
     7
370
    25
100
AcDbCircle
 10
7.9814888028
 20
3.3601548456
 30
0.0
 40
0.0196850393700787
100
AcDbArc
 50
270.0
 51
0.0
  0
VIEWPORT
  5
2DE
330
23
100
AcDbEntity
  8
0
100
AcDbViewport
 10
0.0
 20
0.0
 30
0.0
 40
8.4
 41
6.4
 68
     1
 69
     1
 12
4.1182351174
 22
5.3089737433
 13
0.0
 23
0.0
 14
0.5
 24
0.5
 15
0.5
 25
0.5
 16
0.0
 26
0.0
 36
1.0
 17
0.0
 27
0.0
 37
0.0
 42
50.0
 43
0.0
 44
0.0
 45
8.4139482565
 50
0.0
 51
0.0
 72
   100
 90
   557152
  1

281
     0
 71
     1
 74
     0
110
0.0
120
0.0
130
0.0
111
1.0
121
0.0
131
0.0
112
0.0
122
1.0
132
0.0
 79
     0
146
0.0
  0
ENDBLK
  5
25
330
23
100
AcDbEntity
  8
0
100
AcDbBlockEnd
  0
BLOCK
  5
154
330
152
100
AcDbEntity
  8
0
100
AcDbBlockBegin
  2
*Paper_Space1
 70
     0
 10
0.0
 20
0.0
 30
0.0
  3
*Paper_Space1
  1

  0
SPLINE
  5
177
330
152
100
AcDbEntity
  8
0
  6
Continuous
 62
     7
370
    25
100
AcDbSpline
210
0.0
220
0.0
230
1.0
 70
     8
 71
     3
 72
    17
 73
    13
 74
     0
 42
0.000000001
 43
0.00000001
 40
0.0
 40
0.0
 40
0.0
 40
0.0
 40
0.0701855963911092
 40
0.1770159135648062
 40
0.2845452382815516
 40
0.3925823255181059
 40
0.4994910592235323
 40
0.6046882165210702
 40
0.7098083614788508
 40
0.8165495372201199
 40
0.9245465299550222
 40
1.0
 40
1.0
 40
1.0
 40
1.0
 10
-9.206599700036948
 20
6.135463527850943
 30
0.0
 10
-9.206556119038959
 20
6.135468846798388
 30
0.0
 10
-9.206446202894197
 20
6.135482261777947
 30
0.0
 10
-9.223406969111648
 20
6.132770718491438
 30
0.0
 10
-9.253419855039596
 20
6.128888532963622
 30
0.0
 10
-9.293910732857753
 20
6.125435613321283
 30
0.0
 10
-9.33929544981819
 20
6.12409507005288
 30
0.0
 10
-9.38428672815745
 20
6.125377670717235
 30
0.0
 10
-9.424339705699069
 20
6.128704143593629
 30
0.0
 10
-9.454799443753283
 20
6.132576102943203
 30
0.0
 10
-9.472688596288476
 20
6.135418418680977
 30
0.0
 10
-9.472931035434765
 20
6.135464270826995
 30
0.0
 10
-9.473030751045098
 20
6.135483129888311
 30
0.0
  0
LINE
  5
181
330
152
100
AcDbEntity
  8
0
  6
Continuous
 62
     7
370
    25
100
AcDbLine
 10
-9.473030751
 20
6.1357453968
 30
0.0
 11
-9.7334573068
 21
6.1357453968
 31
0.0
  0
LINE
  5
182
330
152
100
AcDbEntity
  8
0
  6
Continuous
 62
     7
370
    25
100
AcDbLine
 10
-8.0011738422
 20
6.1357453968
 30
0.0
 11
-9.2065997
 21
6.1357453968
 31
0.0
  0
LINE
  5
183
330
152
100
AcDbEntity
  8
0
  6
Continuous
 62
     7
370
    25
100
AcDbLine
 10
-9.7334573068
 20
4.4822020897
 30
0.0
 11
-8.0011738422
 21
4.4822020897
 31
0.0
  0
LINE
  5
184
330
152
100
AcDbEntity
  8
0
  6
Continuous
 62
     7
370
    25
100
AcDbLine
 10
-9.2048662086
 20
6.1355923434
 30
0.0
 11
-9.2413313225
 21
6.6278713811
 31
0.0
  0
LINE
  5
185
330
152
100
AcDbEntity
  8
0
  6
Continuous
 62
     7
370
    25
100
AcDbLine
 10
-9.4381817162
 20
6.6278713811
 30
0.0
 11
-9.474646009
 21
6.1356034282
 31
0.0
  0
LINE
  5
186
330
152
100
AcDbEntity
  8
0
  6
Continuous
 62
     7
370
    25
100
AcDbLine
 10
-8.8141659682
 20
6.1357453968
 30
0.0
 11
-8.8141659682
 21
6.2420312103
 31
0.0
  0
LINE
  5
187
330
152
100
AcDbEntity
  8
0
  6
Continuous
 62
     7
370
    25
100
AcDbLine
 10
-9.1173155745
 20
6.2420312103
 30
0.0
 11
-9.1173155745
 21
6.1357453968
 31
0.0
  0
LINE
  5
188
330
152
100
AcDbEntity
  8
0
  6
Continuous
 62
     7
370
    25
100
AcDbLine
 10
-9.4746354928
 20
4.4822020897
 30
0.0
 11
-9.4381817162
 21
3.9900761055
 31
0.0
  0
LINE
  5
189
330
152
100
AcDbEntity
  8
0
  6
Continuous
 62
     7
370
    25
100
AcDbLine
 10
-9.2413313225
 20
3.9900761055
 30
0.0
 11
-9.2048775459
 21
4.4822020897
 31
0.0
  0
LINE
  5
18A
330
152
100
AcDbEntity
  8
0
  6
Continuous
 62
     7
370
    25
100
AcDbLine
 10
-7.8436935272
 20
3.3404698063
 30
0.0
 11
-7.8436935272
 21
7.2774776803
 31
0.0
  0
LINE
  5
18B
330
152
100
AcDbEntity
  8
0
  6
Continuous
 62
     7
370
    25
100
AcDbLine
 10
-8.0011738422
 20
3.9310209874
 30
0.0
 11
-7.8436935272
 21
3.9310209874
 31
0.0
  0
LINE
  5
18C
330
152
100
AcDbEntity
  8
0
  6
Continuous
 62
     7
370
    25
100
AcDbLine
 10
-7.9814888028
 20
7.2774776803
 30
0.0
 11
-7.9814888028
 21
3.3404698063
 31
0.0
  0
LINE
  5
18D
330
152
100
AcDbEntity
  8
0
  6
Continuous
 62
     7
370
    25
100
AcDbLine
 10
-8.0011738422
 20
6.6869264992
 30
0.0
 11
-7.8436935272
 21
6.6869264992
 31
0.0
  0
LINE
  5
18E
330
152
100
AcDbEntity
  8
0
  6
Continuous
 62
     7
370
    25
100
AcDbLine
 10
-7.9814888028
 20
3.3404698063
 30
0.0
 11
-7.8436935272
 21
3.3404698063
 31
0.0
  0
LINE
  5
18F
330
152
100
AcDbEntity
  8
0
  6
Continuous
 62
     7
370
    25
100
AcDbLine
 10
-8.0011738422
 20
3.3601548456
 30
0.0
 11
-8.0011738422
 21
7.2577926409
 31
0.0
  0
LINE
  5
190
330
152
100
AcDbEntity
  8
0
  6
Continuous
 62
     7
370
    25
100
AcDbLine
 10
-7.9814888028
 20
7.2774776803
 30
0.0
 11
-7.8436935272
 21
7.2774776803
 31
0.0
  0
LINE
  5
191
330
152
100
AcDbEntity
  8
0
  6
Continuous
 62
     7
370
    25
100
AcDbLine
 10
-9.7728273855
 20
4.5215721685
 30
0.0
 11
-9.7728273855
 21
6.0963753181
 31
0.0
  0
LINE
  5
192
330
152
100
AcDbEntity
  8
0
  6
Continuous
 62
     7
370
    25
100
AcDbLine
 10
-9.4381817162
 20
6.6278713811
 30
0.0
 11
-9.2413313225
 21
6.6278713811
 31
0.0
  0
LINE
  5
193
330
152
100
AcDbEntity
  8
0
  6
Continuous
 62
     7
370
    25
100
AcDbLine
 10
-9.2413313225
 20
3.9900761055
 30
0.0
 11
-9.4381817162
 21
3.9900761055
 31
0.0
  0
LINE
  5
194
330
152
100
AcDbEntity
  8
0
  6
Continuous
 62
     8
370
    25
100
AcDbLine
 10
-9.7334573068
 20
6.1357453968
 30
0.0
 11
-9.7334573068
 21
4.4822020897
 31
0.0
  0
LINE
  5
195
330
152
100
AcDbEntity
  8
0
  6
Continuous
 62
     8
370
    25
100
AcDbLine
 10
-8.8141659682
 20
6.2420312103
 30
0.0
 11
-9.1173155745
 21
6.2420312103
 31
0.0
  0
LINE
  5
196
330
152
100
AcDbEntity
  8
0
  6
Continuous
 62
     8
370
    25
100
AcDbLine
 10
-9.1065284784
 20
6.2595904637
 30
0.0
 11
-8.8249530643
 21
6.2595904637
 31
0.0
  0
ARC
  5
197
330
152
100
AcDbEntity
  8
0
  6
Continuous
 62
     7
370
    25
100
AcDbCircle
 10
-9.7334573068
 20
4.5215721685
 30
0.0
 40
0.039370078740161
100
AcDbArc
 50
180.0
 51
270.0
  0
ARC
  5
198
330
152
100
AcDbEntity
  8
0
  6
Continuous
 62
     7
370
    25
100
AcDbCircle
 10
-9.7334573068
 20
6.0963753181
 30
0.0
 40
0.039370078740161
100
AcDbArc
 50
90.0
 51
180.0
  0
ARC
  5
199
330
152
100
AcDbEntity
  8
0
  6
Continuous
 62
     7
370
    25
100
AcDbCircle
 10
-9.3397565194
 20
6.6278713811
 30
0.0
 40
0.0984251968503944
100
AcDbArc
 50
0.0
 51
180.0
  0
ARC
  5
19A
330
152
100
AcDbEntity
  8
0
  6
Continuous
 62
     7
370
    25
100
AcDbCircle
 10
-8.8338510075
 20
6.2420312103
 30
0.0
 40
0.0196850393700819
100
AcDbArc
 50
0.0
 51
63.12692886
  0
ARC
  5
19B
330
152
100
AcDbEntity
  8
0
  6
Continuous
 62
     7
370
    25
100
AcDbCircle
 10
-9.0976305351
 20
6.2420312103
 30
0.0
 40
0.0196850393700763
100
AcDbArc
 50
116.8730711399
 51
180.0
  0
ARC
  5
19C
330
152
100
AcDbEntity
  8
0
  6
Continuous
 62
     7
370
    25
100
AcDbCircle
 10
-8.9657407713
 20
5.9817591763
 30
0.0
 40
0.3114665354330808
100
AcDbArc
 50
63.1269288601
 51
116.8730711399
  0
ARC
  5
19D
330
152
100
AcDbEntity
  8
0
  6
Continuous
 62
     7
370
    25
100
AcDbCircle
 10
-9.3397565194
 20
3.9900761055
 30
0.0
 40
0.0984251968503944
100
AcDbArc
 50
180.0
 51
0.0
  0
ARC
  5
19E
330
152
100
AcDbEntity
  8
0
  6
Continuous
 62
     7
370
    25
100
AcDbCircle
 10
-7.9814888028
 20
3.3601548456
 30
0.0
 40
0.0196850393700791
100
AcDbArc
 50
180.0
 51
270.0
  0
ARC
  5
19F
330
152
100
AcDbEntity
  8
0
  6
Continuous
 62
     7
370
    25
100
AcDbCircle
 10
-7.9814888028
 20
7.2577926409
 30
0.0
 40
0.0196850393700805
100
AcDbArc
 50
90.0
 51
180.0
  0
VIEWPORT
  5
2E0
330
152
100
AcDbEntity
  8
0
100
AcDbViewport
 10
0.0
 20
0.0
 30
0.0
 40
8.4
 41
6.4
 68
     1
 69
     1
 12
4.1182351174
 22
5.3089737433
 13
0.0
 23
0.0
 14
0.5
 24
0.5
 15
0.5
 25
0.5
 16
0.0
 26
0.0
 36
1.0
 17
0.0
 27
0.0
 37
0.0
 42
50.0
 43
0.0
 44
0.0
 45
8.4139482565
 50
0.0
 51
0.0
 72
   100
 90
   557152
  1

281
     0
 71
     1
 74
     0
110
0.0
120
0.0
130
0.0
111
1.0
121
0.0
131
0.0
112
0.0
122
1.0
132
0.0
 79
     0
146
0.0
  0
ENDBLK
  5
155
330
152
100
AcDbEntity
  8
0
100
AcDbBlockEnd
  0
BLOCK
  5
1A2
330
1A0
100
AcDbEntity
  8
0
100
AcDbBlockBegin
  2
*Paper_Space2
 70
     0
 10
0.0
 20
0.0
 30
0.0
  3
*Paper_Space2
  1

  0
CIRCLE
  5
1C1
330
1A0
100
AcDbEntity
  8
0
  6
Continuous
 62
     7
370
    25
100
AcDbCircle
 10
7.2678414166
 20
-9.3397565194
 30
0.0
 40
0.0984251968503926
  0
SPLINE
  5
1C2
330
1A0
100
AcDbEntity
  8
0
  6
Continuous
 62
     7
370
    25
100
AcDbSpline
210
0.0
220
0.0
230
1.0
 70
    11
 71
     3
 72
    70
 73
    66
 74
     0
 42
0.000000001
 43
0.00000001
 40
0.0
 40
0.0
 40
0.0
 40
0.0
 40
0.03125
 40
0.03125
 40
0.0625
 40
0.0625
 40
0.09375
 40
0.09375
 40
0.125
 40
0.125
 40
0.15625
 40
0.15625
 40
0.1875
 40
0.1875
 40
0.21875
 40
0.21875
 40
0.25
 40
0.25
 40
0.28125
 40
0.28125
 40
0.3125
 40
0.3125
 40
0.34375
 40
0.34375
 40
0.375
 40
0.375
 40
0.40625
 40
0.40625
 40
0.4375
 40
0.4375
 40
0.46875
 40
0.46875
 40
0.5
 40
0.5
 40
0.53125
 40
0.53125
 40
0.5625
 40
0.5625
 40
0.59375
 40
0.59375
 40
0.625
 40
0.625
 40
0.65625
 40
0.65625
 40
0.6875
 40
0.6875
 40
0.71875
 40
0.71875
 40
0.75
 40
0.75
 40
0.78125
 40
0.78125
 40
0.8125
 40
0.8125
 40
0.84375
 40
0.84375
 40
0.875
 40
0.875
 40
0.90625
 40
0.90625
 40
0.9375
 40
0.9375
 40
0.96875
 40
0.96875
 40
1.0
 40
1.0
 40
1.0
 40
1.0
 10
7.171220010057613
 20
-9.245046322009955
 30
0.0
 10
7.177504587704506
 20
-9.238713179558289
 30
0.0
 10
7.18430508554992
 20
-9.233100512971049
 30
0.0
 10
7.198898541337297
 20
-9.22325053338058
 30
0.0
 10
7.20678319536304
 20
-9.218979010413372
 30
0.0
 10
7.223132954783965
 20
-9.212102662853638
 30
0.0
 10
7.231553707166682
 20
-9.209491981132857
 30
0.0
 10
7.248884620369845
 20
-9.205910681924276
 30
0.0
 10
7.257858233529774
 20
-9.204956244539188
 30
0.0
 10
7.275541605633506
 20
-9.204808391310396
 30
0.0
 10
7.284337793503536
 20
-9.205585585683519
 30
0.0
 10
7.301837331385671
 20
-9.208878971296059
 30
0.0
 10
7.310417795814413
 20
-9.211388377756332
 30
0.0
 10
7.326779267604457
 20
-9.21794689758058
 30
0.0
 10
7.33468516258297
 20
-9.222041655301716
 30
0.0
 10
7.349596912299264
 20
-9.231738695790558
 30
0.0
 10
7.356472503123944
 20
-9.237241717868104
 30
0.0
 10
7.369097430916976
 20
-9.249527786848507
 30
0.0
 10
7.37489500841767
 20
-9.256396245475921
 30
0.0
 10
7.38490304406649
 20
-9.27095641796157
 30
0.0
 10
7.38915654767788
 20
-9.278662084107731
 30
0.0
 10
7.39614837155947
 20
-9.294938409705757
 30
0.0
 10
7.398861257377218
 20
-9.303516604076593
 30
0.0
 10
7.402495059893443
 20
-9.320787700084617
 30
0.0
 10
7.403462630563789
 20
-9.329573843570707
 30
0.0
 10
7.403628025247932
 20
-9.347460465181708
 30
0.0
 10
7.402818951243797
 20
-9.35629728904817
 30
0.0
 10
7.399499627036445
 20
-9.373634920005756
 30
0.0
 10
7.396948193360164
 20
-9.382248289585446
 30
0.0
 10
7.390243480675522
 20
-9.39867271733798
 30
0.0
 10
7.386125096809534
 20
-9.406460825203673
 30
0.0
 10
7.376375174641986
 20
-9.421204796870088
 30
0.0
 10
7.370701547273971
 20
-9.42817506811778
 30
0.0
 10
7.358295716964141
 20
-9.440686166719377
 30
0.0
 10
7.351517554218892
 20
-9.446311897146677
 30
0.0
 10
7.336775245970117
 20
-9.456274820534295
 30
0.0
 10
7.32895085060519
 20
-9.460504199516674
 30
0.0
 10
7.312714923486068
 20
-9.467349141694077
 30
0.0
 10
7.304184779090821
 20
-9.470009472261845
 30
0.0
 10
7.286745058947031
 20
-9.47361342566121
 30
0.0
 10
7.27796452027012
 20
-9.474546379296362
 30
0.0
 10
7.260284571640626
 20
-9.474712546933675
 30
0.0
 10
7.25129601431609
 20
-9.47391815405893
 30
0.0
 10
7.233896685036477
 20
-9.470643772507547
 30
0.0
 10
7.225427620425078
 20
-9.468181774814877
 30
0.0
 10
7.208952810046478
 20
-9.461593835712629
 30
0.0
 10
7.200994486723212
 20
-9.457463006658472
 30
0.0
 10
7.186225217799481
 20
-9.447871175512816
 30
0.0
 10
7.179316217566256
 20
-9.442371017012517
 30
0.0
 10
7.166531630785427
 20
-9.429936259321789
 30
0.0
 10
7.160852228506361
 20
-9.423195102932874
 30
0.0
 10
7.150865648251999
 20
-9.408696690816543
 30
0.0
 10
7.146522499110554
 20
-9.400844561727283
 30
0.0
 10
7.13952679820716
 20
-9.384554363891974
 30
0.0
 10
7.136863656175739
 20
-9.376152593808525
 30
0.0
 10
7.133201741290794
 20
-9.358834904288543
 30
0.0
 10
7.132221270414952
 20
-9.349862280372548
 30
0.0
 10
7.132054243588152
 20
-9.332183351761511
 30
0.0
 10
7.132837127727448
 20
-9.323384248108587
 30
0.0
 10
7.136179556303628
 20
-9.305868687805003
 30
0.0
 10
7.138719955696802
 20
-9.297320135038904
 30
0.0
 10
7.145370095248797
 20
-9.2809908085533
 30
0.0
 10
7.149531701370042
 20
-9.273090579973827
 30
0.0
 10
7.159342960115279
 20
-9.258255863255942
 30
0.0
 10
7.16493543241072
 20
-9.25137946446162
 30
0.0
 10
7.171220010057613
 20
-9.245046322009955
 30
0.0
  0
CIRCLE
  5
1C4
330
1A0
100
AcDbEntity
  8
0
  6
Continuous
 62
     7
370
    25
100
AcDbCircle
 10
4.1182351174
 20
-8.9657407713
 30
0.0
 40
0.1407877070265862
  0
CIRCLE
  5
1C5
330
1A0
100
AcDbEntity
  8
0
  6
Continuous
 62
     7
370
    25
100
AcDbCircle
 10
4.1182351174
 20
-8.9657407713
 30
0.0
 40
0.1515748031495985
  0
CIRCLE
  5
1C7
330
1A0
100
AcDbEntity
  8
0
  6
Continuous
 62
     7
370
    25
100
AcDbCircle
 10
0.9686288182
 20
-9.3397565194
 30
0.0
 40
0.0984251968503911
  0
SPLINE
  5
1C8
330
1A0
100
AcDbEntity
  8
0
  6
Continuous
 62
     7
370
    25
100
AcDbSpline
210
0.0
220
0.0
230
1.0
 70
    11
 71
     3
 72
    70
 73
    66
 74
     0
 42
0.000000001
 43
0.00000001
 40
0.0
 40
0.0
 40
0.0
 40
0.0
 40
0.03125
 40
0.03125
 40
0.0625
 40
0.0625
 40
0.09375
 40
0.09375
 40
0.125
 40
0.125
 40
0.15625
 40
0.15625
 40
0.1875
 40
0.1875
 40
0.21875
 40
0.21875
 40
0.25
 40
0.25
 40
0.28125
 40
0.28125
 40
0.3125
 40
0.3125
 40
0.34375
 40
0.34375
 40
0.375
 40
0.375
 40
0.40625
 40
0.40625
 40
0.4375
 40
0.4375
 40
0.46875
 40
0.46875
 40
0.5
 40
0.5
 40
0.53125
 40
0.53125
 40
0.5625
 40
0.5625
 40
0.59375
 40
0.59375
 40
0.625
 40
0.625
 40
0.65625
 40
0.65625
 40
0.6875
 40
0.6875
 40
0.71875
 40
0.71875
 40
0.75
 40
0.75
 40
0.78125
 40
0.78125
 40
0.8125
 40
0.8125
 40
0.84375
 40
0.84375
 40
0.875
 40
0.875
 40
0.90625
 40
0.90625
 40
0.9375
 40
0.9375
 40
0.96875
 40
0.96875
 40
1.0
 40
1.0
 40
1.0
 40
1.0
 10
0.8720074116335806
 20
-9.245046322009607
 30
0.0
 10
0.8782919892804755
 20
-9.238713179557944
 30
0.0
 10
0.8850924871258876
 20
-9.233100512970701
 30
0.0
 10
0.8996859429132671
 20
-9.223250533380234
 30
0.0
 10
0.9075705969390068
 20
-9.218979010413026
 30
0.0
 10
0.9239203563599332
 20
-9.212102662853292
 30
0.0
 10
0.9323411087426482
 20
-9.209491981132508
 30
0.0
 10
0.9496720219458139
 20
-9.205910681923928
 30
0.0
 10
0.9586456351057402
 20
-9.204956244538849
 30
0.0
 10
0.9763290072094725
 20
-9.20480839131005
 30
0.0
 10
0.9851251950795019
 20
-9.205585585683165
 30
0.0
 10
1.00262473296164
 20
-9.208878971295709
 30
0.0
 10
1.011205197390378
 20
-9.211388377755984
 30
0.0
 10
1.027566669180423
 20
-9.217946897580234
 30
0.0
 10
1.035472564158936
 20
-9.222041655301368
 30
0.0
 10
1.050384313875233
 20
-9.23173869579021
 30
0.0
 10
1.05725990469991
 20
-9.237241717867759
 30
0.0
 10
1.069884832492945
 20
-9.24952778684816
 30
0.0
 10
1.075682409993634
 20
-9.256396245475571
 30
0.0
 10
1.08569044564246
 20
-9.270956417961223
 30
0.0
 10
1.089943949253846
 20
-9.278662084107381
 30
0.0
 10
1.096935773135438
 20
-9.294938409705413
 30
0.0
 10
1.099648658953187
 20
-9.303516604076249
 30
0.0
 10
1.103282461469411
 20
-9.320787700084267
 30
0.0
 10
1.104250032139756
 20
-9.32957384357036
 30
0.0
 10
1.104415426823899
 20
-9.347460465181362
 30
0.0
 10
1.103606352819763
 20
-9.356297289047829
 30
0.0
 10
1.100287028612413
 20
-9.373634920005408
 30
0.0
 10
1.097735594936135
 20
-9.382248289585101
 30
0.0
 10
1.091030882251494
 20
-9.398672717337632
 30
0.0
 10
1.086912498385501
 20
-9.406460825203323
 30
0.0
 10
1.077162576217953
 20
-9.421204796869743
 30
0.0
 10
1.071488948849943
 20
-9.428175068117431
 30
0.0
 10
1.059083118540109
 20
-9.440686166719027
 30
0.0
 10
1.052304955794862
 20
-9.44631189714633
 30
0.0
 10
1.037562647546084
 20
-9.45627482053395
 30
0.0
 10
1.029738252181159
 20
-9.460504199516327
 30
0.0
 10
1.013502325062036
 20
-9.46734914169373
 30
0.0
 10
1.004972180666787
 20
-9.470009472261495
 30
0.0
 10
0.9875324605230001
 20
-9.47361342566086
 30
0.0
 10
0.9787519218460884
 20
-9.474546379296013
 30
0.0
 10
0.9610719732165959
 20
-9.474712546933329
 30
0.0
 10
0.952083415892058
 20
-9.473918154058579
 30
0.0
 10
0.9346840866124482
 20
-9.470643772507202
 30
0.0
 10
0.9262150220010442
 20
-9.468181774814537
 30
0.0
 10
0.9097402116224443
 20
-9.461593835712282
 30
0.0
 10
0.9017818882991784
 20
-9.457463006658122
 30
0.0
 10
0.8870126193754513
 20
-9.447871175512473
 30
0.0
 10
0.8801036191422226
 20
-9.442371017012169
 30
0.0
 10
0.8673190323613953
 20
-9.429936259321442
 30
0.0
 10
0.8616396300823259
 20
-9.423195102932533
 30
0.0
 10
0.8516530498279691
 20
-9.408696690816194
 30
0.0
 10
0.8473099006865201
 20
-9.400844561726938
 30
0.0
 10
0.8403141997831263
 20
-9.384554363891624
 30
0.0
 10
0.8376510577517063
 20
-9.376152593808177
 30
0.0
 10
0.8339891428667617
 20
-9.358834904288193
 30
0.0
 10
0.8330086719909191
 20
-9.349862280372195
 30
0.0
 10
0.8328416451641177
 20
-9.332183351761161
 30
0.0
 10
0.8336245293034136
 20
-9.323384248108237
 30
0.0
 10
0.8369669578795942
 20
-9.305868687804656
 30
0.0
 10
0.8395073572727685
 20
-9.297320135038555
 30
0.0
 10
0.8461574968247647
 20
-9.280990808552954
 30
0.0
 10
0.8503191029460087
 20
-9.273090579973475
 30
0.0
 10
0.8601303616912489
 20
-9.258255863255593
 30
0.0
 10
0.8657228339866858
 20
-9.251379464461268
 30
0.0
 10
0.8720074116335806
 20
-9.245046322009607
 30
0.0
  0
LINE
  5
1CD
330
1A0
100
AcDbEntity
  8
0
  6
Continuous
 62
     7
370
    25
100
AcDbLine
 10
6.441069763
 20
-8.0011738422
 30
0.0
 11
6.441069763
 21
-9.7334573068
 31
0.0
  0
LINE
  5
1CE
330
1A0
100
AcDbEntity
  8
0
  6
Continuous
 62
     7
370
    25
100
AcDbLine
 10
8.0946130701
 20
-9.7334573068
 30
0.0
 11
8.0946130701
 21
-8.0011738422
 31
0.0
  0
LINE
  5
1CF
330
1A0
100
AcDbEntity
  8
0
  6
Continuous
 62
     7
370
    25
100
AcDbLine
 10
3.2914634638
 20
-8.0011738422
 30
0.0
 11
3.2914634638
 21
-9.7334573068
 31
0.0
  0
LINE
  5
1D0
330
1A0
100
AcDbEntity
  8
0
  6
Continuous
 62
     7
370
    25
100
AcDbLine
 10
4.9450067709
 20
-9.7334573068
 30
0.0
 11
4.9450067709
 21
-8.0011738422
 31
0.0
  0
LINE
  5
1D1
330
1A0
100
AcDbEntity
  8
0
  6
Continuous
 62
     7
370
    25
100
AcDbLine
 10
0.1418571646
 20
-8.0011738422
 30
0.0
 11
0.1418571646
 21
-9.7334573068
 31
0.0
  0
LINE
  5
1D2
330
1A0
100
AcDbEntity
  8
0
  6
Continuous
 62
     7
370
    25
100
AcDbLine
 10
1.7954004717
 20
-9.7334573068
 30
0.0
 11
1.7954004717
 21
-8.0011738422
 31
0.0
  0
LINE
  5
1D3
330
1A0
100
AcDbEntity
  8
0
  6
Continuous
 62
     7
370
    25
100
AcDbLine
 10
9.5316209441
 20
-7.8436935272
 30
0.0
 11
-1.2951507094
 21
-7.8436935272
 31
0.0
  0
LINE
  5
1D4
330
1A0
100
AcDbEntity
  8
0
  6
Continuous
 62
     7
370
    25
100
AcDbLine
 10
8.941069763
 20
-8.0011738422
 30
0.0
 11
8.941069763
 21
-7.8436935272
 31
0.0
  0
LINE
  5
1D5
330
1A0
100
AcDbEntity
  8
0
  6
Continuous
 62
     7
370
    25
100
AcDbLine
 10
-1.2951507094
 20
-7.9814888028
 30
0.0
 11
9.5316209441
 21
-7.9814888028
 31
0.0
  0
LINE
  5
1D6
330
1A0
100
AcDbEntity
  8
0
  6
Continuous
 62
     7
370
    25
100
AcDbLine
 10
-0.7045995283
 20
-8.0011738422
 30
0.0
 11
-0.7045995283
 21
-7.8436935272
 31
0.0
  0
LINE
  5
1D7
330
1A0
100
AcDbEntity
  8
0
  6
Continuous
 62
     7
370
    25
100
AcDbLine
 10
9.5316209441
 20
-7.9814888028
 30
0.0
 11
9.5316209441
 21
-7.8436935272
 31
0.0
  0
LINE
  5
1D8
330
1A0
100
AcDbEntity
  8
0
  6
Continuous
 62
     7
370
    25
100
AcDbLine
 10
9.5119359048
 20
-8.0011738422
 30
0.0
 11
-1.27546567
 21
-8.0011738422
 31
0.0
  0
LINE
  5
1D9
330
1A0
100
AcDbEntity
  8
0
  6
Continuous
 62
     7
370
    25
100
AcDbLine
 10
-1.2951507094
 20
-7.9814888028
 30
0.0
 11
-1.2951507094
 21
-7.8436935272
 31
0.0
  0
LINE
  5
1DA
330
1A0
100
AcDbEntity
  8
0
  6
Continuous
 62
     7
370
    25
100
AcDbLine
 10
8.0552429914
 20
-9.7728273855
 30
0.0
 11
6.4804398418
 21
-9.7728273855
 31
0.0
  0
LINE
  5
1DB
330
1A0
100
AcDbEntity
  8
0
  6
Continuous
 62
     7
370
    25
100
AcDbLine
 10
4.9056366917
 20
-9.7728273855
 30
0.0
 11
3.3308335426
 21
-9.7728273855
 31
0.0
  0
LINE
  5
1DC
330
1A0
100
AcDbEntity
  8
0
  6
Continuous
 62
     7
370
    25
100
AcDbLine
 10
1.756030393
 20
-9.7728273855
 30
0.0
 11
0.1812272434
 21
-9.7728273855
 31
0.0
  0
LINE
  5
1DD
330
1A0
100
AcDbEntity
  8
0
  6
Continuous
 62
     8
370
    25
100
AcDbLine
 10
6.441069763
 20
-9.7334573068
 30
0.0
 11
8.0946130701
 21
-9.7334573068
 31
0.0
  0
LINE
  5
1DE
330
1A0
100
AcDbEntity
  8
0
  6
Continuous
 62
     8
370
    25
100
AcDbLine
 10
3.2914634638
 20
-9.7334573068
 30
0.0
 11
4.9450067709
 21
-9.7334573068
 31
0.0
  0
LINE
  5
1DF
330
1A0
100
AcDbEntity
  8
0
  6
Continuous
 62
     8
370
    25
100
AcDbLine
 10
0.1418571646
 20
-9.7334573068
 30
0.0
 11
1.7954004717
 21
-9.7334573068
 31
0.0
  0
ARC
  5
1E0
330
1A0
100
AcDbEntity
  8
0
  6
Continuous
 62
     7
370
    25
100
AcDbCircle
 10
8.0552429914
 20
-9.7334573068
 30
0.0
 40
0.0393700787401627
100
AcDbArc
 50
270.0
 51
360.0
  0
ARC
  5
1E1
330
1A0
100
AcDbEntity
  8
0
  6
Continuous
 62
     7
370
    25
100
AcDbCircle
 10
6.4804398418
 20
-9.7334573068
 30
0.0
 40
0.0393700787401592
100
AcDbArc
 50
180.0
 51
270.0
  0
ARC
  5
1E2
330
1A0
100
AcDbEntity
  8
0
  6
Continuous
 62
     7
370
    25
100
AcDbCircle
 10
4.9056366922
 20
-9.7334573068
 30
0.0
 40
0.0393700787401592
100
AcDbArc
 50
270.0
 51
0.0
  0
ARC
  5
1E3
330
1A0
100
AcDbEntity
  8
0
  6
Continuous
 62
     7
370
    25
100
AcDbCircle
 10
3.3308335426
 20
-9.7334573068
 30
0.0
 40
0.0393700787401556
100
AcDbArc
 50
180.0
 51
270.0
  0
ARC
  5
1E4
330
1A0
100
AcDbEntity
  8
0
  6
Continuous
 62
     7
370
    25
100
AcDbCircle
 10
1.756030393
 20
-9.7334573068
 30
0.0
 40
0.0393700787401592
100
AcDbArc
 50
270.0
 51
360.0
  0
ARC
  5
1E5
330
1A0
100
AcDbEntity
  8
0
  6
Continuous
 62
     7
370
    25
100
AcDbCircle
 10
0.1812272434
 20
-9.7334573068
 30
0.0
 40
0.0393700787401592
100
AcDbArc
 50
180.0
 51
270.0
  0
ARC
  5
1E6
330
1A0
100
AcDbEntity
  8
0
  6
Continuous
 62
     7
370
    25
100
AcDbCircle
 10
9.5119359048
 20
-7.9814888028
 30
0.0
 40
0.0196850393700805
100
AcDbArc
 50
270.0
 51
0.0
  0
ARC
  5
1E7
330
1A0
100
AcDbEntity
  8
0
  6
Continuous
 62
     7
370
    25
100
AcDbCircle
 10
-1.27546567
 20
-7.9814888028
 30
0.0
 40
0.0196850393700778
100
AcDbArc
 50
180.0
 51
270.0
  0
VIEWPORT
  5
2E2
330
1A0
100
AcDbEntity
  8
0
100
AcDbViewport
 10
0.0
 20
0.0
 30
0.0
 40
8.4
 41
6.4
 68
     1
 69
     1
 12
4.1182351174
 22
5.3089737433
 13
0.0
 23
0.0
 14
0.5
 24
0.5
 15
0.5
 25
0.5
 16
0.0
 26
0.0
 36
1.0
 17
0.0
 27
0.0
 37
0.0
 42
50.0
 43
0.0
 44
0.0
 45
8.4139482565
 50
0.0
 51
0.0
 72
   100
 90
   557152
  1

281
     0
 71
     1
 74
     0
110
0.0
120
0.0
130
0.0
111
1.0
121
0.0
131
0.0
112
0.0
122
1.0
132
0.0
 79
     0
146
0.0
  0
ENDBLK
  5
1A3
330
1A0
100
AcDbEntity
  8
0
100
AcDbBlockEnd
  0
BLOCK
  5
1EA
330
1E8
100
AcDbEntity
  8
0
100
AcDbBlockBegin
  2
*Paper_Space3
 70
     0
 10
0.0
 20
0.0
 30
0.0
  3
*Paper_Space3
  1

  0
CIRCLE
  5
20A
330
1E8
100
AcDbEntity
  8
0
  6
Continuous
 62
     7
370
    25
100
AcDbCircle
 10
4.1182351174
 20
9.3397565194
 30
0.0
 40
0.0984251968503909
  0
SPLINE
  5
20B
330
1E8
100
AcDbEntity
  8
0
  6
Continuous
 62
     7
370
    25
100
AcDbSpline
210
0.0
220
0.0
230
1.0
 70
    11
 71
     3
 72
    70
 73
    66
 74
     0
 42
0.000000001
 43
0.00000001
 40
0.0
 40
0.0
 40
0.0
 40
0.0
 40
0.03125
 40
0.03125
 40
0.0625
 40
0.0625
 40
0.09375
 40
0.09375
 40
0.125
 40
0.125
 40
0.15625
 40
0.15625
 40
0.1875
 40
0.1875
 40
0.21875
 40
0.21875
 40
0.25
 40
0.25
 40
0.28125
 40
0.28125
 40
0.3125
 40
0.3125
 40
0.34375
 40
0.34375
 40
0.375
 40
0.375
 40
0.40625
 40
0.40625
 40
0.4375
 40
0.4375
 40
0.46875
 40
0.46875
 40
0.5
 40
0.5
 40
0.53125
 40
0.53125
 40
0.5625
 40
0.5625
 40
0.59375
 40
0.59375
 40
0.625
 40
0.625
 40
0.65625
 40
0.65625
 40
0.6875
 40
0.6875
 40
0.71875
 40
0.71875
 40
0.75
 40
0.75
 40
0.78125
 40
0.78125
 40
0.8125
 40
0.8125
 40
0.84375
 40
0.84375
 40
0.875
 40
0.875
 40
0.90625
 40
0.90625
 40
0.9375
 40
0.9375
 40
0.96875
 40
0.96875
 40
1.0
 40
1.0
 40
1.0
 40
1.0
 10
4.214856523898176
 20
9.245046322009909
 30
0.0
 10
4.208571946251279
 20
9.238713179558246
 30
0.0
 10
4.20177144840587
 20
9.233100512971
 30
0.0
 10
4.187177992618487
 20
9.223250533380531
 30
0.0
 10
4.179293338592752
 20
9.21897901041333
 30
0.0
 10
4.162943579171822
 20
9.21210266285359
 30
0.0
 10
4.15452282678911
 20
9.209491981132805
 30
0.0
 10
4.137191913585943
 20
9.20591068192423
 30
0.0
 10
4.128218300426015
 20
9.204956244539146
 30
0.0
 10
4.110534928322283
 20
9.204808391310346
 30
0.0
 10
4.101738740452253
 20
9.205585585683467
 30
0.0
 10
4.084239202570116
 20
9.208878971296013
 30
0.0
 10
4.075658738141378
 20
9.211388377756284
 30
0.0
 10
4.059297266351332
 20
9.217946897580534
 30
0.0
 10
4.05139137137282
 20
9.222041655301663
 30
0.0
 10
4.036479621656522
 20
9.231738695790506
 30
0.0
 10
4.029604030831846
 20
9.237241717868052
 30
0.0
 10
4.01697910303881
 20
9.249527786848459
 30
0.0
 10
4.011181525538121
 20
9.256396245475871
 30
0.0
 10
4.001173489889296
 20
9.270956417961518
 30
0.0
 10
3.99691998627791
 20
9.278662084107681
 30
0.0
 10
3.989928162396318
 20
9.294938409705708
 30
0.0
 10
3.987215276578569
 20
9.303516604076542
 30
0.0
 10
3.983581474062342
 20
9.320787700084564
 30
0.0
 10
3.982613903391998
 20
9.329573843570655
 30
0.0
 10
3.982448508707854
 20
9.347460465181658
 30
0.0
 10
3.983257582711992
 20
9.356297289048127
 30
0.0
 10
3.986576906919341
 20
9.373634920005703
 30
0.0
 10
3.98912834059562
 20
9.3822482895854
 30
0.0
 10
3.99583305328026
 20
9.398672717337929
 30
0.0
 10
3.999951437146253
 20
9.406460825203622
 30
0.0
 10
4.009701359313798
 20
9.421204796870041
 30
0.0
 10
4.01537498668181
 20
9.42817506811773
 30
0.0
 10
4.027780816991645
 20
9.440686166719331
 30
0.0
 10
4.034558979736891
 20
9.44631189714663
 30
0.0
 10
4.049301287985668
 20
9.456274820534249
 30
0.0
 10
4.057125683350594
 20
9.460504199516622
 30
0.0
 10
4.073361610469715
 20
9.46734914169403
 30
0.0
 10
4.081891754864964
 20
9.470009472261795
 30
0.0
 10
4.099331475008754
 20
9.473613425661156
 30
0.0
 10
4.108112013685663
 20
9.474546379296312
 30
0.0
 10
4.125791962315155
 20
9.474712546933626
 30
0.0
 10
4.134780519639695
 20
9.47391815405888
 30
0.0
 10
4.152179848919304
 20
9.4706437725075
 30
0.0
 10
4.160648913530711
 20
9.468181774814836
 30
0.0
 10
4.177123723909308
 20
9.461593835712582
 30
0.0
 10
4.185082047232573
 20
9.457463006658426
 30
0.0
 10
4.199851316156301
 20
9.447871175512772
 30
0.0
 10
4.206760316389532
 20
9.442371017012466
 30
0.0
 10
4.219544903170357
 20
9.429936259321748
 30
0.0
 10
4.225224305449428
 20
9.423195102932832
 30
0.0
 10
4.235210885703785
 20
9.408696690816496
 30
0.0
 10
4.239554034845233
 20
9.400844561727236
 30
0.0
 10
4.246549735748628
 20
9.384554363891926
 30
0.0
 10
4.249212877780048
 20
9.376152593808477
 30
0.0
 10
4.252874792664993
 20
9.3588349042885
 30
0.0
 10
4.253855263540835
 20
9.349862280372502
 30
0.0
 10
4.254022290367637
 20
9.332183351761465
 30
0.0
 10
4.253239406228341
 20
9.323384248108535
 30
0.0
 10
4.249896977652161
 20
9.30586868780496
 30
0.0
 10
4.247356578258987
 20
9.297320135038854
 30
0.0
 10
4.240706438706989
 20
9.280990808553254
 30
0.0
 10
4.236544832585746
 20
9.273090579973779
 30
0.0
 10
4.226733573840507
 20
9.258255863255892
 30
0.0
 10
4.221141101545071
 20
9.251379464461573
 30
0.0
 10
4.214856523898176
 20
9.245046322009909
 30
0.0
  0
LINE
  5
211
330
1E8
100
AcDbEntity
  8
0
  6
Continuous
 62
     7
370
    25
100
AcDbLine
 10
8.0946130701
 20
8.0011738422
 30
0.0
 11
8.0946130701
 21
9.7334573068
 31
0.0
  0
LINE
  5
212
330
1E8
100
AcDbEntity
  8
0
  6
Continuous
 62
     7
370
    25
100
AcDbLine
 10
6.441069763
 20
9.7334573068
 30
0.0
 11
6.441069763
 21
8.0011738422
 31
0.0
  0
LINE
  5
213
330
1E8
100
AcDbEntity
  8
0
  6
Continuous
 62
     7
370
    25
100
AcDbLine
 10
4.9450067709
 20
8.0011738422
 30
0.0
 11
4.9450067709
 21
9.7334573068
 31
0.0
  0
LINE
  5
214
330
1E8
100
AcDbEntity
  8
0
  6
Continuous
 62
     7
370
    25
100
AcDbLine
 10
3.2914634638
 20
9.7334573068
 30
0.0
 11
3.2914634638
 21
8.0011738422
 31
0.0
  0
LINE
  5
215
330
1E8
100
AcDbEntity
  8
0
  6
Continuous
 62
     7
370
    25
100
AcDbLine
 10
1.7954004717
 20
8.0011738422
 30
0.0
 11
1.7954004717
 21
9.7334573068
 31
0.0
  0
LINE
  5
216
330
1E8
100
AcDbEntity
  8
0
  6
Continuous
 62
     7
370
    25
100
AcDbLine
 10
0.1418571646
 20
9.7334573068
 30
0.0
 11
0.1418571646
 21
8.0011738422
 31
0.0
  0
LINE
  5
217
330
1E8
100
AcDbEntity
  8
0
  6
Continuous
 62
     7
370
    25
100
AcDbLine
 10
-1.2951507094
 20
7.8436935272
 30
0.0
 11
9.5316209441
 21
7.8436935272
 31
0.0
  0
LINE
  5
218
330
1E8
100
AcDbEntity
  8
0
  6
Continuous
 62
     7
370
    25
100
AcDbLine
 10
-1.2951507094
 20
7.9814888028
 30
0.0
 11
-1.2951507094
 21
7.8436935272
 31
0.0
  0
LINE
  5
219
330
1E8
100
AcDbEntity
  8
0
  6
Continuous
 62
     7
370
    25
100
AcDbLine
 10
9.5316209441
 20
7.9814888028
 30
0.0
 11
-1.2951507094
 21
7.9814888028
 31
0.0
  0
LINE
  5
21A
330
1E8
100
AcDbEntity
  8
0
  6
Continuous
 62
     7
370
    25
100
AcDbLine
 10
-0.7045995283
 20
8.0011738422
 30
0.0
 11
-0.7045995283
 21
7.8436935272
 31
0.0
  0
LINE
  5
21B
330
1E8
100
AcDbEntity
  8
0
  6
Continuous
 62
     7
370
    25
100
AcDbLine
 10
8.941069763
 20
8.0011738422
 30
0.0
 11
8.941069763
 21
7.8436935272
 31
0.0
  0
LINE
  5
21C
330
1E8
100
AcDbEntity
  8
0
  6
Continuous
 62
     7
370
    25
100
AcDbLine
 10
-1.27546567
 20
8.0011738422
 30
0.0
 11
9.5119359048
 21
8.0011738422
 31
0.0
  0
LINE
  5
21D
330
1E8
100
AcDbEntity
  8
0
  6
Continuous
 62
     7
370
    25
100
AcDbLine
 10
9.5316209441
 20
7.9814888028
 30
0.0
 11
9.5316209441
 21
7.8436935272
 31
0.0
  0
LINE
  5
21E
330
1E8
100
AcDbEntity
  8
0
  6
Continuous
 62
     7
370
    25
100
AcDbLine
 10
6.4804398422
 20
9.7728273855
 30
0.0
 11
8.0552429914
 21
9.7728273855
 31
0.0
  0
LINE
  5
21F
330
1E8
100
AcDbEntity
  8
0
  6
Continuous
 62
     7
370
    25
100
AcDbLine
 10
3.3308335426
 20
9.7728273855
 30
0.0
 11
4.9056366922
 21
9.7728273855
 31
0.0
  0
LINE
  5
220
330
1E8
100
AcDbEntity
  8
0
  6
Continuous
 62
     7
370
    25
100
AcDbLine
 10
0.1812272438
 20
9.7728273855
 30
0.0
 11
1.756030393
 21
9.7728273855
 31
0.0
  0
LINE
  5
221
330
1E8
100
AcDbEntity
  8
0
  6
Continuous
 62
     8
370
    25
100
AcDbLine
 10
8.0946130701
 20
9.7334573068
 30
0.0
 11
6.441069763
 21
9.7334573068
 31
0.0
  0
LINE
  5
222
330
1E8
100
AcDbEntity
  8
0
  6
Continuous
 62
     8
370
    25
100
AcDbLine
 10
4.9450067709
 20
9.7334573068
 30
0.0
 11
3.2914634638
 21
9.7334573068
 31
0.0
  0
LINE
  5
223
330
1E8
100
AcDbEntity
  8
0
  6
Continuous
 62
     8
370
    25
100
AcDbLine
 10
1.7954004717
 20
9.7334573068
 30
0.0
 11
0.1418571646
 21
9.7334573068
 31
0.0
  0
ARC
  5
224
330
1E8
100
AcDbEntity
  8
0
  6
Continuous
 62
     7
370
    25
100
AcDbCircle
 10
6.4804398418
 20
9.7334573068
 30
0.0
 40
0.039370078740161
100
AcDbArc
 50
90.0
 51
180.0
  0
ARC
  5
225
330
1E8
100
AcDbEntity
  8
0
  6
Continuous
 62
     7
370
    25
100
AcDbCircle
 10
8.0552429914
 20
9.7334573068
 30
0.0
 40
0.039370078740161
100
AcDbArc
 50
0.0
 51
90.0
  0
ARC
  5
226
330
1E8
100
AcDbEntity
  8
0
  6
Continuous
 62
     7
370
    25
100
AcDbCircle
 10
3.3308335426
 20
9.7334573068
 30
0.0
 40
0.0393700787401565
100
AcDbArc
 50
90.0
 51
180.0
  0
ARC
  5
227
330
1E8
100
AcDbEntity
  8
0
  6
Continuous
 62
     7
370
    25
100
AcDbCircle
 10
4.9056366922
 20
9.7334573068
 30
0.0
 40
0.0393700787401592
100
AcDbArc
 50
0.0
 51
90.0
  0
ARC
  5
228
330
1E8
100
AcDbEntity
  8
0
  6
Continuous
 62
     7
370
    25
100
AcDbCircle
 10
0.1812272434
 20
9.7334573068
 30
0.0
 40
0.0393700787401592
100
AcDbArc
 50
90.0
 51
180.0
  0
ARC
  5
229
330
1E8
100
AcDbEntity
  8
0
  6
Continuous
 62
     7
370
    25
100
AcDbCircle
 10
1.756030393
 20
9.7334573068
 30
0.0
 40
0.0393700787401592
100
AcDbArc
 50
0.0
 51
90.0
  0
ARC
  5
22A
330
1E8
100
AcDbEntity
  8
0
  6
Continuous
 62
     7
370
    25
100
AcDbCircle
 10
-1.27546567
 20
7.9814888028
 30
0.0
 40
0.0196850393700752
100
AcDbArc
 50
90.0
 51
180.0
  0
ARC
  5
22B
330
1E8
100
AcDbEntity
  8
0
  6
Continuous
 62
     7
370
    25
100
AcDbCircle
 10
9.5119359048
 20
7.9814888028
 30
0.0
 40
0.0196850393700769
100
AcDbArc
 50
0.0
 51
90.0
  0
VIEWPORT
  5
2E4
330
1E8
100
AcDbEntity
  8
0
100
AcDbViewport
 10
0.0
 20
0.0
 30
0.0
 40
8.4
 41
6.4
 68
     1
 69
     1
 12
4.1182351174
 22
5.3089737433
 13
0.0
 23
0.0
 14
0.5
 24
0.5
 15
0.5
 25
0.5
 16
0.0
 26
0.0
 36
1.0
 17
0.0
 27
0.0
 37
0.0
 42
50.0
 43
0.0
 44
0.0
 45
8.4139482565
 50
0.0
 51
0.0
 72
   100
 90
   557152
  1

281
     0
 71
     1
 74
     0
110
0.0
120
0.0
130
0.0
111
1.0
121
0.0
131
0.0
112
0.0
122
1.0
132
0.0
 79
     0
146
0.0
  0
ENDBLK
  5
1EB
330
1E8
100
AcDbEntity
  8
0
100
AcDbBlockEnd
  0
BLOCK
  5
22E
330
22C
100
AcDbEntity
  8
0
100
AcDbBlockBegin
  2
*Paper_Space4
 70
     0
 10
0.0
 20
0.0
 30
0.0
  3
*Paper_Space4
  1

  0
SPLINE
  5
230
330
22C
100
AcDbEntity
  8
0
  6
Continuous
 62
     7
370
    25
100
AcDbSpline
210
0.0
220
0.0
230
1.0
 70
     8
 71
     3
 72
    12
 73
     8
 74
     0
 42
0.000000001
 43
0.00000001
 40
0.0
 40
0.0
 40
0.0
 40
0.0
 40
0.1265890040553854
 40
0.366870326805005
 40
0.6072841182639844
 40
0.8472300133246666
 40
0.9999999999999999
 40
0.9999999999999999
 40
0.9999999999999999
 40
0.9999999999999999
 10
0.6686844842568296
 20
-4.181201683222842
 30
0.0
 10
0.6769193654819494
 20
-4.185785183462466
 30
0.0
 10
0.7007850526228149
 20
-4.199068724504354
 30
0.0
 10
0.740316649973506
 20
-4.216471369802164
 30
0.0
 10
0.7865515463702419
 20
-4.230714073746729
 30
0.0
 10
0.8264862632342228
 20
-4.238240800777522
 30
0.0
 10
0.8500499231663773
 20
-4.238104257761838
 30
0.0
 10
0.8592163974071039
 20
-4.238051141308808
 30
0.0
  0
SPLINE
  5
235
330
22C
100
AcDbEntity
  8
0
  6
Continuous
 62
     7
370
    25
100
AcDbSpline
210
0.0
220
0.0
230
1.0
 70
     8
 71
     3
 72
    37
 73
    33
 74
     0
 42
0.000000001
 43
0.00000001
 40
0.0
 40
0.0
 40
0.0
 40
0.0
 40
0.004271895402646
 40
0.0400066120122357
 40
0.0755242942752693
 40
0.1108831711870349
 40
0.1461455283654209
 40
0.181360216017474
 40
0.2165596836943006
 40
0.2517590445804481
 40
0.286969402472646
 40
0.3221960834927174
 40
0.3574401385724554
 40
0.3927001611493
 40
0.4279734042997895
 40
0.4632564289635106
 40
0.4985454578322548
 40
0.5338365534484703
 40
0.5691250381338924
 40
0.6044061735504822
 40
0.6396759001456354
 40
0.6749302429279574
 40
0.7101654991061704
 40
0.7453786115325934
 40
0.7805678522950827
 40
0.8157339992752899
 40
0.8508822460239729
 40
0.8860239459347965
 40
0.9211748160832595
 40
0.9563685769116126
 40
0.9916560955570941
 40
0.9999999999999999
 40
0.9999999999999999
 40
0.9999999999999999
 40
0.9999999999999999
 10
-3.029263906884382
 20
0.1564691802321755
 30
0.0
 10
-3.027457515347502
 20
0.1567265952907657
 30
0.0
 10
-3.010540526857247
 20
0.1591373060887633
 30
0.0
 10
-2.975914004460872
 20
0.1575608087423789
 30
0.0
 10
-2.925774313102504
 20
0.1512545041378672
 30
0.0
 10
-2.873698799134986
 20
0.1378882756369515
 30
0.0
 10
-2.820471696220912
 20
0.1183912435654069
 30
0.0
 10
-2.766428251368336
 20
0.0926962291901183
 30
0.0
 10
-2.712047811913644
 20
0.0610589852937051
 30
0.0
 10
-2.657790618113832
 20
0.0237141740327295
 30
0.0
 10
-2.604131813547875
 20
-0.0190304628101577
 30
0.0
 10
-2.551541012214436
 20
-0.0668229052817253
 30
0.0
 10
-2.500481555291194
 20
-0.1192614940135106
 30
0.0
 10
-2.451404144545488
 20
-0.1759004497753751
 30
0.0
 10
-2.4047418139939
 20
-0.2362541147443009
 30
0.0
 10
-2.360905387037453
 20
-0.2998020355680493
 30
0.0
 10
-2.320279565253773
 20
-0.3659939804956184
 30
0.0
 10
-2.283219637683609
 20
-0.4342546273952347
 30
0.0
 10
-2.250048145736312
 20
-0.5039886486288516
 30
0.0
 10
-2.221051559750352
 20
-0.5745863990323108
 30
0.0
 10
-2.196477365598684
 20
-0.6454297668785718
 30
0.0
 10
-2.176531648480596
 20
-0.7158976499451193
 30
0.0
 10
-2.161376856318642
 20
-0.7853712400837987
 30
0.0
 10
-2.151129890038956
 20
-0.8532396288558416
 30
0.0
 10
-2.145859342763868
 20
-0.9189075269962199
 30
0.0
 10
-2.145587750831561
 20
-0.9817975709871901
 30
0.0
 10
-2.150278414201188
 20
-1.041375627347483
 30
0.0
 10
-2.159884827469185
 20
-1.097089411296549
 30
0.0
 10
-2.174173346635188
 20
-1.148630617827365
 30
0.0
 10
-2.193408225606872
 20
-1.195011860750711
 30
0.0
 10
-2.210100152024761
 20
-1.227049762043024
 30
0.0
 10
-2.22157433333193
 20
-1.241755909690056
 30
0.0
 10
-2.223768611345591
 20
-1.244568256434774
 30
0.0
  0
SPLINE
  5
236
330
22C
100
AcDbEntity
  8
0
  6
Continuous
 62
     7
370
    25
100
AcDbSpline
210
0.0
220
0.0
230
1.0
 70
     8
 71
     3
 72
    37
 73
    33
 74
     0
 42
0.000000001
 43
0.00000001
 40
0.0
 40
0.0
 40
0.0
 40
0.0
 40
0.0042718954026431
 40
0.0400066120122281
 40
0.0755242942752683
 40
0.1108831711870248
 40
0.1461455283654176
 40
0.1813602160174669
 40
0.216559683694295
 40
0.2517590445804386
 40
0.286969402472638
 40
0.3221960834927109
 40
0.3574401385724443
 40
0.3927001611492959
 40
0.4279734042997908
 40
0.4632564289635109
 40
0.4985454578322536
 40
0.5338365534484741
 40
0.5691250381338998
 40
0.6044061735504904
 40
0.6396759001456447
 40
0.6749302429279624
 40
0.710165499106174
 40
0.7453786115326001
 40
0.7805678522950901
 40
0.8157339992752914
 40
0.8508822460239749
 40
0.8860239459347964
 40
0.9211748160832606
 40
0.9563685769116078
 40
0.9916560955570918
 40
1.0
 40
1.0
 40
1.0
 40
1.0
 10
-5.256371879125441
 20
1.442151246094712
 30
0.0
 10
-5.254565487588564
 20
1.4424086611533
 30
0.0
 10
-5.237648499098312
 20
1.444819371951301
 30
0.0
 10
-5.203021976701937
 20
1.443242874604911
 30
0.0
 10
-5.152882285343573
 20
1.436936570000408
 30
0.0
 10
-5.100806771376051
 20
1.423570341499486
 30
0.0
 10
-5.04757966846198
 20
1.404073309427949
 30
0.0
 10
-4.993536223609402
 20
1.378378295052656
 30
0.0
 10
-4.939155784154713
 20
1.346741051156247
 30
0.0
 10
-4.884898590354902
 20
1.309396239895271
 30
0.0
 10
-4.831239785788947
 20
1.266651603052387
 30
0.0
 10
-4.778648984455507
 20
1.218859160580817
 30
0.0
 10
-4.727589527532262
 20
1.166420571849032
 30
0.0
 10
-4.678512116786552
 20
1.109781616087164
 30
0.0
 10
-4.631849786234957
 20
1.049427951118232
 30
0.0
 10
-4.588013359278512
 20
0.9858800302944805
 30
0.0
 10
-4.547387537494828
 20
0.9196880853669076
 30
0.0
 10
-4.510327609924664
 20
0.8514274384672874
 30
0.0
 10
-4.477156117977361
 20
0.7816934172336634
 30
0.0
 10
-4.448159531991404
 20
0.7110956668301993
 30
0.0
 10
-4.423585337839734
 20
0.640252298983941
 30
0.0
 10
-4.403639620721654
 20
0.5697844159173957
 30
0.0
 10
-4.388484828559695
 20
0.5003108257787201
 30
0.0
 10
-4.378237862280016
 20
0.4324424370066728
 30
0.0
 10
-4.372967315004926
 20
0.3667745388662967
 30
0.0
 10
-4.372695723072622
 20
0.30388449487533
 30
0.0
 10
-4.377386386442249
 20
0.2443064385150414
 30
0.0
 10
-4.386992799710246
 20
0.1885926545659755
 30
0.0
 10
-4.401281318876249
 20
0.1370514480351658
 30
0.0
 10
-4.420516197847934
 20
0.0906702051118195
 30
0.0
 10
-4.437208124265818
 20
0.058632303819507
 30
0.0
 10
-4.448682305572994
 20
0.043926156172474
 30
0.0
 10
-4.450876583586655
 20
0.0411138094277546
 30
0.0
  0
SPLINE
  5
237
330
22C
100
AcDbEntity
  8
0
  6
Continuous
 62
     7
370
    25
100
AcDbSpline
210
0.0
220
0.0
230
1.0
 70
     8
 71
     3
 72
    12
 73
     8
 74
     0
 42
0.000000001
 43
0.00000001
 40
0.0
 40
0.0
 40
0.0
 40
0.0
 40
0.1177384581326888
 40
0.3482787014774847
 40
0.5806982700608612
 40
0.8144120357834786
 40
1.0
 40
1.0
 40
1.0
 40
1.0
 10
-6.517300700441792
 20
2.919540382896731
 30
0.0
 10
-6.521106109741845
 20
2.913477006940448
 30
0.0
 10
-6.532362780082471
 20
2.895541111243191
 30
0.0
 10
-6.5458665940057
 20
2.860369006071083
 30
0.0
 10
-6.557834796116863
 20
2.814807130651782
 30
0.0
 10
-6.56428922034842
 20
2.768574878173673
 30
0.0
 10
-6.565017829243329
 20
2.736790636568218
 30
0.0
 10
-6.565340320260804
 20
2.722722550813891
 30
0.0
  0
SPLINE
  5
23A
330
22C
100
AcDbEntity
  8
0
  6
Continuous
 62
     7
370
    25
100
AcDbSpline
210
0.0
220
0.0
230
1.0
 70
     8
 71
     3
 72
    41
 73
    37
 74
     0
 42
0.000000001
 43
0.00000001
 40
0.0
 40
0.0
 40
0.0
 40
0.0
 40
0.0152076692596442
 40
0.0440127402488915
 40
0.0728680405228084
 40
0.1019270771286986
 40
0.1312779915531956
 40
0.1609304618988384
 40
0.1908329603315735
 40
0.2209062922938931
 40
0.2510738720212877
 40
0.281277674014035
 40
0.3114732556885301
 40
0.3416454037780337
 40
0.3717892356445723
 40
0.4019058121604987
 40
0.4319994779736402
 40
0.4620762862561054
 40
0.492143135342
 40
0.5222073330603055
 40
0.5522756882776729
 40
0.5823540298110153
 40
0.6124500494974703
 40
0.6425713545831772
 40
0.6727251457069977
 40
0.7029175465612544
 40
0.7331523213213059
 40
0.7634285974631948
 40
0.7937371266615597
 40
0.8240470168622727
 40
0.8543029490108526
 40
0.8844282840248029
 40
0.9143299525152593
 40
0.9439258018057872
 40
0.9731852754493898
 40
1.0
 40
1.0
 40
1.0
 40
1.0
 10
-2.159033711488286
 20
-1.891325660542519
 30
0.0
 10
-2.166173598551629
 20
-1.895365454018875
 30
0.0
 10
-2.186837251170589
 20
-1.907057079993789
 30
0.0
 10
-2.2168905491473
 20
-1.933097439564139
 30
0.0
 10
-2.249002115973623
 20
-1.968544299315483
 30
0.0
 10
-2.276470183874355
 20
-2.009725499874344
 30
0.0
 10
-2.299336703463033
 20
-2.05599596227685
 30
0.0
 10
-2.317329702416711
 20
-2.107153596094997
 30
0.0
 10
-2.330271627037264
 20
-2.162759191447285
 30
0.0
 10
-2.338012684901429
 20
-2.222314841908162
 30
0.0
 10
-2.340478515337792
 20
-2.2852477236533
 30
0.0
 10
-2.337663668753837
 20
-2.350951803172352
 30
0.0
 10
-2.329625244615722
 20
-2.418814735750705
 30
0.0
 10
-2.316469976322173
 20
-2.488228078026834
 30
0.0
 10
-2.29834343932415
 20
-2.558594186286435
 30
0.0
 10
-2.275426821380819
 20
-2.629315789538465
 30
0.0
 10
-2.247935103001169
 20
-2.699796455187758
 30
0.0
 10
-2.216115740475424
 20
-2.769442813181096
 30
0.0
 10
-2.180247237918691
 20
-2.837667942980054
 30
0.0
 10
-2.140637608436693
 20
-2.903894955433119
 30
0.0
 10
-2.097622676541674
 20
-2.967560731912065
 30
0.0
 10
-2.051562572122992
 20
-3.028121922720253
 30
0.0
 10
-2.002837858358881
 20
-3.085059626643643
 30
0.0
 10
-1.951845072987923
 20
-3.137883417376869
 30
0.0
 10
-1.89899395574683
 20
-3.186132788811921
 30
0.0
 10
-1.844704201906932
 20
-3.229378857831831
 30
0.0
 10
-1.789403241333949
 20
-3.267224980758364
 30
0.0
 10
-1.733526178656719
 20
-3.299306261169997
 30
0.0
 10
-1.677523619483996
 20
-3.325287300628316
 30
0.0
 10
-1.621872800710564
 20
-3.344864362438306
 30
0.0
 10
-1.567082937039191
 20
-3.357784835477472
 30
0.0
 10
-1.513711299635502
 20
-3.363847429830345
 30
0.0
 10
-1.462306846197059
 20
-3.363016224088726
 30
0.0
 10
-1.413560404853704
 20
-3.355139146930319
 30
0.0
 10
-1.368733710987545
 20
-3.341436144038131
 30
0.0
 10
-1.342066022189957
 20
-3.327126330097354
 30
0.0
 10
-1.329313512969369
 20
-3.32028336610412
 30
0.0
  0
SPLINE
  5
241
330
22C
100
AcDbEntity
  8
0
  6
Continuous
 62
     7
370
    25
100
AcDbSpline
210
0.0
220
0.0
230
1.0
 70
     8
 71
     3
 72
    17
 73
    13
 74
     0
 42
0.000000001
 43
0.00000001
 40
0.0
 40
0.0
 40
0.0
 40
0.0
 40
0.0085943873349544
 40
0.1232554975923994
 40
0.2378608960537871
 40
0.3529975680817907
 40
0.4691601031428201
 40
0.5865402968774875
 40
0.705039595498515
 40
0.8243801044744008
 40
0.9442401231525666
 40
1.0
 40
1.0
 40
1.0
 40
1.0
 10
-4.384701890763406
 20
-0.6040452960767526
 30
0.0
 10
-4.385748526559273
 20
-0.6045588747886019
 30
0.0
 10
-4.400758743203006
 20
-0.611924309602596
 30
0.0
 10
-4.426405481124008
 20
-0.6320205516841523
 30
0.0
 10
-4.460812043822536
 20
-0.6643790150487131
 30
0.0
 10
-4.49047589447631
 20
-0.7029771641085579
 30
0.0
 10
-4.515690247385982
 20
-0.7466891787118207
 30
0.0
 10
-4.53611653673827
 20
-0.7954831471297308
 30
0.0
 10
-4.551605511068431
 20
-0.8489262136630953
 30
0.0
 10
-4.56189126788658
 20
-0.9066135685774002
 30
0.0
 10
-4.566229950237894
 20
-0.956884888261636
 30
0.0
 10
-4.566593372166152
 20
-0.9880179388534593
 30
0.0
 10
-4.566708759787257
 20
-0.9979027816936711
 30
0.0
  0
SPLINE
  5
242
330
22C
100
AcDbEntity
  8
0
  6
Continuous
 62
     7
370
    25
100
AcDbSpline
210
0.0
220
0.0
230
1.0
 70
     8
 71
     3
 72
    33
 73
    29
 74
     0
 42
0.000000001
 43
0.00000001
 40
0.0
 40
0.0
 40
0.0
 40
0.0
 40
0.0212675036887773
 40
0.061476894900162
 40
0.1016603901709906
 40
0.141808180217134
 40
0.1819182477189702
 40
0.221994515336828
 40
0.2620440885962076
 40
0.3020756851792834
 40
0.3420988072058579
 40
0.3821233425493205
 40
0.4221567816604712
 40
0.4622085972872841
 40
0.5022890077725252
 40
0.5424079472930722
 40
0.5825744422197537
 40
0.6227953672622285
 40
0.6630731543589193
 40
0.7034018724667023
 40
0.743759731329511
 40
0.7840844097449902
 40
0.8242905681946304
 40
0.8642624392241706
 40
0.9038772161885217
 40
0.9430527569015533
 40
0.9818001028709531
 40
1.0
 40
1.0
 40
1.0
 40
1.0
 10
-4.566708759787257
 20
-0.9979027816936711
 30
0.0
 10
-4.566560060565103
 20
-1.009312874609317
 30
0.0
 10
-4.566130223260936
 20
-1.042295451842696
 30
0.0
 10
-4.561383446916938
 20
-1.098753977272071
 30
0.0
 10
-4.550845217905573
 20
-1.167431968396984
 30
0.0
 10
-4.53518616886138
 20
-1.23740129398161
 30
0.0
 10
-4.514660724442263
 20
-1.308016318152709
 30
0.0
 10
-4.489442647250362
 20
-1.378693321686639
 30
0.0
 10
-4.45976972628884
 20
-1.448833466593295
 30
0.0
 10
-4.425903287004649
 20
-1.517847060592495
 30
0.0
 10
-4.388137060335668
 20
-1.585151625729561
 30
0.0
 10
-4.346793168649278
 20
-1.650176320632473
 30
0.0
 10
-4.302219946771813
 20
-1.712367258366932
 30
0.0
 10
-4.25478831656603
 20
-1.771192533742179
 30
0.0
 10
-4.204887076298121
 20
-1.826147243998446
 30
0.0
 10
-4.152919760664065
 20
-1.876755535350543
 30
0.0
 10
-4.099301409807636
 20
-1.922572462403299
 30
0.0
 10
-4.044455745044536
 20
-1.96318512509796
 30
0.0
 10
-3.988813800219671
 20
-1.998212799489115
 30
0.0
 10
-3.932816109610724
 20
-2.027305736514376
 30
0.0
 10
-3.876925761585135
 20
-2.050143437487101
 30
0.0
 10
-3.821636731440532
 20
-2.066441663038229
 30
0.0
 10
-3.767475223334048
 20
-2.075983760644521
 30
0.0
 10
-3.715025536970709
 20
-2.078594955280213
 30
0.0
 10
-3.664801113364788
 20
-2.074370015810028
 30
0.0
 10
-3.617629976946773
 20
-2.062966398457998
 30
0.0
 10
-3.580795372915016
 20
-2.049167338217676
 30
0.0
 10
-3.561233511426215
 20
-2.036917844731687
 30
0.0
 10
-3.554981692244496
 20
-2.033003001638362
 30
0.0
  0
SPLINE
  5
245
330
22C
100
AcDbEntity
  8
0
  6
Continuous
 62
     7
370
    25
100
AcDbSpline
210
0.0
220
0.0
230
1.0
 70
     8
 71
     3
 72
    12
 73
     8
 74
     0
 42
0.000000001
 43
0.00000001
 40
0.0
 40
0.0
 40
0.0
 40
0.0
 40
0.1309442779857219
 40
0.4056941401822686
 40
0.6481089627176778
 40
0.8804887737055492
 40
1.0
 40
1.0
 40
1.0
 40
1.0
 10
-3.526911684013965
 20
-0.1718002467507618
 30
0.0
 10
-3.531126448047047
 20
-0.1739282484481438
 30
0.0
 10
-3.544184712957704
 20
-0.1805212652046277
 30
0.0
 10
-3.559910872166379
 20
-0.1949740745543777
 30
0.0
 10
-3.572931951583961
 20
-0.2139817971966075
 30
0.0
 10
-3.579290963347858
 20
-0.2310450912535354
 30
0.0
 10
-3.578576441088759
 20
-0.2414316682458289
 30
0.0
 10
-3.578333770993895
 20
-0.2449592163270108
 30
0.0
  0
SPLINE
  5
246
330
22C
100
AcDbEntity
  8
0
  6
Continuous
 62
     7
370
    25
100
AcDbSpline
210
0.0
220
0.0
230
1.0
 70
     8
 71
     3
 72
    19
 73
    15
 74
     0
 42
0.000000001
 43
0.00000001
 40
0.0
 40
0.0
 40
0.0
 40
0.0
 40
0.017712888147904
 40
0.1049196300015716
 40
0.1911252646243838
 40
0.2801656910601311
 40
0.373502562139502
 40
0.4693592651197676
 40
0.5654738854667035
 40
0.6612945478349506
 40
0.7570190347545045
 40
0.8529789150466093
 40
0.9494966339233507
 40
1.0
 40
1.0
 40
1.0
 40
1.0
 10
-3.276844737367716
 20
-0.2475482543161056
 30
0.0
 10
-3.276570001275535
 20
-0.2461127312973821
 30
0.0
 10
-3.274942643337126
 20
-0.2376096265114462
 30
0.0
 10
-3.279270907006992
 20
-0.2217796486263388
 30
0.0
 10
-3.289419263622293
 20
-0.202183879397525
 30
0.0
 10
-3.306164746619118
 20
-0.184816045922967
 30
0.0
 10
-3.328428969793733
 20
-0.170038815876063
 30
0.0
 10
-3.355757587642958
 20
-0.1585152466329964
 30
0.0
 10
-3.386677774542463
 20
-0.1509207980064096
 30
0.0
 10
-3.419520350559228
 20
-0.147640880350376
 30
0.0
 10
-3.452797187451135
 20
-0.1487282585242449
 30
0.0
 10
-3.484722967853549
 20
-0.1543947458315336
 30
0.0
 10
-3.510098865747036
 20
-0.1621029417309313
 30
0.0
 10
-3.522612955875311
 20
-0.1693208243662447
 30
0.0
 10
-3.526911684013965
 20
-0.1718002467507618
 30
0.0
  0
SPLINE
  5
24C
330
22C
100
AcDbEntity
  8
0
  6
Continuous
 62
     7
370
    25
100
AcDbSpline
210
0.0
220
0.0
230
1.0
 70
     8
 71
     3
 72
    41
 73
    37
 74
     0
 42
0.000000001
 43
0.00000001
 40
0.0
 40
0.0
 40
0.0
 40
0.0
 40
0.0152076692596627
 40
0.0440127402489028
 40
0.0728680405228159
 40
0.1019270771287069
 40
0.1312779915532062
 40
0.1609304618988503
 40
0.1908329603315856
 40
0.2209062922939086
 40
0.2510738720212985
 40
0.2812776740140455
 40
0.3114732556885372
 40
0.3416454037780419
 40
0.3717892356445797
 40
0.4019058121605022
 40
0.4319994779736487
 40
0.4620762862561147
 40
0.4921431353420067
 40
0.5222073330603136
 40
0.5522756882776788
 40
0.5823540298110226
 40
0.6124500494974743
 40
0.6425713545831823
 40
0.6727251457070009
 40
0.7029175465612586
 40
0.7331523213213103
 40
0.7634285974632019
 40
0.7937371266615647
 40
0.8240470168622757
 40
0.8543029490108555
 40
0.8844282840248054
 40
0.9143299525152643
 40
0.9439258018057922
 40
0.9731852754493949
 40
1.0
 40
1.0
 40
1.0
 40
1.0
 10
-6.613249655969397
 20
0.6800384711823348
 30
0.0
 10
-6.620389543032748
 20
0.6759986777059733
 30
0.0
 10
-6.641053195651713
 20
0.6643070517310525
 30
0.0
 10
-6.671106493628423
 20
0.6382666921607012
 30
0.0
 10
-6.703218060454745
 20
0.602819832409357
 30
0.0
 10
-6.730686128355472
 20
0.5616386318504962
 30
0.0
 10
-6.753552647944153
 20
0.5153681694479855
 30
0.0
 10
-6.771545646897825
 20
0.4642105356298378
 30
0.0
 10
-6.784487571518383
 20
0.4086049402775436
 30
0.0
 10
-6.792228629382544
 20
0.3490492898166661
 30
0.0
 10
-6.794694459818899
 20
0.2861164080715282
 30
0.0
 10
-6.791879613234953
 20
0.2204123285524847
 30
0.0
 10
-6.783841189096831
 20
0.1525493959741314
 30
0.0
 10
-6.770685920803282
 20
0.083136053698005
 30
0.0
 10
-6.752559383805258
 20
0.0127699454384062
 30
0.0
 10
-6.729642765861931
 20
-0.0579516578136238
 30
0.0
 10
-6.702151047482276
 20
-0.1284323234629189
 30
0.0
 10
-6.670331684956532
 20
-0.1980786814562584
 30
0.0
 10
-6.634463182399795
 20
-0.2663038112552155
 30
0.0
 10
-6.594853552917799
 20
-0.3325308237082777
 30
0.0
 10
-6.551838621022779
 20
-0.3961966001872256
 30
0.0
 10
-6.505778516604099
 20
-0.4567577909954068
 30
0.0
 10
-6.457053802839988
 20
-0.513695494918797
 30
0.0
 10
-6.406061017469033
 20
-0.5665192856520213
 30
0.0
 10
-6.353209900227939
 20
-0.614768657087072
 30
0.0
 10
-6.298920146388042
 20
-0.6580147261069802
 30
0.0
 10
-6.243619185815059
 20
-0.6958608490335177
 30
0.0
 10
-6.187742123137826
 20
-0.7279421294451465
 30
0.0
 10
-6.131739563965106
 20
-0.7539231689034693
 30
0.0
 10
-6.076088745191672
 20
-0.773500230713454
 30
0.0
 10
-6.021298881520305
 20
-0.786420703752621
 30
0.0
 10
-5.967927244116614
 20
-0.7924832981054971
 30
0.0
 10
-5.916522790678171
 20
-0.7916520923638753
 30
0.0
 10
-5.867776349334813
 20
-0.783775015205466
 30
0.0
 10
-5.822949655468656
 20
-0.7700720123132825
 30
0.0
 10
-5.796281966671072
 20
-0.7557621983725038
 30
0.0
 10
-5.783529457450487
 20
-0.7489192343792701
 30
0.0
  0
LWPOLYLINE
  5
25A
330
22C
100
AcDbEntity
  8
0
  6
Continuous
 62
     7
370
    25
100
AcDbPolyline
 90
       14
 70
   128
 43
0.0
 10
-6.1559113857
 20
2.9477926663
 10
-6.2045676223
 20
2.9724826611
 10
-6.2525143413
 20
2.990015315
 10
-6.2990523717
 20
3.0001349622
 10
-6.3435030842
 20
3.0026940357
 10
-6.3852182874
 20
2.9976552182
 10
-6.4235896795
 20
2.9850919872
 10
-6.4580577194
 20
2.9651875429
 10
-6.4881197853
 20
2.9382321368
 10
-6.5133375047
 20
2.9046188394
 10
-6.5333431465
 20
2.8648378084
 10
-6.5478449833
 20
2.8194691408
 10
-6.5566315456
 20
2.7691744138
 10
-6.5595747057
 20
2.7146870379
  0
LWPOLYLINE
  5
25D
330
22C
100
AcDbEntity
  8
0
  6
Continuous
 62
     7
370
    25
100
AcDbPolyline
 90
       14
 70
   128
 43
0.0
 10
0.6646067792
 20
-4.1721889902
 10
0.7132630158
 20
-4.196878985
 10
0.7612097348
 20
-4.2144116388
 10
0.8077477652
 20
-4.2245312861
 10
0.8521984777
 20
-4.2270903595
 10
0.8939136809
 20
-4.2220515421
 10
0.932285073
 20
-4.2094883111
 10
0.9667531129
 20
-4.1895838667
 10
0.9968151788
 20
-4.1626284606
 10
1.0220328982
 20
-4.1290151633
 10
1.04203854
 20
-4.0892341323
 10
1.0565403768
 20
-4.0438654646
 10
1.0653269391
 20
-3.9935707377
 10
1.0682700992
 20
-3.9390833618
  0
LWPOLYLINE
  5
25E
330
22C
100
AcDbEntity
  8
0
  6
Continuous
 62
     7
370
    25
100
AcDbPolyline
 90
       11
 70
   128
 43
0.0
 10
-0.518544331
 20
-1.2147506116
 10
-0.5765288752
 20
-1.1845663025
 10
-0.6339549966
 20
-1.1612515965
 10
-0.6902696501
 20
-1.1450310269
 10
-0.744930495
 20
-1.1360608067
 10
-0.7974111173
 20
-1.1344273239
 10
-0.8472061
 20
-1.1401463099
 10
-0.8938358903
 20
-1.1531626878
 10
-0.9368514176
 20
-1.1733511027
 10
-0.9758384191
 20
-1.2005171292
 10
-0.9958781397
 20
-1.2187913558
  0
LWPOLYLINE
  5
25F
330
22C
100
AcDbEntity
  8
0
  6
Continuous
 62
     7
370
    25
100
AcDbPolyline
 90
       27
 70
   128
 43
0.0
 10
-0.1691736757
 20
-2.6508406558
 10
-0.1432527718
 20
-2.6425977678
 10
-0.1002372444
 20
-2.6224093529
 10
-0.0612502429
 20
-2.5952433264
 10
-0.0266672335
 20
-2.5613613121
 10
0.0031787305
 20
-2.5210896123
 10
0.0280002163
 20
-2.4748160654
 10
0.0475581793
 20
-2.422986311
 10
0.0616642657
 20
-2.3660994979
 10
0.0701826261
 20
-2.3047034774
 10
0.0730312241
 20
-2.2393895265
 10
0.0701826261
 20
-2.1707866545
 10
0.0616642657
 20
-2.0995555443
 10
0.0475581793
 20
-2.0263821906
 10
0.0280002163
 20
-1.9519712928
 10
0.0031787305
 20
-1.8770394684
 10
-0.0266672335
 20
-1.8023083519
 10
-0.0612502429
 20
-1.7284976449
 10
-0.1002372444
 20
-1.6563181847
 10
-0.1432527718
 20
-1.586465099
 10
-0.189882562
 20
-1.5196111113
 10
-0.2396775447
 20
-1.456400062
 10
-0.2921581671
 20
-1.3974407079
 10
-0.3468190119
 20
-1.34330086
 10
-0.4031336655
 20
-1.2945019146
 10
-0.4605597868
 20
-1.2515138322
 10
-0.518544331
 20
-1.2147506116
  0
LWPOLYLINE
  5
26E
330
22C
100
AcDbEntity
  8
0
  6
Continuous
 62
     7
370
    25
100
AcDbPolyline
 90
        3
 70
   128
 43
0.0
 10
-2.2865480934
 20
-1.3110343199
 10
-2.3007636199
 20
-1.3167381373
 10
-2.3269461923
 20
-1.325050975
  0
LWPOLYLINE
  5
26F
330
22C
100
AcDbEntity
  8
0
  6
Continuous
 62
     7
370
    25
100
AcDbPolyline
 90
        3
 70
   128
 43
0.0
 10
-3.1535804182
 20
0.1068766558
 10
-3.1333492672
 20
0.1253425012
 10
-3.1212399641
 20
0.1348510735
  0
LWPOLYLINE
  5
272
330
22C
100
AcDbEntity
  8
0
  6
Continuous
 62
     7
370
    25
100
AcDbPolyline
 90
        3
 70
   128
 43
0.0
 10
-4.5136560657
 20
-0.025352254
 10
-4.5278715921
 20
-0.0310560715
 10
-4.5540541646
 20
-0.0393689091
  0
LWPOLYLINE
  5
273
330
22C
100
AcDbEntity
  8
0
  6
Continuous
 62
     7
370
    25
100
AcDbPolyline
 90
        3
 70
   128
 43
0.0
 10
-5.3806883904
 20
1.3925587217
 10
-5.3604572394
 20
1.4110245671
 10
-5.3483479363
 20
1.4205331393
  0
LWPOLYLINE
  5
275
330
22C
100
AcDbEntity
  8
0
  6
Continuous
 62
     7
370
    25
100
AcDbPolyline
 90
        8
 70
   128
 43
0.0
 10
-6.0445559871
 20
3.0281504076
 10
-6.0948900249
 20
3.0536917816
 10
-6.1444900791
 20
3.0718290097
 10
-6.1926328692
 20
3.0822976103
 10
-6.2386163649
 20
3.0849449277
 10
-6.2817700233
 20
3.0797323579
 10
-6.3214645669
 20
3.066735912
 10
-6.3398075814
 20
3.0573874453
  0
LWPOLYLINE
  5
276
330
22C
100
AcDbEntity
  8
0
  6
Continuous
 62
     7
370
    25
100
AcDbPolyline
 90
       63
 70
   128
 43
0.0
 10
-1.2145155723
 20
-2.9424969063
 10
-1.217372215
 20
-2.8758020821
 10
-1.2259128301
 20
-2.8064934275
 10
-1.2400497793
 20
-2.7352821433
 10
-1.2596379983
 20
-2.6628989535
 10
-1.2844764856
 20
-2.5900866076
 10
-1.3143103646
 20
-2.5175922587
 10
-1.3488334994
 20
-2.4461597971
 10
-1.3876916359
 20
-2.3765222165
 10
-1.430486037
 20
-2.3093940926
 10
-1.4767775743
 20
-2.2454642508
 10
-1.5260912339
 20
-2.1853886979
 10
-1.577920991
 20
-2.1297838903
 10
-1.6317350022
 20
-2.0792204085
 10
-1.6869810628
 20
-2.0342171024
 10
-1.7430922735
 20
-1.9952357666
 10
-1.7994928573
 20
-1.9626764026
 10
-1.855604068
 20
-1.9368731134
 10
-1.9108501286
 20
-1.9180906758
 10
-1.9646641398
 20
-1.9065218228
 10
-2.0164938969
 20
-1.9022852666
 10
-2.0658075565
 20
-1.90542448
 10
-2.1120990938
 20
-1.9159072505
 10
-2.1548934949
 20
-1.9336260106
 10
-2.1937516314
 20
-1.9583989418
 10
-2.2282747662
 20
-1.9899718404
 10
-2.2581086452
 20
-2.0280207257
 10
-2.2829471325
 20
-2.0721551646
 10
-2.3025353515
 20
-2.1219222782
 10
-2.3166723007
 20
-2.1768113883
 10
-2.3252129158
 20
-2.2362592586
 10
-2.3280695585
 20
-2.2996558734
 10
-2.3252129158
 20
-2.3663506976
 10
-2.3166723007
 20
-2.4356593521
 10
-2.3025353515
 20
-2.5068706364
 10
-2.2829471325
 20
-2.5792538262
 10
-2.2581086452
 20
-2.6520661721
 10
-2.2282747662
 20
-2.724560521
 10
-2.1937516314
 20
-2.7959929826
 10
-2.1548934949
 20
-2.8656305632
 10
-2.1120990938
 20
-2.9327586871
 10
-2.0658075565
 20
-2.9966885289
 10
-2.0164938969
 20
-3.0567640818
 10
-1.9646641398
 20
-3.1123688894
 10
-1.9108501286
 20
-3.1629323712
 10
-1.855604068
 20
-3.2079356773
 10
-1.7994928573
 20
-3.246917013
 10
-1.7430922735
 20
-3.2794763771
 10
-1.6869810628
 20
-3.3052796662
 10
-1.6317350022
 20
-3.3240621039
 10
-1.577920991
 20
-3.3356309569
 10
-1.5260912339
 20
-3.3398675131
 10
-1.4767775743
 20
-3.3367282997
 10
-1.430486037
 20
-3.3262455292
 10
-1.3876916359
 20
-3.3085267691
 10
-1.3488334994
 20
-3.2837538379
 10
-1.3143103646
 20
-3.2521809393
 10
-1.2844764856
 20
-3.214132054
 10
-1.2596379983
 20
-3.1699976151
 10
-1.2400497793
 20
-3.1202305015
 10
-1.2259128301
 20
-3.0653413914
 10
-1.217372215
 20
-3.0058935211
 10
-1.2145155723
 20
-2.9424969063
  0
LWPOLYLINE
  5
278
330
22C
100
AcDbEntity
  8
0
  6
Continuous
 62
     7
370
    25
100
AcDbPolyline
 90
       25
 70
   128
 43
0.0
 10
0.0660715117
 20
-2.2353717701
 10
0.0631664243
 20
-2.1664771627
 10
0.054480034
 20
-2.0949131184
 10
0.0400986701
 20
-2.0213908726
 10
0.0201652611
 20
-1.9466411226
 10
-0.0051220858
 20
-1.8714067649
 10
-0.0355120537
 20
-1.7964355123
 10
-0.0707026133
 20
-1.7224724629
 10
-0.1103440252
 20
-1.6502526947
 10
-0.1540423151
 20
-1.5804939602
 10
-0.2013631898
 20
-1.5138895529
 10
-0.2518363531
 20
-1.4511014176
 10
-0.3049601802
 20
-1.3927535707
 10
-0.3602067025
 20
-1.3394258996
 10
-0.4170268553
 20
-1.2916483984
 10
-0.4748559344
 20
-1.2498959015
 10
-0.5331192084
 20
-1.214583364
 10
-0.5912376307
 20
-1.1860617376
 10
-0.6486335943
 20
-1.1646144833
 10
-0.7047366724
 20
-1.1504547533
 10
-0.7589892874
 20
-1.1437232735
 10
-0.8108522524
 20
-1.1444869443
 10
-0.8598101299
 20
-1.1527381761
 10
-0.9053763546
 20
-1.1683949643
 10
-0.931896563
 20
-1.1818555778
  0
LWPOLYLINE
  5
279
330
22C
100
AcDbEntity
  8
0
  6
Continuous
 62
     7
370
    25
100
AcDbPolyline
 90
        9
 70
   128
 43
0.0
 10
-0.105192099
 20
-2.6139048778
 10
-0.0707026133
 20
-2.5903550338
 10
-0.0355120537
 20
-2.5570221398
 10
-0.0051220858
 20
-2.5171383973
 10
0.0201652611
 20
-2.4711001889
 10
0.0400986701
 20
-2.419365063
 10
0.054480034
 20
-2.3624471865
 10
0.0631664243
 20
-2.3009122349
 10
0.0660715117
 20
-2.2353717701
  0
SPLINE
  5
27A
330
22C
100
AcDbEntity
  8
0
  6
Continuous
 62
     7
370
    25
100
AcDbSpline
210
0.0
220
0.0
230
1.0
 70
     8
 71
     3
 72
    18
 73
    14
 74
     0
 42
0.000000001
 43
0.00000001
 40
0.0
 40
0.0
 40
0.0
 40
0.0
 40
0.050127425125731
 40
0.1546503485035902
 40
0.2580816207392913
 40
0.3598569896707376
 40
0.4615578512724003
 40
0.5648270157662422
 40
0.6693111488117143
 40
0.773435225084648
 40
0.8768141731170622
 40
0.9805228675695656
 40
1.0
 40
1.0
 40
1.0
 40
1.0
 10
-1.331913869154244
 20
-1.769266708618083
 30
0.0
 10
-1.33109538688388
 20
-1.773959475327877
 30
0.0
 10
-1.328570250832342
 20
-1.788437338599234
 30
0.0
 10
-1.340935265207949
 20
-1.812148554550104
 30
0.0
 10
-1.366832513775747
 20
-1.834964960106438
 30
0.0
 10
-1.404156711320163
 20
-1.849222318465217
 30
0.0
 10
-1.447727338034264
 20
-1.853945216968408
 30
0.0
 10
-1.493549787905488
 20
-1.849515134839641
 30
0.0
 10
-1.536456756338221
 20
-1.837218648060088
 30
0.0
 10
-1.571728563269485
 20
-1.819149016862407
 30
0.0
 10
-1.593582911594441
 20
-1.797655350521961
 30
0.0
 10
-1.602693678771816
 20
-1.78070648242851
 30
0.0
 10
-1.599544808166998
 20
-1.771627592126668
 30
0.0
 10
-1.599046934577735
 20
-1.77019211246797
 30
0.0
  0
LWPOLYLINE
  5
27B
330
22C
100
AcDbEntity
  8
0
  6
Continuous
 62
     7
370
    25
100
AcDbPolyline
 90
       13
 70
   128
 43
0.0
 10
-1.5634904161
 20
-1.3673613578
 10
-1.5632396399
 20
-1.3714148257
 10
-1.5572846803
 20
-1.3872177925
 10
-1.5438586484
 20
-1.4014121091
 10
-1.5240492415
 20
-1.4128478363
 10
-1.4994612999
 20
-1.4205985196
 10
-1.4720867924
 20
-1.4240362446
 10
-1.4441434387
 20
-1.4228825073
 10
-1.4178950434
 20
-1.4172307767
 10
-1.3954680951
 20
-1.4075389224
 10
-1.3786794919
 20
-1.3945921207
 10
-1.3688893466
 20
-1.3794392446
 10
-1.3666400224
 20
-1.3673613578
  0
LWPOLYLINE
  5
27C
330
22C
100
AcDbEntity
  8
0
  6
Continuous
 62
     7
370
    25
100
AcDbPolyline
 90
       63
 70
   128
 43
0.0
 10
-4.5551775307
 20
-1.0139738075
 10
-4.552320888
 20
-1.0806686317
 10
-4.5437802729
 20
-1.1499772863
 10
-4.5296433238
 20
-1.2211885705
 10
-4.5100551047
 20
-1.2935717604
 10
-4.4852166175
 20
-1.3663841063
 10
-4.4553827384
 20
-1.4388784551
 10
-4.4208596037
 20
-1.5103109167
 10
-4.3820014672
 20
-1.5799484974
 10
-4.339207066
 20
-1.6470766213
 10
-4.2929155287
 20
-1.711006463
 10
-4.2436018691
 20
-1.7710820159
 10
-4.191772112
 20
-1.8266868236
 10
-4.1379581009
 20
-1.8772503053
 10
-4.0827120403
 20
-1.9222536115
 10
-4.0266008296
 20
-1.9612349472
 10
-3.9702002457
 20
-1.9937943112
 10
-3.914089035
 20
-2.0195976004
 10
-3.8588429744
 20
-2.0383800381
 10
-3.8050289633
 20
-2.0499488911
 10
-3.7531992062
 20
-2.0541854472
 10
-3.7038855465
 20
-2.0510462338
 10
-3.6575940092
 20
-2.0405634633
 10
-3.6147996081
 20
-2.0228447033
 10
-3.5759414716
 20
-1.998071772
 10
-3.5414183368
 20
-1.9664988734
 10
-3.5115844578
 20
-1.9284499881
 10
-3.4867459705
 20
-1.8843155492
 10
-3.4671577515
 20
-1.8345484357
 10
-3.4530208023
 20
-1.7796593255
 10
-3.4444801873
 20
-1.7202114552
 10
-3.4416235446
 20
-1.6568148404
 10
-3.4444801873
 20
-1.5901200162
 10
-3.4530208023
 20
-1.5208113617
 10
-3.4671577515
 20
-1.4496000774
 10
-3.4867459705
 20
-1.3772168876
 10
-3.5115844578
 20
-1.3044045417
 10
-3.5414183368
 20
-1.2319101929
 10
-3.5759414716
 20
-1.1604777313
 10
-3.6147996081
 20
-1.0908401506
 10
-3.6575940092
 20
-1.0237120267
 10
-3.7038855465
 20
-0.959782185
 10
-3.7531992062
 20
-0.899706632
 10
-3.8050289633
 20
-0.8441018244
 10
-3.8588429744
 20
-0.7935383426
 10
-3.914089035
 20
-0.7485350365
 10
-3.9702002457
 20
-0.7095537008
 10
-4.0266008296
 20
-0.6769943368
 10
-4.0827120403
 20
-0.6511910476
 10
-4.1379581009
 20
-0.6324086099
 10
-4.191772112
 20
-0.6208397569
 10
-4.2436018691
 20
-0.6166032007
 10
-4.2929155287
 20
-0.6197424142
 10
-4.339207066
 20
-0.6302251846
 10
-4.3820014672
 20
-0.6479439447
 10
-4.4208596037
 20
-0.6727168759
 10
-4.4553827384
 20
-0.7042897745
 10
-4.4852166175
 20
-0.7423386598
 10
-4.5100551047
 20
-0.7864730988
 10
-4.5296433238
 20
-0.8362402123
 10
-4.5437802729
 20
-0.8911293225
 10
-4.552320888
 20
-0.9505771927
 10
-4.5551775307
 20
-1.0139738075
  0
LWPOLYLINE
  5
27E
330
22C
100
AcDbEntity
  8
0
  6
Continuous
 62
     7
370
    25
100
AcDbPolyline
 90
       34
 70
   128
 43
0.0
 10
-2.3323000713
 20
-1.3282228119
 10
-2.3170985655
 20
-1.3187766849
 10
-2.2796360108
 20
-1.2888476496
 10
-2.2468049354
 20
-1.2521937676
 10
-2.2189316293
 20
-1.2091793218
 10
-2.1962931099
 20
-1.1602318091
 10
-2.1791143689
 20
-1.1058376917
 10
-2.1675661365
 20
-1.0465375629
 10
-2.1617631841
 20
-0.982920774
 10
-2.1617631841
 20
-0.9156195773
 10
-2.1675661365
 20
-0.8453028422
 10
-2.1791143689
 20
-0.772669408
 10
-2.1962931099
 20
-0.6984411385
 10
-2.2189316293
 20
-0.6233557476
 10
-2.2468049354
 20
-0.5481594676
 10
-2.2796360108
 20
-0.4735996329
 10
-2.3170985655
 20
-0.4004172526
 10
-2.3588202797
 20
-0.3293396462
 10
-2.4043865044
 20
-0.2610732147
 10
-2.4533443819
 20
-0.1962964208
 10
-2.5052073469
 20
-0.1356530452
 10
-2.5594599618
 20
-0.079745789
 10
-2.6155630399
 20
-0.0291302838
 10
-2.6729590036
 20
0.0156904309
 10
-2.7310774259
 20
0.0542709067
 10
-2.7893406999
 20
0.0862277135
 10
-2.847169779
 20
0.1112432501
 10
-2.9039899318
 20
0.1290689009
 10
-2.9592364541
 20
0.1395275067
 10
-3.0123602812
 20
0.142515125
 10
-3.0628334445
 20
0.1380020636
 10
-3.1101543192
 20
0.1260331754
 10
-3.1538526091
 20
0.1067274124
 10
-3.1590045352
 20
0.1038264881
  0
SPLINE
  5
27F
330
22C
100
AcDbEntity
  8
0
  6
Continuous
 62
     7
370
    25
100
AcDbSpline
210
0.0
220
0.0
230
1.0
 70
     8
 71
     3
 72
    10
 73
     6
 74
     0
 42
0.000000001
 43
0.00000001
 40
0.0
 40
0.0
 40
0.0
 40
0.0
 40
0.424790859263523
 40
0.8494150681401378
 40
0.9999999999999999
 40
0.9999999999999999
 40
0.9999999999999999
 40
0.9999999999999999
 10
-3.534883690917165
 20
-0.3927189467965747
 30
0.0
 10
-3.545445404252964
 20
-0.3854102863703772
 30
0.0
 10
-3.566564687441776
 20
-0.3707958327903368
 30
0.0
 10
-3.579814967744557
 20
-0.3509459569850731
 30
0.0
 10
-3.577848595275534
 20
-0.3395596959802774
 30
0.0
 10
-3.577333815444531
 20
-0.3365788682845444
 30
0.0
  0
SPLINE
  5
280
330
22C
100
AcDbEntity
  8
0
  6
Continuous
 62
     7
370
    25
100
AcDbSpline
210
0.0
220
0.0
230
1.0
 70
     8
 71
     3
 72
    15
 73
    11
 74
     0
 42
0.000000001
 43
0.00000001
 40
0.0
 40
0.0
 40
0.0
 40
0.0
 40
0.0394892453308304
 40
0.1834038218523945
 40
0.3266138976791414
 40
0.4676585124448053
 40
0.6084831740266037
 40
0.7513395845120132
 40
0.8953455035050143
 40
1.0
 40
1.0
 40
1.0
 40
1.0
 10
-3.277821937661393
 20
-0.3366447617483727
 30
0.0
 10
-3.27732730505054
 20
-0.3396797221748802
 30
0.0
 10
-3.275030033717967
 20
-0.353775290138483
 30
0.0
 10
-3.288161050550487
 20
-0.3785549131507018
 30
0.0
 10
-3.316424475886114
 20
-0.4046866878431798
 30
0.0
 10
-3.358115969255755
 20
-0.421063077389994
 30
0.0
 10
-3.406980979838825
 20
-0.4265219034788223
 30
0.0
 10
-3.458309140309991
 20
-0.4214906342985505
 30
0.0
 10
-3.502983334669032
 20
-0.4090944742719537
 30
0.0
 10
-3.525434568879203
 20
-0.3975694994470628
 30
0.0
 10
-3.534883690917165
 20
-0.3927189467965747
 30
0.0
  0
LWPOLYLINE
  5
281
330
22C
100
AcDbEntity
  8
0
  6
Continuous
 62
     7
370
    25
100
AcDbPolyline
 90
       27
 70
   128
 43
0.0
 10
-3.5272560621
 20
-0.2871910589
 10
-3.5005389244
 20
-0.2992745802
 10
-3.4695888925
 20
-0.307315897
 10
-3.43620467
 20
-0.3108476773
 10
-3.4023264263
 20
-0.3096646669
 10
-3.3699230419
 20
-0.303835618
 10
-3.3408776838
 20
-0.2936992937
 10
-3.3168783625
 20
-0.2798447805
 10
-3.2993198314
 20
-0.2630772521
 10
-3.2892225285
 20
-0.2443711765
 10
-3.2871732723
 20
-0.2248136827
 10
-3.2932911581
 20
-0.2055413812
 10
-3.3072206367
 20
-0.1876743082
 10
-3.3281521774
 20
-0.1722508329
 10
-3.3548693151
 20
-0.1601673116
 10
-3.385819347
 20
-0.1521259948
 10
-3.4192035695
 20
-0.1485942145
 10
-3.4530818132
 20
-0.1497772249
 10
-3.4854851976
 20
-0.1556062738
 10
-3.5145305557
 20
-0.1657425981
 10
-3.538529877
 20
-0.1795971113
 10
-3.5560884081
 20
-0.1963646397
 10
-3.566185711
 20
-0.2150707153
 10
-3.5682349672
 20
-0.2346282091
 10
-3.5621170814
 20
-0.2539005106
 10
-3.5481876028
 20
-0.2717675836
 10
-3.5272560621
 20
-0.2871910589
  0
LWPOLYLINE
  5
282
330
22C
100
AcDbEntity
  8
0
  6
Continuous
 62
     7
370
    25
100
AcDbPolyline
 90
        3
 70
   128
 43
0.0
 10
-3.2761293166
 20
-0.244058793
 10
-3.2761934403
 20
-0.2466037719
 10
-3.2762060952
 20
-0.2468435414
  0
LWPOLYLINE
  5
283
330
22C
100
AcDbEntity
  8
0
  6
Continuous
 62
     7
370
    25
100
AcDbPolyline
 90
       10
 70
   128
 43
0.0
 10
-3.6225760673
 20
-2.2757243524
 10
-3.6450030156
 20
-2.2854162068
 10
-3.671251411
 20
-2.2910679374
 10
-3.6991947646
 20
-2.2922216746
 10
-3.7265692721
 20
-2.2887839496
 10
-3.7511572138
 20
-2.2810332664
 10
-3.7709666207
 20
-2.2695975392
 10
-3.7843926526
 20
-2.2554032226
 10
-3.7903476122
 20
-2.2396002558
 10
-3.7904633255
 20
-2.2385224201
  0
LWPOLYLINE
  5
285
330
22C
100
AcDbEntity
  8
0
  6
Continuous
 62
     7
370
    25
100
AcDbPolyline
 90
       63
 70
   128
 43
0.0
 10
-5.6687315168
 20
-0.3711327746
 10
-5.6715881595
 20
-0.3044379504
 10
-5.6801287746
 20
-0.2351292958
 10
-5.6942657237
 20
-0.1639180116
 10
-5.7138539428
 20
-0.0915348217
 10
-5.7386924301
 20
-0.0187224758
 10
-5.7685263091
 20
0.053771873
 10
-5.8030494439
 20
0.1252043346
 10
-5.8419075804
 20
0.1948419152
 10
-5.8847019815
 20
0.2619700392
 10
-5.9309935188
 20
0.3258998809
 10
-5.9803071784
 20
0.3859754338
 10
-6.0321369355
 20
0.4415802415
 10
-6.0859509467
 20
0.4921437232
 10
-6.1411970073
 20
0.5371470294
 10
-6.197308218
 20
0.5761283651
 10
-6.2537088018
 20
0.6086877291
 10
-6.3098200125
 20
0.6344910183
 10
-6.3650660731
 20
0.653273456
 10
-6.4188800842
 20
0.664842309
 10
-6.4707098413
 20
0.6690788651
 10
-6.520023501
 20
0.6659396517
 10
-6.5663150383
 20
0.6554568812
 10
-6.6091094394
 20
0.6377381212
 10
-6.6479675759
 20
0.6129651899
 10
-6.6824907107
 20
0.5813922913
 10
-6.7123245897
 20
0.543343406
 10
-6.737163077
 20
0.4992089671
 10
-6.756751296
 20
0.4494418536
 10
-6.7708882452
 20
0.3945527434
 10
-6.7794288602
 20
0.3351048731
 10
-6.7822855029
 20
0.2717082583
 10
-6.7794288602
 20
0.2050134341
 10
-6.7708882452
 20
0.1357047796
 10
-6.756751296
 20
0.0644934953
 10
-6.737163077
 20
-0.0078896945
 10
-6.7123245897
 20
-0.0807020404
 10
-6.6824907107
 20
-0.1531963892
 10
-6.6479675759
 20
-0.2246288508
 10
-6.6091094394
 20
-0.2942664315
 10
-6.5663150383
 20
-0.3613945554
 10
-6.520023501
 20
-0.4253243972
 10
-6.4707098413
 20
-0.4853999501
 10
-6.4188800842
 20
-0.5410047577
 10
-6.3650660731
 20
-0.5915682395
 10
-6.3098200125
 20
-0.6365715456
 10
-6.2537088018
 20
-0.6755528813
 10
-6.197308218
 20
-0.7081122453
 10
-6.1411970073
 20
-0.7339155345
 10
-6.0859509467
 20
-0.7526979722
 10
-6.0321369355
 20
-0.7642668252
 10
-5.9803071784
 20
-0.7685033814
 10
-5.9309935188
 20
-0.7653641679
 10
-5.8847019815
 20
-0.7548813975
 10
-5.8419075804
 20
-0.7371626374
 10
-5.8030494439
 20
-0.7123897062
 10
-5.7685263091
 20
-0.6808168076
 10
-5.7386924301
 20
-0.6427679223
 10
-5.7138539428
 20
-0.5986334833
 10
-5.6942657237
 20
-0.5488663698
 10
-5.6801287746
 20
-0.4939772596
 10
-5.6715881595
 20
-0.4345293894
 10
-5.6687315168
 20
-0.3711327746
  0
LWPOLYLINE
  5
287
330
22C
100
AcDbEntity
  8
0
  6
Continuous
 62
     7
370
    25
100
AcDbPolyline
 90
       25
 70
   128
 43
0.0
 10
-4.3881444328
 20
0.3359923616
 10
-4.3910495202
 20
0.404886969
 10
-4.3997359105
 20
0.4764510134
 10
-4.4141172744
 20
0.5499732591
 10
-4.4340506834
 20
0.6247230092
 10
-4.4593380303
 20
0.6999573669
 10
-4.4897279982
 20
0.7749286194
 10
-4.5249185578
 20
0.8488916688
 10
-4.5645599697
 20
0.921111437
 10
-4.6082582596
 20
0.9908701716
 10
-4.6555791342
 20
1.0574745788
 10
-4.7060522976
 20
1.1202627142
 10
-4.7591761247
 20
1.178610561
 10
-4.814422647
 20
1.2319382322
 10
-4.8712427998
 20
1.2797157333
 10
-4.9290718789
 20
1.3214682302
 10
-4.9873351529
 20
1.3567807678
 10
-5.0454535752
 20
1.3853023941
 10
-5.1028495388
 20
1.4067496485
 10
-5.1589526169
 20
1.4209093784
 10
-5.2132052319
 20
1.4276408582
 10
-5.2650681969
 20
1.4268771874
 10
-5.3140260744
 20
1.4186259556
 10
-5.3595922991
 20
1.4029691674
 10
-5.3861125075
 20
1.3895085539
  0
LWPOLYLINE
  5
288
330
22C
100
AcDbEntity
  8
0
  6
Continuous
 62
     7
370
    25
100
AcDbPolyline
 90
        9
 70
   128
 43
0.0
 10
-4.5594080435
 20
-0.0425407461
 10
-4.5249185578
 20
-0.0189909021
 10
-4.4897279982
 20
0.014341992
 10
-4.4593380303
 20
0.0542257344
 10
-4.4340506834
 20
0.1002639428
 10
-4.4141172744
 20
0.1519990687
 10
-4.3997359105
 20
0.2089169452
 10
-4.3910495202
 20
0.2704518969
 10
-4.3881444328
 20
0.3359923616
  0
SPLINE
  5
289
330
22C
100
AcDbEntity
  8
0
  6
Continuous
 62
     7
370
    25
100
AcDbSpline
210
0.0
220
0.0
230
1.0
 70
     8
 71
     3
 72
    18
 73
    14
 74
     0
 42
0.000000001
 43
0.00000001
 40
0.0
 40
0.0
 40
0.0
 40
0.0
 40
0.0501274251257296
 40
0.154650348503589
 40
0.2580816207392903
 40
0.3598569896707367
 40
0.4615578512723995
 40
0.5648270157662416
 40
0.6693111488117138
 40
0.7734352250846478
 40
0.8768141731170621
 40
0.9805228675695655
 40
1.0
 40
1.0
 40
1.0
 40
1.0
 10
-5.786129813635355
 20
0.8020974231067678
 30
0.0
 10
-5.785311331364992
 20
0.7974046563969747
 30
0.0
 10
-5.782786195313456
 20
0.7829267931256151
 30
0.0
 10
-5.795151209689063
 20
0.7592155771747469
 30
0.0
 10
-5.821048458256856
 20
0.7363991716184118
 30
0.0
 10
-5.858372655801275
 20
0.7221418132596344
 30
0.0
 10
-5.901943282515377
 20
0.7174189147564413
 30
0.0
 10
-5.947765732386599
 20
0.7218489968852099
 30
0.0
 10
-5.990672700819336
 20
0.7341454836647624
 30
0.0
 10
-6.025944507750596
 20
0.7522151148624447
 30
0.0
 10
-6.047798856075551
 20
0.7737087812028913
 30
0.0
 10
-6.056909623252936
 20
0.7906576492963379
 30
0.0
 10
-6.053760752648111
 20
0.799736539598183
 30
0.0
 10
-6.053262879058848
 20
0.8011720192568813
 30
0.0
  0
LWPOLYLINE
  5
28A
330
22C
100
AcDbEntity
  8
0
  6
Continuous
 62
     7
370
    25
100
AcDbPolyline
 90
       13
 70
   128
 43
0.0
 10
-6.0177063605
 20
1.2040027739
 10
-6.0174555844
 20
1.199949306
 10
-6.0115006248
 20
1.1841463392
 10
-5.9980745929
 20
1.1699520226
 10
-5.978265186
 20
1.1585162954
 10
-5.9536772444
 20
1.1507656122
 10
-5.9263027368
 20
1.1473278872
 10
-5.8983593832
 20
1.1484816244
 10
-5.8721109878
 20
1.154133355
 10
-5.8496840396
 20
1.1638252093
 10
-5.8328954364
 20
1.176772011
 10
-5.8231052911
 20
1.1919248871
 10
-5.8208559668
 20
1.2040027739
  0
LWPOLYLINE
  5
28B
330
22C
100
AcDbEntity
  8
0
  6
Continuous
 62
     8
370
    25
100
AcDbPolyline
 90
       40
 70
   128
 43
0.0
 10
-3.270477684
 20
0.0394744091
 10
-3.2600008736
 20
0.0536567232
 10
-3.2267650995
 20
0.0900723448
 10
-3.1890373049
 20
0.1199310559
 10
-3.1471697439
 20
0.1429540737
 10
-3.1015533228
 20
0.1589264386
 10
-3.0526139498
 20
0.1676990209
 10
-3.0008085586
 20
0.1691899132
 10
-2.9466208421
 20
0.1633851957
 10
-2.8905567366
 20
0.1503390653
 10
-2.8331396974
 20
0.1301733303
 10
-2.774905812
 20
0.1030762727
 10
-2.7163987945
 20
0.0693008904
 10
-2.6581649091
 20
0.0291625351
 10
-2.6007478699
 20
-0.0169640323
 10
-2.5446837644
 20
-0.0686481403
 10
-2.490496048
 20
-0.1254072285
 10
-2.4386906567
 20
-0.1867113524
 10
-2.3897512837
 20
-0.251988132
 10
-2.3441348626
 20
-0.3206280956
 10
-2.3022673017
 20
-0.3919903704
 10
-2.264539507
 20
-0.465408666
 10
-2.2313037329
 20
-0.5401974956
 10
-2.2028702928
 20
-0.6156585759
 10
-2.1795046621
 20
-0.6910873474
 10
-2.1614249994
 20
-0.7657795517
 10
-2.1488001096
 20
-0.839037808
 10
-2.141747868
 20
-0.9101781237
 10
-2.1403341193
 20
-0.9785362807
 10
-2.1445720634
 20
-1.0434740375
 10
-2.1544221318
 20
-1.1043850875
 10
-2.169792357
 20
-1.1607007209
 10
-2.1905392313
 20
-1.2118951336
 10
-2.2164690469
 20
-1.2574903374
 10
-2.2473397039
 20
-1.2970606219
 10
-2.2828629714
 20
-1.3302365302
 10
-2.3227071782
 20
-1.3567083076
 10
-2.3665003096
 20
-1.3762287945
 10
-2.4138334811
 20
-1.3886157332
 10
-2.44377322
 20
-1.3925748909
  0
LWPOLYLINE
  5
28C
330
22C
100
AcDbEntity
  8
0
  6
Continuous
 62
     8
370
    25
100
AcDbPolyline
 90
       40
 70
   128
 43
0.0
 10
-5.4975856562
 20
1.3251564749
 10
-5.4871088458
 20
1.3393387891
 10
-5.4538730717
 20
1.3757544107
 10
-5.4161452771
 20
1.4056131218
 10
-5.3742777162
 20
1.4286361396
 10
-5.328661295
 20
1.4446085045
 10
-5.279721922
 20
1.4533810867
 10
-5.2279165308
 20
1.4548719791
 10
-5.1737288144
 20
1.4490672616
 10
-5.1176647088
 20
1.4360211312
 10
-5.0602476697
 20
1.4158553962
 10
-5.0020137843
 20
1.3887583385
 10
-4.9435067667
 20
1.3549829563
 10
-4.8852728813
 20
1.3148446009
 10
-4.8278558421
 20
1.2687180336
 10
-4.7717917366
 20
1.2170339255
 10
-4.7176040202
 20
1.1602748374
 10
-4.665798629
 20
1.0989707135
 10
-4.6168592559
 20
1.0336939338
 10
-4.5712428348
 20
0.9650539702
 10
-4.5293752739
 20
0.8936916955
 10
-4.4916474792
 20
0.8202733999
 10
-4.4584117051
 20
0.7454845703
 10
-4.4299782651
 20
0.6700234899
 10
-4.4066126344
 20
0.5945947185
 10
-4.3885329717
 20
0.5199025141
 10
-4.3759080819
 20
0.4466442578
 10
-4.3688558402
 20
0.3755039422
 10
-4.3674420916
 20
0.3071457851
 10
-4.3716800357
 20
0.2422080284
 10
-4.381530104
 20
0.1812969783
 10
-4.3969003292
 20
0.124981345
 10
-4.4176472036
 20
0.0737869322
 10
-4.4435770191
 20
0.0281917285
 10
-4.4744476761
 20
-0.011378556
 10
-4.5099709436
 20
-0.0445544643
 10
-4.5498151504
 20
-0.0710262418
 10
-4.5936082819
 20
-0.0905467286
 10
-4.6409414533
 20
-0.1029336673
 10
-4.6708811922
 20
-0.1068928251
  0
LWPOLYLINE
  5
295
330
22C
100
AcDbEntity
  8
0
  6
Continuous
 62
     8
370
    25
100
AcDbPolyline
 90
        9
 70
   128
 43
0.0
 10
-1.158837873
 20
-2.9424969063
 10
-1.1617429605
 20
-3.0080373711
 10
-1.1704293508
 20
-3.0695723227
 10
-1.1848107146
 20
-3.1264901992
 10
-1.2047441236
 20
-3.1782253251
 10
-1.2300314705
 20
-3.2242635335
 10
-1.2604214384
 20
-3.264147276
 10
-1.2956119981
 20
-3.29748017
 10
-1.3292596774
 20
-3.3205420664
  0
LWPOLYLINE
  5
296
330
22C
100
AcDbEntity
  8
0
  6
Continuous
 62
     8
370
    25
100
AcDbPolyline
 90
       25
 70
   128
 43
0.0
 10
-2.1568059477
 20
-1.888980714
 10
-2.1302857393
 20
-1.8755201006
 10
-2.0847195146
 20
-1.8598633123
 10
-2.0357616371
 20
-1.8516120806
 10
-1.9838986721
 20
-1.8508484097
 10
-1.9296460572
 20
-1.8575798895
 10
-1.8735429791
 20
-1.8717396195
 10
-1.8161470154
 20
-1.8931868739
 10
-1.7580285931
 20
-1.9217085002
 10
-1.6997653191
 20
-1.9570210377
 10
-1.64193624
 20
-1.9987735346
 10
-1.5851160872
 20
-2.0465510358
 10
-1.5298695649
 20
-2.099878707
 10
-1.4767457378
 20
-2.1582265538
 10
-1.4262725745
 20
-2.2210146892
 10
-1.3789516998
 20
-2.2876190964
 10
-1.3352534099
 20
-2.3573778309
 10
-1.2956119981
 20
-2.4295975991
 10
-1.2604214384
 20
-2.5035606485
 10
-1.2300314705
 20
-2.5785319011
 10
-1.2047441236
 20
-2.6537662588
 10
-1.1848107146
 20
-2.7285160088
 10
-1.1704293508
 20
-2.8020382546
 10
-1.1617429605
 20
-2.873602299
 10
-1.158837873
 20
-2.9424969063
  0
LWPOLYLINE
  5
297
330
22C
100
AcDbEntity
  8
0
  6
Continuous
 62
     8
370
    25
100
AcDbPolyline
 90
       34
 70
   128
 43
0.0
 10
-4.3847557264
 20
-0.6037865957
 10
-4.3787619938
 20
-0.6003977238
 10
-4.3350637039
 20
-0.5810919609
 10
-4.2877428292
 20
-0.5691230726
 10
-4.2372696659
 20
-0.5646100112
 10
-4.1841458388
 20
-0.5675976295
 10
-4.1288993165
 20
-0.5780562353
 10
-4.0720791637
 20
-0.5958818861
 10
-4.0142500846
 20
-0.6208974228
 10
-3.9559868106
 20
-0.6528542295
 10
-3.8978683883
 20
-0.6914347053
 10
-3.8404724247
 20
-0.73625542
 10
-3.7843693466
 20
-0.7868709253
 10
-3.7301167316
 20
-0.8427781814
 10
-3.6782537666
 20
-0.903421557
 10
-3.6292958891
 20
-0.9681983509
 10
-3.5837296644
 20
-1.0364647824
 10
-3.5420079502
 20
-1.1075423888
 10
-3.5045453955
 20
-1.1807247691
 10
-3.4717143201
 20
-1.2552846038
 10
-3.443841014
 20
-1.3304808838
 10
-3.4212024946
 20
-1.4055662748
 10
-3.4040237536
 20
-1.4797945442
 10
-3.3924755212
 20
-1.5524279784
 10
-3.3866725688
 20
-1.6227447135
 10
-3.3866725688
 20
-1.6900459103
 10
-3.3924755212
 20
-1.7536626991
 10
-3.4040237536
 20
-1.8129628279
 10
-3.4212024946
 20
-1.8673569453
 10
-3.443841014
 20
-1.9163044581
 10
-3.4717143201
 20
-1.9593189038
 10
-3.5045453955
 20
-1.9959727858
 10
-3.5420079502
 20
-2.0259018211
 10
-3.5547291098
 20
-2.0338987895
  0
LWPOLYLINE
  5
299
330
22C
100
AcDbEntity
  8
0
  6
Continuous
 62
     8
370
    25
100
AcDbPolyline
 90
       11
 70
   128
 43
0.0
 10
-3.2762060952
 20
-0.2468435414
 10
-3.2812941028
 20
-0.2667060473
 10
-3.2942877672
 20
-0.2855874033
 10
-3.3144739416
 20
-0.3022299412
 10
-3.3407643843
 20
-0.3157364574
 10
-3.3717417707
 20
-0.3253788122
 10
-3.4057361017
 20
-0.3306371837
 10
-3.4409147343
 20
-0.3312280917
 10
-3.4753811792
 20
-0.3271196803
 10
-3.5072773416
 20
-0.3185334349
 10
-3.5348836909
 20
-0.3059322424
  0
LWPOLYLINE
  5
29A
330
22C
100
AcDbEntity
  8
0
  6
Continuous
 62
     8
370
    25
100
AcDbPolyline
 90
        9
 70
   128
 43
0.0
 10
-5.6130538175
 20
-0.3711327746
 10
-5.615958905
 20
-0.4366732394
 10
-5.6246452952
 20
-0.498208191
 10
-5.6390266591
 20
-0.5551260675
 10
-5.6589600681
 20
-0.6068611934
 10
-5.684247415
 20
-0.6528994018
 10
-5.7146373829
 20
-0.6927831443
 10
-5.7498279426
 20
-0.7261160383
 10
-5.7834756218
 20
-0.7491779347
  0
LWPOLYLINE
  5
29B
330
22C
100
AcDbEntity
  8
0
  6
Continuous
 62
     8
370
    25
100
AcDbPolyline
 90
       25
 70
   128
 43
0.0
 10
-6.6110218922
 20
0.6823834177
 10
-6.5845016838
 20
0.6958440312
 10
-6.5389354591
 20
0.7115008194
 10
-6.4899775816
 20
0.7197520512
 10
-6.4381146166
 20
0.720515722
 10
-6.3838620017
 20
0.7137842422
 10
-6.3277589236
 20
0.6996245122
 10
-6.2703629599
 20
0.6781772579
 10
-6.2122445376
 20
0.6496556315
 10
-6.1539812636
 20
0.614343094
 10
-6.0961521845
 20
0.5725905971
 10
-6.0393320317
 20
0.5248130959
 10
-5.9840855094
 20
0.4714854248
 10
-5.9309616823
 20
0.4131375779
 10
-5.880488519
 20
0.3503494426
 10
-5.8331676443
 20
0.2837450353
 10
-5.7894693544
 20
0.2139863008
 10
-5.7498279426
 20
0.1417665326
 10
-5.7146373829
 20
0.0678034832
 10
-5.684247415
 20
-0.0071677694
 10
-5.6589600681
 20
-0.0824021271
 10
-5.6390266591
 20
-0.1571518771
 10
-5.6246452952
 20
-0.2306741229
 10
-5.615958905
 20
-0.3022381672
 10
-5.6130538175
 20
-0.3711327746
  0
LINE
  5
29C
330
22C
100
AcDbEntity
  8
0
  6
Continuous
 62
     7
370
    25
100
AcDbLine
 10
0.9737777983
 20
-4.209464153
 30
0.0
 11
1.0712137721
 21
-4.1532155626
 31
0.0
  0
LINE
  5
29D
330
22C
100
AcDbEntity
  8
0
  6
Continuous
 62
     7
370
    25
100
AcDbLine
 10
-5.5299356849
 20
-0.6028144277
 30
0.0
 11
-4.5497678179
 21
-1.1686532931
 31
0.0
  0
LINE
  5
29E
330
22C
100
AcDbEntity
  8
0
  6
Continuous
 62
     7
370
    25
100
AcDbLine
 10
-3.3028277127
 20
-1.8884964935
 30
0.0
 11
-2.3220223498
 21
-2.4547033775
 31
0.0
  0
LINE
  5
29F
330
22C
100
AcDbEntity
  8
0
  6
Continuous
 62
     7
370
    25
100
AcDbLine
 10
-1.0757197404
 20
-3.1741785594
 30
0.0
 11
0.6686844843
 21
-4.1812016832
 31
0.0
  0
LINE
  5
2A0
330
22C
100
AcDbEntity
  8
0
  6
Continuous
 62
     7
370
    25
100
AcDbLine
 10
-6.3398075814
 20
3.0573874453
 30
0.0
 11
-6.4372435552
 21
3.0011388549
 31
0.0
  0
LINE
  5
2A1
330
22C
100
AcDbEntity
  8
0
  6
Continuous
 62
     7
370
    25
100
AcDbLine
 10
-6.5653403203
 20
2.7227225508
 30
0.0
 11
-6.5653403203
 21
0.7087548279
 31
0.0
  0
LINE
  5
2A2
330
22C
100
AcDbEntity
  8
0
  6
Continuous
 62
     7
370
    25
100
AcDbLine
 10
-0.931896563
 20
-1.1818555778
 30
0.0
 11
-1.3608607868
 21
-1.4294913531
 31
0.0
  0
LINE
  5
2A3
330
22C
100
AcDbEntity
  8
0
  6
Continuous
 62
     7
370
    25
100
AcDbLine
 10
-1.5808038463
 20
-1.5564617787
 30
0.0
 11
-2.1568059477
 21
-1.888980714
 31
0.0
  0
LINE
  5
2A4
330
22C
100
AcDbEntity
  8
0
  6
Continuous
 62
     7
370
    25
100
AcDbLine
 10
-1.3301014838
 20
-3.321030014
 30
0.0
 11
-0.105192099
 21
-2.6139048778
 31
0.0
  0
LINE
  5
2A5
330
22C
100
AcDbEntity
  8
0
  6
Continuous
 62
     7
370
    25
100
AcDbLine
 10
-1.3300113767
 20
-1.7690870383
 30
0.0
 11
-1.3666536713
 21
-1.3657222706
 31
0.0
  0
LINE
  5
2A6
330
22C
100
AcDbEntity
  8
0
  6
Continuous
 62
     7
370
    25
100
AcDbLine
 10
-1.5634767672
 20
-1.3657222706
 30
0.0
 11
-1.6002033761
 21
-1.7700151854
 31
0.0
  0
LINE
  5
2A7
330
22C
100
AcDbEntity
  8
0
  6
Continuous
 62
     7
370
    25
100
AcDbLine
 10
-3.1590045352
 20
0.1038264881
 30
0.0
 11
-4.38391392
 21
-0.6032986482
 31
0.0
  0
LINE
  5
2A8
330
22C
100
AcDbEntity
  8
0
  6
Continuous
 62
     7
370
    25
100
AcDbLine
 10
-3.557209456
 20
-2.0353479482
 30
0.0
 11
-2.3323000713
 21
-1.3282228119
 31
0.0
  0
LINE
  5
2A9
330
22C
100
AcDbEntity
  8
0
  6
Continuous
 62
     7
370
    25
100
AcDbLine
 10
-3.2761293166
 20
-0.3365723428
 30
0.0
 11
-3.2761293166
 21
-0.244058793
 31
0.0
  0
LINE
  5
2AA
330
22C
100
AcDbEntity
  8
0
  6
Continuous
 62
     7
370
    25
100
AcDbLine
 10
-3.5792789229
 20
-0.244058793
 30
0.0
 11
-3.5792789229
 21
-0.3365228351
 31
0.0
  0
LINE
  5
2AB
330
22C
100
AcDbEntity
  8
0
  6
Continuous
 62
     7
370
    25
100
AcDbLine
 10
-3.8059438875
 20
-2.0681096943
 30
0.0
 11
-3.7904633255
 21
-2.2385224201
 31
0.0
  0
LINE
  5
2AC
330
22C
100
AcDbEntity
  8
0
  6
Continuous
 62
     7
370
    25
100
AcDbLine
 10
-3.5938830574
 20
-2.2385224201
 30
0.0
 11
-3.5763288969
 21
-2.0452831608
 31
0.0
  0
LINE
  5
2AD
330
22C
100
AcDbEntity
  8
0
  6
Continuous
 62
     7
370
    25
100
AcDbLine
 10
-5.3861125075
 20
1.3895085539
 30
0.0
 11
-5.8150767313
 21
1.1418727786
 31
0.0
  0
LINE
  5
2AE
330
22C
100
AcDbEntity
  8
0
  6
Continuous
 62
     7
370
    25
100
AcDbLine
 10
-6.0350197907
 20
1.014902353
 30
0.0
 11
-6.6110218922
 21
0.6823834177
 31
0.0
  0
LINE
  5
2AF
330
22C
100
AcDbEntity
  8
0
  6
Continuous
 62
     7
370
    25
100
AcDbLine
 10
-5.7843174282
 20
-0.7496658823
 30
0.0
 11
-4.5594080435
 21
-0.0425407461
 31
0.0
  0
LINE
  5
2B0
330
22C
100
AcDbEntity
  8
0
  6
Continuous
 62
     7
370
    25
100
AcDbLine
 10
-5.7842273212
 20
0.8022770935
 30
0.0
 11
-5.8208696158
 21
1.2056418611
 31
0.0
  0
LINE
  5
2B1
330
22C
100
AcDbEntity
  8
0
  6
Continuous
 62
     7
370
    25
100
AcDbLine
 10
-6.0176927116
 20
1.2056418611
 30
0.0
 11
-6.0544193205
 21
0.8013489463
 31
0.0
  0
LINE
  5
2B2
330
22C
100
AcDbEntity
  8
0
  6
Continuous
 62
     7
370
    25
100
AcDbLine
 10
1.0961089489
 20
-1.6887740377
 30
0.0
 11
1.1935449226
 21
-1.6325254473
 31
0.0
  0
LINE
  5
2B3
330
22C
100
AcDbEntity
  8
0
  6
Continuous
 62
     7
370
    25
100
AcDbLine
 10
0.6785262041
 20
-0.9654995095
 30
0.0
 11
0.7759621779
 21
-0.9092509191
 31
0.0
  0
LINE
  5
2B4
330
22C
100
AcDbEntity
  8
0
  6
Continuous
 62
     7
370
    25
100
AcDbLine
 10
0.6646067792
 20
-0.9896086604
 30
0.0
 11
-6.1559113857
 21
2.9477926663
 31
0.0
  0
LINE
  5
2B5
330
22C
100
AcDbEntity
  8
0
  6
Continuous
 62
     7
370
    25
100
AcDbLine
 10
1.0682700992
 20
-3.9390833618
 30
0.0
 11
1.0682700992
 21
-1.6887740377
 31
0.0
  0
LINE
  5
2B6
330
22C
100
AcDbEntity
  8
0
  6
Continuous
 62
     7
370
    25
100
AcDbLine
 10
1.0961089489
 20
-1.6887740377
 30
0.0
 11
1.0961089489
 21
-3.9390833618
 31
0.0
  0
LINE
  5
2B7
330
22C
100
AcDbEntity
  8
0
  6
Continuous
 62
     7
370
    25
100
AcDbLine
 10
-6.1419919609
 20
2.9719018173
 30
0.0
 11
0.6785262041
 21
-0.9654995095
 31
0.0
  0
LINE
  5
2B8
330
22C
100
AcDbEntity
  8
0
  6
Continuous
 62
     7
370
    25
100
AcDbLine
 10
1.0961089489
 20
-3.9390833618
 30
0.0
 11
1.1935449226
 21
-3.8828347714
 31
0.0
  0
LINE
  5
2B9
330
22C
100
AcDbEntity
  8
0
  6
Continuous
 62
     7
370
    25
100
AcDbLine
 10
1.1935449226
 20
-3.8828347714
 30
0.0
 11
1.1935449226
 21
-1.6325254473
 31
0.0
  0
LINE
  5
2BA
330
22C
100
AcDbEntity
  8
0
  6
Continuous
 62
     7
370
    25
100
AcDbLine
 10
-6.1419919609
 20
2.9719018173
 30
0.0
 11
-6.0445559871
 21
3.0281504076
 31
0.0
  0
LINE
  5
2BB
330
22C
100
AcDbEntity
  8
0
  6
Continuous
 62
     7
370
    25
100
AcDbLine
 10
0.7759621779
 20
-0.9092509191
 30
0.0
 11
-6.0445559871
 21
3.0281504076
 31
0.0
  0
LINE
  5
2BC
330
22C
100
AcDbEntity
  8
0
  6
Continuous
 62
     7
370
    25
100
AcDbLine
 10
-0.8774186558
 20
-1.1476352
 30
0.0
 11
-0.8929143122
 21
-1.1632443769
 31
0.0
  0
LINE
  5
2BD
330
22C
100
AcDbEntity
  8
0
  6
Continuous
 62
     7
370
    25
100
AcDbLine
 10
-0.0695809063
 20
-2.5894542003
 30
0.0
 11
-0.0483146076
 21
-2.5838411523
 31
0.0
  0
LINE
  5
2BE
330
22C
100
AcDbEntity
  8
0
  6
Continuous
 62
     7
370
    25
100
AcDbLine
 10
-2.1592862939
 20
-1.8904298727
 30
0.0
 11
-2.1568059477
 21
-1.888980714
 31
0.0
  0
LINE
  5
2BF
330
22C
100
AcDbEntity
  8
0
  6
Continuous
 62
     7
370
    25
100
AcDbLine
 10
-3.5547291098
 20
-2.0338987895
 30
0.0
 11
-3.557209456
 21
-2.0353479482
 31
0.0
  0
LINE
  5
2C0
330
22C
100
AcDbEntity
  8
0
  6
Continuous
 62
     7
370
    25
100
AcDbLine
 10
-6.6135022384
 20
0.680934259
 30
0.0
 11
-6.6110218922
 21
0.6823834177
 31
0.0
  0
LINE
  5
2C1
330
22C
100
AcDbEntity
  8
0
  6
Continuous
 62
     8
370
    25
100
AcDbLine
 10
-5.5241684705
 20
-0.5994850857
 30
0.0
 11
-4.5509688198
 21
-1.1613012854
 31
0.0
  0
LINE
  5
2C2
330
22C
100
AcDbEntity
  8
0
  6
Continuous
 62
     8
370
    25
100
AcDbLine
 10
-3.2970604982
 20
-1.8851671515
 30
0.0
 11
-2.3234389184
 21
-2.4472269258
 31
0.0
  0
LINE
  5
2C3
330
22C
100
AcDbEntity
  8
0
  6
Continuous
 62
     8
370
    25
100
AcDbLine
 10
-1.069952526
 20
-3.1708492174
 30
0.0
 11
0.6646067792
 21
-4.1721889902
 31
0.0
  0
LINE
  5
2C4
330
22C
100
AcDbEntity
  8
0
  6
Continuous
 62
     8
370
    25
100
AcDbLine
 10
-6.5595747057
 20
2.7146870379
 30
0.0
 11
-6.5595747057
 21
0.7120832463
 31
0.0
  0
ARC
  5
2C5
330
22C
100
AcDbEntity
  8
0
  6
Continuous
 62
     7
370
    25
100
AcDbCircle
 10
-1.4650652192
 20
-1.3673613578
 30
0.0
 40
0.0984251968503949
100
AcDbArc
 50
0.0
 51
180.0
  0
ARC
  5
2C6
330
22C
100
AcDbEntity
  8
0
  6
Continuous
 62
     7
370
    25
100
AcDbCircle
 10
-3.6921731915
 20
-2.2355467879
 30
0.0
 40
0.0984251968503935
100
AcDbArc
 50
180.0
 51
0.0
  0
ARC
  5
2C7
330
22C
100
AcDbEntity
  8
0
  6
Continuous
 62
     7
370
    25
100
AcDbCircle
 10
-5.9192811637
 20
1.2040027739
 30
0.0
 40
0.0984251968503944
100
AcDbArc
 50
0.0
 51
180.0
  0
ARC
  5
2C8
330
22C
100
AcDbEntity
  8
0
  6
Continuous
 62
     7
370
    25
100
AcDbCircle
 10
0.1920218037
 20
-1.7285659763
 30
0.0
 40
0.9049624105548616
100
AcDbArc
 50
2.520154907
 51
57.4798452386
  0
ARC
  5
2C9
330
22C
100
AcDbEntity
  8
0
  6
Continuous
 62
     7
370
    25
100
AcDbCircle
 10
1.082189524
 20
-1.6619096462
 30
0.0
 40
0.0302563367699183
100
AcDbArc
 50
242.6096722366
 51
297.3903277634
  0
ARC
  5
2CA
330
22C
100
AcDbEntity
  8
0
  6
Continuous
 62
     7
370
    25
100
AcDbCircle
 10
0.1943210593
 20
-1.7272385004
 30
0.0
 40
0.8747950841362391
100
AcDbArc
 50
2.520089748
 51
57.4799103976
  0
ARC
  5
2CB
330
22C
100
AcDbEntity
  8
0
  6
Continuous
 62
     7
370
    25
100
AcDbCircle
 10
0.6948275686
 20
-0.990983874
 30
0.0
 40
0.0302520631411734
100
AcDbArc
 50
122.60547834
 51
177.3945215144
  0
ARC
  5
2CC
330
22C
100
AcDbEntity
  8
0
  6
Continuous
 62
     7
370
    25
100
AcDbCircle
 10
0.289459709
 20
-1.6723162708
 30
0.0
 40
0.9049604318650643
100
AcDbArc
 50
2.520089748
 51
57.4799103976
  0
ARC
  5
2CD
330
22C
100
AcDbEntity
  8
0
  6
Continuous
 62
     7
370
    25
100
AcDbCircle
 10
1.082189524
 20
-3.9122189703
 30
0.0
 40
0.0302563367699095
100
AcDbArc
 50
242.6096722366
 51
297.3903277634
  0
ARC
  5
2CE
330
22C
100
AcDbEntity
  8
0
  6
Continuous
 62
     7
370
    25
100
AcDbCircle
 10
-6.1256905964
 20
2.9464174527
 30
0.0
 40
0.030252063141189
100
AcDbArc
 50
122.60547834
 51
177.3945215143
  0
ARC
  5
2CF
330
22C
100
AcDbEntity
  8
0
  6
Continuous
 62
     7
370
    25
100
AcDbCircle
 10
0.8683386007
 20
-4.0269154793
 30
0.0
 40
0.2102271502889825
100
AcDbArc
 50
269.2846851182
 51
329.6944595154
  0
ARC
  5
2D0
330
22C
100
AcDbEntity
  8
0
  6
Continuous
 62
     7
370
    25
100
AcDbCircle
 10
0.892609131
 20
-3.9095434723
 30
0.0
 40
0.3021186942537779
100
AcDbArc
 50
306.2403453107
 51
5.0718350827
  0
ARC
  5
2D1
330
22C
100
AcDbEntity
  8
0
  6
Continuous
 62
     7
370
    25
100
AcDbCircle
 10
-2.4581814867
 20
-1.0776572153
 30
0.0
 40
0.2895681761037151
100
AcDbArc
 50
285.1790093921
 51
325.5626692617
  0
ARC
  5
2D2
330
22C
100
AcDbEntity
  8
0
  6
Continuous
 62
     7
370
    25
100
AcDbCircle
 10
-3.0051673086
 20
-0.1299177697
 30
0.0
 40
0.2890259813375333
100
AcDbArc
 50
93.7631149278
 51
134.8675885405
  0
ARC
  5
2D3
330
22C
100
AcDbEntity
  8
0
  6
Continuous
 62
     7
370
    25
100
AcDbCircle
 10
-4.685289459
 20
0.2080248505
 30
0.0
 40
0.2895681761037218
100
AcDbArc
 50
285.1790093924
 51
325.5626692617
  0
ARC
  5
2D4
330
22C
100
AcDbEntity
  8
0
  6
Continuous
 62
     7
370
    25
100
AcDbCircle
 10
-5.2322752809
 20
1.1557642961
 30
0.0
 40
0.2890259813375122
100
AcDbArc
 50
93.7631149278
 51
134.8675885407
  0
ARC
  5
2D5
330
22C
100
AcDbEntity
  8
0
  6
Continuous
 62
     7
370
    25
100
AcDbCircle
 10
-6.3318043576
 20
2.8185901813
 30
0.0
 40
0.2102271502890042
100
AcDbArc
 50
89.2846851182
 51
149.6944595154
  0
ARC
  5
2D6
330
22C
100
AcDbEntity
  8
0
  6
Continuous
 62
     7
370
    25
100
AcDbCircle
 10
-3.643010753
 20
-2.2302974397
 30
0.0
 40
0.0498114523279672
100
AcDbArc
 50
294.219956899
 51
350.4956621363
  0
ARC
  5
2D7
330
22C
100
AcDbEntity
  8
0
  6
Continuous
 62
     8
370
    25
100
AcDbCircle
 10
0.7197951432
 20
-3.9517666259
 30
0.0
 40
0.3765274831217003
100
AcDbArc
 50
331.2280732015
 51
1.9303637494
  0
ARC
  5
2D8
330
22C
100
AcDbEntity
  8
0
  6
Continuous
 62
     8
370
    25
100
AcDbCircle
 10
0.6739699344
 20
-4.1733813692
 30
0.0
 40
0.0094387733605737
100
AcDbArc
 50
172.742561606
 51
235.9596716034
  0
ARC
  5
2D9
330
22C
100
AcDbEntity
  8
0
  6
Continuous
 62
     8
370
    25
100
AcDbCircle
 10
-6.341970737
 20
2.6503644606
 30
0.0
 40
0.3786525882691382
100
AcDbArc
 50
58.1206312224
 51
88.0641759525
  0
ARC
  5
2DA
330
22C
100
AcDbEntity
  8
0
  6
Continuous
 62
     8
370
    25
100
AcDbCircle
 10
-6.5554882354
 20
2.723705631
 30
0.0
 40
0.0099012252233373
100
AcDbArc
 50
185.7107544331
 51
245.6239510498
  0
ARC
  5
2DB
330
22C
100
AcDbEntity
  8
0
  6
Continuous
 62
     8
370
    25
100
AcDbCircle
 10
-3.5053183472
 20
-0.2377762652
 30
0.0
 40
0.074292306331245
100
AcDbArc
 50
185.4675434492
 51
246.5493088628
  0
VIEWPORT
  5
2E6
330
22C
100
AcDbEntity
  8
0
100
AcDbViewport
 10
0.0
 20
0.0
 30
0.0
 40
8.4
 41
6.4
 68
     1
 69
     1
 12
4.1182351174
 22
5.3089737433
 13
0.0
 23
0.0
 14
0.5
 24
0.5
 15
0.5
 25
0.5
 16
0.0
 26
0.0
 36
1.0
 17
0.0
 27
0.0
 37
0.0
 42
50.0
 43
0.0
 44
0.0
 45
8.4139482565
 50
0.0
 51
0.0
 72
   100
 90
   557152
  1

281
     0
 71
     1
 74
     0
110
0.0
120
0.0
130
0.0
111
1.0
121
0.0
131
0.0
112
0.0
122
1.0
132
0.0
 79
     0
146
0.0
  0
ENDBLK
  5
22F
330
22C
100
AcDbEntity
  8
0
100
AcDbBlockEnd
  0
ENDSEC
  0
SECTION
  2
ENTITIES
  0
CIRCLE
  5
9E
330
1F
100
AcDbEntity
  8
0
  6
Continuous
 62
     7
370
    25
100
AcDbCircle
 10
7.2678414166
 20
5.3089737433
 30
0.0
 40
0.78740157480315
  0
CIRCLE
  5
9F
330
1F
100
AcDbEntity
  8
0
  6
Continuous
 62
     7
370
    25
100
AcDbCircle
 10
7.2678414166
 20
5.3089737433
 30
0.0
 40
0.826771653543311
  0
CIRCLE
  5
A1
330
1F
100
AcDbEntity
  8
0
  6
Continuous
 62
     7
370
    25
100
AcDbCircle
 10
4.1182351174
 20
5.3089737433
 30
0.0
 40
0.7874015748031513
  0
CIRCLE
  5
A2
330
1F
100
AcDbEntity
  8
0
  6
Continuous
 62
     7
370
    25
100
AcDbCircle
 10
4.1182351174
 20
5.3089737433
 30
0.0
 40
0.8267716535433087
  0
CIRCLE
  5
A4
330
1F
100
AcDbEntity
  8
0
  6
Continuous
 62
     7
370
    25
100
AcDbCircle
 10
0.9686288182
 20
5.3089737433
 30
0.0
 40
0.7874015748031499
  0
CIRCLE
  5
A5
330
1F
100
AcDbEntity
  8
0
  6
Continuous
 62
     7
370
    25
100
AcDbCircle
 10
0.9686288182
 20
5.3089737433
 30
0.0
 40
0.8267716535433098
  0
LINE
  5
AF
330
1F
100
AcDbEntity
  8
0
  6
Continuous
 62
     7
370
    25
100
AcDbLine
 10
7.4035504481
 20
6.1245396135
 30
0.0
 11
7.3662666134
 21
6.6278713811
 31
0.0
  0
LINE
  5
B0
330
1F
100
AcDbEntity
  8
0
  6
Continuous
 62
     7
370
    25
100
AcDbLine
 10
7.1694162197
 20
6.6278713811
 30
0.0
 11
7.132162487
 21
6.1249459888
 31
0.0
  0
LINE
  5
B1
330
1F
100
AcDbEntity
  8
0
  6
Continuous
 62
     7
370
    25
100
AcDbLine
 10
3.9825260859
 20
4.4934078731
 30
0.0
 11
4.0198099205
 21
3.9900761055
 31
0.0
  0
LINE
  5
B2
330
1F
100
AcDbEntity
  8
0
  6
Continuous
 62
     7
370
    25
100
AcDbLine
 10
4.2166603142
 20
3.9900761055
 30
0.0
 11
4.253914047
 21
4.4930014978
 31
0.0
  0
LINE
  5
B3
330
1F
100
AcDbEntity
  8
0
  6
Continuous
 62
     7
370
    25
100
AcDbLine
 10
4.2698099205
 20
6.1217988602
 30
0.0
 11
4.2698099205
 21
6.2420312103
 31
0.0
  0
LINE
  5
B4
330
1F
100
AcDbEntity
  8
0
  6
Continuous
 62
     7
370
    25
100
AcDbLine
 10
3.9666603142
 20
6.2420312103
 30
0.0
 11
3.9666603142
 21
6.1220757392
 31
0.0
  0
LINE
  5
B5
330
1F
100
AcDbEntity
  8
0
  6
Continuous
 62
     7
370
    25
100
AcDbLine
 10
1.1043378496
 20
6.1245396135
 30
0.0
 11
1.067054015
 21
6.6278713811
 31
0.0
  0
LINE
  5
B6
330
1F
100
AcDbEntity
  8
0
  6
Continuous
 62
     7
370
    25
100
AcDbLine
 10
0.8702036213
 20
6.6278713811
 30
0.0
 11
0.8329498885
 21
6.1249459888
 31
0.0
  0
LINE
  5
B7
330
1F
100
AcDbEntity
  8
0
  6
Continuous
 62
     7
370
    25
100
AcDbLine
 10
9.5316209441
 20
6.6869264992
 30
0.0
 11
9.5119359048
 21
6.6869264992
 31
0.0
  0
LINE
  5
B8
330
1F
100
AcDbEntity
  8
0
  6
Continuous
 62
     7
370
    25
100
AcDbLine
 10
8.941069763
 20
7.2774776803
 30
0.0
 11
8.941069763
 21
7.2577926409
 31
0.0
  0
LINE
  5
B9
330
1F
100
AcDbEntity
  8
0
  6
Continuous
 62
     7
370
    25
100
AcDbLine
 10
9.5119359048
 20
3.9310209874
 30
0.0
 11
9.5119359048
 21
6.6869264992
 31
0.0
  0
LINE
  5
BA
330
1F
100
AcDbEntity
  8
0
  6
Continuous
 62
     7
370
    25
100
AcDbLine
 10
9.5316209441
 20
6.6869264992
 30
0.0
 11
9.5316209441
 21
3.9310209874
 31
0.0
  0
LINE
  5
BB
330
1F
100
AcDbEntity
  8
0
  6
Continuous
 62
     7
370
    25
100
AcDbLine
 10
9.5119359048
 20
3.9310209874
 30
0.0
 11
9.5316209441
 21
3.9310209874
 31
0.0
  0
LINE
  5
BC
330
1F
100
AcDbEntity
  8
0
  6
Continuous
 62
     7
370
    25
100
AcDbLine
 10
-0.7045995283
 20
3.3601548456
 30
0.0
 11
8.941069763
 21
3.3601548456
 31
0.0
  0
LINE
  5
BD
330
1F
100
AcDbEntity
  8
0
  6
Continuous
 62
     7
370
    25
100
AcDbLine
 10
-1.27546567
 20
6.6869264992
 30
0.0
 11
-1.27546567
 21
3.9310209874
 31
0.0
  0
LINE
  5
BE
330
1F
100
AcDbEntity
  8
0
  6
Continuous
 62
     7
370
    25
100
AcDbLine
 10
8.941069763
 20
7.2577926409
 30
0.0
 11
-0.7045995283
 21
7.2577926409
 31
0.0
  0
LINE
  5
BF
330
1F
100
AcDbEntity
  8
0
  6
Continuous
 62
     7
370
    25
100
AcDbLine
 10
-0.7045995283
 20
7.2774776803
 30
0.0
 11
8.941069763
 21
7.2774776803
 31
0.0
  0
LINE
  5
C0
330
1F
100
AcDbEntity
  8
0
  6
Continuous
 62
     7
370
    25
100
AcDbLine
 10
-0.7045995283
 20
7.2774776803
 30
0.0
 11
-0.7045995283
 21
7.2577926409
 31
0.0
  0
LINE
  5
C1
330
1F
100
AcDbEntity
  8
0
  6
Continuous
 62
     7
370
    25
100
AcDbLine
 10
8.941069763
 20
3.3601548456
 30
0.0
 11
8.941069763
 21
3.3404698063
 31
0.0
  0
LINE
  5
C2
330
1F
100
AcDbEntity
  8
0
  6
Continuous
 62
     7
370
    25
100
AcDbLine
 10
8.941069763
 20
3.3404698063
 30
0.0
 11
-0.7045995283
 21
3.3404698063
 31
0.0
  0
LINE
  5
C3
330
1F
100
AcDbEntity
  8
0
  6
Continuous
 62
     7
370
    25
100
AcDbLine
 10
-0.7045995283
 20
3.3601548456
 30
0.0
 11
-0.7045995283
 21
3.3404698063
 31
0.0
  0
LINE
  5
C4
330
1F
100
AcDbEntity
  8
0
  6
Continuous
 62
     7
370
    25
100
AcDbLine
 10
-1.2951507094
 20
6.6869264992
 30
0.0
 11
-1.27546567
 21
6.6869264992
 31
0.0
  0
LINE
  5
C5
330
1F
100
AcDbEntity
  8
0
  6
Continuous
 62
     7
370
    25
100
AcDbLine
 10
-1.27546567
 20
3.9310209874
 30
0.0
 11
-1.2951507094
 21
3.9310209874
 31
0.0
  0
LINE
  5
C6
330
1F
100
AcDbEntity
  8
0
  6
Continuous
 62
     7
370
    25
100
AcDbLine
 10
-1.2951507094
 20
3.9310209874
 30
0.0
 11
-1.2951507094
 21
6.6869264992
 31
0.0
  0
LINE
  5
C7
330
1F
100
AcDbEntity
  8
0
  6
Continuous
 62
     7
370
    25
100
AcDbLine
 10
7.1694162197
 20
6.6278713811
 30
0.0
 11
7.3662666134
 21
6.6278713811
 31
0.0
  0
LINE
  5
C8
330
1F
100
AcDbEntity
  8
0
  6
Continuous
 62
     7
370
    25
100
AcDbLine
 10
4.2166603142
 20
3.9900761055
 30
0.0
 11
4.0198099205
 21
3.9900761055
 31
0.0
  0
LINE
  5
C9
330
1F
100
AcDbEntity
  8
0
  6
Continuous
 62
     7
370
    25
100
AcDbLine
 10
0.8702036213
 20
6.6278713811
 30
0.0
 11
1.067054015
 21
6.6278713811
 31
0.0
  0
LINE
  5
CA
330
1F
100
AcDbEntity
  8
0
  6
Continuous
 62
     8
370
    25
100
AcDbLine
 10
4.2698099205
 20
6.2420312103
 30
0.0
 11
3.9666603142
 21
6.2420312103
 31
0.0
  0
LINE
  5
CB
330
1F
100
AcDbEntity
  8
0
  6
Continuous
 62
     8
370
    25
100
AcDbLine
 10
3.9774474103
 20
6.2595904637
 30
0.0
 11
4.2590228244
 21
6.2595904637
 31
0.0
  0
ARC
  5
CC
330
1F
100
AcDbEntity
  8
0
  6
Continuous
 62
     7
370
    25
100
AcDbCircle
 10
7.2678414166
 20
6.6278713811
 30
0.0
 40
0.0984251968503944
100
AcDbArc
 50
0.0
 51
180.0
  0
ARC
  5
CD
330
1F
100
AcDbEntity
  8
0
  6
Continuous
 62
     7
370
    25
100
AcDbCircle
 10
4.1182351174
 20
3.9900761055
 30
0.0
 40
0.0984251968503944
100
AcDbArc
 50
180.0
 51
0.0
  0
ARC
  5
CE
330
1F
100
AcDbEntity
  8
0
  6
Continuous
 62
     7
370
    25
100
AcDbCircle
 10
4.2501248812
 20
6.2420312103
 30
0.0
 40
0.0196850393700752
100
AcDbArc
 50
360.0
 51
63.1269288601
  0
ARC
  5
CF
330
1F
100
AcDbEntity
  8
0
  6
Continuous
 62
     7
370
    25
100
AcDbCircle
 10
3.9863453536
 20
6.2420312103
 30
0.0
 40
0.0196850393700805
100
AcDbArc
 50
116.87307114
 51
180.0
  0
ARC
  5
D0
330
1F
100
AcDbEntity
  8
0
  6
Continuous
 62
     7
370
    25
100
AcDbCircle
 10
4.1182351174
 20
5.9817591763
 30
0.0
 40
0.3114665354330741
100
AcDbArc
 50
63.1269288601
 51
116.8730711399
  0
ARC
  5
D1
330
1F
100
AcDbEntity
  8
0
  6
Continuous
 62
     7
370
    25
100
AcDbCircle
 10
0.9686288182
 20
6.6278713811
 30
0.0
 40
0.098425196850394
100
AcDbArc
 50
0.0
 51
180.0
  0
ARC
  5
D2
330
1F
100
AcDbEntity
  8
0
  6
Continuous
 62
     7
370
    25
100
AcDbCircle
 10
8.941069763
 20
6.6869264992
 30
0.0
 40
0.5905511811023647
100
AcDbArc
 50
0.0
 51
90.0
  0
ARC
  5
D3
330
1F
100
AcDbEntity
  8
0
  6
Continuous
 62
     7
370
    25
100
AcDbCircle
 10
8.941069763
 20
6.6869264992
 30
0.0
 40
0.5708661417322816
100
AcDbArc
 50
0.0
 51
90.0
  0
ARC
  5
D4
330
1F
100
AcDbEntity
  8
0
  6
Continuous
 62
     7
370
    25
100
AcDbCircle
 10
-0.7045995283
 20
3.9310209874
 30
0.0
 40
0.5708661417322851
100
AcDbArc
 50
180.0
 51
270.0
  0
ARC
  5
D5
330
1F
100
AcDbEntity
  8
0
  6
Continuous
 62
     7
370
    25
100
AcDbCircle
 10
-0.7045995283
 20
6.6869264992
 30
0.0
 40
0.5708661417322842
100
AcDbArc
 50
90.0
 51
180.0
  0
ARC
  5
D6
330
1F
100
AcDbEntity
  8
0
  6
Continuous
 62
     7
370
    25
100
AcDbCircle
 10
8.941069763
 20
3.9310209874
 30
0.0
 40
0.5708661417322838
100
AcDbArc
 50
270.0
 51
0.0
  0
ARC
  5
D7
330
1F
100
AcDbEntity
  8
0
  6
Continuous
 62
     7
370
    25
100
AcDbCircle
 10
7.2678414166
 20
5.3089737433
 30
0.0
 40
0.836614173228345
100
AcDbArc
 50
99.2834512159
 51
80.7165487841
  0
ARC
  5
D8
330
1F
100
AcDbEntity
  8
0
  6
Continuous
 62
     7
370
    25
100
AcDbCircle
 10
8.941069763
 20
3.9310209874
 30
0.0
 40
0.590551181102362
100
AcDbArc
 50
270.0
 51
0.0
  0
ARC
  5
D9
330
1F
100
AcDbEntity
  8
0
  6
Continuous
 62
     7
370
    25
100
AcDbCircle
 10
4.1182351174
 20
5.3089737433
 30
0.0
 40
0.8366141732283474
100
AcDbArc
 50
279.2834512159
 51
79.5617066155
  0
ARC
  5
DA
330
1F
100
AcDbEntity
  8
0
  6
Continuous
 62
     7
370
    25
100
AcDbCircle
 10
4.1182351174
 20
5.3089737433
 30
0.0
 40
0.8366141732283486
100
AcDbArc
 50
100.4382933844
 51
260.7165487841
  0
ARC
  5
DB
330
1F
100
AcDbEntity
  8
0
  6
Continuous
 62
     7
370
    25
100
AcDbCircle
 10
0.9686288182
 20
5.3089737433
 30
0.0
 40
0.8366141732283483
100
AcDbArc
 50
99.2834512158
 51
80.716548784
  0
ARC
  5
DC
330
1F
100
AcDbEntity
  8
0
  6
Continuous
 62
     7
370
    25
100
AcDbCircle
 10
-0.7045995283
 20
6.6869264992
 30
0.0
 40
0.5905511811023595
100
AcDbArc
 50
90.0
 51
180.0
  0
ARC
  5
DD
330
1F
100
AcDbEntity
  8
0
  6
Continuous
 62
     7
370
    25
100
AcDbCircle
 10
-0.7045995283
 20
3.9310209874
 30
0.0
 40
0.5905511811023627
100
AcDbArc
 50
180.0
 51
270.0
  0
ARC
  5
DE
330
1F
100
AcDbEntity
  8
0
  6
Continuous
 62
     8
370
    25
100
AcDbCircle
 10
4.1182351174
 20
5.3089737433
 30
0.0
 40
0.8562992125984262
100
AcDbArc
 50
100.1957359468
 51
261.033041164
  0
ARC
  5
DF
330
1F
100
AcDbEntity
  8
0
  6
Continuous
 62
     8
370
    25
100
AcDbCircle
 10
4.1182351174
 20
5.3089737433
 30
0.0
 40
0.856299212598426
100
AcDbArc
 50
278.966958836
 51
79.8042640531
  0
ARC
  5
E0
330
1F
100
AcDbEntity
  8
0
  6
Continuous
 62
     8
370
    25
100
AcDbCircle
 10
0.9686288182
 20
5.3089737433
 30
0.0
 40
0.8562992125984261
100
AcDbArc
 50
98.9669588359
 51
81.0330411639
  0
CIRCLE
  5
EF
330
1B
100
AcDbEntity
 67
     1
  8
0
  6
Continuous
 62
     7
370
    25
100
AcDbCircle
 10
-7.2678414166
 20
5.3089737433
 30
0.0
 40
0.8366141732283499
  0
CIRCLE
  5
F0
330
1B
100
AcDbEntity
 67
     1
  8
0
  6
Continuous
 62
     7
370
    25
100
AcDbCircle
 10
-4.1182351174
 20
5.3089737433
 30
0.0
 40
0.9547244094488185
  0
CIRCLE
  5
F1
330
1B
100
AcDbEntity
 67
     1
  8
0
  6
Continuous
 62
     7
370
    25
100
AcDbCircle
 10
-0.9686288182
 20
5.3089737433
 30
0.0
 40
0.9547244094488203
  0
CIRCLE
  5
F4
330
1B
100
AcDbEntity
 67
     1
  8
0
  6
Continuous
 62
     7
370
    25
100
AcDbCircle
 10
-0.9686288182
 20
5.3089737433
 30
0.0
 40
0.8366141732283516
  0
CIRCLE
  5
F5
330
1B
100
AcDbEntity
 67
     1
  8
0
  6
Continuous
 62
     7
370
    25
100
AcDbCircle
 10
-4.1182351174
 20
5.3089737433
 30
0.0
 40
0.8366141732283463
  0
CIRCLE
  5
F6
330
1B
100
AcDbEntity
 67
     1
  8
0
  6
Continuous
 62
     7
370
    25
100
AcDbCircle
 10
-7.2678414166
 20
5.3089737433
 30
0.0
 40
0.8267716535433101
  0
CIRCLE
  5
F7
330
1B
100
AcDbEntity
 67
     1
  8
0
  6
Continuous
 62
     7
370
    25
100
AcDbCircle
 10
-4.1182351174
 20
5.3089737433
 30
0.0
 40
0.8267716535433074
  0
CIRCLE
  5
F8
330
1B
100
AcDbEntity
 67
     1
  8
0
  6
Continuous
 62
     7
370
    25
100
AcDbCircle
 10
-0.9686288182
 20
5.3089737433
 30
0.0
 40
0.8267716535433064
  0
LINE
  5
F9
330
1B
100
AcDbEntity
 67
     1
  8
0
  6
Continuous
 62
     7
370
    25
100
AcDbLine
 10
-7.132162487
 20
6.1249459888
 30
0.0
 11
-7.1328798388
 21
6.134630238
 31
0.0
  0
LINE
  5
FA
330
1B
100
AcDbEntity
 67
     1
  8
0
  6
Continuous
 62
     7
370
    25
100
AcDbLine
 10
-7.4028029944
 20
6.134630238
 30
0.0
 11
-7.4035504481
 21
6.1245396135
 31
0.0
  0
LINE
  5
FB
330
1B
100
AcDbEntity
 67
     1
  8
0
  6
Continuous
 62
     7
370
    25
100
AcDbLine
 10
-3.9666603142
 20
6.1220757392
 30
0.0
 11
-3.9666603142
 21
6.1317424555
 31
0.0
  0
LINE
  5
FC
330
1B
100
AcDbEntity
 67
     1
  8
0
  6
Continuous
 62
     7
370
    25
100
AcDbLine
 10
-4.2698099205
 20
6.1317424555
 30
0.0
 11
-4.2698099205
 21
6.1217988602
 31
0.0
  0
LINE
  5
FD
330
1B
100
AcDbEntity
 67
     1
  8
0
  6
Continuous
 62
     7
370
    25
100
AcDbLine
 10
-4.253914047
 20
4.4930014978
 30
0.0
 11
-4.2531966952
 21
4.4833172485
 31
0.0
  0
LINE
  5
FE
330
1B
100
AcDbEntity
 67
     1
  8
0
  6
Continuous
 62
     7
370
    25
100
AcDbLine
 10
-3.9832735396
 20
4.4833172485
 30
0.0
 11
-3.9825260859
 21
4.4934078731
 31
0.0
  0
LINE
  5
FF
330
1B
100
AcDbEntity
 67
     1
  8
0
  6
Continuous
 62
     7
370
    25
100
AcDbLine
 10
-0.8329498885
 20
6.1249459888
 30
0.0
 11
-0.8336672403
 21
6.134630238
 31
0.0
  0
LINE
  5
100
330
1B
100
AcDbEntity
 67
     1
  8
0
  6
Continuous
 62
     7
370
    25
100
AcDbLine
 10
-1.103590396
 20
6.134630238
 30
0.0
 11
-1.1043378496
 21
6.1245396135
 31
0.0
  0
LINE
  5
101
330
1B
100
AcDbEntity
 67
     1
  8
0
  6
Continuous
 62
     7
370
    25
100
AcDbLine
 10
-8.941069763
 20
7.2774776803
 30
0.0
 11
0.7045995283
 21
7.2774776803
 31
0.0
  0
LINE
  5
102
330
1B
100
AcDbEntity
 67
     1
  8
0
  6
Continuous
 62
     7
370
    25
100
AcDbLine
 10
0.7045995283
 20
3.3404698063
 30
0.0
 11
-8.941069763
 21
3.3404698063
 31
0.0
  0
LINE
  5
103
330
1B
100
AcDbEntity
 67
     1
  8
0
  6
Continuous
 62
     7
370
    25
100
AcDbLine
 10
-9.5316209441
 20
3.9310209874
 30
0.0
 11
-9.5316209441
 21
6.6869264992
 31
0.0
  0
LINE
  5
104
330
1B
100
AcDbEntity
 67
     1
  8
0
  6
Continuous
 62
     7
370
    25
100
AcDbLine
 10
1.2951507094
 20
6.6869264992
 30
0.0
 11
1.2951507094
 21
3.9310209874
 31
0.0
  0
ARC
  5
105
330
1B
100
AcDbEntity
 67
     1
  8
0
  6
Continuous
 62
     7
370
    25
100
AcDbCircle
 10
0.7045995283
 20
6.6869264992
 30
0.0
 40
0.590551181102362
100
AcDbArc
 50
0.0
 51
90.0
  0
ARC
  5
106
330
1B
100
AcDbEntity
 67
     1
  8
0
  6
Continuous
 62
     7
370
    25
100
AcDbCircle
 10
-8.941069763
 20
3.9310209874
 30
0.0
 40
0.5905511811023665
100
AcDbArc
 50
180.0
 51
270.0
  0
ARC
  5
107
330
1B
100
AcDbEntity
 67
     1
  8
0
  6
Continuous
 62
     7
370
    25
100
AcDbCircle
 10
-8.941069763
 20
6.6869264992
 30
0.0
 40
0.5905511811023612
100
AcDbArc
 50
90.0
 51
180.0
  0
ARC
  5
108
330
1B
100
AcDbEntity
 67
     1
  8
0
  6
Continuous
 62
     7
370
    25
100
AcDbCircle
 10
0.7045995283
 20
3.9310209874
 30
0.0
 40
0.5905511811023607
100
AcDbArc
 50
270.0
 51
0.0
  0
VIEWPORT
  5
2DC
330
1B
100
AcDbEntity
 67
     1
  8
0
100
AcDbViewport
 10
0.0
 20
0.0
 30
0.0
 40
8.4
 41
6.4
 68
     1
 69
     1
 12
4.1182351174
 22
5.3089737433
 13
0.0
 23
0.0
 14
0.5
 24
0.5
 15
0.5
 25
0.5
 16
0.0
 26
0.0
 36
1.0
 17
0.0
 27
0.0
 37
0.0
 42
50.0
 43
0.0
 44
0.0
 45
8.4139482565
 50
0.0
 51
0.0
 72
   100
 90
   557152
  1

281
     0
 71
     1
 74
     0
110
0.0
120
0.0
130
0.0
111
1.0
121
0.0
131
0.0
112
0.0
122
1.0
132
0.0
 79
     0
146
0.0
  0
ENDSEC
  0
SECTION
  2
OBJECTS
  0
DICTIONARY
  5
C
330
0
100
AcDbDictionary
281
     1
  3
ACAD_GROUP
350
D
  3
ACAD_LAYOUT
350
1A
  3
ACAD_MLINESTYLE
350
17
  3
ACAD_PLOTSETTINGS
350
19
  3
ACAD_PLOTSTYLENAME
350
E
  3
ACAD_SCALELIST
350
47
  0
DICTIONARY
  5
D
102
{ACAD_REACTORS
330
C
102
}
330
C
100
AcDbDictionary
281
     1
  0
DICTIONARY
  5
1A
102
{ACAD_REACTORS
330
C
102
}
330
C
100
AcDbDictionary
281
     1
  3
_Back
350
1E
  3
_Bottom
350
1E9
  3
_Isometric
350
22D
  3
_Left
350
26
  3
_Right
350
153
  3
_Top
350
1A1
  3
Model
350
22
  0
DICTIONARY
  5
17
102
{ACAD_REACTORS
330
C
102
}
330
C
100
AcDbDictionary
281
     1
  3
Standard
350
18
  0
DICTIONARY
  5
19
102
{ACAD_REACTORS
330
C
102
}
330
C
100
AcDbDictionary
281
     1
  0
ACDBDICTIONARYWDFLT
  5
E
102
{ACAD_REACTORS
330
C
102
}
330
C
100
AcDbDictionary
281
     1
  3
Normal
350
F
100
AcDbDictionaryWithDefault
340
F
  0
DICTIONARY
  5
47
102
{ACAD_REACTORS
330
C
102
}
330
C
100
AcDbDictionary
281
     1
  3
A0
350
48
  3
A1
350
49
  3
A2
350
4A
  3
A3
350
4B
  3
A4
350
4C
  3
A5
350
4D
  3
A6
350
4E
  3
A7
350
4F
  3
A8
350
50
  3
A9
350
51
  3
B0
350
52
  3
B1
350
53
  3
B2
350
54
  3
B3
350
55
  3
B4
350
56
  3
B5
350
57
  3
B6
350
58
  3
B7
350
59
  3
B8
350
5A
  3
B9
350
5B
  3
C0
350
5C
  3
C1
350
5D
  3
C2
350
5E
  3
C3
350
5F
  3
C4
350
60
  3
C5
350
61
  3
C6
350
62
  3
C7
350
63
  3
C8
350
64
  3
C9
350
65
  3
D0
350
66
  3
D1
350
67
  3
D2
350
68
  0
LAYOUT
  5
1E
102
{ACAD_REACTORS
330
1A
102
}
330
1A
100
AcDbPlotSettings
  1

  2
none_device
  4
Letter_(8.50_x_11.00_Inches)
  6

 40
6.35
 41
6.35
 42
6.35001
 43
6.35001
 44
215.9
 45
279.4
 46
0.0
 47
0.0
 48
0.0
 49
0.0
140
0.0
141
0.0
142
1.0
143
1.0311211485
 70
   688
 72
     0
 73
     1
 74
     1
  7

 75
     0
147
0.9698181455
148
242.1031719812
149
-84.847933079
100
AcDbLayout
  1
_Back
 70
     1
 71
     1
 10
-9.7894016372
 20
3.0826895191
 11
1.5529309965
 21
11.8472192816
 12
0.0
 22
0.0
 32
0.0
 14
-9.5316209441
 24
3.3404698063
 34
0.0
 15
1.2951507094
 25
7.2774776803
 35
0.0
146
0.0
 13
0.0
 23
0.0
 33
0.0
 16
1.0
 26
0.0
 36
0.0
 17
0.0
 27
1.0
 37
0.0
 76
     0
330
1B
331
2DC
  0
LAYOUT
  5
1E9
102
{ACAD_REACTORS
330
1A
102
}
330
1A
100
AcDbPlotSettings
  1

  2
none_device
  4
Letter_(8.50_x_11.00_Inches)
  6

 40
6.35
 41
6.35
 42
6.35001
 43
6.35001
 44
215.9
 45
279.4
 46
0.0
 47
0.0
 48
0.0
 49
0.0
140
0.0
141
0.0
142
1.0
143
1.0311211485
 70
   688
 72
     0
 73
     1
 74
     1
  7

 75
     0
147
0.9698181455
148
242.1031719812
149
-84.847933079
100
AcDbLayout
  1
_Bottom
 70
     1
 71
     5
 10
0.0
 20
0.0
 11
0.0
 21
0.0
 12
0.0
 22
0.0
 32
0.0
 14
0.0
 24
0.0
 34
0.0
 15
0.0
 25
0.0
 35
0.0
146
0.0
 13
0.0
 23
0.0
 33
0.0
 16
1.0
 26
0.0
 36
0.0
 17
0.0
 27
1.0
 37
0.0
 76
     0
330
1E8
331
2E4
  0
LAYOUT
  5
22D
102
{ACAD_REACTORS
330
1A
102
}
330
1A
100
AcDbPlotSettings
  1

  2
none_device
  4
Letter_(8.50_x_11.00_Inches)
  6

 40
6.35
 41
6.35
 42
6.35001
 43
6.35001
 44
215.9
 45
279.4
 46
0.0
 47
0.0
 48
0.0
 49
0.0
140
0.0
141
0.0
142
1.0
143
1.0311211485
 70
   688
 72
     0
 73
     1
 74
     1
  7

 75
     0
147
0.9698181455
148
242.1031719812
149
-84.847933079
100
AcDbLayout
  1
_Isometric
 70
     1
 71
     6
 10
0.0
 20
0.0
 11
0.0
 21
0.0
 12
0.0
 22
0.0
 32
0.0
 14
0.0
 24
0.0
 34
0.0
 15
0.0
 25
0.0
 35
0.0
146
0.0
 13
0.0
 23
0.0
 33
0.0
 16
1.0
 26
0.0
 36
0.0
 17
0.0
 27
1.0
 37
0.0
 76
     0
330
22C
331
2E6
  0
LAYOUT
  5
26
102
{ACAD_REACTORS
330
1A
102
}
330
1A
100
AcDbPlotSettings
  1

  2
none_device
  4
Letter_(8.50_x_11.00_Inches)
  6

 40
6.35
 41
6.35
 42
6.35001
 43
6.35001
 44
215.9
 45
279.4
 46
0.0
 47
0.0
 48
0.0
 49
0.0
140
0.0
141
0.0
142
1.0
143
1.0311211485
 70
   688
 72
     0
 73
     1
 74
     1
  7

 75
     0
147
0.9698181455
148
242.1031719812
149
-84.847933079
100
AcDbLayout
  1
_Left
 70
     1
 71
     2
 10
0.0
 20
0.0
 11
0.0
 21
0.0
 12
0.0
 22
0.0
 32
0.0
 14
0.0
 24
0.0
 34
0.0
 15
0.0
 25
0.0
 35
0.0
146
0.0
 13
0.0
 23
0.0
 33
0.0
 16
1.0
 26
0.0
 36
0.0
 17
0.0
 27
1.0
 37
0.0
 76
     0
330
23
331
2DE
  0
LAYOUT
  5
153
102
{ACAD_REACTORS
330
1A
102
}
330
1A
100
AcDbPlotSettings
  1

  2
none_device
  4
Letter_(8.50_x_11.00_Inches)
  6

 40
6.35
 41
6.35
 42
6.35001
 43
6.35001
 44
215.9
 45
279.4
 46
0.0
 47
0.0
 48
0.0
 49
0.0
140
0.0
141
0.0
142
1.0
143
1.0311211485
 70
   688
 72
     0
 73
     1
 74
     1
  7

 75
     0
147
0.9698181455
148
242.1031719812
149
-84.847933079
100
AcDbLayout
  1
_Right
 70
     1
 71
     3
 10
0.0
 20
0.0
 11
0.0
 21
0.0
 12
0.0
 22
0.0
 32
0.0
 14
0.0
 24
0.0
 34
0.0
 15
0.0
 25
0.0
 35
0.0
146
0.0
 13
0.0
 23
0.0
 33
0.0
 16
1.0
 26
0.0
 36
0.0
 17
0.0
 27
1.0
 37
0.0
 76
     0
330
152
331
2E0
  0
LAYOUT
  5
1A1
102
{ACAD_REACTORS
330
1A
102
}
330
1A
100
AcDbPlotSettings
  1

  2
none_device
  4
Letter_(8.50_x_11.00_Inches)
  6

 40
6.35
 41
6.35
 42
6.35001
 43
6.35001
 44
215.9
 45
279.4
 46
0.0
 47
0.0
 48
0.0
 49
0.0
140
0.0
141
0.0
142
1.0
143
1.0311211485
 70
   688
 72
     0
 73
     1
 74
     1
  7

 75
     0
147
0.9698181455
148
242.1031719812
149
-84.847933079
100
AcDbLayout
  1
_Top
 70
     1
 71
     4
 10
0.0
 20
0.0
 11
0.0
 21
0.0
 12
0.0
 22
0.0
 32
0.0
 14
0.0
 24
0.0
 34
0.0
 15
0.0
 25
0.0
 35
0.0
146
0.0
 13
0.0
 23
0.0
 33
0.0
 16
1.0
 26
0.0
 36
0.0
 17
0.0
 27
1.0
 37
0.0
 76
     0
330
1A0
331
2E2
  0
LAYOUT
  5
22
102
{ACAD_REACTORS
330
1A
102
}
330
1A
100
AcDbPlotSettings
  1

  2
none_device
  4
ANSI_A_(11.00_x_8.50_Inches)
  6

 40
6.35
 41
19.05
 42
6.35000508
 43
19.05000254
 44
279.4
 45
215.9
 46
28.1359429544
 47
-46.7354462782
 48
0.0
 49
0.0
140
0.0
141
0.0
142
1.00584
143
1.0
 70
  1696
 72
     0
 73
     0
 74
     0
  7

 75
     0
147
0.5913241897
148
-39.4088153714
149
0.0
100
AcDbLayout
  1
Model
 70
     1
 71
     0
 10
0.0
 20
0.0
 11
12.0
 21
9.0
 12
0.0
 22
0.0
 32
0.0
 14
-1.2951507094
 24
3.3404698063
 34
0.0
 15
9.5316209441
 25
7.2774776803
 35
0.0
146
0.0
 13
0.0
 23
0.0
 33
0.0
 16
1.0
 26
0.0
 36
0.0
 17
0.0
 27
1.0
 37
0.0
 76
     0
330
1F
331
29
  0
MLINESTYLE
  5
18
102
{ACAD_REACTORS
330
17
102
}
330
17
100
AcDbMlineStyle
  2
Standard
 70
     0
  3

 62
   256
 51
90.0
 52
90.0
 71
     2
 49
0.5
 62
   256
  6
BYLAYER
 49
-0.5
 62
   256
  6
BYLAYER
  0
ACDBPLACEHOLDER
  5
F
102
{ACAD_REACTORS
330
E
102
}
330
E
  0
SCALE
  5
48
102
{ACAD_REACTORS
330
47
102
}
330
47
100
AcDbScale
 70
     0
300
1:1
140
1.0
141
1.0
290
     1
  0
SCALE
  5
49
102
{ACAD_REACTORS
330
47
102
}
330
47
100
AcDbScale
 70
     0
300
1:2
140
1.0
141
2.0
290
     0
  0
SCALE
  5
4A
102
{ACAD_REACTORS
330
47
102
}
330
47
100
AcDbScale
 70
     0
300
1:4
140
1.0
141
4.0
290
     0
  0
SCALE
  5
4B
102
{ACAD_REACTORS
330
47
102
}
330
47
100
AcDbScale
 70
     0
300
1:5
140
1.0
141
5.0
290
     0
  0
SCALE
  5
4C
102
{ACAD_REACTORS
330
47
102
}
330
47
100
AcDbScale
 70
     0
300
1:8
140
1.0
141
8.0
290
     0
  0
SCALE
  5
4D
102
{ACAD_REACTORS
330
47
102
}
330
47
100
AcDbScale
 70
     0
300
1:10
140
1.0
141
10.0
290
     0
  0
SCALE
  5
4E
102
{ACAD_REACTORS
330
47
102
}
330
47
100
AcDbScale
 70
     0
300
1:16
140
1.0
141
16.0
290
     0
  0
SCALE
  5
4F
102
{ACAD_REACTORS
330
47
102
}
330
47
100
AcDbScale
 70
     0
300
1:20
140
1.0
141
20.0
290
     0
  0
SCALE
  5
50
102
{ACAD_REACTORS
330
47
102
}
330
47
100
AcDbScale
 70
     0
300
1:30
140
1.0
141
30.0
290
     0
  0
SCALE
  5
51
102
{ACAD_REACTORS
330
47
102
}
330
47
100
AcDbScale
 70
     0
300
1:40
140
1.0
141
40.0
290
     0
  0
SCALE
  5
52
102
{ACAD_REACTORS
330
47
102
}
330
47
100
AcDbScale
 70
     0
300
1:50
140
1.0
141
50.0
290
     0
  0
SCALE
  5
53
102
{ACAD_REACTORS
330
47
102
}
330
47
100
AcDbScale
 70
     0
300
1:100
140
1.0
141
100.0
290
     0
  0
SCALE
  5
54
102
{ACAD_REACTORS
330
47
102
}
330
47
100
AcDbScale
 70
     0
300
2:1
140
2.0
141
1.0
290
     0
  0
SCALE
  5
55
102
{ACAD_REACTORS
330
47
102
}
330
47
100
AcDbScale
 70
     0
300
4:1
140
4.0
141
1.0
290
     0
  0
SCALE
  5
56
102
{ACAD_REACTORS
330
47
102
}
330
47
100
AcDbScale
 70
     0
300
8:1
140
8.0
141
1.0
290
     0
  0
SCALE
  5
57
102
{ACAD_REACTORS
330
47
102
}
330
47
100
AcDbScale
 70
     0
300
10:1
140
10.0
141
1.0
290
     0
  0
SCALE
  5
58
102
{ACAD_REACTORS
330
47
102
}
330
47
100
AcDbScale
 70
     0
300
100:1
140
100.0
141
1.0
290
     0
  0
SCALE
  5
59
102
{ACAD_REACTORS
330
47
102
}
330
47
100
AcDbScale
 70
     0
300
1/128" = 1'-0"
140
0.0078125
141
12.0
290
     0
  0
SCALE
  5
5A
102
{ACAD_REACTORS
330
47
102
}
330
47
100
AcDbScale
 70
     0
300
1/64" = 1'-0"
140
0.015625
141
12.0
290
     0
  0
SCALE
  5
5B
102
{ACAD_REACTORS
330
47
102
}
330
47
100
AcDbScale
 70
     0
300
1/32" = 1'-0"
140
0.03125
141
12.0
290
     0
  0
SCALE
  5
5C
102
{ACAD_REACTORS
330
47
102
}
330
47
100
AcDbScale
 70
     0
300
1/16" = 1'-0"
140
0.0625
141
12.0
290
     0
  0
SCALE
  5
5D
102
{ACAD_REACTORS
330
47
102
}
330
47
100
AcDbScale
 70
     0
300
3/32" = 1'-0"
140
0.09375
141
12.0
290
     0
  0
SCALE
  5
5E
102
{ACAD_REACTORS
330
47
102
}
330
47
100
AcDbScale
 70
     0
300
1/8" = 1'-0"
140
0.125
141
12.0
290
     0
  0
SCALE
  5
5F
102
{ACAD_REACTORS
330
47
102
}
330
47
100
AcDbScale
 70
     0
300
3/16" = 1'-0"
140
0.1875
141
12.0
290
     0
  0
SCALE
  5
60
102
{ACAD_REACTORS
330
47
102
}
330
47
100
AcDbScale
 70
     0
300
1/4" = 1'-0"
140
0.25
141
12.0
290
     0
  0
SCALE
  5
61
102
{ACAD_REACTORS
330
47
102
}
330
47
100
AcDbScale
 70
     0
300
3/8" = 1'-0"
140
0.375
141
12.0
290
     0
  0
SCALE
  5
62
102
{ACAD_REACTORS
330
47
102
}
330
47
100
AcDbScale
 70
     0
300
1/2" = 1'-0"
140
0.5
141
12.0
290
     0
  0
SCALE
  5
63
102
{ACAD_REACTORS
330
47
102
}
330
47
100
AcDbScale
 70
     0
300
3/4" = 1'-0"
140
0.75
141
12.0
290
     0
  0
SCALE
  5
64
102
{ACAD_REACTORS
330
47
102
}
330
47
100
AcDbScale
 70
     0
300
1" = 1'-0"
140
1.0
141
12.0
290
     0
  0
SCALE
  5
65
102
{ACAD_REACTORS
330
47
102
}
330
47
100
AcDbScale
 70
     0
300
1-1/2" = 1'-0"
140
1.5
141
12.0
290
     0
  0
SCALE
  5
66
102
{ACAD_REACTORS
330
47
102
}
330
47
100
AcDbScale
 70
     0
300
3" = 1'-0"
140
3.0
141
12.0
290
     0
  0
SCALE
  5
67
102
{ACAD_REACTORS
330
47
102
}
330
47
100
AcDbScale
 70
     0
300
6" = 1'-0"
140
6.0
141
12.0
290
     0
  0
SCALE
  5
68
102
{ACAD_REACTORS
330
47
102
}
330
47
100
AcDbScale
 70
     0
300
1'-0" = 1'-0"
140
12.0
141
12.0
290
     0
  0
ENDSEC
  0
EOF
