  0
SECTION
  2
HEADER
  9
$ACADVER
  1
AC1015
  9
$ACADMAINTVER
 70
     6
  9
$DWGCODEPAGE
  3
ANSI_1252
  9
$INSBASE
 10
0.0
 20
0.0
 30
0.0
  9
$EXTMIN
 10
-305.0
 20
-441.0
 30
0.0
  9
$EXTMAX
 10
305.0
 20
459.0
 30
0.0
  9
$LIMMIN
 10
0.0
 20
0.0
  9
$LIMMAX
 10
420.0
 20
297.0
  9
$ORTHOMODE
 70
     0
  9
$REGENMODE
 70
     1
  9
$FILLMODE
 70
     1
  9
$QTEXTMODE
 70
     0
  9
$MIRRTEXT
 70
     1
  9
$LTSCALE
 40
1.0
  9
$ATTMODE
 70
     1
  9
$TEXTSIZE
 40
3.5
  9
$TRACEWID
 40
1.0
  9
$TEXTSTYLE
  7
Standard
  9
$CLAYER
  8
0
  9
$CELTYPE
  6
ByLayer
  9
$CECOLOR
 62
   256
  9
$CELTSCALE
 40
1.0
  9
$DISPSILH
 70
     0
  9
$DIMSCALE
 40
1.0
  9
$DIMASZ
 40
3.302
  9
$DIMEXO
 40
1.0
  9
$DIMDLI
 40
3.75
  9
$DIMRND
 40
0.0
  9
$DIMDLE
 40
0.0
  9
$DIMEXE
 40
1.0
  9
$DIMTP
 40
0.0
  9
$DIMTM
 40
0.0
  9
$DIMTXT
 40
3.5
  9
$DIMCEN
 40
2.5
  9
$DIMTSZ
 40
0.0
  9
$DIMTOL
 70
     0
  9
$DIMLIM
 70
     0
  9
$DIMTIH
 70
     1
  9
$DIMTOH
 70
     1
  9
$DIMSE1
 70
     0
  9
$DIMSE2
 70
     0
  9
$DIMTAD
 70
     1
  9
$DIMZIN
 70
     1
  9
$DIMBLK
  1

  9
$DIMASO
 70
     1
  9
$DIMSHO
 70
     1
  9
$DIMPOST
  1

  9
$DIMAPOST
  1

  9
$DIMALT
 70
     0
  9
$DIMALTD
 70
     3
  9
$DIMALTF
 40
0.0393700787
  9
$DIMLFAC
 40
1.0
  9
$DIMTOFL
 70
     1
  9
$DIMTVP
 40
0.0
  9
$DIMTIX
 70
     0
  9
$DIMSOXD
 70
     0
  9
$DIMSAH
 70
     0
  9
$DIMBLK1
  1

  9
$DIMBLK2
  1

  9
$DIMSTYLE
  2
ISO-25
  9
$DIMCLRD
 70
     0
  9
$DIMCLRE
 70
     0
  9
$DIMCLRT
 70
     0
  9
$DIMTFAC
 40
1.0
  9
$DIMGAP
 40
1.524
  9
$DIMJUST
 70
     0
  9
$DIMSD1
 70
     0
  9
$DIMSD2
 70
     0
  9
$DIMTOLJ
 70
     0
  9
$DIMTZIN
 70
     1
  9
$DIMALTZ
 70
     0
  9
$DIMALTTZ
 70
     0
  9
$DIMUPT
 70
     0
  9
$DIMDEC
 70
     2
  9
$DIMTDEC
 70
     2
  9
$DIMALTU
 70
     2
  9
$DIMALTTD
 70
     3
  9
$DIMTXSTY
  7
Standard
  9
$DIMAUNIT
 70
     0
  9
$DIMADEC
 70
     2
  9
$DIMALTRND
 40
0.0
  9
$DIMAZIN
 70
     0
  9
$DIMDSEP
 70
    44
  9
$DIMATFIT
 70
     3
  9
$DIMFRAC
 70
     0
  9
$DIMLDRBLK
  1

  9
$DIMLUNIT
 70
     2
  9
$DIMLWD
 70
    -2
  9
$DIMLWE
 70
    -2
  9
$DIMTMOVE
 70
     0
  9
$LUNITS
 70
     2
  9
$LUPREC
 70
     2
  9
$SKETCHINC
 40
1.0
  9
$FILLETRAD
 40
10.0
  9
$AUNITS
 70
     0
  9
$AUPREC
 70
     2
  9
$MENU
  1
.
  9
$ELEVATION
 40
0.0
  9
$PELEVATION
 40
0.0
  9
$THICKNESS
 40
0.0
  9
$LIMCHECK
 70
     0
  9
$CHAMFERA
 40
0.0
  9
$CHAMFERB
 40
0.0
  9
$CHAMFERC
 40
0.0
  9
$CHAMFERD
 40
0.0
  9
$SKPOLY
 70
     0
  9
$TDCREATE
 40
2458862.438772998
  9
$TDUCREATE
 40
2458862.438772998
  9
$TDUPDATE
 40
2458862.438793947
  9
$TDUUPDATE
 40
2458862.438793947
  9
$TDINDWG
 40
0.0000000116
  9
$TDUSRTIMER
 40
0.0000000116
  9
$USRTIMER
 70
     1
  9
$ANGBASE
 50
0.0
  9
$ANGDIR
 70
     0
  9
$PDMODE
 70
     0
  9
$PDSIZE
 40
-1.0
  9
$PLINEWID
 40
0.0
  9
$SPLFRAME
 70
     0
  9
$SPLINETYPE
 70
     6
  9
$SPLINESEGS
 70
     8
  9
$HANDSEED
  5
3DE
  9
$SURFTAB1
 70
     6
  9
$SURFTAB2
 70
     6
  9
$SURFTYPE
 70
     6
  9
$SURFU
 70
     6
  9
$SURFV
 70
     6
  9
$UCSBASE
  2

  9
$UCSNAME
  2

  9
$UCSORG
 10
0.0
 20
0.0
 30
0.0
  9
$UCSXDIR
 10
1.0
 20
0.0
 30
0.0
  9
$UCSYDIR
 10
0.0
 20
1.0
 30
0.0
  9
$UCSORTHOREF
  2

  9
$UCSORTHOVIEW
 70
     0
  9
$UCSORGTOP
 10
0.0
 20
0.0
 30
0.0
  9
$UCSORGBOTTOM
 10
0.0
 20
0.0
 30
0.0
  9
$UCSORGLEFT
 10
0.0
 20
0.0
 30
0.0
  9
$UCSORGRIGHT
 10
0.0
 20
0.0
 30
0.0
  9
$UCSORGFRONT
 10
0.0
 20
0.0
 30
0.0
  9
$UCSORGBACK
 10
0.0
 20
0.0
 30
0.0
  9
$PUCSBASE
  2

  9
$PUCSNAME
  2

  9
$PUCSORG
 10
0.0
 20
0.0
 30
0.0
  9
$PUCSXDIR
 10
1.0
 20
0.0
 30
0.0
  9
$PUCSYDIR
 10
0.0
 20
1.0
 30
0.0
  9
$PUCSORTHOREF
  2

  9
$PUCSORTHOVIEW
 70
     0
  9
$PUCSORGTOP
 10
0.0
 20
0.0
 30
0.0
  9
$PUCSORGBOTTOM
 10
0.0
 20
0.0
 30
0.0
  9
$PUCSORGLEFT
 10
0.0
 20
0.0
 30
0.0
  9
$PUCSORGRIGHT
 10
0.0
 20
0.0
 30
0.0
  9
$PUCSORGFRONT
 10
0.0
 20
0.0
 30
0.0
  9
$PUCSORGBACK
 10
0.0
 20
0.0
 30
0.0
  9
$USERI1
 70
     0
  9
$USERI2
 70
     0
  9
$USERI3
 70
     0
  9
$USERI4
 70
     0
  9
$USERI5
 70
     0
  9
$USERR1
 40
0.0
  9
$USERR2
 40
0.0
  9
$USERR3
 40
0.0
  9
$USERR4
 40
0.0
  9
$USERR5
 40
0.0
  9
$WORLDVIEW
 70
     1
  9
$SHADEDGE
 70
     3
  9
$SHADEDIF
 70
    70
  9
$TILEMODE
 70
     1
  9
$MAXACTVP
 70
    64
  9
$PINSBASE
 10
0.0
 20
0.0
 30
0.0
  9
$PLIMCHECK
 70
     0
  9
$PEXTMIN
 10
-305.0
 20
-441.0
 30
0.0
  9
$PEXTMAX
 10
305.0
 20
459.0
 30
0.0
  9
$PLIMMIN
 10
-397.3076923077
 20
-475.6153846154
  9
$PLIMMAX
 10
973.4615384615
 20
493.6153846154
  9
$UNITMODE
 70
     0
  9
$VISRETAIN
 70
     1
  9
$PLINEGEN
 70
     0
  9
$PSLTSCALE
 70
     1
  9
$TREEDEPTH
 70
  3020
  9
$CMLSTYLE
  2
Standard
  9
$CMLJUST
 70
     0
  9
$CMLSCALE
 40
20.0
  9
$PROXYGRAPHICS
 70
     1
  9
$MEASUREMENT
 70
     1
  9
$CELWEIGHT
370
    -1
  9
$ENDCAPS
280
     0
  9
$JOINSTYLE
280
     0
  9
$LWDISPLAY
290
     1
  9
$INSUNITS
 70
     4
  9
$HYPERLINKBASE
  1

  9
$STYLESHEET
  1

  9
$XEDIT
290
     1
  9
$CEPSNTYPE
380
     0
  9
$PSTYLEMODE
290
     1
  9
$FINGERPRINTGUID
  2
{4e6b66a1-902c-4b5a-a58d-53f4fced6864}
  9
$VERSIONGUID
  2
{FAEB1C32-E019-11D5-929B-00C0DF256EC4}
  9
$EXTNAMES
290
     1
  9
$PSVPSCALE
 40
0.0
  9
$OLESTARTUP
290
     0
  0
ENDSEC
  0
SECTION
  2
CLASSES
  0
CLASS
  1
ACDBDICTIONARYWDFLT
  2
AcDbDictionaryWithDefault
  3
ObjectDBX Classes
 90
        0
280
     0
281
     0
  0
CLASS
  1
VISUALSTYLE
  2
AcDbVisualStyle
  3
ObjectDBX Classes
 90
     4095
280
     0
281
     0
  0
CLASS
  1
MATERIAL
  2
AcDbMaterial
  3
ObjectDBX Classes
 90
     1153
280
     0
281
     0
  0
CLASS
  1
SCALE
  2
AcDbScale
  3
ObjectDBX Classes
 90
     1153
280
     0
281
     0
  0
CLASS
  1
TABLESTYLE
  2
AcDbTableStyle
  3
ObjectDBX Classes
 90
     4095
280
     0
281
     0
  0
CLASS
  1
MLEADERSTYLE
  2
AcDbMLeaderStyle
  3
ACDB_MLEADERSTYLE_CLASS
 90
     4095
280
     0
281
     0
  0
CLASS
  1
SUN
  2
AcDbSun
  3
SCENEOE
 90
     1153
280
     0
281
     0
  0
CLASS
  1
ACDBPLACEHOLDER
  2
AcDbPlaceHolder
  3
ObjectDBX Classes
 90
        0
280
     0
281
     0
  0
CLASS
  1
LAYOUT
  2
AcDbLayout
  3
ObjectDBX Classes
 90
        0
280
     0
281
     0
  0
ENDSEC
  0
SECTION
  2
TABLES
  0
TABLE
  2
VPORT
  5
8
330
0
100
AcDbSymbolTable
 70
     1
  0
VPORT
  5
29
330
8
100
AcDbSymbolTableRecord
100
AcDbViewportTableRecord
  2
*Active
 70
     0
 10
0.0
 20
0.0
 11
1.0
 21
1.0
 12
0.0
 22
9.0
 13
0.0
 23
0.0
 14
10.0
 24
10.0
 15
10.0
 25
10.0
 16
0.0
 26
0.0
 36
1.0
 17
0.0
 27
0.0
 37
0.0
 40
918.0
 41
0.6777777778
 42
50.0
 43
0.0
 44
0.0
 50
0.0
 51
0.0
 71
     0
 72
   100
 73
     1
 74
     3
 75
     0
 76
     0
 77
     0
 78
     0
281
     0
 65
     1
110
0.0
120
0.0
130
0.0
111
1.0
121
0.0
131
0.0
112
0.0
122
1.0
132
0.0
 79
     0
146
0.0
  0
ENDTAB
  0
TABLE
  2
LTYPE
  5
5
330
0
100
AcDbSymbolTable
 70
     6
  0
LTYPE
  5
14
330
5
100
AcDbSymbolTableRecord
100
AcDbLinetypeTableRecord
  2
ByBlock
 70
     0
  3

 72
    65
 73
     0
 40
0.0
  0
LTYPE
  5
15
330
5
100
AcDbSymbolTableRecord
100
AcDbLinetypeTableRecord
  2
ByLayer
 70
     0
  3

 72
    65
 73
     0
 40
0.0
  0
LTYPE
  5
16
330
5
100
AcDbSymbolTableRecord
100
AcDbLinetypeTableRecord
  2
Continuous
 70
     0
  3
Solid line
 72
    65
 73
     0
 40
0.0
  0
LTYPE
  5
6E
330
5
100
AcDbSymbolTableRecord
100
AcDbLinetypeTableRecord
  2
HIDDEN
 70
     0
  3
Hidden __ __ __ __ __ __ __ __ __ __ __ __ __ __
 72
    65
 73
     2
 40
1.905
 49
1.27
 74
     0
 49
-0.635
 74
     0
  0
LTYPE
  5
6F
330
5
100
AcDbSymbolTableRecord
100
AcDbLinetypeTableRecord
  2
PHANTOM
 70
     0
  3
Phantom ______  __  __  ______  __  __  ______
 72
    65
 73
     6
 40
12.7
 49
6.35
 74
     0
 49
-1.27
 74
     0
 49
1.27
 74
     0
 49
-1.27
 74
     0
 49
1.27
 74
     0
 49
-1.27
 74
     0
  0
LTYPE
  5
70
330
5
100
AcDbSymbolTableRecord
100
AcDbLinetypeTableRecord
  2
CENTER
 70
     0
  3
Center ____ _ ____ _ ____ _ ____ _ ____ _ ____
 72
    65
 73
     4
 40
10.16
 49
6.35
 74
     0
 49
-1.27
 74
     0
 49
1.27
 74
     0
 49
-1.27
 74
     0
  0
LTYPE
  5
71
330
5
100
AcDbSymbolTableRecord
100
AcDbLinetypeTableRecord
  2
CENTERX2
 70
     0
  3
Center (2x) ________  __  ________  __  _____
 72
    65
 73
     4
 40
20.32
 49
12.7
 74
     0
 49
-2.54
 74
     0
 49
2.54
 74
     0
 49
-2.54
 74
     0
  0
LTYPE
  5
72
330
5
100
AcDbSymbolTableRecord
100
AcDbLinetypeTableRecord
  2
DOT2
 70
     0
  3
Dot (.5x) ........................................
 72
    65
 73
     2
 40
0.635
 49
0.0
 74
     0
 49
-0.635
 74
     0
  0
ENDTAB
  0
TABLE
  2
LAYER
  5
2
330
0
100
AcDbSymbolTable
 70
     1
  0
LAYER
  5
10
330
2
100
AcDbSymbolTableRecord
100
AcDbLayerTableRecord
  2
0
 70
     0
 62
     7
  6
Continuous
370
    -3
390
F
  0
ENDTAB
  0
TABLE
  2
STYLE
  5
3
330
0
100
AcDbSymbolTable
 70
     1
  0
STYLE
  5
11
330
3
100
AcDbSymbolTableRecord
100
AcDbTextStyleTableRecord
  2
Standard
 70
     0
 40
0.0
 41
1.0
 50
0.0
 71
     0
 42
3.5
  3
txt
  4

  0
ENDTAB
  0
TABLE
  2
VIEW
  5
6
330
0
100
AcDbSymbolTable
 70
     0
  0
ENDTAB
  0
TABLE
  2
UCS
  5
7
330
0
100
AcDbSymbolTable
 70
     0
  0
ENDTAB
  0
TABLE
  2
APPID
  5
9
330
0
100
AcDbSymbolTable
 70
     1
  0
APPID
  5
12
330
9
100
AcDbSymbolTableRecord
100
AcDbRegAppTableRecord
  2
ACAD
 70
     0
  0
ENDTAB
  0
TABLE
  2
DIMSTYLE
  5
A
330
0
100
AcDbSymbolTable
 70
     1
100
AcDbDimStyleTable
  0
DIMSTYLE
105
27
330
A
100
AcDbSymbolTableRecord
100
AcDbDimStyleTableRecord
  2
ISO-25
 70
     0
 41
2.5
 42
0.625
 43
3.75
 44
1.25
 73
     0
 74
     0
 77
     1
 78
     8
140
2.5
141
2.5
143
0.0393700787
147
0.625
171
     3
172
     1
178
     0
271
     2
272
     2
274
     3
278
    44
283
     0
284
     8
340
11
  0
ENDTAB
  0
TABLE
  2
BLOCK_RECORD
  5
1
330
0
100
AcDbSymbolTable
 70
     7
  0
BLOCK_RECORD
  5
1F
330
1
100
AcDbSymbolTableRecord
100
AcDbBlockTableRecord
  2
*Model_Space
340
22
  0
BLOCK_RECORD
  5
1B
330
1
100
AcDbSymbolTableRecord
100
AcDbBlockTableRecord
  2
*Paper_Space
340
1E
  0
BLOCK_RECORD
  5
23
330
1
100
AcDbSymbolTableRecord
100
AcDbBlockTableRecord
  2
*Paper_Space0
340
26
  0
BLOCK_RECORD
  5
147
330
1
100
AcDbSymbolTableRecord
100
AcDbBlockTableRecord
  2
*Paper_Space1
340
148
  0
BLOCK_RECORD
  5
189
330
1
100
AcDbSymbolTableRecord
100
AcDbBlockTableRecord
  2
*Paper_Space2
340
18A
  0
BLOCK_RECORD
  5
1B5
330
1
100
AcDbSymbolTableRecord
100
AcDbBlockTableRecord
  2
*Paper_Space3
340
1B6
  0
BLOCK_RECORD
  5
207
330
1
100
AcDbSymbolTableRecord
100
AcDbBlockTableRecord
  2
*Paper_Space4
340
208
  0
BLOCK_RECORD
  5
2A1
330
1
100
AcDbSymbolTableRecord
100
AcDbBlockTableRecord
  2
*Paper_Space5
340
2A2
  0
BLOCK_RECORD
  5
337
330
1
100
AcDbSymbolTableRecord
100
AcDbBlockTableRecord
  2
*Paper_Space6
340
338
  0
ENDTAB
  0
ENDSEC
  0
SECTION
  2
BLOCKS
  0
BLOCK
  5
20
330
1F
100
AcDbEntity
  8
0
100
AcDbBlockBegin
  2
*Model_Space
 70
     0
 10
0.0
 20
0.0
 30
0.0
  3
*Model_Space
  1

  0
ENDBLK
  5
21
330
1F
100
AcDbEntity
  8
0
100
AcDbBlockEnd
  0
BLOCK
  5
1C
330
1B
100
AcDbEntity
 67
     1
  8
0
100
AcDbBlockBegin
  2
*Paper_Space
 70
     0
 10
0.0
 20
0.0
 30
0.0
  3
*Paper_Space
  1

  0
ENDBLK
  5
1D
330
1B
100
AcDbEntity
 67
     1
  8
0
100
AcDbBlockEnd
  0
BLOCK
  5
24
330
23
100
AcDbEntity
  8
0
100
AcDbBlockBegin
  2
*Paper_Space0
 70
     0
 10
0.0
 20
0.0
 30
0.0
  3
*Paper_Space0
  1

  0
LINE
  5
131
330
23
100
AcDbEntity
  8
0
  6
Continuous
 62
     7
370
    25
100
AcDbLine
 10
-90.0
 20
-441.0
 30
0.0
 11
-90.0
 21
440.0
 31
0.0
  0
LINE
  5
132
330
23
100
AcDbEntity
  8
0
  6
Continuous
 62
     7
370
    25
100
AcDbLine
 10
157.0
 20
440.0
 30
0.0
 11
-90.0
 21
440.0
 31
0.0
  0
LINE
  5
133
330
23
100
AcDbEntity
  8
0
  6
Continuous
 62
     7
370
    25
100
AcDbLine
 10
113.0
 20
-441.0
 30
0.0
 11
113.0
 21
459.0
 31
0.0
  0
LINE
  5
134
330
23
100
AcDbEntity
  8
0
  6
Continuous
 62
     7
370
    25
100
AcDbLine
 10
-90.0
 20
-441.0
 30
0.0
 11
153.0
 21
-441.0
 31
0.0
  0
LINE
  5
135
330
23
100
AcDbEntity
  8
0
  6
Continuous
 62
     7
370
    25
100
AcDbLine
 10
153.0
 20
349.0
 30
0.0
 11
142.0
 21
349.0
 31
0.0
  0
LINE
  5
136
330
23
100
AcDbEntity
  8
0
  6
Continuous
 62
     7
370
    25
100
AcDbLine
 10
142.0
 20
349.0
 30
0.0
 11
142.0
 21
-441.0
 31
0.0
  0
LINE
  5
137
330
23
100
AcDbEntity
  8
0
  6
Continuous
 62
     7
370
    25
100
AcDbLine
 10
142.5346340601
 20
440.0
 30
0.0
 11
142.5346340601
 21
349.0
 31
0.0
  0
LINE
  5
138
330
23
100
AcDbEntity
  8
0
  6
Continuous
 62
     7
370
    25
100
AcDbLine
 10
-89.0
 20
459.0
 30
0.0
 11
-89.0
 21
440.0
 31
0.0
  0
LINE
  5
139
330
23
100
AcDbEntity
  8
0
  6
Continuous
 62
     7
370
    25
100
AcDbLine
 10
-90.0
 20
441.0
 30
0.0
 11
158.0
 21
441.0
 31
0.0
  0
LINE
  5
13A
330
23
100
AcDbEntity
  8
0
  6
Continuous
 62
     7
370
    25
100
AcDbLine
 10
-90.0
 20
441.0
 30
0.0
 11
-90.0
 21
458.0
 31
0.0
  0
LINE
  5
13B
330
23
100
AcDbEntity
  8
0
  6
Continuous
 62
     7
370
    25
100
AcDbLine
 10
158.0
 20
458.0
 30
0.0
 11
-90.0
 21
458.0
 31
0.0
  0
LINE
  5
13C
330
23
100
AcDbEntity
  8
0
  6
Continuous
 62
     7
370
    25
100
AcDbLine
 10
158.0
 20
458.0
 30
0.0
 11
158.0
 21
441.0
 31
0.0
  0
LINE
  5
13D
330
23
100
AcDbEntity
  8
0
  6
Continuous
 62
     7
370
    25
100
AcDbLine
 10
-89.0
 20
459.0
 30
0.0
 11
157.0
 21
459.0
 31
0.0
  0
LINE
  5
13E
330
23
100
AcDbEntity
  8
0
  6
Continuous
 62
     7
370
    25
100
AcDbLine
 10
142.0
 20
347.0
 30
0.0
 11
153.0
 21
347.0
 31
0.0
  0
LINE
  5
13F
330
23
100
AcDbEntity
  8
0
  6
Continuous
 62
     7
370
    25
100
AcDbLine
 10
142.5346340601
 20
347.0
 30
0.0
 11
142.5346340601
 21
-441.0
 31
0.0
  0
LINE
  5
140
330
23
100
AcDbEntity
  8
0
  6
Continuous
 62
     7
370
    25
100
AcDbLine
 10
153.0
 20
347.0
 30
0.0
 11
153.0
 21
-441.0
 31
0.0
  0
LINE
  5
141
330
23
100
AcDbEntity
  8
0
  6
Continuous
 62
     7
370
    25
100
AcDbLine
 10
153.0
 20
439.0
 30
0.0
 11
153.0
 21
349.0
 31
0.0
  0
LINE
  5
142
330
23
100
AcDbEntity
  8
0
  6
Continuous
 62
     7
370
    25
100
AcDbLine
 10
142.5346340601
 20
439.0
 30
0.0
 11
153.0
 21
439.0
 31
0.0
  0
ARC
  5
143
330
23
100
AcDbEntity
  8
0
  6
Continuous
 62
     7
370
    25
100
AcDbCircle
 10
-89.0
 20
458.0
 30
0.0
 40
0.9999999999999432
100
AcDbArc
 50
90.0
 51
180.0
  0
ARC
  5
144
330
23
100
AcDbEntity
  8
0
  6
Continuous
 62
     7
370
    25
100
AcDbCircle
 10
157.0
 20
441.0
 30
0.0
 40
1.000000000000057
100
AcDbArc
 50
270.0
 51
360.0
  0
ARC
  5
145
330
23
100
AcDbEntity
  8
0
  6
Continuous
 62
     7
370
    25
100
AcDbCircle
 10
-89.0
 20
441.0
 30
0.0
 40
1.000000000000057
100
AcDbArc
 50
180.0
 51
270.0
  0
ARC
  5
146
330
23
100
AcDbEntity
  8
0
  6
Continuous
 62
     7
370
    25
100
AcDbCircle
 10
157.0
 20
458.0
 30
0.0
 40
0.9999999999999432
100
AcDbArc
 50
360.0
 51
90.0
  0
VIEWPORT
  5
3D0
330
23
100
AcDbEntity
  8
0
100
AcDbViewport
 10
0.0
 20
0.0
 30
0.0
 40
205.6
 41
156.0
 68
     1
 69
     1
 12
0.0
 22
9.0
 13
0.0
 23
0.0
 14
10.0
 24
10.0
 15
10.0
 25
10.0
 16
0.0
 26
0.0
 36
1.0
 17
0.0
 27
0.0
 37
0.0
 42
50.0
 43
0.0
 44
0.0
 45
918.0
 50
0.0
 51
0.0
 72
   100
 90
   557152
  1

281
     0
 71
     1
 74
     0
110
0.0
120
0.0
130
0.0
111
1.0
121
0.0
131
0.0
112
0.0
122
1.0
132
0.0
 79
     0
146
0.0
  0
ENDBLK
  5
25
330
23
100
AcDbEntity
  8
0
100
AcDbBlockEnd
  0
BLOCK
  5
149
330
147
100
AcDbEntity
  8
0
100
AcDbBlockBegin
  2
*Paper_Space1
 70
     0
 10
0.0
 20
0.0
 30
0.0
  3
*Paper_Space1
  1

  0
LINE
  5
173
330
147
100
AcDbEntity
  8
0
  6
Continuous
 62
     7
370
    25
100
AcDbLine
 10
-142.0
 20
-441.0
 30
0.0
 11
-142.0
 21
349.0
 31
0.0
  0
LINE
  5
174
330
147
100
AcDbEntity
  8
0
  6
Continuous
 62
     7
370
    25
100
AcDbLine
 10
-142.0
 20
349.0
 30
0.0
 11
-153.0
 21
349.0
 31
0.0
  0
LINE
  5
175
330
147
100
AcDbEntity
  8
0
  6
Continuous
 62
     7
370
    25
100
AcDbLine
 10
-142.5346340601
 20
440.0
 30
0.0
 11
-142.5346340601
 21
349.0
 31
0.0
  0
LINE
  5
176
330
147
100
AcDbEntity
  8
0
  6
Continuous
 62
     7
370
    25
100
AcDbLine
 10
90.0
 20
-441.0
 30
0.0
 11
90.0
 21
440.0
 31
0.0
  0
LINE
  5
177
330
147
100
AcDbEntity
  8
0
  6
Continuous
 62
     7
370
    25
100
AcDbLine
 10
90.0
 20
440.0
 30
0.0
 11
-157.0
 21
440.0
 31
0.0
  0
LINE
  5
178
330
147
100
AcDbEntity
  8
0
  6
Continuous
 62
     7
370
    25
100
AcDbLine
 10
90.0
 20
458.0
 30
0.0
 11
90.0
 21
441.0
 31
0.0
  0
LINE
  5
179
330
147
100
AcDbEntity
  8
0
  6
Continuous
 62
     7
370
    25
100
AcDbLine
 10
-158.0
 20
441.0
 30
0.0
 11
90.0
 21
441.0
 31
0.0
  0
LINE
  5
17A
330
147
100
AcDbEntity
  8
0
  6
Continuous
 62
     7
370
    25
100
AcDbLine
 10
89.0
 20
440.0
 30
0.0
 11
89.0
 21
459.0
 31
0.0
  0
LINE
  5
17B
330
147
100
AcDbEntity
  8
0
  6
Continuous
 62
     7
370
    25
100
AcDbLine
 10
90.0
 20
458.0
 30
0.0
 11
-158.0
 21
458.0
 31
0.0
  0
LINE
  5
17C
330
147
100
AcDbEntity
  8
0
  6
Continuous
 62
     7
370
    25
100
AcDbLine
 10
-157.0
 20
459.0
 30
0.0
 11
89.0
 21
459.0
 31
0.0
  0
LINE
  5
17D
330
147
100
AcDbEntity
  8
0
  6
Continuous
 62
     7
370
    25
100
AcDbLine
 10
-113.0
 20
459.0
 30
0.0
 11
-113.0
 21
-441.0
 31
0.0
  0
LINE
  5
17E
330
147
100
AcDbEntity
  8
0
  6
Continuous
 62
     7
370
    25
100
AcDbLine
 10
-158.0
 20
458.0
 30
0.0
 11
-158.0
 21
441.0
 31
0.0
  0
LINE
  5
17F
330
147
100
AcDbEntity
  8
0
  6
Continuous
 62
     7
370
    25
100
AcDbLine
 10
-153.0
 20
-441.0
 30
0.0
 11
90.0
 21
-441.0
 31
0.0
  0
LINE
  5
180
330
147
100
AcDbEntity
  8
0
  6
Continuous
 62
     7
370
    25
100
AcDbLine
 10
-153.0
 20
-441.0
 30
0.0
 11
-153.0
 21
347.0
 31
0.0
  0
LINE
  5
181
330
147
100
AcDbEntity
  8
0
  6
Continuous
 62
     7
370
    25
100
AcDbLine
 10
-153.0
 20
347.0
 30
0.0
 11
-142.0
 21
347.0
 31
0.0
  0
LINE
  5
182
330
147
100
AcDbEntity
  8
0
  6
Continuous
 62
     7
370
    25
100
AcDbLine
 10
-142.5346340601
 20
347.0
 30
0.0
 11
-142.5346340601
 21
-441.0
 31
0.0
  0
LINE
  5
183
330
147
100
AcDbEntity
  8
0
  6
Continuous
 62
     7
370
    25
100
AcDbLine
 10
-153.0
 20
349.0
 30
0.0
 11
-153.0
 21
439.0
 31
0.0
  0
LINE
  5
184
330
147
100
AcDbEntity
  8
0
  6
Continuous
 62
     7
370
    25
100
AcDbLine
 10
-153.0
 20
439.0
 30
0.0
 11
-142.5346340601
 21
439.0
 31
0.0
  0
ARC
  5
185
330
147
100
AcDbEntity
  8
0
  6
Continuous
 62
     7
370
    25
100
AcDbCircle
 10
89.0
 20
458.0
 30
0.0
 40
0.9999999999999432
100
AcDbArc
 50
360.0
 51
90.0
  0
ARC
  5
186
330
147
100
AcDbEntity
  8
0
  6
Continuous
 62
     7
370
    25
100
AcDbCircle
 10
89.0
 20
441.0
 30
0.0
 40
1.000000000000057
100
AcDbArc
 50
270.0
 51
0.0
  0
ARC
  5
187
330
147
100
AcDbEntity
  8
0
  6
Continuous
 62
     7
370
    25
100
AcDbCircle
 10
-157.0
 20
458.0
 30
0.0
 40
0.9999999999999432
100
AcDbArc
 50
90.0
 51
180.0
  0
ARC
  5
188
330
147
100
AcDbEntity
  8
0
  6
Continuous
 62
     7
370
    25
100
AcDbCircle
 10
-157.0
 20
441.0
 30
0.0
 40
1.000000000000057
100
AcDbArc
 50
180.0
 51
270.0
  0
VIEWPORT
  5
3D2
330
147
100
AcDbEntity
  8
0
100
AcDbViewport
 10
0.0
 20
0.0
 30
0.0
 40
205.6
 41
156.0
 68
     1
 69
     1
 12
0.0
 22
9.0
 13
0.0
 23
0.0
 14
10.0
 24
10.0
 15
10.0
 25
10.0
 16
0.0
 26
0.0
 36
1.0
 17
0.0
 27
0.0
 37
0.0
 42
50.0
 43
0.0
 44
0.0
 45
918.0
 50
0.0
 51
0.0
 72
   100
 90
   557152
  1

281
     0
 71
     1
 74
     0
110
0.0
120
0.0
130
0.0
111
1.0
121
0.0
131
0.0
112
0.0
122
1.0
132
0.0
 79
     0
146
0.0
  0
ENDBLK
  5
14A
330
147
100
AcDbEntity
  8
0
100
AcDbBlockEnd
  0
BLOCK
  5
18B
330
189
100
AcDbEntity
  8
0
100
AcDbBlockBegin
  2
*Paper_Space2
 70
     0
 10
0.0
 20
0.0
 30
0.0
  3
*Paper_Space2
  1

  0
LINE
  5
1A3
330
189
100
AcDbEntity
  8
0
  6
Continuous
 62
     7
370
    25
100
AcDbLine
 10
-305.0
 20
-113.0
 30
0.0
 11
-305.0
 21
89.0
 31
0.0
  0
LINE
  5
1A4
330
189
100
AcDbEntity
  8
0
  6
Continuous
 62
     7
370
    25
100
AcDbLine
 10
-304.0
 20
90.0
 30
0.0
 11
-304.0
 21
-113.0
 31
0.0
  0
LINE
  5
1A5
330
189
100
AcDbEntity
  8
0
  6
Continuous
 62
     7
370
    25
100
AcDbLine
 10
-305.0
 20
-113.0
 30
0.0
 11
-304.0
 21
-113.0
 31
0.0
  0
LINE
  5
1A6
330
189
100
AcDbEntity
  8
0
  6
Continuous
 62
     7
370
    25
100
AcDbLine
 10
304.0
 20
-113.0
 30
0.0
 11
304.0
 21
90.0
 31
0.0
  0
LINE
  5
1A7
330
189
100
AcDbEntity
  8
0
  6
Continuous
 62
     7
370
    25
100
AcDbLine
 10
305.0
 20
89.0
 30
0.0
 11
-305.0
 21
89.0
 31
0.0
  0
LINE
  5
1A8
330
189
100
AcDbEntity
  8
0
  6
Continuous
 62
     7
370
    25
100
AcDbLine
 10
305.0
 20
89.0
 30
0.0
 11
305.0
 21
-113.0
 31
0.0
  0
LINE
  5
1A9
330
189
100
AcDbEntity
  8
0
  6
Continuous
 62
     7
370
    25
100
AcDbLine
 10
304.0
 20
-113.0
 30
0.0
 11
305.0
 21
-113.0
 31
0.0
  0
LINE
  5
1AA
330
189
100
AcDbEntity
  8
0
  6
Continuous
 62
     7
370
    25
100
AcDbLine
 10
-304.0
 20
90.0
 30
0.0
 11
304.0
 21
90.0
 31
0.0
  0
LINE
  5
1AB
330
189
100
AcDbEntity
  8
0
  6
Continuous
 62
     7
370
    25
100
AcDbLine
 10
260.0
 20
-158.0
 30
0.0
 11
-260.0
 21
-158.0
 31
0.0
  0
LINE
  5
1AC
330
189
100
AcDbEntity
  8
0
  6
Continuous
 62
     7
370
    25
100
AcDbLine
 10
-260.0
 20
-158.0
 30
0.0
 11
-260.0
 21
-157.0
 31
0.0
  0
LINE
  5
1AD
330
189
100
AcDbEntity
  8
0
  6
Continuous
 62
     7
370
    25
100
AcDbLine
 10
-260.0
 20
-157.0
 30
0.0
 11
260.0
 21
-157.0
 31
0.0
  0
LINE
  5
1AE
330
189
100
AcDbEntity
  8
0
  6
Continuous
 62
     7
370
    25
100
AcDbLine
 10
260.0
 20
-157.0
 30
0.0
 11
260.0
 21
-158.0
 31
0.0
  0
ARC
  5
1AF
330
189
100
AcDbEntity
  8
0
  6
Continuous
 62
     7
370
    25
100
AcDbCircle
 10
-304.0
 20
89.0
 30
0.0
 40
1.000000000000057
100
AcDbArc
 50
90.0
 51
180.0
  0
ARC
  5
1B0
330
189
100
AcDbEntity
  8
0
  6
Continuous
 62
     7
370
    25
100
AcDbCircle
 10
-260.0
 20
-113.0
 30
0.0
 40
45.00000000000001
100
AcDbArc
 50
180.0
 51
270.0
  0
ARC
  5
1B1
330
189
100
AcDbEntity
  8
0
  6
Continuous
 62
     7
370
    25
100
AcDbCircle
 10
-260.0
 20
-113.0
 30
0.0
 40
44.00000000000017
100
AcDbArc
 50
180.0
 51
270.0
  0
ARC
  5
1B2
330
189
100
AcDbEntity
  8
0
  6
Continuous
 62
     7
370
    25
100
AcDbCircle
 10
304.0
 20
89.0
 30
0.0
 40
1.000000000000114
100
AcDbArc
 50
0.0
 51
90.0
  0
ARC
  5
1B3
330
189
100
AcDbEntity
  8
0
  6
Continuous
 62
     7
370
    25
100
AcDbCircle
 10
260.0
 20
-113.0
 30
0.0
 40
43.99999999999994
100
AcDbArc
 50
270.0
 51
0.0
  0
ARC
  5
1B4
330
189
100
AcDbEntity
  8
0
  6
Continuous
 62
     7
370
    25
100
AcDbCircle
 10
260.0
 20
-113.0
 30
0.0
 40
45.0
100
AcDbArc
 50
270.0
 51
0.0
  0
VIEWPORT
  5
3D4
330
189
100
AcDbEntity
  8
0
100
AcDbViewport
 10
0.0
 20
0.0
 30
0.0
 40
205.6
 41
156.0
 68
     1
 69
     1
 12
0.0
 22
9.0
 13
0.0
 23
0.0
 14
10.0
 24
10.0
 15
10.0
 25
10.0
 16
0.0
 26
0.0
 36
1.0
 17
0.0
 27
0.0
 37
0.0
 42
50.0
 43
0.0
 44
0.0
 45
918.0
 50
0.0
 51
0.0
 72
   100
 90
   557152
  1

281
     0
 71
     1
 74
     0
110
0.0
120
0.0
130
0.0
111
1.0
121
0.0
131
0.0
112
0.0
122
1.0
132
0.0
 79
     0
146
0.0
  0
ENDBLK
  5
18C
330
189
100
AcDbEntity
  8
0
100
AcDbBlockEnd
  0
BLOCK
  5
1B7
330
1B5
100
AcDbEntity
  8
0
100
AcDbBlockBegin
  2
*Paper_Space3
 70
     0
 10
0.0
 20
0.0
 30
0.0
  3
*Paper_Space3
  1

  0
LINE
  5
1E7
330
1B5
100
AcDbEntity
  8
0
  6
Continuous
 62
     7
370
    25
100
AcDbLine
 10
-281.0
 20
134.0
 30
0.0
 11
-281.0
 21
-90.0
 31
0.0
  0
LINE
  5
1E8
330
1B5
100
AcDbEntity
  8
0
  6
Continuous
 62
     7
370
    25
100
AcDbLine
 10
-300.0
 20
-90.0
 30
0.0
 11
-300.0
 21
113.0
 31
0.0
  0
LINE
  5
1E9
330
1B5
100
AcDbEntity
  8
0
  6
Continuous
 62
     7
370
    25
100
AcDbLine
 10
-287.5499546279
 20
142.0
 30
0.0
 11
-286.6016603057
 21
142.0
 31
0.0
  0
LINE
  5
1EA
330
1B5
100
AcDbEntity
  8
0
  6
Continuous
 62
     7
370
    25
100
AcDbLine
 10
-281.0
 20
134.0
 30
0.0
 11
-286.9760151048
 21
142.5346340601
 31
0.0
  0
LINE
  5
1EB
330
1B5
100
AcDbEntity
  8
0
  6
Continuous
 62
     7
370
    25
100
AcDbLine
 10
300.0
 20
113.0
 30
0.0
 11
300.0
 21
-90.0
 31
0.0
  0
LINE
  5
1EC
330
1B5
100
AcDbEntity
  8
0
  6
Continuous
 62
     7
370
    25
100
AcDbLine
 10
304.0
 20
-90.0
 30
0.0
 11
-304.0
 21
-90.0
 31
0.0
  0
LINE
  5
1ED
330
1B5
100
AcDbEntity
  8
0
  6
Continuous
 62
     7
370
    25
100
AcDbLine
 10
281.0
 20
-90.0
 30
0.0
 11
281.0
 21
134.0
 31
0.0
  0
LINE
  5
1EE
330
1B5
100
AcDbEntity
  8
0
  6
Continuous
 62
     7
370
    25
100
AcDbLine
 10
281.0
 20
134.0
 30
0.0
 11
286.9760151048
 21
142.5346340601
 31
0.0
  0
LINE
  5
1EF
330
1B5
100
AcDbEntity
  8
0
  6
Continuous
 62
     7
370
    25
100
AcDbLine
 10
286.6016603057
 20
142.0
 30
0.0
 11
287.5499546279
 21
142.0
 31
0.0
  0
LINE
  5
1F0
330
1B5
100
AcDbEntity
  8
0
  6
Continuous
 62
     7
370
    25
100
AcDbLine
 10
260.0
 20
157.0
 30
0.0
 11
-260.0
 21
157.0
 31
0.0
  0
LINE
  5
1F1
330
1B5
100
AcDbEntity
  8
0
  6
Continuous
 62
     7
370
    25
100
AcDbLine
 10
304.0
 20
-90.0
 30
0.0
 11
304.0
 21
113.0
 31
0.0
  0
LINE
  5
1F2
330
1B5
100
AcDbEntity
  8
0
  6
Continuous
 62
     7
370
    25
100
AcDbLine
 10
-304.0
 20
113.0
 30
0.0
 11
-304.0
 21
-90.0
 31
0.0
  0
LINE
  5
1F3
330
1B5
100
AcDbEntity
  8
0
  6
Continuous
 62
     7
370
    25
100
AcDbLine
 10
305.0
 20
113.0
 30
0.0
 11
304.0
 21
113.0
 31
0.0
  0
LINE
  5
1F4
330
1B5
100
AcDbEntity
  8
0
  6
Continuous
 62
     7
370
    25
100
AcDbLine
 10
260.0
 20
158.0
 30
0.0
 11
260.0
 21
157.0
 31
0.0
  0
LINE
  5
1F5
330
1B5
100
AcDbEntity
  8
0
  6
Continuous
 62
     7
370
    25
100
AcDbLine
 10
-304.0
 20
113.0
 30
0.0
 11
-305.0
 21
113.0
 31
0.0
  0
LINE
  5
1F6
330
1B5
100
AcDbEntity
  8
0
  6
Continuous
 62
     7
370
    25
100
AcDbLine
 10
-260.0
 20
157.0
 30
0.0
 11
-260.0
 21
158.0
 31
0.0
  0
LINE
  5
1F7
330
1B5
100
AcDbEntity
  8
0
  6
Continuous
 62
     7
370
    25
100
AcDbLine
 10
-305.0
 20
-89.0
 30
0.0
 11
-300.0
 21
-89.0
 31
0.0
  0
LINE
  5
1F8
330
1B5
100
AcDbEntity
  8
0
  6
Continuous
 62
     7
370
    25
100
AcDbLine
 10
-305.0
 20
-89.0
 30
0.0
 11
-305.0
 21
113.0
 31
0.0
  0
LINE
  5
1F9
330
1B5
100
AcDbEntity
  8
0
  6
Continuous
 62
     7
370
    25
100
AcDbLine
 10
305.0
 20
113.0
 30
0.0
 11
305.0
 21
-89.0
 31
0.0
  0
LINE
  5
1FA
330
1B5
100
AcDbEntity
  8
0
  6
Continuous
 62
     7
370
    25
100
AcDbLine
 10
300.0
 20
-89.0
 30
0.0
 11
305.0
 21
-89.0
 31
0.0
  0
LINE
  5
1FB
330
1B5
100
AcDbEntity
  8
0
  6
Continuous
 62
     7
370
    25
100
AcDbLine
 10
-260.0
 20
158.0
 30
0.0
 11
260.0
 21
158.0
 31
0.0
  0
LINE
  5
1FC
330
1B5
100
AcDbEntity
  8
0
  6
Continuous
 62
     7
370
    25
100
AcDbLine
 10
-260.0
 20
153.0
 30
0.0
 11
260.0
 21
153.0
 31
0.0
  0
LINE
  5
1FD
330
1B5
100
AcDbEntity
  8
0
  6
Continuous
 62
     7
370
    25
100
AcDbLine
 10
281.0
 20
134.0
 30
0.0
 11
-281.0
 21
134.0
 31
0.0
  0
LINE
  5
1FE
330
1B5
100
AcDbEntity
  8
0
  6
Continuous
 62
     8
370
    25
100
AcDbLine
 10
-281.0
 20
-89.0
 30
0.0
 11
281.0
 21
-89.0
 31
0.0
  0
ARC
  5
1FF
330
1B5
100
AcDbEntity
  8
0
  6
Continuous
 62
     7
370
    25
100
AcDbCircle
 10
-260.0
 20
113.0
 30
0.0
 40
40.00000000000028
100
AcDbArc
 50
90.0
 51
180.0
  0
ARC
  5
200
330
1B5
100
AcDbEntity
  8
0
  6
Continuous
 62
     7
370
    25
100
AcDbCircle
 10
260.0
 20
113.0
 30
0.0
 40
40.00000000000068
100
AcDbArc
 50
0.0
 51
90.0
  0
ARC
  5
201
330
1B5
100
AcDbEntity
  8
0
  6
Continuous
 62
     7
370
    25
100
AcDbCircle
 10
-260.0
 20
113.0
 30
0.0
 40
44.00000000000001
100
AcDbArc
 50
90.0
 51
180.0
  0
ARC
  5
202
330
1B5
100
AcDbEntity
  8
0
  6
Continuous
 62
     7
370
    25
100
AcDbCircle
 10
260.0
 20
113.0
 30
0.0
 40
44.0
100
AcDbArc
 50
0.0
 51
90.0
  0
ARC
  5
203
330
1B5
100
AcDbEntity
  8
0
  6
Continuous
 62
     7
370
    25
100
AcDbCircle
 10
260.0
 20
113.0
 30
0.0
 40
44.9999999999999
100
AcDbArc
 50
0.0
 51
90.0
  0
ARC
  5
204
330
1B5
100
AcDbEntity
  8
0
  6
Continuous
 62
     7
370
    25
100
AcDbCircle
 10
-260.0
 20
113.0
 30
0.0
 40
45.00000000000011
100
AcDbArc
 50
90.0
 51
180.0
  0
ARC
  5
205
330
1B5
100
AcDbEntity
  8
0
  6
Continuous
 62
     7
370
    25
100
AcDbCircle
 10
-304.0
 20
-89.0
 30
0.0
 40
1.000000000000057
100
AcDbArc
 50
180.0
 51
270.0
  0
ARC
  5
206
330
1B5
100
AcDbEntity
  8
0
  6
Continuous
 62
     7
370
    25
100
AcDbCircle
 10
304.0
 20
-89.0
 30
0.0
 40
1.000000000000114
100
AcDbArc
 50
270.0
 51
360.0
  0
VIEWPORT
  5
3D6
330
1B5
100
AcDbEntity
  8
0
100
AcDbViewport
 10
0.0
 20
0.0
 30
0.0
 40
205.6
 41
156.0
 68
     1
 69
     1
 12
0.0
 22
9.0
 13
0.0
 23
0.0
 14
10.0
 24
10.0
 15
10.0
 25
10.0
 16
0.0
 26
0.0
 36
1.0
 17
0.0
 27
0.0
 37
0.0
 42
50.0
 43
0.0
 44
0.0
 45
918.0
 50
0.0
 51
0.0
 72
   100
 90
   557152
  1

281
     0
 71
     1
 74
     0
110
0.0
120
0.0
130
0.0
111
1.0
121
0.0
131
0.0
112
0.0
122
1.0
132
0.0
 79
     0
146
0.0
  0
ENDBLK
  5
1B8
330
1B5
100
AcDbEntity
  8
0
100
AcDbBlockEnd
  0
BLOCK
  5
209
330
207
100
AcDbEntity
  8
0
100
AcDbBlockBegin
  2
*Paper_Space4
 70
     0
 10
0.0
 20
0.0
 30
0.0
  3
*Paper_Space4
  1

  0
SPLINE
  5
20C
330
207
100
AcDbEntity
  8
0
  6
Continuous
 62
     7
370
    25
100
AcDbSpline
210
0.0
220
0.0
230
1.0
 70
     8
 71
     3
 72
    26
 73
    22
 74
     0
 42
0.000000001
 43
0.00000001
 40
0.0
 40
0.0
 40
0.0
 40
0.0
 40
0.0284192653996173
 40
0.0823252447925372
 40
0.1362212455240967
 40
0.1900963421324757
 40
0.243949082815577
 40
0.2977809149184614
 40
0.3515949577104978
 40
0.4053952503453245
 40
0.459186315622188
 40
0.5129729229587118
 40
0.5667599698454415
 40
0.6205512025107429
 40
0.6743512082558294
 40
0.7281650100869853
 40
0.7819975561528938
 40
0.8358535458339792
 40
0.8897370949980475
 40
0.9436511366981397
 40
1.0
 40
1.0
 40
1.0
 40
1.0
 10
72.33203909589602
 20
189.0073578642001
 30
0.0
 10
72.81127975433836
 20
188.7380385725907
 30
0.0
 10
74.199549435698
 20
187.9578714466171
 30
0.0
 10
76.66038062632447
 20
186.7729785876243
 30
0.0
 10
79.76074590081106
 20
185.5090414118142
 30
0.0
 10
83.03277664379347
 20
184.4044644931316
 30
0.0
 10
86.4494125708519
 20
183.4641934761529
 30
0.0
 10
89.98778738129046
 20
182.6949077152507
 30
0.0
 10
93.62295628457564
 20
182.1014113383299
 30
0.0
 10
97.32971773009163
 20
181.6875797344962
 30
0.0
 10
101.0823126723442
 20
181.4560739861068
 30
0.0
 10
104.8547103409822
 20
181.408389802927
 30
0.0
 10
108.6207165194786
 20
181.5448281938691
 30
0.0
 10
112.3541912038461
 20
181.8644858318649
 30
0.0
 10
116.0291922845908
 20
182.3652908604518
 30
0.0
 10
119.6203502248279
 20
183.0439293961517
 30
0.0
 10
123.1023832178276
 20
183.8962690894408
 30
0.0
 10
126.4526110226171
 20
184.9159549357502
 30
0.0
 10
129.6422572588388
 20
186.0998663445345
 30
0.0
 10
132.7145677970169
 20
187.4477168607723
 30
0.0
 10
134.5959110623002
 20
188.4798801320037
 30
0.0
 10
135.5573545729483
 20
189.0073578642001
 30
0.0
  0
SPLINE
  5
213
330
207
100
AcDbEntity
  8
0
  6
Continuous
 62
     7
370
    25
100
AcDbSpline
210
0.0
220
0.0
230
1.0
 70
     8
 71
     3
 72
    14
 73
    10
 74
     0
 42
0.000000001
 43
0.00000001
 40
0.0
 40
0.0
 40
0.0
 40
0.0
 40
0.0852143123030891
 40
0.2469814847252477
 40
0.4088161151014295
 40
0.5705667866059002
 40
0.7320943221310862
 40
0.8932139824373904
 40
1.0
 40
1.0
 40
1.0
 40
1.0
 10
-295.3634871211081
 20
452.8087153851232
 30
0.0
 10
-295.8305201790423
 20
452.5317532042758
 30
0.0
 10
-297.1841486358923
 20
451.72901797366
 30
0.0
 10
-299.2497703130038
 20
450.2998070918507
 30
0.0
 10
-301.4631340637212
 20
448.4902166862545
 30
0.0
 10
-303.4110170204837
 20
446.5716364604517
 30
0.0
 10
-305.0660524429721
 20
444.5571649059024
 30
0.0
 10
-306.314722618979
 20
442.704367591475
 30
0.0
 10
-306.8767476162804
 20
441.5007337121982
 30
0.0
 10
-307.1007682929226
 20
441.0209705746872
 30
0.0
  0
SPLINE
  5
215
330
207
100
AcDbEntity
  8
0
  6
Continuous
 62
     7
370
    25
100
AcDbSpline
210
0.0
220
0.0
230
1.0
 70
     8
 71
     3
 72
    14
 73
    10
 74
     0
 42
0.000000001
 43
0.00000001
 40
0.0
 40
0.0
 40
0.0
 40
0.0
 40
0.1459096579876191
 40
0.3060495302881062
 40
0.4669012592118731
 40
0.6283078121617961
 40
0.7900843644919713
 40
0.9520676443261227
 40
1.0
 40
1.0
 40
1.0
 40
1.0
 10
-307.1048376567135
 20
413.0173583427268
 30
0.0
 10
-306.7778315413088
 20
412.3680533122627
 30
0.0
 10
-306.0919271988462
 20
411.0061181098371
 30
0.0
 10
-304.6799470156314
 20
409.0142539452128
 30
0.0
 10
-302.963781936859
 20
407.0371801669986
 30
0.0
 10
-300.9625341564456
 20
405.1531885297464
 30
0.0
 10
-298.6973921820276
 20
403.376214165837
 30
0.0
 10
-296.7803158253035
 20
402.1042394767265
 30
0.0
 10
-295.6268668630529
 20
401.4279024433914
 30
0.0
 10
-295.3634871211082
 20
401.2734669381048
 30
0.0
  0
LWPOLYLINE
  5
225
330
207
100
AcDbEntity
  8
0
  6
Continuous
 62
     7
370
    25
100
AcDbPolyline
 90
       18
 70
   128
 43
0.0
 10
72.8319984622
 20
204.5711413405
 10
75.8354373857
 20
202.9905296913
 10
79.0786945998
 20
201.5766399988
 10
82.5340997775
 20
200.3415350712
 10
86.1721726201
 20
199.2957523884
 10
89.9618743728
 20
198.4482141994
 10
93.8708726366
 20
197.8061514012
 10
97.8658172165
 20
197.3750418473
 10
101.912624654
 20
197.1585636124
 10
105.9767690148
 20
197.1585636124
 10
110.0235764523
 20
197.3750418473
 10
114.0185210322
 20
197.8061514012
 10
117.927519296
 20
198.4482141994
 10
121.7172210488
 20
199.2957523884
 10
125.3552938914
 20
200.3415350712
 10
128.810699069
 20
201.5766399988
 10
132.0539562831
 20
202.9905296913
 10
135.0573952066
 20
204.5711413405
  0
LWPOLYLINE
  5
227
330
207
100
AcDbEntity
  8
0
  6
Continuous
 62
     7
370
    25
100
AcDbPolyline
 90
       18
 70
   128
 43
0.0
 10
135.7645019878
 20
203.3463964727
 10
132.6928030888
 20
201.7298618315
 10
129.3758354834
 20
200.2838382823
 10
125.8418983699
 20
199.0206627882
 10
122.1211420537
 20
197.9511123171
 10
118.2453107156
 20
197.0843118966
 10
114.2474715822
 20
196.4276567621
 10
110.1617328073
 20
195.9867492638
 10
106.0229524735
 20
195.765351069
 10
101.8664411954
 20
195.765351069
 10
97.7276608616
 20
195.9867492638
 10
93.6419220867
 20
196.4276567621
 10
89.6440829532
 20
197.0843118966
 10
85.7682516152
 20
197.9511123171
 10
82.0474952989
 20
199.0206627882
 10
78.5135581854
 20
200.2838382823
 10
75.1965905801
 20
201.7298618315
 10
72.124891681
 20
203.3463964727
  0
LWPOLYLINE
  5
22A
330
207
100
AcDbEntity
  8
0
  6
Continuous
 62
     7
370
    25
100
AcDbPolyline
 90
       18
 70
   128
 43
0.0
 10
72.124891681
 20
189.4652026707
 10
75.1965905801
 20
187.8486680295
 10
78.5135581854
 20
186.4026444803
 10
82.0474952989
 20
185.1394689861
 10
85.7682516152
 20
184.0699185151
 10
89.6440829532
 20
183.2031180945
 10
93.6419220867
 20
182.54646296
 10
97.7276608616
 20
182.1055554617
 10
101.8664411954
 20
181.8841572669
 10
106.0229524735
 20
181.8841572669
 10
110.1617328073
 20
182.1055554617
 10
114.2474715822
 20
182.54646296
 10
118.2453107156
 20
183.2031180945
 10
122.1211420537
 20
184.0699185151
 10
125.8418983699
 20
185.1394689861
 10
129.3758354834
 20
186.4026444803
 10
132.6928030888
 20
187.8486680295
 10
135.7645019878
 20
189.4652026707
  0
LWPOLYLINE
  5
22D
330
207
100
AcDbEntity
  8
0
  6
Continuous
 62
     7
370
    25
100
AcDbPolyline
 90
       18
 70
   128
 43
0.0
 10
-294.8635277548
 20
452.7592073346
 10
-297.6015241058
 20
451.0253589501
 10
-300.0507182649
 20
449.1530664133
 10
-302.190214571
 20
447.1583034639
 10
-304.0017595961
 20
445.0580887162
 10
-305.4698978766
 20
442.8703404619
 10
-306.5821037745
 20
440.6137237976
 10
-307.3288883411
 20
438.3074913812
 10
-307.7038802739
 20
435.9713191744
 10
-307.7038802739
 20
433.6251385747
 10
-307.3288883411
 20
431.2889663679
 10
-306.5821037745
 20
428.9827339514
 10
-305.4698978766
 20
426.7261172872
 10
-304.0017595961
 20
424.5383690328
 10
-302.190214571
 20
422.4381542851
 10
-300.0507182649
 20
420.4433913358
 10
-297.6015241058
 20
418.571098799
 10
-294.8635277548
 20
416.8372504144
  0
LWPOLYLINE
  5
240
330
207
100
AcDbEntity
  8
0
  6
Continuous
 62
     7
370
    25
100
AcDbPolyline
 90
        9
 70
   128
 43
0.0
 10
-303.7098926164
 20
342.3012193082
 10
-303.3718460254
 20
340.1745119105
 10
-302.6948943968
 20
338.0749294443
 10
-301.6848281502
 20
336.0204310419
 10
-300.3502870575
 20
334.0285902013
 10
-298.7026863404
 20
332.1164444686
 10
-296.7561190293
 20
330.3003497042
 10
-294.5272354154
 20
328.5958401805
 10
-292.03510063
 20
327.0174957069
  0
LWPOLYLINE
  5
246
330
207
100
AcDbEntity
  8
0
  6
Continuous
 62
     7
370
    25
100
AcDbPolyline
 90
        9
 70
   128
 43
0.0
 10
-292.03510063
 20
-316.4166640591
 10
-294.5272354154
 20
-314.8383195854
 10
-296.7561190293
 20
-313.1338100618
 10
-298.7026863404
 20
-311.3177152974
 10
-300.3502870575
 20
-309.4055695646
 10
-301.6848281502
 20
-307.4137287241
 10
-302.6948943968
 20
-305.3592303217
 10
-303.3718460254
 20
-303.2596478555
 10
-303.7098926164
 20
-301.1329404578
  0
LWPOLYLINE
  5
24C
330
207
100
AcDbEntity
  8
0
  6
Continuous
 62
     7
370
    25
100
AcDbPolyline
 90
        9
 70
   128
 43
0.0
 10
-292.03510063
 20
328.6505773306
 10
-294.5272354154
 20
330.2289218043
 10
-296.7561190293
 20
331.933431328
 10
-298.7026863404
 20
333.7495260924
 10
-300.3502870575
 20
335.6616718251
 10
-301.6848281502
 20
337.6535126657
 10
-302.6948943968
 20
339.7080110681
 10
-303.3718460254
 20
341.8075935342
 10
-303.7098926164
 20
343.934300932
  0
LINE
  5
25C
330
207
100
AcDbEntity
  8
0
  6
Continuous
 62
     7
370
    25
100
AcDbLine
 10
-303.7508293826
 20
408.010479803
 30
0.0
 11
-303.7508293826
 21
-300.0885018226
 31
0.0
  0
LINE
  5
25D
330
207
100
AcDbEntity
  8
0
  6
Continuous
 62
     7
370
    25
100
AcDbLine
 10
135.5573545729
 20
189.0073578642
 30
0.0
 11
278.3929243726
 21
271.4645771583
 31
0.0
  0
LINE
  5
25E
330
207
100
AcDbEntity
  8
0
  6
Continuous
 62
     7
370
    25
100
AcDbLine
 10
-295.3634871211
 20
401.2734669381
 30
0.0
 11
72.3320390959
 21
189.0073578642
 31
0.0
  0
LINE
  5
25F
330
207
100
AcDbEntity
  8
0
  6
Continuous
 62
     7
370
    25
100
AcDbLine
 10
278.8929650063
 20
272.3306260207
 30
0.0
 11
278.8929650063
 21
286.2118198227
 31
0.0
  0
LINE
  5
260
330
207
100
AcDbEntity
  8
0
  6
Continuous
 62
     7
370
    25
100
AcDbLine
 10
278.3929243726
 20
287.0778686851
 30
0.0
 11
-151.5279985888
 21
535.2659346792
 31
0.0
  0
LINE
  5
261
330
207
100
AcDbEntity
  8
0
  6
Continuous
 62
     7
370
    25
100
AcDbLine
 10
-308.7508293826
 20
433.9816880626
 30
0.0
 11
-308.7508293826
 21
420.1004942606
 31
0.0
  0
LINE
  5
262
330
207
100
AcDbEntity
  8
0
  6
Continuous
 62
     7
370
    25
100
AcDbLine
 10
-152.5279173214
 20
535.2659346792
 30
0.0
 11
-295.3634871211
 21
452.8087153851
 31
0.0
  0
LINE
  5
263
330
207
100
AcDbEntity
  8
0
  6
Continuous
 62
     7
370
    25
100
AcDbLine
 10
-303.7098926164
 20
407.9634828087
 30
0.0
 11
-303.7098926164
 21
343.934300932
 31
0.0
  0
LINE
  5
264
330
207
100
AcDbEntity
  8
0
  6
Continuous
 62
     7
370
    25
100
AcDbLine
 10
-303.7376857758
 20
344.386825165
 30
0.0
 11
-303.7376857758
 21
-300.6804162248
 31
0.0
  0
LINE
  5
265
330
207
100
AcDbEntity
  8
0
  6
Continuous
 62
     7
370
    25
100
AcDbLine
 10
-303.7376857758
 20
-300.6804162248
 30
0.0
 11
-303.7508293826
 21
-300.0885018226
 31
0.0
  0
LINE
  5
266
330
207
100
AcDbEntity
  8
0
  6
Continuous
 62
     7
370
    25
100
AcDbLine
 10
-303.7376857758
 20
-300.6804162248
 30
0.0
 11
-303.7098926164
 21
-300.6964608742
 31
0.0
  0
LINE
  5
267
330
207
100
AcDbEntity
  8
0
  6
Continuous
 62
     7
370
    25
100
AcDbLine
 10
102.9193599188
 20
-535.4385317373
 30
0.0
 11
102.9193599188
 21
109.6287096525
 31
0.0
  0
LINE
  5
268
330
207
100
AcDbEntity
  8
0
  6
Continuous
 62
     7
370
    25
100
AcDbLine
 10
102.1354800206
 20
181.4734351908
 30
0.0
 11
102.1354800206
 21
109.6447543019
 31
0.0
  0
LINE
  5
269
330
207
100
AcDbEntity
  8
0
  6
Continuous
 62
     7
370
    25
100
AcDbLine
 10
275.7716446628
 20
-445.817349783
 30
0.0
 11
275.7716446628
 21
269.9513445918
 31
0.0
  0
LINE
  5
26A
330
207
100
AcDbEntity
  8
0
  6
Continuous
 62
     7
370
    25
100
AcDbLine
 10
132.2289680819
 20
-528.682773133
 30
0.0
 11
275.7716446628
 21
-445.817349783
 31
0.0
  0
LINE
  5
26B
330
207
100
AcDbEntity
  8
0
  6
Continuous
 62
     7
370
    25
100
AcDbLine
 10
102.248814573
 20
-535.0514341487
 30
0.0
 11
102.9193599188
 21
-535.4385317373
 31
0.0
  0
LINE
  5
26C
330
207
100
AcDbEntity
  8
0
  6
Continuous
 62
     7
370
    25
100
AcDbLine
 10
102.248814573
 20
109.6418849577
 30
0.0
 11
102.248814573
 21
-535.0514341487
 31
0.0
  0
LINE
  5
26D
330
207
100
AcDbEntity
  8
0
  6
Continuous
 62
     7
370
    25
100
AcDbLine
 10
135.7645019878
 20
203.3463964727
 30
0.0
 11
135.7645019878
 21
189.4652026707
 31
0.0
  0
LINE
  5
26E
330
207
100
AcDbEntity
  8
0
  6
Continuous
 62
     7
370
    25
100
AcDbLine
 10
72.124891681
 20
203.3463964727
 30
0.0
 11
72.124891681
 21
189.4652026707
 31
0.0
  0
LINE
  5
26F
330
207
100
AcDbEntity
  8
0
  6
Continuous
 62
     7
370
    25
100
AcDbLine
 10
-294.8635277548
 20
416.8372504144
 30
0.0
 11
72.8319984622
 21
204.5711413405
 31
0.0
  0
LINE
  5
270
330
207
100
AcDbEntity
  8
0
  6
Continuous
 62
     7
370
    25
100
AcDbLine
 10
-152.0279579551
 20
535.2164266287
 30
0.0
 11
-294.8635277548
 21
452.7592073346
 31
0.0
  0
LINE
  5
271
330
207
100
AcDbEntity
  8
0
  6
Continuous
 62
     7
370
    25
100
AcDbLine
 10
277.8929650063
 20
287.0283606346
 30
0.0
 11
-152.0279579551
 21
535.2164266287
 31
0.0
  0
LINE
  5
272
330
207
100
AcDbEntity
  8
0
  6
Continuous
 62
     7
370
    25
100
AcDbLine
 10
135.0573952066
 20
204.5711413405
 30
0.0
 11
277.8929650063
 21
287.0283606346
 31
0.0
  0
LINE
  5
273
330
207
100
AcDbEntity
  8
0
  6
Continuous
 62
     7
370
    25
100
AcDbLine
 10
278.6000717875
 20
285.8036157668
 30
0.0
 11
135.7645019878
 21
203.3463964727
 31
0.0
  0
LINE
  5
274
330
207
100
AcDbEntity
  8
0
  6
Continuous
 62
     7
370
    25
100
AcDbLine
 10
72.124891681
 20
203.3463964727
 30
0.0
 11
-295.570634536
 21
415.6125055466
 31
0.0
  0
LINE
  5
275
330
207
100
AcDbEntity
  8
0
  6
Continuous
 62
     7
370
    25
100
AcDbLine
 10
278.6000717875
 20
271.9224219648
 30
0.0
 11
278.6000717875
 21
285.8036157668
 31
0.0
  0
LINE
  5
276
330
207
100
AcDbEntity
  8
0
  6
Continuous
 62
     7
370
    25
100
AcDbLine
 10
135.7645019878
 20
189.4652026707
 30
0.0
 11
278.6000717875
 21
271.9224219648
 31
0.0
  0
LINE
  5
277
330
207
100
AcDbEntity
  8
0
  6
Continuous
 62
     7
370
    25
100
AcDbLine
 10
-295.570634536
 20
401.7313117446
 30
0.0
 11
72.124891681
 21
189.4652026707
 31
0.0
  0
LINE
  5
278
330
207
100
AcDbEntity
  8
0
  6
Continuous
 62
     7
370
    25
100
AcDbLine
 10
-295.570634536
 20
415.6125055466
 30
0.0
 11
-295.570634536
 21
401.7313117446
 31
0.0
  0
LINE
  5
279
330
207
100
AcDbEntity
  8
0
  6
Continuous
 62
     7
370
    25
100
AcDbLine
 10
75.660425587
 20
-528.682773133
 30
0.0
 11
75.660425587
 21
114.751386633
 31
0.0
  0
LINE
  5
27A
330
207
100
AcDbEntity
  8
0
  6
Continuous
 62
     7
370
    25
100
AcDbLine
 10
102.1354800206
 20
108.0116726781
 30
0.0
 11
102.1354800206
 21
-535.4224870879
 31
0.0
  0
LINE
  5
27B
330
207
100
AcDbEntity
  8
0
  6
Continuous
 62
     7
370
    25
100
AcDbLine
 10
-292.03510063
 20
327.0174957069
 30
0.0
 11
75.660425587
 21
114.751386633
 31
0.0
  0
LINE
  5
27C
330
207
100
AcDbEntity
  8
0
  6
Continuous
 62
     7
370
    25
100
AcDbLine
 10
-303.4856159994
 20
342.3240487389
 30
0.0
 11
-303.7098926164
 21
342.3012193082
 31
0.0
  0
LINE
  5
27D
330
207
100
AcDbEntity
  8
0
  6
Continuous
 62
     7
370
    25
100
AcDbLine
 10
102.248814573
 20
108.3827256172
 30
0.0
 11
102.1354800206
 21
108.0116726781
 31
0.0
  0
LINE
  5
27E
330
207
100
AcDbEntity
  8
0
  6
Continuous
 62
     7
370
    25
100
AcDbLine
 10
102.248814573
 20
-535.0514341487
 30
0.0
 11
102.1354800206
 21
-535.4224870879
 31
0.0
  0
LINE
  5
27F
330
207
100
AcDbEntity
  8
0
  6
Continuous
 62
     7
370
    25
100
AcDbLine
 10
-292.03510063
 20
-316.4166640591
 30
0.0
 11
75.660425587
 21
-528.682773133
 31
0.0
  0
LINE
  5
280
330
207
100
AcDbEntity
  8
0
  6
Continuous
 62
     7
370
    25
100
AcDbLine
 10
-292.03510063
 20
327.0174957069
 30
0.0
 11
-292.03510063
 21
-316.4166640591
 31
0.0
  0
LINE
  5
281
330
207
100
AcDbEntity
  8
0
  6
Continuous
 62
     7
370
    25
100
AcDbLine
 10
-303.7098926164
 20
342.3012193082
 30
0.0
 11
-303.7098926164
 21
-301.1329404578
 31
0.0
  0
LINE
  5
282
330
207
100
AcDbEntity
  8
0
  6
Continuous
 62
     7
370
    25
100
AcDbLine
 10
-292.03510063
 20
328.6505773306
 30
0.0
 11
75.660425587
 21
116.3844682567
 31
0.0
  0
LINE
  5
283
330
207
100
AcDbEntity
  8
0
  6
Continuous
 62
     8
370
    25
100
AcDbLine
 10
132.2289680819
 20
187.2823434205
 30
0.0
 11
132.2289680819
 21
-528.682773133
 31
0.0
  0
LINE
  5
284
330
207
100
AcDbEntity
  8
0
  6
Continuous
 62
     8
370
    25
100
AcDbLine
 10
75.660425587
 20
116.3844682567
 30
0.0
 11
75.660425587
 21
187.2960674096
 31
0.0
  0
LINE
  5
285
330
207
100
AcDbEntity
  8
0
  6
Continuous
 62
     8
370
    25
100
AcDbLine
 10
-292.03510063
 20
399.3520303157
 30
0.0
 11
-292.03510063
 21
328.6505773306
 31
0.0
  0
ARC
  5
286
330
207
100
AcDbEntity
  8
0
  6
Continuous
 62
     7
370
    25
100
AcDbCircle
 10
277.8929650063
 20
286.2118198227
 30
0.0
 40
0.9999999999999432
100
AcDbArc
 50
360.0
 51
60.0026882664
  0
ARC
  5
287
330
207
100
AcDbEntity
  8
0
  6
Continuous
 62
     7
370
    25
100
AcDbCircle
 10
277.8929650063
 20
272.3306260207
 30
0.0
 40
0.9999999999999294
100
AcDbArc
 50
299.9973117336
 51
0.0
  0
ARC
  5
288
330
207
100
AcDbEntity
  8
0
  6
Continuous
 62
     7
370
    25
100
AcDbCircle
 10
-152.0279579551
 20
534.3998858168
 30
0.0
 40
0.9999999999999228
100
AcDbArc
 50
60.0026882663
 51
119.9973117337
  0
ARC
  5
289
330
207
100
AcDbEntity
  8
0
  6
Continuous
 62
     7
370
    25
100
AcDbCircle
 10
-290.3694268887
 20
344.9807620422
 30
0.0
 40
13.38144635998338
100
AcDbArc
 50
182.5439148193
 51
184.4852466135
  0
ARC
  5
28A
330
207
100
AcDbEntity
  8
0
  6
Continuous
 62
     7
370
    25
100
AcDbCircle
 10
104.9524185348
 20
-477.3016778182
 30
0.0
 40
58.17239131185347
100
AcDbArc
 50
267.9971701067
 51
297.9623762802
  0
ARC
  5
28B
330
207
100
AcDbEntity
  8
0
  6
Continuous
 62
     7
370
    25
100
AcDbCircle
 10
103.9435292844
 20
178.8223898887
 30
0.0
 40
69.20125943595096
100
AcDbArc
 50
268.50283965
 51
269.1519991827
  0
ARC
  5
28C
330
207
100
AcDbEntity
  8
0
  6
Continuous
 62
     7
370
    25
100
AcDbCircle
 10
134.2292858864
 20
203.2765356205
 30
0.0
 40
1.536804807572202
100
AcDbArc
 50
2.6054784857
 51
57.39452166
  0
ARC
  5
28D
330
207
100
AcDbEntity
  8
0
  6
Continuous
 62
     7
370
    25
100
AcDbCircle
 10
73.6601077824
 20
203.2765356205
 30
0.0
 40
1.536804807572231
100
AcDbArc
 50
122.60547834
 51
177.3945215143
  0
ARC
  5
28E
330
207
100
AcDbEntity
  8
0
  6
Continuous
 62
     7
370
    25
100
AcDbCircle
 10
277.0648556861
 20
285.7337549146
 30
0.0
 40
1.536804807572354
100
AcDbArc
 50
2.6054784857
 51
57.39452166
  0
ARC
  5
28F
330
207
100
AcDbEntity
  8
0
  6
Continuous
 62
     7
370
    25
100
AcDbCircle
 10
-294.0354184346
 20
415.5426446944
 30
0.0
 40
1.536804807571992
100
AcDbArc
 50
122.60547834
 51
177.3945215143
  0
ARC
  5
290
330
207
100
AcDbEntity
  8
0
  6
Continuous
 62
     7
370
    25
100
AcDbCircle
 10
-293.0458840836
 20
433.9809894631
 30
0.0
 40
15.68642959008014
100
AcDbArc
 50
154.4339443624
 51
205.8032059911
  0
ARC
  5
291
330
207
100
AcDbEntity
  8
0
  6
Continuous
 62
     7
370
    25
100
AcDbCircle
 10
-292.7760962539
 20
420.2053000098
 30
0.0
 40
15.97507692551421
100
AcDbArc
 50
180.3758961665
 51
205.640590189
  0
ARC
  5
292
330
207
100
AcDbEntity
  8
0
  6
Continuous
 62
     7
370
    25
100
AcDbCircle
 10
102.5158061168
 20
-478.5587563129
 30
0.0
 40
56.86500264295887
100
AcDbArc
 50
241.8185423295
 51
269.6167899129
  0
ARC
  5
293
330
207
100
AcDbEntity
  8
0
  6
Continuous
 62
     7
370
    25
100
AcDbCircle
 10
102.5158061168
 20
164.875403453
 30
0.0
 40
56.86500264295765
100
AcDbArc
 50
241.8185423295
 51
269.6167899129
  0
ARC
  5
294
330
207
100
AcDbEntity
  8
0
  6
Continuous
 62
     7
370
    25
100
AcDbCircle
 10
102.5158061168
 20
166.5084850768
 30
0.0
 40
56.86500264295819
100
AcDbArc
 50
241.8185423295
 51
269.6167899129
  0
ARC
  5
295
330
207
100
AcDbEntity
  8
0
  6
Continuous
 62
     8
370
    25
100
AcDbCircle
 10
135.2888546063
 20
189.4046296018
 30
0.0
 40
0.4794888197455329
100
AcDbArc
 50
304.0399409719
 51
7.2574772947
  0
ARC
  5
296
330
207
100
AcDbEntity
  8
0
  6
Continuous
 62
     8
370
    25
100
AcDbCircle
 10
72.6005395938
 20
189.4046297276
 30
0.0
 40
0.4794893308371723
100
AcDbArc
 50
172.7425456364
 51
235.9598306168
  0
ARC
  5
297
330
207
100
AcDbEntity
  8
0
  6
Continuous
 62
     8
370
    25
100
AcDbCircle
 10
278.1243862316
 20
271.8618579361
 30
0.0
 40
0.4795255463717346
100
AcDbArc
 50
304.0563508284
 51
7.255829565
  0
ARC
  5
298
330
207
100
AcDbEntity
  8
0
  6
Continuous
 62
     8
370
    25
100
AcDbCircle
 10
-295.0806326337
 20
401.6772250072
 30
0.0
 40
0.4929779299529023
100
AcDbArc
 50
173.7011524782
 51
234.9866671284
  0
ARC
  5
299
330
207
100
AcDbEntity
  8
0
  6
Continuous
 62
     8
370
    25
100
AcDbCircle
 10
278.3925079438
 20
286.2617261996
 30
0.0
 40
0.5029392784938423
100
AcDbArc
 50
294.3746582936
 51
354.3052007488
  0
ARC
  5
29A
330
207
100
AcDbEntity
  8
0
  6
Continuous
 62
     8
370
    25
100
AcDbCircle
 10
278.1858850612
 20
286.6194793055
 30
0.0
 40
0.5029772359016599
100
AcDbArc
 50
65.6928809539
 51
125.6175774752
  0
ARC
  5
29B
330
207
100
AcDbEntity
  8
0
  6
Continuous
 62
     8
370
    25
100
AcDbCircle
 10
278.3925079438
 20
272.3805323976
 30
0.0
 40
0.502939278493645
100
AcDbArc
 50
294.3746582936
 51
354.3052007488
  0
ARC
  5
29C
330
207
100
AcDbEntity
  8
0
  6
Continuous
 62
     8
370
    25
100
AcDbCircle
 10
-151.7350379003
 20
534.8075452996
 30
0.0
 40
0.5029772359018504
100
AcDbArc
 50
65.6928809539
 51
125.6175774752
  0
ARC
  5
29D
330
207
100
AcDbEntity
  8
0
  6
Continuous
 62
     8
370
    25
100
AcDbCircle
 10
-282.8533411231
 20
439.9906091188
 30
0.0
 40
27.4958448774417
100
AcDbArc
 50
207.832836595
 51
242.4503607888
  0
ARC
  5
29E
330
207
100
AcDbEntity
  8
0
  6
Continuous
 62
     8
370
    25
100
AcDbCircle
 10
-295.1564627814
 20
452.3502843189
 30
0.0
 40
0.503019843109657
100
AcDbArc
 50
54.3838014721
 51
114.2912901722
  0
ARC
  5
29F
330
207
100
AcDbEntity
  8
0
  6
Continuous
 62
     8
370
    25
100
AcDbCircle
 10
-282.8610935083
 20
426.0991807976
 30
0.0
 40
27.4831853197709
100
AcDbArc
 50
207.7738380974
 51
242.4548215605
  0
ARC
  5
2A0
330
207
100
AcDbEntity
  8
0
  6
Continuous
 62
     8
370
    25
100
AcDbCircle
 10
-152.32087801
 20
534.8075452996
 30
0.0
 40
0.5029772359017468
100
AcDbArc
 50
54.3824225248
 51
114.3071190461
  0
VIEWPORT
  5
3D8
330
207
100
AcDbEntity
  8
0
100
AcDbViewport
 10
0.0
 20
0.0
 30
0.0
 40
205.6
 41
156.0
 68
     1
 69
     1
 12
0.0
 22
9.0
 13
0.0
 23
0.0
 14
10.0
 24
10.0
 15
10.0
 25
10.0
 16
0.0
 26
0.0
 36
1.0
 17
0.0
 27
0.0
 37
0.0
 42
50.0
 43
0.0
 44
0.0
 45
918.0
 50
0.0
 51
0.0
 72
   100
 90
   557152
  1

281
     0
 71
     1
 74
     0
110
0.0
120
0.0
130
0.0
111
1.0
121
0.0
131
0.0
112
0.0
122
1.0
132
0.0
 79
     0
146
0.0
  0
ENDBLK
  5
20A
330
207
100
AcDbEntity
  8
0
100
AcDbBlockEnd
  0
BLOCK
  5
2A3
330
2A1
100
AcDbEntity
  8
0
100
AcDbBlockBegin
  2
*Paper_Space5
 70
     0
 10
0.0
 20
0.0
 30
0.0
  3
*Paper_Space5
  1

  0
SPLINE
  5
2A6
330
2A1
100
AcDbEntity
  8
0
  6
Continuous
 62
     7
370
    25
100
AcDbSpline
210
0.0
220
0.0
230
1.0
 70
     8
 71
     3
 72
    26
 73
    22
 74
     0
 42
0.000000001
 43
0.00000001
 40
0.0
 40
0.0
 40
0.0
 40
0.0
 40
0.0283531060441666
 40
0.0822085286297241
 40
0.1360489520126739
 40
0.1898685474627114
 40
0.2436733634195188
 40
0.2974694029352372
 40
0.3512625986266892
 40
0.4050582935245359
 40
0.4588610556930494
 40
0.5126769705592518
 40
0.566512314354065
 40
0.6203735749782624
 40
0.6742673708090615
 40
0.728200173918362
 40
0.7821776772752339
 40
0.8362035367455068
 40
0.8902770639518607
 40
0.9443892821592408
 40
1.0
 40
1.0
 40
1.0
 40
1.0
 10
156.4152703824366
 20
243.0357370845771
 30
0.0
 10
157.0059205095522
 20
242.8804027864238
 30
0.0
 10
158.7184834227475
 20
242.43001812391
 30
0.0
 10
161.6573062428855
 20
241.7984408158515
 30
0.0
 10
165.2478118367131
 20
241.1960790734462
 30
0.0
 10
168.9234339121053
 20
240.754579867101
 30
0.0
 10
172.6558003538266
 20
240.474308324197
 30
0.0
 10
176.4197647855223
 20
240.3577080525289
 30
0.0
 10
180.1890515526215
 20
240.4053342286279
 30
0.0
 10
183.9375596444196
 20
240.6169096095533
 30
0.0
 10
187.6392776162261
 20
240.9910379120181
 30
0.0
 10
191.2685672716857
 20
241.5253003668284
 30
0.0
 10
194.8003356298665
 20
242.2162752544111
 30
0.0
 10
198.2101950828442
 20
243.059580951287
 30
0.0
 10
201.4745626102234
 20
244.0499499784513
 30
0.0
 10
204.5710085607668
 20
245.1812290940925
 30
0.0
 10
207.4775714825867
 20
246.4467083408646
 30
0.0
 10
210.1757802376367
 20
247.8382340671134
 30
0.0
 10
212.6396149386965
 20
249.3498153436539
 30
0.0
 10
214.8971952512915
 20
250.9790167314821
 30
0.0
 10
216.1765796467399
 20
252.1552499127101
 30
0.0
 10
216.8250081994898
 20
252.7513984839396
 30
0.0
  0
SPLINE
  5
2AD
330
2A1
100
AcDbEntity
  8
0
  6
Continuous
 62
     7
370
    25
100
AcDbSpline
210
0.0
220
0.0
230
1.0
 70
     8
 71
     3
 72
    11
 73
     7
 74
     0
 42
0.000000001
 43
0.00000001
 40
0.0
 40
0.0
 40
0.0
 40
0.0
 40
0.1692365226899418
 40
0.4894675627960214
 40
0.8087893297209013
 40
0.9999999999999999
 40
0.9999999999999999
 40
0.9999999999999999
 40
0.9999999999999999
 10
-322.2981660976837
 20
414.8969693095132
 30
0.0
 10
-322.6085380458385
 20
414.5842382093222
 30
0.0
 10
-323.5061988971072
 20
413.6797541949499
 30
0.0
 10
-324.7619809489528
 20
412.1176823890246
 30
0.0
 10
-325.8522839704958
 20
410.4610987139416
 30
0.0
 10
-326.3069194496263
 20
409.4022383542704
 30
0.0
 10
-326.4771949274653
 20
409.0056613997999
 30
0.0
  0
SPLINE
  5
2AF
330
2A1
100
AcDbEntity
  8
0
  6
Continuous
 62
     7
370
    25
100
AcDbSpline
210
0.0
220
0.0
230
1.0
 70
     8
 71
     3
 72
    18
 73
    14
 74
     0
 42
0.000000001
 43
0.00000001
 40
0.0
 40
0.0
 40
0.0
 40
0.0
 40
0.0911372503591915
 40
0.1875982555338902
 40
0.2847327575761889
 40
0.3823722124835154
 40
0.480320634661343
 40
0.5784155992221184
 40
0.6765394501427799
 40
0.7746233718218732
 40
0.8726446568621881
 40
0.9705974714098529
 40
1.0
 40
1.0
 40
1.0
 40
1.0
 10
-326.5012543039205
 20
383.613388463385
 30
0.0
 10
-326.2058215953668
 20
383.0009015493878
 30
0.0
 10
-325.597698566266
 20
381.7401494842292
 30
0.0
 10
-324.3024564276128
 20
379.903236682053
 30
0.0
 10
-322.7153446626485
 20
378.0959720878666
 30
0.0
 10
-320.8360863823592
 20
376.3670345421147
 30
0.0
 10
-318.6870402276101
 20
374.7284329183092
 30
0.0
 10
-316.2826332830672
 20
373.1929418452627
 30
0.0
 10
-313.6420227343433
 20
371.7715992451586
 30
0.0
 10
-310.785356668978
 20
370.4735507643758
 30
0.0
 10
-307.731993697999
 20
369.3089275445176
 30
0.0
 10
-305.2602798662031
 20
368.5185798072192
 30
0.0
 10
-303.8156699801201
 20
368.1183933656214
 30
0.0
 10
-303.4821528898226
 20
368.0260023202161
 30
0.0
  0
LWPOLYLINE
  5
2B8
330
2A1
100
AcDbEntity
  8
0
  6
Continuous
 62
     7
370
    25
100
AcDbPolyline
 90
        9
 70
   128
 43
0.0
 10
212.5888575541
 20
-501.5930657837
 10
210.5179265243
 20
-503.3877044741
 10
208.1049795418
 20
-505.0651817511
 10
205.3747950692
 20
-506.6082716633
 10
202.3554092688
 20
-508.001128278
 10
199.0778281005
 20
-509.2294484027
 10
195.575708923
 20
-510.2806184639
 10
191.8850148671
 20
-511.1438440354
 10
188.0436455324
 20
-511.8102606863
  0
LWPOLYLINE
  5
2C0
330
2A1
100
AcDbEntity
  8
0
  6
Continuous
 62
     7
370
    25
100
AcDbPolyline
 90
       18
 70
   128
 43
0.0
 10
156.6775355741
 20
259.4297443362
 10
160.3557001486
 20
258.5394023274
 10
164.1776778621
 20
257.8276510612
 10
168.1108609483
 20
257.3005629484
 10
172.121692876
 20
256.9626349189
 10
176.1759546413
 20
256.8167500556
 10
180.2390567124
 20
256.8641529967
 10
184.2763341349
 20
257.1044393169
 10
188.2533422814
 20
257.5355589781
 10
192.1361507208
 20
258.1538338195
 10
195.8916327003
 20
258.953988938
 10
199.4877477719
 20
259.9291976922
 10
202.8938151497
 20
261.071139945
 10
206.0807754679
 20
262.3700730477
 10
209.0214387047
 20
263.814914961
 10
211.6907161582
 20
265.3933388032
 10
214.0658344943
 20
267.0918780186
 10
216.1265300408
 20
268.8960412695
  0
LWPOLYLINE
  5
2C2
330
2A1
100
AcDbEntity
  8
0
  6
Continuous
 62
     7
370
    25
100
AcDbPolyline
 90
       18
 70
   128
 43
0.0
 10
217.0109481625
 20
267.7985080741
 10
214.9034186263
 20
265.953341113
 10
212.474320328
 20
264.2161987336
 10
209.7443774778
 20
262.6019016223
 10
206.7368809857
 20
261.1242223927
 10
203.4774897511
 20
259.7957680832
 10
199.9940117511
 20
258.6278725973
 10
196.3161667915
 20
257.6305000078
 10
192.4753329488
 20
256.8121595457
 10
188.5042788631
 20
256.1798330034
 10
184.4368841678
 20
255.738915168
 10
180.3078504402
 20
255.4931677951
 10
176.1524051403
 20
255.4446875144
 10
172.0060010621
 20
255.5938879428
 10
167.9040138633
 20
255.9394961548
 10
163.8814402524
 20
256.4785635429
 10
159.9725994091
 20
257.2064909742
 10
156.2108401852
 20
258.1170680287
  0
LWPOLYLINE
  5
2C5
330
2A1
100
AcDbEntity
  8
0
  6
Continuous
 62
     7
370
    25
100
AcDbPolyline
 90
       18
 70
   128
 43
0.0
 10
156.2108401852
 20
243.5452239167
 10
159.9725994091
 20
242.6346468623
 10
163.8814402524
 20
241.9067194309
 10
167.9040138633
 20
241.3676520428
 10
172.0060010621
 20
241.0220438309
 10
176.1524051403
 20
240.8728434025
 10
180.3078504402
 20
240.9213236831
 10
184.4368841678
 20
241.1670710561
 10
188.5042788631
 20
241.6079888915
 10
192.4753329488
 20
242.2403154338
 10
196.3161667915
 20
243.0586558958
 10
199.9940117511
 20
244.0560284854
 10
203.4774897511
 20
245.2239239712
 10
206.7368809857
 20
246.5523782808
 10
209.7443774778
 20
248.0300575103
 10
212.474320328
 20
249.6443546217
 10
214.9034186263
 20
251.381497001
 10
217.0109481625
 20
253.2266639622
  0
LWPOLYLINE
  5
2C8
330
2A1
100
AcDbEntity
  8
0
  6
Continuous
 62
     7
370
    25
100
AcDbPolyline
 90
       18
 70
   128
 43
0.0
 10
-321.599687939
 20
415.0385052373
 10
-323.3283795682
 20
413.1441104357
 10
-324.7103186925
 20
411.1756463918
 10
-325.7337150946
 20
409.1499073468
 10
-326.3898375172
 20
407.0841761919
 10
-326.6730881552
 20
404.9960770172
 10
-326.581050414
 20
402.9034247483
 10
-326.1145095271
 20
400.8240731567
 10
-325.277445857
 20
398.775762537
 10
-324.0770009356
 20
396.7759683532
 10
-322.5234165358
 20
394.8417521441
 10
-320.629947292
 20
392.9896159605
 10
-318.412747616
 20
391.2353615752
 10
-315.8907338738
 20
389.5939556681
 10
-313.0854229974
 20
388.0794021357
 10
-310.02074891
 20
386.7046226146
 10
-306.7228583304
 20
385.4813462391
 10
-303.2198876981
 20
384.4200095718
  0
LWPOLYLINE
  5
2DB
330
2A1
100
AcDbEntity
  8
0
  6
Continuous
 62
     7
370
    25
100
AcDbPolyline
 90
        9
 70
   128
 43
0.0
 10
-320.3270447241
 20
301.4904903712
 10
-318.915931821
 20
299.7291934524
 10
-317.1949140271
 20
298.0425741195
 10
-315.178712358
 20
296.4450591549
 10
-312.8845727342
 20
294.9503131718
 10
-310.3321184652
 20
293.5711217318
 10
-307.5431823984
 20
292.319281981
 10
-304.5416201682
 20
291.2055017416
 10
-301.3531061424
 20
290.2393079204
  0
LWPOLYLINE
  5
2E0
330
2A1
100
AcDbEntity
  8
0
  6
Continuous
 62
     7
370
    25
100
AcDbPolyline
 90
        9
 70
   128
 43
0.0
 10
-301.3531061424
 20
-385.2085250329
 10
-304.5416201682
 20
-384.2423312117
 10
-307.5431823984
 20
-383.1285509722
 10
-310.3321184652
 20
-381.8767112215
 10
-312.8845727342
 20
-380.4975197814
 10
-315.178712358
 20
-379.0027737984
 10
-317.1949140271
 20
-377.4052588338
 10
-318.915931821
 20
-375.7186395008
 10
-320.3270447241
 20
-373.9573425821
  0
LWPOLYLINE
  5
2E6
330
2A1
100
AcDbEntity
  8
0
  6
Continuous
 62
     7
370
    25
100
AcDbPolyline
 90
        9
 70
   128
 43
0.0
 10
-301.3531061424
 20
291.9536425218
 10
-304.5416201682
 20
292.919836343
 10
-307.5431823984
 20
294.0336165824
 10
-310.3321184652
 20
295.2854563332
 10
-312.8845727342
 20
296.6646477733
 10
-315.178712358
 20
298.1593937563
 10
-317.1949140271
 20
299.7569087209
 10
-318.915931821
 20
301.4435280538
 10
-320.3270447241
 20
303.2048249726
  0
LWPOLYLINE
  5
2E9
330
2A1
100
AcDbEntity
  8
0
  6
Continuous
 62
     8
370
    25
100
AcDbPolyline
 90
        6
 70
   128
 43
0.0
 10
156.2108401852
 20
243.5452239167
 10
156.2198076062
 20
243.3867513499
 10
156.2463652564
 20
243.2518737505
 10
156.28949254
 20
243.1457743893
 10
156.3475320998
 20
243.072530605
 10
156.4152022331
 20
243.0357556223
  0
LWPOLYLINE
  5
2F0
330
2A1
100
AcDbEntity
  8
0
  6
Continuous
 62
     8
370
    25
100
AcDbPolyline
 90
       11
 70
   128
 43
0.0
 10
-303.6865830871
 20
383.1073332643
 10
-307.2691666882
 20
384.1927912195
 10
-310.6420093264
 20
385.4438693308
 10
-313.7763350976
 20
386.849893841
 10
-316.6454030394
 20
388.3988690446
 10
-319.2247352758
 20
390.0775796314
 10
-321.4923258535
 20
391.8717034345
 10
-323.4288284892
 20
393.7659336224
 10
-325.0177216254
 20
395.7441092907
 10
-326.2454493859
 20
397.7893533424
 10
-326.5309410322
 20
398.3893765849
  0
LWPOLYLINE
  5
2F2
330
2A1
100
AcDbEntity
  8
0
  6
Continuous
 62
     8
370
    25
100
AcDbPolyline
 90
       11
 70
   128
 43
0.0
 10
-326.5671045075
 20
383.8988392136
 10
-326.2454493859
 20
383.2175092304
 10
-325.0177216254
 20
381.1722651788
 10
-323.4288284892
 20
379.1940895104
 10
-321.4923258535
 20
377.2998593226
 10
-319.2247352758
 20
375.5057355195
 10
-316.6454030394
 20
373.8270249327
 10
-313.7763350976
 20
372.278049729
 10
-310.6420093264
 20
370.8720252189
 10
-307.2691666882
 20
369.6209471075
 10
-303.6865830871
 20
368.5354891524
  0
LINE
  5
2F6
330
2A1
100
AcDbEntity
  8
0
  6
Continuous
 62
     7
370
    25
100
AcDbLine
 10
-322.6852905852
 20
378.129709378
 30
0.0
 11
-322.6852905852
 21
-366.9881647607
 31
0.0
  0
LINE
  5
2F7
330
2A1
100
AcDbEntity
  8
0
  6
Continuous
 62
     7
370
    25
100
AcDbLine
 10
-303.4821528898
 20
368.0260023202
 30
0.0
 11
156.4152703824
 21
243.0357370846
 31
0.0
  0
LINE
  5
2F8
330
2A1
100
AcDbEntity
  8
0
  6
Continuous
 62
     7
370
    25
100
AcDbLine
 10
216.8250081995
 20
252.7513984839
 30
0.0
 11
311.0974767634
 21
344.7642178584
 31
0.0
  0
LINE
  5
2F9
330
2A1
100
AcDbEntity
  8
0
  6
Continuous
 62
     7
370
    25
100
AcDbLine
 10
310.6612637964
 20
361.0166891822
 30
0.0
 11
-227.0649541835
 21
507.15915315
 31
0.0
  0
LINE
  5
2FA
330
2A1
100
AcDbEntity
  8
0
  6
Continuous
 62
     7
370
    25
100
AcDbLine
 10
311.3989986047
 20
345.4798492313
 30
0.0
 11
311.3989986047
 21
360.0516933432
 31
0.0
  0
LINE
  5
2FB
330
2A1
100
AcDbEntity
  8
0
  6
Continuous
 62
     7
370
    25
100
AcDbLine
 10
-327.6852905852
 20
403.6052385705
 30
0.0
 11
-327.6852905852
 21
389.0333944586
 31
0.0
  0
LINE
  5
2FC
330
2A1
100
AcDbEntity
  8
0
  6
Continuous
 62
     7
370
    25
100
AcDbLine
 10
-228.0256975338
 20
506.909788684
 30
0.0
 11
-322.2981660977
 21
414.8969693095
 31
0.0
  0
LINE
  5
2FD
330
2A1
100
AcDbEntity
  8
0
  6
Continuous
 62
     7
370
    25
100
AcDbLine
 10
-319.7464473052
 20
302.4232245527
 30
0.0
 11
-319.7464473052
 21
301.6440388747
 31
0.0
  0
LINE
  5
2FE
330
2A1
100
AcDbEntity
  8
0
  6
Continuous
 62
     7
370
    25
100
AcDbLine
 10
-320.3270447241
 20
376.0284955229
 30
0.0
 11
-320.3270447241
 21
303.2048249726
 31
0.0
  0
LINE
  5
2FF
330
2A1
100
AcDbEntity
  8
0
  6
Continuous
 62
     7
370
    25
100
AcDbLine
 10
-320.5851359885
 20
303.5863110893
 30
0.0
 11
-320.5851359885
 21
-373.5758564654
 31
0.0
  0
LINE
  5
300
330
2A1
100
AcDbEntity
  8
0
  6
Continuous
 62
     7
370
    25
100
AcDbLine
 10
-320.5851359885
 20
-373.5758564654
 30
0.0
 11
-320.3270447241
 21
-373.6460001408
 31
0.0
  0
LINE
  5
301
330
2A1
100
AcDbEntity
  8
0
  6
Continuous
 62
     7
370
    25
100
AcDbLine
 10
188.0436455324
 20
-511.8102606863
 30
0.0
 11
188.0436455324
 21
165.3519068684
 31
0.0
  0
LINE
  5
302
330
2A1
100
AcDbEntity
  8
0
  6
Continuous
 62
     7
370
    25
100
AcDbLine
 10
187.2865317667
 20
240.9832828819
 30
0.0
 11
187.2865317667
 21
165.2463317256
 31
0.0
  0
LINE
  5
303
330
2A1
100
AcDbEntity
  8
0
  6
Continuous
 62
     7
370
    25
100
AcDbLine
 10
187.2049568491
 20
165.2354447965
 30
0.0
 11
187.2049568491
 21
163.8655098802
 31
0.0
  0
LINE
  5
304
330
2A1
100
AcDbEntity
  8
0
  6
Continuous
 62
     7
370
    25
100
AcDbLine
 10
307.3280215069
 20
-409.1247374024
 30
0.0
 11
307.3280215069
 21
341.0851139701
 31
0.0
  0
LINE
  5
305
330
2A1
100
AcDbEntity
  8
0
  6
Continuous
 62
     7
370
    25
100
AcDbLine
 10
212.5888575541
 20
-501.5930657837
 30
0.0
 11
307.3280215069
 21
-409.1247374024
 31
0.0
  0
LINE
  5
306
330
2A1
100
AcDbEntity
  8
0
  6
Continuous
 62
     7
370
    25
100
AcDbLine
 10
187.2865317667
 20
-511.6044933878
 30
0.0
 11
188.0436455324
 21
-511.8102606863
 31
0.0
  0
LINE
  5
307
330
2A1
100
AcDbEntity
  8
0
  6
Continuous
 62
     7
370
    25
100
AcDbLine
 10
217.0109481625
 20
267.7985080741
 30
0.0
 11
217.0109481625
 21
253.2266639622
 31
0.0
  0
LINE
  5
308
330
2A1
100
AcDbEntity
  8
0
  6
Continuous
 62
     7
370
    25
100
AcDbLine
 10
156.2108401852
 20
258.1170680287
 30
0.0
 11
156.2108401852
 21
243.5452239167
 31
0.0
  0
LINE
  5
309
330
2A1
100
AcDbEntity
  8
0
  6
Continuous
 62
     7
370
    25
100
AcDbLine
 10
-303.2198876981
 20
384.4200095718
 30
0.0
 11
156.6775355741
 21
259.4297443362
 31
0.0
  0
LINE
  5
30A
330
2A1
100
AcDbEntity
  8
0
  6
Continuous
 62
     7
370
    25
100
AcDbLine
 10
-227.3272193752
 20
507.0513246118
 30
0.0
 11
-321.599687939
 21
415.0385052373
 31
0.0
  0
LINE
  5
30B
330
2A1
100
AcDbEntity
  8
0
  6
Continuous
 62
     7
370
    25
100
AcDbLine
 10
310.3989986047
 20
360.9088606439
 30
0.0
 11
-227.3272193752
 21
507.0513246118
 31
0.0
  0
LINE
  5
30C
330
2A1
100
AcDbEntity
  8
0
  6
Continuous
 62
     7
370
    25
100
AcDbLine
 10
216.1265300408
 20
268.8960412695
 30
0.0
 11
310.3989986047
 21
360.9088606439
 31
0.0
  0
LINE
  5
30D
330
2A1
100
AcDbEntity
  8
0
  6
Continuous
 62
     7
370
    25
100
AcDbLine
 10
156.2108401852
 20
258.1170680287
 30
0.0
 11
-303.6865830871
 21
383.1073332643
 31
0.0
  0
LINE
  5
30E
330
2A1
100
AcDbEntity
  8
0
  6
Continuous
 62
     7
370
    25
100
AcDbLine
 10
-303.6865830871
 20
368.5354891524
 30
0.0
 11
156.2108401852
 21
243.5452239167
 31
0.0
  0
LINE
  5
30F
330
2A1
100
AcDbEntity
  8
0
  6
Continuous
 62
     7
370
    25
100
AcDbLine
 10
-303.6865830871
 20
383.1073332643
 30
0.0
 11
-303.6865830871
 21
368.5354891524
 31
0.0
  0
LINE
  5
310
330
2A1
100
AcDbEntity
  8
0
  6
Continuous
 62
     7
370
    25
100
AcDbLine
 10
311.2834167264
 20
359.8113274486
 30
0.0
 11
217.0109481625
 21
267.7985080741
 31
0.0
  0
LINE
  5
311
330
2A1
100
AcDbEntity
  8
0
  6
Continuous
 62
     7
370
    25
100
AcDbLine
 10
311.2834167264
 20
345.2394833366
 30
0.0
 11
311.2834167264
 21
359.8113274486
 31
0.0
  0
LINE
  5
312
330
2A1
100
AcDbEntity
  8
0
  6
Continuous
 62
     7
370
    25
100
AcDbLine
 10
217.0109481625
 20
253.2266639622
 30
0.0
 11
311.2834167264
 21
345.2394833366
 31
0.0
  0
LINE
  5
313
330
2A1
100
AcDbEntity
  8
0
  6
Continuous
 62
     7
370
    25
100
AcDbLine
 10
158.5443171298
 20
-510.1987902685
 30
0.0
 11
158.5443171298
 21
165.2490426848
 31
0.0
  0
LINE
  5
314
330
2A1
100
AcDbEntity
  8
0
  6
Continuous
 62
     7
370
    25
100
AcDbLine
 10
187.2865317667
 20
163.5319971242
 30
0.0
 11
187.2865317667
 21
-511.9158358291
 31
0.0
  0
LINE
  5
315
330
2A1
100
AcDbEntity
  8
0
  6
Continuous
 62
     7
370
    25
100
AcDbLine
 10
-301.3531061424
 20
290.2393079204
 30
0.0
 11
158.5443171298
 21
165.2490426848
 31
0.0
  0
LINE
  5
316
330
2A1
100
AcDbEntity
  8
0
  6
Continuous
 62
     7
370
    25
100
AcDbLine
 10
-319.217800017
 20
301.7838483147
 30
0.0
 11
-320.3270447241
 21
301.4904903712
 31
0.0
  0
LINE
  5
317
330
2A1
100
AcDbEntity
  8
0
  6
Continuous
 62
     7
370
    25
100
AcDbLine
 10
186.8802512109
 20
165.1930438258
 30
0.0
 11
187.2865317667
 21
163.5319971242
 31
0.0
  0
LINE
  5
318
330
2A1
100
AcDbEntity
  8
0
  6
Continuous
 62
     7
370
    25
100
AcDbLine
 10
-301.3531061424
 20
-385.2085250329
 30
0.0
 11
158.5443171298
 21
-510.1987902685
 31
0.0
  0
LINE
  5
319
330
2A1
100
AcDbEntity
  8
0
  6
Continuous
 62
     7
370
    25
100
AcDbLine
 10
-301.3531061424
 20
290.2393079204
 30
0.0
 11
-301.3531061424
 21
-385.2085250329
 31
0.0
  0
LINE
  5
31A
330
2A1
100
AcDbEntity
  8
0
  6
Continuous
 62
     7
370
    25
100
AcDbLine
 10
-320.3270447241
 20
301.4904903712
 30
0.0
 11
-320.3270447241
 21
-373.9573425821
 31
0.0
  0
LINE
  5
31B
330
2A1
100
AcDbEntity
  8
0
  6
Continuous
 62
     7
370
    25
100
AcDbLine
 10
-301.3531061424
 20
291.9536425218
 30
0.0
 11
158.5443171298
 21
166.9633772862
 31
0.0
  0
LINE
  5
31C
330
2A1
100
AcDbEntity
  8
0
  6
Continuous
 62
     8
370
    25
100
AcDbLine
 10
212.5888575541
 20
249.3589809872
 30
0.0
 11
212.5888575541
 21
-501.5930657837
 31
0.0
  0
LINE
  5
31D
330
2A1
100
AcDbEntity
  8
0
  6
Continuous
 62
     8
370
    25
100
AcDbLine
 10
158.5443171298
 20
166.9633772862
 30
0.0
 11
158.5443171298
 21
242.5020711018
 31
0.0
  0
LINE
  5
31E
330
2A1
100
AcDbEntity
  8
0
  6
Continuous
 62
     8
370
    25
100
AcDbLine
 10
-301.3531061424
 20
367.4473730342
 30
0.0
 11
-301.3531061424
 21
291.9536425218
 31
0.0
  0
ARC
  5
31F
330
2A1
100
AcDbEntity
  8
0
  6
Continuous
 62
     7
370
    25
100
AcDbCircle
 10
310.3989986047
 20
360.0516933432
 30
0.0
 40
1.000000000000057
100
AcDbArc
 50
0.0
 51
74.7954868413
  0
ARC
  5
320
330
2A1
100
AcDbEntity
  8
0
  6
Continuous
 62
     7
370
    25
100
AcDbCircle
 10
310.3989986047
 20
345.4798492313
 30
0.0
 40
1.00000000000121
100
AcDbArc
 50
314.305033619
 51
360.0
  0
ARC
  5
321
330
2A1
100
AcDbEntity
  8
0
  6
Continuous
 62
     7
370
    25
100
AcDbCircle
 10
-227.3272193752
 20
506.1941573111
 30
0.0
 40
1.000000000000199
100
AcDbArc
 50
74.7954868413
 51
134.305033619
  0
ARC
  5
322
330
2A1
100
AcDbEntity
  8
0
  6
Continuous
 62
     7
370
    25
100
AcDbCircle
 10
-307.4326658336
 20
312.2064577442
 30
0.0
 40
15.72559695301525
100
AcDbArc
 50
213.2408875714
 51
214.919093001
  0
ARC
  5
323
330
2A1
100
AcDbEntity
  8
0
  6
Continuous
 62
     7
370
    25
100
AcDbCircle
 10
-310.86033148
 20
-366.8469807771
 30
0.0
 40
11.82580190762078
100
AcDbArc
 50
180.6840498965
 51
214.6804891368
  0
ARC
  5
324
330
2A1
100
AcDbEntity
  8
0
  6
Continuous
 62
     7
370
    25
100
AcDbCircle
 10
177.7365298606
 20
236.5000510217
 30
0.0
 40
71.8908551203622
100
AcDbArc
 50
277.6337526982
 51
278.2430005492
  0
ARC
  5
325
330
2A1
100
AcDbEntity
  8
0
  6
Continuous
 62
     7
370
    25
100
AcDbCircle
 10
215.7985759677
 20
267.7266590629
 30
0.0
 40
1.214499328616456
100
AcDbArc
 50
3.391562315
 51
74.3338098233
  0
ARC
  5
326
330
2A1
100
AcDbEntity
  8
0
  6
Continuous
 62
     7
370
    25
100
AcDbCircle
 10
158.2557956335
 20
258.1293258555
 30
0.0
 40
2.044992185835472
100
AcDbArc
 50
140.5129436103
 51
180.3434369839
  0
ARC
  5
327
330
2A1
100
AcDbEntity
  8
0
  6
Continuous
 62
     7
370
    25
100
AcDbCircle
 10
-301.6416276387
 20
383.1195910911
 30
0.0
 40
2.044992185835823
100
AcDbArc
 50
140.5129436103
 51
180.3434369839
  0
ARC
  5
328
330
2A1
100
AcDbEntity
  8
0
  6
Continuous
 62
     7
370
    25
100
AcDbCircle
 10
310.0710445316
 20
359.7394784373
 30
0.0
 40
1.214499328616456
100
AcDbArc
 50
3.391562315
 51
74.3338098233
  0
ARC
  5
329
330
2A1
100
AcDbEntity
  8
0
  6
Continuous
 62
     7
370
    25
100
AcDbCircle
 10
-315.1408701581
 20
403.6042951158
 30
0.0
 40
12.52713414158961
100
AcDbArc
 50
155.8806327937
 51
204.6005694599
  0
ARC
  5
32A
330
2A1
100
AcDbEntity
  8
0
  6
Continuous
 62
     7
370
    25
100
AcDbCircle
 10
-315.0023954407
 20
389.1063974596
 30
0.0
 40
12.68310524613772
100
AcDbArc
 50
180.3297920236
 51
204.241913288
  0
ARC
  5
32B
330
2A1
100
AcDbEntity
  8
0
  6
Continuous
 62
     7
370
    25
100
AcDbCircle
 10
177.2630465765
 20
-438.280974878
 30
0.0
 40
74.3139489103392
100
AcDbArc
 50
255.410787338
 51
277.751696306
  0
ARC
  5
32C
330
2A1
100
AcDbEntity
  8
0
  6
Continuous
 62
     7
370
    25
100
AcDbCircle
 10
177.2630465765
 20
237.1668580753
 30
0.0
 40
74.31394891033821
100
AcDbArc
 50
255.410787338
 51
277.751696306
  0
ARC
  5
32D
330
2A1
100
AcDbEntity
  8
0
  6
Continuous
 62
     7
370
    25
100
AcDbCircle
 10
177.2630465765
 20
238.8811926767
 30
0.0
 40
74.31394891033901
100
AcDbArc
 50
255.410787338
 51
277.751696306
  0
ARC
  5
32E
330
2A1
100
AcDbEntity
  8
0
  6
Continuous
 62
     8
370
    25
100
AcDbCircle
 10
216.3656674745
 20
253.2051213181
 30
0.0
 40
0.6456401876382671
100
AcDbArc
 50
315.3260297426
 51
1.9121048339
  0
ARC
  5
32F
330
2A1
100
AcDbEntity
  8
0
  6
Continuous
 62
     8
370
    25
100
AcDbCircle
 10
-303.1846768774
 20
368.4411207009
 30
0.0
 40
0.5107007420493632
100
AcDbArc
 50
169.35156043
 51
234.3744174932
  0
ARC
  5
330
330
2A1
100
AcDbEntity
  8
0
  6
Continuous
 62
     8
370
    25
100
AcDbCircle
 10
310.6380967968
 20
345.2179486177
 30
0.0
 40
0.6456791429343073
100
AcDbArc
 50
315.354471361
 51
1.9112857848
  0
ARC
  5
331
330
2A1
100
AcDbEntity
  8
0
  6
Continuous
 62
     8
370
    25
100
AcDbCircle
 10
311.067142776
 20
360.0632967076
 30
0.0
 40
0.3320586230403762
100
AcDbArc
 50
310.6406362013
 51
357.9974645043
  0
ARC
  5
332
330
2A1
100
AcDbEntity
  8
0
  6
Continuous
 62
     8
370
    25
100
AcDbCircle
 10
310.6177064533
 20
360.7497706305
 30
0.0
 40
0.2704491734381106
100
AcDbArc
 50
80.7318299952
 51
143.9675277136
  0
ARC
  5
333
330
2A1
100
AcDbEntity
  8
0
  6
Continuous
 62
     8
370
    25
100
AcDbCircle
 10
-227.1085115266
 20
506.8922345983
 30
0.0
 40
0.2704491734385402
100
AcDbArc
 50
80.7318299953
 51
143.9675277136
  0
ARC
  5
334
330
2A1
100
AcDbEntity
  8
0
  6
Continuous
 62
     8
370
    25
100
AcDbCircle
 10
311.067142776
 20
345.4914525957
 30
0.0
 40
0.3320586230393895
100
AcDbArc
 50
310.6406362013
 51
357.9974645044
  0
ARC
  5
335
330
2A1
100
AcDbEntity
  8
0
  6
Continuous
 62
     8
370
    25
100
AcDbCircle
 10
-321.8257179369
 20
414.3596299677
 30
0.0
 40
0.715514634097067
100
AcDbArc
 50
71.5849362152
 51
131.3012123767
  0
ARC
  5
336
330
2A1
100
AcDbEntity
  8
0
  6
Continuous
 62
     8
370
    25
100
AcDbCircle
 10
-227.553245825
 20
506.3725037533
 30
0.0
 40
0.715461888484574
100
AcDbArc
 50
71.583829316
 51
131.326192755
  0
VIEWPORT
  5
3DA
330
2A1
100
AcDbEntity
  8
0
100
AcDbViewport
 10
0.0
 20
0.0
 30
0.0
 40
205.6
 41
156.0
 68
     1
 69
     1
 12
0.0
 22
9.0
 13
0.0
 23
0.0
 14
10.0
 24
10.0
 15
10.0
 25
10.0
 16
0.0
 26
0.0
 36
1.0
 17
0.0
 27
0.0
 37
0.0
 42
50.0
 43
0.0
 44
0.0
 45
918.0
 50
0.0
 51
0.0
 72
   100
 90
   557152
  1

281
     0
 71
     1
 74
     0
110
0.0
120
0.0
130
0.0
111
1.0
121
0.0
131
0.0
112
0.0
122
1.0
132
0.0
 79
     0
146
0.0
  0
ENDBLK
  5
2A4
330
2A1
100
AcDbEntity
  8
0
100
AcDbBlockEnd
  0
BLOCK
  5
339
330
337
100
AcDbEntity
  8
0
100
AcDbBlockBegin
  2
*Paper_Space6
 70
     0
 10
0.0
 20
0.0
 30
0.0
  3
*Paper_Space6
  1

  0
SPLINE
  5
33C
330
337
100
AcDbEntity
  8
0
  6
Continuous
 62
     7
370
    25
100
AcDbSpline
210
0.0
220
0.0
230
1.0
 70
     8
 71
     3
 72
    16
 73
    12
 74
     0
 42
0.000000001
 43
0.00000001
 40
0.0
 40
0.0
 40
0.0
 40
0.0
 40
0.0390349148274977
 40
0.1587969123540197
 40
0.2786923988889201
 40
0.3987607161981152
 40
0.5190510445504428
 40
0.6396231841334349
 40
0.7605439356339975
 40
0.8818700562380996
 40
1.0
 40
1.0
 40
1.0
 40
1.0
 10
224.6275865204151
 20
336.0796900142078
 30
0.0
 10
224.9913239366483
 20
336.1426642709633
 30
0.0
 10
226.4710345716199
 20
336.3988481918134
 30
0.0
 10
228.9109703630731
 20
336.9439661411615
 30
0.0
 10
231.9186256817388
 20
337.7111539980481
 30
0.0
 10
234.7183340877025
 20
338.5700145513838
 30
0.0
 10
237.3043986620698
 20
339.5078449707969
 30
0.0
 10
239.6581422254224
 20
340.522365948906
 30
0.0
 10
241.7581397296998
 20
341.6109705897982
 30
0.0
 10
243.5976206674019
 20
342.7538263189005
 30
0.0
 10
244.5875219117974
 20
343.5669621930983
 30
0.0
 10
245.0758661040394
 20
343.9681034017959
 30
0.0
  0
SPLINE
  5
33D
330
337
100
AcDbEntity
  8
0
  6
Continuous
 62
     7
370
    25
100
AcDbSpline
210
0.0
220
0.0
230
1.0
 70
     8
 71
     3
 72
    10
 73
     6
 74
     0
 42
0.000000001
 43
0.00000001
 40
0.0
 40
0.0
 40
0.0
 40
0.0
 40
0.3275248763942918
 40
0.950373314897085
 40
1.0
 40
1.0
 40
1.0
 40
1.0
 10
187.5748478379284
 20
335.1919859710526
 30
0.0
 10
188.1950579249205
 20
335.1178546380791
 30
0.0
 10
189.9947108941735
 20
334.9027490209684
 30
0.0
 10
191.9250818042353
 20
334.7042961160408
 30
0.0
 10
193.2540706468466
 20
334.6205086534809
 30
0.0
 10
193.3521461123656
 20
334.6143253853212
 30
0.0
  0
SPLINE
  5
340
330
337
100
AcDbEntity
  8
0
  6
Continuous
 62
     7
370
    25
100
AcDbSpline
210
0.0
220
0.0
230
1.0
 70
     8
 71
     3
 72
    12
 73
     8
 74
     0
 42
0.000000001
 43
0.00000001
 40
0.0
 40
0.0
 40
0.0
 40
0.0
 40
0.1265927171814416
 40
0.3688597485280987
 40
0.6083949674534255
 40
0.84145439960555
 40
1.0
 40
1.0
 40
1.0
 40
1.0
 10
-324.9789323597888
 20
433.1493442359022
 30
0.0
 10
-325.2186943930355
 20
432.9289393433796
 30
0.0
 10
-325.9173014318843
 20
432.2867342067779
 30
0.0
 10
-326.8480067889923
 20
431.175754340306
 30
0.0
 10
-327.6344507612432
 20
429.8034015122602
 30
0.0
 10
-328.0776159600894
 20
428.5353718485296
 30
0.0
 10
-328.1092105638148
 20
427.7294420115463
 30
0.0
 10
-328.1220019862956
 20
427.4031524614622
 30
0.0
  0
SPLINE
  5
342
330
337
100
AcDbEntity
  8
0
  6
Continuous
 62
     7
370
    25
100
AcDbSpline
210
0.0
220
0.0
230
1.0
 70
     8
 71
     3
 72
    23
 73
    19
 74
     0
 42
0.000000001
 43
0.00000001
 40
0.0
 40
0.0
 40
0.0
 40
0.0
 40
0.0118465938225725
 40
0.0763633412791
 40
0.1409827980696062
 40
0.2070488553228585
 40
0.2751728263059812
 40
0.3449222007279117
 40
0.4154585106627791
 40
0.4861267384281332
 40
0.5566306289782431
 40
0.6269288512748635
 40
0.6970392422398202
 40
0.7669947378976393
 40
0.8368277411641103
 40
0.906565801175125
 40
0.9762312447968381
 40
0.9999999999999999
 40
0.9999999999999999
 40
0.9999999999999999
 40
0.9999999999999999
 10
-328.1349906976732
 20
411.2134722878693
 30
0.0
 10
-328.1430304399044
 20
411.130120564176
 30
0.0
 10
-328.1948547523601
 20
410.5928339636623
 30
0.0
 10
-327.9791073389375
 20
409.5992446575917
 30
0.0
 10
-327.4829229132686
 20
408.2686904124109
 30
0.0
 10
-326.6568751619841
 20
406.9729926916696
 30
0.0
 10
-325.5330279623774
 20
405.7091508286671
 30
0.0
 10
-324.0981311873119
 20
404.4824135155121
 30
0.0
 10
-322.3647276289609
 20
403.305351324723
 30
0.0
 10
-320.3510245312429
 20
402.190113942344
 30
0.0
 10
-318.0780445353095
 20
401.1451398324202
 30
0.0
 10
-315.5648369254347
 20
400.1759771901002
 30
0.0
 10
-312.8294300203202
 20
399.2869847916261
 30
0.0
 10
-309.8904115844085
 20
398.4824896641406
 30
0.0
 10
-306.7679431216761
 20
397.7662702152459
 30
0.0
 10
-303.4819123161652
 20
397.1435664888955
 30
0.0
 10
-300.8099060575122
 20
396.7294283409245
 30
0.0
 10
-299.2399851353915
 20
396.5262581691071
 30
0.0
 10
-298.8406124586251
 20
396.4745736452469
 30
0.0
  0
LWPOLYLINE
  5
34D
330
337
100
AcDbEntity
  8
0
  6
Continuous
 62
     7
370
    25
100
AcDbPolyline
 90
        6
 70
   128
 43
0.0
 10
-319.1829344116
 20
-426.1669792924
 10
-320.7575987489
 20
-424.9219548643
 10
-321.946167184
 20
-423.6302013063
 10
-322.7364343519
 20
-422.3049835876
 10
-323.1202850287
 20
-420.9599103193
 10
-323.1592632762
 20
-420.3714338979
  0
LWPOLYLINE
  5
34F
330
337
100
AcDbEntity
  8
0
  6
Continuous
 62
     7
370
    25
100
AcDbPolyline
 90
        9
 70
   128
 43
0.0
 10
240.6727708894
 20
-486.3680667778
 10
239.0493910337
 20
-487.6061198218
 10
237.0584522059
 20
-488.7830509914
 10
234.7203992825
 20
-489.8867744242
 10
232.0592416416
 20
-490.9059560255
 10
229.1023066117
 20
-491.8301298576
 10
225.8799588479
 20
-492.6498056139
 10
222.4252885192
 20
-493.3565660747
 10
218.7737715061
 20
-493.9431535432
  0
LWPOLYLINE
  5
357
330
337
100
AcDbEntity
  8
0
  6
Continuous
 62
     7
370
    25
100
AcDbPolyline
 90
       14
 70
   128
 43
0.0
 10
187.6998478379
 20
353.1547054617
 10
191.5638109574
 20
352.7347771085
 10
195.5275293921
 20
352.4354806084
 10
199.557186094
 20
352.2593694534
 10
203.618401453
 20
352.2079461619
 10
207.6765266114
 20
352.2816494592
 10
211.6969390762
 20
352.4798505349
 10
215.645338106
 20
352.8008584072
 10
219.4880373524
 20
353.2419343501
 10
223.1922522602
 20
353.7993152593
 10
226.726379774
 20
354.4682457573
 10
230.0602679638
 20
355.2430187649
 10
233.1654732712
 20
356.1170241922
 10
235.8731860646
 20
357.0301553751
  0
LWPOLYLINE
  5
359
330
337
100
AcDbEntity
  8
0
  6
Continuous
 62
     7
370
    25
100
AcDbPolyline
 90
       18
 70
   128
 43
0.0
 10
245.349842623
 20
360.628005979
 10
243.7022979421
 20
359.355991718
 10
241.7096813891
 20
358.1400757271
 10
239.3889932657
 20
356.990631773
 10
236.7600328648
 20
355.9174665061
 10
233.8452295497
 20
354.9297357941
 10
230.6694513944
 20
354.0358666071
 10
227.2597930184
 20
353.243485122
 10
223.6453444247
 20
352.5593516582
 10
219.8569428145
 20
351.9893030011
 10
215.9269094944
 20
351.5382026049
 10
211.888774123
 20
351.2098990992
 10
207.7769886475
 20
351.0071934536
 10
203.6266333719
 20
350.9318150813
 10
199.4731176639
 20
350.984407084
 10
195.3518778551
 20
351.1645207652
 10
191.2980749105
 20
351.4706194586
 10
187.3462944474
 20
351.9000916379
  0
LWPOLYLINE
  5
35C
330
337
100
AcDbEntity
  8
0
  6
Continuous
 62
     7
370
    25
100
AcDbPolyline
 90
       18
 70
   128
 43
0.0
 10
187.3462944474
 20
335.8723379305
 10
191.2980749105
 20
335.4428657512
 10
195.3518778551
 20
335.1367670578
 10
199.4731176639
 20
334.9566533766
 10
203.6266333719
 20
334.9040613739
 10
207.7769886475
 20
334.9794397462
 10
211.888774123
 20
335.1821453918
 10
215.9269094944
 20
335.5104488975
 10
219.8569428145
 20
335.9615492937
 10
223.6453444247
 20
336.5315979508
 10
227.2597930184
 20
337.2157314147
 10
230.6694513944
 20
338.0081128998
 10
233.8452295497
 20
338.9019820867
 10
236.7600328648
 20
339.8897127987
 10
239.3889932657
 20
340.9628780656
 10
241.7096813891
 20
342.1123220197
 10
243.7022979421
 20
343.3282380106
 10
245.349842623
 20
344.6002522716
  0
LWPOLYLINE
  5
372
330
337
100
AcDbEntity
  8
0
  6
Continuous
 62
     7
370
    25
100
AcDbPolyline
 90
        9
 70
   128
 43
0.0
 10
-318.8350848321
 20
316.5322046182
 10
-317.0112540583
 20
315.4593314907
 10
-314.8978645809
 20
314.4472130118
 10
-312.5129936328
 20
313.5045065073
 10
-309.8770406091
 20
312.639275576
 10
-307.012552578
 20
311.8589211164
 10
-303.9440314202
 20
311.1701180219
 10
-300.697724248
 20
310.5787580855
 10
-297.3013988966
 20
310.0898996042
  0
LWPOLYLINE
  5
377
330
337
100
AcDbEntity
  8
0
  6
Continuous
 62
     7
370
    25
100
AcDbPolyline
 90
        9
 70
   128
 43
0.0
 10
-297.3013988966
 20
-432.8436251845
 10
-300.697724248
 20
-432.3547667032
 10
-303.9440314202
 20
-431.7634067669
 10
-307.012552578
 20
-431.0746036723
 10
-309.8770406091
 20
-430.2942492128
 10
-312.5129936328
 20
-429.4290182815
 10
-314.8978645809
 20
-428.486311777
 10
-317.0112540583
 20
-427.474193298
 10
-318.8350848321
 20
-426.4013201705
  0
LWPOLYLINE
  5
37D
330
337
100
AcDbEntity
  8
0
  6
Continuous
 62
     7
370
    25
100
AcDbPolyline
 90
        9
 70
   128
 43
0.0
 10
-297.3013988966
 20
311.9755176874
 10
-300.697724248
 20
312.4643761687
 10
-303.9440314202
 20
313.0557361051
 10
-307.012552578
 20
313.7445391997
 10
-309.8770406091
 20
314.5248936592
 10
-312.5129936328
 20
315.3901245905
 10
-314.8978645809
 20
316.332831095
 10
-317.0112540583
 20
317.344949574
 10
-318.8350848321
 20
318.4178227015
  0
LWPOLYLINE
  5
380
330
337
100
AcDbEntity
  8
0
  6
Continuous
 62
     8
370
    25
100
AcDbPolyline
 90
       14
 70
   128
 43
0.0
 10
-324.317494532
 20
433.3421532775
 10
-325.5772795918
 20
432.0541655713
 10
-326.4751690925
 20
430.7329260934
 10
-327.0035025576
 20
429.3897071931
 10
-327.1577724321
 20
428.0359687404
 10
-326.93666254
 20
426.6832603546
 10
-326.3420593128
 20
425.3431228666
 10
-325.3790356957
 20
424.026989857
 10
-324.0558078666
 20
422.7460901085
 10
-322.3836651387
 20
421.5113518062
 10
-320.3768736443
 20
420.3333093019
 10
-318.0525546208
 20
419.2220132389
 10
-315.4305383385
 20
418.1869448033
 10
-314.7975357848
 20
417.9640062078
  0
LWPOLYLINE
  5
383
330
337
100
AcDbEntity
  8
0
  6
Continuous
 62
     8
370
    25
100
AcDbPolyline
 90
        8
 70
   128
 43
0.0
 10
187.3462944474
 20
335.8723379305
 10
187.3530878766
 20
335.6943962525
 10
187.3732070967
 20
335.5352752562
 10
187.4058789373
 20
335.4010898724
 10
187.4498478379
 20
335.2969967701
 10
187.5034240983
 20
335.2269961889
 10
187.5645488129
 20
335.1937782118
 10
187.5748216584
 20
335.1919892725
  0
LWPOLYLINE
  5
384
330
337
100
AcDbEntity
  8
0
  6
Continuous
 62
     8
370
    25
100
AcDbPolyline
 90
        8
 70
   128
 43
0.0
 10
-298.8406124586
 20
396.4745736452
 10
-298.8509114837
 20
396.476365886
 10
-298.9120361982
 20
396.5095838631
 10
-298.9656124586
 20
396.5795844443
 10
-299.0095813592
 20
396.6836775466
 10
-299.0422531998
 20
396.8178629304
 10
-299.0623724199
 20
396.9769839267
 10
-299.0691658492
 20
397.1549256047
  0
LWPOLYLINE
  5
386
330
337
100
AcDbEntity
  8
0
  6
Continuous
 62
     8
370
    25
100
AcDbPolyline
 90
       15
 70
   128
 43
0.0
 10
-299.0691658492
 20
413.1826793121
 10
-302.8852086332
 20
413.7318608723
 10
-306.5329566067
 20
414.3960663898
 10
-309.9812884699
 20
415.1696290974
 10
-313.2007842714
 20
416.0459492308
 10
-316.1639764081
 20
417.0175503356
 10
-318.8455839695
 20
418.0761430538
 10
-321.2227284254
 20
419.2126958456
 10
-323.2751288174
 20
420.4175120431
 10
-324.9852747891
 20
421.6803125796
 10
-326.338575978
 20
422.990323686
 10
-327.3234864955
 20
424.3363688095
 10
-327.9316034324
 20
425.7069639676
 10
-328.1577385493
 20
427.0904157258
 10
-328.1592632762
 20
427.2138945096
  0
LWPOLYLINE
  5
388
330
337
100
AcDbEntity
  8
0
  6
Continuous
 62
     8
370
    25
100
AcDbPolyline
 90
       15
 70
   128
 43
0.0
 10
-328.1592632762
 20
411.1861408023
 10
-328.1577385493
 20
411.0626620185
 10
-327.9316034324
 20
409.6792102602
 10
-327.3234864955
 20
408.3086151021
 10
-326.338575978
 20
406.9625699786
 10
-324.9852747891
 20
405.6525588722
 10
-323.2751288174
 20
404.3897583358
 10
-321.2227284254
 20
403.1849421382
 10
-318.8455839695
 20
402.0483893465
 10
-316.1639764081
 20
400.9897966283
 10
-313.2007842714
 20
400.0181955234
 10
-309.9812884699
 20
399.14187539
 10
-306.5329566067
 20
398.3683126824
 10
-302.8852086332
 20
397.7041071649
 10
-299.0691658492
 20
397.1549256047
  0
LWPOLYLINE
  5
389
330
337
100
AcDbEntity
  8
0
  6
Continuous
 62
     8
370
    25
100
AcDbPolyline
 90
        3
 70
   128
 43
0.0
 10
316.8322131597
 20
423.7304231069
 10
316.8186286269
 20
423.6756665486
 10
316.7676275064
 20
423.6125719768
  0
LWPOLYLINE
  5
38A
330
337
100
AcDbEntity
  8
0
  6
Continuous
 62
     8
370
    25
100
AcDbPolyline
 90
        3
 70
   128
 43
0.0
 10
315.9572131597
 20
424.7225798486
 10
315.9011880045
 20
424.7159464325
 10
315.8322131597
 20
424.6732321485
  0
LWPOLYLINE
  5
38B
330
337
100
AcDbEntity
  8
0
  6
Continuous
 62
     8
370
    25
100
AcDbPolyline
 90
        3
 70
   128
 43
0.0
 10
316.8322131597
 20
407.7026693996
 10
316.8186286269
 20
407.6479128412
 10
316.7676275064
 20
407.5848182694
  0
LWPOLYLINE
  5
38C
330
337
100
AcDbEntity
  8
0
  6
Continuous
 62
     8
370
    25
100
AcDbPolyline
 90
        3
 70
   128
 43
0.0
 10
-252.8997096486
 20
496.3267192753
 10
-252.8307348038
 20
496.3694335593
 10
-252.7747096486
 20
496.3760669753
  0
LINE
  5
390
330
337
100
AcDbEntity
  8
0
  6
Continuous
 62
     7
370
    25
100
AcDbLine
 10
-323.1592632762
 20
403.8873194378
 30
0.0
 11
-323.1592632762
 21
-420.3714338979
 31
0.0
  0
LINE
  5
391
330
337
100
AcDbEntity
  8
0
  6
Continuous
 62
     7
370
    25
100
AcDbLine
 10
-298.8406124586
 20
396.4745736452
 30
0.0
 11
187.5748478379
 21
335.1919859711
 31
0.0
  0
LINE
  5
392
330
337
100
AcDbEntity
  8
0
  6
Continuous
 62
     7
370
    25
100
AcDbLine
 10
245.075866104
 20
343.9681034018
 30
0.0
 11
316.4936509875
 21
406.9526693996
 31
0.0
  0
LINE
  5
393
330
337
100
AcDbEntity
  8
0
  6
Continuous
 62
     7
370
    25
100
AcDbLine
 10
-328.1592632762
 20
427.2138945096
 30
0.0
 11
-328.1592632762
 21
411.1861408023
 31
0.0
  0
LINE
  5
394
330
337
100
AcDbEntity
  8
0
  6
Continuous
 62
     7
370
    25
100
AcDbLine
 10
316.8322131597
 20
407.7026693996
 30
0.0
 11
316.8322131597
 21
423.7304231069
 31
0.0
  0
LINE
  5
395
330
337
100
AcDbEntity
  8
0
  6
Continuous
 62
     7
370
    25
100
AcDbLine
 10
315.9572131597
 20
424.7225798486
 30
0.0
 11
-252.7747096486
 21
496.3760669753
 31
0.0
  0
LINE
  5
396
330
337
100
AcDbEntity
  8
0
  6
Continuous
 62
     7
370
    25
100
AcDbLine
 10
-253.5611474763
 20
496.1339102337
 30
0.0
 11
-324.9789323598
 21
433.1493442359
 31
0.0
  0
LINE
  5
397
330
337
100
AcDbEntity
  8
0
  6
Continuous
 62
     7
370
    25
100
AcDbLine
 10
-318.2958862976
 20
318.0757415257
 30
0.0
 11
-318.2958862976
 21
316.6547879388
 31
0.0
  0
LINE
  5
398
330
337
100
AcDbEntity
  8
0
  6
Continuous
 62
     7
370
    25
100
AcDbLine
 10
-318.8350848321
 20
401.5244736159
 30
0.0
 11
-318.8350848321
 21
318.4178227015
 31
0.0
  0
LINE
  5
399
330
337
100
AcDbEntity
  8
0
  6
Continuous
 62
     7
370
    25
100
AcDbLine
 10
-319.1829344116
 20
318.6521635796
 30
0.0
 11
-319.1829344116
 21
-426.1669792924
 31
0.0
  0
LINE
  5
39A
330
337
100
AcDbEntity
  8
0
  6
Continuous
 62
     7
370
    25
100
AcDbLine
 10
-319.1829344116
 20
-426.1669792924
 30
0.0
 11
-318.8350848321
 21
-426.2108042201
 31
0.0
  0
LINE
  5
39B
330
337
100
AcDbEntity
  8
0
  6
Continuous
 62
     7
370
    25
100
AcDbLine
 10
218.7737715061
 20
-493.9431535432
 30
0.0
 11
218.7737715061
 21
250.8759893288
 31
0.0
  0
LINE
  5
39C
330
337
100
AcDbEntity
  8
0
  6
Continuous
 62
     7
370
    25
100
AcDbLine
 10
218.0478785574
 20
250.7769272936
 30
0.0
 11
218.7737715061
 21
250.8759893288
 31
0.0
  0
LINE
  5
39D
330
337
100
AcDbEntity
  8
0
  6
Continuous
 62
     7
370
    25
100
AcDbLine
 10
218.0478785574
 20
335.1476820054
 30
0.0
 11
218.0478785574
 21
250.7769272936
 31
0.0
  0
LINE
  5
39E
330
337
100
AcDbEntity
  8
0
  6
Continuous
 62
     7
370
    25
100
AcDbLine
 10
217.8867233922
 20
250.755681804
 30
0.0
 11
217.8867233922
 21
249.1021288032
 31
0.0
  0
LINE
  5
39F
330
337
100
AcDbEntity
  8
0
  6
Continuous
 62
     7
370
    25
100
AcDbLine
 10
312.4441091633
 20
-423.0716959978
 30
0.0
 11
312.4441091633
 21
403.3813092027
 31
0.0
  0
LINE
  5
3A0
330
337
100
AcDbEntity
  8
0
  6
Continuous
 62
     7
370
    25
100
AcDbLine
 10
240.6727708894
 20
-486.3680667778
 30
0.0
 11
312.4441091633
 21
-423.0716959978
 31
0.0
  0
LINE
  5
3A1
330
337
100
AcDbEntity
  8
0
  6
Continuous
 62
     7
370
    25
100
AcDbLine
 10
218.0478785574
 20
-493.8516996279
 30
0.0
 11
218.7737715061
 21
-493.9431535432
 31
0.0
  0
LINE
  5
3A2
330
337
100
AcDbEntity
  8
0
  6
Continuous
 62
     7
370
    25
100
AcDbLine
 10
245.349842623
 20
360.628005979
 30
0.0
 11
245.349842623
 21
344.6002522716
 31
0.0
  0
LINE
  5
3A3
330
337
100
AcDbEntity
  8
0
  6
Continuous
 62
     7
370
    25
100
AcDbLine
 10
187.3462944474
 20
351.9000916379
 30
0.0
 11
187.3462944474
 21
335.8723379305
 31
0.0
  0
LINE
  5
3A4
330
337
100
AcDbEntity
  8
0
  6
Continuous
 62
     7
370
    25
100
AcDbLine
 10
-298.7156124587
 20
414.4372931359
 30
0.0
 11
187.6998478379
 21
353.1547054617
 31
0.0
  0
LINE
  5
3A5
330
337
100
AcDbEntity
  8
0
  6
Continuous
 62
     7
370
    25
100
AcDbLine
 10
-252.8997096486
 20
496.3267192753
 30
0.0
 11
-324.317494532
 21
433.3421532775
 31
0.0
  0
LINE
  5
3A6
330
337
100
AcDbEntity
  8
0
  6
Continuous
 62
     7
370
    25
100
AcDbLine
 10
315.8322131597
 20
424.6732321485
 30
0.0
 11
-252.8997096486
 21
496.3267192753
 31
0.0
  0
LINE
  5
3A7
330
337
100
AcDbEntity
  8
0
  6
Continuous
 62
     7
370
    25
100
AcDbLine
 10
244.4144282763
 20
361.6886661508
 30
0.0
 11
315.8322131597
 21
424.6732321485
 31
0.0
  0
LINE
  5
3A8
330
337
100
AcDbEntity
  8
0
  6
Continuous
 62
     7
370
    25
100
AcDbLine
 10
187.3462944474
 20
351.9000916379
 30
0.0
 11
-299.0691658492
 21
413.1826793121
 31
0.0
  0
LINE
  5
3A9
330
337
100
AcDbEntity
  8
0
  6
Continuous
 62
     7
370
    25
100
AcDbLine
 10
-299.0691658492
 20
397.1549256047
 30
0.0
 11
187.3462944474
 21
335.8723379305
 31
0.0
  0
LINE
  5
3AA
330
337
100
AcDbEntity
  8
0
  6
Continuous
 62
     7
370
    25
100
AcDbLine
 10
-299.0691658492
 20
413.1826793121
 30
0.0
 11
-299.0691658492
 21
397.1549256047
 31
0.0
  0
LINE
  5
3AB
330
337
100
AcDbEntity
  8
0
  6
Continuous
 62
     7
370
    25
100
AcDbLine
 10
316.7676275064
 20
423.6125719768
 30
0.0
 11
245.349842623
 21
360.628005979
 31
0.0
  0
LINE
  5
3AC
330
337
100
AcDbEntity
  8
0
  6
Continuous
 62
     7
370
    25
100
AcDbLine
 10
316.7676275064
 20
407.5848182694
 30
0.0
 11
316.7676275064
 21
423.6125719768
 31
0.0
  0
LINE
  5
3AD
330
337
100
AcDbEntity
  8
0
  6
Continuous
 62
     7
370
    25
100
AcDbLine
 10
245.349842623
 20
344.6002522716
 30
0.0
 11
316.7676275064
 21
407.5848182694
 31
0.0
  0
LINE
  5
3AE
330
337
100
AcDbEntity
  8
0
  6
Continuous
 62
     7
370
    25
100
AcDbLine
 10
-328.1592632762
 20
427.2138945096
 30
0.0
 11
-328.1566666729
 21
427.3750319766
 31
0.0
  0
LINE
  5
3AF
330
337
100
AcDbEntity
  8
0
  6
Continuous
 62
     7
370
    25
100
AcDbLine
 10
189.1140613999
 20
-494.1262128587
 30
0.0
 11
189.1140613999
 21
248.80731193
 31
0.0
  0
LINE
  5
3B0
330
337
100
AcDbEntity
  8
0
  6
Continuous
 62
     7
370
    25
100
AcDbLine
 10
218.0478785574
 20
248.8913092104
 30
0.0
 11
218.0478785574
 21
-494.0422155784
 31
0.0
  0
LINE
  5
3B1
330
337
100
AcDbEntity
  8
0
  6
Continuous
 62
     7
370
    25
100
AcDbLine
 10
-297.3013988966
 20
310.0898996042
 30
0.0
 11
189.1140613999
 21
248.80731193
 31
0.0
  0
LINE
  5
3B2
330
337
100
AcDbEntity
  8
0
  6
Continuous
 62
     7
370
    25
100
AcDbLine
 10
-316.4752168286
 20
317.0687054381
 30
0.0
 11
-318.8350848321
 21
316.5322046182
 31
0.0
  0
LINE
  5
3B3
330
337
100
AcDbEntity
  8
0
  6
Continuous
 62
     7
370
    25
100
AcDbLine
 10
216.7330416087
 20
250.6113495813
 30
0.0
 11
218.0478785574
 21
248.8913092104
 31
0.0
  0
LINE
  5
3B4
330
337
100
AcDbEntity
  8
0
  6
Continuous
 62
     7
370
    25
100
AcDbLine
 10
-297.3013988966
 20
-432.8436251845
 30
0.0
 11
189.1140613999
 21
-494.1262128587
 31
0.0
  0
LINE
  5
3B5
330
337
100
AcDbEntity
  8
0
  6
Continuous
 62
     7
370
    25
100
AcDbLine
 10
-297.3013988966
 20
310.0898996042
 30
0.0
 11
-297.3013988966
 21
-432.8436251845
 31
0.0
  0
LINE
  5
3B6
330
337
100
AcDbEntity
  8
0
  6
Continuous
 62
     7
370
    25
100
AcDbLine
 10
-318.8350848321
 20
316.5322046182
 30
0.0
 11
-318.8350848321
 21
-426.4013201705
 31
0.0
  0
LINE
  5
3B7
330
337
100
AcDbEntity
  8
0
  6
Continuous
 62
     7
370
    25
100
AcDbLine
 10
-297.3013988966
 20
311.9755176874
 30
0.0
 11
189.1140613999
 21
250.6929300132
 31
0.0
  0
LINE
  5
3B8
330
337
100
AcDbEntity
  8
0
  6
Continuous
 62
     8
370
    25
100
AcDbLine
 10
240.6727708894
 20
341.081380198
 30
0.0
 11
240.6727708894
 21
-486.3680667778
 31
0.0
  0
LINE
  5
3B9
330
337
100
AcDbEntity
  8
0
  6
Continuous
 62
     8
370
    25
100
AcDbLine
 10
-298.9140590686
 20
414.4624776442
 30
0.0
 11
-298.7156124587
 21
414.4372931359
 31
0.0
  0
LINE
  5
3BA
330
337
100
AcDbEntity
  8
0
  6
Continuous
 62
     8
370
    25
100
AcDbLine
 10
189.1140613999
 20
250.6929300132
 30
0.0
 11
189.1140613999
 21
335.0110168499
 31
0.0
  0
LINE
  5
3BB
330
337
100
AcDbEntity
  8
0
  6
Continuous
 62
     8
370
    25
100
AcDbLine
 10
-297.3013988966
 20
396.2806509644
 30
0.0
 11
-297.3013988966
 21
311.9755176874
 31
0.0
  0
ARC
  5
3BC
330
337
100
AcDbEntity
  8
0
  6
Continuous
 62
     7
370
    25
100
AcDbCircle
 10
315.8322131597
 20
423.7304231069
 30
0.0
 40
1.000000000000114
100
AcDbArc
 50
0.0
 51
82.8192442221
  0
ARC
  5
3BD
330
337
100
AcDbEntity
  8
0
  6
Continuous
 62
     7
370
    25
100
AcDbCircle
 10
315.8322131597
 20
407.7026693996
 30
0.0
 40
1.000000000000171
100
AcDbArc
 50
311.40962211
 51
0.0
  0
ARC
  5
3BE
330
337
100
AcDbEntity
  8
0
  6
Continuous
 62
     7
370
    25
100
AcDbCircle
 10
-252.8997096486
 20
495.3839102337
 30
0.0
 40
0.9999999999999891
100
AcDbArc
 50
82.8192442221
 51
131.40962211
  0
ARC
  5
3BF
330
337
100
AcDbEntity
  8
0
  6
Continuous
 62
     7
370
    25
100
AcDbCircle
 10
-308.7589161572
 20
333.7499685637
 30
0.0
 40
18.34676734209848
100
AcDbArc
 50
235.3775323267
 51
236.6873895045
  0
ARC
  5
3C0
330
337
100
AcDbEntity
  8
0
  6
Continuous
 62
     7
370
    25
100
AcDbCircle
 10
244.2579169863
 20
360.6078271257
 30
0.0
 40
1.092112073957739
100
AcDbArc
 50
1.0587090425
 51
81.7605351794
  0
ARC
  5
3C1
330
337
100
AcDbEntity
  8
0
  6
Continuous
 62
     7
370
    25
100
AcDbCircle
 10
189.3112679561
 20
352.0234801055
 30
0.0
 40
1.968843722549013
100
AcDbArc
 50
144.9309440897
 51
183.5931111895
  0
ARC
  5
3C2
330
337
100
AcDbEntity
  8
0
  6
Continuous
 62
     7
370
    25
100
AcDbCircle
 10
-289.423413591
 20
495.2892390906
 30
0.0
 40
81.38204788217227
100
AcDbArc
 50
251.8328526478
 51
263.3030184088
  0
ARC
  5
3C3
330
337
100
AcDbEntity
  8
0
  6
Continuous
 62
     7
370
    25
100
AcDbCircle
 10
203.2262326414
 20
458.3882688705
 30
0.0
 40
124.1107990367928
100
AcDbArc
 50
265.5055682445
 51
279.7464611746
  0
ARC
  5
3C4
330
337
100
AcDbEntity
  8
0
  6
Continuous
 62
     7
370
    25
100
AcDbCircle
 10
-297.1041923405
 20
413.3060677797
 30
0.0
 40
1.968843722549086
100
AcDbArc
 50
144.9309440897
 51
183.5931111895
  0
ARC
  5
3C5
330
337
100
AcDbEntity
  8
0
  6
Continuous
 62
     7
370
    25
100
AcDbCircle
 10
315.6757018698
 20
423.5923931234
 30
0.0
 40
1.092112073957612
100
AcDbArc
 50
1.0587090425
 51
81.7605351794
  0
ARC
  5
3C6
330
337
100
AcDbEntity
  8
0
  6
Continuous
 62
     7
370
    25
100
AcDbCircle
 10
203.247500529
 20
-379.2168751091
 30
0.0
 40
115.7752564396947
100
AcDbArc
 50
262.9880409958
 51
277.3446269068
  0
ARC
  5
3C7
330
337
100
AcDbEntity
  8
0
  6
Continuous
 62
     7
370
    25
100
AcDbCircle
 10
203.247500529
 20
363.7166496797
 30
0.0
 40
115.7752564396866
100
AcDbArc
 50
262.9880409958
 51
277.3446269068
  0
ARC
  5
3C8
330
337
100
AcDbEntity
  8
0
  6
Continuous
 62
     7
370
    25
100
AcDbCircle
 10
203.247500529
 20
365.6022677629
 30
0.0
 40
115.775256439691
100
AcDbArc
 50
262.9880409958
 51
277.3446269068
  0
ARC
  5
3C9
330
337
100
AcDbEntity
  8
0
  6
Continuous
 62
     8
370
    25
100
AcDbCircle
 10
226.7908794531
 20
383.8416101954
 30
0.0
 40
28.30799185683922
100
AcDbArc
 50
288.7136690917
 51
308.5036455518
  0
ARC
  5
3CA
330
337
100
AcDbEntity
  8
0
  6
Continuous
 62
     8
370
    25
100
AcDbCircle
 10
244.5239189372
 20
344.5827679518
 30
0.0
 40
0.8261087315025523
100
AcDbArc
 50
311.9107911285
 51
1.2127368994
  0
ARC
  5
3CB
330
337
100
AcDbEntity
  8
0
  6
Continuous
 62
     8
370
    25
100
AcDbCircle
 10
315.9341740146
 20
407.5705953904
 30
0.0
 40
0.8335748397320787
100
AcDbArc
 50
312.1580374309
 51
0.9776572489
  0
ARC
  5
3CC
330
337
100
AcDbEntity
  8
0
  6
Continuous
 62
     8
370
    25
100
AcDbCircle
 10
-324.4357867684
 20
432.5170025992
 30
0.0
 40
0.8335866452047568
100
AcDbArc
 50
81.8417571379
 51
130.6492965904
  0
ARC
  5
3CD
330
337
100
AcDbEntity
  8
0
  6
Continuous
 62
     8
370
    25
100
AcDbCircle
 10
-253.0180026603
 20
495.5015806343
 30
0.0
 40
0.8335748397237228
100
AcDbArc
 50
81.8415869733
 51
130.6612067915
  0
VIEWPORT
  5
3DC
330
337
100
AcDbEntity
  8
0
100
AcDbViewport
 10
0.0
 20
0.0
 30
0.0
 40
205.6
 41
156.0
 68
     1
 69
     1
 12
0.0
 22
9.0
 13
0.0
 23
0.0
 14
10.0
 24
10.0
 15
10.0
 25
10.0
 16
0.0
 26
0.0
 36
1.0
 17
0.0
 27
0.0
 37
0.0
 42
50.0
 43
0.0
 44
0.0
 45
918.0
 50
0.0
 51
0.0
 72
   100
 90
   557152
  1

281
     0
 71
     1
 74
     0
110
0.0
120
0.0
130
0.0
111
1.0
121
0.0
131
0.0
112
0.0
122
1.0
132
0.0
 79
     0
146
0.0
  0
ENDBLK
  5
33A
330
337
100
AcDbEntity
  8
0
100
AcDbBlockEnd
  0
ENDSEC
  0
SECTION
  2
ENTITIES
  0
LINE
  5
B1
330
1F
100
AcDbEntity
  8
0
  6
Continuous
 62
     7
370
    25
100
AcDbLine
 10
-287.5499546279
 20
349.0
 30
0.0
 11
-287.5499546279
 21
-441.0
 31
0.0
  0
LINE
  5
B2
330
1F
100
AcDbEntity
  8
0
  6
Continuous
 62
     7
370
    25
100
AcDbLine
 10
-300.0
 20
-441.0
 30
0.0
 11
-300.0
 21
440.0
 31
0.0
  0
LINE
  5
B3
330
1F
100
AcDbEntity
  8
0
  6
Continuous
 62
     7
370
    25
100
AcDbLine
 10
-286.9760151048
 20
440.0
 30
0.0
 11
-286.9760151048
 21
349.0
 31
0.0
  0
LINE
  5
B4
330
1F
100
AcDbEntity
  8
0
  6
Continuous
 62
     7
370
    25
100
AcDbLine
 10
-286.6016603057
 20
349.0
 30
0.0
 11
-286.6016603057
 21
347.0
 31
0.0
  0
LINE
  5
B5
330
1F
100
AcDbEntity
  8
0
  6
Continuous
 62
     7
370
    25
100
AcDbLine
 10
-281.0
 20
347.0
 30
0.0
 11
-281.0
 21
349.0
 31
0.0
  0
LINE
  5
B6
330
1F
100
AcDbEntity
  8
0
  6
Continuous
 62
     7
370
    25
100
AcDbLine
 10
-281.0
 20
439.0
 30
0.0
 11
-281.0
 21
440.0
 31
0.0
  0
LINE
  5
B7
330
1F
100
AcDbEntity
  8
0
  6
Continuous
 62
     7
370
    25
100
AcDbLine
 10
281.0
 20
347.0
 30
0.0
 11
281.0
 21
349.0
 31
0.0
  0
LINE
  5
B8
330
1F
100
AcDbEntity
  8
0
  6
Continuous
 62
     7
370
    25
100
AcDbLine
 10
281.0
 20
439.0
 30
0.0
 11
281.0
 21
440.0
 31
0.0
  0
LINE
  5
B9
330
1F
100
AcDbEntity
  8
0
  6
Continuous
 62
     7
370
    25
100
AcDbLine
 10
286.9760151048
 20
440.0
 30
0.0
 11
286.9760151048
 21
349.0
 31
0.0
  0
LINE
  5
BA
330
1F
100
AcDbEntity
  8
0
  6
Continuous
 62
     7
370
    25
100
AcDbLine
 10
286.6016603057
 20
349.0
 30
0.0
 11
286.6016603057
 21
347.0
 31
0.0
  0
LINE
  5
BB
330
1F
100
AcDbEntity
  8
0
  6
Continuous
 62
     7
370
    25
100
AcDbLine
 10
300.0
 20
440.0
 30
0.0
 11
300.0
 21
-441.0
 31
0.0
  0
LINE
  5
BC
330
1F
100
AcDbEntity
  8
0
  6
Continuous
 62
     7
370
    25
100
AcDbLine
 10
287.5499546279
 20
-441.0
 30
0.0
 11
287.5499546279
 21
349.0
 31
0.0
  0
LINE
  5
BD
330
1F
100
AcDbEntity
  8
0
  6
Continuous
 62
     7
370
    25
100
AcDbLine
 10
-287.5499546279
 20
349.0
 30
0.0
 11
287.5499546279
 21
349.0
 31
0.0
  0
LINE
  5
BE
330
1F
100
AcDbEntity
  8
0
  6
Continuous
 62
     7
370
    25
100
AcDbLine
 10
304.0
 20
440.0
 30
0.0
 11
-304.0
 21
440.0
 31
0.0
  0
LINE
  5
BF
330
1F
100
AcDbEntity
  8
0
  6
Continuous
 62
     7
370
    25
100
AcDbLine
 10
-305.0
 20
441.0
 30
0.0
 11
305.0
 21
441.0
 31
0.0
  0
LINE
  5
C0
330
1F
100
AcDbEntity
  8
0
  6
Continuous
 62
     7
370
    25
100
AcDbLine
 10
305.0
 20
458.0
 30
0.0
 11
-305.0
 21
458.0
 31
0.0
  0
LINE
  5
C1
330
1F
100
AcDbEntity
  8
0
  6
Continuous
 62
     7
370
    25
100
AcDbLine
 10
-260.0
 20
459.0
 30
0.0
 11
-260.0
 21
440.0
 31
0.0
  0
LINE
  5
C2
330
1F
100
AcDbEntity
  8
0
  6
Continuous
 62
     7
370
    25
100
AcDbLine
 10
-304.0
 20
459.0
 30
0.0
 11
304.0
 21
459.0
 31
0.0
  0
LINE
  5
C3
330
1F
100
AcDbEntity
  8
0
  6
Continuous
 62
     7
370
    25
100
AcDbLine
 10
260.0
 20
459.0
 30
0.0
 11
260.0
 21
440.0
 31
0.0
  0
LINE
  5
C4
330
1F
100
AcDbEntity
  8
0
  6
Continuous
 62
     7
370
    25
100
AcDbLine
 10
305.0
 20
458.0
 30
0.0
 11
305.0
 21
441.0
 31
0.0
  0
LINE
  5
C5
330
1F
100
AcDbEntity
  8
0
  6
Continuous
 62
     7
370
    25
100
AcDbLine
 10
-305.0
 20
458.0
 30
0.0
 11
-305.0
 21
441.0
 31
0.0
  0
LINE
  5
C6
330
1F
100
AcDbEntity
  8
0
  6
Continuous
 62
     7
370
    25
100
AcDbLine
 10
260.0
 20
-441.0
 30
0.0
 11
260.0
 21
347.0
 31
0.0
  0
LINE
  5
C7
330
1F
100
AcDbEntity
  8
0
  6
Continuous
 62
     7
370
    25
100
AcDbLine
 10
-260.0
 20
347.0
 30
0.0
 11
-260.0
 21
-441.0
 31
0.0
  0
LINE
  5
C8
330
1F
100
AcDbEntity
  8
0
  6
Continuous
 62
     7
370
    25
100
AcDbLine
 10
-286.9760151048
 20
347.0
 30
0.0
 11
286.9760151048
 21
347.0
 31
0.0
  0
LINE
  5
C9
330
1F
100
AcDbEntity
  8
0
  6
Continuous
 62
     7
370
    25
100
AcDbLine
 10
-300.0
 20
-441.0
 30
0.0
 11
300.0
 21
-441.0
 31
0.0
  0
LINE
  5
CA
330
1F
100
AcDbEntity
  8
0
  6
Continuous
 62
     7
370
    25
100
AcDbLine
 10
286.9760151048
 20
347.0
 30
0.0
 11
286.9760151048
 21
-441.0
 31
0.0
  0
LINE
  5
CB
330
1F
100
AcDbEntity
  8
0
  6
Continuous
 62
     7
370
    25
100
AcDbLine
 10
-286.9760151048
 20
347.0
 30
0.0
 11
-286.9760151048
 21
-441.0
 31
0.0
  0
LINE
  5
CC
330
1F
100
AcDbEntity
  8
0
  6
Continuous
 62
     7
370
    25
100
AcDbLine
 10
-260.0
 20
439.0
 30
0.0
 11
-260.0
 21
349.0
 31
0.0
  0
LINE
  5
CD
330
1F
100
AcDbEntity
  8
0
  6
Continuous
 62
     7
370
    25
100
AcDbLine
 10
-286.9760151048
 20
439.0
 30
0.0
 11
286.9760151048
 21
439.0
 31
0.0
  0
LINE
  5
CE
330
1F
100
AcDbEntity
  8
0
  6
Continuous
 62
     7
370
    25
100
AcDbLine
 10
260.0
 20
349.0
 30
0.0
 11
260.0
 21
439.0
 31
0.0
  0
ARC
  5
CF
330
1F
100
AcDbEntity
  8
0
  6
Continuous
 62
     7
370
    25
100
AcDbCircle
 10
304.0
 20
441.0
 30
0.0
 40
1.000000000000057
100
AcDbArc
 50
270.0
 51
360.0
  0
ARC
  5
D0
330
1F
100
AcDbEntity
  8
0
  6
Continuous
 62
     7
370
    25
100
AcDbCircle
 10
304.0
 20
458.0
 30
0.0
 40
0.9999999999999432
100
AcDbArc
 50
360.0
 51
90.0
  0
ARC
  5
D1
330
1F
100
AcDbEntity
  8
0
  6
Continuous
 62
     7
370
    25
100
AcDbCircle
 10
-304.0
 20
441.0
 30
0.0
 40
1.000000000000114
100
AcDbArc
 50
180.0
 51
270.0
  0
ARC
  5
D2
330
1F
100
AcDbEntity
  8
0
  6
Continuous
 62
     7
370
    25
100
AcDbCircle
 10
-304.0
 20
458.0
 30
0.0
 40
0.9999999999999432
100
AcDbArc
 50
90.0
 51
180.0
  0
LINE
  5
F5
330
1B
100
AcDbEntity
 67
     1
  8
0
  6
Continuous
 62
     7
370
    25
100
AcDbLine
 10
281.0
 20
-441.0
 30
0.0
 11
281.0
 21
440.0
 31
0.0
  0
LINE
  5
F6
330
1B
100
AcDbEntity
 67
     1
  8
0
  6
Continuous
 62
     7
370
    25
100
AcDbLine
 10
300.0
 20
-441.0
 30
0.0
 11
300.0
 21
440.0
 31
0.0
  0
LINE
  5
F7
330
1B
100
AcDbEntity
 67
     1
  8
0
  6
Continuous
 62
     7
370
    25
100
AcDbLine
 10
-300.0
 20
-441.0
 30
0.0
 11
300.0
 21
-441.0
 31
0.0
  0
LINE
  5
F8
330
1B
100
AcDbEntity
 67
     1
  8
0
  6
Continuous
 62
     7
370
    25
100
AcDbLine
 10
-300.0
 20
-441.0
 30
0.0
 11
-300.0
 21
440.0
 31
0.0
  0
LINE
  5
F9
330
1B
100
AcDbEntity
 67
     1
  8
0
  6
Continuous
 62
     7
370
    25
100
AcDbLine
 10
-281.0
 20
-441.0
 30
0.0
 11
-281.0
 21
440.0
 31
0.0
  0
LINE
  5
FA
330
1B
100
AcDbEntity
 67
     1
  8
0
  6
Continuous
 62
     7
370
    25
100
AcDbLine
 10
304.0
 20
440.0
 30
0.0
 11
-304.0
 21
440.0
 31
0.0
  0
LINE
  5
FB
330
1B
100
AcDbEntity
 67
     1
  8
0
  6
Continuous
 62
     7
370
    25
100
AcDbLine
 10
305.0
 20
458.0
 30
0.0
 11
305.0
 21
441.0
 31
0.0
  0
LINE
  5
FC
330
1B
100
AcDbEntity
 67
     1
  8
0
  6
Continuous
 62
     7
370
    25
100
AcDbLine
 10
-305.0
 20
441.0
 30
0.0
 11
305.0
 21
441.0
 31
0.0
  0
LINE
  5
FD
330
1B
100
AcDbEntity
 67
     1
  8
0
  6
Continuous
 62
     7
370
    25
100
AcDbLine
 10
304.0
 20
440.0
 30
0.0
 11
304.0
 21
459.0
 31
0.0
  0
LINE
  5
FE
330
1B
100
AcDbEntity
 67
     1
  8
0
  6
Continuous
 62
     7
370
    25
100
AcDbLine
 10
305.0
 20
458.0
 30
0.0
 11
-305.0
 21
458.0
 31
0.0
  0
LINE
  5
FF
330
1B
100
AcDbEntity
 67
     1
  8
0
  6
Continuous
 62
     7
370
    25
100
AcDbLine
 10
-304.0
 20
459.0
 30
0.0
 11
-304.0
 21
440.0
 31
0.0
  0
LINE
  5
100
330
1B
100
AcDbEntity
 67
     1
  8
0
  6
Continuous
 62
     7
370
    25
100
AcDbLine
 10
-304.0
 20
459.0
 30
0.0
 11
304.0
 21
459.0
 31
0.0
  0
LINE
  5
101
330
1B
100
AcDbEntity
 67
     1
  8
0
  6
Continuous
 62
     7
370
    25
100
AcDbLine
 10
-305.0
 20
441.0
 30
0.0
 11
-305.0
 21
458.0
 31
0.0
  0
LINE
  5
102
330
1B
100
AcDbEntity
 67
     1
  8
0
  6
Continuous
 62
     7
370
    25
100
AcDbLine
 10
-281.0
 20
347.0
 30
0.0
 11
281.0
 21
347.0
 31
0.0
  0
LINE
  5
103
330
1B
100
AcDbEntity
 67
     1
  8
0
  6
Continuous
 62
     7
370
    25
100
AcDbLine
 10
-281.0
 20
439.0
 30
0.0
 11
281.0
 21
439.0
 31
0.0
  0
LINE
  5
104
330
1B
100
AcDbEntity
 67
     1
  8
0
  6
Continuous
 62
     7
370
    25
100
AcDbLine
 10
-281.0
 20
349.0
 30
0.0
 11
281.0
 21
349.0
 31
0.0
  0
ARC
  5
105
330
1B
100
AcDbEntity
 67
     1
  8
0
  6
Continuous
 62
     7
370
    25
100
AcDbCircle
 10
-304.0
 20
458.0
 30
0.0
 40
1.0
100
AcDbArc
 50
90.0
 51
180.0
  0
ARC
  5
106
330
1B
100
AcDbEntity
 67
     1
  8
0
  6
Continuous
 62
     7
370
    25
100
AcDbCircle
 10
304.0
 20
441.0
 30
0.0
 40
1.000000000000114
100
AcDbArc
 50
270.0
 51
360.0
  0
ARC
  5
107
330
1B
100
AcDbEntity
 67
     1
  8
0
  6
Continuous
 62
     7
370
    25
100
AcDbCircle
 10
-304.0
 20
441.0
 30
0.0
 40
1.000000000000114
100
AcDbArc
 50
180.0
 51
270.0
  0
ARC
  5
108
330
1B
100
AcDbEntity
 67
     1
  8
0
  6
Continuous
 62
     7
370
    25
100
AcDbCircle
 10
304.0
 20
458.0
 30
0.0
 40
0.9999999999999432
100
AcDbArc
 50
360.0
 51
90.0
  0
VIEWPORT
  5
3CE
330
1B
100
AcDbEntity
 67
     1
  8
0
100
AcDbViewport
 10
0.0
 20
0.0
 30
0.0
 40
205.6
 41
156.0
 68
     1
 69
     1
 12
0.0
 22
9.0
 13
0.0
 23
0.0
 14
10.0
 24
10.0
 15
10.0
 25
10.0
 16
0.0
 26
0.0
 36
1.0
 17
0.0
 27
0.0
 37
0.0
 42
50.0
 43
0.0
 44
0.0
 45
918.0
 50
0.0
 51
0.0
 72
   100
 90
   557152
  1

281
     0
 71
     1
 74
     0
110
0.0
120
0.0
130
0.0
111
1.0
121
0.0
131
0.0
112
0.0
122
1.0
132
0.0
 79
     0
146
0.0
  0
ENDSEC
  0
SECTION
  2
OBJECTS
  0
DICTIONARY
  5
C
330
0
100
AcDbDictionary
281
     1
  3
ACAD_GROUP
350
D
  3
ACAD_LAYOUT
350
1A
  3
ACAD_MLINESTYLE
350
17
  3
ACAD_PLOTSETTINGS
350
19
  3
ACAD_PLOTSTYLENAME
350
E
  3
ACAD_SCALELIST
350
47
  0
DICTIONARY
  5
D
102
{ACAD_REACTORS
330
C
102
}
330
C
100
AcDbDictionary
281
     1
  0
DICTIONARY
  5
1A
102
{ACAD_REACTORS
330
C
102
}
330
C
100
AcDbDictionary
281
     1
  3
_Back
350
1E
  3
_Bottom
350
1B6
  3
_Dimetric
350
338
  3
_Isometric
350
208
  3
_Left
350
26
  3
_Right
350
148
  3
_Top
350
18A
  3
_Trimetric
350
2A2
  3
Model
350
22
  0
DICTIONARY
  5
17
102
{ACAD_REACTORS
330
C
102
}
330
C
100
AcDbDictionary
281
     1
  3
Standard
350
18
  0
DICTIONARY
  5
19
102
{ACAD_REACTORS
330
C
102
}
330
C
100
AcDbDictionary
281
     1
  0
ACDBDICTIONARYWDFLT
  5
E
102
{ACAD_REACTORS
330
C
102
}
330
C
100
AcDbDictionary
281
     1
  3
Normal
350
F
100
AcDbDictionaryWithDefault
340
F
  0
DICTIONARY
  5
47
102
{ACAD_REACTORS
330
C
102
}
330
C
100
AcDbDictionary
281
     1
  3
A0
350
48
  3
A1
350
49
  3
A2
350
4A
  3
A3
350
4B
  3
A4
350
4C
  3
A5
350
4D
  3
A6
350
4E
  3
A7
350
4F
  3
A8
350
50
  3
A9
350
51
  3
B0
350
52
  3
B1
350
53
  3
B2
350
54
  3
B3
350
55
  3
B4
350
56
  3
B5
350
57
  3
B6
350
58
  3
B7
350
59
  3
B8
350
5A
  3
B9
350
5B
  3
C0
350
5C
  3
C1
350
5D
  3
C2
350
5E
  3
C3
350
5F
  3
C4
350
60
  3
C5
350
61
  3
C6
350
62
  3
C7
350
63
  3
C8
350
64
  3
C9
350
65
  3
D0
350
66
  3
D1
350
67
  3
D2
350
68
  0
LAYOUT
  5
1E
102
{ACAD_REACTORS
330
1A
102
}
330
1A
100
AcDbPlotSettings
  1

  2
none_device
  4
ISO_A4_(210.00_x_297.00_MM)
  6

 40
7.5
 41
20.0
 42
7.5
 43
20.0
 44
210.0
 45
297.0
 46
0.0
 47
0.0
 48
0.0
 49
0.0
140
0.0
141
0.0
142
1.0
143
4.6153846154
 70
   688
 72
     1
 73
     1
 74
     1
  7

 75
     0
147
0.2166666667
148
305.0
149
441.0
100
AcDbLayout
  1
_Back
 70
     1
 71
     1
 10
-397.3076923077
 20
-475.6153846154
 11
973.4615384615
 21
493.6153846154
 12
0.0
 22
0.0
 32
0.0
 14
-305.0
 24
-441.0
 34
0.0
 15
305.0
 25
459.0
 35
0.0
146
0.0
 13
0.0
 23
0.0
 33
0.0
 16
1.0
 26
0.0
 36
0.0
 17
0.0
 27
1.0
 37
0.0
 76
     0
330
1B
331
3CE
  0
LAYOUT
  5
1B6
102
{ACAD_REACTORS
330
1A
102
}
330
1A
100
AcDbPlotSettings
  1

  2
none_device
  4
ISO_A4_(210.00_x_297.00_MM)
  6

 40
7.5
 41
20.0
 42
7.5
 43
20.0
 44
210.0
 45
297.0
 46
0.0
 47
0.0
 48
0.0
 49
0.0
140
0.0
141
0.0
142
1.0
143
4.6153846154
 70
   688
 72
     1
 73
     1
 74
     1
  7

 75
     0
147
0.2166666667
148
305.0
149
441.0
100
AcDbLayout
  1
_Bottom
 70
     1
 71
     5
 10
0.0
 20
0.0
 11
0.0
 21
0.0
 12
0.0
 22
0.0
 32
0.0
 14
0.0
 24
0.0
 34
0.0
 15
0.0
 25
0.0
 35
0.0
146
0.0
 13
0.0
 23
0.0
 33
0.0
 16
1.0
 26
0.0
 36
0.0
 17
0.0
 27
1.0
 37
0.0
 76
     0
330
1B5
331
3D6
  0
LAYOUT
  5
338
102
{ACAD_REACTORS
330
1A
102
}
330
1A
100
AcDbPlotSettings
  1

  2
none_device
  4
ISO_A4_(210.00_x_297.00_MM)
  6

 40
7.5
 41
20.0
 42
7.5
 43
20.0
 44
210.0
 45
297.0
 46
0.0
 47
0.0
 48
0.0
 49
0.0
140
0.0
141
0.0
142
1.0
143
4.6153846154
 70
   688
 72
     1
 73
     1
 74
     1
  7

 75
     0
147
0.2166666667
148
305.0
149
441.0
100
AcDbLayout
  1
_Dimetric
 70
     1
 71
     8
 10
0.0
 20
0.0
 11
0.0
 21
0.0
 12
0.0
 22
0.0
 32
0.0
 14
0.0
 24
0.0
 34
0.0
 15
0.0
 25
0.0
 35
0.0
146
0.0
 13
0.0
 23
0.0
 33
0.0
 16
1.0
 26
0.0
 36
0.0
 17
0.0
 27
1.0
 37
0.0
 76
     0
330
337
331
3DC
  0
LAYOUT
  5
208
102
{ACAD_REACTORS
330
1A
102
}
330
1A
100
AcDbPlotSettings
  1

  2
none_device
  4
ISO_A4_(210.00_x_297.00_MM)
  6

 40
7.5
 41
20.0
 42
7.5
 43
20.0
 44
210.0
 45
297.0
 46
0.0
 47
0.0
 48
0.0
 49
0.0
140
0.0
141
0.0
142
1.0
143
4.6153846154
 70
   688
 72
     1
 73
     1
 74
     1
  7

 75
     0
147
0.2166666667
148
305.0
149
441.0
100
AcDbLayout
  1
_Isometric
 70
     1
 71
     6
 10
0.0
 20
0.0
 11
0.0
 21
0.0
 12
0.0
 22
0.0
 32
0.0
 14
0.0
 24
0.0
 34
0.0
 15
0.0
 25
0.0
 35
0.0
146
0.0
 13
0.0
 23
0.0
 33
0.0
 16
1.0
 26
0.0
 36
0.0
 17
0.0
 27
1.0
 37
0.0
 76
     0
330
207
331
3D8
  0
LAYOUT
  5
26
102
{ACAD_REACTORS
330
1A
102
}
330
1A
100
AcDbPlotSettings
  1

  2
none_device
  4
ISO_A4_(210.00_x_297.00_MM)
  6

 40
7.5
 41
20.0
 42
7.5
 43
20.0
 44
210.0
 45
297.0
 46
0.0
 47
0.0
 48
0.0
 49
0.0
140
0.0
141
0.0
142
1.0
143
4.6153846154
 70
   688
 72
     1
 73
     1
 74
     1
  7

 75
     0
147
0.2166666667
148
305.0
149
441.0
100
AcDbLayout
  1
_Left
 70
     1
 71
     2
 10
0.0
 20
0.0
 11
0.0
 21
0.0
 12
0.0
 22
0.0
 32
0.0
 14
0.0
 24
0.0
 34
0.0
 15
0.0
 25
0.0
 35
0.0
146
0.0
 13
0.0
 23
0.0
 33
0.0
 16
1.0
 26
0.0
 36
0.0
 17
0.0
 27
1.0
 37
0.0
 76
     0
330
23
331
3D0
  0
LAYOUT
  5
148
102
{ACAD_REACTORS
330
1A
102
}
330
1A
100
AcDbPlotSettings
  1

  2
none_device
  4
ISO_A4_(210.00_x_297.00_MM)
  6

 40
7.5
 41
20.0
 42
7.5
 43
20.0
 44
210.0
 45
297.0
 46
0.0
 47
0.0
 48
0.0
 49
0.0
140
0.0
141
0.0
142
1.0
143
4.6153846154
 70
   688
 72
     1
 73
     1
 74
     1
  7

 75
     0
147
0.2166666667
148
305.0
149
441.0
100
AcDbLayout
  1
_Right
 70
     1
 71
     3
 10
0.0
 20
0.0
 11
0.0
 21
0.0
 12
0.0
 22
0.0
 32
0.0
 14
0.0
 24
0.0
 34
0.0
 15
0.0
 25
0.0
 35
0.0
146
0.0
 13
0.0
 23
0.0
 33
0.0
 16
1.0
 26
0.0
 36
0.0
 17
0.0
 27
1.0
 37
0.0
 76
     0
330
147
331
3D2
  0
LAYOUT
  5
18A
102
{ACAD_REACTORS
330
1A
102
}
330
1A
100
AcDbPlotSettings
  1

  2
none_device
  4
ISO_A4_(210.00_x_297.00_MM)
  6

 40
7.5
 41
20.0
 42
7.5
 43
20.0
 44
210.0
 45
297.0
 46
0.0
 47
0.0
 48
0.0
 49
0.0
140
0.0
141
0.0
142
1.0
143
4.6153846154
 70
   688
 72
     1
 73
     1
 74
     1
  7

 75
     0
147
0.2166666667
148
305.0
149
441.0
100
AcDbLayout
  1
_Top
 70
     1
 71
     4
 10
0.0
 20
0.0
 11
0.0
 21
0.0
 12
0.0
 22
0.0
 32
0.0
 14
0.0
 24
0.0
 34
0.0
 15
0.0
 25
0.0
 35
0.0
146
0.0
 13
0.0
 23
0.0
 33
0.0
 16
1.0
 26
0.0
 36
0.0
 17
0.0
 27
1.0
 37
0.0
 76
     0
330
189
331
3D4
  0
LAYOUT
  5
2A2
102
{ACAD_REACTORS
330
1A
102
}
330
1A
100
AcDbPlotSettings
  1

  2
none_device
  4
ISO_A4_(210.00_x_297.00_MM)
  6

 40
7.5
 41
20.0
 42
7.5
 43
20.0
 44
210.0
 45
297.0
 46
0.0
 47
0.0
 48
0.0
 49
0.0
140
0.0
141
0.0
142
1.0
143
4.6153846154
 70
   688
 72
     1
 73
     1
 74
     1
  7

 75
     0
147
0.2166666667
148
305.0
149
441.0
100
AcDbLayout
  1
_Trimetric
 70
     1
 71
     7
 10
0.0
 20
0.0
 11
0.0
 21
0.0
 12
0.0
 22
0.0
 32
0.0
 14
0.0
 24
0.0
 34
0.0
 15
0.0
 25
0.0
 35
0.0
146
0.0
 13
0.0
 23
0.0
 33
0.0
 16
1.0
 26
0.0
 36
0.0
 17
0.0
 27
1.0
 37
0.0
 76
     0
330
2A1
331
3DA
  0
LAYOUT
  5
22
102
{ACAD_REACTORS
330
1A
102
}
330
1A
100
AcDbPlotSettings
  1

  2
none_device
  4
ANSI_A_(11.00_x_8.50_Inches)
  6

 40
6.35
 41
19.05
 42
6.35000508
 43
19.05000254
 44
279.4
 45
215.9
 46
133.34999746
 47
86.76258873
 48
0.0
 49
0.0
140
0.0
141
0.0
142
0.00935
143
1.0
 70
  1696
 72
     0
 73
     0
 74
     0
  7

 75
     0
147
0.0179189148
148
-1300.4909072572
149
0.0
100
AcDbLayout
  1
Model
 70
     1
 71
     0
 10
0.0
 20
0.0
 11
420.0
 21
297.0
 12
0.0
 22
0.0
 32
0.0
 14
-305.0
 24
-441.0
 34
0.0
 15
305.0
 25
459.0
 35
0.0
146
0.0
 13
0.0
 23
0.0
 33
0.0
 16
1.0
 26
0.0
 36
0.0
 17
0.0
 27
1.0
 37
0.0
 76
     0
330
1F
331
29
  0
MLINESTYLE
  5
18
102
{ACAD_REACTORS
330
17
102
}
330
17
100
AcDbMlineStyle
  2
Standard
 70
     0
  3

 62
   256
 51
90.0
 52
90.0
 71
     2
 49
0.5
 62
   256
  6
BYLAYER
 49
-0.5
 62
   256
  6
BYLAYER
  0
ACDBPLACEHOLDER
  5
F
102
{ACAD_REACTORS
330
E
102
}
330
E
  0
SCALE
  5
48
102
{ACAD_REACTORS
330
47
102
}
330
47
100
AcDbScale
 70
     0
300
1:1
140
1.0
141
1.0
290
     1
  0
SCALE
  5
49
102
{ACAD_REACTORS
330
47
102
}
330
47
100
AcDbScale
 70
     0
300
1:2
140
1.0
141
2.0
290
     0
  0
SCALE
  5
4A
102
{ACAD_REACTORS
330
47
102
}
330
47
100
AcDbScale
 70
     0
300
1:4
140
1.0
141
4.0
290
     0
  0
SCALE
  5
4B
102
{ACAD_REACTORS
330
47
102
}
330
47
100
AcDbScale
 70
     0
300
1:5
140
1.0
141
5.0
290
     0
  0
SCALE
  5
4C
102
{ACAD_REACTORS
330
47
102
}
330
47
100
AcDbScale
 70
     0
300
1:8
140
1.0
141
8.0
290
     0
  0
SCALE
  5
4D
102
{ACAD_REACTORS
330
47
102
}
330
47
100
AcDbScale
 70
     0
300
1:10
140
1.0
141
10.0
290
     0
  0
SCALE
  5
4E
102
{ACAD_REACTORS
330
47
102
}
330
47
100
AcDbScale
 70
     0
300
1:16
140
1.0
141
16.0
290
     0
  0
SCALE
  5
4F
102
{ACAD_REACTORS
330
47
102
}
330
47
100
AcDbScale
 70
     0
300
1:20
140
1.0
141
20.0
290
     0
  0
SCALE
  5
50
102
{ACAD_REACTORS
330
47
102
}
330
47
100
AcDbScale
 70
     0
300
1:30
140
1.0
141
30.0
290
     0
  0
SCALE
  5
51
102
{ACAD_REACTORS
330
47
102
}
330
47
100
AcDbScale
 70
     0
300
1:40
140
1.0
141
40.0
290
     0
  0
SCALE
  5
52
102
{ACAD_REACTORS
330
47
102
}
330
47
100
AcDbScale
 70
     0
300
1:50
140
1.0
141
50.0
290
     0
  0
SCALE
  5
53
102
{ACAD_REACTORS
330
47
102
}
330
47
100
AcDbScale
 70
     0
300
1:100
140
1.0
141
100.0
290
     0
  0
SCALE
  5
54
102
{ACAD_REACTORS
330
47
102
}
330
47
100
AcDbScale
 70
     0
300
2:1
140
2.0
141
1.0
290
     0
  0
SCALE
  5
55
102
{ACAD_REACTORS
330
47
102
}
330
47
100
AcDbScale
 70
     0
300
4:1
140
4.0
141
1.0
290
     0
  0
SCALE
  5
56
102
{ACAD_REACTORS
330
47
102
}
330
47
100
AcDbScale
 70
     0
300
8:1
140
8.0
141
1.0
290
     0
  0
SCALE
  5
57
102
{ACAD_REACTORS
330
47
102
}
330
47
100
AcDbScale
 70
     0
300
10:1
140
10.0
141
1.0
290
     0
  0
SCALE
  5
58
102
{ACAD_REACTORS
330
47
102
}
330
47
100
AcDbScale
 70
     0
300
100:1
140
100.0
141
1.0
290
     0
  0
SCALE
  5
59
102
{ACAD_REACTORS
330
47
102
}
330
47
100
AcDbScale
 70
     0
300
1/128" = 1'-0"
140
0.0078125
141
12.0
290
     0
  0
SCALE
  5
5A
102
{ACAD_REACTORS
330
47
102
}
330
47
100
AcDbScale
 70
     0
300
1/64" = 1'-0"
140
0.015625
141
12.0
290
     0
  0
SCALE
  5
5B
102
{ACAD_REACTORS
330
47
102
}
330
47
100
AcDbScale
 70
     0
300
1/32" = 1'-0"
140
0.03125
141
12.0
290
     0
  0
SCALE
  5
5C
102
{ACAD_REACTORS
330
47
102
}
330
47
100
AcDbScale
 70
     0
300
1/16" = 1'-0"
140
0.0625
141
12.0
290
     0
  0
SCALE
  5
5D
102
{ACAD_REACTORS
330
47
102
}
330
47
100
AcDbScale
 70
     0
300
3/32" = 1'-0"
140
0.09375
141
12.0
290
     0
  0
SCALE
  5
5E
102
{ACAD_REACTORS
330
47
102
}
330
47
100
AcDbScale
 70
     0
300
1/8" = 1'-0"
140
0.125
141
12.0
290
     0
  0
SCALE
  5
5F
102
{ACAD_REACTORS
330
47
102
}
330
47
100
AcDbScale
 70
     0
300
3/16" = 1'-0"
140
0.1875
141
12.0
290
     0
  0
SCALE
  5
60
102
{ACAD_REACTORS
330
47
102
}
330
47
100
AcDbScale
 70
     0
300
1/4" = 1'-0"
140
0.25
141
12.0
290
     0
  0
SCALE
  5
61
102
{ACAD_REACTORS
330
47
102
}
330
47
100
AcDbScale
 70
     0
300
3/8" = 1'-0"
140
0.375
141
12.0
290
     0
  0
SCALE
  5
62
102
{ACAD_REACTORS
330
47
102
}
330
47
100
AcDbScale
 70
     0
300
1/2" = 1'-0"
140
0.5
141
12.0
290
     0
  0
SCALE
  5
63
102
{ACAD_REACTORS
330
47
102
}
330
47
100
AcDbScale
 70
     0
300
3/4" = 1'-0"
140
0.75
141
12.0
290
     0
  0
SCALE
  5
64
102
{ACAD_REACTORS
330
47
102
}
330
47
100
AcDbScale
 70
     0
300
1" = 1'-0"
140
1.0
141
12.0
290
     0
  0
SCALE
  5
65
102
{ACAD_REACTORS
330
47
102
}
330
47
100
AcDbScale
 70
     0
300
1-1/2" = 1'-0"
140
1.5
141
12.0
290
     0
  0
SCALE
  5
66
102
{ACAD_REACTORS
330
47
102
}
330
47
100
AcDbScale
 70
     0
300
3" = 1'-0"
140
3.0
141
12.0
290
     0
  0
SCALE
  5
67
102
{ACAD_REACTORS
330
47
102
}
330
47
100
AcDbScale
 70
     0
300
6" = 1'-0"
140
6.0
141
12.0
290
     0
  0
SCALE
  5
68
102
{ACAD_REACTORS
330
47
102
}
330
47
100
AcDbScale
 70
     0
300
1'-0" = 1'-0"
140
12.0
141
12.0
290
     0
  0
ENDSEC
  0
EOF
