  0
SECTION
  2
HEADER
  9
$ACADVER
  1
AC1015
  9
$ACADMAINTVER
 70
     6
  9
$DWGCODEPAGE
  3
ANSI_1252
  9
$INSBASE
 10
0.0
 20
0.0
 30
0.0
  9
$EXTMIN
 10
-249.7310993736
 20
-270.0
 30
0.0
  9
$EXTMAX
 10
249.7310993736
 20
329.0
 30
0.0
  9
$LIMMIN
 10
0.0
 20
0.0
  9
$LIMMAX
 10
420.0
 20
297.0
  9
$ORTHOMODE
 70
     0
  9
$REGENMODE
 70
     1
  9
$FILLMODE
 70
     1
  9
$QTEXTMODE
 70
     0
  9
$MIRRTEXT
 70
     1
  9
$LTSCALE
 40
1.0
  9
$ATTMODE
 70
     1
  9
$TEXTSIZE
 40
3.5
  9
$TRACEWID
 40
1.0
  9
$TEXTSTYLE
  7
Standard
  9
$CLAYER
  8
0
  9
$CELTYPE
  6
ByLayer
  9
$CECOLOR
 62
   256
  9
$CELTSCALE
 40
1.0
  9
$DISPSILH
 70
     0
  9
$DIMSCALE
 40
1.0
  9
$DIMASZ
 40
3.302
  9
$DIMEXO
 40
1.0
  9
$DIMDLI
 40
3.75
  9
$DIMRND
 40
0.0
  9
$DIMDLE
 40
0.0
  9
$DIMEXE
 40
1.0
  9
$DIMTP
 40
0.0
  9
$DIMTM
 40
0.0
  9
$DIMTXT
 40
3.5
  9
$DIMCEN
 40
2.5
  9
$DIMTSZ
 40
0.0
  9
$DIMTOL
 70
     0
  9
$DIMLIM
 70
     0
  9
$DIMTIH
 70
     1
  9
$DIMTOH
 70
     1
  9
$DIMSE1
 70
     0
  9
$DIMSE2
 70
     0
  9
$DIMTAD
 70
     1
  9
$DIMZIN
 70
     1
  9
$DIMBLK
  1

  9
$DIMASO
 70
     1
  9
$DIMSHO
 70
     1
  9
$DIMPOST
  1

  9
$DIMAPOST
  1

  9
$DIMALT
 70
     0
  9
$DIMALTD
 70
     3
  9
$DIMALTF
 40
0.0393700787
  9
$DIMLFAC
 40
1.0
  9
$DIMTOFL
 70
     1
  9
$DIMTVP
 40
0.0
  9
$DIMTIX
 70
     0
  9
$DIMSOXD
 70
     0
  9
$DIMSAH
 70
     0
  9
$DIMBLK1
  1

  9
$DIMBLK2
  1

  9
$DIMSTYLE
  2
ISO-25
  9
$DIMCLRD
 70
     0
  9
$DIMCLRE
 70
     0
  9
$DIMCLRT
 70
     0
  9
$DIMTFAC
 40
1.0
  9
$DIMGAP
 40
1.524
  9
$DIMJUST
 70
     0
  9
$DIMSD1
 70
     0
  9
$DIMSD2
 70
     0
  9
$DIMTOLJ
 70
     0
  9
$DIMTZIN
 70
     1
  9
$DIMALTZ
 70
     0
  9
$DIMALTTZ
 70
     0
  9
$DIMUPT
 70
     0
  9
$DIMDEC
 70
     2
  9
$DIMTDEC
 70
     2
  9
$DIMALTU
 70
     2
  9
$DIMALTTD
 70
     3
  9
$DIMTXSTY
  7
Standard
  9
$DIMAUNIT
 70
     0
  9
$DIMADEC
 70
     2
  9
$DIMALTRND
 40
0.0
  9
$DIMAZIN
 70
     0
  9
$DIMDSEP
 70
    44
  9
$DIMATFIT
 70
     3
  9
$DIMFRAC
 70
     0
  9
$DIMLDRBLK
  1

  9
$DIMLUNIT
 70
     2
  9
$DIMLWD
 70
    -2
  9
$DIMLWE
 70
    -2
  9
$DIMTMOVE
 70
     0
  9
$LUNITS
 70
     2
  9
$LUPREC
 70
     2
  9
$SKETCHINC
 40
1.0
  9
$FILLETRAD
 40
10.0
  9
$AUNITS
 70
     0
  9
$AUPREC
 70
     2
  9
$MENU
  1
.
  9
$ELEVATION
 40
0.0
  9
$PELEVATION
 40
0.0
  9
$THICKNESS
 40
0.0
  9
$LIMCHECK
 70
     0
  9
$CHAMFERA
 40
0.0
  9
$CHAMFERB
 40
0.0
  9
$CHAMFERC
 40
0.0
  9
$CHAMFERD
 40
0.0
  9
$SKPOLY
 70
     0
  9
$TDCREATE
 40
2458862.437208229
  9
$TDUCREATE
 40
2458862.437208229
  9
$TDUPDATE
 40
2458862.437242789
  9
$TDUUPDATE
 40
2458862.437242789
  9
$TDINDWG
 40
0.0000000116
  9
$TDUSRTIMER
 40
0.0000000116
  9
$USRTIMER
 70
     1
  9
$ANGBASE
 50
0.0
  9
$ANGDIR
 70
     0
  9
$PDMODE
 70
     0
  9
$PDSIZE
 40
-1.0
  9
$PLINEWID
 40
0.0
  9
$SPLFRAME
 70
     0
  9
$SPLINETYPE
 70
     6
  9
$SPLINESEGS
 70
     8
  9
$HANDSEED
  5
557
  9
$SURFTAB1
 70
     6
  9
$SURFTAB2
 70
     6
  9
$SURFTYPE
 70
     6
  9
$SURFU
 70
     6
  9
$SURFV
 70
     6
  9
$UCSBASE
  2

  9
$UCSNAME
  2

  9
$UCSORG
 10
0.0
 20
0.0
 30
0.0
  9
$UCSXDIR
 10
1.0
 20
0.0
 30
0.0
  9
$UCSYDIR
 10
0.0
 20
1.0
 30
0.0
  9
$UCSORTHOREF
  2

  9
$UCSORTHOVIEW
 70
     0
  9
$UCSORGTOP
 10
0.0
 20
0.0
 30
0.0
  9
$UCSORGBOTTOM
 10
0.0
 20
0.0
 30
0.0
  9
$UCSORGLEFT
 10
0.0
 20
0.0
 30
0.0
  9
$UCSORGRIGHT
 10
0.0
 20
0.0
 30
0.0
  9
$UCSORGFRONT
 10
0.0
 20
0.0
 30
0.0
  9
$UCSORGBACK
 10
0.0
 20
0.0
 30
0.0
  9
$PUCSBASE
  2

  9
$PUCSNAME
  2

  9
$PUCSORG
 10
0.0
 20
0.0
 30
0.0
  9
$PUCSXDIR
 10
1.0
 20
0.0
 30
0.0
  9
$PUCSYDIR
 10
0.0
 20
1.0
 30
0.0
  9
$PUCSORTHOREF
  2

  9
$PUCSORTHOVIEW
 70
     0
  9
$PUCSORGTOP
 10
0.0
 20
0.0
 30
0.0
  9
$PUCSORGBOTTOM
 10
0.0
 20
0.0
 30
0.0
  9
$PUCSORGLEFT
 10
0.0
 20
0.0
 30
0.0
  9
$PUCSORGRIGHT
 10
0.0
 20
0.0
 30
0.0
  9
$PUCSORGFRONT
 10
0.0
 20
0.0
 30
0.0
  9
$PUCSORGBACK
 10
0.0
 20
0.0
 30
0.0
  9
$USERI1
 70
     0
  9
$USERI2
 70
     0
  9
$USERI3
 70
     0
  9
$USERI4
 70
     0
  9
$USERI5
 70
     0
  9
$USERR1
 40
0.0
  9
$USERR2
 40
0.0
  9
$USERR3
 40
0.0
  9
$USERR4
 40
0.0
  9
$USERR5
 40
0.0
  9
$WORLDVIEW
 70
     1
  9
$SHADEDGE
 70
     3
  9
$SHADEDIF
 70
    70
  9
$TILEMODE
 70
     1
  9
$MAXACTVP
 70
    64
  9
$PINSBASE
 10
0.0
 20
0.0
 30
0.0
  9
$PLIMCHECK
 70
     0
  9
$PEXTMIN
 10
-249.7310993736
 20
-270.0
 30
0.0
  9
$PEXTMAX
 10
249.7310993736
 20
329.0
 30
0.0
  9
$PLIMMIN
 10
-311.1669968095
 20
-293.0384615385
  9
$PLIMMAX
 10
601.1560801136
 20
352.0384615385
  9
$UNITMODE
 70
     0
  9
$VISRETAIN
 70
     1
  9
$PLINEGEN
 70
     0
  9
$PSLTSCALE
 70
     1
  9
$TREEDEPTH
 70
  3020
  9
$CMLSTYLE
  2
Standard
  9
$CMLJUST
 70
     0
  9
$CMLSCALE
 40
20.0
  9
$PROXYGRAPHICS
 70
     1
  9
$MEASUREMENT
 70
     1
  9
$CELWEIGHT
370
    -1
  9
$ENDCAPS
280
     0
  9
$JOINSTYLE
280
     0
  9
$LWDISPLAY
290
     1
  9
$INSUNITS
 70
     4
  9
$HYPERLINKBASE
  1

  9
$STYLESHEET
  1

  9
$XEDIT
290
     1
  9
$CEPSNTYPE
380
     0
  9
$PSTYLEMODE
290
     1
  9
$FINGERPRINTGUID
  2
{55b76184-628b-4a4b-bc6f-8f268a4ec46a}
  9
$VERSIONGUID
  2
{FAEB1C32-E019-11D5-929B-00C0DF256EC4}
  9
$EXTNAMES
290
     1
  9
$PSVPSCALE
 40
0.0
  9
$OLESTARTUP
290
     0
  0
ENDSEC
  0
SECTION
  2
CLASSES
  0
CLASS
  1
ACDBDICTIONARYWDFLT
  2
AcDbDictionaryWithDefault
  3
ObjectDBX Classes
 90
        0
280
     0
281
     0
  0
CLASS
  1
VISUALSTYLE
  2
AcDbVisualStyle
  3
ObjectDBX Classes
 90
     4095
280
     0
281
     0
  0
CLASS
  1
MATERIAL
  2
AcDbMaterial
  3
ObjectDBX Classes
 90
     1153
280
     0
281
     0
  0
CLASS
  1
SCALE
  2
AcDbScale
  3
ObjectDBX Classes
 90
     1153
280
     0
281
     0
  0
CLASS
  1
TABLESTYLE
  2
AcDbTableStyle
  3
ObjectDBX Classes
 90
     4095
280
     0
281
     0
  0
CLASS
  1
MLEADERSTYLE
  2
AcDbMLeaderStyle
  3
ACDB_MLEADERSTYLE_CLASS
 90
     4095
280
     0
281
     0
  0
CLASS
  1
SUN
  2
AcDbSun
  3
SCENEOE
 90
     1153
280
     0
281
     0
  0
CLASS
  1
ACDBPLACEHOLDER
  2
AcDbPlaceHolder
  3
ObjectDBX Classes
 90
        0
280
     0
281
     0
  0
CLASS
  1
LAYOUT
  2
AcDbLayout
  3
ObjectDBX Classes
 90
        0
280
     0
281
     0
  0
ENDSEC
  0
SECTION
  2
TABLES
  0
TABLE
  2
VPORT
  5
8
330
0
100
AcDbSymbolTable
 70
     1
  0
VPORT
  5
29
330
8
100
AcDbSymbolTableRecord
100
AcDbViewportTableRecord
  2
*Active
 70
     0
 10
0.0
 20
0.0
 11
1.0
 21
1.0
 12
0.0
 22
29.5
 13
0.0
 23
0.0
 14
10.0
 24
10.0
 15
10.0
 25
10.0
 16
0.0
 26
0.0
 36
1.0
 17
0.0
 27
0.0
 37
0.0
 40
610.98
 41
0.8338267091
 42
50.0
 43
0.0
 44
0.0
 50
0.0
 51
0.0
 71
     0
 72
   100
 73
     1
 74
     3
 75
     0
 76
     0
 77
     0
 78
     0
281
     0
 65
     1
110
0.0
120
0.0
130
0.0
111
1.0
121
0.0
131
0.0
112
0.0
122
1.0
132
0.0
 79
     0
146
0.0
  0
ENDTAB
  0
TABLE
  2
LTYPE
  5
5
330
0
100
AcDbSymbolTable
 70
     6
  0
LTYPE
  5
14
330
5
100
AcDbSymbolTableRecord
100
AcDbLinetypeTableRecord
  2
ByBlock
 70
     0
  3

 72
    65
 73
     0
 40
0.0
  0
LTYPE
  5
15
330
5
100
AcDbSymbolTableRecord
100
AcDbLinetypeTableRecord
  2
ByLayer
 70
     0
  3

 72
    65
 73
     0
 40
0.0
  0
LTYPE
  5
16
330
5
100
AcDbSymbolTableRecord
100
AcDbLinetypeTableRecord
  2
Continuous
 70
     0
  3
Solid line
 72
    65
 73
     0
 40
0.0
  0
LTYPE
  5
6E
330
5
100
AcDbSymbolTableRecord
100
AcDbLinetypeTableRecord
  2
HIDDEN
 70
     0
  3
Hidden __ __ __ __ __ __ __ __ __ __ __ __ __ __
 72
    65
 73
     2
 40
1.905
 49
1.27
 74
     0
 49
-0.635
 74
     0
  0
LTYPE
  5
6F
330
5
100
AcDbSymbolTableRecord
100
AcDbLinetypeTableRecord
  2
PHANTOM
 70
     0
  3
Phantom ______  __  __  ______  __  __  ______
 72
    65
 73
     6
 40
12.7
 49
6.35
 74
     0
 49
-1.27
 74
     0
 49
1.27
 74
     0
 49
-1.27
 74
     0
 49
1.27
 74
     0
 49
-1.27
 74
     0
  0
LTYPE
  5
70
330
5
100
AcDbSymbolTableRecord
100
AcDbLinetypeTableRecord
  2
CENTER
 70
     0
  3
Center ____ _ ____ _ ____ _ ____ _ ____ _ ____
 72
    65
 73
     4
 40
10.16
 49
6.35
 74
     0
 49
-1.27
 74
     0
 49
1.27
 74
     0
 49
-1.27
 74
     0
  0
LTYPE
  5
71
330
5
100
AcDbSymbolTableRecord
100
AcDbLinetypeTableRecord
  2
CENTERX2
 70
     0
  3
Center (2x) ________  __  ________  __  _____
 72
    65
 73
     4
 40
20.32
 49
12.7
 74
     0
 49
-2.54
 74
     0
 49
2.54
 74
     0
 49
-2.54
 74
     0
  0
LTYPE
  5
72
330
5
100
AcDbSymbolTableRecord
100
AcDbLinetypeTableRecord
  2
DOT2
 70
     0
  3
Dot (.5x) ........................................
 72
    65
 73
     2
 40
0.635
 49
0.0
 74
     0
 49
-0.635
 74
     0
  0
ENDTAB
  0
TABLE
  2
LAYER
  5
2
330
0
100
AcDbSymbolTable
 70
     1
  0
LAYER
  5
10
330
2
100
AcDbSymbolTableRecord
100
AcDbLayerTableRecord
  2
0
 70
     0
 62
     7
  6
Continuous
370
    -3
390
F
  0
ENDTAB
  0
TABLE
  2
STYLE
  5
3
330
0
100
AcDbSymbolTable
 70
     1
  0
STYLE
  5
11
330
3
100
AcDbSymbolTableRecord
100
AcDbTextStyleTableRecord
  2
Standard
 70
     0
 40
0.0
 41
1.0
 50
0.0
 71
     0
 42
3.5
  3
txt
  4

  0
ENDTAB
  0
TABLE
  2
VIEW
  5
6
330
0
100
AcDbSymbolTable
 70
     0
  0
ENDTAB
  0
TABLE
  2
UCS
  5
7
330
0
100
AcDbSymbolTable
 70
     0
  0
ENDTAB
  0
TABLE
  2
APPID
  5
9
330
0
100
AcDbSymbolTable
 70
     1
  0
APPID
  5
12
330
9
100
AcDbSymbolTableRecord
100
AcDbRegAppTableRecord
  2
ACAD
 70
     0
  0
ENDTAB
  0
TABLE
  2
DIMSTYLE
  5
A
330
0
100
AcDbSymbolTable
 70
     1
100
AcDbDimStyleTable
  0
DIMSTYLE
105
27
330
A
100
AcDbSymbolTableRecord
100
AcDbDimStyleTableRecord
  2
ISO-25
 70
     0
 41
2.5
 42
0.625
 43
3.75
 44
1.25
 73
     0
 74
     0
 77
     1
 78
     8
140
2.5
141
2.5
143
0.0393700787
147
0.625
171
     3
172
     1
178
     0
271
     2
272
     2
274
     3
278
    44
283
     0
284
     8
340
11
  0
ENDTAB
  0
TABLE
  2
BLOCK_RECORD
  5
1
330
0
100
AcDbSymbolTable
 70
     7
  0
BLOCK_RECORD
  5
1F
330
1
100
AcDbSymbolTableRecord
100
AcDbBlockTableRecord
  2
*Model_Space
340
22
  0
BLOCK_RECORD
  5
1B
330
1
100
AcDbSymbolTableRecord
100
AcDbBlockTableRecord
  2
*Paper_Space
340
1E
  0
BLOCK_RECORD
  5
23
330
1
100
AcDbSymbolTableRecord
100
AcDbBlockTableRecord
  2
*Paper_Space0
340
26
  0
BLOCK_RECORD
  5
1C3
330
1
100
AcDbSymbolTableRecord
100
AcDbBlockTableRecord
  2
*Paper_Space1
340
1C4
  0
BLOCK_RECORD
  5
1FE
330
1
100
AcDbSymbolTableRecord
100
AcDbBlockTableRecord
  2
*Paper_Space2
340
1FF
  0
BLOCK_RECORD
  5
27B
330
1
100
AcDbSymbolTableRecord
100
AcDbBlockTableRecord
  2
*Paper_Space3
340
27C
  0
BLOCK_RECORD
  5
2FB
330
1
100
AcDbSymbolTableRecord
100
AcDbBlockTableRecord
  2
*Paper_Space4
340
2FC
  0
BLOCK_RECORD
  5
3CF
330
1
100
AcDbSymbolTableRecord
100
AcDbBlockTableRecord
  2
*Paper_Space5
340
3D0
  0
BLOCK_RECORD
  5
49B
330
1
100
AcDbSymbolTableRecord
100
AcDbBlockTableRecord
  2
*Paper_Space6
340
49C
  0
ENDTAB
  0
ENDSEC
  0
SECTION
  2
BLOCKS
  0
BLOCK
  5
20
330
1F
100
AcDbEntity
  8
0
100
AcDbBlockBegin
  2
*Model_Space
 70
     0
 10
0.0
 20
0.0
 30
0.0
  3
*Model_Space
  1

  0
ENDBLK
  5
21
330
1F
100
AcDbEntity
  8
0
100
AcDbBlockEnd
  0
BLOCK
  5
1C
330
1B
100
AcDbEntity
 67
     1
  8
0
100
AcDbBlockBegin
  2
*Paper_Space
 70
     0
 10
0.0
 20
0.0
 30
0.0
  3
*Paper_Space
  1

  0
ENDBLK
  5
1D
330
1B
100
AcDbEntity
 67
     1
  8
0
100
AcDbBlockEnd
  0
BLOCK
  5
24
330
23
100
AcDbEntity
  8
0
100
AcDbBlockBegin
  2
*Paper_Space0
 70
     0
 10
0.0
 20
0.0
 30
0.0
  3
*Paper_Space0
  1

  0
LINE
  5
1B0
330
23
100
AcDbEntity
  8
0
  6
Continuous
 62
     7
370
    25
100
AcDbLine
 10
-137.5
 20
-270.0
 30
0.0
 11
129.5
 21
-270.0
 31
0.0
  0
LINE
  5
1B1
330
23
100
AcDbEntity
  8
0
  6
Continuous
 62
     7
370
    25
100
AcDbLine
 10
119.0346340601
 20
218.0
 30
0.0
 11
129.5
 21
218.0
 31
0.0
  0
LINE
  5
1B2
330
23
100
AcDbEntity
  8
0
  6
Continuous
 62
     7
370
    25
100
AcDbLine
 10
119.859601858
 20
218.0
 30
0.0
 11
119.859601858
 21
-270.0
 31
0.0
  0
LINE
  5
1B3
330
23
100
AcDbEntity
  8
0
  6
Continuous
 62
     7
370
    25
100
AcDbLine
 10
129.5
 20
218.0
 30
0.0
 11
129.5
 21
-270.0
 31
0.0
  0
LINE
  5
1B4
330
23
100
AcDbEntity
  8
0
  6
Continuous
 62
     7
370
    25
100
AcDbLine
 10
89.5
 20
-270.0
 30
0.0
 11
89.5
 21
270.0
 31
0.0
  0
LINE
  5
1B5
330
23
100
AcDbEntity
  8
0
  6
Continuous
 62
     7
370
    25
100
AcDbLine
 10
-137.5
 20
270.0
 30
0.0
 11
129.5
 21
270.0
 31
0.0
  0
LINE
  5
1B6
330
23
100
AcDbEntity
  8
0
  6
Continuous
 62
     7
370
    25
100
AcDbLine
 10
119.0346340601
 20
270.0
 30
0.0
 11
119.0346340601
 21
-270.0
 31
0.0
  0
LINE
  5
1B7
330
23
100
AcDbEntity
  8
0
  6
Continuous
 62
     7
370
    25
100
AcDbLine
 10
110.5
 20
270.0
 30
0.0
 11
110.5
 21
270.0247137535
 31
0.0
  0
LINE
  5
1B8
330
23
100
AcDbEntity
  8
0
  6
Continuous
 62
     7
370
    25
100
AcDbLine
 10
129.5
 20
270.0
 30
0.0
 11
129.5
 21
220.0
 31
0.0
  0
LINE
  5
1B9
330
23
100
AcDbEntity
  8
0
  6
Continuous
 62
     7
370
    25
100
AcDbLine
 10
129.5
 20
220.0
 30
0.0
 11
119.0346340601
 21
220.0
 31
0.0
  0
LINE
  5
1BA
330
23
100
AcDbEntity
  8
0
  6
Continuous
 62
     7
370
    25
100
AcDbLine
 10
142.2242470474
 20
323.7383202188
 30
0.0
 11
-137.5
 21
323.7383202188
 31
0.0
  0
LINE
  5
1BB
330
23
100
AcDbEntity
  8
0
  6
Continuous
 62
     7
370
    25
100
AcDbLine
 10
97.5
 20
270.0247137535
 30
0.0
 11
97.5
 21
329.0
 31
0.0
  0
LINE
  5
1BC
330
23
100
AcDbEntity
  8
0
  6
Continuous
 62
     7
370
    25
100
AcDbLine
 10
-137.5
 20
329.0
 30
0.0
 11
137.2310993736
 21
329.0
 31
0.0
  0
LINE
  5
1BD
330
23
100
AcDbEntity
  8
0
  6
Continuous
 62
     7
370
    25
100
AcDbLine
 10
-137.5
 20
-270.0
 30
0.0
 11
-137.5
 21
329.0
 31
0.0
  0
LINE
  5
1BE
330
23
100
AcDbEntity
  8
0
  6
Continuous
 62
     7
370
    25
100
AcDbLine
 10
139.6066008945
 20
273.790656175
 30
0.0
 11
142.2242470474
 21
323.7383202188
 31
0.0
  0
LINE
  5
1BF
330
23
100
AcDbEntity
  8
0
  6
Continuous
 62
     7
370
    25
100
AcDbLine
 10
-137.5
 20
273.790656175
 30
0.0
 11
139.6066008945
 21
273.790656175
 31
0.0
  0
LINE
  5
1C0
330
23
100
AcDbEntity
  8
0
  6
Continuous
 62
     7
370
    25
100
AcDbLine
 10
136.0560413777
 20
270.0247137535
 30
0.0
 11
-137.5
 21
270.0247137535
 31
0.0
  0
ARC
  5
1C1
330
23
100
AcDbEntity
  8
0
  6
Continuous
 62
     7
370
    25
100
AcDbCircle
 10
137.2310993736
 20
324.0
 30
0.0
 40
4.999999999999954
100
AcDbArc
 50
357.0
 51
90.0
  0
ARC
  5
1C2
330
23
100
AcDbEntity
  8
0
  6
Continuous
 62
     7
370
    25
100
AcDbCircle
 10
135.6120827554
 20
274.0
 30
0.0
 40
3.999999999999873
100
AcDbArc
 50
276.3723680084
 51
357.0
  0
VIEWPORT
  5
549
330
23
100
AcDbEntity
  8
0
100
AcDbViewport
 10
0.0
 20
0.0
 30
0.0
 40
205.6
 41
156.0
 68
     1
 69
     1
 12
0.0
 22
29.5
 13
0.0
 23
0.0
 14
10.0
 24
10.0
 15
10.0
 25
10.0
 16
0.0
 26
0.0
 36
1.0
 17
0.0
 27
0.0
 37
0.0
 42
50.0
 43
0.0
 44
0.0
 45
610.98
 50
0.0
 51
0.0
 72
   100
 90
   557152
  1

281
     0
 71
     1
 74
     0
110
0.0
120
0.0
130
0.0
111
1.0
121
0.0
131
0.0
112
0.0
122
1.0
132
0.0
 79
     0
146
0.0
  0
ENDBLK
  5
25
330
23
100
AcDbEntity
  8
0
100
AcDbBlockEnd
  0
BLOCK
  5
1C5
330
1C3
100
AcDbEntity
  8
0
100
AcDbBlockBegin
  2
*Paper_Space1
 70
     0
 10
0.0
 20
0.0
 30
0.0
  3
*Paper_Space1
  1

  0
LINE
  5
1EB
330
1C3
100
AcDbEntity
  8
0
  6
Continuous
 62
     7
370
    25
100
AcDbLine
 10
-129.5
 20
270.0
 30
0.0
 11
137.5
 21
270.0
 31
0.0
  0
LINE
  5
1EC
330
1C3
100
AcDbEntity
  8
0
  6
Continuous
 62
     7
370
    25
100
AcDbLine
 10
-89.5
 20
270.0
 30
0.0
 11
-89.5
 21
-270.0
 31
0.0
  0
LINE
  5
1ED
330
1C3
100
AcDbEntity
  8
0
  6
Continuous
 62
     7
370
    25
100
AcDbLine
 10
-129.5
 20
-270.0
 30
0.0
 11
137.5
 21
-270.0
 31
0.0
  0
LINE
  5
1EE
330
1C3
100
AcDbEntity
  8
0
  6
Continuous
 62
     7
370
    25
100
AcDbLine
 10
-119.0346340601
 20
270.0
 30
0.0
 11
-119.0346340601
 21
-270.0
 31
0.0
  0
LINE
  5
1EF
330
1C3
100
AcDbEntity
  8
0
  6
Continuous
 62
     7
370
    25
100
AcDbLine
 10
-110.5
 20
270.0
 30
0.0
 11
-110.5
 21
270.0247137535
 31
0.0
  0
LINE
  5
1F0
330
1C3
100
AcDbEntity
  8
0
  6
Continuous
 62
     7
370
    25
100
AcDbLine
 10
-129.5
 20
220.0
 30
0.0
 11
-129.5
 21
270.0
 31
0.0
  0
LINE
  5
1F1
330
1C3
100
AcDbEntity
  8
0
  6
Continuous
 62
     7
370
    25
100
AcDbLine
 10
-119.0346340601
 20
220.0
 30
0.0
 11
-129.5
 21
220.0
 31
0.0
  0
LINE
  5
1F2
330
1C3
100
AcDbEntity
  8
0
  6
Continuous
 62
     7
370
    25
100
AcDbLine
 10
137.5
 20
323.7383202188
 30
0.0
 11
-142.2242470474
 21
323.7383202188
 31
0.0
  0
LINE
  5
1F3
330
1C3
100
AcDbEntity
  8
0
  6
Continuous
 62
     7
370
    25
100
AcDbLine
 10
-97.5
 20
270.0247137535
 30
0.0
 11
-97.5
 21
329.0
 31
0.0
  0
LINE
  5
1F4
330
1C3
100
AcDbEntity
  8
0
  6
Continuous
 62
     7
370
    25
100
AcDbLine
 10
-137.2310993736
 20
329.0
 30
0.0
 11
137.5
 21
329.0
 31
0.0
  0
LINE
  5
1F5
330
1C3
100
AcDbEntity
  8
0
  6
Continuous
 62
     7
370
    25
100
AcDbLine
 10
137.5
 20
-270.0
 30
0.0
 11
137.5
 21
329.0
 31
0.0
  0
LINE
  5
1F6
330
1C3
100
AcDbEntity
  8
0
  6
Continuous
 62
     7
370
    25
100
AcDbLine
 10
-139.6066008945
 20
273.790656175
 30
0.0
 11
137.5
 21
273.790656175
 31
0.0
  0
LINE
  5
1F7
330
1C3
100
AcDbEntity
  8
0
  6
Continuous
 62
     7
370
    25
100
AcDbLine
 10
-139.6066008945
 20
273.790656175
 30
0.0
 11
-142.2242470474
 21
323.7383202188
 31
0.0
  0
LINE
  5
1F8
330
1C3
100
AcDbEntity
  8
0
  6
Continuous
 62
     7
370
    25
100
AcDbLine
 10
137.5
 20
270.0247137535
 30
0.0
 11
-136.0560413777
 21
270.0247137535
 31
0.0
  0
LINE
  5
1F9
330
1C3
100
AcDbEntity
  8
0
  6
Continuous
 62
     7
370
    25
100
AcDbLine
 10
-129.5
 20
218.0
 30
0.0
 11
-119.0346340601
 21
218.0
 31
0.0
  0
LINE
  5
1FA
330
1C3
100
AcDbEntity
  8
0
  6
Continuous
 62
     7
370
    25
100
AcDbLine
 10
-119.859601858
 20
-270.0
 30
0.0
 11
-119.859601858
 21
218.0
 31
0.0
  0
LINE
  5
1FB
330
1C3
100
AcDbEntity
  8
0
  6
Continuous
 62
     7
370
    25
100
AcDbLine
 10
-129.5
 20
-270.0
 30
0.0
 11
-129.5
 21
218.0
 31
0.0
  0
ARC
  5
1FC
330
1C3
100
AcDbEntity
  8
0
  6
Continuous
 62
     7
370
    25
100
AcDbCircle
 10
-137.2310993736
 20
324.0
 30
0.0
 40
4.999999999999943
100
AcDbArc
 50
90.0
 51
183.0
  0
ARC
  5
1FD
330
1C3
100
AcDbEntity
  8
0
  6
Continuous
 62
     7
370
    25
100
AcDbCircle
 10
-135.6120827554
 20
274.0
 30
0.0
 40
3.999999999999961
100
AcDbArc
 50
183.0
 51
263.6276319916
  0
VIEWPORT
  5
54B
330
1C3
100
AcDbEntity
  8
0
100
AcDbViewport
 10
0.0
 20
0.0
 30
0.0
 40
205.6
 41
156.0
 68
     1
 69
     1
 12
0.0
 22
29.5
 13
0.0
 23
0.0
 14
10.0
 24
10.0
 15
10.0
 25
10.0
 16
0.0
 26
0.0
 36
1.0
 17
0.0
 27
0.0
 37
0.0
 42
50.0
 43
0.0
 44
0.0
 45
610.98
 50
0.0
 51
0.0
 72
   100
 90
   557152
  1

281
     0
 71
     1
 74
     0
110
0.0
120
0.0
130
0.0
111
1.0
121
0.0
131
0.0
112
0.0
122
1.0
132
0.0
 79
     0
146
0.0
  0
ENDBLK
  5
1C6
330
1C3
100
AcDbEntity
  8
0
100
AcDbBlockEnd
  0
BLOCK
  5
200
330
1FE
100
AcDbEntity
  8
0
100
AcDbBlockBegin
  2
*Paper_Space2
 70
     0
 10
0.0
 20
0.0
 30
0.0
  3
*Paper_Space2
  1

  0
SPLINE
  5
207
330
1FE
100
AcDbEntity
  8
0
  6
Continuous
 62
     7
370
    25
100
AcDbSpline
210
0.0
220
0.0
230
1.0
 70
     8
 71
     3
 72
    44
 73
    40
 74
     0
 42
0.000000001
 43
0.00000001
 40
0.0
 40
0.0
 40
0.0
 40
0.0
 40
0.0624999999999996
 40
0.0624999999999996
 40
0.1249999999999993
 40
0.1249999999999993
 40
0.1562499999999998
 40
0.1562499999999998
 40
0.1875000000000002
 40
0.1875000000000002
 40
0.25
 40
0.25
 40
0.3124999999999997
 40
0.3124999999999997
 40
0.3437499999999997
 40
0.3437499999999997
 40
0.3749999999999997
 40
0.3749999999999997
 40
0.5000000000000002
 40
0.5000000000000002
 40
0.5625000000000006
 40
0.5625000000000006
 40
0.6250000000000008
 40
0.6250000000000008
 40
0.6562500000000008
 40
0.6562500000000008
 40
0.6875000000000007
 40
0.6875000000000007
 40
0.7500000000000007
 40
0.7500000000000007
 40
0.8125000000000007
 40
0.8125000000000007
 40
0.8437500000000004
 40
0.8437500000000004
 40
0.8750000000000002
 40
0.8750000000000002
 40
0.9375000000000001
 40
0.9375000000000001
 40
1.0
 40
1.0
 40
1.0
 40
1.0
 10
187.9861668820938
 20
-133.1154789227348
 30
0.0
 10
189.2531481481394
 20
-133.1217975766411
 30
0.0
 10
190.5054579962912
 20
-133.0439258229124
 30
0.0
 10
192.981415410123
 20
-132.7236383560866
 30
0.0
 10
194.2054394039455
 20
-132.4834073678286
 30
0.0
 10
196.0199831072405
 20
-131.9997585680455
 30
0.0
 10
196.6212449188438
 20
-131.8179679664919
 30
0.0
 10
197.8163829841716
 20
-131.4120132955632
 30
0.0
 10
198.4104603656116
 20
-131.1876296108258
 30
0.0
 10
200.153566322141
 20
-130.4624276809973
 30
0.0
 10
201.2729134908413
 20
-129.9059219254852
 30
0.0
 10
203.4287654611296
 20
-128.6512899272286
 30
0.0
 10
204.4650209866623
 20
-127.9527375777324
 30
0.0
 10
205.9559013010835
 20
-126.79635406893
 30
0.0
 10
206.4440560513061
 20
-126.3909786644298
 30
0.0
 10
207.387953717874
 20
-125.5518799295084
 30
0.0
 10
207.8433216882257
 20
-125.1187493821255
 30
0.0
 10
210.0397420466476
 20
-122.8872301956628
 30
0.0
 10
211.5429331851325
 20
-120.8940329051993
 30
0.0
 10
213.4111205750468
 20
-117.5879290690543
 30
0.0
 10
213.9529652631702
 20
-116.4555839659303
 30
0.0
 10
214.8860889220975
 20
-114.1406252761085
 30
0.0
 10
215.2786898323025
 20
-112.9574131999013
 30
0.0
 10
215.7506514321176
 20
-111.1422670009468
 30
0.0
 10
215.8893191021666
 20
-110.5307375222694
 30
0.0
 10
216.1293545796191
 20
-109.2947663433863
 30
0.0
 10
216.2306658740807
 20
-108.6695953486755
 30
0.0
 10
216.4740398942551
 20
-106.8009094184165
 30
0.0
 10
216.5561363691583
 20
-105.5557876149297
 30
0.0
 10
216.5751903322103
 20
-103.066584281191
 30
0.0
 10
216.5115781749435
 20
-101.8226088721102
 30
0.0
 10
216.3087159118474
 20
-99.9578800356972
 30
0.0
 10
216.2230718965051
 20
-99.33533612651378
 30
0.0
 10
216.0174499076406
 20
-98.0959146258839
 30
0.0
 10
215.8979609753916
 20
-97.4814959709396
 30
0.0
 10
215.4920402801434
 20
-95.65332464758303
 30
0.0
 10
215.1574026686126
 20
-94.45514235519265
 30
0.0
 10
214.3706708454735
 20
-92.09598388478818
 30
0.0
 10
213.9184929540792
 20
-90.93519404459265
 30
0.0
 10
213.4089919447783
 20
-89.79258054318059
 30
0.0
  0
SPLINE
  5
208
330
1FE
100
AcDbEntity
  8
0
  6
Continuous
 62
     7
370
    25
100
AcDbSpline
210
0.0
220
0.0
230
1.0
 70
     8
 71
     3
 72
    11
 73
     7
 74
     0
 42
0.000000001
 43
0.00000001
 40
-0.0000000599772586
 40
-0.0000000599772586
 40
-0.0000000599772586
 40
-0.0000000599772586
 40
0.0
 40
0.0
 40
0.0
 40
0.0004696305880343
 40
0.0004696305880343
 40
0.0004696305880343
 40
0.0004696305880343
 10
187.5165874525644
 20
-133.1093276775841
 30
0.0
 10
187.5166074374059
 20
-133.1093281004205
 30
0.0
 10
187.5166274222469
 20
-133.109328523261
 30
0.0
 10
187.5166474070888
 20
-133.1093289460689
 30
0.0
 10
187.6731316024653
 20
-133.1126395926453
 30
0.0
 10
187.8296481230381
 20
-133.114698336711
 30
0.0
 10
187.9861668820938
 20
-133.1154789227346
 30
0.0
  0
SPLINE
  5
20A
330
1FE
100
AcDbEntity
  8
0
  6
Continuous
 62
     7
370
    25
100
AcDbSpline
210
0.0
220
0.0
230
1.0
 70
     8
 71
     3
 72
    11
 73
     7
 74
     0
 42
0.000000001
 43
0.00000001
 40
0.0
 40
0.0
 40
0.0
 40
0.0
 40
0.0004696305669835
 40
0.0004696305669835
 40
0.0004696305669835
 40
0.0004696905669834
 40
0.0004696905669834
 40
0.0004696905669834
 40
0.0004696905669834
 10
-187.9861668837834
 20
-133.1154789227434
 30
0.0
 10
-187.8296481317435
 20
-133.114698336764
 30
0.0
 10
-187.6731316181863
 20
-133.1126395928573
 30
0.0
 10
-187.5166474298215
 20
-133.1093289465497
 30
0.0
 10
-187.516627437402
 20
-133.1093285235815
 30
0.0
 10
-187.5166074449834
 20
-133.1093281005807
 30
0.0
 10
-187.5165874525644
 20
-133.1093276775842
 30
0.0
  0
SPLINE
  5
20B
330
1FE
100
AcDbEntity
  8
0
  6
Continuous
 62
     7
370
    25
100
AcDbSpline
210
0.0
220
0.0
230
1.0
 70
     8
 71
     3
 72
    46
 73
    42
 74
     0
 42
0.000000001
 43
0.00000001
 40
0.0
 40
0.0
 40
0.0
 40
0.0
 40
0.0625
 40
0.0625
 40
0.125
 40
0.125
 40
0.1874999999999999
 40
0.1874999999999999
 40
0.2187499999999999
 40
0.2187499999999999
 40
0.2499999999999999
 40
0.2499999999999999
 40
0.3125000000000006
 40
0.3125000000000006
 40
0.3750000000000012
 40
0.3750000000000012
 40
0.406250000000001
 40
0.406250000000001
 40
0.4375000000000008
 40
0.4375000000000008
 40
0.5000000000000004
 40
0.5000000000000004
 40
0.5625000000000001
 40
0.5625000000000001
 40
0.6249999999999998
 40
0.6249999999999998
 40
0.6874999999999994
 40
0.6874999999999994
 40
0.7187499999999992
 40
0.7187499999999992
 40
0.749999999999999
 40
0.749999999999999
 40
0.8124999999999992
 40
0.8124999999999992
 40
0.8749999999999996
 40
0.8749999999999996
 40
0.9062499999999997
 40
0.9062499999999997
 40
0.9374999999999998
 40
0.9374999999999998
 40
1.0
 40
1.0
 40
1.0
 40
1.0
 10
-213.4089919449732
 20
-89.7925805436163
 30
0.0
 10
-213.9186406613819
 20
-90.93552529492088
 30
0.0
 10
-214.3703041434394
 20
-92.09525324766611
 30
0.0
 10
-215.1555317797483
 20
-94.44916421914314
 30
0.0
 10
-215.489182984821
 20
-95.64316557651932
 30
0.0
 10
-216.0289272145651
 20
-98.06866352277704
 30
0.0
 10
-216.2359900555901
 20
-99.29964185943453
 30
0.0
 10
-216.4418166711926
 20
-101.1763965505655
 30
0.0
 10
-216.4924143088008
 20
-101.8032746166075
 30
0.0
 10
-216.5565070037712
 20
-103.0522544495113
 30
0.0
 10
-216.5702577200521
 20
-103.6755049024496
 30
0.0
 10
-216.5567804000998
 20
-105.5414404481861
 30
0.0
 10
-216.4753271570274
 20
-106.780284368779
 30
0.0
 10
-216.1568070231001
 20
-109.2471596052342
 30
0.0
 10
-215.9217704779139
 20
-110.4752551121632
 30
0.0
 10
-215.4485360472947
 20
-112.3083710043865
 30
0.0
 10
-215.2698127770196
 20
-112.9159742224689
 30
0.0
 10
-214.8765926825911
 20
-114.1085832212075
 30
0.0
 10
-214.6616413386876
 20
-114.695999798226
 30
0.0
 10
-213.9634688190929
 20
-116.4323416287968
 30
0.0
 10
-213.4267698453385
 20
-117.5552566514537
 30
0.0
 10
-212.2041587631254
 20
-119.7286345163279
 30
0.0
 10
-211.5208192668149
 20
-120.780372149915
 30
0.0
 10
-209.9993334145364
 20
-122.808120636439
 30
0.0
 10
-209.1800490044493
 20
-123.758593383503
 30
0.0
 10
-207.4309290879792
 20
-125.5397464073502
 30
0.0
 10
-206.5005818282784
 20
-126.3698756381877
 30
0.0
 10
-205.0206583188482
 20
-127.5236030995776
 30
0.0
 10
-204.5133004810485
 20
-127.8929529388904
 30
0.0
 10
-203.4697813251583
 20
-128.6004334792531
 30
0.0
 10
-202.9317496046033
 20
-128.939410404259
 30
0.0
 10
-201.2982273852662
 20
-129.8933323692865
 30
0.0
 10
-200.1775585738488
 20
-130.4506305634934
 30
0.0
 10
-197.8746727910628
 20
-131.4123003359584
 30
0.0
 10
-196.6927155066741
 20
-131.8173171280298
 30
0.0
 10
-194.8723857634789
 20
-132.3070842272093
 30
0.0
 10
-194.2565668644129
 20
-132.4509181980372
 30
0.0
 10
-193.0137431982592
 20
-132.6973394231932
 30
0.0
 10
-192.3902534646111
 20
-132.7996194827192
 30
0.0
 10
-190.5135774124517
 20
-133.0438329191919
 30
0.0
 10
-189.2540527043002
 20
-133.1218020877451
 30
0.0
 10
-187.9861668837834
 20
-133.1154789227434
 30
0.0
  0
SPLINE
  5
20C
330
1FE
100
AcDbEntity
  8
0
  6
Continuous
 62
     7
370
    25
100
AcDbSpline
210
0.0
220
0.0
230
1.0
 70
     8
 71
     3
 72
    10
 73
     6
 74
     0
 42
0.000000001
 43
0.00000001
 40
0.0
 40
0.0
 40
0.0
 40
0.0
 40
0.5
 40
0.5
 40
1.0
 40
1.0
 40
1.0
 40
1.0
 10
-211.2167226554424
 20
-85.57158951225965
 30
0.0
 10
-211.6228307355004
 20
-86.25190697195279
 30
0.0
 10
-212.0097080497233
 20
-86.94531960136962
 30
0.0
 10
-212.740635491705
 20
-88.35211939542368
 30
0.0
 10
-213.0853456574074
 20
-89.06676722604549
 30
0.0
 10
-213.4089919449732
 20
-89.79258054361661
 30
0.0
  0
SPLINE
  5
20E
330
1FE
100
AcDbEntity
  8
0
  6
Continuous
 62
     7
370
    25
100
AcDbSpline
210
0.0
220
0.0
230
1.0
 70
     8
 71
     3
 72
    32
 73
    28
 74
     0
 42
0.000000001
 43
0.00000001
 40
0.0
 40
0.0
 40
0.0
 40
0.0
 40
0.0078124999999996
 40
0.0078124999999996
 40
0.0156249999999992
 40
0.0312499999999996
 40
0.0624999999999993
 40
0.0624999999999993
 40
0.1249999999999986
 40
0.1249999999999986
 40
0.2499999999999973
 40
0.2499999999999973
 40
0.3124999999999973
 40
0.3124999999999973
 40
0.3749999999999973
 40
0.3749999999999973
 40
0.4999999999999967
 40
0.4999999999999967
 40
0.6249999999999961
 40
0.6249999999999961
 40
0.6874999999999968
 40
0.6874999999999968
 40
0.7499999999999974
 40
0.7499999999999974
 40
0.8749999999999988
 40
0.8749999999999988
 40
1.0
 40
1.0
 40
1.0
 40
1.0
 10
-82.69691067119301
 20
107.086607157292
 30
0.0
 10
-82.77720705521378
 20
107.086607156663
 30
0.0
 10
-82.85976271824973
 20
107.0862697515487
 30
0.0
 10
-83.02244352450174
 20
107.0849229652073
 30
0.0
 10
-83.2662928631747
 20
107.0818947890155
 30
0.0
 10
-83.83407635874909
 20
107.0678012157845
 30
0.0
 10
-84.31870911418233
 20
107.0437636484999
 30
0.0
 10
-85.28528827127364
 20
106.9799333705568
 30
0.0
 10
-85.9260950930525
 20
106.9163877832655
 30
0.0
 10
-87.83793011463666
 20
106.6636684502031
 30
0.0
 10
-89.09841102963718
 20
106.4126359232815
 30
0.0
 10
-90.96794721149058
 20
105.9118378388457
 30
0.0
 10
-91.58758203678799
 20
105.7241204619845
 30
0.0
 10
-92.81957171676285
 20
105.3059892358776
 30
0.0
 10
-93.42872518575753
 20
105.0765260818231
 30
0.0
 10
-95.22026843685093
 20
104.3338084095945
 30
0.0
 10
-96.37333234419621
 20
103.7641183621698
 30
0.0
 10
-98.5987395549677
 20
102.4790344864665
 30
0.0
 10
-99.67127511785543
 20
101.7639876935498
 30
0.0
 10
-101.2177457290599
 20
100.5789045317546
 30
0.0
 10
-101.7223453040969
 20
100.1651114539455
 30
0.0
 10
-102.6948889310386
 20
99.3125540269784
 30
0.0
 10
-103.1648469739758
 20
98.87223817991146
 30
0.0
 10
-104.5269684258231
 20
97.51020196543453
 30
0.0
 10
-105.3718519077553
 20
96.54779970605288
 30
0.0
 10
-106.9353684459602
 20
94.51436328606569
 30
0.0
 10
-107.6542495565201
 20
93.44354255780523
 30
0.0
 10
-108.3067670840285
 20
92.31561940404157
 30
0.0
  0
SPLINE
  5
210
330
1FE
100
AcDbEntity
  8
0
  6
Continuous
 62
     7
370
    25
100
AcDbSpline
210
0.0
220
0.0
230
1.0
 70
     8
 71
     3
 72
    30
 73
    26
 74
     0
 42
0.000000001
 43
0.00000001
 40
0.0
 40
0.0
 40
0.0
 40
0.0
 40
0.0078124999999994
 40
0.0078124999999994
 40
0.0156249999999988
 40
0.0312499999999987
 40
0.0624999999999997
 40
0.0624999999999997
 40
0.1250000000000005
 40
0.1250000000000005
 40
0.2500000000000022
 40
0.2500000000000022
 40
0.3125000000000025
 40
0.3125000000000025
 40
0.3750000000000028
 40
0.3750000000000028
 40
0.5000000000000027
 40
0.5000000000000027
 40
0.6250000000000026
 40
0.6250000000000026
 40
0.6875000000000022
 40
0.6875000000000022
 40
0.7500000000000018
 40
0.7500000000000018
 40
1.0
 40
1.0
 40
1.0
 40
1.0
 10
108.306767089273
 20
92.31561939497604
 30
0.0
 10
108.266564196548
 20
92.38511296537135
 30
0.0
 10
108.224938293905
 20
92.45639030012185
 30
0.0
 10
108.1423195181331
 20
92.5965059558674
 30
0.0
 10
108.0176031841991
 20
92.806024585305
 30
0.0
 10
107.7211091742872
 20
93.29034063981052
 30
0.0
 10
107.457651286473
 20
93.69772499347302
 30
0.0
 10
106.9184872741169
 20
94.50231720954524
 30
0.0
 10
106.5427358665873
 20
95.02516185142152
 30
0.0
 10
105.3671761943686
 20
96.55356102961213
 30
0.0
 10
104.5191783632606
 20
97.51907710523415
 30
0.0
 10
103.1499577299554
 20
98.88657245984263
 30
0.0
 10
102.6772235155114
 20
99.32883862680075
 30
0.0
 10
101.6981723058687
 20
100.1854686237136
 30
0.0
 10
101.1943315512756
 20
100.5975713808254
 30
0.0
 10
99.65394226228888
 20
101.775775446779
 30
0.0
 10
98.58351309521332
 20
102.4887206476762
 30
0.0
 10
96.35736900802752
 20
103.7724304549088
 30
0.0
 10
95.20145913457358
 20
104.3428700536958
 30
0.0
 10
93.40093217600716
 20
105.0873964522122
 30
0.0
 10
92.7899161989669
 20
105.3166797448972
 30
0.0
 10
91.5646822646827
 20
105.7312395332599
 30
0.0
 10
90.94811606097888
 20
105.9175403977078
 30
0.0
 10
87.84598834536588
 20
106.7465374616793
 30
0.0
 10
85.30345833501342
 20
107.0866071557715
 30
0.0
 10
82.69691068839617
 20
107.0866071572921
 30
0.0
  0
SPLINE
  5
212
330
1FE
100
AcDbEntity
  8
0
  6
Continuous
 62
     7
370
    25
100
AcDbSpline
210
0.0
220
0.0
230
1.0
 70
     8
 71
     3
 72
    10
 73
     6
 74
     0
 42
0.000000001
 43
0.00000001
 40
0.0
 40
0.0
 40
0.0
 40
0.0
 40
0.5
 40
0.5
 40
1.0
 40
1.0
 40
1.0
 40
1.0
 10
213.4089919447783
 20
-89.79258054318065
 30
0.0
 10
213.085345657316
 20
-89.06676722586529
 30
0.0
 10
212.7406354916526
 20
-88.3521193953134
 30
0.0
 10
212.0097080495588
 20
-86.94531960106316
 30
0.0
 10
211.622830735526
 20
-86.25190697418383
 30
0.0
 10
211.2167226554423
 20
-85.57158951225958
 30
0.0
  0
SPLINE
  5
213
330
1FE
100
AcDbEntity
  8
0
  6
Continuous
 62
     7
370
    25
100
AcDbSpline
210
0.0
220
0.0
230
1.0
 70
     8
 71
     3
 72
    31
 73
    27
 74
     0
 42
0.000000001
 43
0.00000001
 40
0.0
 40
0.0
 40
0.0
 40
0.0
 40
0.0156249999999994
 40
0.0156249999999994
 40
0.0312499999999987
 40
0.0624999999999974
 40
0.0624999999999974
 40
0.1249999999999975
 40
0.1249999999999975
 40
0.2499999999999978
 40
0.2499999999999978
 40
0.3124999999999979
 40
0.3124999999999979
 40
0.3749999999999981
 40
0.3749999999999981
 40
0.4999999999999983
 40
0.4999999999999983
 40
0.6249999999999986
 40
0.6249999999999986
 40
0.6874999999999997
 40
0.6874999999999997
 40
0.7500000000000007
 40
0.7500000000000007
 40
0.8750000000000004
 40
0.8750000000000004
 40
1.0
 40
1.0
 40
1.0
 40
1.0
 10
-100.1518320233015
 20
87.59788837116025
 30
0.0
 10
-100.0971939536133
 20
87.6923338523299
 30
0.0
 10
-100.040265790083
 20
87.788914459971
 30
0.0
 10
-99.92657328377
 20
87.97817454290517
 30
0.0
 10
-99.7539143815473
 20
88.2603026457671
 30
0.0
 10
-99.57494468569216
 20
88.53718593600269
 30
0.0
 10
-99.2086907529657
 20
89.08404242012169
 30
0.0
 10
-98.95344397681288
 20
89.43940706771747
 30
0.0
 10
-98.15490872025913
 20
90.47824562889814
 30
0.0
 10
-97.57893816687562
 20
91.13455795846043
 30
0.0
 10
-96.64908574483101
 20
92.0642608093096
 30
0.0
 10
-96.3281288052954
 20
92.36501473262584
 30
0.0
 10
-95.66367197704425
 20
92.94778748876453
 30
0.0
 10
-95.3216004101707
 20
93.22842840754487
 30
0.0
 10
-94.2759659487006
 20
94.03074104791784
 30
0.0
 10
-93.54927231961257
 20
94.51626584769576
 30
0.0
 10
-92.03789625145235
 20
95.39064722988587
 30
0.0
 10
-91.25328878891858
 20
95.77962879923331
 30
0.0
 10
-90.03144260101755
 20
96.28819384335783
 30
0.0
 10
-89.61652644611547
 20
96.44509955828026
 30
0.0
 10
-88.78128201400217
 20
96.72980289967239
 30
0.0
 10
-88.35974632786852
 20
96.85810698965857
 30
0.0
 10
-87.08349067558001
 20
97.20120615076664
 30
0.0
 10
-86.21365422905879
 20
97.37494402689279
 30
0.0
 10
-84.46276218746216
 20
97.60679218900249
 30
0.0
 10
-83.58236438244438
 20
97.6653571364468
 30
0.0
 10
-82.69691068627192
 20
97.66535713708316
 30
0.0
  0
SPLINE
  5
216
330
1FE
100
AcDbEntity
  8
0
  6
Continuous
 62
     7
370
    25
100
AcDbSpline
210
0.0
220
0.0
230
1.0
 70
     8
 71
     3
 72
    46
 73
    42
 74
     0
 42
0.000000001
 43
0.00000001
 40
0.0
 40
0.0
 40
0.0
 40
0.0
 40
0.0312499999999998
 40
0.0312499999999998
 40
0.0624999999999997
 40
0.0624999999999997
 40
0.1249999999999996
 40
0.1249999999999996
 40
0.2499999999999994
 40
0.2499999999999994
 40
0.3749999999999993
 40
0.3749999999999993
 40
0.4374999999999993
 40
0.4374999999999993
 40
0.4999999999999994
 40
0.4999999999999994
 40
0.5624999999999994
 40
0.5624999999999994
 40
0.6249999999999994
 40
0.6249999999999994
 40
0.7500000000000023
 40
0.7500000000000023
 40
0.8125000000000027
 40
0.8125000000000027
 40
0.8750000000000031
 40
0.8750000000000031
 40
0.9375000000000037
 40
0.9375000000000037
 40
0.9531250000000054
 40
0.9531250000000054
 40
0.9687500000000072
 40
0.9687500000000072
 40
0.9843750000000091
 40
0.9843750000000091
 40
0.9921875000000099
 40
0.9921875000000099
 40
0.9960937500000088
 40
0.9980468750000044
 40
0.9990234375000022
 40
0.9990234375000022
 40
1.0
 40
1.0
 40
1.0
 40
1.0
 10
-143.6024028158576
 20
-3.056268928966327
 30
0.0
 10
-143.7038026641634
 20
-3.05140864511354
 30
0.0
 10
-143.8073476190276
 20
-3.042987848757854
 30
0.0
 10
-144.010571114297
 20
-3.021678893708631
 30
0.0
 10
-144.1116640588853
 20
-3.008598095182307
 30
0.0
 10
-144.413266231434
 20
-2.961570242937296
 30
0.0
 10
-144.6120116558382
 20
-2.919461829549717
 30
0.0
 10
-145.2017540414891
 20
-2.762960941613324
 30
0.0
 10
-145.5898296663557
 20
-2.614563849056239
 30
0.0
 10
-146.3158560846927
 20
-2.244777478003953
 30
0.0
 10
-146.6566219964691
 20
-2.023446197225681
 30
0.0
 10
-147.1338164053765
 20
-1.635895546351848
 30
0.0
 10
-147.2868765405505
 20
-1.497439196521134
 30
0.0
 10
-147.5742521042782
 20
-1.208445708449889
 30
0.0
 10
-147.7096540512652
 20
-1.057232578827772
 30
0.0
 10
-147.9639490292867
 20
-0.7414967848842218
 30
0.0
 10
-148.0830166580014
 20
-0.5771348613906667
 30
0.0
 10
-148.3045473703508
 20
-0.2351980545705268
 30
0.0
 10
-148.4073479705229
 20
-0.056824061658565
 30
0.0
 10
-148.6832499363595
 20
0.4846645898522262
 30
0.0
 10
-148.8269564361254
 20
0.8576812297145138
 30
0.0
 10
-148.9764263536498
 20
1.433466626752921
 30
0.0
 10
-149.0156017182607
 20
1.629652756132123
 30
0.0
 10
-149.0638224798167
 20
2.018953070147805
 30
0.0
 10
-149.0764662586645
 20
2.209525882343973
 30
0.0
 10
-149.0674208834684
 20
2.586452372577129
 30
0.0
 10
-149.0473567434628
 20
2.772679166730087
 30
0.0
 10
-148.9999349394403
 20
2.990382546351254
 30
0.0
 10
-148.9892417959114
 20
3.033366180926523
 30
0.0
 10
-148.964785193275
 20
3.119021257502715
 30
0.0
 10
-148.9507592018855
 20
3.162078568111831
 30
0.0
 10
-148.9228654823027
 20
3.244061320411466
 30
0.0
 10
-148.9083016116742
 20
3.283657012759657
 30
0.0
 10
-148.8838054753843
 20
3.342779565731021
 30
0.0
 10
-148.8752117930609
 20
3.362435455325873
 30
0.0
 10
-148.8615822817125
 20
3.391991769968728
 30
0.0
 10
-148.8545839694771
 20
3.406787108208233
 30
0.0
 10
-148.8460880703408
 20
3.424101786415858
 30
0.0
 10
-148.8423755261869
 20
3.431535772301193
 30
0.0
 10
-148.8398845785453
 20
3.436494948270287
 30
0.0
 10
-148.8390458552619
 20
3.438159738012779
 30
0.0
 10
-148.8373701788493
 20
3.441458130856316
 30
0.0
  0
SPLINE
  5
21A
330
1FE
100
AcDbEntity
  8
0
  6
Continuous
 62
     7
370
    25
100
AcDbSpline
210
0.0
220
0.0
230
1.0
 70
     8
 71
     3
 72
    38
 73
    34
 74
     0
 42
0.000000001
 43
0.00000001
 40
0.0
 40
0.0
 40
0.0
 40
0.0
 40
0.0312499999999983
 40
0.0312499999999983
 40
0.0468749999999986
 40
0.0468749999999986
 40
0.0624999999999989
 40
0.0624999999999989
 40
0.0937499999999995
 40
0.0937499999999995
 40
0.1250000000000001
 40
0.1250000000000001
 40
0.1874999999999979
 40
0.1874999999999979
 40
0.2499999999999958
 40
0.2499999999999958
 40
0.3749999999999937
 40
0.3749999999999937
 40
0.4999999999999916
 40
0.4999999999999916
 40
0.6249999999999896
 40
0.6249999999999896
 40
0.7499999999999873
 40
0.7499999999999873
 40
0.8749999999999852
 40
0.8749999999999852
 40
0.9374999999999842
 40
0.9374999999999842
 40
0.9687499999999879
 40
0.9687499999999879
 40
0.9843749999999939
 40
0.9843749999999939
 40
1.0
 40
1.0
 40
1.0
 40
1.0
 10
148.8373701788489
 20
3.441458130856773
 30
0.0
 10
148.8766554956225
 20
3.364128662546038
 30
0.0
 10
148.9084466722725
 20
3.286227565976749
 30
0.0
 10
148.9499136005844
 20
3.164665917422158
 30
0.0
 10
148.9637966248142
 20
3.122161480298799
 30
0.0
 10
148.9881291498105
 20
3.037558360480566
 30
0.0
 10
148.9987845217601
 20
2.995140206524745
 30
0.0
 10
149.0271471605114
 20
2.866411759027716
 30
0.0
 10
149.0416045047687
 20
2.778345664568989
 30
0.0
 10
149.0620785593559
 20
2.597729141508834
 30
0.0
 10
149.0690706488753
 20
2.503919976117813
 30
0.0
 10
149.0767756050165
 20
2.221760028327307
 30
0.0
 10
149.0648114902169
 20
2.031780168077014
 30
0.0
 10
149.017970818866
 20
1.644303300855005
 30
0.0
 10
148.9799220287551
 20
1.449592785216179
 30
0.0
 10
148.8317035703586
 20
0.8709495048641502
 30
0.0
 10
148.68526714392
 20
0.4891626370467955
 30
0.0
 10
148.3165521370774
 20
-0.2355555125642572
 30
0.0
 10
148.0932604528882
 20
-0.5806506213033877
 30
0.0
 10
147.5837102648746
 20
-1.213895522760575
 30
0.0
 10
147.292593098063
 20
-1.506738973040457
 30
0.0
 10
146.6604227576204
 20
-2.020565294517739
 30
0.0
 10
146.3181439383455
 20
-2.243619296179137
 30
0.0
 10
145.5873837110119
 20
-2.615802555136613
 30
0.0
 10
145.2077103311998
 20
-2.760974527130495
 30
0.0
 10
144.6170963382816
 20
-2.918311265713703
 30
0.0
 10
144.4160241175746
 20
-2.961098327284888
 30
0.0
 10
144.1122706778392
 20
-3.008524245980995
 30
0.0
 10
144.0107087701923
 20
-3.0216657586408
 30
0.0
 10
143.8579440141399
 20
-3.037681924536615
 30
0.0
 10
143.8069641875495
 20
-3.042479957124088
 30
0.0
 10
143.7048230969835
 20
-3.050542930988641
 30
0.0
 10
143.6529203539667
 20
-3.053847529858845
 30
0.0
 10
143.6024028158576
 20
-3.056268928966354
 30
0.0
  0
SPLINE
  5
21D
330
1FE
100
AcDbEntity
  8
0
  6
Continuous
 62
     7
370
    25
100
AcDbSpline
210
0.0
220
0.0
230
1.0
 70
     8
 71
     3
 72
    31
 73
    27
 74
     0
 42
0.000000001
 43
0.00000001
 40
0.0
 40
0.0
 40
0.0
 40
0.0
 40
0.0156249999999993
 40
0.0156249999999993
 40
0.0312499999999985
 40
0.0624999999999971
 40
0.0624999999999971
 40
0.1249999999999962
 40
0.1249999999999962
 40
0.2499999999999945
 40
0.2499999999999945
 40
0.3124999999999939
 40
0.3124999999999939
 40
0.3749999999999933
 40
0.3749999999999933
 40
0.4999999999999939
 40
0.4999999999999939
 40
0.6249999999999944
 40
0.6249999999999944
 40
0.6874999999999954
 40
0.6874999999999954
 40
0.7499999999999963
 40
0.7499999999999963
 40
0.8749999999999981
 40
0.8749999999999981
 40
1.0
 40
1.0
 40
1.0
 40
1.0
 10
82.69691067191006
 20
97.66535713708319
 30
0.0
 10
82.80602153833756
 20
97.66535697324485
 30
0.0
 10
82.91812128691913
 20
97.66443751092922
 30
0.0
 10
83.13886569535327
 20
97.66077729154922
 30
0.0
 10
83.46951671947149
 20
97.6525550716082
 30
0.0
 10
83.79878413809588
 20
97.63621439576096
 30
0.0
 10
84.45550228053267
 20
97.59287338544658
 30
0.0
 10
84.89089457372391
 20
97.54978092279984
 30
0.0
 10
86.18994801876529
 20
97.37870596328167
 30
0.0
 10
87.04653113769133
 20
97.2091922941925
 30
0.0
 10
88.31701805019168
 20
96.8704998219678
 30
0.0
 10
88.73809887914837
 20
96.74343315025506
 30
0.0
 10
89.57529090641354
 20
96.4601398529555
 30
0.0
 10
89.98946933350436
 20
96.30449915925097
 30
0.0
 10
91.20739637215577
 20
95.80088365359221
 30
0.0
 10
91.99146109416444
 20
95.41482486207374
 30
0.0
 10
93.50508317973791
 20
94.54436109264542
 30
0.0
 10
94.23457924459625
 20
94.05984551557279
 30
0.0
 10
95.28645115720722
 20
93.25662113141443
 30
0.0
 10
95.62997444587967
 20
92.97598155969209
 30
0.0
 10
96.29469108483087
 20
92.39557177367962
 30
0.0
 10
96.6169430480771
 20
92.09503249468075
 30
0.0
 10
97.55350093881927
 20
91.16253528765797
 30
0.0
 10
98.13981380072934
 20
90.49684019585861
 30
0.0
 10
99.21719731484504
 20
89.0973084466924
 30
0.0
 10
99.70843300111002
 20
88.36433525237682
 30
0.0
 10
100.1518320207781
 20
87.59788837552202
 30
0.0
  0
SPLINE
  5
220
330
1FE
100
AcDbEntity
  8
0
  6
Continuous
 62
     7
370
    25
100
AcDbSpline
210
0.0
220
0.0
230
1.0
 70
     8
 71
     3
 72
    19
 73
    15
 74
     0
 42
0.000000001
 43
0.00000001
 40
0.0
 40
0.0
 40
0.0
 40
0.0
 40
0.0156250000000005
 40
0.0156250000000005
 40
0.0234375000000006
 40
0.0234375000000006
 40
0.0273437500000007
 40
0.0273437500000007
 40
0.0312500000000007
 40
0.0625000000000007
 40
0.1250000000000007
 40
0.2500000000000006
 40
0.5000000000000003
 40
1.0
 40
1.0
 40
1.0
 40
1.0
 10
-217.9167153298875
 20
-87.96147844706833
 30
0.0
 10
-217.499543607815
 20
-86.93450418350548
 30
0.0
 10
-217.0413619000077
 20
-85.93097537571767
 30
0.0
 10
-216.2939915122867
 20
-84.46004015993755
 30
0.0
 10
-216.0348172760297
 20
-83.9754744601603
 30
0.0
 10
-215.6310048839091
 20
-83.25723060599157
 30
0.0
 10
-215.4931092958607
 20
-83.01969771786348
 30
0.0
 10
-215.218039326032
 20
-82.54421962715965
 30
0.0
 10
-213.980224461803
 20
-80.40456821899228
 30
0.0
 10
-210.5418498389447
 20
-74.46109208519411
 30
0.0
 10
-202.839890683742
 20
-61.14770554548618
 30
0.0
 10
-187.4359723733357
 20
-34.52093246607038
 30
0.0
 10
-156.6281357471016
 20
18.73261368962391
 30
0.0
 10
-130.2214186598173
 20
64.37851040660537
 30
0.0
 10
-112.6169405799362
 20
94.80910820537756
 30
0.0
  0
SPLINE
  5
222
330
1FE
100
AcDbEntity
  8
0
  6
Continuous
 62
     7
370
    25
100
AcDbSpline
210
0.0
220
0.0
230
1.0
 70
     8
 71
     3
 72
    26
 73
    22
 74
     0
 42
0.000000001
 43
0.00000001
 40
0.0
 40
0.0
 40
0.0
 40
0.0
 40
0.1250000000000002
 40
0.1250000000000002
 40
0.2500000000000004
 40
0.2500000000000004
 40
0.3125000000000009
 40
0.3125000000000009
 40
0.3750000000000014
 40
0.3750000000000014
 40
0.5000000000000008
 40
0.5000000000000008
 40
0.6250000000000002
 40
0.6250000000000002
 40
0.6875000000000002
 40
0.6875000000000002
 40
0.7500000000000001
 40
0.7500000000000001
 40
0.8750000000000001
 40
0.8750000000000001
 40
1.0
 40
1.0
 40
1.0
 40
1.0
 10
-112.6169405799362
 20
94.80910820537758
 30
0.0
 10
-111.8545931159315
 20
96.12688024921644
 30
0.0
 10
-111.0147445277106
 20
97.37796313618875
 30
0.0
 10
-109.1880655483485
 20
99.75365213175614
 30
0.0
 10
-108.2009841212483
 20
100.8780422257243
 30
0.0
 10
-106.6095868774302
 20
102.4693061915736
 30
0.0
 10
-106.0605320051221
 20
102.9837317064485
 30
0.0
 10
-104.9243415697351
 20
103.9798145772062
 30
0.0
 10
-104.3348469517504
 20
104.4632782930196
 30
0.0
 10
-102.5281302740903
 20
105.8479162219138
 30
0.0
 10
-101.2750794020355
 20
106.6833252038835
 30
0.0
 10
-98.6750592672696
 20
108.1846039433956
 30
0.0
 10
-97.32789673694082
 20
108.8501248188737
 30
0.0
 10
-95.23483279109905
 20
109.7178555326304
 30
0.0
 10
-94.52316068438006
 20
109.9859493983039
 30
0.0
 10
-93.08383804778902
 20
110.4744666213439
 30
0.0
 10
-92.35992366367816
 20
110.6937799664931
 30
0.0
 10
-90.1757539294063
 20
111.278835073749
 30
0.0
 10
-88.70313130736817
 20
111.5720397756163
 30
0.0
 10
-85.72501107170027
 20
111.9656293505977
 30
0.0
 10
-84.21952351139235
 20
112.0660731888926
 30
0.0
 10
-82.696910687897
 20
112.0660731896306
 30
0.0
  0
CIRCLE
  5
224
330
1FE
100
AcDbEntity
  8
0
  6
Continuous
 62
     7
370
    25
100
AcDbCircle
 10
180.0
 20
62.5
 30
0.0
 40
17.49999999999998
  0
CIRCLE
  5
225
330
1FE
100
AcDbEntity
  8
0
  6
Continuous
 62
     7
370
    25
100
AcDbCircle
 10
180.0
 20
62.5
 30
0.0
 40
19.49999999999999
  0
SPLINE
  5
22B
330
1FE
100
AcDbEntity
  8
0
  6
Continuous
 62
     7
370
    25
100
AcDbSpline
210
0.0
220
0.0
230
1.0
 70
     8
 71
     3
 72
    46
 73
    42
 74
     0
 42
0.000000001
 43
0.00000001
 40
0.0
 40
0.0
 40
0.0
 40
0.0
 40
0.0624999999999994
 40
0.0624999999999994
 40
0.0937499999999997
 40
0.0937499999999997
 40
0.125
 40
0.125
 40
0.1875000000000006
 40
0.1875000000000006
 40
0.2500000000000013
 40
0.2500000000000013
 40
0.2812500000000018
 40
0.2812500000000018
 40
0.3125000000000023
 40
0.3125000000000023
 40
0.3750000000000016
 40
0.3750000000000016
 40
0.4062500000000008
 40
0.4062500000000008
 40
0.4375000000000006
 40
0.4375000000000006
 40
0.4999999999999999
 40
0.4999999999999999
 40
0.5624999999999993
 40
0.5624999999999993
 40
0.5937499999999992
 40
0.5937499999999992
 40
0.6249999999999991
 40
0.6249999999999991
 40
0.6874999999999997
 40
0.6874999999999997
 40
0.7500000000000001
 40
0.7500000000000001
 40
0.7812500000000001
 40
0.7812500000000001
 40
0.8125
 40
0.8125
 40
0.875
 40
0.875
 40
1.0
 40
1.0
 40
1.0
 40
1.0
 10
-188.0359931188051
 20
-136.3061973104062
 30
0.0
 10
-189.4470663483069
 20
-136.2841620011675
 30
0.0
 10
-190.8477605797709
 20
-136.1719859531139
 30
0.0
 10
-192.9333745998423
 20
-135.8697368219981
 30
0.0
 10
-193.6260428397106
 20
-135.7469583967415
 30
0.0
 10
-195.0062137934118
 20
-135.4565393801885
 30
0.0
 10
-195.6897200779391
 20
-135.2894987940611
 30
0.0
 10
-197.712138777685
 20
-134.7263504010213
 30
0.0
 10
-199.0267180879302
 20
-134.2673433044586
 30
0.0
 10
-201.5904625783129
 20
-133.1871034784744
 30
0.0
 10
-202.8393626242001
 20
-132.5652132218266
 30
0.0
 10
-204.6619380587006
 20
-131.5064578380155
 30
0.0
 10
-205.2618235644371
 20
-131.1316105570194
 30
0.0
 10
-206.4271407761255
 20
-130.3503835375434
 30
0.0
 10
-206.9947900532971
 20
-129.9428878680618
 30
0.0
 10
-208.6537815097636
 20
-128.6709597046171
 30
0.0
 10
-209.7011334702983
 20
-127.7570479889999
 30
0.0
 10
-211.1847961648257
 20
-126.2879139257234
 30
0.0
 10
-211.6648036324998
 20
-125.781840694216
 30
0.0
 10
-212.5953873754104
 20
-124.7365906792026
 30
0.0
 10
-213.0468888217098
 20
-124.1962140307408
 30
0.0
 10
-214.3496159673642
 20
-122.5316825773849
 30
0.0
 10
-215.1381408474541
 20
-121.3790826975642
 30
0.0
 10
-216.5657568337337
 20
-118.9936859902814
 30
0.0
 10
-217.2035078013149
 20
-117.7601699477248
 30
0.0
 10
-218.0475628266704
 20
-115.8494819324621
 30
0.0
 10
-218.3102993858355
 20
-115.20259571271
 30
0.0
 10
-218.7979723134046
 20
-113.8885369628205
 30
0.0
 10
-219.0235752589285
 20
-113.2188109118157
 30
0.0
 10
-219.6340725689855
 20
-111.2017755670547
 30
0.0
 10
-219.9552925546129
 20
-109.8456016396651
 30
0.0
 10
-220.4378675221712
 20
-107.1118515999479
 30
0.0
 10
-220.59800851367
 20
-105.7341129626956
 30
0.0
 10
-220.7187789349173
 20
-103.6515146416674
 30
0.0
 10
-220.7391577075531
 20
-102.9546539974363
 30
0.0
 10
-220.7398751121553
 20
-101.5555722706313
 30
0.0
 10
-220.7200509299252
 20
-100.8513813652813
 30
0.0
 10
-220.6001175758999
 20
-98.74480491626575
 30
0.0
 10
-220.4408760002327
 20
-97.35794582993188
 30
0.0
 10
-219.7398459734947
 20
-93.24672750734175
 30
0.0
 10
-218.976847775755
 20
-90.57126401082961
 30
0.0
 10
-217.9167153298872
 20
-87.96147844706832
 30
0.0
  0
SPLINE
  5
22C
330
1FE
100
AcDbEntity
  8
0
  6
Continuous
 62
     7
370
    25
100
AcDbSpline
210
0.0
220
0.0
230
1.0
 70
     8
 71
     3
 72
    25
 73
    21
 74
     0
 42
0.000000001
 43
0.00000001
 40
0.0
 40
0.0
 40
0.0
 40
0.0
 40
0.00390625
 40
0.00390625
 40
0.0078124999999999
 40
0.0156250000000001
 40
0.0312500000000001
 40
0.0625000000000002
 40
0.1250000000000003
 40
0.2500000000000003
 40
0.5000000000000004
 40
0.7500000000000003
 40
0.8750000000000002
 40
0.9375000000000003
 40
0.9687500000000004
 40
0.9843750000000004
 40
0.9921875000000004
 40
0.9960937500000002
 40
0.9960937500000002
 40
1.0
 40
1.0
 40
1.0
 40
1.0
 10
188.0359931169349
 20
-136.3061973104356
 30
0.0
 10
187.5463162866934
 20
-136.31384410021
 30
0.0
 10
187.0566391098578
 20
-136.3102496759065
 30
0.0
 10
186.0772849778362
 20
-136.3102496759064
 30
0.0
 10
184.6082537798039
 20
-136.3102496759064
 30
0.0
 10
181.1805143177283
 20
-136.3102496759062
 30
0.0
 10
174.3250353935773
 20
-136.3102496759059
 30
0.0
 10
160.6140775452755
 20
-136.3102496759053
 30
0.0
 10
133.1921618486716
 20
-136.310249675905
 30
0.0
 10
78.34833045546395
 20
-136.3102496759064
 30
0.0
 10
-0.0000001062612035
 20
-136.3102496759068
 30
0.0
 10
-78.34833066798637
 20
-136.3102496759066
 30
0.0
 10
-133.192162061194
 20
-136.3102496759068
 30
0.0
 10
-160.6140777577978
 20
-136.3102496759065
 30
0.0
 10
-174.3250356060998
 20
-136.3102496759068
 30
0.0
 10
-181.1805145302507
 20
-136.3102496759066
 30
0.0
 10
-184.608253992326
 20
-136.3102496759066
 30
0.0
 10
-186.0772851903587
 20
-136.3102496759068
 30
0.0
 10
-187.0566393223802
 20
-136.3102496759068
 30
0.0
 10
-187.5463166860626
 20
-136.313844094001
 30
0.0
 10
-188.0359931188052
 20
-136.3061973104063
 30
0.0
  0
SPLINE
  5
22D
330
1FE
100
AcDbEntity
  8
0
  6
Continuous
 62
     7
370
    25
100
AcDbSpline
210
0.0
220
0.0
230
1.0
 70
     8
 71
     3
 72
    46
 73
    42
 74
     0
 42
0.000000001
 43
0.00000001
 40
0.0
 40
0.0
 40
0.0
 40
0.0
 40
0.1249999999999964
 40
0.1249999999999964
 40
0.1562499999999959
 40
0.1562499999999959
 40
0.1874999999999953
 40
0.1874999999999953
 40
0.2499999999999948
 40
0.2499999999999948
 40
0.3124999999999943
 40
0.3124999999999943
 40
0.3437499999999941
 40
0.3437499999999941
 40
0.3749999999999937
 40
0.3749999999999937
 40
0.4374999999999934
 40
0.4374999999999934
 40
0.4999999999999932
 40
0.4999999999999932
 40
0.5312499999999931
 40
0.5312499999999931
 40
0.562499999999993
 40
0.562499999999993
 40
0.6249999999999932
 40
0.6249999999999932
 40
0.6562499999999938
 40
0.6562499999999938
 40
0.6874999999999943
 40
0.6874999999999943
 40
0.7499999999999953
 40
0.7499999999999953
 40
0.8124999999999964
 40
0.8124999999999964
 40
0.8437499999999968
 40
0.8437499999999968
 40
0.8749999999999971
 40
0.8749999999999971
 40
0.9374999999999986
 40
0.9374999999999986
 40
1.0
 40
1.0
 40
1.0
 40
1.0
 10
217.9167153296819
 20
-87.96147844656424
 30
0.0
 10
218.976435318094
 20
-90.57024864132298
 30
0.0
 10
219.7423580471368
 20
-93.25223255319747
 30
0.0
 10
220.3278403783573
 20
-96.69739446739025
 30
0.0
 10
220.4261578531672
 20
-97.39110653910541
 30
0.0
 10
220.5840261765847
 20
-98.78819125190343
 30
0.0
 10
220.6432701121865
 20
-99.4899190436012
 30
0.0
 10
220.7603691977918
 20
-101.5863578799305
 30
0.0
 10
220.7586000898097
 20
-102.9793612901848
 30
0.0
 10
220.5958742234267
 20
-105.75615109673
 30
0.0
 10
220.4345222646901
 20
-107.1399146107998
 30
0.0
 10
220.0669538617432
 20
-109.2082910503455
 30
0.0
 10
219.923102567865
 20
-109.8987019468736
 30
0.0
 10
219.5952820208848
 20
-111.2654249553552
 30
0.0
 10
219.4116787578116
 20
-111.9408833290479
 30
0.0
 10
218.8014441489362
 20
-113.9434102626528
 30
0.0
 10
218.3154158636697
 20
-115.2466418238834
 30
0.0
 10
217.1883486302134
 20
-117.7908965396322
 30
0.0
 10
216.5460621361913
 20
-119.0314190328603
 30
0.0
 10
215.457938908926
 20
-120.842161162921
 30
0.0
 10
215.0771104725357
 20
-121.4332110989378
 30
0.0
 10
214.2835545883657
 20
-122.5848558579301
 30
0.0
 10
213.8702155677623
 20
-123.1463735528216
 30
0.0
 10
212.5802738971377
 20
-124.7878040967556
 30
0.0
 10
211.6544242629745
 20
-125.8251797055391
 30
0.0
 10
210.1661977164757
 20
-127.2953410529564
 30
0.0
 10
209.6534207257924
 20
-127.7709688827544
 30
0.0
 10
208.5935883249845
 20
-128.6926164477868
 30
0.0
 10
208.0458302556929
 20
-129.1389524485035
 30
0.0
 10
206.3744215890412
 20
-130.414431716101
 30
0.0
 10
205.2155125461062
 20
-131.1872025367527
 30
0.0
 10
202.8097739745911
 20
-132.5799969076588
 30
0.0
 10
201.5631774857538
 20
-133.2004253258385
 30
0.0
 10
199.6258641634133
 20
-134.0139393296556
 30
0.0
 10
198.9664832417605
 20
-134.2665065553645
 30
0.0
 10
197.638442747267
 20
-134.7267408821051
 30
0.0
 10
196.9702300208731
 20
-134.9343708398898
 30
0.0
 10
194.9533242346188
 20
-135.4914609339976
 30
0.0
 10
193.592377525949
 20
-135.7751961590434
 30
0.0
 10
190.8387243748779
 20
-136.1723168860189
 30
0.0
 10
189.4457346224241
 20
-136.2841827974692
 30
0.0
 10
188.0359931169349
 20
-136.3061973104355
 30
0.0
  0
SPLINE
  5
22E
330
1FE
100
AcDbEntity
  8
0
  6
Continuous
 62
     7
370
    25
100
AcDbSpline
210
0.0
220
0.0
230
1.0
 70
     8
 71
     3
 72
    19
 73
    15
 74
     0
 42
0.000000001
 43
0.00000001
 40
0.0
 40
0.0
 40
0.0
 40
0.0
 40
0.4999999999999998
 40
0.7499999999999997
 40
0.8749999999999996
 40
0.9374999999999997
 40
0.9687499999999998
 40
0.9726562499999998
 40
0.9726562499999998
 40
0.9765624999999998
 40
0.9765624999999998
 40
0.9843749999999998
 40
0.9843749999999998
 40
1.0
 40
1.0
 40
1.0
 40
1.0
 10
112.6169405770197
 20
94.80910821041891
 30
0.0
 10
130.2213411927254
 20
64.37864432590719
 30
0.0
 10
156.627942068272
 20
18.73294847136417
 30
0.0
 10
187.4356431257523
 20
-34.52036333810462
 30
0.0
 10
202.8394936504914
 20
-61.14701924515333
 30
0.0
 10
210.5414189128609
 20
-74.46034719867784
 30
0.0
 10
213.9797784049902
 20
-80.40379717792986
 30
0.0
 10
215.2175878221566
 20
-82.54343917046067
 30
0.0
 10
215.4926565815269
 20
-83.01891516880079
 30
0.0
 10
215.6305552348561
 20
-83.25644371987259
 30
0.0
 10
216.0343944760479
 20
-83.97469673617329
 30
0.0
 10
216.2936000695964
 20
-84.45929365215842
 30
0.0
 10
217.0410955466926
 20
-85.93040338498918
 30
0.0
 10
217.4994021097091
 20
-86.93415584998165
 30
0.0
 10
217.9167153296823
 20
-87.96147844656407
 30
0.0
  0
SPLINE
  5
22F
330
1FE
100
AcDbEntity
  8
0
  6
Continuous
 62
     7
370
    25
100
AcDbSpline
210
0.0
220
0.0
230
1.0
 70
     8
 71
     3
 72
    26
 73
    22
 74
     0
 42
0.000000001
 43
0.00000001
 40
0.0
 40
0.0
 40
0.0
 40
0.0
 40
0.1249999999999997
 40
0.1249999999999997
 40
0.2499999999999994
 40
0.2499999999999994
 40
0.3124999999999991
 40
0.3124999999999991
 40
0.3749999999999988
 40
0.3749999999999988
 40
0.4999999999999992
 40
0.4999999999999992
 40
0.6249999999999996
 40
0.6249999999999996
 40
0.6874999999999997
 40
0.6874999999999997
 40
0.7499999999999997
 40
0.7499999999999997
 40
0.8749999999999999
 40
0.8749999999999999
 40
1.0
 40
1.0
 40
1.0
 40
1.0
 10
82.69691069130181
 20
112.0660731896306
 30
0.0
 10
84.21951521172261
 20
112.0660731887421
 30
0.0
 10
85.72321388389231
 20
111.9656379353778
 30
0.0
 10
88.69458782250524
 20
111.5733970229886
 30
0.0
 10
90.16224994153993
 20
111.2815215197929
 30
0.0
 10
92.3367738121239
 20
110.7004367640911
 30
0.0
 10
93.05710413613629
 20
110.4827778307169
 30
0.0
 10
94.4885357717693
 20
109.9984318443434
 30
0.0
 10
95.20237959324025
 20
109.7305490459107
 30
0.0
 10
97.30593539816009
 20
108.8607047515353
 30
0.0
 10
98.65642215292799
 20
108.1943069396462
 30
0.0
 10
101.2573021476332
 20
106.69463352786
 30
0.0
 10
102.5078896568343
 20
105.8616818173286
 30
0.0
 10
104.3074954159584
 20
104.4850862974307
 30
0.0
 10
104.8961244767153
 20
104.003579726256
 30
0.0
 10
106.0399122802087
 20
103.0027404707377
 30
0.0
 10
106.5922081966381
 20
102.4860369142408
 30
0.0
 10
108.1918946039118
 20
100.8883977584301
 30
0.0
 10
109.1826117168172
 20
99.76037235714259
 30
0.0
 10
111.0138377787874
 20
97.37951387682995
 30
0.0
 10
111.8545910559379
 20
96.12688380954688
 30
0.0
 10
112.6169405770197
 20
94.8091082104189
 30
0.0
  0
SPLINE
  5
23A
330
1FE
100
AcDbEntity
  8
0
  6
Continuous
 62
     7
370
    25
100
AcDbSpline
210
0.0
220
0.0
230
1.0
 70
     8
 71
     3
 72
    20
 73
    16
 74
     0
 42
0.000000001
 43
0.00000001
 40
0.0
 40
0.0
 40
0.0
 40
0.0
 40
0.2500000000000023
 40
0.2500000000000023
 40
0.3125000000000031
 40
0.3125000000000031
 40
0.3750000000000038
 40
0.3750000000000038
 40
0.5000000000000024
 40
0.5000000000000024
 40
0.625000000000001
 40
0.625000000000001
 40
0.7499999999999997
 40
0.7499999999999997
 40
1.0
 40
1.0
 40
1.0
 40
1.0
 10
-82.69691068483996
 20
95.67357072414775
 30
0.0
 10
-84.29780013290394
 20
95.6735707229968
 30
0.0
 10
-85.85937075982562
 20
95.46458432732544
 30
0.0
 10
-87.76482967909595
 20
94.95617252220029
 30
0.0
 10
-88.1435356496021
 20
94.84180914696623
 30
0.0
 10
-88.89605323901554
 20
94.58706806380887
 30
0.0
 10
-89.2713137005271
 20
94.44608842883072
 30
0.0
 10
-90.37708774395155
 20
93.98838653702859
 30
0.0
 10
-91.0870840768575
 20
93.63793200884253
 30
0.0
 10
-92.45466032405999
 20
92.84964426783557
 30
0.0
 10
-93.11216624492246
 20
92.41168770723343
 30
0.0
 10
-94.37352012901461
 20
91.44632624364901
 30
0.0
 10
-94.97890468912183
 20
90.91643269889126
 30
0.0
 10
-96.66167323775188
 20
89.23686912398306
 30
0.0
 10
-97.62606186616598
 20
87.98628987557325
 30
0.0
 10
-98.42776262194197
 20
86.6004928558054
 30
0.0
  0
SPLINE
  5
23C
330
1FE
100
AcDbEntity
  8
0
  6
Continuous
 62
     7
370
    25
100
AcDbSpline
210
0.0
220
0.0
230
1.0
 70
     8
 71
     3
 72
    22
 73
    18
 74
     0
 42
0.000000001
 43
0.00000001
 40
0.0
 40
0.0
 40
0.0
 40
0.0
 40
0.2499999999999959
 40
0.2499999999999959
 40
0.3124999999999961
 40
0.3124999999999961
 40
0.3749999999999962
 40
0.3749999999999962
 40
0.499999999999997
 40
0.499999999999997
 40
0.6249999999999978
 40
0.6249999999999978
 40
0.7499999999999984
 40
0.7499999999999984
 40
0.8749999999999992
 40
0.8749999999999992
 40
1.0
 40
1.0
 40
1.0
 40
1.0
 10
98.42776262205955
 20
86.6004928556022
 30
0.0
 10
97.62783427343133
 20
87.98322614394533
 30
0.0
 10
96.6677784519211
 20
89.22816033045063
 30
0.0
 10
95.27663681959851
 20
90.61989950181514
 30
0.0
 10
94.98872009971682
 20
90.88990990412131
 30
0.0
 10
94.39311752139832
 20
91.41291820308469
 30
0.0
 10
94.08418546551898
 20
91.66683876095266
 30
0.0
 10
93.13708140910457
 20
92.3943631557912
 30
0.0
 10
92.48015225971545
 20
92.8333240963945
 30
0.0
 10
91.11697515673966
 20
93.6222640050388
 30
0.0
 10
90.4107917616849
 20
93.9723594508736
 30
0.0
 10
88.94813922393286
 20
94.58182379128479
 30
0.0
 10
88.18895085326068
 20
94.8411985440264
 30
0.0
 10
86.65383053359331
 20
95.25433162897593
 30
0.0
 10
85.87367455185485
 20
95.41050128197496
 30
0.0
 10
84.29063735447394
 20
95.6206401946102
 30
0.0
 10
83.49557354002924
 20
95.67357072359003
 30
0.0
 10
82.69691068446832
 20
95.67357072414778
 30
0.0
  0
SPLINE
  5
240
330
1FE
100
AcDbEntity
  8
0
  6
Continuous
 62
     7
370
    25
100
AcDbSpline
210
0.0
220
0.0
230
1.0
 70
     8
 71
     3
 72
    38
 73
    34
 74
     0
 42
0.000000001
 43
0.00000001
 40
0.0
 40
0.0
 40
0.0
 40
0.0
 40
0.1250000000000075
 40
0.1875000000000089
 40
0.2187500000000071
 40
0.2187500000000071
 40
0.2500000000000054
 40
0.2500000000000054
 40
0.3125000000000049
 40
0.3125000000000049
 40
0.3750000000000045
 40
0.3750000000000045
 40
0.4375000000000041
 40
0.4375000000000041
 40
0.5000000000000036
 40
0.5000000000000036
 40
0.5625000000000032
 40
0.5625000000000032
 40
0.6250000000000028
 40
0.6250000000000028
 40
0.6875000000000023
 40
0.6875000000000023
 40
0.7500000000000019
 40
0.7500000000000019
 40
0.8125000000000014
 40
0.8125000000000014
 40
0.875000000000001
 40
0.875000000000001
 40
0.9375000000000006
 40
0.9375000000000006
 40
0.9687500000000003
 40
0.9687500000000003
 40
1.0
 40
1.0
 40
1.0
 40
1.0
 10
-146.161580530948
 20
4.089179041666463
 30
0.0
 10
-146.3406541582637
 20
3.779637485877889
 30
0.0
 10
-146.6092645992373
 20
3.31532515219506
 30
0.0
 10
-146.9226434470397
 20
2.773627429565017
 30
0.0
 10
-147.0569486675265
 20
2.541471262723538
 30
0.0
 10
-147.1464854811844
 20
2.386700484829252
 30
0.0
 10
-147.1848728830383
 20
2.305006596732974
 30
0.0
 10
-147.2720794825316
 20
2.053347261675448
 30
0.0
 10
-147.3006297252461
 20
1.875594338265433
 30
0.0
 10
-147.3175165641074
 20
1.521046172715116
 30
0.0
 10
-147.3056797593568
 20
1.344796805048586
 30
0.0
 10
-147.2482461133818
 20
0.9940038900807073
 30
0.0
 10
-147.2027427017289
 20
0.8214435444160134
 30
0.0
 10
-147.0848724218963
 20
0.489714803158191
 30
0.0
 10
-147.0122785812235
 20
0.3291129050750083
 30
0.0
 10
-146.8415593584549
 20
0.0177459915034505
 30
0.0
 10
-146.7442061288214
 20
-0.1311862341408917
 30
0.0
 10
-146.5315361652563
 20
-0.4107544589557551
 30
0.0
 10
-146.4156544489454
 20
-0.5424004113160313
 30
0.0
 10
-146.165223044143
 20
-0.7897787128090987
 30
0.0
 10
-146.0294717533618
 20
-0.9063604731612486
 30
0.0
 10
-145.7462495954014
 20
-1.117406991926379
 30
0.0
 10
-145.5987071056988
 20
-1.212250361841893
 30
0.0
 10
-145.2922196003694
 20
-1.381406114652547
 30
0.0
 10
-145.1331932976204
 20
-1.455572134815602
 30
0.0
 10
-144.8034872307499
 20
-1.582921362587769
 30
0.0
 10
-144.6326053983534
 20
-1.635465775039779
 30
0.0
 10
-144.2903314911501
 20
-1.715921409825214
 30
0.0
 10
-144.117470672876
 20
-1.744028023606983
 30
0.0
 10
-143.8556228065393
 20
-1.768211161379551
 30
0.0
 10
-143.7679243311568
 20
-1.773348171425866
 30
0.0
 10
-143.5915734882847
 20
-1.776914982620583
 30
0.0
 10
-143.5030001014934
 20
-1.775900129637361
 30
0.0
 10
-143.414571046012
 20
-1.775900129637361
 30
0.0
  0
SPLINE
  5
243
330
1FE
100
AcDbEntity
  8
0
  6
Continuous
 62
     7
370
    25
100
AcDbSpline
210
0.0
220
0.0
230
1.0
 70
     8
 71
     3
 72
    36
 73
    32
 74
     0
 42
0.000000001
 43
0.00000001
 40
0.0
 40
0.0
 40
0.0
 40
0.0
 40
0.0312500000000055
 40
0.0312500000000055
 40
0.0625000000000109
 40
0.0625000000000109
 40
0.1250000000000121
 40
0.1250000000000121
 40
0.2500000000000145
 40
0.2500000000000145
 40
0.3750000000000169
 40
0.3750000000000169
 40
0.437500000000018
 40
0.437500000000018
 40
0.5000000000000192
 40
0.5000000000000192
 40
0.6250000000000215
 40
0.6250000000000215
 40
0.6875000000000228
 40
0.6875000000000228
 40
0.7187500000000233
 40
0.7187500000000233
 40
0.7500000000000239
 40
0.7500000000000239
 40
0.7656250000000224
 40
0.7656250000000224
 40
0.7812500000000209
 40
0.7812500000000209
 40
0.8125000000000179
 40
0.875000000000012
 40
1.0
 40
1.0
 40
1.0
 40
1.0
 10
143.4145710446314
 20
-1.775900129637366
 30
0.0
 10
143.5035874683082
 20
-1.775900129637366
 30
0.0
 10
143.5926686635207
 20
-1.776936855652327
 30
0.0
 10
143.7704712748474
 20
-1.77325172333492
 30
0.0
 10
143.859159232939
 20
-1.767994339603245
 30
0.0
 10
144.1246554176392
 20
-1.743135812025295
 30
0.0
 10
144.3016045342297
 20
-1.713814837326451
 30
0.0
 10
144.8177020129779
 20
-1.590810314269853
 30
0.0
 10
145.1471328468236
 20
-1.463022513203969
 30
0.0
 10
145.7700403938333
 20
-1.11608178504239
 30
0.0
 10
146.0519065613596
 20
-0.9041134210919727
 30
0.0
 10
146.4295374861632
 20
-0.5273899753375568
 30
0.0
 10
146.5468051164609
 20
-0.3925247182556737
 30
0.0
 10
146.7588319002329
 20
-0.1098394446336216
 30
0.0
 10
146.8544249198492
 20
0.0387480845911777
 30
0.0
 10
147.1073740267429
 20
0.5080313638454446
 30
0.0
 10
147.2289128484803
 20
0.8498799448189848
 30
0.0
 10
147.3089717919877
 20
1.379883856492471
 30
0.0
 10
147.3181305094528
 20
1.556079280781081
 30
0.0
 10
147.3017976031972
 20
1.81956169966146
 30
0.0
 10
147.2911669805258
 20
1.907249348750437
 30
0.0
 10
147.2569769222994
 20
2.082276084474005
 30
0.0
 10
147.2335737554628
 20
2.169540538107318
 30
0.0
 10
147.1873705572077
 20
2.293537048446916
 30
0.0
 10
147.170181295977
 20
2.333998810153337
 30
0.0
 10
147.1318167386664
 20
2.412982121252315
 30
0.0
 10
147.1093575649511
 20
2.450878740032573
 30
0.0
 10
147.0432335858447
 20
2.565178761059318
 30
0.0
 10
146.9109856276319
 20
2.793778803112734
 30
0.0
 10
146.6024070584689
 20
3.327178901237588
 30
0.0
 10
146.3379111420434
 20
3.784378985344587
 30
0.0
 10
146.1615805310931
 20
4.089179041415906
 30
0.0
  0
CIRCLE
  5
249
330
1FE
100
AcDbEntity
  8
0
  6
Continuous
 62
     7
370
    25
100
AcDbCircle
 10
0.0
 20
37.5
 30
0.0
 40
32.50000000000006
  0
CIRCLE
  5
24A
330
1FE
100
AcDbEntity
  8
0
  6
Continuous
 62
     7
370
    25
100
AcDbCircle
 10
0.0
 20
37.5
 30
0.0
 40
22.5
  0
LINE
  5
24F
330
1FE
100
AcDbEntity
  8
0
  6
Continuous
 62
     7
370
    25
100
AcDbLine
 10
-249.7310993736
 20
137.5
 30
0.0
 11
-249.7310993736
 21
-97.5
 31
0.0
  0
LINE
  5
250
330
1FE
100
AcDbEntity
  8
0
  6
Continuous
 62
     7
370
    25
100
AcDbLine
 10
-205.0
 20
-142.2310993736
 30
0.0
 11
205.0
 21
-142.2310993736
 31
0.0
  0
LINE
  5
251
330
1FE
100
AcDbEntity
  8
0
  6
Continuous
 62
     7
370
    25
100
AcDbLine
 10
249.7310993736
 20
-97.5
 30
0.0
 11
249.7310993736
 21
137.5
 31
0.0
  0
LINE
  5
252
330
1FE
100
AcDbEntity
  8
0
  6
Continuous
 62
     7
370
    25
100
AcDbLine
 10
-187.5165874526
 20
-133.1093276776
 30
0.0
 11
187.5165874526
 21
-133.1093276776
 31
0.0
  0
LINE
  5
253
330
1FE
100
AcDbEntity
  8
0
  6
Continuous
 62
     7
370
    25
100
AcDbLine
 10
-108.306767084
 20
92.315619404
 30
0.0
 11
-211.2167226554
 21
-85.5715895123
 31
0.0
  0
LINE
  5
254
330
1FE
100
AcDbEntity
  8
0
  6
Continuous
 62
     7
370
    25
100
AcDbLine
 10
82.6969106884
 20
107.0866071573
 30
0.0
 11
-82.6969106855
 21
107.0866071573
 31
0.0
  0
LINE
  5
255
330
1FE
100
AcDbEntity
  8
0
  6
Continuous
 62
     7
370
    25
100
AcDbLine
 10
211.2167226554
 20
-85.5715895123
 30
0.0
 11
108.3067670815
 21
92.3156194084
 31
0.0
  0
LINE
  5
256
330
1FE
100
AcDbEntity
  8
0
  6
Continuous
 62
     7
370
    25
100
AcDbLine
 10
-148.8373701788
 20
3.4414581309
 30
0.0
 11
-100.1518320204
 21
87.5978883762
 31
0.0
  0
LINE
  5
257
330
1FE
100
AcDbEntity
  8
0
  6
Continuous
 62
     7
370
    25
100
AcDbLine
 10
143.6024028159
 20
-3.056268929
 30
0.0
 11
-143.6024028159
 21
-3.056268929
 31
0.0
  0
LINE
  5
258
330
1FE
100
AcDbEntity
  8
0
  6
Continuous
 62
     7
370
    25
100
AcDbLine
 10
100.1518320208
 20
87.5978883755
 30
0.0
 11
148.8373701788
 21
3.4414581309
 31
0.0
  0
LINE
  5
259
330
1FE
100
AcDbEntity
  8
0
  6
Continuous
 62
     7
370
    25
100
AcDbLine
 10
-82.6969106863
 20
97.6653571371
 30
0.0
 11
82.6969106859
 21
97.6653571371
 31
0.0
  0
LINE
  5
25A
330
1FE
100
AcDbEntity
  8
0
  6
Continuous
 62
     7
370
    25
100
AcDbLine
 10
-217.9167153299
 20
-87.9614784471
 30
0.0
 11
-213.408991945
 21
-89.7925805436
 31
0.0
  0
LINE
  5
25B
330
1FE
100
AcDbEntity
  8
0
  6
Continuous
 62
     7
370
    25
100
AcDbLine
 10
-112.6169405799
 20
94.8091082054
 30
0.0
 11
-108.306767084
 21
92.315619404
 31
0.0
  0
LINE
  5
25C
330
1FE
100
AcDbEntity
  8
0
  6
Continuous
 62
     7
370
    25
100
AcDbLine
 10
-82.6969106855
 20
107.0866071573
 30
0.0
 11
-82.6969106879
 21
112.0660731896
 31
0.0
  0
LINE
  5
25D
330
1FE
100
AcDbEntity
  8
0
  6
Continuous
 62
     7
370
    25
100
AcDbLine
 10
244.7310993736
 20
-97.5
 30
0.0
 11
244.7310993736
 21
137.5
 31
0.0
  0
LINE
  5
25E
330
1FE
100
AcDbEntity
  8
0
  6
Continuous
 62
     7
370
    25
100
AcDbLine
 10
-205.0
 20
-137.2310993736
 30
0.0
 11
205.0
 21
-137.2310993736
 31
0.0
  0
LINE
  5
25F
330
1FE
100
AcDbEntity
  8
0
  6
Continuous
 62
     7
370
    25
100
AcDbLine
 10
-244.7310993736
 20
137.5
 30
0.0
 11
-244.7310993736
 21
-97.5
 31
0.0
  0
LINE
  5
260
330
1FE
100
AcDbEntity
  8
0
  6
Continuous
 62
     7
370
    25
100
AcDbLine
 10
-82.6969106879
 20
112.0660731896
 30
0.0
 11
82.6969106913
 21
112.0660731896
 31
0.0
  0
LINE
  5
261
330
1FE
100
AcDbEntity
  8
0
  6
Continuous
 62
     7
370
    25
100
AcDbLine
 10
249.7310993736
 20
137.5
 30
0.0
 11
-249.7310993736
 21
137.5
 31
0.0
  0
LINE
  5
262
330
1FE
100
AcDbEntity
  8
0
  6
Continuous
 62
     7
370
    25
100
AcDbLine
 10
213.4089919448
 20
-89.7925805432
 30
0.0
 11
217.9167153297
 21
-87.9614784466
 31
0.0
  0
LINE
  5
263
330
1FE
100
AcDbEntity
  8
0
  6
Continuous
 62
     7
370
    25
100
AcDbLine
 10
188.0359931169
 20
-136.3061973104
 30
0.0
 11
187.9861668821
 21
-133.1154789227
 31
0.0
  0
LINE
  5
264
330
1FE
100
AcDbEntity
  8
0
  6
Continuous
 62
     7
370
    25
100
AcDbLine
 10
108.3067670815
 20
92.3156194084
 30
0.0
 11
112.616940577
 21
94.8091082104
 31
0.0
  0
LINE
  5
265
330
1FE
100
AcDbEntity
  8
0
  6
Continuous
 62
     7
370
    25
100
AcDbLine
 10
-188.0359931188
 20
-136.3061973104
 30
0.0
 11
-187.9861668838
 21
-133.1154789227
 31
0.0
  0
LINE
  5
266
330
1FE
100
AcDbEntity
  8
0
  6
Continuous
 62
     7
370
    25
100
AcDbLine
 10
82.6969106884
 20
107.0866071573
 30
0.0
 11
82.6969106913
 21
112.0660731896
 31
0.0
  0
LINE
  5
267
330
1FE
100
AcDbEntity
  8
0
  6
Continuous
 62
     7
370
    25
100
AcDbLine
 10
-82.6969106863
 20
97.6653571371
 30
0.0
 11
-82.6969106848
 21
95.6735707241
 31
0.0
  0
LINE
  5
268
330
1FE
100
AcDbEntity
  8
0
  6
Continuous
 62
     7
370
    25
100
AcDbLine
 10
-100.1518320204
 20
87.5978883762
 30
0.0
 11
-98.4277626219
 21
86.6004928558
 31
0.0
  0
LINE
  5
269
330
1FE
100
AcDbEntity
  8
0
  6
Continuous
 62
     7
370
    25
100
AcDbLine
 10
82.6969106859
 20
97.6653571371
 30
0.0
 11
82.6969106845
 21
95.6735707241
 31
0.0
  0
LINE
  5
26A
330
1FE
100
AcDbEntity
  8
0
  6
Continuous
 62
     7
370
    25
100
AcDbLine
 10
98.4277626221
 20
86.6004928556
 30
0.0
 11
100.1518320208
 21
87.5978883755
 31
0.0
  0
LINE
  5
26B
330
1FE
100
AcDbEntity
  8
0
  6
Continuous
 62
     7
370
    25
100
AcDbLine
 10
-147.8856499297
 20
5.0865745616
 30
0.0
 11
-146.1615805309
 21
4.0891790417
 31
0.0
  0
LINE
  5
26C
330
1FE
100
AcDbEntity
  8
0
  6
Continuous
 62
     7
370
    25
100
AcDbLine
 10
-143.414571046
 20
-1.7759001296
 30
0.0
 11
-143.414571046
 21
-3.056268929
 31
0.0
  0
LINE
  5
26D
330
1FE
100
AcDbEntity
  8
0
  6
Continuous
 62
     7
370
    25
100
AcDbLine
 10
143.4145710446
 20
-1.7759001296
 30
0.0
 11
143.4145710446
 21
-3.056268929
 31
0.0
  0
LINE
  5
26E
330
1FE
100
AcDbEntity
  8
0
  6
Continuous
 62
     7
370
    25
100
AcDbLine
 10
146.1615805311
 20
4.0891790414
 30
0.0
 11
147.8856499298
 21
5.0865745613
 31
0.0
  0
LINE
  5
26F
330
1FE
100
AcDbEntity
  8
0
  6
Continuous
 62
     7
370
    25
100
AcDbLine
 10
146.1615805311
 20
4.0891790414
 30
0.0
 11
98.4277626221
 21
86.6004928556
 31
0.0
  0
LINE
  5
270
330
1FE
100
AcDbEntity
  8
0
  6
Continuous
 62
     7
370
    25
100
AcDbLine
 10
-98.4277626219
 20
86.6004928558
 30
0.0
 11
-146.1615805309
 21
4.0891790417
 31
0.0
  0
LINE
  5
271
330
1FE
100
AcDbEntity
  8
0
  6
Continuous
 62
     7
370
    25
100
AcDbLine
 10
82.6969106845
 20
95.6735707241
 30
0.0
 11
-82.6969106848
 21
95.6735707241
 31
0.0
  0
LINE
  5
272
330
1FE
100
AcDbEntity
  8
0
  6
Continuous
 62
     7
370
    25
100
AcDbLine
 10
-143.414571046
 20
-1.7759001296
 30
0.0
 11
143.4145710446
 21
-1.7759001296
 31
0.0
  0
LINE
  5
273
330
1FE
100
AcDbEntity
  8
0
  6
Continuous
 62
     8
370
    25
100
AcDbLine
 10
-249.7310993736
 20
-97.5
 30
0.0
 11
-244.7310993736
 21
-97.5
 31
0.0
  0
LINE
  5
274
330
1FE
100
AcDbEntity
  8
0
  6
Continuous
 62
     8
370
    25
100
AcDbLine
 10
-205.0
 20
-142.2310993736
 30
0.0
 11
-205.0
 21
-137.2310993736
 31
0.0
  0
LINE
  5
275
330
1FE
100
AcDbEntity
  8
0
  6
Continuous
 62
     8
370
    25
100
AcDbLine
 10
205.0
 20
-142.2310993736
 30
0.0
 11
205.0
 21
-137.2310993736
 31
0.0
  0
LINE
  5
276
330
1FE
100
AcDbEntity
  8
0
  6
Continuous
 62
     8
370
    25
100
AcDbLine
 10
249.7310993736
 20
-97.5
 30
0.0
 11
244.7310993736
 21
-97.5
 31
0.0
  0
ARC
  5
277
330
1FE
100
AcDbEntity
  8
0
  6
Continuous
 62
     7
370
    25
100
AcDbCircle
 10
-205.0
 20
-97.5
 30
0.0
 40
44.73109937359524
100
AcDbArc
 50
180.0
 51
270.0
  0
ARC
  5
278
330
1FE
100
AcDbEntity
  8
0
  6
Continuous
 62
     7
370
    25
100
AcDbCircle
 10
205.0
 20
-97.5
 30
0.0
 40
44.73109937359528
100
AcDbArc
 50
270.0
 51
0.0
  0
ARC
  5
279
330
1FE
100
AcDbEntity
  8
0
  6
Continuous
 62
     7
370
    25
100
AcDbCircle
 10
205.0
 20
-97.5
 30
0.0
 40
39.73109937359524
100
AcDbArc
 50
270.0
 51
0.0
  0
ARC
  5
27A
330
1FE
100
AcDbEntity
  8
0
  6
Continuous
 62
     7
370
    25
100
AcDbCircle
 10
-205.0
 20
-97.5
 30
0.0
 40
39.73109937359517
100
AcDbArc
 50
180.0
 51
270.0
  0
VIEWPORT
  5
54D
330
1FE
100
AcDbEntity
  8
0
100
AcDbViewport
 10
0.0
 20
0.0
 30
0.0
 40
205.6
 41
156.0
 68
     1
 69
     1
 12
0.0
 22
29.5
 13
0.0
 23
0.0
 14
10.0
 24
10.0
 15
10.0
 25
10.0
 16
0.0
 26
0.0
 36
1.0
 17
0.0
 27
0.0
 37
0.0
 42
50.0
 43
0.0
 44
0.0
 45
610.98
 50
0.0
 51
0.0
 72
   100
 90
   557152
  1

281
     0
 71
     1
 74
     0
110
0.0
120
0.0
130
0.0
111
1.0
121
0.0
131
0.0
112
0.0
122
1.0
132
0.0
 79
     0
146
0.0
  0
ENDBLK
  5
201
330
1FE
100
AcDbEntity
  8
0
100
AcDbBlockEnd
  0
BLOCK
  5
27D
330
27B
100
AcDbEntity
  8
0
100
AcDbBlockBegin
  2
*Paper_Space3
 70
     0
 10
0.0
 20
0.0
 30
0.0
  3
*Paper_Space3
  1

  0
LINE
  5
2CA
330
27B
100
AcDbEntity
  8
0
  6
Continuous
 62
     7
370
    25
100
AcDbLine
 10
205.0
 20
142.2310993736
 30
0.0
 11
-205.0
 21
142.2310993736
 31
0.0
  0
LINE
  5
2CB
330
27B
100
AcDbEntity
  8
0
  6
Continuous
 62
     7
370
    25
100
AcDbLine
 10
-249.7310993736
 20
97.5
 30
0.0
 11
-249.7310993736
 21
-137.5
 31
0.0
  0
LINE
  5
2CC
330
27B
100
AcDbEntity
  8
0
  6
Continuous
 62
     7
370
    25
100
AcDbLine
 10
249.7310993736
 20
-137.5
 30
0.0
 11
249.7310993736
 21
97.5
 31
0.0
  0
LINE
  5
2CD
330
27B
100
AcDbEntity
  8
0
  6
Continuous
 62
     7
370
    25
100
AcDbLine
 10
225.0
 20
110.5
 30
0.0
 11
-225.0
 21
110.5
 31
0.0
  0
LINE
  5
2CE
330
27B
100
AcDbEntity
  8
0
  6
Continuous
 62
     7
370
    25
100
AcDbLine
 10
-204.9559109389
 20
129.5
 30
0.0
 11
204.9559109389
 21
129.5
 31
0.0
  0
LINE
  5
2CF
330
27B
100
AcDbEntity
  8
0
  6
Continuous
 62
     7
370
    25
100
AcDbLine
 10
-231.0
 20
119.859601858
 30
0.0
 11
-225.0
 21
110.5
 31
0.0
  0
LINE
  5
2D0
330
27B
100
AcDbEntity
  8
0
  6
Continuous
 62
     7
370
    25
100
AcDbLine
 10
-1.0
 20
129.5
 30
0.0
 11
-1.0
 21
110.5
 31
0.0
  0
LINE
  5
2D1
330
27B
100
AcDbEntity
  8
0
  6
Continuous
 62
     7
370
    25
100
AcDbLine
 10
-244.0
 20
-137.5
 30
0.0
 11
-244.0
 21
89.5
 31
0.0
  0
LINE
  5
2D2
330
27B
100
AcDbEntity
  8
0
  6
Continuous
 62
     7
370
    25
100
AcDbLine
 10
-225.0
 20
110.5
 30
0.0
 11
-230.9760151048
 21
119.0346340601
 31
0.0
  0
LINE
  5
2D3
330
27B
100
AcDbEntity
  8
0
  6
Continuous
 62
     7
370
    25
100
AcDbLine
 10
-225.0
 20
110.5
 30
0.0
 11
-225.0
 21
-137.5
 31
0.0
  0
LINE
  5
2D4
330
27B
100
AcDbEntity
  8
0
  6
Continuous
 62
     7
370
    25
100
AcDbLine
 10
244.0
 20
89.5
 30
0.0
 11
244.0
 21
-137.5
 31
0.0
  0
LINE
  5
2D5
330
27B
100
AcDbEntity
  8
0
  6
Continuous
 62
     7
370
    25
100
AcDbLine
 10
-249.7310993736
 20
-137.5
 30
0.0
 11
249.7310993736
 21
-137.5
 31
0.0
  0
LINE
  5
2D6
330
27B
100
AcDbEntity
  8
0
  6
Continuous
 62
     7
370
    25
100
AcDbLine
 10
225.0
 20
-137.5
 30
0.0
 11
225.0
 21
110.5
 31
0.0
  0
LINE
  5
2D7
330
27B
100
AcDbEntity
  8
0
  6
Continuous
 62
     7
370
    25
100
AcDbLine
 10
230.9760151048
 20
119.0346340601
 30
0.0
 11
225.0
 21
110.5
 31
0.0
  0
LINE
  5
2D8
330
27B
100
AcDbEntity
  8
0
  6
Continuous
 62
     7
370
    25
100
AcDbLine
 10
-230.6563228307
 20
119.3234882793
 30
0.0
 11
-230.9760151048
 21
119.0346340601
 31
0.0
  0
LINE
  5
2D9
330
27B
100
AcDbEntity
  8
0
  6
Continuous
 62
     7
370
    25
100
AcDbLine
 10
230.9760151048
 20
119.0346340601
 30
0.0
 11
230.6563228307
 21
119.3234882793
 31
0.0
  0
LINE
  5
2DA
330
27B
100
AcDbEntity
  8
0
  6
Continuous
 62
     7
370
    25
100
AcDbLine
 10
225.0
 20
109.5
 30
0.0
 11
-225.0
 21
109.5
 31
0.0
  0
LINE
  5
2DB
330
27B
100
AcDbEntity
  8
0
  6
Continuous
 62
     7
370
    25
100
AcDbLine
 10
243.5560413777
 20
95.4430287332
 30
0.0
 11
243.5560413777
 21
97.5
 31
0.0
  0
LINE
  5
2DC
330
27B
100
AcDbEntity
  8
0
  6
Continuous
 62
     7
370
    25
100
AcDbLine
 10
249.7310993736
 20
97.5
 30
0.0
 11
243.1918358845
 21
97.5
 31
0.0
  0
LINE
  5
2DD
330
27B
100
AcDbEntity
  8
0
  6
Continuous
 62
     7
370
    25
100
AcDbLine
 10
247.1066008945
 20
97.5
 30
0.0
 11
247.1066008945
 21
-137.5
 31
0.0
  0
LINE
  5
2DE
330
27B
100
AcDbEntity
  8
0
  6
Continuous
 62
     7
370
    25
100
AcDbLine
 10
205.0
 20
142.2310993736
 30
0.0
 11
205.0
 21
132.5
 31
0.0
  0
LINE
  5
2DF
330
27B
100
AcDbEntity
  8
0
  6
Continuous
 62
     7
370
    25
100
AcDbLine
 10
205.0
 20
136.0560413777
 30
0.0
 11
-205.0
 21
136.0560413777
 31
0.0
  0
LINE
  5
2E0
330
27B
100
AcDbEntity
  8
0
  6
Continuous
 62
     7
370
    25
100
AcDbLine
 10
205.0
 20
132.5
 30
0.0
 11
-205.0
 21
132.5
 31
0.0
  0
LINE
  5
2E1
330
27B
100
AcDbEntity
  8
0
  6
Continuous
 62
     7
370
    25
100
AcDbLine
 10
-205.0
 20
142.2310993736
 30
0.0
 11
-205.0
 21
132.5
 31
0.0
  0
LINE
  5
2E2
330
27B
100
AcDbEntity
  8
0
  6
Continuous
 62
     7
370
    25
100
AcDbLine
 10
-249.7310993736
 20
97.5
 30
0.0
 11
-243.1918358845
 21
97.5
 31
0.0
  0
LINE
  5
2E3
330
27B
100
AcDbEntity
  8
0
  6
Continuous
 62
     7
370
    25
100
AcDbLine
 10
-243.5560413777
 20
97.5
 30
0.0
 11
-243.5560413777
 21
95.4430287332
 31
0.0
  0
LINE
  5
2E4
330
27B
100
AcDbEntity
  8
0
  6
Continuous
 62
     7
370
    25
100
AcDbLine
 10
-205.0
 20
139.6066008945
 30
0.0
 11
205.0
 21
139.6066008945
 31
0.0
  0
LINE
  5
2E5
330
27B
100
AcDbEntity
  8
0
  6
Continuous
 62
     7
370
    25
100
AcDbLine
 10
-247.1066008945
 20
-137.5
 30
0.0
 11
-247.1066008945
 21
97.5
 31
0.0
  0
LINE
  5
2E6
330
27B
100
AcDbEntity
  8
0
  6
Continuous
 62
     7
370
    25
100
AcDbLine
 10
249.7242470474
 20
-137.5
 30
0.0
 11
249.7242470474
 21
97.5
 31
0.0
  0
LINE
  5
2E7
330
27B
100
AcDbEntity
  8
0
  6
Continuous
 62
     7
370
    25
100
AcDbLine
 10
-249.7242470474
 20
97.5
 30
0.0
 11
-249.7242470474
 21
-137.5
 31
0.0
  0
LINE
  5
2E8
330
27B
100
AcDbEntity
  8
0
  6
Continuous
 62
     7
370
    25
100
AcDbLine
 10
205.0
 20
142.2242470474
 30
0.0
 11
-205.0
 21
142.2242470474
 31
0.0
  0
LINE
  5
2E9
330
27B
100
AcDbEntity
  8
0
  6
Continuous
 62
     7
370
    25
100
AcDbLine
 10
1.0
 20
129.5
 30
0.0
 11
1.0
 21
110.5
 31
0.0
  0
LINE
  5
2EA
330
27B
100
AcDbEntity
  8
0
  6
Continuous
 62
     7
370
    25
100
AcDbLine
 10
231.0
 20
119.859601858
 30
0.0
 11
225.0
 21
110.5
 31
0.0
  0
ARC
  5
2EB
330
27B
100
AcDbEntity
  8
0
  6
Continuous
 62
     7
370
    25
100
AcDbCircle
 10
205.0
 20
97.5
 30
0.0
 40
44.73109937359524
100
AcDbArc
 50
0.0
 51
90.0
  0
ARC
  5
2EC
330
27B
100
AcDbEntity
  8
0
  6
Continuous
 62
     7
370
    25
100
AcDbCircle
 10
-205.0
 20
97.5
 30
0.0
 40
44.73109937359528
100
AcDbArc
 50
90.0
 51
180.0
  0
ARC
  5
2ED
330
27B
100
AcDbEntity
  8
0
  6
Continuous
 62
     7
370
    25
100
AcDbCircle
 10
-204.9559109389
 20
89.5
 30
0.0
 40
39.99999999999999
100
AcDbArc
 50
90.0
 51
130.6247566679
  0
ARC
  5
2EE
330
27B
100
AcDbEntity
  8
0
  6
Continuous
 62
     7
370
    25
100
AcDbCircle
 10
-204.0
 20
89.5
 30
0.0
 40
39.99999999999999
100
AcDbArc
 50
132.4076033788
 51
180.0
  0
ARC
  5
2EF
330
27B
100
AcDbEntity
  8
0
  6
Continuous
 62
     7
370
    25
100
AcDbCircle
 10
204.0
 20
89.5
 30
0.0
 40
40.00000000000001
100
AcDbArc
 50
0.0
 51
47.5923966212
  0
ARC
  5
2F0
330
27B
100
AcDbEntity
  8
0
  6
Continuous
 62
     7
370
    25
100
AcDbCircle
 10
-224.0
 20
109.5
 30
0.0
 40
1.0
100
AcDbArc
 50
90.0
 51
180.0
  0
ARC
  5
2F1
330
27B
100
AcDbEntity
  8
0
  6
Continuous
 62
     7
370
    25
100
AcDbCircle
 10
224.0
 20
109.5
 30
0.0
 40
1.0
100
AcDbArc
 50
0.0
 51
90.0
  0
ARC
  5
2F2
330
27B
100
AcDbEntity
  8
0
  6
Continuous
 62
     7
370
    25
100
AcDbCircle
 10
205.0
 20
97.5
 30
0.0
 40
38.55604137772053
100
AcDbArc
 50
0.0
 51
90.0
  0
ARC
  5
2F3
330
27B
100
AcDbEntity
  8
0
  6
Continuous
 62
     7
370
    25
100
AcDbCircle
 10
205.0
 20
97.5
 30
0.0
 40
42.10660089445943
100
AcDbArc
 50
0.0
 51
90.0
  0
ARC
  5
2F4
330
27B
100
AcDbEntity
  8
0
  6
Continuous
 62
     7
370
    25
100
AcDbCircle
 10
205.0
 20
97.5
 30
0.0
 40
35.00000000000004
100
AcDbArc
 50
26.1937594207
 51
90.0
  0
ARC
  5
2F5
330
27B
100
AcDbEntity
  8
0
  6
Continuous
 62
     7
370
    25
100
AcDbCircle
 10
-205.0
 20
97.5
 30
0.0
 40
38.55604137772053
100
AcDbArc
 50
90.0
 51
180.0
  0
ARC
  5
2F6
330
27B
100
AcDbEntity
  8
0
  6
Continuous
 62
     7
370
    25
100
AcDbCircle
 10
-205.0
 20
97.5
 30
0.0
 40
42.1066008944595
100
AcDbArc
 50
90.0
 51
180.0
  0
ARC
  5
2F7
330
27B
100
AcDbEntity
  8
0
  6
Continuous
 62
     7
370
    25
100
AcDbCircle
 10
-205.0
 20
97.5
 30
0.0
 40
34.99999999999994
100
AcDbArc
 50
90.0
 51
153.8062405792
  0
ARC
  5
2F8
330
27B
100
AcDbEntity
  8
0
  6
Continuous
 62
     7
370
    25
100
AcDbCircle
 10
-205.0
 20
97.5
 30
0.0
 40
44.7242470473681
100
AcDbArc
 50
90.0
 51
180.0
  0
ARC
  5
2F9
330
27B
100
AcDbEntity
  8
0
  6
Continuous
 62
     7
370
    25
100
AcDbCircle
 10
205.0
 20
97.5
 30
0.0
 40
44.72424704736815
100
AcDbArc
 50
0.0
 51
90.0
  0
ARC
  5
2FA
330
27B
100
AcDbEntity
  8
0
  6
Continuous
 62
     7
370
    25
100
AcDbCircle
 10
204.9559109389
 20
89.5
 30
0.0
 40
39.99999999999979
100
AcDbArc
 50
49.3752433321
 51
90.0
  0
VIEWPORT
  5
54F
330
27B
100
AcDbEntity
  8
0
100
AcDbViewport
 10
0.0
 20
0.0
 30
0.0
 40
205.6
 41
156.0
 68
     1
 69
     1
 12
0.0
 22
29.5
 13
0.0
 23
0.0
 14
10.0
 24
10.0
 15
10.0
 25
10.0
 16
0.0
 26
0.0
 36
1.0
 17
0.0
 27
0.0
 37
0.0
 42
50.0
 43
0.0
 44
0.0
 45
610.98
 50
0.0
 51
0.0
 72
   100
 90
   557152
  1

281
     0
 71
     1
 74
     0
110
0.0
120
0.0
130
0.0
111
1.0
121
0.0
131
0.0
112
0.0
122
1.0
132
0.0
 79
     0
146
0.0
  0
ENDBLK
  5
27E
330
27B
100
AcDbEntity
  8
0
100
AcDbBlockEnd
  0
BLOCK
  5
2FD
330
2FB
100
AcDbEntity
  8
0
100
AcDbBlockBegin
  2
*Paper_Space4
 70
     0
 10
0.0
 20
0.0
 30
0.0
  3
*Paper_Space4
  1

  0
SPLINE
  5
300
330
2FB
100
AcDbEntity
  8
0
  6
Continuous
 62
     7
370
    25
100
AcDbSpline
210
0.0
220
0.0
230
1.0
 70
     8
 71
     3
 72
    21
 73
    17
 74
     0
 42
0.000000001
 43
0.00000001
 40
0.0
 40
0.0
 40
0.0
 40
0.0
 40
0.0581347456826874
 40
0.1413122153725012
 40
0.2225562777833519
 40
0.3024258819006639
 40
0.3805920292722411
 40
0.4575148932704485
 40
0.5350759441670273
 40
0.6128501038054803
 40
0.690235777890012
 40
0.7668582827072142
 40
0.8424643784727467
 40
0.916964965065639
 40
0.9905564872184148
 40
1.0
 40
1.0
 40
1.0
 40
1.0
 10
87.83286229157822
 20
142.6507926954114
 30
0.0
 10
87.58045610193943
 20
142.3105002320543
 30
0.0
 10
86.96691462321228
 20
141.4833274061162
 30
0.0
 10
85.67866138363736
 20
140.1848300556914
 30
0.0
 10
84.00970032955851
 20
138.7941884916061
 30
0.0
 10
82.10632974811406
 20
137.4968031985109
 30
0.0
 10
79.984306303547
 20
136.3081319134601
 30
0.0
 10
77.66087845438926
 20
135.2323470383812
 30
0.0
 10
75.14738145474674
 20
134.2771625347293
 30
0.0
 10
72.45897808351448
 20
133.4551009063989
 30
0.0
 10
69.63839263434349
 20
132.7844368144747
 30
0.0
 10
66.73071569434865
 20
132.2806279775831
 30
0.0
 10
63.77673588719834
 20
131.9451165481944
 30
0.0
 10
60.81619932827381
 20
131.806204291144
 30
0.0
 10
58.71446941549421
 20
131.785796018937
 30
0.0
 10
57.6196722820286
 20
131.8574711629416
 30
0.0
 10
57.4951618180865
 20
131.8656227237744
 30
0.0
  0
SPLINE
  5
301
330
2FB
100
AcDbEntity
  8
0
  6
Continuous
 62
     7
370
    25
100
AcDbSpline
210
0.0
220
0.0
230
1.0
 70
     8
 71
     3
 72
    25
 73
    21
 74
     0
 42
0.000000001
 43
0.00000001
 40
0.0
 40
0.0
 40
0.0
 40
0.0
 40
0.0307378251387367
 40
0.0883917199491872
 40
0.1459720606178499
 40
0.2034667247606051
 40
0.2608636940704881
 40
0.3181684347041206
 40
0.3753963785500198
 40
0.4325683378273079
 40
0.4897079120140759
 40
0.5468401271423105
 40
0.603988006776933
 40
0.661171892841712
 40
0.7184181708596838
 40
0.7757529016316295
 40
0.8332007673867655
 40
0.890782974921605
 40
0.9485133675882895
 40
1.0
 40
1.0
 40
1.0
 40
1.0
 10
47.06482935076606
 20
81.22875333398792
 30
0.0
 10
47.54828175739177
 20
80.95760747416722
 30
0.0
 10
48.9385294259351
 20
80.17788253271553
 30
0.0
 10
51.39357851860231
 20
79.01108084701303
 30
0.0
 10
54.47048552313735
 20
77.78708766049638
 30
0.0
 10
57.70654328010698
 20
76.7372997990975
 30
0.0
 10
61.07357711939775
 20
75.86438876623642
 30
0.0
 10
64.5476010419134
 20
75.17341030386089
 30
0.0
 10
68.1031001994976
 20
74.66755935059051
 30
0.0
 10
71.71464556751819
 20
74.34934101231532
 30
0.0
 10
75.35650376147487
 20
74.22027578563525
 30
0.0
 10
79.00279567986453
 20
74.2809738584718
 30
0.0
 10
82.6275509961189
 20
74.53108597432619
 30
0.0
 10
86.2049691372268
 20
74.96933882777452
 30
0.0
 10
89.70979516343016
 20
75.59348622449967
 30
0.0
 10
93.11694458948797
 20
76.40082264152751
 30
0.0
 10
96.40359641032634
 20
77.38673946325258
 30
0.0
 10
99.5412429815326
 20
78.55050231401106
 30
0.0
 10
102.4153231464884
 20
79.82512975893593
 30
0.0
 10
104.1468564353451
 20
80.77905696626479
 30
0.0
 10
104.9631286043408
 20
81.22875333398787
 30
0.0
  0
SPLINE
  5
302
330
2FB
100
AcDbEntity
  8
0
  6
Continuous
 62
     7
370
    25
100
AcDbSpline
210
0.0
220
0.0
230
1.0
 70
     8
 71
     3
 72
    20
 73
    16
 74
     0
 42
0.000000001
 43
0.00000001
 40
0.0
 40
0.0
 40
0.0
 40
0.0
 40
0.0123231804641353
 40
0.0288267185697944
 40
0.048809041099561
 40
0.0751237011345468
 40
0.5918458863368167
 40
0.8502069789379522
 40
0.9147972520882356
 40
0.9632399569509484
 40
0.9698035250983692
 40
0.9760577988815232
 40
0.9822198686672571
 40
0.9997210466064707
 40
1.0
 40
1.0
 40
1.0
 40
1.0
 10
142.0806862000217
 20
259.2356714589397
 30
0.0
 10
141.9022474974912
 20
258.8100850729854
 30
0.0
 10
141.4848388362469
 20
257.8145418355278
 30
0.0
 10
140.5555383270329
 20
255.9482976772206
 30
0.0
 10
139.3562445191137
 20
253.3931044854214
 30
0.0
 10
129.3088683608333
 20
231.5889180361033
 30
0.0
 10
114.6416640999035
 20
199.9626148070693
 30
0.0
 10
99.52802635596305
 20
167.2781915202062
 30
0.0
 10
92.7638396575209
 20
152.646804360805
 30
0.0
 10
90.65390748455471
 20
148.0946389198108
 30
0.0
 10
89.49669280911223
 20
145.5839734613909
 30
0.0
 10
89.22160556727803
 20
145.0014497053762
 30
0.0
 10
88.69678296492056
 20
144.0572299166866
 30
0.0
 10
88.2537862063716
 20
143.2965706422497
 30
0.0
 10
87.77411043358312
 20
142.7364702530069
 30
0.0
 10
87.7665847757514
 20
142.7276828092376
 30
0.0
  0
SPLINE
  5
305
330
2FB
100
AcDbEntity
  8
0
  6
Continuous
 62
     7
370
    25
100
AcDbSpline
210
0.0
220
0.0
230
1.0
 70
     8
 71
     3
 72
    32
 73
    28
 74
     0
 42
0.000000001
 43
0.00000001
 40
0.0
 40
0.0
 40
0.0
 40
0.0
 40
0.0234698222702374
 40
0.0661263456492309
 40
0.1065769664460112
 40
0.1495924494423999
 40
0.1912344605758937
 40
0.2323124844444265
 40
0.2732750920535812
 40
0.3142665125676102
 40
0.3553810907260638
 40
0.3966344445545672
 40
0.4380062999530863
 40
0.4794611961766246
 40
0.5209578312150583
 40
0.562451570699319
 40
0.6038848785584608
 40
0.6452135112147639
 40
0.686395151684283
 40
0.7273947793180917
 40
0.7681972417024248
 40
0.8088334389582462
 40
0.84941783249585
 40
0.8901501990103331
 40
0.93153347895793
 40
0.9744461268516033
 40
1.0
 40
1.0
 40
1.0
 40
1.0
 10
188.9366244832106
 20
218.9739404910502
 30
0.0
 10
188.9403292607785
 20
218.7785817265167
 30
0.0
 10
188.9507674907397
 20
218.2281573969072
 30
0.0
 10
188.6798652167755
 20
217.3272733201528
 30
0.0
 10
188.137278448546
 20
216.23268429379
 30
0.0
 10
187.2943541455125
 20
215.1371888342851
 30
0.0
 10
186.1512615712179
 20
214.0641715273318
 30
0.0
 10
184.7533290735478
 20
213.0716950805112
 30
0.0
 10
183.1196787783024
 20
212.1770827049581
 30
0.0
 10
181.2740633217133
 20
211.3992621074081
 30
0.0
 10
179.2473307436732
 20
210.7563414275634
 30
0.0
 10
177.0746361128982
 20
210.2636662045888
 30
0.0
 10
174.7955075229696
 20
209.9333383226133
 30
0.0
 10
172.4523783213745
 20
209.7736122141599
 30
0.0
 10
170.0894031997347
 20
209.7886360818041
 30
0.0
 10
167.7516359493528
 20
209.9783144761536
 30
0.0
 10
165.4837982750543
 20
210.3381848072369
 30
0.0
 10
163.3292603164419
 20
210.8593803013784
 30
0.0
 10
161.3288467672697
 20
211.5286877960279
 30
0.0
 10
159.5198980491843
 20
212.3285218367942
 30
0.0
 10
157.9349633561398
 20
213.2370915367476
 30
0.0
 10
156.5996914131016
 20
214.2289301808329
 30
0.0
 10
155.5331696108729
 20
215.2757522288128
 30
0.0
 10
154.7385076106677
 20
216.350127433996
 30
0.0
 10
154.2262682520426
 20
217.4333384376899
 30
0.0
 10
153.9739434056593
 20
218.3585947071622
 30
0.0
 10
154.0001080821935
 20
218.9286655874402
 30
0.0
 10
154.0098735677908
 20
219.1414340871172
 30
0.0
  0
SPLINE
  5
306
330
2FB
100
AcDbEntity
  8
0
  6
Continuous
 62
     7
370
    25
100
AcDbSpline
210
0.0
220
0.0
230
1.0
 70
     8
 71
     3
 72
    11
 73
     7
 74
     0
 42
0.000000001
 43
0.00000001
 40
0.0
 40
0.0
 40
0.0
 40
0.0
 40
0.5118090921285996
 40
0.823135640662651
 40
0.990902700268261
 40
1.0
 40
1.0
 40
1.0
 40
1.0
 10
142.7652903349747
 20
261.6737248767203
 30
0.0
 10
142.7130781549158
 20
261.2978816904443
 30
0.0
 10
142.6291060118959
 20
260.6934181772283
 30
0.0
 10
142.3361210162527
 20
259.8703228398277
 30
0.0
 10
142.2092663889104
 20
259.5525906198509
 30
0.0
 10
142.1241718735865
 20
259.3684269198392
 30
0.0
 10
142.1197949017967
 20
259.3589541669059
 30
0.0
  0
SPLINE
  5
307
330
2FB
100
AcDbEntity
  8
0
  6
Continuous
 62
     7
370
    25
100
AcDbSpline
210
0.0
220
0.0
230
1.0
 70
     8
 71
     3
 72
    18
 73
    14
 74
     0
 42
0.000000001
 43
0.00000001
 40
0.0
 40
0.0
 40
0.0
 40
0.0
 40
0.0553498573646638
 40
0.15927806381932
 40
0.26325642346047
 40
0.3668127142719561
 40
0.469479325260905
 40
0.5707494996647212
 40
0.6702186522662731
 40
0.767730054619734
 40
0.8634452238324641
 40
0.9578125251511423
 40
1.0
 40
1.0
 40
1.0
 40
1.0
 10
-244.4937279315864
 20
328.989799283476
 30
0.0
 10
-244.9857225549553
 20
328.6976379645791
 30
0.0
 10
-246.4015157430648
 20
327.856897059138
 30
0.0
 10
-248.5699721742845
 20
326.3445663172576
 30
0.0
 10
-250.9025177003377
 20
324.4108287954338
 30
0.0
 10
-252.9620509369103
 20
322.335812693754
 30
0.0
 10
-254.7279404053066
 20
320.1406511335873
 30
0.0
 10
-256.1800774752747
 20
317.8469856363284
 30
0.0
 10
-257.3033064218421
 20
315.4812361890234
 30
0.0
 10
-258.0979490700125
 20
313.0702890039826
 30
0.0
 10
-258.540984681159
 20
310.6412374696932
 30
0.0
 10
-258.6914330660492
 20
308.651976082466
 30
0.0
 10
-258.5792386677692
 20
307.4886731125598
 30
0.0
 10
-258.5445771312893
 20
307.1292802288987
 30
0.0
  0
SPLINE
  5
309
330
2FB
100
AcDbEntity
  8
0
  6
Continuous
 62
     7
370
    25
100
AcDbSpline
210
0.0
220
0.0
230
1.0
 70
     8
 71
     3
 72
    16
 73
    12
 74
     0
 42
0.000000001
 43
0.00000001
 40
0.0
 40
0.0
 40
0.0
 40
0.0
 40
0.0885511309302804
 40
0.1979572992416315
 40
0.308194255935341
 40
0.4198974169545008
 40
0.5334208284995591
 40
0.6487921860217
 40
0.7657516265913513
 40
0.8838682051688782
 40
0.9999999999999999
 40
0.9999999999999999
 40
0.9999999999999999
 40
0.9999999999999999
 10
-255.9327162612488
 20
266.2604975746432
 30
0.0
 10
-255.8722562562537
 20
265.6424533415212
 30
0.0
 10
-255.7370970643244
 20
264.2608067615687
 30
0.0
 10
-255.1545206610133
 20
262.1531846187296
 30
0.0
 10
-254.2640806355427
 20
259.9532898914291
 30
0.0
 10
-253.0649255429407
 20
257.8160023164157
 30
0.0
 10
-251.5720321280305
 20
255.7519726679429
 30
0.0
 10
-249.7889150392974
 20
253.7744075897991
 30
0.0
 10
-247.7215891664652
 20
251.903042605322
 30
0.0
 10
-245.4218846576892
 20
250.1544957435524
 30
0.0
 10
-243.7017372466988
 20
249.1101598710415
 30
0.0
 10
-242.848950935718
 20
248.5924162576435
 30
0.0
  0
LWPOLYLINE
  5
30D
330
2FB
100
AcDbEntity
  8
0
  6
Continuous
 62
     7
370
    25
100
AcDbPolyline
 90
        9
 70
   128
 43
0.0
 10
-248.0952037182
 20
223.3738582883
 10
-247.6685590001
 20
221.3428191612
 10
-246.9321768284
 20
219.341552489
 10
-245.8918378344
 20
217.3857682998
 10
-244.5557087233
 20
215.4908195823
 10
-242.9342781651
 20
213.6715817642
 10
-241.0402744584
 20
211.9423359394
 10
-238.8885656124
 20
210.3166567608
 10
-236.4960426328
 20
208.8073058788
  0
LWPOLYLINE
  5
313
330
2FB
100
AcDbEntity
  8
0
  6
Continuous
 62
     7
370
    25
100
AcDbPolyline
 90
        9
 70
   128
 43
0.0
 10
-236.4960426328
 20
-189.6646103214
 10
-238.8885656124
 20
-188.1552594394
 10
-241.0402744584
 20
-186.5295802609
 10
-242.9342781651
 20
-184.800334436
 10
-244.5557087233
 20
-182.9810966179
 10
-245.8918378344
 20
-181.0861479005
 10
-246.9321768284
 20
-179.1303637113
 10
-247.6685590001
 20
-177.1290970391
 10
-248.0952037182
 20
-175.098057912
  0
LWPOLYLINE
  5
31E
330
2FB
100
AcDbEntity
  8
0
  6
Continuous
 62
     7
370
    25
100
AcDbPolyline
 90
        9
 70
   128
 43
0.0
 10
-235.8201115257
 20
210.0501807803
 10
-238.3122463111
 20
211.6285252539
 10
-240.541129925
 20
213.3330347776
 10
-242.4876972361
 20
215.149129542
 10
-244.1352979531
 20
217.0612752747
 10
-245.4698390459
 20
219.0531161153
 10
-246.4799052925
 20
221.1076145177
 10
-247.1568569211
 20
223.2071969839
 10
-247.494903512
 20
225.3339043816
  0
LWPOLYLINE
  5
31F
330
2FB
100
AcDbEntity
  8
0
  6
Continuous
 62
     7
370
    25
100
AcDbPolyline
 90
       18
 70
   128
 43
0.0
 10
107.6387973482
 20
122.6072048745
 10
104.585921339
 20
121.0005761044
 10
101.2892795917
 20
119.563413561
 10
97.7769978913
 20
118.3079786085
 10
94.0790417871
 20
117.2449821752
 10
90.2269609365
 20
116.3834933719
 10
86.2536199352
 20
115.7308621173
 10
82.1929179276
 20
115.292656431
 10
78.0794993915
 20
115.0726149297
 10
73.9484585636
 20
115.0726149297
 10
69.8350400275
 20
115.292656431
 10
65.77433802
 20
115.7308621173
 10
61.8009970186
 20
116.3834933719
 10
57.948916168
 20
117.2449821752
 10
54.2509600638
 20
118.3079786085
 10
50.7386783635
 20
119.563413561
 10
47.4420366162
 20
121.0005761044
 10
44.3891606069
 20
122.6072048745
  0
LWPOLYLINE
  5
321
330
2FB
100
AcDbEntity
  8
0
  6
Continuous
 62
     7
370
    25
100
AcDbPolyline
 90
       17
 70
   128
 43
0.0
 10
47.9198491865
 20
128.9418042871
 10
50.8088363625
 20
127.4302195085
 10
53.9405628404
 20
126.0893841361
 10
57.2848683823
 20
124.9322111476
 10
60.8095454976
 20
123.9698447514
 10
64.4806496189
 20
123.2115530619
 10
68.2628260067
 20
122.6646388427
 10
72.1196502348
 20
122.3343691766
 10
76.0139789776
 20
122.2239247412
 10
79.9083077203
 20
122.3343691766
 10
83.7651319484
 20
122.6646388427
 10
87.5473083362
 20
123.2115530619
 10
91.2184124575
 20
123.9698447514
 10
94.7430895728
 20
124.9322111476
 10
98.0873951147
 20
126.0893841361
 10
101.2191215926
 20
127.4302195085
 10
104.1081087686
 20
128.9418042871
  0
LWPOLYLINE
  5
324
330
2FB
100
AcDbEntity
  8
0
  6
Continuous
 62
     7
370
    25
100
AcDbPolyline
 90
       18
 70
   128
 43
0.0
 10
46.2401159524
 20
82.8914325009
 10
49.1143114993
 20
81.3788374127
 10
52.2180055245
 20
80.0257899356
 10
55.5247184051
 20
78.8438337936
 10
59.0062384325
 20
77.8430530198
 10
62.6328625055
 20
77.0319859228
 10
66.3736495462
 20
76.4175522412
 10
70.1966844786
 20
76.0049941065
 10
74.0693505164
 20
75.7978313192
 10
77.9586074387
 20
75.7978313192
 10
81.8312734765
 20
76.0049941065
 10
85.6543084089
 20
76.4175522412
 10
89.3950954496
 20
77.0319859228
 10
93.0217195226
 20
77.8430530198
 10
96.50323955
 20
78.8438337936
 10
99.8099524306
 20
80.0257899356
 10
102.9136464558
 20
81.3788374127
 10
105.7878420027
 20
82.8914325009
  0
LWPOLYLINE
  5
328
330
2FB
100
AcDbEntity
  8
0
  6
Continuous
 62
     7
370
    25
100
AcDbPolyline
 90
       17
 70
   128
 43
0.0
 10
-241.9939311
 20
328.742259031
 10
-244.6123564483
 20
327.0744822339
 10
-246.9350031014
 20
325.2665750206
 10
-248.9395027024
 20
323.3359485258
 10
-250.6065508244
 20
321.3011957381
 10
-251.9200928825
 20
319.1819124391
 10
-252.8674787488
 20
316.9985084854
 10
-253.4395845794
 20
314.7720112509
 10
-253.6309006825
 20
312.5238631209
 10
-253.4395845794
 20
310.2757149909
 10
-252.8674787488
 20
308.0492177563
 10
-251.9200928825
 20
305.8658138027
 10
-250.6065508244
 20
303.7465305037
 10
-248.9395027024
 20
301.711777716
 10
-246.9350031014
 20
299.7811512212
 10
-244.6123564483
 20
297.9732440079
 10
-241.9939311
 20
296.3054672108
  0
SPLINE
  5
32B
330
2FB
100
AcDbEntity
  8
0
  6
Continuous
 62
     7
370
    25
100
AcDbSpline
210
0.0
220
0.0
230
1.0
 70
     8
 71
     3
 72
    46
 73
    42
 74
     0
 42
0.000000001
 43
0.00000001
 40
0.0
 40
0.0
 40
0.0
 40
0.0
 40
0.0624999999999994
 40
0.0624999999999994
 40
0.0937499999999997
 40
0.0937499999999997
 40
0.125
 40
0.125
 40
0.1875000000000006
 40
0.1875000000000006
 40
0.2500000000000013
 40
0.2500000000000013
 40
0.2812500000000018
 40
0.2812500000000018
 40
0.3125000000000023
 40
0.3125000000000023
 40
0.3750000000000016
 40
0.3750000000000016
 40
0.4062500000000008
 40
0.4062500000000008
 40
0.4375000000000006
 40
0.4375000000000006
 40
0.4999999999999999
 40
0.4999999999999999
 40
0.5624999999999993
 40
0.5624999999999993
 40
0.5937499999999992
 40
0.5937499999999992
 40
0.6249999999999991
 40
0.6249999999999991
 40
0.6874999999999997
 40
0.6874999999999997
 40
0.7500000000000001
 40
0.7500000000000001
 40
0.7812500000000001
 40
0.7812500000000001
 40
0.8125
 40
0.8125
 40
0.875
 40
0.875
 40
1.0
 40
1.0
 40
1.0
 40
1.0
 10
-229.3445622773938
 20
289.7582395708666
 30
0.0
 10
-230.326760410137
 20
290.3432402889418
 30
0.0
 10
-231.2378803553088
 20
290.9608000731085
 30
0.0
 10
-232.4989097616192
 20
291.9355354963844
 30
0.0
 10
-232.9018827140603
 20
292.268404132468
 30
0.0
 10
-233.672453698629
 20
292.9503457340905
 30
0.0
 10
-234.0376500962178
 20
293.2975424164342
 30
0.0
 10
-235.0695100256739
 20
294.3529813905404
 30
0.0
 10
-235.6744909397635
 20
295.0769665553088
 30
0.0
 10
-236.7234871478816
 20
296.5644557329269
 30
0.0
 10
-237.1668500217231
 20
297.3281199221812
 30
0.0
 10
-237.7069523591719
 20
298.5042908486385
 30
0.0
 10
-237.8660784139119
 20
298.9021807256127
 30
0.0
 10
-238.1376711934126
 20
299.6967679757848
 30
0.0
 10
-238.2509168954416
 20
300.0948260981101
 30
0.0
 10
-238.5246119746858
 20
301.2912393745081
 30
0.0
 10
-238.6189684767502
 20
302.091835161825
 30
0.0
 10
-238.629241770429
 20
303.2971787746424
 30
0.0
 10
-238.6108104920657
 20
303.6997009155041
 30
0.0
 10
-238.5297291934884
 20
304.5062442692953
 30
0.0
 10
-238.4668849353601
 20
304.9111329305465
 30
0.0
 10
-238.2110506559218
 20
306.1223799256004
 30
0.0
 10
-237.9536107547517
 20
306.9147549256256
 30
0.0
 10
-237.2763575120405
 20
308.4712421723793
 30
0.0
 10
-236.8550879875313
 20
309.2351009556108
 30
0.0
 10
-236.1008645673307
 20
310.3595982377846
 30
0.0
 10
-235.8292297373391
 20
310.7309099454879
 30
0.0
 10
-235.2448867184999
 20
311.4663841238904
 30
0.0
 10
-234.9308442589327
 20
311.8318610516485
 30
0.0
 10
-233.9362716765968
 20
312.9044305383847
 30
0.0
 10
-233.2044487261609
 20
313.5891495370395
 30
0.0
 10
-231.6126275669992
 20
314.9020664501386
 30
0.0
 10
-230.7516560149302
 20
315.529835152098
 30
0.0
 10
-229.3644342034741
 20
316.429259209363
 30
0.0
 10
-228.8860892847193
 20
316.7220392483879
 30
0.0
 10
-227.8972963899204
 20
317.2934429312895
 30
0.0
 10
-227.3853404118111
 20
317.5728042033976
 30
0.0
 10
-225.8109602317027
 20
318.3837599724209
 30
0.0
 10
-224.7177019692046
 20
318.8848784193828
 30
0.0
 10
-221.314928528641
 20
320.2769311131711
 30
0.0
 10
-218.8835689477853
 20
321.0576072049198
 30
0.0
 10
-216.2885450367779
 20
321.6901818928995
 30
0.0
  0
SPLINE
  5
32C
330
2FB
100
AcDbEntity
  8
0
  6
Continuous
 62
     7
370
    25
100
AcDbSpline
210
0.0
220
0.0
230
1.0
 70
     8
 71
     3
 72
    25
 73
    21
 74
     0
 42
0.000000001
 43
0.00000001
 40
0.0
 40
0.0
 40
0.0
 40
0.0
 40
0.00390625
 40
0.00390625
 40
0.0078124999999999
 40
0.0156250000000001
 40
0.0312500000000001
 40
0.0625000000000002
 40
0.1250000000000003
 40
0.2500000000000003
 40
0.5000000000000004
 40
0.7500000000000003
 40
0.8750000000000002
 40
0.9375000000000003
 40
0.9687500000000004
 40
0.9843750000000004
 40
0.9921875000000004
 40
0.9960937500000002
 40
0.9960937500000002
 40
1.0
 40
1.0
 40
1.0
 40
1.0
 10
36.57848940417069
 20
136.2441294747863
 30
0.0
 10
36.22682850001321
 20
136.440896092376
 30
0.0
 10
35.88311608947997
 20
136.6422515606269
 30
0.0
 10
35.19060814154444
 20
137.0420278894917
 30
0.0
 10
34.15184621964126
 20
137.6416923827888
 30
0.0
 10
31.72806840186705
 20
139.0409095338157
 30
0.0
 10
26.88051276631852
 20
141.839343835869
 30
0.0
 10
17.18540149522188
 20
147.4362124399757
 30
0.0
 10
-2.204821046972269
 20
158.6299496481889
 30
0.0
 10
-40.98526613136204
 20
181.0174240646139
 30
0.0
 10
-96.38590196620332
 20
212.9995303737938
 30
0.0
 10
-151.7865378010441
 20
244.9816366829734
 30
0.0
 10
-190.566982885433
 20
267.3691110993996
 30
0.0
 10
-209.9572054276271
 20
278.5628483076123
 30
0.0
 10
-219.6523166987246
 20
284.1597169117189
 30
0.0
 10
-224.499872334273
 20
286.9581512137723
 30
0.0
 10
-226.9236501520472
 20
288.3573683647983
 30
0.0
 10
-227.9624120739508
 20
288.9570328580959
 30
0.0
 10
-228.6549200218863
 20
289.3568091869607
 30
0.0
 10
-229.0037158437485
 20
289.555230216859
 30
0.0
 10
-229.3445622773939
 20
289.7582395708666
 30
0.0
  0
SPLINE
  5
32D
330
2FB
100
AcDbEntity
  8
0
  6
Continuous
 62
     7
370
    25
100
AcDbSpline
210
0.0
220
0.0
230
1.0
 70
     8
 71
     3
 72
    46
 73
    42
 74
     0
 42
0.000000001
 43
0.00000001
 40
0.0
 40
0.0
 40
0.0
 40
0.0
 40
0.1249999999999964
 40
0.1249999999999964
 40
0.1562499999999959
 40
0.1562499999999959
 40
0.1874999999999953
 40
0.1874999999999953
 40
0.2499999999999948
 40
0.2499999999999948
 40
0.3124999999999943
 40
0.3124999999999943
 40
0.3437499999999941
 40
0.3437499999999941
 40
0.3749999999999937
 40
0.3749999999999937
 40
0.4374999999999934
 40
0.4374999999999934
 40
0.4999999999999932
 40
0.4999999999999932
 40
0.5312499999999931
 40
0.5312499999999931
 40
0.562499999999993
 40
0.562499999999993
 40
0.6249999999999932
 40
0.6249999999999932
 40
0.6562499999999938
 40
0.6562499999999938
 40
0.6874999999999943
 40
0.6874999999999943
 40
0.7499999999999953
 40
0.7499999999999953
 40
0.8124999999999964
 40
0.8124999999999964
 40
0.8437499999999968
 40
0.8437499999999968
 40
0.8749999999999971
 40
0.8749999999999971
 40
0.9374999999999986
 40
0.9374999999999986
 40
1.0
 40
1.0
 40
1.0
 40
1.0
 10
91.8922292507563
 20
143.7812077961088
 30
0.0
 10
90.79688534545014
 20
142.2837152242675
 30
0.0
 10
89.44202548990151
 20
140.8762657490418
 30
0.0
 10
87.41992666476108
 20
139.2309404201283
 30
0.0
 10
86.99891910780754
 20
138.9076307468348
 30
0.0
 10
86.12266079551905
 20
138.2728926106999
 30
0.0
 10
85.66835610407071
 20
137.9622608651823
 30
0.0
 10
84.26875154406164
 20
137.0586857075349
 30
0.0
 10
83.28249843820414
 20
136.4907782226242
 30
0.0
 10
81.20394697247244
 20
135.4237067198383
 30
0.0
 10
80.11138534393476
 20
134.9247133649587
 30
0.0
 10
78.38891222721185
 20
134.2304366260925
 30
0.0
 10
77.79899977508808
 20
134.0073287794935
 30
0.0
 10
76.60077653600501
 20
133.5832445810123
 30
0.0
 10
75.99332822719064
 20
133.3824673299368
 30
0.0
 10
74.14582682287936
 20
132.8141279559679
 30
0.0
 10
72.88062905211648
 20
132.4805422642155
 30
0.0
 10
70.2846124059145
 20
131.9020405859571
 30
0.0
 10
68.95326540335094
 20
131.6578382246889
 30
0.0
 10
66.90345805143897
 20
131.3628622576896
 30
0.0
 10
66.21623626382137
 20
131.2770489889022
 30
0.0
 10
64.84077169827287
 20
131.130875657823
 30
0.0
 10
64.15144390406115
 20
131.0703885219791
 30
0.0
 10
62.07865073296499
 20
130.9269093382864
 30
0.0
 10
60.69044085068074
 20
130.8813839831067
 30
0.0
 10
58.59854470951241
 20
130.8887582706427
 30
0.0
 10
57.89963695839268
 20
130.9039227087901
 30
0.0
 10
56.49851903776172
 20
130.9603303192189
 30
0.0
 10
55.7955883797215
 20
131.00173121897
 30
0.0
 10
53.7118239380171
 20
131.1633512055185
 30
0.0
 10
52.34592000739342
 20
131.3209743939969
 30
0.0
 10
49.65995160524697
 20
131.7344623250975
 30
0.0
 10
48.33976563285095
 20
131.9900666712221
 30
0.0
 10
46.3946369766517
 20
132.4488061110739
 30
0.0
 10
45.74979225756179
 20
132.6148691117584
 30
0.0
 10
44.48529100484198
 20
132.96911110918
 30
0.0
 10
43.86597670360662
 20
133.1571228634094
 30
0.0
 10
42.04588676185632
 20
133.7530255498266
 30
0.0
 10
40.88292101363108
 20
134.1927476465162
 30
0.0
 10
38.65498743847887
 20
135.1546937399187
 30
0.0
 10
37.59089379382531
 20
135.6776536879408
 30
0.0
 10
36.57848940417073
 20
136.2441294747863
 30
0.0
  0
SPLINE
  5
32E
330
2FB
100
AcDbEntity
  8
0
  6
Continuous
 62
     7
370
    25
100
AcDbSpline
210
0.0
220
0.0
230
1.0
 70
     8
 71
     3
 72
    19
 73
    15
 74
     0
 42
0.000000001
 43
0.00000001
 40
0.0
 40
0.0
 40
0.0
 40
0.0
 40
0.4999999999999998
 40
0.7499999999999997
 40
0.8749999999999996
 40
0.9374999999999997
 40
0.9687499999999998
 40
0.9726562499999998
 40
0.9726562499999998
 40
0.9765624999999998
 40
0.9765624999999998
 40
0.9843749999999998
 40
0.9843749999999998
 40
1.0
 40
1.0
 40
1.0
 40
1.0
 10
146.6723656923295
 20
261.3726977113758
 30
0.0
 10
137.602969379029
 20
241.7646711972347
 30
0.0
 10
123.9988748554885
 20
212.3526314342836
 30
0.0
 10
108.1274312848836
 20
178.0385850379785
 30
0.0
 10
100.1917094951156
 20
160.8815618405144
 30
0.0
 10
96.2238486002314
 20
152.3030502417822
 30
0.0
 10
94.45248212930098
 20
148.4733575637769
 30
0.0
 10
93.81479019976591
 20
147.0946681996953
 30
0.0
 10
93.67308088209145
 20
146.7882927854548
 30
0.0
 10
93.60263190578874
 20
146.6350418779195
 30
0.0
 10
93.38030779331078
 20
146.1769992673042
 30
0.0
 10
93.22093206079519
 20
145.8733760661145
 30
0.0
 10
92.70925951360208
 20
144.9677324209562
 30
0.0
 10
92.32357101754444
 20
144.3709139957415
 30
0.0
 10
91.89222925075664
 20
143.7812077961088
 30
0.0
  0
SPLINE
  5
32F
330
2FB
100
AcDbEntity
  8
0
  6
Continuous
 62
     7
370
    25
100
AcDbSpline
210
0.0
220
0.0
230
1.0
 70
     8
 71
     3
 72
    26
 73
    22
 74
     0
 42
0.000000001
 43
0.00000001
 40
0.0
 40
0.0
 40
0.0
 40
0.0
 40
0.1249999999999997
 40
0.1249999999999997
 40
0.2499999999999994
 40
0.2499999999999994
 40
0.3124999999999991
 40
0.3124999999999991
 40
0.3749999999999988
 40
0.3749999999999988
 40
0.4999999999999992
 40
0.4999999999999992
 40
0.6249999999999996
 40
0.6249999999999996
 40
0.6874999999999997
 40
0.6874999999999997
 40
0.7499999999999997
 40
0.7499999999999997
 40
0.8749999999999999
 40
0.8749999999999999
 40
1.0
 40
1.0
 40
1.0
 40
1.0
 10
137.7182266263336
 20
280.6305383609492
 30
0.0
 10
138.7948706071602
 20
280.0090050198017
 30
0.0
 10
139.7871276863885
 20
279.3541910451736
 30
0.0
 10
141.6108501388134
 20
277.9811498204708
 30
0.0
 10
142.4422568281016
 20
277.2628994265481
 30
0.0
 10
143.5689884316427
 20
276.138048808794
 30
0.0
 10
143.9244307806713
 20
275.7551577895275
 30
0.0
 10
144.5941214656273
 20
274.9731295940003
 30
0.0
 10
144.9094635291625
 20
274.5723848059594
 30
0.0
 10
145.7818293042963
 20
273.3586308255797
 30
0.0
 10
146.2655532347407
 20
272.5353303651654
 30
0.0
 10
147.04422387701
 20
270.8614678331544
 30
0.0
 10
147.3395369823156
 20
270.0109586730092
 30
0.0
 10
147.6386503909837
 20
268.7144204285216
 30
0.0
 10
147.714397429785
 20
268.2775867231921
 30
0.0
 10
147.8154773174189
 20
267.4021412592862
 30
0.0
 10
147.8406449164856
 20
266.9657713386704
 30
0.0
 10
147.8420925418779
 20
265.6606100757502
 30
0.0
 10
147.7450009200498
 20
264.7957307880249
 30
0.0
 10
147.3563521098799
 20
263.0763407940235
 30
0.0
 10
147.0651112385638
 20
262.2218132222484
 30
0.0
 10
146.6723656923294
 20
261.3726977113758
 30
0.0
  0
SPLINE
  5
331
330
2FB
100
AcDbEntity
  8
0
  6
Continuous
 62
     7
370
    25
100
AcDbSpline
210
0.0
220
0.0
230
1.0
 70
     8
 71
     3
 72
    26
 73
    22
 74
     0
 42
0.000000001
 43
0.00000001
 40
0.0
 40
0.0
 40
0.0
 40
0.0
 40
0.1250000000000002
 40
0.1250000000000002
 40
0.2500000000000004
 40
0.2500000000000004
 40
0.3125000000000009
 40
0.3125000000000009
 40
0.3750000000000014
 40
0.3750000000000014
 40
0.5000000000000008
 40
0.5000000000000008
 40
0.6250000000000002
 40
0.6250000000000002
 40
0.6875000000000002
 40
0.6875000000000002
 40
0.7500000000000001
 40
0.7500000000000001
 40
0.8750000000000001
 40
0.8750000000000001
 40
1.0
 40
1.0
 40
1.0
 40
1.0
 10
-12.59203903028348
 20
353.3140815262435
 30
0.0
 10
-11.12117242060887
 20
353.5408080924846
 30
0.0
 10
-9.642660595503408
 20
353.7086756011649
 30
0.0
 10
-6.671137703389577
 20
353.9327837165158
 30
0.0
 10
-5.178101872559876
 20
353.9888336712431
 30
0.0
 10
-2.927620548984628
 20
353.9887792666356
 30
0.0
 10
-2.175626355548646
 20
353.9746434224777
 30
0.0
 10
-0.6678814414306372
 20
353.9174509463321
 30
0.0
 10
0.0908146723285486
 20
353.8741687020137
 30
0.0
 10
2.347443155794119
 20
353.7018744448535
 30
0.0
 10
3.824207280810663
 20
353.5313913314024
 30
0.0
 10
6.724263526485391
 20
353.0828806374621
 30
0.0
 10
8.147445611113053
 20
352.8046317492739
 30
0.0
 10
10.24104359261607
 20
352.3044457540938
 30
0.0
 10
10.93384275567061
 20
352.123375316985
 30
0.0
 10
12.29703139345743
 20
351.735252690791
 30
0.0
 10
12.96399411702039
 20
351.5292725000699
 30
0.0
 10
14.92213178109496
 20
350.8765074234547
 30
0.0
 10
16.17076025623295
 20
350.3950642448265
 30
0.0
 10
18.55491912753631
 20
349.340048346507
 30
0.0
 10
19.69048410960871
 20
348.7665038004484
 30
0.0
 10
20.76713396274572
 20
348.1449670706163
 30
0.0
  0
SPLINE
  5
332
330
2FB
100
AcDbEntity
  8
0
  6
Continuous
 62
     7
370
    25
100
AcDbSpline
210
0.0
220
0.0
230
1.0
 70
     8
 71
     3
 72
    19
 73
    15
 74
     0
 42
0.000000001
 43
0.00000001
 40
0.0
 40
0.0
 40
0.0
 40
0.0
 40
0.0156250000000005
 40
0.0156250000000005
 40
0.0234375000000006
 40
0.0234375000000006
 40
0.0273437500000007
 40
0.0273437500000007
 40
0.0312500000000007
 40
0.0625000000000007
 40
0.1250000000000007
 40
0.2500000000000006
 40
0.5000000000000003
 40
1.0
 40
1.0
 40
1.0
 40
1.0
 10
-216.2885450367781
 20
321.6901818928997
 30
0.0
 10
-215.267379617312
 20
321.9391057636411
 30
0.0
 10
-214.2337941996031
 20
322.161718661732
 30
0.0
 10
-212.6652152646233
 20
322.4570807592604
 30
0.0
 10
-212.1393117124143
 20
322.5490864688374
 30
0.0
 10
-211.3458981317904
 20
322.6774386669516
 30
0.0
 10
-211.0804301104354
 20
322.7181110169646
 30
0.0
 10
-210.5497124872264
 20
322.7999184247435
 30
0.0
 10
-208.1614831827861
 20
323.168051759748
 30
0.0
 10
-201.5275128926742
 20
324.1906443569837
 30
0.0
 10
-186.6674194428233
 20
326.4812517747906
 30
0.0
 10
-156.9472325431211
 20
331.0624666104046
 30
0.0
 10
-97.50685874210143
 20
340.224896278138
 30
0.0
 10
-46.55796691888959
 20
348.0784074353876
 30
0.0
 10
-12.59203903028348
 20
353.3140815262434
 30
0.0
  0
LWPOLYLINE
  5
333
330
2FB
100
AcDbEntity
  8
0
  6
Continuous
 62
     7
370
    25
100
AcDbPolyline
 90
       47
 70
   128
 43
0.0
 10
185.2619766709
 20
228.6379296311
 10
187.0110941103
 20
227.4799062767
 10
188.4707736034
 20
226.1951753567
 10
189.6138240828
 20
224.8076689775
 10
190.418952681
 20
223.3432337574
 10
190.8711613755
 20
221.829149354
 10
190.9620263739
 20
220.2936202948
 10
190.6898550332
 20
218.7652505809
 10
190.0597173906
 20
217.2725108483
 10
189.0833517181
 20
215.8432080138
 10
187.7789458607
 20
214.5039672849
 10
186.1707984316
 20
213.2797361825
 10
184.2888661747
 20
212.1933198156
 10
182.1682059271
 20
211.2649560656
 10
179.8483215768
 20
210.5119385925
 10
177.3724281799
 20
209.9482946873
 10
174.7866469458
 20
209.5845239693
 10
172.1391460864
 20
209.4274027987
 10
169.4792435334
 20
209.4798580458
 10
166.8564882386
 20
209.7409125684
 10
164.3197371709
 20
210.2057034148
 10
161.9162452028
 20
210.8655724108
 10
159.6907848421
 20
211.7082274458
 10
157.6848122046
 20
212.7179714506
 10
155.9356947651
 20
213.875994805
 10
154.4760152721
 20
215.1607257249
 10
153.3329647926
 20
216.5482321042
 10
152.5278361945
 20
218.0126673242
 10
152.0756275
 20
219.5267517277
 10
151.9847625016
 20
221.0622807869
 10
152.2569338423
 20
222.5906505008
 10
152.8870714849
 20
224.0833902334
 10
153.8634371574
 20
225.5126930678
 10
155.1678430148
 20
226.8519337967
 10
156.7759904439
 20
228.0761648991
 10
158.6579227008
 20
229.1625812661
 10
160.7785829484
 20
230.0909450161
 10
163.0984672987
 20
230.8439624891
 10
165.5743606956
 20
231.4076063944
 10
168.1601419297
 20
231.7713771124
 10
170.8076427891
 20
231.9284982829
 10
173.4675453421
 20
231.8760430359
 10
176.0903006368
 20
231.6149885133
 10
178.6270517046
 20
231.1501976669
 10
181.0305436727
 20
230.4903286708
 10
183.2560040334
 20
229.6476736359
 10
185.2619766709
 20
228.6379296311
  0
SPLINE
  5
334
330
2FB
100
AcDbEntity
  8
0
  6
Continuous
 62
     7
370
    25
100
AcDbSpline
210
0.0
220
0.0
230
1.0
 70
     8
 71
     3
 72
    12
 73
     8
 74
     0
 42
0.000000001
 43
0.00000001
 40
0.0
 40
0.0
 40
0.0
 40
0.0
 40
0.2229520352138894
 40
0.471370089392752
 40
0.7121753266298605
 40
0.9607909821097094
 40
1.0
 40
1.0
 40
1.0
 40
1.0
 10
39.07666175251903
 20
136.4956542982431
 30
0.0
 10
40.20911632307593
 20
135.919750343376
 30
0.0
 10
42.60337664747499
 20
134.7021615538102
 30
0.0
 10
46.8895832670736
 20
133.3167942601058
 30
0.0
 10
51.65745360228707
 20
132.3409866713948
 30
0.0
 10
55.24809067077867
 20
131.8692687025869
 30
0.0
 10
57.22049999119076
 20
131.8630345820546
 30
0.0
 10
57.48919214820947
 20
131.8621853367811
 30
0.0
  0
SPLINE
  5
336
330
2FB
100
AcDbEntity
  8
0
  6
Continuous
 62
     7
370
    25
100
AcDbSpline
210
0.0
220
0.0
230
1.0
 70
     8
 71
     3
 72
    11
 73
     7
 74
     0
 42
0.000000001
 43
0.00000001
 40
-0.0000000599772586
 40
-0.0000000599772586
 40
-0.0000000599772586
 40
-0.0000000599772586
 40
0.0
 40
0.0
 40
0.0
 40
0.0004696305880343
 40
0.0004696305880343
 40
0.0004696305880343
 40
0.0004696305880343
 10
38.47174233266627
 20
136.8148442013185
 30
0.0
 10
38.47175616509273
 20
136.8148361585409
 30
0.0
 10
38.47176999751591
 20
136.8148281157781
 30
0.0
 10
38.47178382996283
 20
136.8148200730194
 30
0.0
 10
38.58009388501782
 20
136.7518441123693
 30
0.0
 10
38.68931202619295
 20
136.6893375999195
 30
0.0
 10
38.79943554443359
 20
136.6273100439263
 30
0.0
  0
SPLINE
  5
338
330
2FB
100
AcDbEntity
  8
0
  6
Continuous
 62
     7
370
    25
100
AcDbSpline
210
0.0
220
0.0
230
1.0
 70
     8
 71
     3
 72
    11
 73
     7
 74
     0
 42
0.000000001
 43
0.00000001
 40
0.0
 40
0.0
 40
0.0
 40
0.0
 40
0.0004696305669835
 40
0.0004696305669835
 40
0.0004696305669835
 40
0.0004696905669834
 40
0.0004696905669834
 40
0.0004696905669834
 40
0.0004696905669834
 10
-227.0531511999559
 20
290.1007415976354
 30
0.0
 10
-226.9419237713664
 20
290.0349859720271
 30
0.0
 10
-226.8297941314853
 20
289.9697111303477
 30
0.0
 10
-226.7168021202898
 20
289.9049321273761
 30
0.0
 10
-226.7167876844307
 20
289.9049238512109
 30
0.0
 10
-226.7167732485493
 20
289.9049155750507
 30
0.0
 10
-226.7167588126705
 20
289.9049072989047
 30
0.0
  0
SPLINE
  5
339
330
2FB
100
AcDbEntity
  8
0
  6
Continuous
 62
     7
370
    25
100
AcDbSpline
210
0.0
220
0.0
230
1.0
 70
     8
 71
     3
 72
    46
 73
    42
 74
     0
 42
0.000000001
 43
0.00000001
 40
0.0
 40
0.0
 40
0.0
 40
0.0
 40
0.0625
 40
0.0625
 40
0.125
 40
0.125
 40
0.1874999999999999
 40
0.1874999999999999
 40
0.2187499999999999
 40
0.2187499999999999
 40
0.2499999999999999
 40
0.2499999999999999
 40
0.3125000000000006
 40
0.3125000000000006
 40
0.3750000000000012
 40
0.3750000000000012
 40
0.406250000000001
 40
0.406250000000001
 40
0.4375000000000008
 40
0.4375000000000008
 40
0.5000000000000004
 40
0.5000000000000004
 40
0.5625000000000001
 40
0.5625000000000001
 40
0.6249999999999998
 40
0.6249999999999998
 40
0.6874999999999994
 40
0.6874999999999994
 40
0.7187499999999992
 40
0.7187499999999992
 40
0.749999999999999
 40
0.749999999999999
 40
0.8124999999999992
 40
0.8124999999999992
 40
0.8749999999999996
 40
0.8749999999999996
 40
0.9062499999999997
 40
0.9062499999999997
 40
0.9374999999999998
 40
0.9374999999999998
 40
1.0
 40
1.0
 40
1.0
 40
1.0
 10
-214.3958879731061
 20
315.9607371372354
 30
0.0
 10
-215.5644480206707
 20
315.8471568439214
 30
0.0
 10
-216.7038738313656
 20
315.6966437454152
 30
0.0
 10
-218.9235800280156
 20
315.318518967461
 30
0.0
 10
-220.0037935142201
 20
315.0920405426247
 30
0.0
 10
-222.1005363647314
 20
314.5538773473774
 30
0.0
 10
-223.1173850330962
 20
314.2444466402826
 30
0.0
 10
-224.5899923974598
 20
313.7138231072668
 30
0.0
 10
-225.0690400615999
 20
313.526870171539
 30
0.0
 10
-225.9975225502496
 20
313.134620670396
 30
0.0
 10
-226.4479503966283
 20
312.929189520278
 30
0.0
 10
-227.757836169945
 20
312.2862935502523
 30
0.0
 10
-228.5762349665019
 20
311.823163678123
 30
0.0
 10
-230.0953514278961
 20
310.8208411330206
 30
0.0
 10
-230.7975501538625
 20
310.2835204973285
 30
0.0
 10
-231.7591315569726
 20
309.4258984352311
 30
0.0
 10
-232.0623954763821
 20
309.1309262535207
 30
0.0
 10
-232.627648791425
 20
308.5317358896207
 30
0.0
 10
-232.8910214835169
 20
308.2265750733652
 30
0.0
 10
-233.6251180433279
 20
307.2963396317406
 30
0.0
 10
-234.0396353867472
 20
306.6569718080334
 30
0.0
 10
-234.7119290260938
 20
305.3359035170668
 30
0.0
 10
-234.9724258471386
 20
304.6560164307984
 30
0.0
 10
-235.3304075888749
 20
303.2572028113029
 30
0.0
 10
-235.423171751564
 20
302.5552481560476
 30
0.0
 10
-235.4458225790127
 20
301.1489047192886
 30
0.0
 10
-235.3749577312063
 20
300.4443743698495
 30
0.0
 10
-235.1443022936408
 20
299.3860283396974
 30
0.0
 10
-235.0467159020528
 20
299.0329925966474
 30
0.0
 10
-234.8091007182727
 20
298.3265809722134
 30
0.0
 10
-234.6683477225123
 20
297.9720762171958
 30
0.0
 10
-234.1877977741937
 20
296.9241195322595
 30
0.0
 10
-233.789434590443
 20
296.2418390627077
 30
0.0
 10
-232.8410516545091
 20
294.9092810074426
 30
0.0
 10
-232.2916717638131
 20
294.2588555566384
 30
0.0
 10
-231.3508218954361
 20
293.3076894037676
 30
0.0
 10
-231.0170781520611
 20
292.9941298771487
 30
0.0
 10
-230.3125152292408
 20
292.3778440038888
 30
0.0
 10
-229.943964334249
 20
292.0767844437574
 30
0.0
 10
-228.7896389486635
 20
291.1941186890449
 30
0.0
 10
-227.954153014265
 20
290.6333974247581
 30
0.0
 10
-227.0531511999559
 20
290.1007415976352
 30
0.0
  0
SPLINE
  5
33A
330
2FB
100
AcDbEntity
  8
0
  6
Continuous
 62
     7
370
    25
100
AcDbSpline
210
0.0
220
0.0
230
1.0
 70
     8
 71
     3
 72
    10
 73
     6
 74
     0
 42
0.000000001
 43
0.00000001
 40
0.0
 40
0.0
 40
0.0
 40
0.0
 40
0.5
 40
0.5
 40
1.0
 40
1.0
 40
1.0
 40
1.0
 10
-209.8610281106919
 20
316.2177066634439
 30
0.0
 10
-210.6292469771042
 20
316.2032366476112
 30
0.0
 10
-211.3931273218994
 20
316.1756973933565
 30
0.0
 10
-212.9047287468275
 20
316.0907254961091
 30
0.0
 10
-213.6538079697326
 20
316.0328649364179
 30
0.0
 10
-214.3958879731063
 20
315.960737137234
 30
0.0
  0
SPLINE
  5
33C
330
2FB
100
AcDbEntity
  8
0
  6
Continuous
 62
     7
370
    25
100
AcDbSpline
210
0.0
220
0.0
230
1.0
 70
     8
 71
     3
 72
    32
 73
    28
 74
     0
 42
0.000000001
 43
0.00000001
 40
0.0
 40
0.0
 40
0.0
 40
0.0
 40
0.0078124999999996
 40
0.0078124999999996
 40
0.0156249999999992
 40
0.0312499999999996
 40
0.0624999999999993
 40
0.0624999999999993
 40
0.1249999999999986
 40
0.1249999999999986
 40
0.2499999999999973
 40
0.2499999999999973
 40
0.3124999999999973
 40
0.3124999999999973
 40
0.3749999999999973
 40
0.3749999999999973
 40
0.4999999999999967
 40
0.4999999999999967
 40
0.6249999999999961
 40
0.6249999999999961
 40
0.6874999999999968
 40
0.6874999999999968
 40
0.7499999999999974
 40
0.7499999999999974
 40
0.8749999999999988
 40
0.8749999999999988
 40
1.0
 40
1.0
 40
1.0
 40
1.0
 10
17.24611977640254
 20
342.3992554315868
 30
0.0
 10
17.1893416583119
 20
342.4320327353124
 30
0.0
 10
17.13072740770954
 20
342.4655960405221
 30
0.0
 10
17.01474238468502
 20
342.5314589009527
 30
0.0
 10
16.84017361980165
 20
342.6297756365101
 30
0.0
 10
16.42872439863243
 20
342.8558495668773
 30
0.0
 10
16.06904016405032
 20
343.0439510253877
 30
0.0
 10
15.34043066513888
 20
343.4126582879097
 30
0.0
 10
14.8423783003403
 20
343.6484748030729
 30
0.0
 10
13.31180723792281
 20
344.326292686578
 30
0.0
 10
12.24300583328505
 20
344.7387654118447
 30
0.0
 10
10.56692639991312
 20
345.2980509503561
 30
0.0
 10
9.99604218296088
 20
345.4745361533638
 30
0.0
 10
8.829230500492766
 20
345.8070502444967
 30
0.0
 10
8.23623899951896
 20
345.9621591874807
 30
0.0
 10
6.444245915341915
 20
346.390533332671
 30
0.0
 10
5.226074911608064
 20
346.6286596854972
 30
0.0
 10
2.743782859066832
 20
347.0123078436113
 30
0.0
 10
1.479771253348083
 20
347.1580533779398
 30
0.0
 10
-0.4517289427156124
 20
347.3051854318226
 30
0.0
 10
-1.101130615335053
 20
347.342104423183
 30
0.0
 10
-2.391671946904678
 20
347.3907585392338
 30
0.0
 10
-3.035332787263617
 20
347.4026788912718
 30
0.0
 10
-4.961603146142856
 20
347.4022005841665
 30
0.0
 10
-6.239547149367613
 20
347.3539089976144
 30
0.0
 10
-8.782976977714283
 20
347.1616016626378
 30
0.0
 10
-10.04848728424618
 20
347.0177880847521
 30
0.0
 10
-11.30744896347405
 20
346.8237255799199
 30
0.0
  0
SPLINE
  5
33E
330
2FB
100
AcDbEntity
  8
0
  6
Continuous
 62
     7
370
    25
100
AcDbSpline
210
0.0
220
0.0
230
1.0
 70
     8
 71
     3
 72
    31
 73
    27
 74
     0
 42
0.000000001
 43
0.00000001
 40
0.0
 40
0.0
 40
0.0
 40
0.0
 40
0.0156249999999994
 40
0.0156249999999994
 40
0.0312499999999987
 40
0.0624999999999974
 40
0.0624999999999974
 40
0.1249999999999975
 40
0.1249999999999975
 40
0.2499999999999978
 40
0.2499999999999978
 40
0.3124999999999979
 40
0.3124999999999979
 40
0.3749999999999981
 40
0.3749999999999981
 40
0.4999999999999983
 40
0.4999999999999983
 40
0.6249999999999986
 40
0.6249999999999986
 40
0.6874999999999997
 40
0.6874999999999997
 40
0.7500000000000007
 40
0.7500000000000007
 40
0.8750000000000004
 40
0.8750000000000004
 40
1.0
 40
1.0
 40
1.0
 40
1.0
 10
-8.87697868706265
 20
256.9478645248364
 30
0.0
 10
-8.771560697287704
 20
256.9641140716589
 30
0.0
 10
-8.663013604220774
 20
256.9803032705804
 30
0.0
 10
-8.448793773986086
 20
257.0111610849512
 30
0.0
 10
-8.127210798695245
 20
257.0558706169464
 30
0.0
 10
-7.804874061006342
 20
257.0958822610645
 30
0.0
 10
-7.159207493282832
 20
257.1697092325213
 30
0.0
 10
-6.727440014880237
 20
257.2106717016352
 30
0.0
 10
-5.42822052878561
 20
257.3090826033695
 30
0.0
 10
-4.556864945914521
 20
257.3421257259947
 30
0.0
 10
-3.241960802460142
 20
257.3424032036187
 30
0.0
 10
-2.802344835400247
 20
257.3342633944767
 30
0.0
 10
-1.92042033858171
 20
257.3011042261971
 30
0.0
 10
-1.480096117246338
 20
257.2761047977743
 30
0.0
 10
-0.1734001902590626
 20
257.1769483838998
 30
0.0
 10
0.6837676810713539
 20
257.0785281779946
 30
0.0
 10
2.370752952480404
 20
256.81843579251
 30
0.0
 10
3.200605715249758
 20
256.6568431772296
 30
0.0
 10
4.42419123165641
 20
256.3654489541082
 30
0.0
 10
4.828530353440081
 20
256.2600373309429
 30
0.0
 10
5.620453018660543
 20
256.0351042808266
 30
0.0
 10
6.00924845292096
 20
255.9152949970729
 30
0.0
 10
7.154305222620762
 20
255.5340534056004
 30
0.0
 10
7.892223702836876
 20
255.2496948588276
 30
0.0
 10
9.294232746208817
 20
254.6293029203427
 30
0.0
 10
9.958179675756337
 20
254.2937222122992
 30
0.0
 10
10.58428998919655
 20
253.9322764224579
 30
0.0
  0
SPLINE
  5
341
330
2FB
100
AcDbEntity
  8
0
  6
Continuous
 62
     7
370
    25
100
AcDbSpline
210
0.0
220
0.0
230
1.0
 70
     8
 71
     3
 72
    46
 73
    42
 74
     0
 42
0.000000001
 43
0.00000001
 40
0.0
 40
0.0
 40
0.0
 40
0.0
 40
0.0312499999999998
 40
0.0312499999999998
 40
0.0624999999999997
 40
0.0624999999999997
 40
0.1249999999999996
 40
0.1249999999999996
 40
0.2499999999999994
 40
0.2499999999999994
 40
0.3749999999999993
 40
0.3749999999999993
 40
0.4374999999999993
 40
0.4374999999999993
 40
0.4999999999999994
 40
0.4999999999999994
 40
0.5624999999999994
 40
0.5624999999999994
 40
0.6249999999999994
 40
0.6249999999999994
 40
0.7500000000000023
 40
0.7500000000000023
 40
0.8125000000000027
 40
0.8125000000000027
 40
0.8750000000000031
 40
0.8750000000000031
 40
0.9375000000000037
 40
0.9375000000000037
 40
0.9531250000000054
 40
0.9531250000000054
 40
0.9687500000000072
 40
0.9687500000000072
 40
0.9843750000000091
 40
0.9843750000000091
 40
0.9921875000000099
 40
0.9921875000000099
 40
0.9960937500000088
 40
0.9980468750000044
 40
0.9990234375000022
 40
0.9990234375000022
 40
1.0
 40
1.0
 40
1.0
 40
1.0
 10
-103.7033413105767
 20
236.5724532673395
 30
0.0
 10
-103.7716050912542
 20
236.6125223196884
 30
0.0
 10
-103.8388680287903
 20
236.6546375251787
 30
0.0
 10
-103.9675010337764
 20
236.7405786252664
 30
0.0
 10
-104.0297350190836
 20
236.7847549395477
 30
0.0
 10
-104.2097462472863
 20
236.9206582204312
 30
0.0
 10
-104.320505339961
 20
237.0156663230585
 30
0.0
 10
-104.6268533408863
 20
237.3139630331388
 30
0.0
 10
-104.7963316563872
 20
237.5326022930725
 30
0.0
 10
-105.0482314095525
 20
237.9867328338292
 30
0.0
 10
-105.1326844470397
 20
238.2230447619643
 30
0.0
 10
-105.1960721562363
 20
238.5929555305986
 30
0.0
 10
-105.2063985918836
 20
238.7187228340317
 30
0.0
 10
-105.2052545466088
 20
238.9699666526973
 30
0.0
 10
-105.1940743521489
 20
239.0962387294392
 30
0.0
 10
-105.1506291345688
 20
239.3507312677281
 30
0.0
 10
-105.1186012315816
 20
239.4791113965574
 30
0.0
 10
-105.0334612656851
 20
239.7393983323953
 30
0.0
 10
-104.9800228072016
 20
239.8719237227374
 30
0.0
 10
-104.7922246607684
 20
240.2683975906542
 30
0.0
 10
-104.6300779057115
 20
240.533409279405
 30
0.0
 10
-104.3286273392223
 20
240.9450684466425
 30
0.0
 10
-104.2176039627353
 20
241.0866258172405
 30
0.0
 10
-103.976424298267
 20
241.3660379424655
 30
0.0
 10
-103.8506094722164
 20
241.5090926689595
 30
0.0
 10
-103.5776861488242
 20
241.7915316573556
 30
0.0
 10
-103.4318164303834
 20
241.9351854065385
 30
0.0
 10
-103.2443446151656
 20
242.1079838418075
 30
0.0
 10
-103.2063894013758
 20
242.1421160480534
 30
0.0
 10
-103.1285286863168
 20
242.208272510438
 30
0.0
 10
-103.0881646963811
 20
242.239734096659
 30
0.0
 10
-103.0104702980202
 20
242.3066108871931
 30
0.0
 10
-102.9721737037732
 20
242.3408612452782
 30
0.0
 10
-102.9130463615626
 20
242.3904185646546
 30
0.0
 10
-102.8930708976937
 20
242.4066511035145
 30
0.0
 10
-102.8625339072841
 20
242.4303557158794
 30
0.0
 10
-102.8471234692465
 20
242.4420487731048
 30
0.0
 10
-102.8288726349802
 20
242.4553825214141
 30
0.0
 10
-102.8209908480029
 20
242.4610287702978
 30
0.0
 10
-102.815722815077
 20
242.4647775544088
 30
0.0
 10
-102.8139525640396
 20
242.4678401096166
 30
0.0
 10
-102.8104353659385
 20
242.4685025090451
 30
0.0
  0
LWPOLYLINE
  5
34F
330
2FB
100
AcDbEntity
  8
0
  6
Continuous
 62
     7
370
    25
100
AcDbPolyline
 90
       61
 70
   128
 43
0.0
 10
49.4974746831
 20
207.3967217168
 10
51.7737480418
 20
205.937305083
 10
53.7732977527
 20
204.3485261288
 10
55.4742163306
 20
202.647791849
 10
56.8578681557
 20
200.8537358442
 10
57.9090936489
 20
198.9860141674
 10
58.6163753638
 20
197.0650899681
 10
58.971964174
 20
195.1120092939
 10
58.971964174
 20
193.1481705054
 10
58.6163753638
 20
191.1950898312
 10
57.9090936489
 20
189.2741656319
 10
56.8578681557
 20
187.4064439551
 10
55.4742163306
 20
185.6123879503
 10
53.7732977527
 20
183.9116536705
 10
51.7737480418
 20
182.3228747163
 10
49.4974746831
 20
180.8634580825
 10
46.9694170036
 20
179.5493934432
 10
44.2172729325
 20
178.3950779654
 10
41.271195536
 20
177.4131585711
 10
38.1634626547
 20
176.6143933747
 10
34.9281232603
 20
176.0075338148
 10
31.6006244083
 20
175.5992287718
 10
28.2174228724
 20
175.3939517211
 10
24.8155857166
 20
175.3939517211
 10
21.4323841807
 20
175.5992287718
 10
18.1048853287
 20
176.0075338148
 10
14.8695459343
 20
176.6143933747
 10
11.761813053
 20
177.4131585711
 10
8.8157356565
 20
178.3950779654
 10
6.0635915854
 20
179.5493934432
 10
3.5355339059
 20
180.8634580825
 10
1.2592605471
 20
182.3228747163
 10
-0.7402891637
 20
183.9116536705
 10
-2.4412077416
 20
185.6123879503
 10
-3.8248595667
 20
187.4064439551
 10
-4.8760850599
 20
189.2741656319
 10
-5.5833667748
 20
191.1950898312
 10
-5.938955585
 20
193.1481705054
 10
-5.938955585
 20
195.1120092939
 10
-5.5833667748
 20
197.0650899681
 10
-4.8760850599
 20
198.9860141674
 10
-3.8248595667
 20
200.8537358442
 10
-2.4412077416
 20
202.647791849
 10
-0.7402891637
 20
204.3485261288
 10
1.2592605471
 20
205.937305083
 10
3.5355339059
 20
207.3967217168
 10
6.0635915854
 20
208.7107863562
 10
8.8157356565
 20
209.8651018339
 10
11.761813053
 20
210.8470212282
 10
14.8695459343
 20
211.6457864246
 10
18.1048853287
 20
212.2526459845
 10
21.4323841807
 20
212.6609510275
 10
24.8155857166
 20
212.8662280782
 10
28.2174228724
 20
212.8662280782
 10
31.6006244083
 20
212.6609510275
 10
34.9281232603
 20
212.2526459845
 10
38.1634626547
 20
211.6457864246
 10
41.271195536
 20
210.8470212282
 10
44.2172729325
 20
209.8651018339
 10
46.9694170036
 20
208.7107863562
 10
49.4974746831
 20
207.3967217168
  0
SPLINE
  5
350
330
2FB
100
AcDbEntity
  8
0
  6
Continuous
 62
     7
370
    25
100
AcDbSpline
210
0.0
220
0.0
230
1.0
 70
     8
 71
     3
 72
    38
 73
    34
 74
     0
 42
0.000000001
 43
0.00000001
 40
0.0
 40
0.0
 40
0.0
 40
0.0
 40
0.1250000000000075
 40
0.1875000000000089
 40
0.2187500000000071
 40
0.2187500000000071
 40
0.2500000000000054
 40
0.2500000000000054
 40
0.3125000000000049
 40
0.3125000000000049
 40
0.3750000000000045
 40
0.3750000000000045
 40
0.4375000000000041
 40
0.4375000000000041
 40
0.5000000000000036
 40
0.5000000000000036
 40
0.5625000000000032
 40
0.5625000000000032
 40
0.6250000000000028
 40
0.6250000000000028
 40
0.6875000000000023
 40
0.6875000000000023
 40
0.7500000000000019
 40
0.7500000000000019
 40
0.8125000000000014
 40
0.8125000000000014
 40
0.875000000000001
 40
0.875000000000001
 40
0.9375000000000006
 40
0.9375000000000006
 40
0.9687500000000003
 40
0.9687500000000003
 40
1.0
 40
1.0
 40
1.0
 40
1.0
 10
-100.4603585125286
 20
240.1554072642825
 30
0.0
 10
-100.8058616218923
 20
240.1021497267135
 30
0.0
 10
-101.3241162859379
 20
240.0222634203601
 30
0.0
 10
-101.9287467273244
 20
239.9290627296144
 30
0.0
 10
-102.1878740593473
 20
239.8891195764375
 30
0.0
 10
-102.3606256140292
 20
239.8624908076531
 30
0.0
 10
-102.4455359084465
 20
239.8448129243219
 30
0.0
 10
-102.6851503086806
 20
239.7776826506588
 30
0.0
 10
-102.8310286764275
 20
239.7167775112456
 30
0.0
 10
-103.093672886817
 20
239.5789427881666
 30
0.0
 10
-103.2099301249671
 20
239.5021652497254
 30
0.0
 10
-103.4173664533959
 20
239.3355255118178
 30
0.0
 10
-103.5072092730324
 20
239.2465110016331
 30
0.0
 10
-103.6584300413203
 20
239.0629828576902
 30
0.0
 10
-103.7206611355143
 20
238.9677914113093
 30
0.0
 10
-103.8201140714392
 20
238.7710018951566
 30
0.0
 10
-103.8565859292853
 20
238.6704671734004
 30
0.0
 10
-103.9038901434646
 20
238.4695335484292
 30
0.0
 10
-103.9150371416754
 20
238.3684917501271
 30
0.0
 10
-103.9128782716216
 20
238.1652838089452
 30
0.0
 10
-103.8993233666631
 20
238.0622804340323
 30
0.0
 10
-103.8482874827517
 20
237.8605179554829
 30
0.0
 10
-103.8110235777877
 20
237.7615750644912
 30
0.0
 10
-103.7139153643094
 20
237.5674155573514
 30
0.0
 10
-103.6539100830395
 20
237.4722255053314
 30
0.0
 10
-103.5108221898936
 20
237.2856536802825
 30
0.0
 10
-103.4271449977827
 20
237.1944501809383
 30
0.0
 10
-103.2420115219175
 20
237.0218902673449
 30
0.0
 10
-103.1396548423157
 20
236.9398545464737
 30
0.0
 10
-102.9716005010992
 20
236.8230955304799
 30
0.0
 10
-102.9132207290952
 20
236.7851997087956
 30
0.0
 10
-102.7910439686154
 20
236.7117565926755
 30
0.0
 10
-102.7276955167563
 20
236.6760148440452
 30
0.0
 10
-102.6651667319715
 20
236.6399177449372
 30
0.0
  0
SPLINE
  5
352
330
2FB
100
AcDbEntity
  8
0
  6
Continuous
 62
     7
370
    25
100
AcDbSpline
210
0.0
220
0.0
230
1.0
 70
     8
 71
     3
 72
    20
 73
    16
 74
     0
 42
0.000000001
 43
0.00000001
 40
0.0
 40
0.0
 40
0.0
 40
0.0
 40
0.2500000000000023
 40
0.2500000000000023
 40
0.3125000000000031
 40
0.3125000000000031
 40
0.3750000000000038
 40
0.3750000000000038
 40
0.5000000000000024
 40
0.5000000000000024
 40
0.625000000000001
 40
0.625000000000001
 40
0.7499999999999997
 40
0.7499999999999997
 40
1.0
 40
1.0
 40
1.0
 40
1.0
 10
9.17588431094725
 20
251.633991768989
 30
0.0
 10
8.04388452547737
 20
252.2874813342846
 30
0.0
 10
6.791911648324378
 20
252.8396117034426
 30
0.0
 10
5.085047290196647
 20
253.4098920017359
 30
0.0
 10
4.736394612228537
 20
253.5177977212762
 30
0.0
 10
4.024155174444751
 20
253.7209921100673
 30
0.0
 10
3.659118301496484
 20
253.8166264936805
 30
0.0
 10
2.553573865475806
 20
254.081172174496
 30
0.0
 10
1.803721870482528
 20
254.2279385974522
 30
0.0
 10
0.2792958251037619
 20
254.4644065152242
 30
0.0
 10
-0.4953131240753306
 20
254.5540274545552
 30
0.0
 10
-2.069838646189579
 20
254.6748527611254
 30
0.0
 10
-2.872601492672225
 20
254.705668499776
 30
0.0
 10
-5.250129337827494
 20
254.7069767830483
 30
0.0
 10
-6.816348143640044
 20
254.5901526112023
 30
0.0
 10
-8.363142654557585
 20
254.3517221471981
 30
0.0
  0
LWPOLYLINE
  5
359
330
2FB
100
AcDbEntity
  8
0
  6
Continuous
 62
     7
370
    25
100
AcDbPolyline
 90
        3
 70
   128
 43
0.0
 10
-255.9774894356
 20
266.5425377032
 10
-255.9614733992
 20
266.3205705752
 10
-255.9601189115
 20
266.3037834921
  0
LWPOLYLINE
  5
35A
330
2FB
100
AcDbEntity
  8
0
  6
Continuous
 62
     7
370
    25
100
AcDbPolyline
 90
       25
 70
   128
 43
0.0
 10
42.4264068712
 20
195.1492730388
 10
40.3069130017
 20
196.2279843148
 10
37.9699361489
 20
197.1448371788
 10
35.4523318338
 20
197.8853723134
 10
32.7938041804
 20
198.4379110373
 10
30.0362797579
 20
198.7937394847
 10
27.2232463738
 20
198.9472460284
 10
24.3990672448
 20
198.8960097785
 10
21.6082813631
 20
198.6408387612
 10
18.894901089
 20
198.185757176
 10
16.3017180504
 20
197.5379419313
 10
13.8696282928
 20
196.7076094605
 10
11.6369873247
 20
195.7078546027
 10
9.6390052278
 20
194.5544440892
 10
7.9071913733
 20
193.2655678928
 10
6.4688575003
 20
191.8615523611
 10
5.346686993
 20
190.3645396577
 10
4.5583771509
 20
188.7981385673
 10
4.1163600909
 20
187.1870521707
 10
4.0276066863
 20
185.5566882628
 10
4.2935166311
 20
183.9327586565
 10
4.9098963668
 20
182.3408736916
 10
5.8670252166
 20
180.8061383451
 10
7.1498086869
 20
179.3527563101
 10
7.7220466948
 20
178.823598632
  0
LWPOLYLINE
  5
35B
330
2FB
100
AcDbEntity
  8
0
  6
Continuous
 62
     7
370
    25
100
AcDbPolyline
 90
       12
 70
   128
 43
0.0
 10
45.3109618942
 20
178.823598632
 10
46.5641510887
 20
180.0678112005
 10
47.686321596
 20
181.5648239039
 10
48.4746314381
 20
183.1312249943
 10
48.9166484981
 20
184.7423113909
 10
49.0054019027
 20
186.3726752988
 10
48.7394919579
 20
187.9966049051
 10
48.1231122222
 20
189.58848987
 10
47.1659833724
 20
191.1232252165
 10
45.8831999021
 20
192.5766072515
 10
44.2949920729
 20
193.9257152721
 10
42.4264068712
 20
195.1492730388
  0
LWPOLYLINE
  5
35C
330
2FB
100
AcDbEntity
  8
0
  6
Continuous
 62
     7
370
    25
100
AcDbPolyline
 90
       17
 70
   128
 43
0.0
 10
43.9200454654
 20
178.2849696641
 10
42.4264068712
 20
179.2284946114
 10
40.3069130017
 20
180.3210030335
 10
37.9699361489
 20
181.2790297466
 10
35.4523318338
 20
182.0874660972
 10
32.7938041804
 20
182.7335625611
 10
30.0362797579
 20
183.2071298111
 10
27.2232463738
 20
183.5006994088
 10
24.3990672448
 20
183.6096415863
 10
21.6082813631
 20
183.5322382603
 10
18.894901089
 20
183.2697101275
 10
16.3017180504
 20
182.8261974134
 10
13.8696282928
 20
182.2086945784
 10
11.6369873247
 20
181.4269400112
 10
9.6390052278
 20
180.4932624483
 10
7.9071913733
 20
179.4223865425
 10
7.4420138274
 20
179.0754884698
  0
SPLINE
  5
370
330
2FB
100
AcDbEntity
  8
0
  6
Continuous
 62
     8
370
    25
100
AcDbSpline
210
0.0
220
0.0
230
1.0
 70
     8
 71
     3
 72
    12
 73
     8
 74
     0
 42
0.000000001
 43
0.00000001
 40
0.0
 40
0.0
 40
0.0
 40
0.0
 40
0.1654079693221762
 40
0.3611587795698001
 40
0.5625593076449849
 40
0.7774872603031917
 40
1.0
 40
1.0
 40
1.0
 40
1.0
 10
142.7377322835057
 20
261.7137843449895
 30
0.0
 10
142.795733339414
 20
262.5141059739561
 30
0.0
 10
142.9223753062519
 20
264.2615621815706
 30
0.0
 10
142.1045563749774
 20
266.9606990660303
 30
0.0
 10
140.4571305931779
 20
269.7670748258538
 30
0.0
 10
137.8919286513133
 20
272.5046305416488
 30
0.0
 10
135.4429388512647
 20
274.0823095383363
 30
0.0
 10
134.1972124261243
 20
274.8848267299243
 30
0.0
  0
LWPOLYLINE
  5
377
330
2FB
100
AcDbEntity
  8
0
  6
Continuous
 62
     8
370
    25
100
AcDbPolyline
 90
       18
 70
   128
 43
0.0
 10
183.8477631085
 20
226.1884398955
 10
181.9607536017
 20
227.1323647916
 10
179.8602517053
 20
227.9116515941
 10
177.5890175807
 20
228.510436271
 10
175.1932870049
 20
228.916529293
 10
172.7218301437
 20
229.1216637773
 10
170.2249587318
 20
229.1216637773
 10
167.7535018706
 20
228.916529293
 10
165.3577712948
 20
228.510436271
 10
163.0865371701
 20
227.9116515941
 10
160.9860352738
 20
227.1323647916
 10
159.099025767
 20
226.1884398955
 10
157.4639227216
 20
225.0990924946
 10
156.1140121203
 20
223.8864985607
 10
155.0767742502
 20
222.5753430092
 10
154.3733242832
 20
221.1923171864
 10
154.0179824321
 20
219.7655755095
 10
153.9747455691
 20
219.1704044699
  0
LWPOLYLINE
  5
378
330
2FB
100
AcDbEntity
  8
0
  6
Continuous
 62
     8
370
    25
100
AcDbPolyline
 90
        7
 70
   128
 43
0.0
 10
188.9726696646
 20
218.9529250225
 10
188.9288064434
 20
219.7655755095
 10
188.5734645922
 20
221.1923171864
 10
187.8700146252
 20
222.5753430092
 10
186.8327767552
 20
223.8864985607
 10
185.4828661539
 20
225.0990924946
 10
183.8477631085
 20
226.1884398955
  0
LWPOLYLINE
  5
37B
330
2FB
100
AcDbEntity
  8
0
  6
Continuous
 62
     8
370
    25
100
AcDbPolyline
 90
       10
 70
   128
 43
0.0
 10
-245.5246196796
 20
289.9708677981
 10
-248.3076838891
 20
291.7332556048
 10
-250.7971921763
 20
293.6363663767
 10
-252.9719049343
 20
295.6639634436
 10
-254.8132682806
 20
297.7987480625
 10
-256.3055723524
 20
300.0225070035
 10
-257.4360853375
 20
302.3162679395
 10
-258.1951620977
 20
304.6604613109
 10
-258.5763264578
 20
307.0350872864
 10
-258.5853305733
 20
307.1533983607
  0
LWPOLYLINE
  5
37D
330
2FB
100
AcDbEntity
  8
0
  6
Continuous
 62
     8
370
    25
100
AcDbPolyline
 90
        9
 70
   128
 43
0.0
 10
-255.9601189115
 20
266.3037834921
 10
-255.6026180435
 20
264.0849280585
 10
-254.8879689594
 20
261.8779369692
 10
-253.8236232809
 20
259.7184265771
 10
-252.4186616301
 20
257.6248210634
 10
-250.6850706443
 20
255.6149823322
 10
-248.6376407108
 20
253.7060576188
 10
-246.2938397797
 20
251.914333196
 10
-243.6736643341
 20
250.2550954246
  0
LINE
  5
37E
330
2FB
100
AcDbEntity
  8
0
  6
Continuous
 62
     7
370
    25
100
AcDbLine
 10
-247.5358402783
 20
251.8136153892
 30
0.0
 11
-247.5358402783
 21
223.4444891078
 31
0.0
  0
LINE
  5
37F
330
2FB
100
AcDbEntity
  8
0
  6
Continuous
 62
     7
370
    25
100
AcDbLine
 10
104.9631286043
 20
81.228753334
 30
0.0
 11
271.1332221832
 21
177.1567064732
 31
0.0
  0
LINE
  5
380
330
2FB
100
AcDbEntity
  8
0
  6
Continuous
 62
     7
370
    25
100
AcDbLine
 10
-242.8489509357
 20
248.5924162576
 30
0.0
 11
47.0648293508
 21
81.228753334
 31
0.0
  0
LINE
  5
381
330
2FB
100
AcDbEntity
  8
0
  6
Continuous
 62
     7
370
    25
100
AcDbLine
 10
-258.593338165
 20
307.2708534717
 30
0.0
 11
-255.9774894356
 21
266.5425377032
 31
0.0
  0
LINE
  5
382
330
2FB
100
AcDbEntity
  8
0
  6
Continuous
 62
     7
370
    25
100
AcDbLine
 10
-78.3236343527
 20
424.9177524226
 30
0.0
 11
-244.4937279316
 21
328.9897992835
 31
0.0
  0
LINE
  5
383
330
2FB
100
AcDbEntity
  8
0
  6
Continuous
 62
     7
370
    25
100
AcDbLine
 10
-92.2774349448
 20
125.5516758065
 30
0.0
 11
-90.8629915143
 21
126.3682166184
 31
0.0
  0
LINE
  5
384
330
2FB
100
AcDbEntity
  8
0
  6
Continuous
 62
     7
370
    25
100
AcDbLine
 10
-236.4960426328
 20
208.8073058788
 30
0.0
 11
-92.2774349448
 21
125.5516758065
 31
0.0
  0
LINE
  5
385
330
2FB
100
AcDbEntity
  8
0
  6
Continuous
 62
     7
370
    25
100
AcDbLine
 10
-248.0952037182
 20
223.3738582883
 30
0.0
 11
-247.220451027
 21
223.4843133074
 31
0.0
  0
LINE
  5
386
330
2FB
100
AcDbEntity
  8
0
  6
Continuous
 62
     7
370
    25
100
AcDbLine
 10
-236.4960426328
 20
208.8073058788
 30
0.0
 11
-236.4960426328
 21
-189.6646103214
 31
0.0
  0
LINE
  5
387
330
2FB
100
AcDbEntity
  8
0
  6
Continuous
 62
     7
370
    25
100
AcDbLine
 10
-92.2774349448
 20
-272.9202403938
 30
0.0
 11
-92.2774349448
 21
125.5516758065
 31
0.0
  0
LINE
  5
388
330
2FB
100
AcDbEntity
  8
0
  6
Continuous
 62
     7
370
    25
100
AcDbLine
 10
-236.4960426328
 20
-189.6646103214
 30
0.0
 11
-92.2774349448
 21
-272.9202403938
 31
0.0
  0
LINE
  5
389
330
2FB
100
AcDbEntity
  8
0
  6
Continuous
 62
     7
370
    25
100
AcDbLine
 10
-92.2774349448
 20
-272.9202403938
 30
0.0
 11
-90.8632213825
 21
-272.1038322819
 31
0.0
  0
LINE
  5
38A
330
2FB
100
AcDbEntity
  8
0
  6
Continuous
 62
     7
370
    25
100
AcDbLine
 10
-248.0952037182
 20
223.3738582883
 30
0.0
 11
-248.0952037182
 21
-175.098057912
 31
0.0
  0
LINE
  5
38B
330
2FB
100
AcDbEntity
  8
0
  6
Continuous
 62
     7
370
    25
100
AcDbLine
 10
-247.494903512
 20
251.7827759914
 30
0.0
 11
-247.494903512
 21
223.4496581931
 31
0.0
  0
LINE
  5
38C
330
2FB
100
AcDbEntity
  8
0
  6
Continuous
 62
     7
370
    25
100
AcDbLine
 10
79.154509632
 20
74.3232695311
 30
0.0
 11
79.154509632
 21
-363.3417858104
 31
0.0
  0
LINE
  5
38D
330
2FB
100
AcDbEntity
  8
0
  6
Continuous
 62
     7
370
    25
100
AcDbLine
 10
269.7612370227
 20
-263.9397511637
 30
0.0
 11
269.7612370227
 21
176.3646762988
 31
0.0
  0
LINE
  5
38E
330
2FB
100
AcDbEntity
  8
0
  6
Continuous
 62
     7
370
    25
100
AcDbLine
 10
109.2479976933
 20
-356.6020718556
 30
0.0
 11
269.7612370227
 21
-263.9397511637
 31
0.0
  0
LINE
  5
38F
330
2FB
100
AcDbEntity
  8
0
  6
Continuous
 62
     7
370
    25
100
AcDbLine
 10
-235.8201115257
 20
210.0501807803
 30
0.0
 11
52.6794551984
 21
43.5029259684
 31
0.0
  0
LINE
  5
390
330
2FB
100
AcDbEntity
  8
0
  6
Continuous
 62
     7
370
    25
100
AcDbLine
 10
105.7878420027
 20
82.8914325009
 30
0.0
 11
107.6387973482
 21
122.6072048745
 31
0.0
  0
LINE
  5
391
330
2FB
100
AcDbEntity
  8
0
  6
Continuous
 62
     7
370
    25
100
AcDbLine
 10
46.2401159524
 20
82.8914325009
 30
0.0
 11
44.3891606069
 21
122.6072048745
 31
0.0
  0
LINE
  5
392
330
2FB
100
AcDbEntity
  8
0
  6
Continuous
 62
     7
370
    25
100
AcDbLine
 10
104.1081087686
 20
128.9418042871
 30
0.0
 11
270.2782023475
 21
224.8697574263
 31
0.0
  0
LINE
  5
393
330
2FB
100
AcDbEntity
  8
0
  6
Continuous
 62
     7
370
    25
100
AcDbLine
 10
-241.9939311
 20
296.3054672108
 30
0.0
 11
47.9198491865
 21
128.9418042871
 31
0.0
  0
LINE
  5
394
330
2FB
100
AcDbEntity
  8
0
  6
Continuous
 62
     7
370
    25
100
AcDbLine
 10
-75.8238375212
 20
424.6702121702
 30
0.0
 11
-241.9939311
 21
328.742259031
 31
0.0
  0
LINE
  5
395
330
2FB
100
AcDbEntity
  8
0
  6
Continuous
 62
     7
370
    25
100
AcDbLine
 10
270.2782023475
 20
224.8697574263
 30
0.0
 11
-75.8238375212
 21
424.6702121702
 31
0.0
  0
LINE
  5
396
330
2FB
100
AcDbEntity
  8
0
  6
Continuous
 62
     7
370
    25
100
AcDbLine
 10
20.7671339627
 20
348.1449670706
 30
0.0
 11
137.7182266263
 21
280.6305383609
 31
0.0
  0
LINE
  5
397
330
2FB
100
AcDbEntity
  8
0
  6
Continuous
 62
     7
370
    25
100
AcDbLine
 10
-226.7167588127
 20
289.9049072989
 30
0.0
 11
38.4717423327
 21
136.8148442013
 31
0.0
  0
LINE
  5
398
330
2FB
100
AcDbEntity
  8
0
  6
Continuous
 62
     7
370
    25
100
AcDbLine
 10
-11.3074489635
 20
346.8237255799
 30
0.0
 11
-209.8610281107
 21
316.2177066634
 31
0.0
  0
LINE
  5
399
330
2FB
100
AcDbEntity
  8
0
  6
Continuous
 62
     7
370
    25
100
AcDbLine
 10
134.1972124261
 20
274.8848267299
 30
0.0
 11
17.2461197663
 21
342.3992554374
 31
0.0
  0
LINE
  5
39A
330
2FB
100
AcDbEntity
  8
0
  6
Continuous
 62
     7
370
    25
100
AcDbLine
 10
-102.8104353659
 20
242.468502509
 30
0.0
 11
-8.8769786814
 21
256.9478645257
 31
0.0
  0
LINE
  5
39B
330
2FB
100
AcDbEntity
  8
0
  6
Continuous
 62
     7
370
    25
100
AcDbLine
 10
74.0322749691
 20
133.9678659891
 30
0.0
 11
-103.7033413106
 21
236.5724532673
 31
0.0
  0
LINE
  5
39C
330
2FB
100
AcDbEntity
  8
0
  6
Continuous
 62
     7
370
    25
100
AcDbLine
 10
273.808890927
 20
218.5351580136
 30
0.0
 11
107.6387973482
 21
122.6072048745
 31
0.0
  0
LINE
  5
39D
330
2FB
100
AcDbEntity
  8
0
  6
Continuous
 62
     7
370
    25
100
AcDbLine
 10
44.3891606069
 20
122.6072048745
 30
0.0
 11
-245.5246196796
 21
289.9708677981
 31
0.0
  0
LINE
  5
39E
330
2FB
100
AcDbEntity
  8
0
  6
Continuous
 62
     7
370
    25
100
AcDbLine
 10
271.9579355816
 20
178.8193856401
 30
0.0
 11
273.808890927
 21
218.5351580136
 31
0.0
  0
LINE
  5
39F
330
2FB
100
AcDbEntity
  8
0
  6
Continuous
 62
     7
370
    25
100
AcDbLine
 10
105.7878420027
 20
82.8914325009
 30
0.0
 11
271.9579355816
 21
178.8193856401
 31
0.0
  0
LINE
  5
3A0
330
2FB
100
AcDbEntity
  8
0
  6
Continuous
 62
     7
370
    25
100
AcDbLine
 10
-243.6736643341
 20
250.2550954246
 30
0.0
 11
46.2401159524
 21
82.8914325009
 31
0.0
  0
LINE
  5
3A1
330
2FB
100
AcDbEntity
  8
0
  6
Continuous
 62
     7
370
    25
100
AcDbLine
 10
-243.6736643341
 20
250.2550954246
 30
0.0
 11
-245.5246196796
 21
289.9708677981
 31
0.0
  0
LINE
  5
3A2
330
2FB
100
AcDbEntity
  8
0
  6
Continuous
 62
     7
370
    25
100
AcDbLine
 10
142.0705931438
 20
259.2414080981
 30
0.0
 11
142.1210471892
 21
259.3599894003
 31
0.0
  0
LINE
  5
3A3
330
2FB
100
AcDbEntity
  8
0
  6
Continuous
 62
     7
370
    25
100
AcDbLine
 10
153.9747455691
 20
219.1704044699
 30
0.0
 11
153.9733944377
 21
219.0448689171
 31
0.0
  0
LINE
  5
3A4
330
2FB
100
AcDbEntity
  8
0
  6
Continuous
 62
     7
370
    25
100
AcDbLine
 10
-8.3631426546
 20
254.3517221472
 30
0.0
 11
-100.4603585125
 21
240.1554072643
 31
0.0
  0
LINE
  5
3A5
330
2FB
100
AcDbEntity
  8
0
  6
Continuous
 62
     7
370
    25
100
AcDbLine
 10
-258.5853305733
 20
307.1533983607
 30
0.0
 11
-258.593338165
 21
307.2708534717
 31
0.0
  0
LINE
  5
3A6
330
2FB
100
AcDbEntity
  8
0
  6
Continuous
 62
     7
370
    25
100
AcDbLine
 10
53.3553863055
 20
-356.9922785779
 30
0.0
 11
53.3553863055
 21
41.4796376223
 31
0.0
  0
LINE
  5
3A7
330
2FB
100
AcDbEntity
  8
0
  6
Continuous
 62
     7
370
    25
100
AcDbLine
 10
78.58812919
 20
-363.688331743
 30
0.0
 11
78.58812919
 21
34.7835844572
 31
0.0
  0
LINE
  5
3A8
330
2FB
100
AcDbEntity
  8
0
  6
Continuous
 62
     7
370
    25
100
AcDbLine
 10
78.58812919
 20
34.7835844572
 30
0.0
 11
79.154509632
 21
36.2784175614
 31
0.0
  0
LINE
  5
3A9
330
2FB
100
AcDbEntity
  8
0
  6
Continuous
 62
     7
370
    25
100
AcDbLine
 10
53.3553863055
 20
41.4796376223
 30
0.0
 11
-90.8632213825
 21
124.7352676947
 31
0.0
  0
LINE
  5
3AA
330
2FB
100
AcDbEntity
  8
0
  6
Continuous
 62
     7
370
    25
100
AcDbLine
 10
-90.8632213825
 20
124.7352676947
 30
0.0
 11
-89.4487779519
 21
125.5518085065
 31
0.0
  0
LINE
  5
3AB
330
2FB
100
AcDbEntity
  8
0
  6
Continuous
 62
     7
370
    25
100
AcDbLine
 10
78.58812919
 20
-363.688331743
 30
0.0
 11
79.154509632
 21
-362.1934986388
 31
0.0
  0
LINE
  5
3AC
330
2FB
100
AcDbEntity
  8
0
  6
Continuous
 62
     7
370
    25
100
AcDbLine
 10
53.3553863055
 20
-356.9922785779
 30
0.0
 11
-90.8632213825
 21
-273.7366485056
 31
0.0
  0
LINE
  5
3AD
330
2FB
100
AcDbEntity
  8
0
  6
Continuous
 62
     7
370
    25
100
AcDbLine
 10
-90.8632213825
 20
124.7352676947
 30
0.0
 11
-90.8632213825
 21
-273.7366485056
 31
0.0
  0
LINE
  5
3AE
330
2FB
100
AcDbEntity
  8
0
  6
Continuous
 62
     8
370
    25
100
AcDbLine
 10
109.2479976933
 20
83.702355607
 30
0.0
 11
109.2479976933
 21
-356.6020718556
 31
0.0
  0
LINE
  5
3AF
330
2FB
100
AcDbEntity
  8
0
  6
Continuous
 62
     8
370
    25
100
AcDbLine
 10
52.6794551984
 20
43.5029259684
 30
0.0
 11
52.6794551984
 21
78.5379400376
 31
0.0
  0
LINE
  5
3B0
330
2FB
100
AcDbEntity
  8
0
  6
Continuous
 62
     8
370
    25
100
AcDbLine
 10
-235.8201115257
 20
244.534753636
 30
0.0
 11
-235.8201115257
 21
210.0501807803
 31
0.0
  0
LINE
  5
3B1
330
2FB
100
AcDbEntity
  8
0
  6
Continuous
 62
     8
370
    25
100
AcDbLine
 10
38.7994355444
 20
136.6273100439
 30
0.0
 11
39.0766617525
 21
136.4956542982
 31
0.0
  0
LINE
  5
3B2
330
2FB
100
AcDbEntity
  8
0
  6
Continuous
 62
     8
370
    25
100
AcDbLine
 10
10.5842899892
 20
253.9322764225
 30
0.0
 11
112.4189158237
 21
195.1443982634
 31
0.0
  0
LINE
  5
3B3
330
2FB
100
AcDbEntity
  8
0
  6
Continuous
 62
     8
370
    25
100
AcDbLine
 10
-102.665166732
 20
236.6399177449
 30
0.0
 11
74.7876682556
 21
134.1985766318
 31
0.0
  0
LINE
  5
3B4
330
2FB
100
AcDbEntity
  8
0
  6
Continuous
 62
     8
370
    25
100
AcDbLine
 10
111.2830946473
 20
192.6887539265
 30
0.0
 11
9.1758843109
 21
251.633991769
 31
0.0
  0
ARC
  5
3B5
330
2FB
100
AcDbEntity
  8
0
  6
Continuous
 62
     7
370
    25
100
AcDbCircle
 10
81.8665745099
 20
-304.8963689043
 30
0.0
 40
58.5083075574051
100
AcDbArc
 50
267.3431880367
 51
297.904035336
  0
ARC
  5
3B6
330
2FB
100
AcDbEntity
  8
0
  6
Continuous
 62
     7
370
    25
100
AcDbCircle
 10
79.5348357283
 20
93.6269427885
 30
0.0
 40
56.8650026429576
100
AcDbArc
 50
241.8185423295
 51
269.6167899129
  0
ARC
  5
3B7
330
2FB
100
AcDbEntity
  8
0
  6
Continuous
 62
     7
370
    25
100
AcDbCircle
 10
52.006016293
 20
122.5130727025
 30
0.0
 40
7.617437325592356
100
AcDbArc
 50
122.4404541696
 51
179.2919517135
  0
ARC
  5
3B8
330
2FB
100
AcDbEntity
  8
0
  6
Continuous
 62
     7
370
    25
100
AcDbCircle
 10
100.0219416621
 20
122.5130727025
 30
0.0
 40
7.617437325592496
100
AcDbArc
 50
0.7080482865
 51
57.5595458304
  0
ARC
  5
3B9
330
2FB
100
AcDbEntity
  8
0
  6
Continuous
 62
     7
370
    25
100
AcDbCircle
 10
38.0908425172
 20
134.1063899289
 30
0.0
 40
2.618614577333101
100
AcDbArc
 50
74.3001192146
 51
125.2776631606
  0
ARC
  5
3BA
330
2FB
100
AcDbEntity
  8
0
  6
Continuous
 62
     7
370
    25
100
AcDbCircle
 10
266.1920352409
 20
218.4410258417
 30
0.0
 40
7.617437325592288
100
AcDbArc
 50
0.7080482865
 51
57.5595458304
  0
ARC
  5
3BB
330
2FB
100
AcDbEntity
  8
0
  6
Continuous
 62
     7
370
    25
100
AcDbCircle
 10
-237.9077639934
 20
289.8767356262
 30
0.0
 40
7.61743732559249
100
AcDbArc
 50
122.4404541696
 51
179.2919517135
  0
ARC
  5
3BC
330
2FB
100
AcDbEntity
  8
0
  6
Continuous
 62
     7
370
    25
100
AcDbCircle
 10
-227.8297620486
 20
287.4601689591
 30
0.0
 40
2.752407722256679
100
AcDbArc
 50
73.6110220943
 51
123.391342856
  0
ARC
  5
3BD
330
2FB
100
AcDbEntity
  8
0
  6
Continuous
 62
     7
370
    25
100
AcDbCircle
 10
270.1013633795
 20
178.7043982544
 30
0.0
 40
1.860129683769865
100
AcDbArc
 50
303.6917150214
 51
3.5441051177
  0
ARC
  5
3BE
330
2FB
100
AcDbEntity
  8
0
  6
Continuous
 62
     7
370
    25
100
AcDbCircle
 10
-103.2702224975
 20
237.5249559124
 30
0.0
 40
1.072093763268573
100
AcDbArc
 50
253.7333686119
 51
304.3584384252
  0
ARC
  5
3BF
330
2FB
100
AcDbEntity
  8
0
  6
Continuous
 62
     7
370
    25
100
AcDbCircle
 10
141.9289006401
 20
274.0984989936
 30
0.0
 40
7.771570880311003
100
AcDbArc
 50
122.8065806716
 51
174.1928743924
  0
ARC
  5
3C0
330
2FB
100
AcDbEntity
  8
0
  6
Continuous
 62
     7
370
    25
100
AcDbCircle
 10
-227.1610783558
 20
314.9212326099
 30
0.0
 40
12.80744530215122
100
AcDbArc
 50
4.6554802727
 51
31.905291835
  0
ARC
  5
3C1
330
2FB
100
AcDbEntity
  8
0
  6
Continuous
 62
     7
370
    25
100
AcDbCircle
 10
-30.3674533883
 20
346.4236171107
 30
0.0
 40
19.06420350978635
100
AcDbArc
 50
1.2025789534
 51
21.1883311911
  0
ARC
  5
3C2
330
2FB
100
AcDbEntity
  8
0
  6
Continuous
 62
     7
370
    25
100
AcDbCircle
 10
24.9778079874
 20
341.6129277019
 30
0.0
 40
7.771570887271015
100
AcDbArc
 50
122.8065807337
 51
174.1928744042
  0
ARC
  5
3C3
330
2FB
100
AcDbEntity
  8
0
  6
Continuous
 62
     7
370
    25
100
AcDbCircle
 10
7.4916147001
 20
254.2468075166
 30
0.0
 40
3.10862835551898
100
AcDbArc
 50
302.8065807473
 51
354.1928744067
  0
ARC
  5
3C4
330
2FB
100
AcDbEntity
  8
0
  6
Continuous
 62
     7
370
    25
100
AcDbCircle
 10
-77.2868587417
 20
422.6417516726
 30
0.0
 40
2.501016409781898
100
AcDbArc
 50
54.19908268
 51
114.4904588909
  0
ARC
  5
3C5
330
2FB
100
AcDbEntity
  8
0
  6
Continuous
 62
     7
370
    25
100
AcDbCircle
 10
-1.2529769133
 20
257.1079079134
 30
0.0
 40
7.625681402129699
100
AcDbArc
 50
181.2025789538
 51
201.1883311962
  0
ARC
  5
3C6
330
2FB
100
AcDbEntity
  8
0
  6
Continuous
 62
     7
370
    25
100
AcDbCircle
 10
-93.3501927797
 20
242.9115930305
 30
0.0
 40
7.625681394196185
100
AcDbArc
 50
181.2025789555
 51
201.1883312191
  0
ARC
  5
3C7
330
2FB
100
AcDbEntity
  8
0
  6
Continuous
 62
     7
370
    25
100
AcDbCircle
 10
80.0049215637
 20
91.012794282
 30
0.0
 40
56.24705626210351
100
AcDbArc
 50
241.7191232795
 51
268.5566389546
  0
ARC
  5
3C8
330
2FB
100
AcDbEntity
  8
0
  6
Continuous
 62
     7
370
    25
100
AcDbCircle
 10
80.0049215637
 20
-307.4591219182
 30
0.0
 40
56.24705626210321
100
AcDbArc
 50
241.7191232795
 51
268.5566389546
  0
ARC
  5
3C9
330
2FB
100
AcDbEntity
  8
0
  6
Continuous
 62
     8
370
    25
100
AcDbCircle
 10
90.7298722352
 20
140.1660499686
 30
0.0
 40
3.797425436973158
100
AcDbArc
 50
72.1761985136
 51
139.3273598371
  0
ARC
  5
3CA
330
2FB
100
AcDbEntity
  8
0
  6
Continuous
 62
     8
370
    25
100
AcDbCircle
 10
103.931664509
 20
82.7763378057
 30
0.0
 40
1.859742368513452
100
AcDbArc
 50
303.6456847993
 51
3.54815655
  0
ARC
  5
3CB
330
2FB
100
AcDbEntity
  8
0
  6
Continuous
 62
     8
370
    25
100
AcDbCircle
 10
48.0963028066
 20
82.7763403504
 30
0.0
 40
1.859751553566707
100
AcDbArc
 50
176.451939544
 51
236.3532229825
  0
ARC
  5
3CC
330
2FB
100
AcDbEntity
  8
0
  6
Continuous
 62
     8
370
    25
100
AcDbCircle
 10
145.7458218993
 20
257.3156013715
 30
0.0
 40
4.161551887368427
100
AcDbArc
 50
77.1356353484
 51
150.5768207304
  0
ARC
  5
3CD
330
2FB
100
AcDbEntity
  8
0
  6
Continuous
 62
     8
370
    25
100
AcDbCircle
 10
-241.817092132
 20
250.1401080389
 30
0.0
 40
1.860129683769865
100
AcDbArc
 50
176.4558948823
 51
236.3082849786
  0
ARC
  5
3CE
330
2FB
100
AcDbEntity
  8
0
  6
Continuous
 62
     8
370
    25
100
AcDbCircle
 10
-243.4568094361
 20
326.7142041286
 30
0.0
 40
2.500603869737669
100
AcDbArc
 50
54.1963016579
 51
114.5216970144
  0
VIEWPORT
  5
551
330
2FB
100
AcDbEntity
  8
0
100
AcDbViewport
 10
0.0
 20
0.0
 30
0.0
 40
205.6
 41
156.0
 68
     1
 69
     1
 12
0.0
 22
29.5
 13
0.0
 23
0.0
 14
10.0
 24
10.0
 15
10.0
 25
10.0
 16
0.0
 26
0.0
 36
1.0
 17
0.0
 27
0.0
 37
0.0
 42
50.0
 43
0.0
 44
0.0
 45
610.98
 50
0.0
 51
0.0
 72
   100
 90
   557152
  1

281
     0
 71
     1
 74
     0
110
0.0
120
0.0
130
0.0
111
1.0
121
0.0
131
0.0
112
0.0
122
1.0
132
0.0
 79
     0
146
0.0
  0
ENDBLK
  5
2FE
330
2FB
100
AcDbEntity
  8
0
100
AcDbBlockEnd
  0
BLOCK
  5
3D1
330
3CF
100
AcDbEntity
  8
0
100
AcDbBlockBegin
  2
*Paper_Space5
 70
     0
 10
0.0
 20
0.0
 30
0.0
  3
*Paper_Space5
  1

  0
SPLINE
  5
3D4
330
3CF
100
AcDbEntity
  8
0
  6
Continuous
 62
     7
370
    25
100
AcDbSpline
210
0.0
220
0.0
230
1.0
 70
     8
 71
     3
 72
    27
 73
    23
 74
     0
 42
0.000000001
 43
0.00000001
 40
0.0
 40
0.0
 40
0.0
 40
0.0
 40
0.0361862267402941
 40
0.0902369510264114
 40
0.1415379877584454
 40
0.1960522013803548
 40
0.2494155110163843
 40
0.3029980595603571
 40
0.3567566641440451
 40
0.4104435874433613
 40
0.4637982222056066
 40
0.5166423252273518
 40
0.569029168201058
 40
0.620535218197818
 40
0.6732165599016862
 40
0.7266838043950701
 40
0.7804961217104298
 40
0.8340619339023081
 40
0.8868788404267616
 40
0.9385472022563324
 40
0.9903899175258195
 40
1.0
 40
1.0
 40
1.0
 40
1.0
 10
146.2934821015047
 20
184.8194463418343
 30
0.0
 10
146.1942842586299
 20
184.5923415367752
 30
0.0
 10
145.9469163594108
 20
184.0260143173319
 30
0.0
 10
145.2841093030375
 20
183.0544424994609
 30
0.0
 10
144.3292188712337
 20
181.9413837839975
 30
0.0
 10
143.0822833015354
 20
180.8000803385285
 30
0.0
 10
141.5390491842207
 20
179.6535876165975
 30
0.0
 10
139.7409403163313
 20
178.55256736885
 30
0.0
 10
137.6957528978304
 20
177.5156471698619
 30
0.0
 10
135.4298900737309
 20
176.5680334053067
 30
0.0
 10
132.9763306497394
 20
175.7320706805823
 30
0.0
 10
130.3693428817196
 20
175.0238323318138
 30
0.0
 10
127.6453237622161
 20
174.4598412830822
 30
0.0
 10
124.8143156014357
 20
174.0350166189584
 30
0.0
 10
121.8880750218559
 20
173.749009838624
 30
0.0
 10
118.8733944716304
 20
173.6067755398661
 30
0.0
 10
115.8275525937009
 20
173.6152508875246
 30
0.0
 10
112.812686754897
 20
173.7770402759746
 30
0.0
 10
109.8872966970382
 20
174.0854659461736
 30
0.0
 10
107.0879511654276
 20
174.5455626809646
 30
0.0
 10
105.1337720188655
 20
174.9641281768281
 30
0.0
 10
104.1063880933309
 20
175.2344918701843
 30
0.0
 10
103.9457242241574
 20
175.2767717579449
 30
0.0
  0
SPLINE
  5
3D5
330
3CF
100
AcDbEntity
  8
0
  6
Continuous
 62
     7
370
    25
100
AcDbSpline
210
0.0
220
0.0
230
1.0
 70
     8
 71
     3
 72
    17
 73
    13
 74
     0
 42
0.000000001
 43
0.00000001
 40
0.0
 40
0.0
 40
0.0
 40
0.0
 40
0.0047897439917556
 40
0.0170721886207317
 40
0.042947707582331
 40
0.5513811504324939
 40
0.8055978718575753
 40
0.9327062325701161
 40
0.9644833227482512
 40
0.9883161403818523
 40
0.9983127093692271
 40
1.0
 40
1.0
 40
1.0
 40
1.0
 10
103.9799216379257
 20
175.3163952813424
 30
0.0
 10
103.4404978860571
 20
175.4465161475538
 30
0.0
 10
101.5178180822396
 20
175.9103087793264
 30
0.0
 10
96.78837393157978
 20
177.236589540889
 30
0.0
 10
36.08365816177895
 20
193.576883305143
 30
0.0
 10
-51.18414161011422
 20
217.4713679461701
 30
0.0
 10
-149.8420291950942
 20
244.2375803058378
 30
0.0
 10
-195.6168126528501
 20
256.6971375330514
 30
0.0
 10
-215.8813067167891
 20
262.1890454039365
 30
0.0
 10
-223.1377141262218
 20
264.1818994488301
 30
0.0
 10
-227.095359466717
 20
265.229618977711
 30
0.0
 10
-228.3273195780487
 20
265.6165765014907
 30
0.0
 10
-228.5052295171675
 20
265.6724578477001
 30
0.0
  0
SPLINE
  5
3D6
330
3CF
100
AcDbEntity
  8
0
  6
Continuous
 62
     7
370
    25
100
AcDbSpline
210
0.0
220
0.0
230
1.0
 70
     8
 71
     3
 72
    25
 73
    21
 74
     0
 42
0.000000001
 43
0.00000001
 40
0.0
 40
0.0
 40
0.0
 40
0.0
 40
0.0303992815031634
 40
0.08787324821793
 40
0.145232880973054
 40
0.2024956227018504
 40
0.2596928959934646
 40
0.3168562304007472
 40
0.3740170617613471
 40
0.431200040121369
 40
0.4884338069243234
 40
0.5457514745266494
 40
0.6031873429788934
 40
0.6607765677023542
 40
0.7185536274316037
 40
0.7765484479484084
 40
0.8347781893623513
 40
0.8932315831232464
 40
0.9518421308674362
 40
1.0
 40
1.0
 40
1.0
 40
1.0
 10
116.9671204720113
 20
119.9563234996964
 30
0.0
 10
117.5462784270347
 20
119.8043859427057
 30
0.0
 10
119.2204130849166
 20
119.3651898170446
 30
0.0
 10
122.0884851573125
 20
118.7602091047253
 30
0.0
 10
125.5830399848643
 20
118.1980771678888
 30
0.0
 10
129.1512733107211
 20
117.8044656765814
 30
0.0
 10
132.7652298383561
 20
117.5784286628004
 30
0.0
 10
136.4001852736618
 20
117.5216128078233
 30
0.0
 10
140.0302745683128
 20
117.6340125052634
 30
0.0
 10
143.6298614260827
 20
117.9150660655873
 30
0.0
 10
147.1735375346956
 20
118.3633706780799
 30
0.0
 10
150.6365441488426
 20
118.9768697513707
 30
0.0
 10
153.9948559857036
 20
119.7529509039286
 30
0.0
 10
157.225181091434
 20
120.6886184775318
 30
0.0
 10
160.3051728879392
 20
121.780577616683
 30
0.0
 10
163.2126125383676
 20
123.0257370963316
 30
0.0
 10
165.9276960384417
 20
124.4200227432412
 30
0.0
 10
168.4225692688031
 20
125.96292389733
 30
0.0
 10
170.5620777453957
 20
127.5393212565322
 30
0.0
 10
171.7624266931312
 20
128.6516278375581
 30
0.0
 10
172.3038438015744
 20
129.1533334573592
 30
0.0
  0
SPLINE
  5
3D9
330
3CF
100
AcDbEntity
  8
0
  6
Continuous
 62
     7
370
    25
100
AcDbSpline
210
0.0
220
0.0
230
1.0
 70
     8
 71
     3
 72
    33
 73
    29
 74
     0
 42
0.000000001
 43
0.00000001
 40
0.0
 40
0.0
 40
0.0
 40
0.0
 40
0.0062181157394696
 40
0.0552091171300429
 40
0.0954148802328854
 40
0.1339677147985646
 40
0.1749427092421509
 40
0.2152592594383401
 40
0.2554909049697415
 40
0.2958516526491924
 40
0.3364390267497496
 40
0.3772508594625226
 40
0.4182473901471991
 40
0.4593773164498338
 40
0.5005877313817237
 40
0.5418268632388801
 40
0.5830339615624102
 40
0.6241500152464493
 40
0.6651206208858514
 40
0.7058894308262705
 40
0.7464029428337761
 40
0.7866250905148712
 40
0.8265725706787468
 40
0.8663914453345409
 40
0.906347324397062
 40
0.9471911830046138
 40
0.9904816393099201
 40
1.0
 40
1.0
 40
1.0
 40
1.0
 10
205.8488510667363
 20
265.4948954154731
 30
0.0
 10
205.8535647342356
 20
265.4533998801512
 30
0.0
 10
205.8954162262284
 20
265.0849712490423
 30
0.0
 10
205.7225738256698
 20
264.4500009261739
 30
0.0
 10
205.3010134939637
 20
263.5255574486163
 30
0.0
 10
204.617714251111
 20
262.6159693750017
 30
0.0
 10
203.6552602691852
 20
261.6957054526508
 30
0.0
 10
202.3941850346848
 20
260.7947931288912
 30
0.0
 10
200.8842829807038
 20
259.9637173438883
 30
0.0
 10
199.1454480513895
 20
259.2223088258052
 30
0.0
 10
197.2055264528096
 20
258.5896345016617
 30
0.0
 10
195.0979376420567
 20
258.0823079034797
 30
0.0
 10
192.8612560909063
 20
257.7137910988003
 30
0.0
 10
190.5374103607874
 20
257.493840664511
 30
0.0
 10
188.1703679000866
 20
257.4283483466763
 30
0.0
 10
185.8052697054756
 20
257.5193124320611
 30
0.0
 10
183.4874891863763
 20
257.7647680504882
 30
0.0
 10
181.2616363762642
 20
258.1587162142241
 30
0.0
 10
179.1705259572849
 20
258.6910752587811
 30
0.0
 10
177.2543295056379
 20
259.3475375222976
 30
0.0
 10
175.5494608402594
 20
260.1093124817114
 30
0.0
 10
174.0871565772045
 20
260.952988621004
 30
0.0
 10
172.8903611077548
 20
261.85075961661
 30
0.0
 10
171.9748417150534
 20
262.7710890167878
 30
0.0
 10
171.3331123824188
 20
263.682359338359
 30
0.0
 10
170.973908346933
 20
264.5690225119
 30
0.0
 10
170.8269238845845
 20
265.1879413171023
 30
0.0
 10
170.8792842795237
 20
265.5418170863814
 30
0.0
 10
170.8887218157774
 20
265.6056003218925
 30
0.0
  0
SPLINE
  5
3DA
330
3CF
100
AcDbEntity
  8
0
  6
Continuous
 62
     7
370
    25
100
AcDbSpline
210
0.0
220
0.0
230
1.0
 70
     8
 71
     3
 72
    10
 73
     6
 74
     0
 42
0.000000001
 43
0.00000001
 40
0.0
 40
0.0
 40
0.0
 40
0.0
 40
0.1995934195695714
 40
0.6567166794481063
 40
1.0
 40
1.0
 40
1.0
 40
1.0
 10
-228.5068332161292
 20
265.6674198779715
 30
0.0
 10
-228.8676052247879
 20
265.7737152107218
 30
0.0
 10
-230.0546433349376
 20
266.1234557889192
 30
0.0
 10
-231.7759478449593
 20
266.7123770574802
 30
0.0
 10
-233.0287843071262
 20
267.2314161921041
 30
0.0
 10
-233.5661085512746
 20
267.4540249037094
 30
0.0
  0
SPLINE
  5
3DB
330
3CF
100
AcDbEntity
  8
0
  6
Continuous
 62
     7
370
    25
100
AcDbSpline
210
0.0
220
0.0
230
1.0
 70
     8
 71
     3
 72
    14
 73
    10
 74
     0
 42
0.000000001
 43
0.00000001
 40
0.0
 40
0.0
 40
0.0
 40
0.0
 40
0.08909027701267
 40
0.2519697647126076
 40
0.4122959588433773
 40
0.5683448730356214
 40
0.7198895191885408
 40
0.8675832706574531
 40
0.9999999999999999
 40
0.9999999999999999
 40
0.9999999999999999
 40
0.9999999999999999
 10
-265.4398104379797
 20
295.7132437865214
 30
0.0
 10
-265.7899901263721
 20
295.359482104858
 30
0.0
 10
-266.7803865719778
 20
294.3589548791949
 30
0.0
 10
-268.1874006982918
 20
292.6124831937313
 30
0.0
 10
-269.5424217163381
 20
290.4567242941359
 30
0.0
 10
-270.5568698031624
 20
288.2322642472528
 30
0.0
 10
-271.2190375242602
 20
285.9765270544433
 30
0.0
 10
-271.5606612264908
 20
283.7799896002084
 30
0.0
 10
-271.5192786668225
 20
282.345375232433
 30
0.0
 10
-271.4997158743586
 20
281.667189461239
 30
0.0
  0
SPLINE
  5
3DD
330
3CF
100
AcDbEntity
  8
0
  6
Continuous
 62
     7
370
    25
100
AcDbSpline
210
0.0
220
0.0
230
1.0
 70
     8
 71
     3
 72
    20
 73
    16
 74
     0
 42
0.000000001
 43
0.00000001
 40
0.0
 40
0.0
 40
0.0
 40
0.0
 40
0.0213755127184439
 40
0.0968898815522902
 40
0.1727346269347076
 40
0.2497229172524784
 40
0.3284298984675175
 40
0.4090837238758506
 40
0.4915296980189316
 40
0.575320378911249
 40
0.6599054596950953
 40
0.7448097471014057
 40
0.829651810829665
 40
0.9142928672518084
 40
1.0
 40
1.0
 40
1.0
 40
1.0
 10
-268.8570676305906
 20
238.7865598250315
 30
0.0
 10
-268.853201478815
 20
238.5876041405575
 30
0.0
 10
-268.8356771746011
 20
237.6857875171738
 30
0.0
 10
-268.4876432331155
 20
236.097197434166
 30
0.0
 10
-267.8153635162046
 20
234.0532629185418
 30
0.0
 10
-266.8201181713058
 20
232.0663474284565
 30
0.0
 10
-265.5338337449617
 20
230.1406986085104
 30
0.0
 10
-263.9483292613394
 20
228.2856525775627
 30
0.0
 10
-262.0704859622244
 20
226.514770093713
 30
0.0
 10
-259.9118148312232
 20
224.8446751125263
 30
0.0
 10
-257.4919789916427
 20
223.292352386503
 30
0.0
 10
-254.8372135134545
 20
221.8712944295881
 30
0.0
 10
-251.9709271213669
 20
220.5961149202782
 30
0.0
 10
-248.9170087390914
 20
219.4539035211335
 30
0.0
 10
-246.7397511087628
 20
218.8235097678994
 30
0.0
 10
-245.6443094157314
 20
218.5063403201042
 30
0.0
  0
LWPOLYLINE
  5
3E1
330
3CF
100
AcDbEntity
  8
0
  6
Continuous
 62
     7
370
    25
100
AcDbPolyline
 90
        9
 70
   128
 43
0.0
 10
-260.2385096136
 20
187.7898650267
 10
-258.7917012487
 20
186.1235904237
 10
-257.0642087938
 20
184.5298128136
 10
-255.0695931378
 20
183.0210434184
 10
-252.8235120981
 20
181.6091261416
 10
-250.3435975059
 20
180.3051445936
 10
-247.6493167959
 20
179.1193350848
 10
-244.7618201856
 20
178.0610062701
 10
-241.7037746457
 20
177.1384660755
  0
LWPOLYLINE
  5
3E7
330
3CF
100
AcDbEntity
  8
0
  6
Continuous
 62
     7
370
    25
100
AcDbPolyline
 90
        9
 70
   128
 43
0.0
 10
-241.7037746457
 20
-241.1591766671
 10
-244.7618201856
 20
-240.2366364725
 10
-247.6493167959
 20
-239.1783076578
 10
-250.3435975059
 20
-237.992498149
 10
-252.8235120981
 20
-236.6885166011
 10
-255.0695931378
 20
-235.2765993242
 10
-257.0642087938
 20
-233.767829929
 10
-258.7917012487
 20
-232.174052319
 10
-260.2385096136
 20
-230.5077777159
  0
LWPOLYLINE
  5
3EB
330
3CF
100
AcDbEntity
  8
0
  6
Continuous
 62
     7
370
    25
100
AcDbPolyline
 90
        9
 70
   128
 43
0.0
 10
174.0287843801
 20
-330.8525056014
 10
171.9034535751
 20
-332.6891573058
 10
169.4199689686
 20
-334.402466147
 10
166.6050804001
 20
-335.9739779191
 10
163.4891072914
 20
-337.3867657254
 10
160.1056120733
 20
-338.6256122993
 10
156.4910386817
 20
-339.6771739113
 10
152.6843200167
 20
-340.5301240952
 10
148.7264585927
 20
-341.1752756468
  0
LWPOLYLINE
  5
3F4
330
3CF
100
AcDbEntity
  8
0
  6
Continuous
 62
     7
370
    25
100
AcDbPolyline
 90
        9
 70
   128
 43
0.0
 10
-240.8583496886
 20
178.6230322888
 10
-244.0468637144
 20
179.5892261101
 10
-247.0484259446
 20
180.7030063495
 10
-249.8373620114
 20
181.9548461002
 10
-252.3898162804
 20
183.3340375403
 10
-254.6839559042
 20
184.8287835233
 10
-256.7001575733
 20
186.4262984879
 10
-258.4211753672
 20
188.1129178209
 10
-259.8322882704
 20
189.8742147396
  0
LWPOLYLINE
  5
3F5
330
3CF
100
AcDbEntity
  8
0
  6
Continuous
 62
     7
370
    25
100
AcDbPolyline
 90
       18
 70
   128
 43
0.0
 10
175.3578490903
 20
173.0605818466
 10
173.263234165
 20
171.2267217796
 10
170.8490210006
 20
169.5002243367
 10
168.1358068127
 20
167.8958193852
 10
165.1467397881
 20
166.4271951426
 10
161.9073215926
 20
165.106881393
 10
158.4451898001
 20
163.9461425878
 10
154.7898820985
 20
162.9548817413
 10
150.9725842841
 20
162.1415559414
 10
147.025864196
 20
161.5131041971
 10
142.9833938583
 20
161.0748882372
 10
138.8796622028
 20
160.8306467656
 10
134.7496808209
 20
160.7824635646
 10
130.6286852575
 20
160.9307497161
 10
126.5518343939
 20
161.2742400951
 10
122.5539104841
 20
161.8100041626
 10
118.6690224053
 20
162.5334709687
 10
114.9303146528
 20
163.4384681495
  0
LWPOLYLINE
  5
3F7
330
3CF
100
AcDbEntity
  8
0
  6
Continuous
 62
     7
370
    25
100
AcDbPolyline
 90
       17
 70
   128
 43
0.0
 10
117.2605936484
 20
170.2230317425
 10
120.7940949034
 20
169.3741141381
 10
124.472139296
 20
168.7076644906
 10
128.2593052481
 20
168.2301010743
 10
132.1191202812
 20
167.946023086
 10
136.0144122667
 20
167.8581663521
 10
139.9076674132
 20
167.9673769808
 10
143.7613915456
 20
168.2726032141
 10
147.5384711937
 20
168.7709055566
 10
151.2025310157
 20
169.4574850843
 10
154.7182841126
 20
170.3257296611
 10
158.0518718602
 20
171.3672776169
 10
161.1711899861
 20
172.5720982757
 10
164.0461977516
 20
173.9285885559
 10
166.6492072603
 20
175.4236847145
 10
168.9551501076
 20
177.0429881582
 10
170.9418188034
 20
178.7709041097
  0
LWPOLYLINE
  5
3FA
330
3CF
100
AcDbEntity
  8
0
  6
Continuous
 62
     7
370
    25
100
AcDbPolyline
 90
       18
 70
   128
 43
0.0
 10
116.1519580422
 20
121.8173251841
 10
119.6718445823
 20
120.9652961926
 10
123.3293557234
 20
120.284172863
 10
127.0932868701
 20
119.7797662993
 10
130.9315254891
 20
119.4563799205
 10
134.8113250817
 20
119.3167727451
 10
138.6995845657
 20
119.3621358524
 10
142.5631306823
 20
119.5920822203
 10
146.3690010183
 20
120.0046500274
 10
150.0847252297
 20
120.5963193908
 10
153.6786020678
 20
121.3620423959
 10
157.1199698426
 20
122.2952861642
 10
160.3794680176
 20
123.3880885888
 10
163.4292877036
 20
124.6311262648
 10
166.2434089144
 20
126.013794033
 10
168.7978225601
 20
127.5242954595
 10
171.0707352841
 20
129.1497434787
 10
173.0427553965
 20
130.8762703413
  0
LWPOLYLINE
  5
3FE
330
3CF
100
AcDbEntity
  8
0
  6
Continuous
 62
     7
370
    25
100
AcDbPolyline
 90
       17
 70
   128
 43
0.0
 10
-261.9474196447
 20
296.4209234255
 10
-263.5956814834
 20
294.6010357414
 10
-264.8896628024
 20
292.706702838
 10
-265.8169018544
 20
290.7561681767
 10
-266.3684688203
 20
288.7682164725
 10
-266.5390518087
 20
286.7619927871
 10
-266.3270080123
 20
284.7568181513
 10
-265.7343795286
 20
282.772003493
 10
-264.766873694
 20
280.8266636622
 10
-263.4338081186
 20
278.9395333451
 10
-261.7480209525
 20
277.1287866382
 10
-259.7257472477
 20
275.4118620222
 10
-257.3864626055
 20
273.8052944196
 10
-254.7526956158
 20
272.3245559547
 10
-251.8498108944
 20
270.9839069484
 10
-248.705764808
 20
269.7962585834
 10
-245.3508362393
 20
268.7730485629
  0
SPLINE
  5
401
330
3CF
100
AcDbEntity
  8
0
  6
Continuous
 62
     7
370
    25
100
AcDbSpline
210
0.0
220
0.0
230
1.0
 70
     8
 71
     3
 72
    46
 73
    42
 74
     0
 42
0.000000001
 43
0.00000001
 40
0.0
 40
0.0
 40
0.0
 40
0.0
 40
0.0624999999999994
 40
0.0624999999999994
 40
0.0937499999999997
 40
0.0937499999999997
 40
0.125
 40
0.125
 40
0.1875000000000006
 40
0.1875000000000006
 40
0.2500000000000013
 40
0.2500000000000013
 40
0.2812500000000018
 40
0.2812500000000018
 40
0.3125000000000023
 40
0.3125000000000023
 40
0.3750000000000016
 40
0.3750000000000016
 40
0.4062500000000008
 40
0.4062500000000008
 40
0.4375000000000006
 40
0.4375000000000006
 40
0.4999999999999999
 40
0.4999999999999999
 40
0.5624999999999993
 40
0.5624999999999993
 40
0.5937499999999992
 40
0.5937499999999992
 40
0.6249999999999991
 40
0.6249999999999991
 40
0.6874999999999997
 40
0.6874999999999997
 40
0.7500000000000001
 40
0.7500000000000001
 40
0.7812500000000001
 40
0.7812500000000001
 40
0.8125
 40
0.8125
 40
0.875
 40
0.875
 40
1.0
 40
1.0
 40
1.0
 40
1.0
 10
-229.91591360924
 20
265.1167810916531
 30
0.0
 10
-231.1536085672099
 20
265.4659922527528
 30
0.0
 10
-232.3400558840706
 20
265.8537685751133
 30
0.0
 10
-234.0435524424464
 20
266.4927562565351
 30
0.0
 10
-234.598860661169
 20
266.7151767562761
 30
0.0
 10
-235.6839716477522
 20
267.1792112601663
 30
0.0
 10
-236.2105199207588
 20
267.4195913512513
 30
0.0
 10
-237.7363649101183
 20
268.1622309966383
 30
0.0
 10
-238.6847861790293
 20
268.6872928953499
 30
0.0
 10
-240.448065319949
 20
269.7955886037661
 30
0.0
 10
-241.2623818374973
 20
270.3790581938134
 30
0.0
 10
-242.3801843242642
 20
271.2994157820845
 30
0.0
 10
-242.7357944388753
 20
271.6143541110487
 30
0.0
 10
-243.4018270506982
 20
272.250312568957
 30
0.0
 10
-243.7136900082297
 20
272.5723740430137
 30
0.0
 10
-244.5873291071068
 20
273.5505137431772
 30
0.0
 10
-245.0871077772104
 20
274.2185564521079
 30
0.0
 10
-245.7136478576559
 20
275.2443821611125
 30
0.0
 10
-245.9019931170019
 20
275.590280500589
 30
0.0
 10
-246.2372048806846
 20
276.2900818907329
 30
0.0
 10
-246.3843296516329
 20
276.6447538702649
 30
0.0
 10
-246.7596559928404
 20
277.7160941152717
 30
0.0
 10
-246.9191286369918
 20
278.4306482300547
 30
0.0
 10
-247.068484441996
 20
279.8603681088305
 30
0.0
 10
-247.0568467056097
 20
280.575539358161
 30
0.0
 10
-246.91163497932
 20
281.6487569996381
 30
0.0
 10
-246.8421051375521
 20
282.0065724072225
 30
0.0
 10
-246.660146752789
 20
282.7223579428153
 30
0.0
 10
-246.5471160262639
 20
283.0816514449837
 30
0.0
 10
-246.1457098158047
 20
284.1471719436989
 30
0.0
 10
-245.7968824736386
 20
284.8421317116538
 30
0.0
 10
-244.9478519819916
 20
286.203374040926
 30
0.0
 10
-244.4464993077402
 20
286.8694388319135
 30
0.0
 10
-243.5813718234365
 20
287.8471102150516
 30
0.0
 10
-243.2741735298637
 20
288.1694348769038
 30
0.0
 10
-242.6218630248582
 20
288.8069016443179
 30
0.0
 10
-242.2756875103932
 20
289.1229018869161
 30
0.0
 10
-241.1864867635155
 20
290.0536385450216
 30
0.0
 10
-240.3984098875831
 20
290.647089106209
 30
0.0
 10
-237.8597195940585
 20
292.3512823715104
 30
0.0
 10
-235.9362836840974
 20
293.3865813471059
 30
0.0
 10
-233.78070844889
 20
294.3205424933924
 30
0.0
  0
SPLINE
  5
402
330
3CF
100
AcDbEntity
  8
0
  6
Continuous
 62
     7
370
    25
100
AcDbSpline
210
0.0
220
0.0
230
1.0
 70
     8
 71
     3
 72
    25
 73
    21
 74
     0
 42
0.000000001
 43
0.00000001
 40
0.0
 40
0.0
 40
0.0
 40
0.0
 40
0.00390625
 40
0.00390625
 40
0.0078124999999999
 40
0.0156250000000001
 40
0.0312500000000001
 40
0.0625000000000002
 40
0.1250000000000003
 40
0.2500000000000003
 40
0.5000000000000004
 40
0.7500000000000003
 40
0.8750000000000002
 40
0.9375000000000003
 40
0.9687500000000004
 40
0.9843750000000004
 40
0.9921875000000004
 40
0.9960937500000002
 40
0.9960937500000002
 40
1.0
 40
1.0
 40
1.0
 40
1.0
 10
102.6889660728565
 20
174.7219016545267
 30
0.0
 10
102.2523182888976
 20
174.8361200823182
 30
0.0
 10
101.8209164211807
 20
174.9554590676792
 30
0.0
 10
100.9547578792811
 20
175.1908623998351
 30
0.0
 10
99.65552006643188
 20
175.5439673980686
 30
0.0
 10
96.6239651697835
 20
176.367879060614
 30
0.0
 10
90.56085537648678
 20
178.0157023857044
 30
0.0
 10
78.4346357898937
 20
181.3113490358853
 30
0.0
 10
54.1821966167069
 20
187.9026423362468
 30
0.0
 10
5.677318270332285
 20
201.0852289369684
 30
0.0
 10
-63.61536508163057
 20
219.9174955094292
 30
0.0
 10
-132.9080484335931
 20
238.7497620818896
 30
0.0
 10
-181.4129267799671
 20
251.9323486826123
 30
0.0
 10
-205.6653659531539
 20
258.5236419829736
 30
0.0
 10
-217.7915855397476
 20
261.8192886331541
 30
0.0
 10
-223.8546953330442
 20
263.4671119582446
 30
0.0
 10
-226.8862502296924
 20
264.2910236207892
 30
0.0
 10
-228.185488042542
 20
264.6441286190233
 30
0.0
 10
-229.0516465844416
 20
264.8795319511792
 30
0.0
 10
-229.4864036170079
 20
264.9955963989908
 30
0.0
 10
-229.91591360924
 20
265.116781091653
 30
0.0
  0
SPLINE
  5
403
330
3CF
100
AcDbEntity
  8
0
  6
Continuous
 62
     7
370
    25
100
AcDbSpline
210
0.0
220
0.0
230
1.0
 70
     8
 71
     3
 72
    46
 73
    42
 74
     0
 42
0.000000001
 43
0.00000001
 40
0.0
 40
0.0
 40
0.0
 40
0.0
 40
0.1249999999999964
 40
0.1249999999999964
 40
0.1562499999999959
 40
0.1562499999999959
 40
0.1874999999999953
 40
0.1874999999999953
 40
0.2499999999999948
 40
0.2499999999999948
 40
0.3124999999999943
 40
0.3124999999999943
 40
0.3437499999999941
 40
0.3437499999999941
 40
0.3749999999999937
 40
0.3749999999999937
 40
0.4374999999999934
 40
0.4374999999999934
 40
0.4999999999999932
 40
0.4999999999999932
 40
0.5312499999999931
 40
0.5312499999999931
 40
0.562499999999993
 40
0.562499999999993
 40
0.6249999999999932
 40
0.6249999999999932
 40
0.6562499999999938
 40
0.6562499999999938
 40
0.6874999999999943
 40
0.6874999999999943
 40
0.7499999999999953
 40
0.7499999999999953
 40
0.8124999999999964
 40
0.8124999999999964
 40
0.8437499999999968
 40
0.8437499999999968
 40
0.8749999999999971
 40
0.8749999999999971
 40
0.9374999999999986
 40
0.9374999999999986
 40
1.0
 40
1.0
 40
1.0
 40
1.0
 10
151.6782756595081
 20
189.5610499999719
 30
0.0
 10
151.3980102004914
 20
188.1180111364476
 30
0.0
 10
150.823736617005
 20
186.7122416064599
 30
0.0
 10
149.7337066211871
 20
185.0022093402806
 30
0.0
 10
149.496908152472
 20
184.6625850756894
 30
0.0
 10
148.9845167651337
 20
183.9882542449408
 30
0.0
 10
148.70942005071
 20
183.6543706939119
 30
0.0
 10
147.8345862659624
 20
182.6712772952714
 30
0.0
 10
147.1829133664744
 20
182.0371769286143
 30
0.0
 10
145.7430806626369
 20
180.811437910192
 30
0.0
 10
144.954582014976
 20
180.219904674167
 30
0.0
 10
143.6641961115463
 20
179.3660914845242
 30
0.0
 10
143.2147598385369
 20
179.0861800477142
 30
0.0
 10
142.2869860801264
 20
178.5424222866148
 30
0.0
 10
141.8093707186488
 20
178.278876876272
 30
0.0
 10
140.335098085963
 20
177.5133874093762
 30
0.0
 10
139.297033702491
 20
177.0365783189141
 30
0.0
 10
137.1128430727699
 20
176.1485559042251
 30
0.0
 10
135.9658471306945
 20
175.7378705031953
 30
0.0
 10
134.1584262272423
 20
175.1746088670006
 30
0.0
 10
133.5457743770822
 20
174.9969184655079
 30
0.0
 10
132.3064718738513
 20
174.6630776752282
 30
0.0
 10
131.6788496346247
 20
174.5066539112203
 30
0.0
 10
129.7719537791145
 20
174.0690254981644
 30
0.0
 10
128.4689771715044
 20
173.8190342405825
 30
0.0
 10
126.4666451227965
 20
173.5070814107201
 30
0.0
 10
125.7911625448435
 20
173.4136827504996
 30
0.0
 10
124.4236988948089
 20
173.2486115467632
 30
0.0
 10
123.7309487785844
 20
173.1769638367713
 30
0.0
 10
121.6574643722053
 20
172.9977211819306
 30
0.0
 10
120.2718556345599
 20
172.9242793218907
 30
0.0
 10
117.494166135264
 20
172.8681064454345
 30
0.0
 10
116.1021025281911
 20
172.8851349932256
 30
0.0
 10
114.0090442841346
 20
172.9802360873329
 30
0.0
 10
113.3080038883034
 20
173.0236821263696
 30
0.0
 10
111.9186715705348
 20
173.1332568869341
 30
0.0
 10
111.2307921822746
 20
173.1992951208998
 30
0.0
 10
109.1870127770565
 20
173.4303309292385
 30
0.0
 10
107.8509489240658
 20
173.6282121519291
 30
0.0
 10
105.2302337643164
 20
174.1092043873095
 30
0.0
 10
103.946041078883
 20
174.3930756852233
 30
0.0
 10
102.6889660728565
 20
174.7219016545268
 30
0.0
  0
SPLINE
  5
404
330
3CF
100
AcDbEntity
  8
0
  6
Continuous
 62
     7
370
    25
100
AcDbSpline
210
0.0
220
0.0
230
1.0
 70
     8
 71
     3
 72
    19
 73
    15
 74
     0
 42
0.000000001
 43
0.00000001
 40
0.0
 40
0.0
 40
0.0
 40
0.0
 40
0.4999999999999998
 40
0.7499999999999997
 40
0.8749999999999996
 40
0.9374999999999997
 40
0.9687499999999998
 40
0.9726562499999998
 40
0.9726562499999998
 40
0.9765624999999998
 40
0.9765624999999998
 40
0.9843749999999998
 40
0.9843749999999998
 40
1.0
 40
1.0
 40
1.0
 40
1.0
 10
143.8474366845593
 20
298.1251729695676
 30
0.0
 10
145.2153304324542
 20
280.0323250845722
 30
0.0
 10
147.2671709988712
 20
252.8930532559672
 30
0.0
 10
149.6609850345936
 20
221.2305694567618
 30
0.0
 10
150.857892047836
 20
205.3993275570666
 30
0.0
 10
151.4563455544572
 20
197.4837066072188
 30
0.0
 10
151.7235122984845
 20
193.9499472546084
 30
0.0
 10
151.8196923263341
 20
192.6777938876689
 30
0.0
 10
151.8410656658563
 20
192.3950931394599
 30
0.0
 10
151.8521722542911
 20
192.2537506118911
 30
0.0
 10
151.8741296266529
 20
191.8295107132841
 30
0.0
 10
151.8772166046474
 20
191.5464682689819
 30
0.0
 10
151.851755021541
 20
190.6966921165557
 30
0.0
 10
151.7886430041172
 20
190.129312561091
 30
0.0
 10
151.6782756595084
 20
189.5610499999719
 30
0.0
  0
SPLINE
  5
405
330
3CF
100
AcDbEntity
  8
0
  6
Continuous
 62
     7
370
    25
100
AcDbSpline
210
0.0
220
0.0
230
1.0
 70
     8
 71
     3
 72
    26
 73
    22
 74
     0
 42
0.000000001
 43
0.00000001
 40
0.0
 40
0.0
 40
0.0
 40
0.0
 40
0.1249999999999997
 40
0.1249999999999997
 40
0.2499999999999994
 40
0.2499999999999994
 40
0.3124999999999991
 40
0.3124999999999991
 40
0.3749999999999988
 40
0.3749999999999988
 40
0.4999999999999992
 40
0.4999999999999992
 40
0.6249999999999996
 40
0.6249999999999996
 40
0.6874999999999997
 40
0.6874999999999997
 40
0.7499999999999997
 40
0.7499999999999997
 40
0.8749999999999999
 40
0.8749999999999999
 40
1.0
 40
1.0
 40
1.0
 40
1.0
 10
125.4393660352261
 20
313.1776307001547
 30
0.0
 10
126.7859850648195
 20
312.8116485019494
 30
0.0
 10
128.0690107503975
 20
312.40446146277
 30
0.0
 10
130.5138906828251
 20
311.5115752391443
 30
0.0
 10
131.6757007059157
 20
311.0258474002379
 30
0.0
 10
133.3276994470168
 20
310.2384766846347
 30
0.0
 10
133.8631922186019
 20
309.9661882372721
 30
0.0
 10
134.9031342586108
 20
309.4014969322919
 30
0.0
 10
135.409451003565
 20
309.1078901960252
 30
0.0
 10
136.8639215561237
 20
308.2060452123527
 30
0.0
 10
137.747311729124
 20
307.577884049854
 30
0.0
 10
139.347686462568
 20
306.2696064566277
 30
0.0
 10
140.0649939959424
 20
305.5895908647179
 30
0.0
 10
141.0141471596286
 20
304.5299753583078
 30
0.0
 10
141.3100244714013
 20
304.1691584274767
 30
0.0
 10
141.8545240665539
 20
303.4383395535096
 30
0.0
 10
142.1018414163116
 20
303.0702233275944
 30
0.0
 10
142.7710222367146
 20
301.9579742480013
 30
0.0
 10
143.1207861514472
 20
301.2060139125887
 30
0.0
 10
143.6292199910846
 20
299.681347140126
 30
0.0
 10
143.7882007488201
 20
298.908674448614
 30
0.0
 10
143.8474366845593
 20
298.1251729695676
 30
0.0
  0
SPLINE
  5
407
330
3CF
100
AcDbEntity
  8
0
  6
Continuous
 62
     7
370
    25
100
AcDbSpline
210
0.0
220
0.0
230
1.0
 70
     8
 71
     3
 72
    26
 73
    22
 74
     0
 42
0.000000001
 43
0.00000001
 40
0.0
 40
0.0
 40
0.0
 40
0.0
 40
0.1250000000000002
 40
0.1250000000000002
 40
0.2500000000000004
 40
0.2500000000000004
 40
0.3125000000000009
 40
0.3125000000000009
 40
0.3750000000000014
 40
0.3750000000000014
 40
0.5000000000000008
 40
0.5000000000000008
 40
0.6250000000000002
 40
0.6250000000000002
 40
0.6875000000000002
 40
0.6875000000000002
 40
0.7500000000000001
 40
0.7500000000000001
 40
0.8750000000000001
 40
0.8750000000000001
 40
1.0
 40
1.0
 40
1.0
 40
1.0
 10
-55.35348942874388
 20
352.2637163246951
 30
0.0
 10
-54.06425738004278
 20
352.6807310293329
 30
0.0
 10
-52.73760545463578
 20
353.0487395953009
 30
0.0
 10
-50.01333436303752
 20
353.6918160029729
 30
0.0
 10
-48.61559398912531
 20
353.9667251075862
 30
0.0
 10
-46.46549787247261
 20
354.3090425539256
 30
0.0
 10
-45.73982377786797
 20
354.4113939436681
 30
0.0
 10
-44.27008908436026
 20
354.5920172322885
 30
0.0
 10
-43.52309907469823
 20
354.6705449080411
 30
0.0
 10
-41.27900196748616
 20
354.8669868851492
 30
0.0
 10
-39.78089954910122
 20
354.9463325068558
 30
0.0
 10
-36.78075475995904
 20
355.0052223285381
 30
0.0
 10
-35.27870428146915
 20
354.9845611546475
 30
0.0
 10
-33.02259467499378
 20
354.8767191222715
 30
0.0
 10
-32.26806079620892
 20
354.8277765901017
 30
0.0
 10
-30.76710903806158
 20
354.7043365118924
 30
0.0
 10
-30.02451351129906
 20
354.6302313873089
 30
0.0
 10
-27.81975169666332
 20
354.371729345821
 30
0.0
 10
-26.38050028096661
 20
354.1513184742809
 30
0.0
 10
-23.5629103362329
 20
353.6147635357466
 30
0.0
 10
-22.18455317975802
 20
353.298648744399
 30
0.0
 10
-20.83792680601587
 20
352.9326645511586
 30
0.0
  0
SPLINE
  5
408
330
3CF
100
AcDbEntity
  8
0
  6
Continuous
 62
     7
370
    25
100
AcDbSpline
210
0.0
220
0.0
230
1.0
 70
     8
 71
     3
 72
    19
 73
    15
 74
     0
 42
0.000000001
 43
0.00000001
 40
0.0
 40
0.0
 40
0.0
 40
0.0
 40
0.0156250000000005
 40
0.0156250000000005
 40
0.0234375000000006
 40
0.0234375000000006
 40
0.0273437500000007
 40
0.0273437500000007
 40
0.0312500000000007
 40
0.0625000000000007
 40
0.1250000000000007
 40
0.2500000000000006
 40
0.5000000000000003
 40
1.0
 40
1.0
 40
1.0
 40
1.0
 10
-233.7807084488902
 20
294.3205424933925
 30
0.0
 10
-232.9324700646833
 20
294.6880646659887
 30
0.0
 10
-232.0589035920244
 20
295.0350498203981
 30
0.0
 10
-230.7114369948995
 20
295.5254317077066
 30
0.0
 10
-230.2560740259622
 20
295.6838591011668
 30
0.0
 10
-229.5637339337449
 20
295.913962918906
 30
0.0
 10
-229.3309210731669
 20
295.9890158924669
 30
0.0
 10
-228.8657407746524
 20
296.139483005922
 30
0.0
 10
-226.7724294313371
 20
296.8165850164701
 30
0.0
 10
-220.957675699906
 20
298.6974239346598
 30
0.0
 10
-207.9326273415001
 20
302.9105031114042
 30
0.0
 10
-181.8825306246877
 20
311.336661464893
 30
0.0
 10
-129.7823371877321
 20
328.1889781691376
 30
0.0
 10
-85.12502854033593
 20
342.6338210690301
 30
0.0
 10
-55.35348942874388
 20
352.263716324695
 30
0.0
  0
LWPOLYLINE
  5
409
330
3CF
100
AcDbEntity
  8
0
  6
Continuous
 62
     7
370
    25
100
AcDbPolyline
 90
       47
 70
   128
 43
0.0
 10
197.4642837942
 20
276.0939194458
 10
199.727871601
 20
275.3729565947
 10
201.7797668345
 20
274.499961134
 10
203.5817465686
 20
273.4911953174
 10
205.1002433305
 20
272.3654505434
 10
206.3069703986
 20
271.1436973072
 10
207.1794487308
 20
269.8486945599
 10
207.7014257066
 20
268.5045657525
 10
207.8631778825
 20
267.1363494615
 10
207.6616921216
 20
265.7695329675
 10
207.1007217223
 20
264.4295774758
 10
206.1907165018
 20
263.1414438219
 10
204.9486281356
 20
261.9291274985
 10
203.3975943797
 20
260.8152116649
 10
201.5665080585
 20
259.8204464655
 10
199.4894788455
 20
258.9633624938
 10
197.2051978651
 20
258.2599256025
 10
194.7562169498
 20
257.72323949
 10
192.1881559806
 20
257.363301603
 10
189.5488530742
 20
257.1868169034
 10
186.8874734502
 20
257.1970729672
 10
184.2535935753
 20
257.3938787434
 10
181.6962776482
 20
257.7735681126
 10
179.2631636259
 20
258.3290681805
 10
176.9995758191
 20
259.0500310317
 10
174.9476805857
 20
259.9230264924
 10
173.1457008515
 20
260.931792309
 10
171.6272040896
 20
262.0575370829
 10
170.4204770216
 20
263.2792903191
 10
169.5479986894
 20
264.5742930664
 10
169.0260217136
 20
265.9184218738
 10
168.8642695377
 20
267.2866381648
 10
169.0657552986
 20
268.6534546588
 10
169.6267256979
 20
269.9934101505
 10
170.5367309183
 20
271.2815438044
 10
171.7788192846
 20
272.4938601278
 10
173.3298530404
 20
273.6077759614
 10
175.1609393616
 20
274.6025411608
 10
177.2379685746
 20
275.4596251325
 10
179.5222495551
 20
276.1630620238
 10
181.9712304703
 20
276.6997481364
 10
184.5392914395
 20
277.0596860233
 10
187.1785943459
 20
277.2361707229
 10
189.8399739699
 20
277.2259146591
 10
192.4738538448
 20
277.029108883
 10
195.0311697719
 20
276.6494195137
 10
197.4642837942
 20
276.0939194458
  0
SPLINE
  5
40E
330
3CF
100
AcDbEntity
  8
0
  6
Continuous
 62
     7
370
    25
100
AcDbSpline
210
0.0
220
0.0
230
1.0
 70
     8
 71
     3
 72
    10
 73
     6
 74
     0
 42
0.000000001
 43
0.00000001
 40
0.0
 40
0.0
 40
0.0
 40
0.0
 40
0.5
 40
0.5
 40
1.0
 40
1.0
 40
1.0
 40
1.0
 10
-226.7397633665749
 20
289.900893596642
 30
0.0
 10
-227.4164337333852
 20
289.7909299935064
 30
0.0
 10
-228.0822075177244
 20
289.6705116279139
 30
0.0
 10
-229.3851999700772
 20
289.4058128219318
 30
0.0
 10
-230.0235907346109
 20
289.2609249575341
 30
0.0
 10
-230.6485631048822
 20
289.1047217122042
 30
0.0
  0
SPLINE
  5
410
330
3CF
100
AcDbEntity
  8
0
  6
Continuous
 62
     7
370
    25
100
AcDbSpline
210
0.0
220
0.0
230
1.0
 70
     8
 71
     3
 72
    32
 73
    28
 74
     0
 42
0.000000001
 43
0.00000001
 40
0.0
 40
0.0
 40
0.0
 40
0.0
 40
0.0078124999999996
 40
0.0078124999999996
 40
0.0156249999999992
 40
0.0312499999999996
 40
0.0624999999999993
 40
0.0624999999999993
 40
0.1249999999999986
 40
0.1249999999999986
 40
0.2499999999999973
 40
0.2499999999999973
 40
0.3124999999999973
 40
0.3124999999999973
 40
0.3749999999999973
 40
0.3749999999999973
 40
0.4999999999999967
 40
0.4999999999999967
 40
0.6249999999999961
 40
0.6249999999999961
 40
0.6874999999999968
 40
0.6874999999999968
 40
0.7499999999999974
 40
0.7499999999999974
 40
0.8749999999999988
 40
0.8749999999999988
 40
1.0
 40
1.0
 40
1.0
 40
1.0
 10
-23.16182062786884
 20
346.7666578220883
 30
0.0
 10
-23.23283620529555
 20
346.7859583280558
 30
0.0
 10
-23.30600739514265
 20
346.8056497552299
 30
0.0
 10
-23.45051378721644
 20
346.8441451401777
 30
0.0
 10
-23.66759179716345
 20
346.901392028319
 30
0.0
 10
-24.17632721547925
 20
347.0315062843202
 30
0.0
 10
-24.61616342855566
 20
347.1371349872898
 30
0.0
 10
-25.50081284751309
 20
347.3406039191776
 30
0.0
 10
-26.09721044576452
 20
347.46587133842
 30
0.0
 10
-27.90601493194482
 20
347.8108833406287
 30
0.0
 10
-29.13796281798559
 20
347.9999446743094
 30
0.0
 10
-31.02513465313955
 20
348.2217883858906
 30
0.0
 10
-31.66075775565817
 20
348.2854039524103
 30
0.0
 10
-32.94549166953927
 20
348.3913781002004
 30
0.0
 10
-33.5913274323274
 20
348.4333989636935
 30
0.0
 10
-35.52242366226923
 20
348.525961466574
 30
0.0
 10
-36.80808599563007
 20
348.5436100748161
 30
0.0
 10
-39.37601918012706
 20
348.4929494150538
 30
0.0
 10
-40.65829810921193
 20
348.4248482025608
 30
0.0
 10
-42.57909758951114
 20
348.2563438786984
 30
0.0
 10
-43.21848991924932
 20
348.1889899510425
 30
0.0
 10
-44.47650974700208
 20
348.0340677887056
 30
0.0
 10
-45.09764253210272
 20
347.9462731859524
 30
0.0
 10
-46.93798344889422
 20
347.6527223337166
 30
0.0
 10
-48.13436240777024
 20
347.4170847468209
 30
0.0
 10
-50.46616016859152
 20
346.8661439732767
 30
0.0
 10
-51.60169874635216
 20
346.5510121067023
 30
0.0
 10
-52.70519360732167
 20
346.194075910485
 30
0.0
  0
SPLINE
  5
412
330
3CF
100
AcDbEntity
  8
0
  6
Continuous
 62
     7
370
    25
100
AcDbSpline
210
0.0
220
0.0
230
1.0
 70
     8
 71
     3
 72
    30
 73
    26
 74
     0
 42
0.000000001
 43
0.00000001
 40
0.0
 40
0.0
 40
0.0
 40
0.0
 40
0.0078124999999994
 40
0.0078124999999994
 40
0.0156249999999988
 40
0.0312499999999987
 40
0.0624999999999997
 40
0.0624999999999997
 40
0.1250000000000005
 40
0.1250000000000005
 40
0.2500000000000022
 40
0.2500000000000022
 40
0.3125000000000025
 40
0.3125000000000025
 40
0.3750000000000028
 40
0.3750000000000028
 40
0.5000000000000027
 40
0.5000000000000027
 40
0.6250000000000026
 40
0.6250000000000026
 40
0.6875000000000022
 40
0.6875000000000022
 40
0.7500000000000018
 40
0.7500000000000018
 40
1.0
 40
1.0
 40
1.0
 40
1.0
 10
138.8717414119067
 20
294.1275699641438
 30
0.0
 10
138.8686175739007
 20
294.1688883094434
 30
0.0
 10
138.8650676747353
 20
294.2113618458567
 30
0.0
 10
138.8573894627051
 20
294.2950469552707
 30
0.0
 10
138.8448694551582
 20
294.4204675773728
 30
0.0
 10
138.8086728492459
 20
294.7123699567773
 30
0.0
 10
138.7657903183407
 20
294.9613049815201
 30
0.0
 10
138.6644433724665
 20
295.4575076068205
 30
0.0
 10
138.5761312018921
 20
295.7860893211015
 30
0.0
 10
138.2497417735747
 20
296.7652357398692
 30
0.0
 10
137.9503590250303
 20
297.4092040249926
 30
0.0
 10
137.3775992607396
 20
298.3617658440778
 30
0.0
 10
137.1659081355475
 20
298.6770407891863
 30
0.0
 10
136.6998027732677
 20
299.3029159828165
 30
0.0
 10
136.4465233359754
 20
299.6118935224983
 30
0.0
 10
135.6340375391569
 20
300.5192367185846
 30
0.0
 10
135.0200588236418
 20
301.1014752631793
 30
0.0
 10
133.6503180992293
 20
302.2215094217681
 30
0.0
 10
132.8942319905379
 20
302.7591996299809
 30
0.0
 10
131.6492803569373
 20
303.5308678133828
 30
0.0
 10
131.2158922096632
 20
303.7820504462914
 30
0.0
 10
130.3257462565529
 20
304.2650823444359
 30
0.0
 10
129.8673896871749
 20
304.497962602899
 30
0.0
 10
127.510700826921
 20
305.6202455514393
 30
0.0
 10
125.4207501690043
 20
306.3850988179942
 30
0.0
 10
123.11547219603
 20
307.0116239757979
 30
0.0
  0
SPLINE
  5
414
330
3CF
100
AcDbEntity
  8
0
  6
Continuous
 62
     7
370
    25
100
AcDbSpline
210
0.0
220
0.0
230
1.0
 70
     8
 71
     3
 72
    10
 73
     6
 74
     0
 42
0.000000001
 43
0.00000001
 40
0.0
 40
0.0
 40
0.0
 40
0.0
 40
0.5
 40
0.5
 40
1.0
 40
1.0
 40
1.0
 40
1.0
 10
146.8369965052391
 20
186.5122351474954
 30
0.0
 10
146.889491592009
 20
186.8240254516602
 30
0.0
 10
146.9181465219972
 20
187.1346264507997
 30
0.0
 10
146.9282480237026
 20
187.7507053139518
 30
0.0
 10
146.9096991918965
 20
188.0571078915935
 30
0.0
 10
146.8680308689995
 20
188.3623005700802
 30
0.0
  0
SPLINE
  5
415
330
3CF
100
AcDbEntity
  8
0
  6
Continuous
 62
     7
370
    25
100
AcDbSpline
210
0.0
220
0.0
230
1.0
 70
     8
 71
     3
 72
    31
 73
    27
 74
     0
 42
0.000000001
 43
0.00000001
 40
0.0
 40
0.0
 40
0.0
 40
0.0
 40
0.0156249999999994
 40
0.0156249999999994
 40
0.0312499999999987
 40
0.0624999999999974
 40
0.0624999999999974
 40
0.1249999999999975
 40
0.1249999999999975
 40
0.2499999999999978
 40
0.2499999999999978
 40
0.3124999999999979
 40
0.3124999999999979
 40
0.3749999999999981
 40
0.3749999999999981
 40
0.4999999999999983
 40
0.4999999999999983
 40
0.6249999999999986
 40
0.6249999999999986
 40
0.6874999999999997
 40
0.6874999999999997
 40
0.7500000000000007
 40
0.7500000000000007
 40
0.8750000000000004
 40
0.8750000000000004
 40
1.0
 40
1.0
 40
1.0
 40
1.0
 10
-47.69456457777009
 20
253.2534767316806
 30
0.0
 10
-47.60216440823724
 20
253.2833643705014
 30
0.0
 10
-47.50674238453104
 20
253.3136771734191
 30
0.0
 10
-47.31786386363503
 20
253.3725704064206
 30
0.0
 10
-47.03349331694709
 20
253.4596059293149
 30
0.0
 10
-46.74598911987697
 20
253.5427556038956
 30
0.0
 10
-46.16685210509321
 20
253.7039281693518
 30
0.0
 10
-45.77526018834224
 20
253.8045459695595
 30
0.0
 10
-44.58419997030201
 20
254.0861395953248
 30
0.0
 10
-43.76850323743238
 20
254.2469116825222
 30
0.0
 10
-42.51223687132406
 20
254.4472502720915
 30
0.0
 10
-42.08801626850632
 20
254.5072117659728
 30
0.0
 10
-41.2283812504447
 20
254.6131510312956
 30
0.0
 10
-40.79487313505129
 20
254.6588437922451
 30
0.0
 10
-39.49565945893434
 20
254.7731464893774
 30
0.0
 10
-38.62636625919381
 20
254.8196622208252
 30
0.0
 10
-36.88160811660893
 20
254.8545955721779
 30
0.0
 10
-36.00615115354748
 20
254.8430859823845
 30
0.0
 10
-34.6881832820014
 20
254.7808103793026
 30
0.0
 10
-34.24799674197822
 20
254.7524554243046
 30
0.0
 10
-33.37642169354636
 20
254.6811661933449
 30
0.0
 10
-32.94372896661863
 20
254.6381705821278
 30
0.0
 10
-31.65486254340652
 20
254.4873475946233
 30
0.0
 10
-30.80448076153709
 20
254.3571890961082
 30
0.0
 10
-29.14775764265974
 20
254.0416156976741
 30
0.0
 10
-28.34178587869179
 20
253.8565645160602
 30
0.0
 10
-27.55867458359364
 20
253.6437316464666
 30
0.0
  0
SPLINE
  5
416
330
3CF
100
AcDbEntity
  8
0
  6
Continuous
 62
     7
370
    25
100
AcDbSpline
210
0.0
220
0.0
230
1.0
 70
     8
 71
     3
 72
    31
 73
    27
 74
     0
 42
0.000000001
 43
0.00000001
 40
0.0
 40
0.0
 40
0.0
 40
0.0
 40
0.0156249999999993
 40
0.0156249999999993
 40
0.0312499999999985
 40
0.0624999999999971
 40
0.0624999999999971
 40
0.1249999999999962
 40
0.1249999999999962
 40
0.2499999999999945
 40
0.2499999999999945
 40
0.3124999999999939
 40
0.3124999999999939
 40
0.3749999999999933
 40
0.3749999999999933
 40
0.4999999999999939
 40
0.4999999999999939
 40
0.6249999999999944
 40
0.6249999999999944
 40
0.6874999999999954
 40
0.6874999999999954
 40
0.7499999999999963
 40
0.7499999999999963
 40
0.8749999999999981
 40
0.8749999999999981
 40
1.0
 40
1.0
 40
1.0
 40
1.0
 10
118.7186182390606
 20
213.8886978005146
 30
0.0
 10
118.8151177901385
 20
213.8624711948562
 30
0.0
 10
118.9138317303965
 20
213.8351091732862
 30
0.0
 10
119.1073538779675
 20
213.7803892341317
 30
0.0
 10
119.3959503635156
 20
213.6971816917463
 30
0.0
 10
119.679534317355
 20
213.6106220402648
 30
0.0
 10
120.2401206936952
 20
213.4330987293797
 30
0.0
 10
120.6050784742173
 20
213.3088837387584
 30
0.0
 10
121.6741449872709
 20
212.9189515544828
 30
0.0
 10
122.3526113726475
 20
212.6360574632342
 30
0.0
 10
123.3181868063642
 20
212.1767355296391
 30
0.0
 10
123.6312968924094
 20
212.0177586170881
 30
0.0
 10
124.2395130170821
 20
211.6876951089525
 30
0.0
 10
124.5331831295273
 20
211.517340786464
 30
0.0
 10
125.3753048391069
 20
210.9954346317685
 30
0.0
 10
125.8885740299618
 20
210.6312227824546
 30
0.0
 10
126.8210074043912
 20
209.8709726699439
 30
0.0
 10
127.2400657581597
 20
209.4749017232618
 30
0.0
 10
127.7954992229935
 20
208.8560184354153
 30
0.0
 10
127.9683442506395
 20
208.6455337208329
 30
0.0
 10
128.2853571210865
 20
208.2211852806666
 30
0.0
 10
128.4301023014265
 20
208.0067167286101
 30
0.0
 10
128.8232189252911
 20
207.3564832987034
 30
0.0
 10
129.0310878155608
 20
206.9120596287718
 30
0.0
 10
129.3307903054441
 20
206.0151428479546
 30
0.0
 10
129.4231728383951
 20
205.5630087749535
 30
0.0
 10
129.4576257432356
 20
205.1073073172447
 30
0.0
  0
LWPOLYLINE
  5
423
330
3CF
100
AcDbEntity
  8
0
  6
Continuous
 62
     7
370
    25
100
AcDbPolyline
 90
       20
 70
   128
 43
0.0
 10
32.6686772251
 20
219.6052693301
 10
35.5901107067
 20
218.7076062133
 10
38.3133569506
 20
217.6575818915
 10
40.8085795011
 20
216.4667006508
 10
43.0484401776
 20
215.1480100354
 10
45.008398598
 20
213.7159578955
 10
46.6669810476
 20
212.1862340942
 10
48.0060157501
 20
210.5755986054
 10
49.0108319609
 20
208.9016978887
 10
49.6704207035
 20
207.1828715505
 10
49.9775553855
 20
205.437951412
 10
49.9288709752
 20
203.6860551833
 10
49.524900869
 20
201.9463770061
 10
48.770071048
 20
200.2379771586
 10
47.6726515857
 20
198.5795732269
 10
46.2446660394
 20
196.9893350317
 10
44.5017597175
 20
195.4846855553
 10
42.4630282664
 20
194.0821100524
 10
40.1508084546
 20
192.7969754335
 10
39.8866134423
 20
192.6662282713
  0
LWPOLYLINE
  5
424
330
3CF
100
AcDbEntity
  8
0
  6
Continuous
 62
     7
370
    25
100
AcDbPolyline
 90
       20
 70
   128
 43
0.0
 10
-14.5818050738
 20
207.4744018525
 10
-14.5227466992
 20
207.6560762118
 10
-13.7679168783
 20
209.3644760593
 10
-12.670497416
 20
211.0228799909
 10
-11.2425118696
 20
212.6131181862
 10
-9.4996055477
 20
214.1177676625
 10
-7.4608740967
 20
215.5203431655
 10
-5.1486542848
 20
216.8054777843
 10
-2.5882792763
 20
217.9590913152
 10
0.1921989244
 20
218.968544527
 10
3.1623168164
 20
219.8227776389
 10
6.2895331665
 20
220.5124314943
 10
9.5395855379
 20
221.0299501012
 10
12.8768656768
 20
221.3696634174
 10
16.2648096435
 20
221.5278494728
 10
19.666298415
 20
221.5027751478
 10
23.0440645685
 20
221.294715162
 10
26.3611005912
 20
220.9059490641
 10
29.5810643423
 20
220.3407362568
 10
32.6686772251
 20
219.6052693301
  0
SPLINE
  5
425
330
3CF
100
AcDbEntity
  8
0
  6
Continuous
 62
     7
370
    25
100
AcDbSpline
210
0.0
220
0.0
230
1.0
 70
     8
 71
     3
 72
    20
 73
    16
 74
     0
 42
0.000000001
 43
0.00000001
 40
0.0
 40
0.0
 40
0.0
 40
0.0
 40
0.2500000000000023
 40
0.2500000000000023
 40
0.3125000000000031
 40
0.3125000000000031
 40
0.3750000000000038
 40
0.3750000000000038
 40
0.5000000000000024
 40
0.5000000000000024
 40
0.625000000000001
 40
0.625000000000001
 40
0.7499999999999997
 40
0.7499999999999997
 40
1.0
 40
1.0
 40
1.0
 40
1.0
 10
-28.48823211697768
 20
251.1773289561003
 30
0.0
 10
-29.90408775618478
 20
251.56212818005
 30
0.0
 10
-31.38270210412242
 20
251.8422813153741
 30
0.0
 10
-33.30519794756649
 20
252.068702496888
 30
0.0
 10
-33.69350523055378
 20
252.1076369488432
 30
0.0
 10
-34.47793191239262
 20
252.1724796547066
 30
0.0
 10
-34.87561361047982
 20
252.198461977769
 30
0.0
 10
-36.06718757537354
 20
252.2557650108877
 30
0.0
 10
-36.85867671085417
 20
252.2667887206048
 30
0.0
 10
-38.4360761805337
 20
252.2364352428301
 30
0.0
 10
-39.22197863943936
 20
252.1949840838149
 30
0.0
 10
-40.78807261608429
 20
252.0584396971932
 30
0.0
 10
-41.57078456558908
 20
251.9625822163267
 30
0.0
 10
-43.84290014041086
 20
251.6020060481929
 30
0.0
 10
-45.27946248844439
 20
251.2641620723116
 30
0.0
 10
-46.63524624413384
 20
250.8256205676357
 30
0.0
  0
SPLINE
  5
427
330
3CF
100
AcDbEntity
  8
0
  6
Continuous
 62
     7
370
    25
100
AcDbSpline
210
0.0
220
0.0
230
1.0
 70
     8
 71
     3
 72
    22
 73
    18
 74
     0
 42
0.000000001
 43
0.00000001
 40
0.0
 40
0.0
 40
0.0
 40
0.0
 40
0.2499999999999959
 40
0.2499999999999959
 40
0.3124999999999961
 40
0.3124999999999961
 40
0.3749999999999962
 40
0.3749999999999962
 40
0.499999999999997
 40
0.499999999999997
 40
0.6249999999999978
 40
0.6249999999999978
 40
0.7499999999999984
 40
0.7499999999999984
 40
0.8749999999999992
 40
0.8749999999999992
 40
1.0
 40
1.0
 40
1.0
 40
1.0
 10
127.4673476338933
 20
203.5082661187955
 30
0.0
 10
127.4051917561129
 20
204.330389078845
 30
0.0
 10
127.1371060341108
 20
205.1282324901604
 30
0.0
 10
126.5562734185339
 20
206.0965652209246
 30
0.0
 10
126.4276472636561
 20
206.2887627510747
 30
0.0
 10
126.1449711115717
 20
206.6701602884995
 30
0.0
 10
125.9902495564965
 20
206.8600801196291
 30
0.0
 10
125.4921458462947
 20
207.4191255480267
 30
0.0
 10
125.1160068488168
 20
207.7769795728436
 30
0.0
 10
124.2785829333965
 20
208.4640100910278
 30
0.0
 10
123.8174094718389
 20
208.79322412341
 30
0.0
 10
122.8082472591207
 20
209.4224124056418
 30
0.0
 10
122.2578563074409
 20
209.7230429336035
 30
0.0
 10
121.0929753835322
 20
210.2802193438912
 30
0.0
 10
120.4758749524932
 20
210.5388789179653
 30
0.0
 10
119.1738790294017
 20
211.0151072376172
 30
0.0
 10
118.4954126178253
 20
211.230323795392
 30
0.0
 10
117.7890607155169
 20
211.4222951074739
 30
0.0
  0
LWPOLYLINE
  5
42B
330
3CF
100
AcDbEntity
  8
0
  6
Continuous
 62
     7
370
    25
100
AcDbPolyline
 90
       12
 70
   128
 43
0.0
 10
28.0017233358
 20
206.478506255
 10
25.4248654859
 20
207.0755214856
 10
22.7230447595
 20
207.5014893235
 10
19.9388704835
 20
207.7496920016
 10
17.1162507492
 20
207.8162152154
 10
14.2996999562
 20
207.7000098539
 10
11.5336367929
 20
207.4029085453
 10
8.8616837278
 20
206.9295967545
 10
6.3259790568
 20
206.2875388914
 10
3.9665123574
 20
205.4868605918
 10
1.8204938289
 20
204.540189031
 10
0.0342876082
 20
203.5344071853
  0
LWPOLYLINE
  5
42C
330
3CF
100
AcDbEntity
  8
0
  6
Continuous
 62
     7
370
    25
100
AcDbPolyline
 90
       12
 70
   128
 43
0.0
 10
39.0650881528
 20
192.9219252452
 10
39.6714166277
 20
194.2531192615
 10
39.9775572557
 20
195.6998302118
 10
39.9292303646
 20
197.1548952165
 10
39.5271980984
 20
198.5953670311
 10
38.777800746
 20
199.9985285546
 10
37.6928567514
 20
201.3422510917
 10
36.2894763294
 20
202.6053433352
 10
34.5897916278
 20
203.7678855659
 10
32.6206076894
 20
204.8115437983
 10
30.4129797215
 20
205.7198589187
 10
28.0017233358
 20
206.478506255
  0
SPLINE
  5
43F
330
3CF
100
AcDbEntity
  8
0
  6
Continuous
 62
     8
370
    25
100
AcDbSpline
210
0.0
220
0.0
230
1.0
 70
     8
 71
     3
 72
    17
 73
    13
 74
     0
 42
0.000000001
 43
0.00000001
 40
0.0
 40
0.0
 40
0.0
 40
0.0
 40
0.1052830140174302
 40
0.2131674097962394
 40
0.3179433765905613
 40
0.426382402467722
 40
0.5250219881634116
 40
0.6272227879146246
 40
0.7216578229778059
 40
0.8193223390181299
 40
0.9116146565747473
 40
1.0
 40
1.0
 40
1.0
 40
1.0
 10
-230.6485631048821
 20
289.1047217122056
 30
0.0
 10
-232.07509175282
 20
288.6975315402449
 30
0.0
 10
-234.9633963831444
 20
287.8730901518461
 30
0.0
 10
-238.5047538219689
 20
286.0963737436914
 30
0.0
 10
-241.297418614125
 20
283.9137956189969
 30
0.0
 10
-243.0471600094538
 20
281.4539050102384
 30
0.0
 10
-243.7532176190235
 20
278.8098725872448
 30
0.0
 10
-243.4255840876333
 20
276.2029710787489
 30
0.0
 10
-242.1270391946375
 20
273.6354854357153
 30
0.0
 10
-239.9730907984208
 20
271.2834372645345
 30
0.0
 10
-237.1279368808097
 20
269.1575112655642
 30
0.0
 10
-234.7327056862508
 20
268.0087769272195
 30
0.0
 10
-233.5609873312339
 20
267.4468298749539
 30
0.0
  0
LWPOLYLINE
  5
444
330
3CF
100
AcDbEntity
  8
0
  6
Continuous
 62
     8
370
    25
100
AcDbPolyline
 90
        7
 70
   128
 43
0.0
 10
116.1519580422
 20
121.8173251841
 10
116.1978218865
 20
121.2656758732
 10
116.2998037305
 20
120.7927438461
 10
116.4547562223
 20
120.4131246771
 10
116.6578972356
 20
120.1385341301
 10
116.9029574556
 20
119.9774465873
 10
116.966434563
 20
119.9565103241
  0
LWPOLYLINE
  5
445
330
3CF
100
AcDbEntity
  8
0
  6
Continuous
 62
     8
370
    25
100
AcDbPolyline
 90
        7
 70
   128
 43
0.0
 10
-246.4594718455
 20
220.3673420045
 10
-246.4136080013
 20
219.8156926936
 10
-246.3116261572
 20
219.3427606665
 10
-246.1566736655
 20
218.9631414976
 10
-245.9535326521
 20
218.6885509505
 10
-245.7084724322
 20
218.5274634077
 10
-245.6443094157
 20
218.5063403201
  0
LWPOLYLINE
  5
446
330
3CF
100
AcDbEntity
  8
0
  6
Continuous
 62
     8
370
    25
100
AcDbPolyline
 90
       16
 70
   128
 43
0.0
 10
196.5308930163
 20
273.4685668308
 10
194.2451111247
 20
273.9860629801
 10
191.8396011459
 20
274.3307495286
 10
189.363332326
 20
274.4956096522
 10
186.8667143574
 20
274.4772872743
 10
184.4005711821
 20
274.2761553855
 10
182.0151063636
 20
273.8963084512
 10
179.7588810863
 20
273.3454790595
 10
177.6778255905
 20
272.6348805084
 10
175.8143041649
 20
271.7789785352
 10
174.2062527316
 20
270.7951968358
 10
172.8864065807
 20
269.7035623687
 10
171.8816339737
 20
268.5262976636
 10
171.2123891832
 20
267.2873684349
 10
170.8922961034
 20
266.011995709
 10
170.8663499198
 20
265.653301941
  0
LWPOLYLINE
  5
447
330
3CF
100
AcDbEntity
  8
0
  6
Continuous
 62
     8
370
    25
100
AcDbPolyline
 90
        9
 70
   128
 43
0.0
 10
205.8637202825
 20
265.4915180956
 10
205.7995765139
 20
266.2681760269
 10
205.4090580289
 20
267.5383336603
 10
204.6715456918
 20
268.7669388682
 10
203.602053127
 20
269.9289807916
 10
202.2223521191
 20
271.0008036079
 10
200.5605294017
 20
271.9605880956
 10
198.6504148931
 20
272.7887958101
 10
196.5308930163
 20
273.4685668308
  0
LWPOLYLINE
  5
448
330
3CF
100
AcDbEntity
  8
0
  6
Continuous
 62
     8
370
    25
100
AcDbPolyline
 90
       13
 70
   128
 43
0.0
 10
-247.6811152349
 20
261.98848497
 10
-251.2417453248
 20
263.0672914088
 10
-254.5939197116
 20
264.3107031093
 10
-257.7090388253
 20
265.7081117215
 10
-260.5605255681
 20
267.2475950477
 10
-263.1240520604
 20
268.9160187589
 10
-265.3777471982
 20
270.6991484523
 10
-267.3023832491
 20
272.5817710942
 10
-268.8815398969
 20
274.5478248119
 10
-270.1017443339
 20
276.5805359283
 10
-270.9525862062
 20
278.6625620689
 10
-271.4268064308
 20
280.7761401207
 10
-271.5120177065
 20
281.6592799846
  0
LWPOLYLINE
  5
44A
330
3CF
100
AcDbEntity
  8
0
  6
Continuous
 62
     8
370
    25
100
AcDbPolyline
 90
       13
 70
   128
 43
0.0
 10
-268.8942345093
 20
238.8643749615
 10
-268.8153617298
 20
238.0553825954
 10
-268.368896936
 20
236.0655092412
 10
-267.5678536205
 20
234.10534111
 10
-266.4190660023
 20
232.1916016653
 10
-264.9323351324
 20
230.3406182571
 10
-263.1203452743
 20
228.5681828233
 10
-260.9985556866
 20
226.8894171581
 10
-258.5850687299
 20
225.3186438982
 10
-255.900475424
 20
223.8692643272
 10
-252.9676797724
 20
222.5536440406
 10
-249.8117033536
 20
221.3830074468
 10
-246.4594718455
 20
220.3673420045
  0
LINE
  5
44D
330
3CF
100
AcDbEntity
  8
0
  6
Continuous
 62
     7
370
    25
100
AcDbLine
 10
-262.1905341314
 20
226.6877784643
 30
0.0
 11
-262.1905341314
 21
-223.168584783
 31
0.0
  0
LINE
  5
44E
330
3CF
100
AcDbEntity
  8
0
  6
Continuous
 62
     7
370
    25
100
AcDbLine
 10
-245.6443094157
 20
218.5063403201
 30
0.0
 11
116.967120472
 21
119.9563234997
 31
0.0
  0
LINE
  5
44F
330
3CF
100
AcDbEntity
  8
0
  6
Continuous
 62
     7
370
    25
100
AcDbLine
 10
172.3038438016
 20
129.1533334574
 30
0.0
 11
281.9772602001
 21
236.1979500564
 31
0.0
  0
LINE
  5
450
330
3CF
100
AcDbEntity
  8
0
  6
Continuous
 62
     7
370
    25
100
AcDbLine
 10
-271.5105825039
 20
281.6354252131
 30
0.0
 11
-268.8942345093
 21
238.8643749615
 31
0.0
  0
LINE
  5
451
330
3CF
100
AcDbEntity
  8
0
  6
Continuous
 62
     7
370
    25
100
AcDbLine
 10
-155.7663940394
 20
402.7578603855
 30
0.0
 11
-265.439810438
 21
295.7132437865
 31
0.0
  0
LINE
  5
452
330
3CF
100
AcDbEntity
  8
0
  6
Continuous
 62
     7
370
    25
100
AcDbLine
 10
-61.3214709881
 20
128.1144210666
 30
0.0
 11
-59.9475954296
 21
129.4553657298
 31
0.0
  0
LINE
  5
453
330
3CF
100
AcDbEntity
  8
0
  6
Continuous
 62
     7
370
    25
100
AcDbLine
 10
-241.7037746457
 20
177.1384660755
 30
0.0
 11
-61.3214709881
 21
128.1144210666
 31
0.0
  0
LINE
  5
454
330
3CF
100
AcDbEntity
  8
0
  6
Continuous
 62
     7
370
    25
100
AcDbLine
 10
-260.2385096136
 20
187.7898650267
 30
0.0
 11
-258.568419702
 21
188.2768764718
 31
0.0
  0
LINE
  5
455
330
3CF
100
AcDbEntity
  8
0
  6
Continuous
 62
     7
370
    25
100
AcDbLine
 10
-61.3214709881
 20
-290.183221676
 30
0.0
 11
-59.5526347448
 21
-288.4567832763
 31
0.0
  0
LINE
  5
456
330
3CF
100
AcDbEntity
  8
0
  6
Continuous
 62
     7
370
    25
100
AcDbLine
 10
-61.3214709881
 20
-290.183221676
 30
0.0
 11
-61.3214709881
 21
128.1144210666
 31
0.0
  0
LINE
  5
457
330
3CF
100
AcDbEntity
  8
0
  6
Continuous
 62
     7
370
    25
100
AcDbLine
 10
-241.7037746457
 20
177.1384660755
 30
0.0
 11
-241.7037746457
 21
-241.1591766671
 31
0.0
  0
LINE
  5
458
330
3CF
100
AcDbEntity
  8
0
  6
Continuous
 62
     7
370
    25
100
AcDbLine
 10
-241.7037746457
 20
-241.1591766671
 30
0.0
 11
-61.3214709881
 21
-290.183221676
 31
0.0
  0
LINE
  5
459
330
3CF
100
AcDbEntity
  8
0
  6
Continuous
 62
     7
370
    25
100
AcDbLine
 10
-260.2385096136
 20
187.7898650267
 30
0.0
 11
-260.2385096136
 21
-230.5077777159
 31
0.0
  0
LINE
  5
45A
330
3CF
100
AcDbEntity
  8
0
  6
Continuous
 62
     7
370
    25
100
AcDbLine
 10
-259.8322882704
 20
224.8419638557
 30
0.0
 11
-259.8322882704
 21
187.9083223877
 31
0.0
  0
LINE
  5
45B
330
3CF
100
AcDbEntity
  8
0
  6
Continuous
 62
     7
370
    25
100
AcDbLine
 10
148.7264585927
 20
118.6685092778
 30
0.0
 11
148.7264585927
 21
-341.1752756468
 31
0.0
  0
LINE
  5
45C
330
3CF
100
AcDbEntity
  8
0
  6
Continuous
 62
     7
370
    25
100
AcDbLine
 10
148.7264585927
 20
-341.1752756468
 30
0.0
 11
148.3626626014
 21
-339.6879238088
 31
0.0
  0
LINE
  5
45D
330
3CF
100
AcDbEntity
  8
0
  6
Continuous
 62
     7
370
    25
100
AcDbLine
 10
279.9686376672
 20
-227.4519610569
 30
0.0
 11
279.9686376672
 21
234.237472887
 31
0.0
  0
LINE
  5
45E
330
3CF
100
AcDbEntity
  8
0
  6
Continuous
 62
     7
370
    25
100
AcDbLine
 10
174.0287843801
 20
-330.8525056014
 30
0.0
 11
279.9686376672
 21
-227.4519610569
 31
0.0
  0
LINE
  5
45F
330
3CF
100
AcDbEntity
  8
0
  6
Continuous
 62
     7
370
    25
100
AcDbLine
 10
-240.8583496886
 20
178.6230322888
 30
0.0
 11
119.9842439558
 21
80.5537472578
 31
0.0
  0
LINE
  5
460
330
3CF
100
AcDbEntity
  8
0
  6
Continuous
 62
     7
370
    25
100
AcDbLine
 10
173.0427553965
 20
130.8762703413
 30
0.0
 11
175.3578490903
 21
173.0605818466
 31
0.0
  0
LINE
  5
461
330
3CF
100
AcDbEntity
  8
0
  6
Continuous
 62
     7
370
    25
100
AcDbLine
 10
116.1519580422
 20
121.8173251841
 30
0.0
 11
114.9303146528
 21
163.4384681495
 31
0.0
  0
LINE
  5
462
330
3CF
100
AcDbEntity
  8
0
  6
Continuous
 62
     7
370
    25
100
AcDbLine
 10
170.9418188034
 20
178.7709041097
 30
0.0
 11
280.6152352019
 21
285.8155207087
 31
0.0
  0
LINE
  5
463
330
3CF
100
AcDbEntity
  8
0
  6
Continuous
 62
     7
370
    25
100
AcDbLine
 10
-245.3508362393
 20
268.7730485629
 30
0.0
 11
117.2605936484
 21
170.2230317425
 31
0.0
  0
LINE
  5
464
330
3CF
100
AcDbEntity
  8
0
  6
Continuous
 62
     7
370
    25
100
AcDbLine
 10
-152.2740032462
 20
403.4655400245
 30
0.0
 11
-261.9474196447
 21
296.4209234255
 31
0.0
  0
LINE
  5
465
330
3CF
100
AcDbEntity
  8
0
  6
Continuous
 62
     7
370
    25
100
AcDbLine
 10
280.6152352019
 20
285.8155207087
 30
0.0
 11
-152.2740032462
 21
403.4655400245
 31
0.0
  0
LINE
  5
466
330
3CF
100
AcDbEntity
  8
0
  6
Continuous
 62
     7
370
    25
100
AcDbLine
 10
-20.837926806
 20
352.9326645512
 30
0.0
 11
125.4393660352
 21
313.1776307002
 31
0.0
  0
LINE
  5
467
330
3CF
100
AcDbEntity
  8
0
  6
Continuous
 62
     7
370
    25
100
AcDbLine
 10
114.9303146528
 20
163.4384681495
 30
0.0
 11
-247.6811152349
 21
261.98848497
 31
0.0
  0
LINE
  5
468
330
3CF
100
AcDbEntity
  8
0
  6
Continuous
 62
     7
370
    25
100
AcDbLine
 10
-233.5609873312
 20
267.446829875
 30
0.0
 11
-233.4261545447
 21
267.3774523933
 31
0.0
  0
LINE
  5
469
330
3CF
100
AcDbEntity
  8
0
  6
Continuous
 62
     7
370
    25
100
AcDbLine
 10
-52.7051936073
 20
346.1940759105
 30
0.0
 11
-226.7397633666
 21
289.9008935966
 31
0.0
  0
LINE
  5
46A
330
3CF
100
AcDbEntity
  8
0
  6
Continuous
 62
     7
370
    25
100
AcDbLine
 10
123.115472196
 20
307.0116239758
 30
0.0
 11
-23.1618206405
 21
346.7666578255
 31
0.0
  0
LINE
  5
46B
330
3CF
100
AcDbEntity
  8
0
  6
Continuous
 62
     7
370
    25
100
AcDbLine
 10
146.868030869
 20
188.3623005701
 30
0.0
 11
138.8717414113
 21
294.1275699721
 31
0.0
  0
LINE
  5
46C
330
3CF
100
AcDbEntity
  8
0
  6
Continuous
 62
     7
370
    25
100
AcDbLine
 10
-27.5586745836
 20
253.6437316465
 30
0.0
 11
118.7186182514
 21
213.8886977972
 31
0.0
  0
LINE
  5
46D
330
3CF
100
AcDbEntity
  8
0
  6
Continuous
 62
     7
370
    25
100
AcDbLine
 10
-246.4594718455
 20
220.3673420045
 30
0.0
 11
116.1519580422
 21
121.8173251841
 31
0.0
  0
LINE
  5
46E
330
3CF
100
AcDbEntity
  8
0
  6
Continuous
 62
     7
370
    25
100
AcDbLine
 10
-246.4594718455
 20
220.3673420045
 30
0.0
 11
-247.6811152349
 21
261.98848497
 31
0.0
  0
LINE
  5
46F
330
3CF
100
AcDbEntity
  8
0
  6
Continuous
 62
     7
370
    25
100
AcDbLine
 10
285.0312654888
 20
280.1051984456
 30
0.0
 11
175.3578490903
 21
173.0605818466
 31
0.0
  0
LINE
  5
470
330
3CF
100
AcDbEntity
  8
0
  6
Continuous
 62
     7
370
    25
100
AcDbLine
 10
282.7161717951
 20
237.9208869403
 30
0.0
 11
285.0312654888
 21
280.1051984456
 31
0.0
  0
LINE
  5
471
330
3CF
100
AcDbEntity
  8
0
  6
Continuous
 62
     7
370
    25
100
AcDbLine
 10
173.0427553965
 20
130.8762703413
 30
0.0
 11
282.7161717951
 21
237.9208869403
 31
0.0
  0
LINE
  5
472
330
3CF
100
AcDbEntity
  8
0
  6
Continuous
 62
     7
370
    25
100
AcDbLine
 10
170.8663499198
 20
265.653301941
 30
0.0
 11
170.8637237101
 21
265.4971592118
 31
0.0
  0
LINE
  5
473
330
3CF
100
AcDbEntity
  8
0
  6
Continuous
 62
     7
370
    25
100
AcDbLine
 10
117.7890607155
 20
211.4222951075
 30
0.0
 11
-28.488232117
 21
251.1773289561
 31
0.0
  0
LINE
  5
474
330
3CF
100
AcDbEntity
  8
0
  6
Continuous
 62
     7
370
    25
100
AcDbLine
 10
120.8296689128
 20
-339.6879984743
 30
0.0
 11
120.8296689128
 21
78.6096442683
 31
0.0
  0
LINE
  5
475
330
3CF
100
AcDbEntity
  8
0
  6
Continuous
 62
     7
370
    25
100
AcDbLine
 10
148.3626626014
 20
-341.5568210599
 30
0.0
 11
148.3626626014
 21
76.7408216828
 31
0.0
  0
LINE
  5
476
330
3CF
100
AcDbEntity
  8
0
  6
Continuous
 62
     7
370
    25
100
AcDbLine
 10
148.3626626014
 20
76.7408216828
 30
0.0
 11
148.032677793
 21
78.747111755
 31
0.0
  0
LINE
  5
477
330
3CF
100
AcDbEntity
  8
0
  6
Continuous
 62
     7
370
    25
100
AcDbLine
 10
120.8296689128
 20
78.6096442683
 30
0.0
 11
-59.5526347448
 21
127.6336892772
 31
0.0
  0
LINE
  5
478
330
3CF
100
AcDbEntity
  8
0
  6
Continuous
 62
     7
370
    25
100
AcDbLine
 10
-59.5526347448
 20
127.6336892772
 30
0.0
 11
-58.1787591863
 21
128.9746339404
 31
0.0
  0
LINE
  5
479
330
3CF
100
AcDbEntity
  8
0
  6
Continuous
 62
     7
370
    25
100
AcDbLine
 10
120.8296689128
 20
-339.6879984743
 30
0.0
 11
-59.5526347448
 21
-290.6639534654
 31
0.0
  0
LINE
  5
47A
330
3CF
100
AcDbEntity
  8
0
  6
Continuous
 62
     7
370
    25
100
AcDbLine
 10
-59.5526347448
 20
127.6336892772
 30
0.0
 11
-59.5526347448
 21
-290.6639534654
 31
0.0
  0
LINE
  5
47B
330
3CF
100
AcDbEntity
  8
0
  6
Continuous
 62
     8
370
    25
100
AcDbLine
 10
174.0287843801
 20
130.8369283424
 30
0.0
 11
174.0287843801
 21
-330.8525056014
 31
0.0
  0
LINE
  5
47C
330
3CF
100
AcDbEntity
  8
0
  6
Continuous
 62
     8
370
    25
100
AcDbLine
 10
119.9842439558
 20
80.5537472578
 30
0.0
 11
119.9842439558
 21
119.238050406
 31
0.0
  0
LINE
  5
47D
330
3CF
100
AcDbEntity
  8
0
  6
Continuous
 62
     8
370
    25
100
AcDbLine
 10
-240.8583496886
 20
217.205619017
 30
0.0
 11
-240.8583496886
 21
178.6230322888
 31
0.0
  0
LINE
  5
47E
330
3CF
100
AcDbEntity
  8
0
  6
Continuous
 62
     8
370
    25
100
AcDbLine
 10
146.2847780641
 20
184.8155267717
 30
0.0
 11
146.8369965052
 21
186.5122351475
 31
0.0
  0
LINE
  5
47F
330
3CF
100
AcDbEntity
  8
0
  6
Continuous
 62
     8
370
    25
100
AcDbLine
 10
-109.4637381906
 20
233.2736338972
 30
0.0
 11
-47.6945645728
 21
253.2534767333
 31
0.0
  0
LINE
  5
480
330
3CF
100
AcDbEntity
  8
0
  6
Continuous
 62
     8
370
    25
100
AcDbLine
 10
129.4576257432
 20
205.1073073172
 30
0.0
 11
131.7025017912
 21
175.4147954035
 31
0.0
  0
LINE
  5
481
330
3CF
100
AcDbEntity
  8
0
  6
Continuous
 62
     8
370
    25
100
AcDbLine
 10
-46.6352462441
 20
250.8256205676
 30
0.0
 11
-104.8092950509
 21
232.0086559844
 31
0.0
  0
LINE
  5
482
330
3CF
100
AcDbEntity
  8
0
  6
Continuous
 62
     8
370
    25
100
AcDbLine
 10
129.6303703047
 20
174.8984119219
 30
0.0
 11
127.4673476339
 21
203.5082661188
 31
0.0
  0
ARC
  5
483
330
3CF
100
AcDbEntity
  8
0
  6
Continuous
 62
     7
370
    25
100
AcDbCircle
 10
-250.3671971069
 20
-223.0163885678
 30
0.0
 40
11.82431655886353
100
AcDbArc
 50
180.737500688
 51
213.4016980194
  0
ARC
  5
484
330
3CF
100
AcDbEntity
  8
0
  6
Continuous
 62
     7
370
    25
100
AcDbCircle
 10
138.7029734024
 20
152.4715626484
 30
0.0
 40
74.31394891034091
100
AcDbArc
 50
255.410787338
 51
277.751696306
  0
ARC
  5
485
330
3CF
100
AcDbEntity
  8
0
  6
Continuous
 62
     7
370
    25
100
AcDbCircle
 10
125.1639274683
 20
163.7160215475
 30
0.0
 40
10.23737598926615
100
AcDbArc
 50
140.5345288837
 51
181.5535804444
  0
ARC
  5
486
330
3CF
100
AcDbEntity
  8
0
  6
Continuous
 62
     7
370
    25
100
AcDbCircle
 10
169.3388871473
 20
172.968578928
 30
0.0
 40
6.019665057762984
100
AcDbArc
 50
0.8757271595
 51
74.5568249834
  0
ARC
  5
487
330
3CF
100
AcDbEntity
  8
0
  6
Continuous
 62
     7
370
    25
100
AcDbCircle
 10
151.1734724468
 20
184.9944445057
 30
0.0
 40
4.594421837801862
100
AcDbArc
 50
83.6920015786
 51
160.7096705539
  0
ARC
  5
488
330
3CF
100
AcDbEntity
  8
0
  6
Continuous
 62
     7
370
    25
100
AcDbCircle
 10
-237.4475024195
 20
262.2660383679
 30
0.0
 40
10.23737598926639
100
AcDbArc
 50
140.5345288837
 51
181.5535804444
  0
ARC
  5
489
330
3CF
100
AcDbEntity
  8
0
  6
Continuous
 62
     7
370
    25
100
AcDbCircle
 10
279.0123035459
 20
280.013195527
 30
0.0
 40
6.019665057762782
100
AcDbArc
 50
0.8757271595
 51
74.5568249834
  0
ARC
  5
48A
330
3CF
100
AcDbEntity
  8
0
  6
Continuous
 62
     7
370
    25
100
AcDbCircle
 10
143.6706895985
 20
293.249814671
 30
0.0
 40
4.878561065718852
100
AcDbArc
 50
87.9237569013
 51
169.6348450813
  0
ARC
  5
48B
330
3CF
100
AcDbEntity
  8
0
  6
Continuous
 62
     7
370
    25
100
AcDbCircle
 10
280.1716879051
 20
237.9922173094
 30
0.0
 40
2.54548350765868
100
AcDbArc
 50
315.1799327604
 51
358.3942287774
  0
ARC
  5
48C
330
3CF
100
AcDbEntity
  8
0
  6
Continuous
 62
     7
370
    25
100
AcDbCircle
 10
-238.3850784666
 20
288.0072280731
 30
0.0
 40
7.813972243953999
100
AcDbArc
 50
8.0740439184
 51
53.8963151606
  0
ARC
  5
48D
330
3CF
100
AcDbEntity
  8
0
  6
Continuous
 62
     7
370
    25
100
AcDbCircle
 10
-61.8297748126
 20
345.8254235081
 30
0.0
 40
9.132025337539266
100
AcDbArc
 50
2.3136125056
 51
44.8314457164
  0
ARC
  5
48E
330
3CF
100
AcDbEntity
  8
0
  6
Continuous
 62
     7
370
    25
100
AcDbCircle
 10
127.538046469
 20
205.4584094376
 30
0.0
 40
1.951424425682589
100
AcDbArc
 50
267.9237568819
 51
349.6348450807
  0
ARC
  5
48F
330
3CF
100
AcDbEntity
  8
0
  6
Continuous
 62
     7
370
    25
100
AcDbCircle
 10
133.2628737118
 20
306.7081174764
 30
0.0
 40
10.15193940669584
100
AcDbArc
 50
140.4115464996
 51
178.2868068576
  0
ARC
  5
490
330
3CF
100
AcDbEntity
  8
0
  6
Continuous
 62
     7
370
    25
100
AcDbCircle
 10
-153.4064570596
 20
400.0828926252
 30
0.0
 40
3.567177465134592
100
AcDbArc
 50
71.4903151514
 51
131.4197069196
  0
ARC
  5
491
330
3CF
100
AcDbEntity
  8
0
  6
Continuous
 62
     7
370
    25
100
AcDbCircle
 10
-13.0144191077
 20
346.463151327
 30
0.0
 40
10.15193942370146
100
AcDbArc
 50
140.4115465761
 51
178.2868068655
  0
ARC
  5
492
330
3CF
100
AcDbEntity
  8
0
  6
Continuous
 62
     7
370
    25
100
AcDbCircle
 10
114.6596576458
 20
214.0101003969
 30
0.0
 40
4.060775761947728
100
AcDbArc
 50
320.4115464913
 51
358.2868068567
  0
ARC
  5
493
330
3CF
100
AcDbEntity
  8
0
  6
Continuous
 62
     7
370
    25
100
AcDbCircle
 10
-31.6176351982
 20
253.7651342458
 30
0.0
 40
4.060775770971905
100
AcDbArc
 50
320.4115465928
 51
358.2868068672
  0
ARC
  5
494
330
3CF
100
AcDbEntity
  8
0
  6
Continuous
 62
     7
370
    25
100
AcDbCircle
 10
-44.044732091
 20
253.4009376943
 30
0.0
 40
3.652810134713089
100
AcDbArc
 50
182.3136125062
 51
224.8314457208
  0
ARC
  5
495
330
3CF
100
AcDbEntity
  8
0
  6
Continuous
 62
     7
370
    25
100
AcDbCircle
 10
139.5319548073
 20
150.3932372512
 30
0.0
 40
74.17991452685496
100
AcDbArc
 50
255.3969650091
 51
276.8369588144
  0
ARC
  5
496
330
3CF
100
AcDbEntity
  8
0
  6
Continuous
 62
     7
370
    25
100
AcDbCircle
 10
139.5319548073
 20
-267.9044054914
 30
0.0
 40
74.17991452685169
100
AcDbArc
 50
255.3969650091
 51
276.8369588144
  0
ARC
  5
497
330
3CF
100
AcDbEntity
  8
0
  6
Continuous
 62
     8
370
    25
100
AcDbCircle
 10
103.7875715885
 20
173.9311953761
 30
0.0
 40
1.353569539288481
100
AcDbArc
 50
83.288548148
 51
144.2560642049
  0
ARC
  5
498
330
3CF
100
AcDbEntity
  8
0
  6
Continuous
 62
     8
370
    25
100
AcDbCircle
 10
-228.798133248
 20
264.2340921485
 30
0.0
 40
1.42427971488001
100
AcDbArc
 50
78.6268848248
 51
141.7025506473
  0
ARC
  5
499
330
3CF
100
AcDbEntity
  8
0
  6
Continuous
 62
     8
370
    25
100
AcDbCircle
 10
170.4983141869
 20
130.947590359
 30
0.0
 40
2.545440554038015
100
AcDbArc
 50
315.1714856169
 51
358.3944347659
  0
ARC
  5
49A
330
3CF
100
AcDbEntity
  8
0
  6
Continuous
 62
     8
370
    25
100
AcDbCircle
 10
-263.0798956139
 20
293.0379012281
 30
0.0
 40
3.567539909866708
100
AcDbArc
 50
71.4918886701
 51
131.3848605756
  0
VIEWPORT
  5
553
330
3CF
100
AcDbEntity
  8
0
100
AcDbViewport
 10
0.0
 20
0.0
 30
0.0
 40
205.6
 41
156.0
 68
     1
 69
     1
 12
0.0
 22
29.5
 13
0.0
 23
0.0
 14
10.0
 24
10.0
 15
10.0
 25
10.0
 16
0.0
 26
0.0
 36
1.0
 17
0.0
 27
0.0
 37
0.0
 42
50.0
 43
0.0
 44
0.0
 45
610.98
 50
0.0
 51
0.0
 72
   100
 90
   557152
  1

281
     0
 71
     1
 74
     0
110
0.0
120
0.0
130
0.0
111
1.0
121
0.0
131
0.0
112
0.0
122
1.0
132
0.0
 79
     0
146
0.0
  0
ENDBLK
  5
3D2
330
3CF
100
AcDbEntity
  8
0
100
AcDbBlockEnd
  0
BLOCK
  5
49D
330
49B
100
AcDbEntity
  8
0
100
AcDbBlockBegin
  2
*Paper_Space6
 70
     0
 10
0.0
 20
0.0
 30
0.0
  3
*Paper_Space6
  1

  0
SPLINE
  5
4A0
330
49B
100
AcDbEntity
  8
0
  6
Continuous
 62
     7
370
    25
100
AcDbSpline
210
0.0
220
0.0
230
1.0
 70
     8
 71
     3
 72
    27
 73
    23
 74
     0
 42
0.000000001
 43
0.00000001
 40
0.0
 40
0.0
 40
0.0
 40
0.0
 40
0.0302880137527485
 40
0.079811937681007
 40
0.1245338324341195
 40
0.1716575841103776
 40
0.2201179205615616
 40
0.2701877697063209
 40
0.3216639716479702
 40
0.3741501253291564
 40
0.4272051810314729
 40
0.4804113017506715
 40
0.5333807578008496
 40
0.585691634736966
 40
0.6386929481056101
 40
0.6927871605474711
 40
0.7475482794926228
 40
0.8025137205185212
 40
0.8570699882981961
 40
0.9108260807835175
 40
0.9637560559063764
 40
1.0
 40
1.0
 40
1.0
 40
1.0
 10
167.7572010305179
 20
252.1613189337131
 30
0.0
 10
167.7530433036447
 20
252.1503595412304
 30
0.0
 10
167.742087278571
 20
252.121480448762
 30
0.0
 10
167.549898905938
 20
251.8353789483712
 30
0.0
 10
167.145489372758
 20
251.4171578403803
 30
0.0
 10
166.4629270145938
 20
250.8625050370926
 30
0.0
 10
165.4857511339009
 20
250.2275214388514
 30
0.0
 10
164.2086317713636
 20
249.54498021335
 30
0.0
 10
162.6363451970111
 20
248.8481049346018
 30
0.0
 10
160.7839892635463
 20
248.1645380515517
 30
0.0
 10
158.6774050144321
 20
247.5192956298715
 30
0.0
 10
156.3505151578479
 20
246.9327247600968
 30
0.0
 10
153.844646566797
 20
246.4226521444031
 30
0.0
 10
151.1790085113468
 20
245.9946692213958
 30
0.0
 10
148.3692405867699
 20
245.6488544924467
 30
0.0
 10
145.4191763019008
 20
245.3885457222364
 30
0.0
 10
142.365237171575
 20
245.2207850698929
 30
0.0
 10
139.2648827190586
 20
245.1518026080916
 30
0.0
 10
136.1772772858207
 20
245.1839432803951
 30
0.0
 10
133.1557850865274
 20
245.3177389274063
 30
0.0
 10
130.5306322981424
 20
245.5233309455738
 30
0.0
 10
128.9413256614202
 20
245.7036631326597
 30
0.0
 10
128.2953661544802
 20
245.7769575416579
 30
0.0
  0
SPLINE
  5
4A1
330
49B
100
AcDbEntity
  8
0
  6
Continuous
 62
     7
370
    25
100
AcDbSpline
210
0.0
220
0.0
230
1.0
 70
     8
 71
     3
 72
    25
 73
    21
 74
     0
 42
0.000000001
 43
0.00000001
 40
0.0
 40
0.0
 40
0.0
 40
0.0
 40
0.0302592926853573
 40
0.087803853290057
 40
0.1452565389603583
 40
0.2026382362571418
 40
0.2599880961225962
 40
0.317342062820076
 40
0.3747251676039154
 40
0.4321753609830201
 40
0.4897346863265331
 40
0.5474522921990729
 40
0.605388192803112
 40
0.6636180609888229
 40
0.7222391121583043
 40
0.7813760868129863
 40
0.8411825216056349
 40
0.9018197550087395
 40
0.9633575975535595
 40
1.0
 40
1.0
 40
1.0
 40
1.0
 10
143.3138294260924
 20
187.9170728324916
 30
0.0
 10
143.9091247685336
 20
187.8453305659316
 30
0.0
 10
145.6365023862284
 20
187.6371549316483
 30
0.0
 10
148.5689551848683
 20
187.372596878
 30
0.0
 10
152.1107889422437
 20
187.160387525104
 30
0.0
 10
155.6904387848733
 20
187.0579168802128
 30
0.0
 10
159.2800343718008
 20
187.0638125868516
 30
0.0
 10
162.8542924438016
 20
187.1784180637093
 30
0.0
 10
166.3873843605367
 20
187.4009637924884
 30
0.0
 10
169.8541535432592
 20
187.7303615259376
 30
0.0
 10
173.2304262796164
 20
188.1651304258767
 30
0.0
 10
176.4931805523689
 20
188.7036043269774
 30
0.0
 10
179.6208951462826
 20
189.3441675340117
 30
0.0
 10
182.5938700435458
 20
190.085684551569
 30
0.0
 10
185.3946974922798
 20
190.9280345465004
 30
0.0
 10
188.0078664532293
 20
191.8734054285871
 30
0.0
 10
190.4216058109456
 20
192.9264142564728
 30
0.0
 10
192.6180052736415
 20
194.100613189719
 30
0.0
 10
194.3254157272986
 20
195.2210731867435
 30
0.0
 10
195.242540502531
 20
195.9905111558504
 30
0.0
 10
195.5848258075907
 20
196.2776774358295
 30
0.0
  0
SPLINE
  5
4A2
330
49B
100
AcDbEntity
  8
0
  6
Continuous
 62
     7
370
    25
100
AcDbSpline
210
0.0
220
0.0
230
1.0
 70
     8
 71
     3
 72
    17
 73
    13
 74
     0
 42
0.000000001
 43
0.00000001
 40
0.0
 40
0.0
 40
0.0
 40
0.0
 40
0.0041091714435995
 40
0.0157680078547859
 40
0.0368060598576459
 40
0.5482848723918076
 40
0.8040242786588884
 40
0.9318939817924289
 40
0.963861407575814
 40
0.9878369769133527
 40
0.9984802460909432
 40
1.0
 40
1.0
 40
1.0
 40
1.0
 10
128.3196703942634
 20
245.8006477897457
 30
0.0
 10
127.8306911198101
 20
245.853008153928
 30
0.0
 10
125.9543447209721
 20
246.0539291047908
 30
0.0
 10
121.6601993864451
 20
246.6166618637964
 30
0.0
 10
57.77099563285917
 20
254.5755401188254
 30
0.0
 10
-34.5452156959165
 20
266.3103666153801
 30
0.0
 10
-139.5186072385196
 20
279.5066436357126
 30
0.0
 10
-188.2276212051048
 20
285.6565373178072
 30
0.0
 10
-209.7911907814091
 20
288.3622282616971
 30
0.0
 10
-217.5809426603978
 20
289.3585383672553
 30
0.0
 10
-221.8415670915542
 20
289.8747431967843
 30
0.0
 10
-223.2218933003889
 20
290.0827443445011
 30
0.0
 10
-223.3943632642051
 20
290.1087338172726
 30
0.0
  0
SPLINE
  5
4A5
330
49B
100
AcDbEntity
  8
0
  6
Continuous
 62
     7
370
    25
100
AcDbSpline
210
0.0
220
0.0
230
1.0
 70
     8
 71
     3
 72
    16
 73
    12
 74
     0
 42
0.000000001
 43
0.00000001
 40
0.0
 40
0.0
 40
0.0
 40
0.0
 40
0.0753440583273546
 40
0.2025499593201329
 40
0.3140018344661488
 40
0.4323157339712332
 40
0.549068871834203
 40
0.6740846423861462
 40
0.7974013840287195
 40
0.9180971384965035
 40
1.0
 40
1.0
 40
1.0
 40
1.0
 10
-223.3948154325773
 20
290.1066943714933
 30
0.0
 10
-223.9310025453799
 20
290.1820950363331
 30
0.0
 10
-225.3724523464282
 20
290.3847971728395
 30
0.0
 10
-227.513850443876
 20
290.7551531625923
 30
0.0
 10
-229.8323511206354
 20
291.2271266663136
 30
0.0
 10
-231.8799526089455
 20
291.7517642445212
 30
0.0
 10
-233.8308865661202
 20
292.3544134796814
 30
0.0
 10
-235.5857541967889
 20
293.0055281203947
 30
0.0
 10
-237.0886160392775
 20
293.6840280484251
 30
0.0
 10
-238.2024653538187
 20
294.2889101595295
 30
0.0
 10
-238.6736311669088
 20
294.6233478052329
 30
0.0
 10
-238.8641054608703
 20
294.7585481374084
 30
0.0
  0
SPLINE
  5
4A6
330
49B
100
AcDbEntity
  8
0
  6
Continuous
 62
     7
370
    25
100
AcDbSpline
210
0.0
220
0.0
230
1.0
 70
     8
 71
     3
 72
    14
 73
    10
 74
     0
 42
0.000000001
 43
0.00000001
 40
0.0
 40
0.0
 40
0.0
 40
0.0
 40
0.1188275635032146
 40
0.3091849288846655
 40
0.4851374106822366
 40
0.6506504505092676
 40
0.8098620936256609
 40
0.9794396182617078
 40
1.0
 40
1.0
 40
1.0
 40
1.0
 10
-266.7036261574445
 20
307.660999862572
 30
0.0
 10
-267.0050062494628
 20
307.383646428427
 30
0.0
 10
-267.7891861111952
 20
306.6619830425604
 30
0.0
 10
-268.8555639055251
 20
305.4071710619667
 30
0.0
 10
-269.8208783591363
 20
303.8828744372462
 30
0.0
 10
-270.5060462009163
 20
302.3044646980094
 30
0.0
 10
-270.8902419217187
 20
300.6409532361533
 30
0.0
 10
-271.0280947078584
 20
299.4122679925554
 30
0.0
 10
-270.9395190046732
 20
298.7585371800333
 30
0.0
 10
-270.9299409552198
 20
298.6878466201348
 30
0.0
  0
SPLINE
  5
4A8
330
49B
100
AcDbEntity
  8
0
  6
Continuous
 62
     7
370
    25
100
AcDbSpline
210
0.0
220
0.0
230
1.0
 70
     8
 71
     3
 72
    22
 73
    18
 74
     0
 42
0.000000001
 43
0.00000001
 40
0.0
 40
0.0
 40
0.0
 40
0.0
 40
0.0113144440736808
 40
0.0698148892845341
 40
0.1285332429713931
 40
0.189438908955604
 40
0.2543069886716871
 40
0.3242992343708692
 40
0.3991628023155888
 40
0.4769490170408965
 40
0.5551973769421761
 40
0.6326657779810391
 40
0.709230266128382
 40
0.7850195718490136
 40
0.8602017751235919
 40
0.9349244740647165
 40
1.0
 40
1.0
 40
1.0
 40
1.0
 10
-268.3067815792308
 20
251.6514487613238
 30
0.0
 10
-268.3091600149822
 20
251.5477049758754
 30
0.0
 10
-268.3238359661445
 20
250.9075620887947
 30
0.0
 10
-268.0409180414699
 20
249.7476411202733
 30
0.0
 10
-267.4712688603068
 20
248.2360272619814
 30
0.0
 10
-266.6024763285438
 20
246.8046868017141
 30
0.0
 10
-265.4625364843455
 20
245.433576027505
 30
0.0
 10
-264.0159188767061
 20
244.1108660939788
 30
0.0
 10
-262.247334555169
 20
242.8415048263014
 30
0.0
 10
-260.1664105709171
 20
241.6456528578608
 30
0.0
 10
-257.8129171363823
 20
240.5448315330298
 30
0.0
 10
-255.2325137627877
 20
239.550488789532
 30
0.0
 10
-252.4570820053859
 20
238.664041311464
 30
0.0
 10
-249.5078348542141
 20
237.8826332803574
 30
0.0
 10
-246.4007438987028
 20
237.2074448303755
 30
0.0
 10
-243.2985084306007
 20
236.6533620066433
 30
0.0
 10
-241.1883317211516
 20
236.3685943973613
 30
0.0
 10
-240.2060527308055
 20
236.236036190991
 30
0.0
  0
SPLINE
  5
4A9
330
49B
100
AcDbEntity
  8
0
  6
Continuous
 62
     7
370
    25
100
AcDbSpline
210
0.0
220
0.0
230
1.0
 70
     8
 71
     3
 72
    33
 73
    29
 74
     0
 42
0.000000001
 43
0.00000001
 40
0.0
 40
0.0
 40
0.0
 40
0.0
 40
0.0333460173737566
 40
0.0693958861282226
 40
0.1042371974788377
 40
0.1411412994690621
 40
0.1781599055283143
 40
0.2160356309843311
 40
0.2548629434752519
 40
0.2944733351117229
 40
0.3346656158828036
 40
0.3752689459943438
 40
0.4161524493246365
 40
0.4572181781210496
 40
0.4983910875833982
 40
0.5396100927411819
 40
0.5808131307236407
 40
0.6219350472811589
 40
0.6629123265606156
 40
0.7036655647535472
 40
0.7440900662728539
 40
0.7840452964743427
 40
0.8233484098829497
 40
0.8617911774559245
 40
0.8992357759609627
 40
0.9359224872966507
 40
0.9728639383341803
 40
1.0
 40
1.0
 40
1.0
 40
1.0
 10
207.9670218922867
 20
306.568461125162
 30
0.0
 10
207.9688037406795
 20
306.5529597981279
 30
0.0
 10
207.9725119180845
 20
306.5207002238094
 30
0.0
 10
207.8826189897188
 20
306.3035225957508
 30
0.0
 10
207.5613102038171
 20
305.9071737206077
 30
0.0
 10
206.9553158973461
 20
305.4071990372438
 30
0.0
 10
206.0456593278943
 20
304.8575376140041
 30
0.0
 10
204.8537885585072
 20
304.3051411411753
 30
0.0
 10
203.389098981239
 20
303.775321973612
 30
0.0
 10
201.6739861218403
 20
303.2905886833002
 30
0.0
 10
199.7408060734994
 20
302.8695758314566
 30
0.0
 10
197.6277139859309
 20
302.5266716408622
 30
0.0
 10
195.376208390852
 20
302.2724556424629
 30
0.0
 10
193.0297064065571
 20
302.1142151498308
 30
0.0
 10
190.6326802568583
 20
302.0563481672768
 30
0.0
 10
188.2301908884473
 20
302.1006146622435
 30
0.0
 10
185.8674249906987
 20
302.24622227554
 30
0.0
 10
183.5890081975081
 20
302.4898035886421
 30
0.0
 10
181.4383991495945
 20
302.8253151883275
 30
0.0
 10
179.4574403138633
 20
303.2437592973139
 30
0.0
 10
177.6860495169654
 20
303.7325524533202
 30
0.0
 10
176.1615126884509
 20
304.2744034973863
 30
0.0
 10
174.9170120491124
 20
304.8454578792938
 30
0.0
 10
173.978736942411
 20
305.4122898725082
 30
0.0
 10
173.358503792524
 20
305.9285041864837
 30
0.0
 10
173.0445720163819
 20
306.3293917547437
 30
0.0
 10
172.9726366304388
 20
306.5216322645414
 30
0.0
 10
172.9747635460437
 20
306.5523776117179
 30
0.0
 10
172.9756642694111
 20
306.5653978992059
 30
0.0
  0
LWPOLYLINE
  5
4AD
330
49B
100
AcDbEntity
  8
0
  6
Continuous
 62
     7
370
    25
100
AcDbPolyline
 90
        9
 70
   128
 43
0.0
 10
-258.4574827156
 20
195.383185086
 10
-256.6210838416
 20
194.3728107372
 10
-254.5235976159
 20
193.4205841489
 10
-252.181489394
 20
192.5339803401
 10
-249.6131448248
 20
191.7199591882
 10
-246.8387255218
 20
190.9849107937
 10
-243.8800107941
 20
190.3346053178
 10
-240.7602266775
 20
189.7741476858
 10
-237.5038636095
 20
189.3079375139
  0
LWPOLYLINE
  5
4B3
330
49B
100
AcDbEntity
  8
0
  6
Continuous
 62
     7
370
    25
100
AcDbPolyline
 90
        9
 70
   128
 43
0.0
 10
-237.5038636095
 20
-270.7828747918
 10
-240.7602266775
 20
-270.31666462
 10
-243.8800107941
 20
-269.756206988
 10
-246.8387255218
 20
-269.105901512
 10
-249.6131448248
 20
-268.3708531176
 10
-252.181489394
 20
-267.5568319657
 10
-254.5235976159
 20
-266.6702281568
 10
-256.6210838416
 20
-265.7180015685
 10
-258.4574827156
 20
-264.7076272198
  0
LWPOLYLINE
  5
4B6
330
49B
100
AcDbEntity
  8
0
  6
Continuous
 62
     7
370
    25
100
AcDbPolyline
 90
        6
 70
   128
 43
0.0
 10
-258.4574827156
 20
-264.2421311953
 10
-259.8261283108
 20
-263.1882219659
 10
-261.1064872808
 20
-261.8718959766
 10
-261.9706627852
 20
-260.518425262
 10
-262.4093467108
 20
-259.1423881786
 10
-262.4675551826
 20
-258.4233386896
  0
LWPOLYLINE
  5
4B7
330
49B
100
AcDbEntity
  8
0
  6
Continuous
 62
     7
370
    25
100
AcDbPolyline
 90
        9
 70
   128
 43
0.0
 10
196.5980721499
 20
-311.2206449935
 10
194.9308154012
 20
-312.487925591
 10
192.8784994937
 20
-313.6907807822
 10
190.4632301094
 20
-314.8162545039
 10
187.7110223354
 20
-315.852224176
 10
184.6515204529
 20
-316.7875312745
 10
181.3176786361
 20
-317.6121015212
 10
177.7454059995
 20
-318.3170533948
 10
173.9731798178
 20
-318.8947937942
  0
LWPOLYLINE
  5
4C0
330
49B
100
AcDbEntity
  8
0
  6
Continuous
 62
     7
370
    25
100
AcDbPolyline
 90
        9
 70
   128
 43
0.0
 10
-236.6096908031
 20
191.0809004127
 10
-240.0060161544
 20
191.569758894
 10
-243.2523233266
 20
192.1611188303
 10
-246.3208444844
 20
192.8499219249
 10
-249.1853325155
 20
193.6302763845
 10
-251.8212855392
 20
194.4955073157
 10
-254.2061564873
 20
195.4382138203
 10
-256.3195459647
 20
196.4503322992
 10
-258.1433767385
 20
197.5232054267
  0
LWPOLYLINE
  5
4C1
330
49B
100
AcDbEntity
  8
0
  6
Continuous
 62
     7
370
    25
100
AcDbPolyline
 90
       18
 70
   128
 43
0.0
 10
199.1241878381
 20
245.3921644181
 10
197.486739053
 20
244.1279448612
 10
195.5063329421
 20
242.9194798131
 10
193.1998656321
 20
241.7770794715
 10
190.5870150889
 20
240.7104903933
 10
187.6900732319
 20
239.7288123404
 10
184.5337557478
 20
238.8404206439
 10
181.1449912244
 20
238.0528947484
 10
177.5526914057
 20
237.3729535473
 10
173.7875045272
 20
236.8063980591
 10
169.8815538358
 20
236.3580619355
 10
165.8681635255
 20
236.0317702222
 10
161.7815744275
 20
235.8303067251
 10
157.656651879
 20
235.7553902597
 10
153.5285882648
 20
235.8076599868
 10
149.4326027682
 20
235.9866699596
 10
145.4036408931
 20
236.2908929281
 10
141.4760763218
 20
236.7177333692
  0
LWPOLYLINE
  5
4C3
330
49B
100
AcDbEntity
  8
0
  6
Continuous
 62
     7
370
    25
100
AcDbPolyline
 90
       17
 70
   128
 43
0.0
 10
143.2414206112
 20
243.2353799637
 10
146.9518720449
 20
242.8360821961
 10
150.7618707169
 20
242.559936436
 10
154.634724257
 20
242.4096021179
 10
158.5331349686
 20
242.3865270437
 10
162.4195590255
 20
242.4909334388
 10
166.2565680394
 20
242.7218158125
 10
170.007209516
 20
243.0769506415
 10
173.6353627277
 20
243.5529177832
 10
177.1060865756
 20
244.1451334139
 10
180.3859560917
 20
244.8478941731
 10
183.4433843397
 20
245.6544320908
 10
186.2489266142
 20
246.5569797657
 10
188.7755640094
 20
247.5468451705
 10
190.9989636261
 20
248.6144953602
 10
192.8977129103
 20
249.7496482798
 10
194.4535258687
 20
250.9413717862
  0
LWPOLYLINE
  5
4C6
330
49B
100
AcDbEntity
  8
0
  6
Continuous
 62
     7
370
    25
100
AcDbPolyline
 90
       18
 70
   128
 43
0.0
 10
142.4015539943
 20
190.4428186899
 10
146.099243834
 20
190.0409606088
 10
149.8923963383
 20
189.7545433751
 10
153.7486496676
 20
189.5860105997
 10
157.6351036281
 20
189.5368001449
 10
161.5186003651
 20
189.6073318569
 10
165.3660072535
 20
189.7970039839
 10
169.1444995744
 20
190.1041983104
 10
172.8218405635
 20
190.5262939625
 10
176.3666564442
 20
191.059689769
 10
179.7487040972
 20
191.6998349851
 10
182.9391290845
 20
192.4412681173
 10
185.9107118248
 20
193.2776635196
 10
188.6380998221
 20
194.2018853614
 10
191.0980239636
 20
195.2060485078
 10
193.2694970438
 20
196.2815857929
 10
195.1339928201
 20
197.4193211117
 10
196.675604072
 20
198.6095477078
  0
LWPOLYLINE
  5
4CA
330
49B
100
AcDbEntity
  8
0
  6
Continuous
 62
     7
370
    25
100
AcDbPolyline
 90
       17
 70
   128
 43
0.0
 10
-263.3964370186
 20
308.6250450707
 10
-264.5943303217
 20
307.3882279264
 10
-265.4227676024
 20
306.1182283694
 10
-265.8737705566
 20
304.8272771896
 10
-265.9429957794
 20
303.5278069527
 10
-265.629776594
 20
302.2323322674
 10
-264.9371294725
 20
300.9533292631
 10
-263.8717249852
 20
299.7031154378
 10
-262.4438235598
 20
298.4937310342
 10
-260.6671766675
 20
297.3368230852
 10
-258.5588943893
 20
296.2435332468
 10
-256.1392806357
 20
295.2243904977
 10
-253.4316376102
 20
294.2892097397
 10
-250.462041395
 20
293.4469972749
 10
-247.2590908252
 20
292.7058640695
 10
-243.8536320656
 20
292.0729476416
 10
-240.2784615457
 20
291.5543433222
  0
SPLINE
  5
4CD
330
49B
100
AcDbEntity
  8
0
  6
Continuous
 62
     7
370
    25
100
AcDbSpline
210
0.0
220
0.0
230
1.0
 70
     8
 71
     3
 72
    46
 73
    42
 74
     0
 42
0.000000001
 43
0.00000001
 40
0.0
 40
0.0
 40
0.0
 40
0.0
 40
0.0624999999999994
 40
0.0624999999999994
 40
0.0937499999999997
 40
0.0937499999999997
 40
0.125
 40
0.125
 40
0.1875000000000006
 40
0.1875000000000006
 40
0.2500000000000013
 40
0.2500000000000013
 40
0.2812500000000018
 40
0.2812500000000018
 40
0.3125000000000023
 40
0.3125000000000023
 40
0.3750000000000016
 40
0.3750000000000016
 40
0.4062500000000008
 40
0.4062500000000008
 40
0.4375000000000006
 40
0.4375000000000006
 40
0.4999999999999999
 40
0.4999999999999999
 40
0.5624999999999993
 40
0.5624999999999993
 40
0.5937499999999992
 40
0.5937499999999992
 40
0.6249999999999991
 40
0.6249999999999991
 40
0.6874999999999997
 40
0.6874999999999997
 40
0.7500000000000001
 40
0.7500000000000001
 40
0.7812500000000001
 40
0.7812500000000001
 40
0.8125
 40
0.8125
 40
0.875
 40
0.875
 40
1.0
 40
1.0
 40
1.0
 40
1.0
 10
-224.0830838707666
 20
289.8435048258676
 30
0.0
 10
-225.3952313556286
 20
290.0166721154757
 30
0.0
 10
-226.6658006129902
 20
290.2167225418656
 30
0.0
 10
-228.5098526840086
 20
290.5567572356603
 30
0.0
 10
-229.1143757645704
 20
290.6766718706849
 30
0.0
 10
-230.3027288476229
 20
290.9298806155621
 30
0.0
 10
-230.8830326666674
 20
291.0625166572235
 30
0.0
 10
-232.5757291097722
 20
291.4764533486299
 30
0.0
 10
-233.6431219412233
 20
291.7744986137616
 30
0.0
 10
-235.6593628658193
 20
292.4134627429795
 30
0.0
 10
-236.6077304776023
 20
292.7545553808283
 30
0.0
 10
-237.9382671313517
 20
293.2994729473722
 30
0.0
 10
-238.366880112689
 20
293.4870493069765
 30
0.0
 10
-239.1807290894915
 20
293.8679735779796
 30
0.0
 10
-239.5676448917011
 20
294.0619307852757
 30
0.0
 10
-240.6697947864989
 20
294.6540380872526
 30
0.0
 10
-241.3263862507674
 20
295.062431742867
 30
0.0
 10
-242.1948082917394
 20
295.6953660947418
 30
0.0
 10
-242.4648902566896
 20
295.9097315709949
 30
0.0
 10
-242.9658199538956
 20
296.3453158700308
 30
0.0
 10
-243.1971088881135
 20
296.5670178489002
 30
0.0
 10
-243.8271978110774
 20
297.2395545825072
 30
0.0
 10
-244.157289701248
 20
297.6918692852245
 30
0.0
 10
-244.6493370828503
 20
298.6038935433141
 30
0.0
 10
-244.8097847084659
 20
299.0636694165424
 30
0.0
 10
-244.9237956626009
 20
299.7589039155715
 30
0.0
 10
-244.940854393184
 20
299.9915699328355
 30
0.0
 10
-244.9324407197854
 20
300.4587725407537
 30
0.0
 10
-244.9066890356447
 20
300.6941838882924
 30
0.0
 10
-244.7646272931854
 20
301.3950529525284
 30
0.0
 10
-244.5856211860429
 20
301.8557706068698
 30
0.0
 10
-244.0705021387121
 20
302.7650389478089
 30
0.0
 10
-243.7331961532186
 20
303.2134972403107
 30
0.0
 10
-243.1098568404387
 20
303.8770942867723
 30
0.0
 10
-242.8825419932485
 20
304.096780429534
 30
0.0
 10
-242.3885629756903
 20
304.5331053495378
 30
0.0
 10
-242.1210500690659
 20
304.7503391391043
 30
0.0
 10
-241.2640754431373
 20
305.3930454685944
 30
0.0
 10
-240.6247898565272
 20
305.8067079642473
 30
0.0
 10
-238.5155011349447
 20
307.0059883168493
 30
0.0
 10
-236.8558624838709
 20
307.7502904296751
 30
0.0
 10
-234.9415008500008
 20
308.4390962420403
 30
0.0
  0
SPLINE
  5
4CE
330
49B
100
AcDbEntity
  8
0
  6
Continuous
 62
     7
370
    25
100
AcDbSpline
210
0.0
220
0.0
230
1.0
 70
     8
 71
     3
 72
    25
 73
    21
 74
     0
 42
0.000000001
 43
0.00000001
 40
0.0
 40
0.0
 40
0.0
 40
0.0
 40
0.00390625
 40
0.00390625
 40
0.0078124999999999
 40
0.0156250000000001
 40
0.0312500000000001
 40
0.0625000000000002
 40
0.1250000000000003
 40
0.2500000000000003
 40
0.5000000000000004
 40
0.7500000000000003
 40
0.8750000000000002
 40
0.9375000000000003
 40
0.9687500000000004
 40
0.9843750000000004
 40
0.9921875000000004
 40
0.9960937500000002
 40
0.9960937500000002
 40
1.0
 40
1.0
 40
1.0
 40
1.0
 10
127.700047455178
 20
245.5229962329736
 30
0.0
 10
127.2392931744604
 20
245.5783208952022
 30
0.0
 10
126.7825129388845
 20
245.6371506625844
 30
0.0
 10
125.8664110332679
 20
245.7525686538531
 30
0.0
 10
124.4922581748431
 20
245.925695640756
 30
0.0
 10
121.2859015051852
 20
246.3296586101965
 30
0.0
 10
114.8731881658694
 20
247.1375845490771
 30
0.0
 10
102.0477614872382
 20
248.7534364268383
 30
0.0
 10
76.39690812997516
 20
251.9851401823606
 30
0.0
 10
25.09520141544834
 20
258.448547693404
 30
0.0
 10
-48.192951033875
 20
267.681986994896
 30
0.0
 10
-121.4811034831981
 20
276.9154262963874
 30
0.0
 10
-172.7828101977244
 20
283.3788338074318
 30
0.0
 10
-198.4336635549875
 20
286.6105375629537
 30
0.0
 10
-211.2590902336193
 20
288.2263894407149
 30
0.0
 10
-217.6718035729349
 20
289.0343153795955
 30
0.0
 10
-220.8781602425926
 20
289.4382783490353
 30
0.0
 10
-222.2523131010178
 20
289.6114053359386
 30
0.0
 10
-223.1684150066343
 20
289.7268233272073
 30
0.0
 10
-223.6277370565929
 20
289.7834116011717
 30
0.0
 10
-224.0830838707667
 20
289.8435048258676
 30
0.0
  0
SPLINE
  5
4CF
330
49B
100
AcDbEntity
  8
0
  6
Continuous
 62
     7
370
    25
100
AcDbSpline
210
0.0
220
0.0
230
1.0
 70
     8
 71
     3
 72
    46
 73
    42
 74
     0
 42
0.000000001
 43
0.00000001
 40
0.0
 40
0.0
 40
0.0
 40
0.0
 40
0.1249999999999964
 40
0.1249999999999964
 40
0.1562499999999959
 40
0.1562499999999959
 40
0.1874999999999953
 40
0.1874999999999953
 40
0.2499999999999948
 40
0.2499999999999948
 40
0.3124999999999943
 40
0.3124999999999943
 40
0.3437499999999941
 40
0.3437499999999941
 40
0.3749999999999937
 40
0.3749999999999937
 40
0.4374999999999934
 40
0.4374999999999934
 40
0.4999999999999932
 40
0.4999999999999932
 40
0.5312499999999931
 40
0.5312499999999931
 40
0.562499999999993
 40
0.562499999999993
 40
0.6249999999999932
 40
0.6249999999999932
 40
0.6562499999999938
 40
0.6562499999999938
 40
0.6874999999999943
 40
0.6874999999999943
 40
0.7499999999999953
 40
0.7499999999999953
 40
0.8124999999999964
 40
0.8124999999999964
 40
0.8437499999999968
 40
0.8437499999999968
 40
0.8749999999999971
 40
0.8749999999999971
 40
0.9374999999999986
 40
0.9374999999999986
 40
1.0
 40
1.0
 40
1.0
 40
1.0
 10
172.7433429711395
 20
257.0756338850053
 30
0.0
 10
172.8122807043864
 20
256.1373176644351
 30
0.0
 10
172.5805113082728
 20
255.2107973957979
 30
0.0
 10
171.9101312050237
 20
254.0675796811995
 30
0.0
 10
171.7568345265005
 20
253.839690114272
 30
0.0
 10
171.410562784076
 20
253.3854674594004
 30
0.0
 10
171.217882171423
 20
253.1596834134046
 30
0.0
 10
170.5862152775009
 20
252.4922034991387
 30
0.0
 10
170.0920593498232
 20
252.0580668656211
 30
0.0
 10
168.9580997889817
 20
251.2114279521237
 30
0.0
 10
168.317934569841
 20
250.7989793817364
 30
0.0
 10
167.2428243092652
 20
250.1973680682563
 30
0.0
 10
166.8641666318626
 20
249.9990476866145
 30
0.0
 10
166.0743090355267
 20
249.6115309386175
 30
0.0
 10
165.6637533109738
 20
249.4225576395965
 30
0.0
 10
164.3849309159962
 20
248.8700770035879
 30
0.0
 10
163.4695311479486
 20
248.5210021532252
 30
0.0
 10
161.5157264069713
 20
247.8605175130131
 30
0.0
 10
160.4763314722685
 20
247.5494108564343
 30
0.0
 10
158.8182913750547
 20
247.1130493530775
 30
0.0
 10
158.2530912831739
 20
246.9736382181469
 30
0.0
 10
157.1036198149866
 20
246.7080713327161
 30
0.0
 10
156.5184500801918
 20
246.5816999008877
 30
0.0
 10
154.7314868009542
 20
246.221915091395
 30
0.0
 10
153.4986661065286
 20
246.0075688414007
 30
0.0
 10
151.5867771147785
 20
245.7245546831319
 30
0.0
 10
150.9389583291763
 20
245.6366829991326
 30
0.0
 10
149.6217242748631
 20
245.4742113270797
 30
0.0
 10
148.9515399119527
 20
245.3995955351135
 30
0.0
 10
146.9371302463406
 20
245.1988724002167
 30
0.0
 10
145.5798543573006
 20
245.0944975032607
 30
0.0
 10
142.8370648109176
 20
244.9437365673176
 30
0.0
 10
141.4516259998657
 20
244.8971968245781
 30
0.0
 10
139.3518146897699
 20
244.8718538323063
 30
0.0
 10
138.6457243167181
 20
244.8708109503228
 30
0.0
 10
137.2407387784891
 20
244.8838187594789
 30
0.0
 10
136.5422747320098
 20
244.8978283707019
 30
0.0
 10
134.458671031964
 20
244.9618196415626
 30
0.0
 10
133.0853064047247
 20
245.0337387492047
 30
0.0
 10
130.3690963618458
 20
245.2344357433107
 30
0.0
 10
129.0265231902848
 20
245.3637208337626
 30
0.0
 10
127.700047455178
 20
245.5229962329736
 30
0.0
  0
SPLINE
  5
4D0
330
49B
100
AcDbEntity
  8
0
  6
Continuous
 62
     7
370
    25
100
AcDbSpline
210
0.0
220
0.0
230
1.0
 70
     8
 71
     3
 72
    19
 73
    15
 74
     0
 42
0.000000001
 43
0.00000001
 40
0.0
 40
0.0
 40
0.0
 40
0.0
 40
0.4999999999999998
 40
0.7499999999999997
 40
0.8749999999999996
 40
0.9374999999999997
 40
0.9687499999999998
 40
0.9726562499999998
 40
0.9726562499999998
 40
0.9765624999999998
 40
0.9765624999999998
 40
0.9843749999999998
 40
0.9843749999999998
 40
1.0
 40
1.0
 40
1.0
 40
1.0
 10
138.8635835591528
 20
326.4740743025268
 30
0.0
 10
144.572198779336
 20
314.9110116317246
 30
0.0
 10
153.1351215548798
 20
297.5664176225189
 30
0.0
 10
163.1251981673961
 20
277.3310579473641
 30
0.0
 10
168.1202364690934
 20
267.2133781095365
 30
0.0
 10
170.6177556199419
 20
262.1545381906226
 30
0.0
 10
171.7327195265708
 20
259.8961275125363
 30
0.0
 10
172.134106532957
 20
259.0830996684253
 30
0.0
 10
172.2233036454873
 20
258.9024268141783
 30
0.0
 10
172.2683169996305
 20
258.8121127639138
 30
0.0
 10
172.3921332304528
 20
258.5405651276545
 30
0.0
 10
172.4632669787308
 20
258.3589178196867
 30
0.0
 10
172.6423691382604
 20
257.812125583145
 30
0.0
 10
172.7161955852707
 20
257.4451388180454
 30
0.0
 10
172.7433429711398
 20
257.0756338850053
 30
0.0
  0
SPLINE
  5
4D1
330
49B
100
AcDbEntity
  8
0
  6
Continuous
 62
     7
370
    25
100
AcDbSpline
210
0.0
220
0.0
230
1.0
 70
     8
 71
     3
 72
    26
 73
    22
 74
     0
 42
0.000000001
 43
0.00000001
 40
0.0
 40
0.0
 40
0.0
 40
0.0
 40
0.1249999999999997
 40
0.1249999999999997
 40
0.2499999999999994
 40
0.2499999999999994
 40
0.3124999999999991
 40
0.3124999999999991
 40
0.3749999999999988
 40
0.3749999999999988
 40
0.4999999999999992
 40
0.4999999999999992
 40
0.6249999999999996
 40
0.6249999999999996
 40
0.6874999999999997
 40
0.6874999999999997
 40
0.7499999999999997
 40
0.7499999999999997
 40
0.8749999999999999
 40
0.8749999999999999
 40
1.0
 40
1.0
 40
1.0
 40
1.0
 10
116.9772168279872
 20
335.3809878446714
 30
0.0
 10
118.4014829404617
 20
335.2015471809025
 30
0.0
 10
119.7725550272054
 20
334.9930184006959
 30
0.0
 10
122.4133427343933
 20
334.5205360317092
 30
0.0
 10
123.6830213629196
 20
334.2565622146197
 30
0.0
 10
125.5116577032047
 20
333.819107113277
 30
0.0
 10
126.1085109687966
 20
333.6663482742087
 30
0.0
 10
127.2762504914592
 20
333.3466310434527
 30
0.0
 10
127.8492793717378
 20
333.1789766047351
 30
0.0
 10
129.5094392513006
 20
332.65984856508
 30
0.0
 10
130.5370967309481
 20
332.2929061502151
 30
0.0
 10
132.4397825727052
 20
331.5187841619897
 30
0.0
 10
133.3151071692546
 20
331.1116826840299
 30
0.0
 10
134.5117842013629
 20
330.4703680452918
 30
0.0
 10
134.892157988901
 20
330.2508613937098
 30
0.0
 10
135.6082233977507
 20
329.8039982423733
 30
0.0
 10
135.9421666273267
 20
329.5777989045703
 30
0.0
 10
136.8736855025983
 20
328.8911225246397
 30
0.0
 10
137.401599298346
 20
328.4226416787047
 30
0.0
 10
138.2727938407639
 20
327.4644665579299
 30
0.0
 10
138.6163749109205
 20
326.9748067887813
 30
0.0
 10
138.8635835591527
 20
326.4740743025268
 30
0.0
  0
SPLINE
  5
4D3
330
49B
100
AcDbEntity
  8
0
  6
Continuous
 62
     7
370
    25
100
AcDbSpline
210
0.0
220
0.0
230
1.0
 70
     8
 71
     3
 72
    26
 73
    22
 74
     0
 42
0.000000001
 43
0.00000001
 40
0.0
 40
0.0
 40
0.0
 40
0.0
 40
0.1250000000000002
 40
0.1250000000000002
 40
0.2500000000000004
 40
0.2500000000000004
 40
0.3125000000000009
 40
0.3125000000000009
 40
0.3750000000000014
 40
0.3750000000000014
 40
0.5000000000000008
 40
0.5000000000000008
 40
0.6250000000000002
 40
0.6250000000000002
 40
0.6875000000000002
 40
0.6875000000000002
 40
0.7500000000000001
 40
0.7500000000000001
 40
0.8750000000000001
 40
0.8750000000000001
 40
1.0
 40
1.0
 40
1.0
 40
1.0
 10
-71.82342024520636
 20
353.0181417417246
 30
0.0
 10
-70.64440671616623
 20
353.3391858566054
 30
0.0
 10
-69.41647570116763
 20
353.6303023783804
 30
0.0
 10
-66.86784107782762
 20
354.1557773860146
 30
0.0
 10
-65.5469790195524
 20
354.3900389326087
 30
0.0
 10
-63.49576643602181
 20
354.6986546831609
 30
0.0
 10
-62.80029574637605
 20
354.7943482815557
 30
0.0
 10
-61.38531843631677
 20
354.9710303572251
 30
0.0
 10
-60.66296647742184
 20
355.0523040488772
 30
0.0
 10
-58.48339434228046
 20
355.2711171743668
 30
0.0
 10
-57.01591090134554
 20
355.3839282286125
 30
0.0
 10
-54.05303257705554
 20
355.5456188076824
 30
0.0
 10
-52.5575802568349
 20
355.5943667726035
 30
0.0
 10
-50.29290907738322
 20
355.6182594073078
 30
0.0
 10
-49.53241528341054
 20
355.6179809946266
 30
0.0
 10
-48.01333531904906
 20
355.6006772015794
 30
0.0
 10
-47.25863644158976
 20
355.5837460230961
 30
0.0
 10
-45.00868451966438
 20
355.5087621317625
 30
0.0
 10
-43.52750867524012
 20
355.4266345196777
 30
0.0
 10
-40.60257735182196
 20
355.1983827958939
 30
0.0
 10
-39.15881042951001
 20
355.0522782546153
 30
0.0
 10
-37.73453654964538
 20
354.8728366128268
 30
0.0
  0
SPLINE
  5
4D4
330
49B
100
AcDbEntity
  8
0
  6
Continuous
 62
     7
370
    25
100
AcDbSpline
210
0.0
220
0.0
230
1.0
 70
     8
 71
     3
 72
    19
 73
    15
 74
     0
 42
0.000000001
 43
0.00000001
 40
0.0
 40
0.0
 40
0.0
 40
0.0
 40
0.0156250000000005
 40
0.0156250000000005
 40
0.0234375000000006
 40
0.0234375000000006
 40
0.0273437500000007
 40
0.0273437500000007
 40
0.0312500000000007
 40
0.0625000000000007
 40
0.1250000000000007
 40
0.2500000000000006
 40
0.5000000000000003
 40
1.0
 40
1.0
 40
1.0
 40
1.0
 10
-234.9415008500011
 20
308.4390962420404
 30
0.0
 10
-234.1881822032755
 20
308.710147569672
 30
0.0
 10
-233.404791447916
 20
308.9690554189062
 30
0.0
 10
-232.1856363321622
 20
309.3396216086164
 30
0.0
 10
-231.771881187184
 20
309.4601675344347
 30
0.0
 10
-231.1402117323535
 20
309.6365296561495
 30
0.0
 10
-230.9272416629873
 20
309.6943423956973
 30
0.0
 10
-230.5018303757739
 20
309.810181431382
 30
0.0
 10
-228.587479583314
 20
310.3314570919624
 30
0.0
 10
-223.2698384931477
 20
311.7794450380197
 30
0.0
 10
-211.3583224511749
 20
315.0229380371874
 30
0.0
 10
-187.5352903672287
 20
321.5099240355232
 30
0.0
 10
-139.889226195374
 20
334.4838960305768
 30
0.0
 10
-99.04974263478574
 20
345.6044434611471
 30
0.0
 10
-71.82342024520635
 20
353.0181417417246
 30
0.0
  0
LWPOLYLINE
  5
4D5
330
49B
100
AcDbEntity
  8
0
  6
Continuous
 62
     7
370
    25
100
AcDbPolyline
 90
       47
 70
   128
 43
0.0
 10
197.3659604323
 20
314.5389634018
 10
199.7855052565
 20
314.1694079808
 10
202.0315509396
 20
313.6934741819
 10
204.0622579001
 20
313.1200277514
 10
205.8397979098
 20
312.4597509112
 10
207.3310587614
 20
311.7249433695
 10
208.5082610869
 20
310.9292932006
 10
209.3494758342
 20
310.0876218616
 10
209.8390327643
 20
309.2156080972
 10
209.9678123578
 20
308.3294958738
 10
209.7334156946
 20
307.4457917855
 10
209.1402091411
 20
306.5809575676
 10
208.1992430128
 20
305.7511034451
 10
206.9280457285
 20
304.9716880302
 10
205.3502972883
 20
304.2572303573
 10
203.4953881604
 20
303.6210394212
 10
201.3978717923
 20
303.0749662552
 10
199.0968209453
 20
302.6291831692
 10
196.6350998428
 20
302.2919942586
 10
194.0585656913
 20
302.0696807149
 10
191.4152144471
 20
301.9663838188
 10
188.7542867423
 20
301.9840277959
 10
186.1253506255
 20
302.1222839724
 10
183.5773782024
 20
302.3785768972
 10
181.1578333782
 20
302.7481323182
 10
178.9117876951
 20
303.2240661171
 10
176.8810807346
 20
303.7975125476
 10
175.1035407249
 20
304.4577893878
 10
173.6122798733
 20
305.1925969295
 10
172.4350775478
 20
305.9882470984
 10
171.5938628005
 20
306.8299184373
 10
171.1043058704
 20
307.7019322018
 10
170.9755262769
 20
308.5880444252
 10
171.2099229401
 20
309.4717485134
 10
171.8031294936
 20
310.3365827314
 10
172.7440956219
 20
311.1664368539
 10
174.0152929062
 20
311.9458522688
 10
175.5930413464
 20
312.6603099417
 10
177.4479504743
 20
313.2965008778
 10
179.5454668424
 20
313.8425740438
 10
181.8465176894
 20
314.2883571298
 10
184.3082387919
 20
314.6255460404
 10
186.8847729434
 20
314.8478595841
 10
189.5281241876
 20
314.9511564802
 10
192.1890518924
 20
314.9335125031
 10
194.8179880092
 20
314.7952563266
 10
197.3659604323
 20
314.5389634018
  0
SPLINE
  5
4DC
330
49B
100
AcDbEntity
  8
0
  6
Continuous
 62
     7
370
    25
100
AcDbSpline
210
0.0
220
0.0
230
1.0
 70
     8
 71
     3
 72
    10
 73
     6
 74
     0
 42
0.000000001
 43
0.00000001
 40
0.0
 40
0.0
 40
0.0
 40
0.0
 40
0.5
 40
0.5
 40
1.0
 40
1.0
 40
1.0
 40
1.0
 10
-227.8292782435295
 20
304.1074177238697
 30
0.0
 10
-228.4496861124355
 20
304.0556866867006
 30
0.0
 10
-229.0567350887359
 20
303.9977520219849
 30
0.0
 10
-230.2378339413396
 20
303.8656914666039
 30
0.0
 10
-230.8129469393378
 20
303.7910392843564
 30
0.0
 10
-231.372304079297
 20
303.7091403506161
 30
0.0
  0
SPLINE
  5
4DE
330
49B
100
AcDbEntity
  8
0
  6
Continuous
 62
     7
370
    25
100
AcDbSpline
210
0.0
220
0.0
230
1.0
 70
     8
 71
     3
 72
    32
 73
    28
 74
     0
 42
0.000000001
 43
0.00000001
 40
0.0
 40
0.0
 40
0.0
 40
0.0
 40
0.0078124999999996
 40
0.0078124999999996
 40
0.0156249999999992
 40
0.0312499999999996
 40
0.0624999999999993
 40
0.0624999999999993
 40
0.1249999999999986
 40
0.1249999999999986
 40
0.2499999999999973
 40
0.2499999999999973
 40
0.3124999999999973
 40
0.3124999999999973
 40
0.3749999999999973
 40
0.3749999999999973
 40
0.4999999999999967
 40
0.4999999999999967
 40
0.6249999999999961
 40
0.6249999999999961
 40
0.6874999999999968
 40
0.6874999999999968
 40
0.7499999999999974
 40
0.7499999999999974
 40
0.8749999999999988
 40
0.8749999999999988
 40
1.0
 40
1.0
 40
1.0
 40
1.0
 10
-39.49504363269369
 20
349.0329596810744
 30
0.0
 10
-39.57015402251919
 20
349.042422693958
 30
0.0
 10
-39.64749706484845
 20
349.0520484751618
 30
0.0
 10
-39.80014718583054
 20
349.0708071918748
 30
0.0
 10
-40.02931797762411
 20
349.0986154147845
 30
0.0
 10
-40.56541363581783
 20
349.1611989322
 30
0.0
 10
-41.02724463155564
 20
349.2109161439965
 30
0.0
 10
-41.95396405352751
 20
349.3051586735889
 30
0.0
 10
-42.57585070593706
 20
349.3610680392753
 30
0.0
 10
-44.45355839074877
 20
349.5082276082566
 30
0.0
 10
-45.72138372343418
 20
349.5789790450314
 30
0.0
 10
-47.647233550374
 20
349.6438026216491
 30
0.0
 10
-48.29321697073443
 20
349.6584978818155
 30
0.0
 10
-49.59346950506811
 20
349.6736531392755
 30
0.0
 10
-50.24440787543608
 20
349.6740308905934
 30
0.0
 10
-52.18283348649537
 20
349.6538596587048
 30
0.0
 10
-53.46284185592402
 20
349.6121068130543
 30
0.0
 10
-55.99886544953041
 20
349.4734523752615
 30
0.0
 10
-57.25493782043802
 20
349.3766857897467
 30
0.0
 10
-59.12051878683745
 20
349.1889767693988
 30
0.0
 10
-59.73882641430789
 20
349.1192501724653
 30
0.0
 10
-60.94998224467484
 20
348.9676591010372
 30
0.0
 10
-61.54526290102338
 20
348.8855440978087
 30
0.0
 10
-63.3009633706908
 20
348.6207897988355
 30
0.0
 10
-64.43154008284135
 20
348.4199092245807
 30
0.0
 10
-66.6130042246961
 20
347.9695772169433
 30
0.0
 10
-67.66404822821
 20
347.7202374885186
 30
0.0
 10
-68.67320354018064
 20
347.4454455833224
 30
0.0
  0
SPLINE
  5
4E0
330
49B
100
AcDbEntity
  8
0
  6
Continuous
 62
     7
370
    25
100
AcDbSpline
210
0.0
220
0.0
230
1.0
 70
     8
 71
     3
 72
    30
 73
    26
 74
     0
 42
0.000000001
 43
0.00000001
 40
0.0
 40
0.0
 40
0.0
 40
0.0
 40
0.0078124999999994
 40
0.0078124999999994
 40
0.0156249999999988
 40
0.0312499999999987
 40
0.0624999999999997
 40
0.0624999999999997
 40
0.1250000000000005
 40
0.1250000000000005
 40
0.2500000000000022
 40
0.2500000000000022
 40
0.3125000000000025
 40
0.3125000000000025
 40
0.3750000000000028
 40
0.3750000000000028
 40
0.5000000000000027
 40
0.5000000000000027
 40
0.6250000000000026
 40
0.6250000000000026
 40
0.6875000000000022
 40
0.6875000000000022
 40
0.7500000000000018
 40
0.7500000000000018
 40
1.0
 40
1.0
 40
1.0
 40
1.0
 10
133.9502040169405
 20
321.9172957739718
 30
0.0
 10
133.9371673417378
 20
321.943702151064
 30
0.0
 10
133.9234302185779
 20
321.9708331077496
 30
0.0
 10
133.8956857955646
 20
322.0242612284493
 30
0.0
 10
133.8531003693451
 20
322.1042940902095
 30
0.0
 10
133.7469872019057
 20
322.2902758111697
 30
0.0
 10
133.6445770333656
 20
322.4483946476685
 30
0.0
 10
133.4247015869424
 20
322.762929109413
 30
0.0
 10
133.2580718253839
 20
322.9703510803077
 30
0.0
 10
132.6988071540655
 20
323.5858748678138
 30
0.0
 10
132.2469392989863
 20
323.9872358557105
 30
0.0
 10
131.4496332938934
 20
324.5755871668812
 30
0.0
 10
131.1637956303519
 20
324.769408611854
 30
0.0
 10
130.5508415224975
 20
325.1522683970935
 30
0.0
 10
130.2252419792031
 20
325.3403125734613
 30
0.0
 10
129.2008977809778
 20
325.8896627596941
 30
0.0
 10
128.45166717397
 20
326.2383237648992
 30
0.0
 10
126.823160011722
 20
326.9011682308926
 30
0.0
 10
125.9435861868067
 20
327.2152686843587
 30
0.0
 10
124.5225772706213
 20
327.6593286078972
 30
0.0
 10
124.0320880451368
 20
327.8026912580179
 30
0.0
 10
123.0325556636597
 20
328.0760091161999
 30
0.0
 10
122.5216780932908
 20
328.2065604110774
 30
0.0
 10
119.9129980454276
 20
328.829558779802
 30
0.0
 10
117.654911790124
 20
329.2339263288362
 30
0.0
 10
115.2167097265958
 20
329.5411109152301
 30
0.0
  0
SPLINE
  5
4E2
330
49B
100
AcDbEntity
  8
0
  6
Continuous
 62
     7
370
    25
100
AcDbSpline
210
0.0
220
0.0
230
1.0
 70
     8
 71
     3
 72
    10
 73
     6
 74
     0
 42
0.000000001
 43
0.00000001
 40
0.0
 40
0.0
 40
0.0
 40
0.0
 40
0.5
 40
0.5
 40
1.0
 40
1.0
 40
1.0
 40
1.0
 10
167.879361491204
 20
253.4081585840582
 30
0.0
 10
167.8332318698635
 20
253.5663416792547
 30
0.0
 10
167.7634511989541
 20
253.722242826688
 30
0.0
 10
167.5771100202342
 20
254.026584632292
 30
0.0
 10
167.4603778155229
 20
254.1757071423008
 30
0.0
 10
167.32102703638
 20
254.3231587839157
 30
0.0
  0
SPLINE
  5
4FA
330
49B
100
AcDbEntity
  8
0
  6
Continuous
 62
     8
370
    25
100
AcDbSpline
210
0.0
220
0.0
230
1.0
 70
     8
 71
     3
 72
     9
 73
     5
 74
     0
 42
0.000000001
 43
0.00000001
 40
0.0
 40
0.0
 40
0.0
 40
0.0
 40
0.1702287037127079
 40
1.0
 40
1.0
 40
1.0
 40
1.0
 10
167.7196601345624
 20
252.1849609113387
 30
0.0
 10
167.7685253988574
 20
252.2589158147059
 30
0.0
 10
168.0555819482482
 20
252.6933601930874
 30
0.0
 10
167.959274580545
 20
253.0840092279811
 30
0.0
 10
167.8793614912041
 20
253.4081585840583
 30
0.0
  0
SPLINE
  5
4FC
330
49B
100
AcDbEntity
  8
0
  6
Continuous
 62
     8
370
    25
100
AcDbSpline
210
0.0
220
0.0
230
1.0
 70
     8
 71
     3
 72
    14
 73
    10
 74
     0
 42
0.000000001
 43
0.00000001
 40
0.0
 40
0.0
 40
0.0
 40
0.0
 40
0.1508963799573488
 40
0.3055211779728486
 40
0.4556908349051346
 40
0.6111105538757162
 40
0.752485271733889
 40
0.898964082728517
 40
1.0
 40
1.0
 40
1.0
 40
1.0
 10
-231.3723040792969
 20
303.7091403506175
 30
0.0
 10
-232.6368583802903
 20
303.4896596796088
 30
0.0
 10
-235.1972121790979
 20
303.0452753069167
 30
0.0
 10
-238.1564887936356
 20
302.0016190820618
 30
0.0
 10
-240.3003411825396
 20
300.6760691448721
 30
0.0
 10
-241.3812247106556
 20
299.158273619237
 30
0.0
 10
-241.3718598022782
 20
297.5275162996509
 30
0.0
 10
-240.5507689567271
 20
296.0502332931378
 30
0.0
 10
-239.3290859395722
 20
295.1492390355753
 30
0.0
 10
-238.8303929320169
 20
294.7814517046684
 30
0.0
  0
LWPOLYLINE
  5
4FE
330
49B
100
AcDbEntity
  8
0
  6
Continuous
 62
     8
370
    25
100
AcDbPolyline
 90
        8
 70
   128
 43
0.0
 10
142.4015539943
 20
190.4428186899
 10
142.4362989651
 20
189.8174578393
 10
142.5135571244
 20
189.2559268372
 10
142.6309441399
 20
188.7755555896
 10
142.7848372267
 20
188.3911692594
 10
142.9704869539
 20
188.1146307338
 10
143.1821638207
 20
187.9544745134
 10
143.3143837766
 20
187.9170033448
  0
LWPOLYLINE
  5
500
330
49B
100
AcDbEntity
  8
0
  6
Continuous
 62
     8
370
    25
100
AcDbPolyline
 90
        8
 70
   128
 43
0.0
 10
-241.1183281626
 20
238.7617820484
 10
-241.0835831918
 20
238.1364211978
 10
-241.0063250325
 20
237.5748901957
 10
-240.888938017
 20
237.0945189481
 10
-240.7350449302
 20
236.7101326179
 10
-240.549395203
 20
236.4335940923
 10
-240.3377183362
 20
236.2734378719
 10
-240.2060527308
 20
236.236036191
  0
LWPOLYLINE
  5
501
330
49B
100
AcDbEntity
  8
0
  6
Continuous
 62
     8
370
    25
100
AcDbPolyline
 90
       14
 70
   128
 43
0.0
 10
-242.0438058351
 20
285.0366967277
 10
-245.8364645066
 20
285.5825129893
 10
-249.4618596517
 20
286.2426483594
 10
-252.8890606773
 20
287.0114707959
 10
-256.0888279127
 20
287.8824209767
 10
-259.0338620721
 20
288.8480682622
 10
-261.6990371623
 20
289.90017409
 10
-264.0616148492
 20
291.0297622642
 10
-266.1014384531
 20
292.2271955368
 10
-267.8011049181
 20
293.4822578293
 10
-269.1461132892
 20
294.7842413928
 10
-270.1249884293
 20
296.1220381626
 10
-270.7293789208
 20
297.4842345282
 10
-270.9473886275
 20
298.6955092881
  0
LWPOLYLINE
  5
503
330
49B
100
AcDbEntity
  8
0
  6
Continuous
 62
     8
370
    25
100
AcDbPolyline
 90
       14
 70
   128
 43
0.0
 10
-268.3307688679
 20
251.6307578946
 10
-268.1249757216
 20
250.4807832813
 10
-267.5559593403
 20
249.1983143188
 10
-266.6343763608
 20
247.9388168788
 10
-265.3680894041
 20
246.7130365494
 10
-263.7679019841
 20
245.5314312561
 10
-261.8474663356
 20
244.4040820387
 10
-259.6231669384
 20
243.3406070432
 10
-257.1139807308
 20
242.3500794633
 10
-254.3413152047
 20
241.4409501311
 10
-251.3288257648
 20
240.6209754175
 10
-248.1022139089
 20
239.8971510576
 10
-244.6890079515
 20
239.2756524656
 10
-241.1183281626
 20
238.7617820484
  0
LWPOLYLINE
  5
504
330
49B
100
AcDbEntity
  8
0
  6
Continuous
 62
     8
370
    25
100
AcDbPolyline
 90
       15
 70
   128
 43
0.0
 10
196.6588536513
 20
312.0297357542
 10
194.2662185602
 20
312.2677049792
 10
191.7963373891
 20
312.3897495287
 10
189.2994897961
 20
312.3933849274
 10
186.8265043978
 20
312.2785371693
 10
184.4277240455
 20
312.0475442235
 10
182.1519809897
 20
311.7051084402
 10
180.0456027962
 20
311.2582008245
 10
178.1514692508
 20
310.7159191266
 10
176.5081394502
 20
310.0893026381
 10
175.1490668502
 20
309.3911074637
 10
174.1019182497
 20
308.6355468438
 10
173.3880105745
 20
307.8380018136
 10
173.021876926
 20
307.0147080901
 10
172.9719638139
 20
306.5393104545
  0
LWPOLYLINE
  5
505
330
49B
100
AcDbEntity
  8
0
  6
Continuous
 62
     8
370
    25
100
AcDbPolyline
 90
       10
 70
   128
 43
0.0
 10
207.9716432937
 20
306.5832120364
 10
207.932367905
 20
306.9638785733
 10
207.5878246307
 20
307.7882070392
 10
206.894845793
 20
308.5878004897
 10
205.8675384429
 20
309.3463815082
 10
204.5268155954
 20
310.0485075725
 10
202.8999705013
 20
310.6798854208
 10
201.0201210354
 20
311.2276620209
 10
198.9255355118
 20
311.6806862208
 10
196.6588536513
 20
312.0297357542
  0
LINE
  5
506
330
49B
100
AcDbEntity
  8
0
  6
Continuous
 62
     7
370
    25
100
AcDbLine
 10
-262.4675551826
 20
243.0475788007
 30
0.0
 11
-262.4675551826
 21
-258.4233386896
 31
0.0
  0
LINE
  5
507
330
49B
100
AcDbEntity
  8
0
  6
Continuous
 62
     7
370
    25
100
AcDbLine
 10
-240.2060527308
 20
236.236036191
 30
0.0
 11
143.3138294261
 21
187.9170728325
 31
0.0
  0
LINE
  5
508
330
49B
100
AcDbEntity
  8
0
  6
Continuous
 62
     7
370
    25
100
AcDbLine
 10
195.5848258076
 20
196.2776774358
 30
0.0
 11
278.6698725779
 21
269.5518012451
 31
0.0
  0
LINE
  5
509
330
49B
100
AcDbEntity
  8
0
  6
Continuous
 62
     7
370
    25
100
AcDbLine
 10
-270.9479656346
 20
298.7056997525
 30
0.0
 11
-268.3307688679
 21
251.6307578946
 31
0.0
  0
LINE
  5
50A
330
49B
100
AcDbEntity
  8
0
  6
Continuous
 62
     7
370
    25
100
AcDbLine
 10
-183.6185793871
 20
380.9351236719
 30
0.0
 11
-266.7036261574
 21
307.6609998626
 31
0.0
  0
LINE
  5
50B
330
49B
100
AcDbEntity
  8
0
  6
Continuous
 62
     7
370
    25
100
AcDbLine
 10
-46.720578418
 20
165.2715029105
 30
0.0
 11
-44.8497497245
 21
166.9214187334
 31
0.0
  0
LINE
  5
50C
330
49B
100
AcDbEntity
  8
0
  6
Continuous
 62
     7
370
    25
100
AcDbLine
 10
-237.5038636095
 20
189.3079375139
 30
0.0
 11
-46.720578418
 21
165.2715029105
 31
0.0
  0
LINE
  5
50D
330
49B
100
AcDbEntity
  8
0
  6
Continuous
 62
     7
370
    25
100
AcDbLine
 10
-258.4574827156
 20
195.383185086
 30
0.0
 11
-255.6115790954
 21
196.088555704
 31
0.0
  0
LINE
  5
50E
330
49B
100
AcDbEntity
  8
0
  6
Continuous
 62
     7
370
    25
100
AcDbLine
 10
-46.720578418
 20
-294.8193093952
 30
0.0
 11
-44.8497497246
 21
-293.1693935724
 31
0.0
  0
LINE
  5
50F
330
49B
100
AcDbEntity
  8
0
  6
Continuous
 62
     7
370
    25
100
AcDbLine
 10
-46.720578418
 20
-294.8193093952
 30
0.0
 11
-46.720578418
 21
165.2715029105
 31
0.0
  0
LINE
  5
510
330
49B
100
AcDbEntity
  8
0
  6
Continuous
 62
     7
370
    25
100
AcDbLine
 10
-237.5038636095
 20
189.3079375139
 30
0.0
 11
-237.5038636095
 21
-270.7828747918
 31
0.0
  0
LINE
  5
511
330
49B
100
AcDbEntity
  8
0
  6
Continuous
 62
     7
370
    25
100
AcDbLine
 10
-237.5038636095
 20
-270.7828747918
 30
0.0
 11
-46.720578418
 21
-294.8193093952
 31
0.0
  0
LINE
  5
512
330
49B
100
AcDbEntity
  8
0
  6
Continuous
 62
     7
370
    25
100
AcDbLine
 10
-258.4574827156
 20
195.383185086
 30
0.0
 11
-258.4574827156
 21
-264.7076272198
 31
0.0
  0
LINE
  5
513
330
49B
100
AcDbEntity
  8
0
  6
Continuous
 62
     7
370
    25
100
AcDbLine
 10
-258.1433767385
 20
240.7356837493
 30
0.0
 11
-258.1433767385
 21
195.461037732
 31
0.0
  0
LINE
  5
514
330
49B
100
AcDbEntity
  8
0
  6
Continuous
 62
     7
370
    25
100
AcDbLine
 10
173.9731798178
 20
188.308224763
 30
0.0
 11
173.9731798178
 21
-318.8947937942
 31
0.0
  0
LINE
  5
515
330
49B
100
AcDbEntity
  8
0
  6
Continuous
 62
     7
370
    25
100
AcDbLine
 10
173.9731798178
 20
-318.8947937942
 30
0.0
 11
173.7039454709
 21
-318.5425874264
 31
0.0
  0
LINE
  5
516
330
49B
100
AcDbEntity
  8
0
  6
Continuous
 62
     7
370
    25
100
AcDbLine
 10
276.8546917961
 20
-240.4409594416
 30
0.0
 11
276.8546917961
 21
267.9509622673
 31
0.0
  0
LINE
  5
517
330
49B
100
AcDbEntity
  8
0
  6
Continuous
 62
     7
370
    25
100
AcDbLine
 10
196.5980721499
 20
-311.2206449935
 30
0.0
 11
276.8546917961
 21
-240.4409594416
 31
0.0
  0
LINE
  5
518
330
49B
100
AcDbEntity
  8
0
  6
Continuous
 62
     7
370
    25
100
AcDbLine
 10
-236.6096908031
 20
191.0809004127
 30
0.0
 11
145.0393626604
 21
142.9976393145
 31
0.0
  0
LINE
  5
519
330
49B
100
AcDbEntity
  8
0
  6
Continuous
 62
     7
370
    25
100
AcDbLine
 10
196.675604072
 20
198.6095477078
 30
0.0
 11
199.1241878381
 21
245.3921644181
 31
0.0
  0
LINE
  5
51A
330
49B
100
AcDbEntity
  8
0
  6
Continuous
 62
     7
370
    25
100
AcDbLine
 10
142.4015539943
 20
190.4428186899
 30
0.0
 11
141.4760763218
 21
236.7177333692
 31
0.0
  0
LINE
  5
51B
330
49B
100
AcDbEntity
  8
0
  6
Continuous
 62
     7
370
    25
100
AcDbLine
 10
194.4535258687
 20
250.9413717862
 30
0.0
 11
277.5385726391
 21
324.2154955955
 31
0.0
  0
LINE
  5
51C
330
49B
100
AcDbEntity
  8
0
  6
Continuous
 62
     7
370
    25
100
AcDbLine
 10
-240.2784615457
 20
291.5543433222
 30
0.0
 11
143.2414206112
 21
243.2353799637
 31
0.0
  0
LINE
  5
51D
330
49B
100
AcDbEntity
  8
0
  6
Continuous
 62
     7
370
    25
100
AcDbLine
 10
-180.3113902482
 20
381.89916888
 30
0.0
 11
-263.3964370186
 21
308.6250450707
 31
0.0
  0
LINE
  5
51E
330
49B
100
AcDbEntity
  8
0
  6
Continuous
 62
     7
370
    25
100
AcDbLine
 10
277.5385726391
 20
324.2154955955
 30
0.0
 11
-180.3113902482
 21
381.89916888
 31
0.0
  0
LINE
  5
51F
330
49B
100
AcDbEntity
  8
0
  6
Continuous
 62
     7
370
    25
100
AcDbLine
 10
-37.7345365496
 20
354.8728366128
 30
0.0
 11
116.977216828
 21
335.3809878447
 31
0.0
  0
LINE
  5
520
330
49B
100
AcDbEntity
  8
0
  6
Continuous
 62
     7
370
    25
100
AcDbLine
 10
141.4760763218
 20
236.7177333692
 30
0.0
 11
-242.0438058351
 21
285.0366967277
 31
0.0
  0
LINE
  5
521
330
49B
100
AcDbEntity
  8
0
  6
Continuous
 62
     7
370
    25
100
AcDbLine
 10
-241.1183281626
 20
238.7617820484
 30
0.0
 11
142.4015539943
 21
190.4428186899
 31
0.0
  0
LINE
  5
522
330
49B
100
AcDbEntity
  8
0
  6
Continuous
 62
     7
370
    25
100
AcDbLine
 10
-241.1183281626
 20
238.7617820484
 30
0.0
 11
-242.0438058351
 21
285.0366967277
 31
0.0
  0
LINE
  5
523
330
49B
100
AcDbEntity
  8
0
  6
Continuous
 62
     7
370
    25
100
AcDbLine
 10
-238.830392932
 20
294.7814517047
 30
0.0
 11
-238.751127835
 21
294.7176817663
 31
0.0
  0
LINE
  5
524
330
49B
100
AcDbEntity
  8
0
  6
Continuous
 62
     7
370
    25
100
AcDbLine
 10
-68.6732035402
 20
347.4454455833
 30
0.0
 11
-227.8292782435
 21
304.1074177239
 31
0.0
  0
LINE
  5
525
330
49B
100
AcDbEntity
  8
0
  6
Continuous
 62
     7
370
    25
100
AcDbLine
 10
115.2167097266
 20
329.5411109152
 30
0.0
 11
-39.4950436461
 21
349.0329596828
 31
0.0
  0
LINE
  5
526
330
49B
100
AcDbEntity
  8
0
  6
Continuous
 62
     7
370
    25
100
AcDbLine
 10
167.3210270364
 20
254.3231587839
 30
0.0
 11
133.9502040144
 21
321.9172957791
 31
0.0
  0
LINE
  5
527
330
49B
100
AcDbEntity
  8
0
  6
Continuous
 62
     7
370
    25
100
AcDbLine
 10
282.2092346084
 20
318.6662882274
 30
0.0
 11
199.1241878381
 21
245.3921644181
 31
0.0
  0
LINE
  5
528
330
49B
100
AcDbEntity
  8
0
  6
Continuous
 62
     7
370
    25
100
AcDbLine
 10
279.7606508423
 20
271.883671517
 30
0.0
 11
282.2092346084
 21
318.6662882274
 31
0.0
  0
LINE
  5
529
330
49B
100
AcDbEntity
  8
0
  6
Continuous
 62
     7
370
    25
100
AcDbLine
 10
196.675604072
 20
198.6095477078
 30
0.0
 11
279.7606508423
 21
271.883671517
 31
0.0
  0
LINE
  5
52A
330
49B
100
AcDbEntity
  8
0
  6
Continuous
 62
     7
370
    25
100
AcDbLine
 10
145.9335354668
 20
-319.091446259
 30
0.0
 11
145.9335354668
 21
140.9993660468
 31
0.0
  0
LINE
  5
52B
330
49B
100
AcDbEntity
  8
0
  6
Continuous
 62
     7
370
    25
100
AcDbLine
 10
173.7039454709
 20
-319.1548493457
 30
0.0
 11
173.7039454709
 21
140.9359629601
 31
0.0
  0
LINE
  5
52C
330
49B
100
AcDbEntity
  8
0
  6
Continuous
 62
     7
370
    25
100
AcDbLine
 10
173.7039454709
 20
140.9359629601
 30
0.0
 11
172.4607825826
 21
142.8926881605
 31
0.0
  0
LINE
  5
52D
330
49B
100
AcDbEntity
  8
0
  6
Continuous
 62
     7
370
    25
100
AcDbLine
 10
145.9335354668
 20
140.9993660468
 30
0.0
 11
-44.8497497246
 21
165.0358006502
 31
0.0
  0
LINE
  5
52E
330
49B
100
AcDbEntity
  8
0
  6
Continuous
 62
     7
370
    25
100
AcDbLine
 10
-44.8497497246
 20
165.0358006502
 30
0.0
 11
-42.9789210311
 21
166.6857164731
 31
0.0
  0
LINE
  5
52F
330
49B
100
AcDbEntity
  8
0
  6
Continuous
 62
     7
370
    25
100
AcDbLine
 10
145.9335354668
 20
-319.091446259
 30
0.0
 11
-44.8497497246
 21
-295.0550116555
 31
0.0
  0
LINE
  5
530
330
49B
100
AcDbEntity
  8
0
  6
Continuous
 62
     7
370
    25
100
AcDbLine
 10
-44.8497497246
 20
165.0358006502
 30
0.0
 11
-44.8497497246
 21
-295.0550116555
 31
0.0
  0
LINE
  5
531
330
49B
100
AcDbEntity
  8
0
  6
Continuous
 62
     8
370
    25
100
AcDbLine
 10
196.5980721499
 20
197.1712767153
 30
0.0
 11
196.5980721499
 21
-311.2206449935
 31
0.0
  0
LINE
  5
532
330
49B
100
AcDbEntity
  8
0
  6
Continuous
 62
     8
370
    25
100
AcDbLine
 10
145.0393626604
 20
142.9976393145
 30
0.0
 11
145.0393626604
 21
187.7152638854
 31
0.0
  0
LINE
  5
533
330
49B
100
AcDbEntity
  8
0
  6
Continuous
 62
     8
370
    25
100
AcDbLine
 10
-236.6096908031
 20
235.7829371776
 30
0.0
 11
-236.6096908031
 21
191.0809004127
 31
0.0
  0
ARC
  5
534
330
49B
100
AcDbEntity
  8
0
  6
Continuous
 62
     7
370
    25
100
AcDbCircle
 10
159.1728017895
 20
257.9069770641
 30
0.0
 40
115.7752564396932
100
AcDbArc
 50
262.9880409958
 51
277.3446269068
  0
ARC
  5
535
330
49B
100
AcDbEntity
  8
0
  6
Continuous
 62
     7
370
    25
100
AcDbCircle
 10
151.477790938
 20
237.5066084546
 30
0.0
 40
10.03277724084553
100
AcDbArc
 50
145.1796242243
 51
184.5098098987
  0
ARC
  5
536
330
49B
100
AcDbEntity
  8
0
  6
Continuous
 62
     7
370
    25
100
AcDbCircle
 10
193.6798439561
 20
245.5499712628
 30
0.0
 40
5.446630454273348
100
AcDbArc
 50
358.3397199897
 51
81.8336386034
  0
ARC
  5
537
330
49B
100
AcDbEntity
  8
0
  6
Continuous
 62
     7
370
    25
100
AcDbCircle
 10
172.6952062662
 20
252.0803147852
 30
0.0
 40
4.995551025738165
100
AcDbArc
 50
89.4478941959
 51
164.5851923306
  0
ARC
  5
538
330
49B
100
AcDbEntity
  8
0
  6
Continuous
 62
     7
370
    25
100
AcDbCircle
 10
-232.0420912189
 20
285.8255718131
 30
0.0
 40
10.03277724084559
100
AcDbArc
 50
145.1796242243
 51
184.5098098987
  0
ARC
  5
539
330
49B
100
AcDbEntity
  8
0
  6
Continuous
 62
     7
370
    25
100
AcDbCircle
 10
276.7648907264
 20
318.8240950721
 30
0.0
 40
5.446630454273542
100
AcDbArc
 50
358.3397199897
 51
81.8336386034
  0
ARC
  5
53A
330
49B
100
AcDbEntity
  8
0
  6
Continuous
 62
     7
370
    25
100
AcDbCircle
 10
139.0983320301
 20
321.2936222035
 30
0.0
 40
5.185768100737073
100
AcDbArc
 50
92.594542258
 51
173.0925234243
  0
ARC
  5
53B
330
49B
100
AcDbEntity
  8
0
  6
Continuous
 62
     7
370
    25
100
AcDbCircle
 10
276.4772180398
 20
271.9985102554
 30
0.0
 40
3.285440443024561
100
AcDbArc
 50
311.8655775907
 51
357.9968848279
  0
ARC
  5
53C
330
49B
100
AcDbEntity
  8
0
  6
Continuous
 62
     7
370
    25
100
AcDbCircle
 10
-237.2730748815
 20
302.9680789092
 30
0.0
 40
5.947122675759069
100
AcDbArc
 50
7.1581419469
 51
66.9178353012
  0
ARC
  5
53D
330
49B
100
AcDbEntity
  8
0
  6
Continuous
 62
     7
370
    25
100
AcDbCircle
 10
-75.1929475781
 20
347.4366163384
 30
0.0
 40
6.519750016309871
100
AcDbArc
 50
0.0775917213
 51
58.8809172334
  0
ARC
  5
53E
330
49B
100
AcDbEntity
  8
0
  6
Continuous
 62
     7
370
    25
100
AcDbCircle
 10
-180.9041974678
 20
377.7780800033
 30
0.0
 40
4.163507407110314
100
AcDbArc
 50
81.8143121084
 51
130.6884816552
  0
ARC
  5
53F
330
49B
100
AcDbEntity
  8
0
  6
Continuous
 62
     7
370
    25
100
AcDbCircle
 10
124.6831536146
 20
329.8726302668
 30
0.0
 40
9.472247091657556
100
AcDbArc
 50
144.4420577795
 51
182.0057056667
  0
ARC
  5
540
330
49B
100
AcDbEntity
  8
0
  6
Continuous
 62
     7
370
    25
100
AcDbCircle
 10
-30.0285997372
 20
349.3644790352
 30
0.0
 40
9.472247112479183
100
AcDbArc
 50
144.4420578715
 51
182.0057056677
  0
ARC
  5
541
330
49B
100
AcDbEntity
  8
0
  6
Continuous
 62
     7
370
    25
100
AcDbCircle
 10
160.0819598019
 20
256.2571429072
 30
0.0
 40
116.122922104006
100
AcDbArc
 50
263.0016901449
 51
276.7366844081
  0
ARC
  5
542
330
49B
100
AcDbEntity
  8
0
  6
Continuous
 62
     7
370
    25
100
AcDbCircle
 10
160.0819598019
 20
-203.8336693985
 30
0.0
 40
116.1229221040063
100
AcDbArc
 50
263.0016901449
 51
276.7366844081
  0
ARC
  5
543
330
49B
100
AcDbEntity
  8
0
  6
Continuous
 62
     8
370
    25
100
AcDbCircle
 10
128.2542018328
 20
245.0382229041
 30
0.0
 40
0.7362691454987398
100
AcDbArc
 50
86.7413760511
 51
138.8206195441
  0
ARC
  5
544
330
49B
100
AcDbEntity
  8
0
  6
Continuous
 62
     8
370
    25
100
AcDbCircle
 10
193.3922895162
 20
198.7243534936
 30
0.0
 40
3.285321116822435
100
AcDbArc
 50
311.8296320084
 51
357.9973870837
  0
ARC
  5
545
330
49B
100
AcDbEntity
  8
0
  6
Continuous
 62
     8
370
    25
100
AcDbCircle
 10
-223.500054001
 20
289.2701786063
 30
0.0
 40
0.8176960211610083
100
AcDbArc
 50
82.7107049878
 51
135.4807906145
  0
ARC
  5
546
330
49B
100
AcDbEntity
  8
0
  6
Continuous
 62
     8
370
    25
100
AcDbCircle
 10
-263.9892532757
 20
304.5040845626
 30
0.0
 40
4.163381633160154
100
AcDbArc
 50
81.8139374729
 51
130.7141949652
  0
VIEWPORT
  5
555
330
49B
100
AcDbEntity
  8
0
100
AcDbViewport
 10
0.0
 20
0.0
 30
0.0
 40
205.6
 41
156.0
 68
     1
 69
     1
 12
0.0
 22
29.5
 13
0.0
 23
0.0
 14
10.0
 24
10.0
 15
10.0
 25
10.0
 16
0.0
 26
0.0
 36
1.0
 17
0.0
 27
0.0
 37
0.0
 42
50.0
 43
0.0
 44
0.0
 45
610.98
 50
0.0
 51
0.0
 72
   100
 90
   557152
  1

281
     0
 71
     1
 74
     0
110
0.0
120
0.0
130
0.0
111
1.0
121
0.0
131
0.0
112
0.0
122
1.0
132
0.0
 79
     0
146
0.0
  0
ENDBLK
  5
49E
330
49B
100
AcDbEntity
  8
0
100
AcDbBlockEnd
  0
ENDSEC
  0
SECTION
  2
ENTITIES
  0
SPLINE
  5
B2
330
1F
100
AcDbEntity
  8
0
  6
Continuous
 62
     7
370
    25
100
AcDbSpline
210
0.0
220
0.0
230
1.0
 70
     8
 71
     3
 72
     9
 73
     5
 74
     0
 42
0.000000001
 43
0.00000001
 40
0.0
 40
0.0
 40
0.0
 40
0.0
 40
0.8296530150341183
 40
1.0
 40
1.0
 40
1.0
 40
1.0
 10
-200.5328221913428
 20
220.0
 30
0.0
 10
-200.3768339393261
 20
219.4149804887831
 30
0.0
 10
-200.1888176853138
 20
218.7098429184786
 30
0.0
 10
-199.8277736978273
 20
218.1033194450155
 30
0.0
 10
-199.7662709431189
 20
218.0
 30
0.0
  0
LWPOLYLINE
  5
B4
330
1F
100
AcDbEntity
  8
0
  6
Continuous
 62
     7
370
    25
100
AcDbPolyline
 90
        3
 70
   128
 43
0.0
 10
1.0
 20
189.5042819505
 10
0.0
 20
189.5021645022
 10
-1.0
 20
189.5042819505
  0
LINE
  5
C2
330
1F
100
AcDbEntity
  8
0
  6
Continuous
 62
     7
370
    25
100
AcDbLine
 10
-204.599185584
 20
270.0247137535
 30
0.0
 11
-204.5978903871
 21
270.0
 31
0.0
  0
LINE
  5
C3
330
1F
100
AcDbEntity
  8
0
  6
Continuous
 62
     7
370
    25
100
AcDbLine
 10
204.5975206994
 20
270.0
 30
0.0
 11
204.5988158929
 21
270.0247137535
 31
0.0
  0
LINE
  5
C4
330
1F
100
AcDbEntity
  8
0
  6
Continuous
 62
     7
370
    25
100
AcDbLine
 10
-204.9559109389
 20
218.0
 30
0.0
 11
-204.9559109389
 21
-270.0
 31
0.0
  0
LINE
  5
C5
330
1F
100
AcDbEntity
  8
0
  6
Continuous
 62
     7
370
    25
100
AcDbLine
 10
-231.0
 20
218.0
 30
0.0
 11
-231.0
 21
-270.0
 31
0.0
  0
LINE
  5
C6
330
1F
100
AcDbEntity
  8
0
  6
Continuous
 62
     7
370
    25
100
AcDbLine
 10
-231.0
 20
218.0
 30
0.0
 11
-1.0
 21
218.0
 31
0.0
  0
LINE
  5
C7
330
1F
100
AcDbEntity
  8
0
  6
Continuous
 62
     7
370
    25
100
AcDbLine
 10
-1.0
 20
-270.0
 30
0.0
 11
-1.0
 21
218.0
 31
0.0
  0
LINE
  5
C8
330
1F
100
AcDbEntity
  8
0
  6
Continuous
 62
     7
370
    25
100
AcDbLine
 10
1.0
 20
-1.0
 30
0.0
 11
-1.0
 21
-1.0
 31
0.0
  0
LINE
  5
C9
330
1F
100
AcDbEntity
  8
0
  6
Continuous
 62
     7
370
    25
100
AcDbLine
 10
-1.0
 20
15.0
 30
0.0
 11
1.0
 21
15.0
 31
0.0
  0
LINE
  5
CA
330
1F
100
AcDbEntity
  8
0
  6
Continuous
 62
     7
370
    25
100
AcDbLine
 10
-225.0
 20
218.0
 30
0.0
 11
-225.0
 21
220.0
 31
0.0
  0
LINE
  5
CB
330
1F
100
AcDbEntity
  8
0
  6
Continuous
 62
     7
370
    25
100
AcDbLine
 10
-230.9760151048
 20
270.0
 30
0.0
 11
-230.9760151048
 21
218.0
 31
0.0
  0
LINE
  5
CC
330
1F
100
AcDbEntity
  8
0
  6
Continuous
 62
     7
370
    25
100
AcDbLine
 10
-244.0
 20
-270.0
 30
0.0
 11
-244.0
 21
270.0
 31
0.0
  0
LINE
  5
CD
330
1F
100
AcDbEntity
  8
0
  6
Continuous
 62
     7
370
    25
100
AcDbLine
 10
-244.0
 20
270.0
 30
0.0
 11
244.0
 21
270.0
 31
0.0
  0
LINE
  5
CE
330
1F
100
AcDbEntity
  8
0
  6
Continuous
 62
     7
370
    25
100
AcDbLine
 10
244.0
 20
270.0
 30
0.0
 11
244.0
 21
-270.0
 31
0.0
  0
LINE
  5
CF
330
1F
100
AcDbEntity
  8
0
  6
Continuous
 62
     7
370
    25
100
AcDbLine
 10
-244.0
 20
-270.0
 30
0.0
 11
244.0
 21
-270.0
 31
0.0
  0
LINE
  5
D0
330
1F
100
AcDbEntity
  8
0
  6
Continuous
 62
     7
370
    25
100
AcDbLine
 10
230.9760151048
 20
270.0
 30
0.0
 11
230.9760151048
 21
218.0
 31
0.0
  0
LINE
  5
D1
330
1F
100
AcDbEntity
  8
0
  6
Continuous
 62
     7
370
    25
100
AcDbLine
 10
225.0
 20
218.0
 30
0.0
 11
225.0
 21
220.0
 31
0.0
  0
LINE
  5
D2
330
1F
100
AcDbEntity
  8
0
  6
Continuous
 62
     7
370
    25
100
AcDbLine
 10
-209.0
 20
270.0
 30
0.0
 11
-209.0
 21
270.0247137535
 31
0.0
  0
LINE
  5
D3
330
1F
100
AcDbEntity
  8
0
  6
Continuous
 62
     7
370
    25
100
AcDbLine
 10
-225.0
 20
270.0
 30
0.0
 11
-225.0
 21
270.0247137535
 31
0.0
  0
LINE
  5
D4
330
1F
100
AcDbEntity
  8
0
  6
Continuous
 62
     7
370
    25
100
AcDbLine
 10
225.0
 20
270.0
 30
0.0
 11
225.0
 21
270.0247137535
 31
0.0
  0
LINE
  5
D5
330
1F
100
AcDbEntity
  8
0
  6
Continuous
 62
     7
370
    25
100
AcDbLine
 10
209.0
 20
270.0
 30
0.0
 11
209.0
 21
270.0247137535
 31
0.0
  0
LINE
  5
D6
330
1F
100
AcDbEntity
  8
0
  6
Continuous
 62
     7
370
    25
100
AcDbLine
 10
-204.0
 20
270.0
 30
0.0
 11
-204.0
 21
220.0
 31
0.0
  0
LINE
  5
D7
330
1F
100
AcDbEntity
  8
0
  6
Continuous
 62
     7
370
    25
100
AcDbLine
 10
-230.9760151048
 20
220.0
 30
0.0
 11
230.9760151048
 21
220.0
 31
0.0
  0
LINE
  5
D8
330
1F
100
AcDbEntity
  8
0
  6
Continuous
 62
     7
370
    25
100
AcDbLine
 10
204.0
 20
220.0
 30
0.0
 11
204.0
 21
270.0
 31
0.0
  0
LINE
  5
D9
330
1F
100
AcDbEntity
  8
0
  6
Continuous
 62
     7
370
    25
100
AcDbLine
 10
-1.0
 20
-254.0
 30
0.0
 11
1.0
 21
-254.0
 31
0.0
  0
LINE
  5
DA
330
1F
100
AcDbEntity
  8
0
  6
Continuous
 62
     7
370
    25
100
AcDbLine
 10
-205.0
 20
270.0247137535
 30
0.0
 11
-205.0
 21
329.0
 31
0.0
  0
LINE
  5
DB
330
1F
100
AcDbEntity
  8
0
  6
Continuous
 62
     7
370
    25
100
AcDbLine
 10
249.7242470474
 20
323.7383202188
 30
0.0
 11
-249.7242470474
 21
323.7383202188
 31
0.0
  0
LINE
  5
DC
330
1F
100
AcDbEntity
  8
0
  6
Continuous
 62
     7
370
    25
100
AcDbLine
 10
205.0
 20
270.0247137535
 30
0.0
 11
205.0
 21
329.0
 31
0.0
  0
LINE
  5
DD
330
1F
100
AcDbEntity
  8
0
  6
Continuous
 62
     7
370
    25
100
AcDbLine
 10
-244.7310993736
 20
329.0
 30
0.0
 11
244.7310993736
 21
329.0
 31
0.0
  0
LINE
  5
DE
330
1F
100
AcDbEntity
  8
0
  6
Continuous
 62
     7
370
    25
100
AcDbLine
 10
247.1066008945
 20
273.790656175
 30
0.0
 11
249.7242470474
 21
323.7383202188
 31
0.0
  0
LINE
  5
DF
330
1F
100
AcDbEntity
  8
0
  6
Continuous
 62
     7
370
    25
100
AcDbLine
 10
-247.1066008945
 20
273.790656175
 30
0.0
 11
247.1066008945
 21
273.790656175
 31
0.0
  0
LINE
  5
E0
330
1F
100
AcDbEntity
  8
0
  6
Continuous
 62
     7
370
    25
100
AcDbLine
 10
-247.1066008945
 20
273.790656175
 30
0.0
 11
-249.7242470474
 21
323.7383202188
 31
0.0
  0
LINE
  5
E1
330
1F
100
AcDbEntity
  8
0
  6
Continuous
 62
     7
370
    25
100
AcDbLine
 10
243.5560413777
 20
270.0247137535
 30
0.0
 11
-243.5560413777
 21
270.0247137535
 31
0.0
  0
LINE
  5
E2
330
1F
100
AcDbEntity
  8
0
  6
Continuous
 62
     7
370
    25
100
AcDbLine
 10
1.0
 20
184.0
 30
0.0
 11
-1.0
 21
184.0
 31
0.0
  0
LINE
  5
E3
330
1F
100
AcDbEntity
  8
0
  6
Continuous
 62
     7
370
    25
100
AcDbLine
 10
199.7876357093
 20
218.0
 30
0.0
 11
200.5325662631
 21
220.0
 31
0.0
  0
LINE
  5
E4
330
1F
100
AcDbEntity
  8
0
  6
Continuous
 62
     7
370
    25
100
AcDbLine
 10
0.0
 20
193.7878787879
 30
0.0
 11
1.0
 21
193.7857613396
 31
0.0
  0
LINE
  5
E5
330
1F
100
AcDbEntity
  8
0
  6
Continuous
 62
     7
370
    25
100
AcDbLine
 10
-1.0
 20
193.7857613396
 30
0.0
 11
0.0
 21
193.7878787879
 31
0.0
  0
LINE
  5
E6
330
1F
100
AcDbEntity
  8
0
  6
Continuous
 62
     7
370
    25
100
AcDbLine
 10
204.9559109389
 20
-270.0
 30
0.0
 11
204.9559109389
 21
218.0
 31
0.0
  0
LINE
  5
E7
330
1F
100
AcDbEntity
  8
0
  6
Continuous
 62
     7
370
    25
100
AcDbLine
 10
231.0
 20
218.0
 30
0.0
 11
1.0
 21
218.0
 31
0.0
  0
LINE
  5
E8
330
1F
100
AcDbEntity
  8
0
  6
Continuous
 62
     7
370
    25
100
AcDbLine
 10
231.0
 20
-270.0
 30
0.0
 11
231.0
 21
218.0
 31
0.0
  0
LINE
  5
E9
330
1F
100
AcDbEntity
  8
0
  6
Continuous
 62
     7
370
    25
100
AcDbLine
 10
1.0
 20
218.0
 30
0.0
 11
1.0
 21
-270.0
 31
0.0
  0
LINE
  5
EA
330
1F
100
AcDbEntity
  8
0
  6
Continuous
 62
     8
370
    25
100
AcDbLine
 10
-1.0
 20
0.0
 30
0.0
 11
1.0
 21
0.0
 31
0.0
  0
LINE
  5
EB
330
1F
100
AcDbEntity
  8
0
  6
Continuous
 62
     8
370
    25
100
AcDbLine
 10
1.0
 20
14.0
 30
0.0
 11
-1.0
 21
14.0
 31
0.0
  0
LINE
  5
EC
330
1F
100
AcDbEntity
  8
0
  6
Continuous
 62
     8
370
    25
100
AcDbLine
 10
-1.0
 20
-269.0
 30
0.0
 11
1.0
 21
-269.0
 31
0.0
  0
LINE
  5
ED
330
1F
100
AcDbEntity
  8
0
  6
Continuous
 62
     8
370
    25
100
AcDbLine
 10
1.0
 20
-255.0
 30
0.0
 11
-1.0
 21
-255.0
 31
0.0
  0
LINE
  5
EE
330
1F
100
AcDbEntity
  8
0
  6
Continuous
 62
     8
370
    25
100
AcDbLine
 10
-1.0
 20
194.0
 30
0.0
 11
1.0
 21
194.0
 31
0.0
  0
ARC
  5
EF
330
1F
100
AcDbEntity
  8
0
  6
Continuous
 62
     7
370
    25
100
AcDbCircle
 10
-244.7310993736
 20
324.0
 30
0.0
 40
5.0
100
AcDbArc
 50
90.0
 51
183.0
  0
ARC
  5
F0
330
1F
100
AcDbEntity
  8
0
  6
Continuous
 62
     7
370
    25
100
AcDbCircle
 10
244.7310993736
 20
324.0
 30
0.0
 40
5.000000000000008
100
AcDbArc
 50
357.0
 51
90.0
  0
ARC
  5
F1
330
1F
100
AcDbEntity
  8
0
  6
Continuous
 62
     7
370
    25
100
AcDbCircle
 10
-243.1120827554
 20
274.0
 30
0.0
 40
3.99999999999987
100
AcDbArc
 50
183.0
 51
263.6276319916
  0
ARC
  5
F2
330
1F
100
AcDbEntity
  8
0
  6
Continuous
 62
     7
370
    25
100
AcDbCircle
 10
243.1120827554
 20
274.0
 30
0.0
 40
4.000000000000001
100
AcDbArc
 50
276.3723680084
 51
357.0
  0
CIRCLE
  5
F7
330
1B
100
AcDbEntity
 67
     1
  8
0
  6
Continuous
 62
     7
370
    25
100
AcDbCircle
 10
127.0
 20
168.0
 30
0.0
 40
0.9999999999999858
  0
CIRCLE
  5
F8
330
1B
100
AcDbEntity
 67
     1
  8
0
  6
Continuous
 62
     7
370
    25
100
AcDbCircle
 10
191.0
 20
168.0
 30
0.0
 40
1.0
  0
CIRCLE
  5
F9
330
1B
100
AcDbEntity
 67
     1
  8
0
  6
Continuous
 62
     7
370
    25
100
AcDbCircle
 10
31.0
 20
168.0
 30
0.0
 40
1.0
  0
CIRCLE
  5
FA
330
1B
100
AcDbEntity
 67
     1
  8
0
  6
Continuous
 62
     7
370
    25
100
AcDbCircle
 10
31.0
 20
72.0
 30
0.0
 40
1.0
  0
CIRCLE
  5
FB
330
1B
100
AcDbEntity
 67
     1
  8
0
  6
Continuous
 62
     7
370
    25
100
AcDbCircle
 10
47.0
 20
168.0
 30
0.0
 40
1.000000000000007
  0
CIRCLE
  5
FC
330
1B
100
AcDbEntity
 67
     1
  8
0
  6
Continuous
 62
     7
370
    25
100
AcDbCircle
 10
207.9999999999
 20
173.71
 30
0.0
 40
2.999999999999972
  0
CIRCLE
  5
FD
330
1B
100
AcDbEntity
 67
     1
  8
0
  6
Continuous
 62
     7
370
    25
100
AcDbCircle
 10
207.9999999999
 20
133.41
 30
0.0
 40
2.999999999999716
  0
SPLINE
  5
138
330
1B
100
AcDbEntity
 67
     1
  8
0
  6
Continuous
 62
     7
370
    25
100
AcDbSpline
210
0.0
220
0.0
230
1.0
 70
     8
 71
     3
 72
    47
 73
    43
 74
     0
 42
0.000000001
 43
0.00000001
 40
0.0
 40
0.0
 40
0.0
 40
0.0
 40
0.5000000000000046
 40
0.5000000000000046
 40
0.5312500000000049
 40
0.5312500000000049
 40
0.5390625000000049
 40
0.5390625000000049
 40
0.546875000000005
 40
0.546875000000005
 40
0.5625000000000052
 40
0.5625000000000052
 40
0.5937500000000057
 40
0.5937500000000057
 40
0.6015625000000057
 40
0.6015625000000057
 40
0.6093750000000058
 40
0.6093750000000058
 40
0.6250000000000058
 40
0.6250000000000058
 40
0.656250000000006
 40
0.656250000000006
 40
0.671875000000006
 40
0.671875000000006
 40
0.687500000000006
 40
0.687500000000006
 40
0.7187500000000061
 40
0.7187500000000061
 40
0.7343750000000061
 40
0.7343750000000061
 40
0.7500000000000061
 40
0.7500000000000061
 40
0.7578125000000061
 40
0.7578125000000061
 40
0.7656250000000061
 40
0.7656250000000061
 40
0.7812500000000057
 40
0.7812500000000057
 40
0.8125000000000049
 40
0.8125000000000049
 40
0.8750000000000032
 40
1.0
 40
1.0
 40
1.0
 40
1.0
 10
-167.2742565647882
 20
194.0000000000002
 30
0.0
 10
-151.7852897379242
 20
191.4752805494451
 30
0.0
 10
-136.2963232247112
 20
188.9505610815934
 30
0.0
 10
-119.839295663966
 20
186.2680466823194
 30
0.0
 10
-118.8712409146842
 20
186.1102513251879
 30
0.0
 10
-117.6611582967349
 20
185.9130081059224
 30
0.0
 10
-117.419465505463
 20
185.8735371561036
 30
0.0
 10
-116.917391323358
 20
185.7958829476871
 30
0.0
 10
-116.6593933940668
 20
185.7575354626319
 30
0.0
 10
-115.8645416350184
 20
185.6439301738148
 30
0.0
 10
-115.3069599190766
 20
185.5701005732196
 30
0.0
 10
-113.5516588784342
 20
185.3543000787959
 30
0.0
 10
-112.2710727539813
 20
185.2180389145941
 30
0.0
 10
-110.5281398254885
 20
185.0575104135733
 30
0.0
 10
-110.1717804957153
 20
185.0258459802742
 30
0.0
 10
-109.45041251413
 20
184.9640117891578
 30
0.0
 10
-109.0848815414943
 20
184.9337900091372
 30
0.0
 10
-107.9739586166064
 20
184.8451803558586
 30
0.0
 10
-107.2142638372596
 20
184.7888442703386
 30
0.0
 10
-104.8786357217071
 20
184.627947405226
 30
0.0
 10
-103.2464720177181
 20
184.5314530574214
 30
0.0
 10
-100.6847360942208
 20
184.4029921033905
 30
0.0
 10
-99.81171366474376
 20
184.3628952717928
 30
0.0
 10
-98.02689227996923
 20
184.2883363568353
 30
0.0
 10
-97.12583917231676
 20
184.25432224728
 30
0.0
 10
-94.39745257570408
 20
184.161811493193
 30
0.0
 10
-92.54503277913138
 20
184.1127931622987
 30
0.0
 10
-89.71635073753816
 20
184.0581768524086
 30
0.0
 10
-88.7650797501056
 20
184.043136472352
 30
0.0
 10
-86.84536867107202
 20
184.0195426834062
 30
0.0
 10
-85.87451365011242
 20
184.0109794401003
 30
0.0
 10
-84.41439027976682
 20
184.0032541559668
 30
0.0
 10
-83.92734276829376
 20
184.0015391973287
 30
0.0
 10
-82.95258154313932
 20
183.9997960287312
 30
0.0
 10
-82.46478011536072
 20
183.9999991422559
 30
0.0
 10
-81.00163227919272
 20
184.0000021129364
 30
0.0
 10
-80.02620038841411
 20
184.0000000960334
 30
0.0
 10
-77.09990471607817
 20
184.0000000693099
 30
0.0
 10
-75.14904093452083
 20
183.9999999925684
 30
0.0
 10
-69.29644958984885
 20
184.000000002694
 30
0.0
 10
-57.5912669013526
 20
184.0000000025479
 30
0.0
 10
-45.88608421116101
 20
184.0000000000002
 30
0.0
 10
-38.08262908493175
 20
184.0000000000002
 30
0.0
  0
SPLINE
  5
139
330
1B
100
AcDbEntity
 67
     1
  8
0
  6
Continuous
 62
     7
370
    25
100
AcDbSpline
210
0.0
220
0.0
230
1.0
 70
     8
 71
     3
 72
    18
 73
    14
 74
     0
 42
0.000000001
 43
0.00000001
 40
0.0
 40
0.0
 40
0.0
 40
0.0
 40
0.1273430608203815
 40
0.2556492455943382
 40
0.3870728206495624
 40
0.5196151046306642
 40
0.6548971190149737
 40
0.7232521615131022
 40
0.7921906999909304
 40
0.8570506412927283
 40
0.9226859182960765
 40
0.9903382678190723
 40
1.0
 40
1.0
 40
1.0
 40
1.0
 10
-167.2742565647882
 20
194.0000000000002
 30
0.0
 10
-169.1279836523974
 20
194.3934621185704
 30
0.0
 10
-172.8494579787725
 20
195.1833621974158
 30
0.0
 10
-178.4483994037795
 20
197.5933946828053
 30
0.0
 10
-184.0330768180581
 20
200.9450441738128
 30
0.0
 10
-189.6030204172488
 20
205.3704136185531
 30
0.0
 10
-194.0635208439074
 20
209.9594451051973
 30
0.0
 10
-197.7065447286193
 20
214.1429888189269
 30
0.0
 10
-199.7847877468807
 20
217.6640849946637
 30
0.0
 10
-201.1975495398901
 20
221.5025103798251
 30
0.0
 10
-202.0757561341768
 20
225.6377945079873
 30
0.0
 10
-202.476599852406
 20
228.7559426601082
 30
0.0
 10
-202.5161284508985
 20
230.5597002829657
 30
0.0
 10
-202.5210682331957
 20
230.7851110061778
 30
0.0
  0
SPLINE
  5
13A
330
1B
100
AcDbEntity
 67
     1
  8
0
  6
Continuous
 62
     7
370
    25
100
AcDbSpline
210
0.0
220
0.0
230
1.0
 70
     8
 71
     3
 72
    18
 73
    14
 74
     0
 42
0.000000001
 43
0.00000001
 40
0.0
 40
0.0
 40
0.0
 40
0.0
 40
0.0035938917419281
 40
0.0670967198203554
 40
0.1321224904314756
 40
0.1978371003587344
 40
0.2688227096634223
 40
0.3409256632128794
 40
0.4873354418069744
 40
0.6129835328713831
 40
0.7396201513779913
 40
0.8692996362107095
 40
1.0
 40
1.0
 40
1.0
 40
1.0
 10
202.5310160410727
 20
230.7133085852076
 30
0.0
 10
202.5292369368031
 20
230.6295286594624
 30
0.0
 10
202.4960216734395
 20
229.0653863290967
 30
0.0
 10
202.1508735742739
 20
226.1714372987421
 30
0.0
 10
201.3574822718112
 20
222.0797123275135
 30
0.0
 10
200.0090816026355
 20
218.1534142634616
 30
0.0
 10
197.9619457430361
 20
214.4648898020159
 30
0.0
 10
194.1118399097255
 20
209.9934824680534
 30
0.0
 10
189.543136151409
 20
205.3124526765165
 30
0.0
 10
183.9844657851567
 20
200.9267948987273
 30
0.0
 10
178.5532476832007
 20
197.6515930923652
 30
0.0
 10
172.9620610792121
 20
195.2139837331308
 30
0.0
 10
169.1751405669041
 20
194.4057175753696
 30
0.0
 10
167.2742565652458
 20
194.0000000000002
 30
0.0
  0
SPLINE
  5
13B
330
1B
100
AcDbEntity
 67
     1
  8
0
  6
Continuous
 62
     7
370
    25
100
AcDbSpline
210
0.0
220
0.0
230
1.0
 70
     8
 71
     3
 72
    42
 73
    38
 74
     0
 42
0.000000001
 43
0.00000001
 40
0.0
 40
0.0
 40
0.0
 40
0.0
 40
0.1250000000000014
 40
0.1562500000000019
 40
0.1562500000000019
 40
0.1718750000000022
 40
0.1718750000000022
 40
0.1796875000000022
 40
0.1796875000000022
 40
0.1875000000000022
 40
0.1875000000000022
 40
0.2187500000000019
 40
0.2187500000000019
 40
0.2343750000000017
 40
0.2343750000000017
 40
0.2500000000000014
 40
0.2500000000000014
 40
0.2812500000000007
 40
0.2812500000000007
 40
0.3124999999999999
 40
0.3124999999999999
 40
0.3281249999999996
 40
0.3281249999999996
 40
0.3437499999999992
 40
0.3437499999999992
 40
0.3749999999999987
 40
0.3749999999999987
 40
0.4062499999999981
 40
0.4062499999999981
 40
0.421874999999998
 40
0.421874999999998
 40
0.4296874999999979
 40
0.4296874999999979
 40
0.4374999999999978
 40
0.4374999999999978
 40
0.499999999999998
 40
1.0
 40
1.0
 40
1.0
 40
1.0
 10
52.81945396868522
 20
183.9999999999997
 30
0.0
 10
59.95687728501048
 20
184.0000000013401
 30
0.0
 10
68.87865643041735
 20
184.000003013448
 30
0.0
 10
77.80043557582381
 20
184.0000009676121
 30
0.0
 10
80.47696931944573
 20
183.9999999235768
 30
0.0
 10
81.36914723398343
 20
183.9999965312903
 30
0.0
 10
82.70741410580086
 20
183.999999826638
 30
0.0
 10
83.15349747158962
 20
184.0000169004291
 30
0.0
 10
84.04295149752438
 20
184.0019334956481
 30
0.0
 10
84.48665102998933
 20
184.0036089583236
 30
0.0
 10
86.70016096530983
 20
184.0154676259022
 30
0.0
 10
88.45505955483631
 20
184.0360590395855
 30
0.0
 10
91.06388249458091
 20
184.0833661976307
 30
0.0
 10
91.9295594572933
 20
184.1018788052011
 30
0.0
 10
93.65294469885418
 20
184.1444660350698
 30
0.0
 10
94.51032191886287
 20
184.1685590864742
 30
0.0
 10
97.03454394587705
 20
184.2481194127305
 30
0.0
 10
98.6660236463673
 20
184.3111174932604
 30
0.0
 10
101.8294445613628
 20
184.4564219413473
 30
0.0
 10
103.3614981223148
 20
184.5387065161534
 30
0.0
 10
105.5833130906924
 20
184.6769271910125
 30
0.0
 10
106.3134905765507
 20
184.7256455810975
 30
0.0
 10
107.7360365326798
 20
184.8273662057257
 30
0.0
 10
108.4260720252319
 20
184.8801757193057
 30
0.0
 10
110.4339173544701
 20
185.044318661085
 30
0.0
 10
111.6896773600943
 20
185.1613470953705
 30
0.0
 10
114.0366005172578
 20
185.410510855768
 30
0.0
 10
115.1282376545002
 20
185.5427212219099
 30
0.0
 10
116.6347069615695
 20
185.7526988018497
 30
0.0
 10
117.1112622345488
 20
185.8241095365156
 30
0.0
 10
117.7875839446713
 20
185.933359013954
 30
0.0
 10
118.0103376468507
 20
185.9699243487962
 30
0.0
 10
118.4581930489496
 20
186.0429249482467
 30
0.0
 10
118.6821182713024
 20
186.0794253852825
 30
0.0
 10
120.6974604285192
 20
186.4079284790162
 30
0.0
 10
136.8201973434189
 20
189.0359532478772
 30
0.0
 10
152.9429346057023
 20
191.6639779974945
 30
0.0
 10
167.2742565652458
 20
194.0000000000002
 30
0.0
  0
CIRCLE
  5
148
330
1B
100
AcDbEntity
 67
     1
  8
0
  6
Continuous
 62
     7
370
    25
100
AcDbCircle
 10
-207.9999999999
 20
133.4150000001
 30
0.0
 40
2.999999999999972
  0
CIRCLE
  5
149
330
1B
100
AcDbEntity
 67
     1
  8
0
  6
Continuous
 62
     7
370
    25
100
AcDbCircle
 10
-207.9999999999
 20
173.7150000001
 30
0.0
 40
2.999999999999972
  0
CIRCLE
  5
14A
330
1B
100
AcDbEntity
 67
     1
  8
0
  6
Continuous
 62
     7
370
    25
100
AcDbCircle
 10
-47.0
 20
168.0
 30
0.0
 40
1.0
  0
CIRCLE
  5
14B
330
1B
100
AcDbEntity
 67
     1
  8
0
  6
Continuous
 62
     7
370
    25
100
AcDbCircle
 10
-31.0
 20
72.0
 30
0.0
 40
1.000000000000004
  0
CIRCLE
  5
14C
330
1B
100
AcDbEntity
 67
     1
  8
0
  6
Continuous
 62
     7
370
    25
100
AcDbCircle
 10
-31.0
 20
168.0
 30
0.0
 40
1.000000000000004
  0
CIRCLE
  5
14D
330
1B
100
AcDbEntity
 67
     1
  8
0
  6
Continuous
 62
     7
370
    25
100
AcDbCircle
 10
-191.0
 20
168.0
 30
0.0
 40
1.0
  0
CIRCLE
  5
14E
330
1B
100
AcDbEntity
 67
     1
  8
0
  6
Continuous
 62
     7
370
    25
100
AcDbCircle
 10
-127.0
 20
168.0
 30
0.0
 40
0.9999999999999858
  0
LINE
  5
155
330
1B
100
AcDbEntity
 67
     1
  8
0
  6
Continuous
 62
     7
370
    25
100
AcDbLine
 10
-204.9643753069
 20
277.0
 30
0.0
 11
-202.542296294
 21
230.7839984986
 31
0.0
  0
LINE
  5
156
330
1B
100
AcDbEntity
 67
     1
  8
0
  6
Continuous
 62
     7
370
    25
100
AcDbLine
 10
202.5389340939
 20
230.7128936244
 30
0.0
 11
204.9647459635
 21
277.0
 31
0.0
  0
LINE
  5
157
330
1B
100
AcDbEntity
 67
     1
  8
0
  6
Continuous
 62
     7
370
    25
100
AcDbLine
 10
1.0
 20
15.0
 30
0.0
 11
1.0
 21
184.0
 31
0.0
  0
LINE
  5
158
330
1B
100
AcDbEntity
 67
     1
  8
0
  6
Continuous
 62
     7
370
    25
100
AcDbLine
 10
199.7709188996
 20
218.0
 30
0.0
 11
225.0
 21
218.0
 31
0.0
  0
LINE
  5
159
330
1B
100
AcDbEntity
 67
     1
  8
0
  6
Continuous
 62
     7
370
    25
100
AcDbLine
 10
-225.0
 20
-1.0
 30
0.0
 11
225.0
 21
-1.0
 31
0.0
  0
LINE
  5
15A
330
1B
100
AcDbEntity
 67
     1
  8
0
  6
Continuous
 62
     7
370
    25
100
AcDbLine
 10
225.0
 20
-254.0
 30
0.0
 11
-225.0
 21
-254.0
 31
0.0
  0
LINE
  5
15B
330
1B
100
AcDbEntity
 67
     1
  8
0
  6
Continuous
 62
     7
370
    25
100
AcDbLine
 10
225.0
 20
-270.0
 30
0.0
 11
225.0
 21
277.0
 31
0.0
  0
LINE
  5
15C
330
1B
100
AcDbEntity
 67
     1
  8
0
  6
Continuous
 62
     7
370
    25
100
AcDbLine
 10
-225.0
 20
-270.0
 30
0.0
 11
-225.0
 21
277.0
 31
0.0
  0
LINE
  5
15D
330
1B
100
AcDbEntity
 67
     1
  8
0
  6
Continuous
 62
     7
370
    25
100
AcDbLine
 10
-225.0
 20
0.0
 30
0.0
 11
225.0
 21
0.0
 31
0.0
  0
LINE
  5
15E
330
1B
100
AcDbEntity
 67
     1
  8
0
  6
Continuous
 62
     7
370
    25
100
AcDbLine
 10
224.0
 20
-1.0
 30
0.0
 11
224.0
 21
15.0
 31
0.0
  0
LINE
  5
15F
330
1B
100
AcDbEntity
 67
     1
  8
0
  6
Continuous
 62
     7
370
    25
100
AcDbLine
 10
225.0
 20
14.0
 30
0.0
 11
-225.0
 21
14.0
 31
0.0
  0
LINE
  5
160
330
1B
100
AcDbEntity
 67
     1
  8
0
  6
Continuous
 62
     7
370
    25
100
AcDbLine
 10
-224.0
 20
15.0
 30
0.0
 11
224.0
 21
15.0
 31
0.0
  0
LINE
  5
161
330
1B
100
AcDbEntity
 67
     1
  8
0
  6
Continuous
 62
     7
370
    25
100
AcDbLine
 10
-224.0
 20
15.0
 30
0.0
 11
-224.0
 21
-1.0
 31
0.0
  0
LINE
  5
162
330
1B
100
AcDbEntity
 67
     1
  8
0
  6
Continuous
 62
     7
370
    25
100
AcDbLine
 10
225.0
 20
270.0
 30
0.0
 11
244.0
 21
270.0
 31
0.0
  0
LINE
  5
163
330
1B
100
AcDbEntity
 67
     1
  8
0
  6
Continuous
 62
     7
370
    25
100
AcDbLine
 10
244.0
 20
-270.0
 30
0.0
 11
244.0
 21
270.0
 31
0.0
  0
LINE
  5
164
330
1B
100
AcDbEntity
 67
     1
  8
0
  6
Continuous
 62
     7
370
    25
100
AcDbLine
 10
244.0
 20
-270.0
 30
0.0
 11
-244.0
 21
-270.0
 31
0.0
  0
LINE
  5
165
330
1B
100
AcDbEntity
 67
     1
  8
0
  6
Continuous
 62
     7
370
    25
100
AcDbLine
 10
-244.0
 20
-270.0
 30
0.0
 11
-244.0
 21
270.0
 31
0.0
  0
LINE
  5
166
330
1B
100
AcDbEntity
 67
     1
  8
0
  6
Continuous
 62
     7
370
    25
100
AcDbLine
 10
-244.0
 20
270.0
 30
0.0
 11
-225.0
 21
270.0
 31
0.0
  0
LINE
  5
167
330
1B
100
AcDbEntity
 67
     1
  8
0
  6
Continuous
 62
     7
370
    25
100
AcDbLine
 10
209.0
 20
227.0
 30
0.0
 11
225.0
 21
227.0
 31
0.0
  0
LINE
  5
168
330
1B
100
AcDbEntity
 67
     1
  8
0
  6
Continuous
 62
     7
370
    25
100
AcDbLine
 10
209.0
 20
227.0
 30
0.0
 11
209.0
 21
277.0
 31
0.0
  0
LINE
  5
169
330
1B
100
AcDbEntity
 67
     1
  8
0
  6
Continuous
 62
     7
370
    25
100
AcDbLine
 10
-209.0
 20
227.0
 30
0.0
 11
-209.0
 21
277.0
 31
0.0
  0
LINE
  5
16A
330
1B
100
AcDbEntity
 67
     1
  8
0
  6
Continuous
 62
     7
370
    25
100
AcDbLine
 10
-240.0
 20
277.0
 30
0.0
 11
240.0
 21
277.0
 31
0.0
  0
LINE
  5
16B
330
1B
100
AcDbEntity
 67
     1
  8
0
  6
Continuous
 62
     7
370
    25
100
AcDbLine
 10
-225.0
 20
227.0
 30
0.0
 11
-209.0
 21
227.0
 31
0.0
  0
LINE
  5
16C
330
1B
100
AcDbEntity
 67
     1
  8
0
  6
Continuous
 62
     7
370
    25
100
AcDbLine
 10
-209.0
 20
270.0
 30
0.0
 11
-204.5975206994
 21
270.0
 31
0.0
  0
LINE
  5
16D
330
1B
100
AcDbEntity
 67
     1
  8
0
  6
Continuous
 62
     7
370
    25
100
AcDbLine
 10
204.5978903871
 20
270.0
 30
0.0
 11
209.0
 21
270.0
 31
0.0
  0
LINE
  5
16E
330
1B
100
AcDbEntity
 67
     1
  8
0
  6
Continuous
 62
     7
370
    25
100
AcDbLine
 10
-225.0
 20
220.0
 30
0.0
 11
-200.5328255912
 21
220.0
 31
0.0
  0
LINE
  5
16F
330
1B
100
AcDbEntity
 67
     1
  8
0
  6
Continuous
 62
     7
370
    25
100
AcDbLine
 10
200.5313581931
 20
220.0
 30
0.0
 11
225.0
 21
220.0
 31
0.0
  0
LINE
  5
170
330
1B
100
AcDbEntity
 67
     1
  8
0
  6
Continuous
 62
     7
370
    25
100
AcDbLine
 10
-247.1066008945
 20
273.790656175
 30
0.0
 11
-249.7242470474
 21
323.7383202188
 31
0.0
  0
LINE
  5
171
330
1B
100
AcDbEntity
 67
     1
  8
0
  6
Continuous
 62
     7
370
    25
100
AcDbLine
 10
-244.7310993736
 20
329.0
 30
0.0
 11
244.7310993736
 21
329.0
 31
0.0
  0
LINE
  5
172
330
1B
100
AcDbEntity
 67
     1
  8
0
  6
Continuous
 62
     7
370
    25
100
AcDbLine
 10
247.1066008945
 20
273.790656175
 30
0.0
 11
249.7242470474
 21
323.7383202188
 31
0.0
  0
LINE
  5
173
330
1B
100
AcDbEntity
 67
     1
  8
0
  6
Continuous
 62
     7
370
    25
100
AcDbLine
 10
240.0
 20
274.0
 30
0.0
 11
240.0
 21
277.0
 31
0.0
  0
LINE
  5
174
330
1B
100
AcDbEntity
 67
     1
  8
0
  6
Continuous
 62
     7
370
    25
100
AcDbLine
 10
-240.0
 20
274.0
 30
0.0
 11
-240.0
 21
277.0
 31
0.0
  0
LINE
  5
175
330
1B
100
AcDbEntity
 67
     1
  8
0
  6
Continuous
 62
     7
370
    25
100
AcDbLine
 10
-38.0826290849
 20
184.0
 30
0.0
 11
52.8194539687
 21
184.0
 31
0.0
  0
LINE
  5
176
330
1B
100
AcDbEntity
 67
     1
  8
0
  6
Continuous
 62
     7
370
    25
100
AcDbLine
 10
205.0
 20
270.0247137535
 30
0.0
 11
205.0
 21
277.0
 31
0.0
  0
LINE
  5
177
330
1B
100
AcDbEntity
 67
     1
  8
0
  6
Continuous
 62
     7
370
    25
100
AcDbLine
 10
204.599185584
 20
270.0247137535
 30
0.0
 11
209.0
 21
270.0247137535
 31
0.0
  0
LINE
  5
178
330
1B
100
AcDbEntity
 67
     1
  8
0
  6
Continuous
 62
     7
370
    25
100
AcDbLine
 10
225.0
 20
270.0247137535
 30
0.0
 11
243.5560413777
 21
270.0247137535
 31
0.0
  0
LINE
  5
179
330
1B
100
AcDbEntity
 67
     1
  8
0
  6
Continuous
 62
     7
370
    25
100
AcDbLine
 10
-243.5560413777
 20
270.0247137535
 30
0.0
 11
-225.0
 21
270.0247137535
 31
0.0
  0
LINE
  5
17A
330
1B
100
AcDbEntity
 67
     1
  8
0
  6
Continuous
 62
     7
370
    25
100
AcDbLine
 10
-209.0
 20
270.0247137535
 30
0.0
 11
-204.5988158929
 21
270.0247137535
 31
0.0
  0
LINE
  5
17B
330
1B
100
AcDbEntity
 67
     1
  8
0
  6
Continuous
 62
     7
370
    25
100
AcDbLine
 10
-205.0
 20
270.0247137535
 30
0.0
 11
-205.0
 21
277.0
 31
0.0
  0
LINE
  5
17C
330
1B
100
AcDbEntity
 67
     1
  8
0
  6
Continuous
 62
     7
370
    25
100
AcDbLine
 10
-199.7876592759
 20
218.0
 30
0.0
 11
-225.0
 21
218.0
 31
0.0
  0
LINE
  5
17D
330
1B
100
AcDbEntity
 67
     1
  8
0
  6
Continuous
 62
     7
370
    25
100
AcDbLine
 10
-1.0
 20
184.0
 30
0.0
 11
-1.0
 21
15.0
 31
0.0
  0
LINE
  5
17E
330
1B
100
AcDbEntity
 67
     1
  8
0
  6
Continuous
 62
     8
370
    25
100
AcDbLine
 10
204.807522145
 20
274.0
 30
0.0
 11
209.0
 21
274.0
 31
0.0
  0
LINE
  5
17F
330
1B
100
AcDbEntity
 67
     1
  8
0
  6
Continuous
 62
     8
370
    25
100
AcDbLine
 10
225.0
 20
274.0
 30
0.0
 11
240.0
 21
274.0
 31
0.0
  0
LINE
  5
180
330
1B
100
AcDbEntity
 67
     1
  8
0
  6
Continuous
 62
     8
370
    25
100
AcDbLine
 10
-240.0
 20
274.0
 30
0.0
 11
-225.0
 21
274.0
 31
0.0
  0
LINE
  5
181
330
1B
100
AcDbEntity
 67
     1
  8
0
  6
Continuous
 62
     8
370
    25
100
AcDbLine
 10
-209.0
 20
274.0
 30
0.0
 11
-204.8071519037
 21
274.0
 31
0.0
  0
ARC
  5
182
330
1B
100
AcDbEntity
 67
     1
  8
0
  6
Continuous
 62
     7
370
    25
100
AcDbCircle
 10
-224.0
 20
0.0
 30
0.0
 40
1.000000000000001
100
AcDbArc
 50
180.0
 51
270.0
  0
ARC
  5
183
330
1B
100
AcDbEntity
 67
     1
  8
0
  6
Continuous
 62
     7
370
    25
100
AcDbCircle
 10
224.0
 20
14.0
 30
0.0
 40
1.000000000000002
100
AcDbArc
 50
0.0
 51
90.0
  0
ARC
  5
184
330
1B
100
AcDbEntity
 67
     1
  8
0
  6
Continuous
 62
     7
370
    25
100
AcDbCircle
 10
-224.0
 20
14.0
 30
0.0
 40
1.0
100
AcDbArc
 50
90.0
 51
180.0
  0
ARC
  5
185
330
1B
100
AcDbEntity
 67
     1
  8
0
  6
Continuous
 62
     7
370
    25
100
AcDbCircle
 10
224.0
 20
0.0
 30
0.0
 40
1.0
100
AcDbArc
 50
270.0
 51
0.0
  0
ARC
  5
186
330
1B
100
AcDbEntity
 67
     1
  8
0
  6
Continuous
 62
     7
370
    25
100
AcDbCircle
 10
-244.7310993736
 20
324.0
 30
0.0
 40
5.0
100
AcDbArc
 50
90.0
 51
183.0
  0
ARC
  5
187
330
1B
100
AcDbEntity
 67
     1
  8
0
  6
Continuous
 62
     7
370
    25
100
AcDbCircle
 10
244.7310993736
 20
324.0
 30
0.0
 40
5.000000000000057
100
AcDbArc
 50
357.0
 51
90.0
  0
ARC
  5
188
330
1B
100
AcDbEntity
 67
     1
  8
0
  6
Continuous
 62
     7
370
    25
100
AcDbCircle
 10
-243.1120827554
 20
274.0
 30
0.0
 40
3.99999999999981
100
AcDbArc
 50
183.0
 51
263.6276319916
  0
ARC
  5
189
330
1B
100
AcDbEntity
 67
     1
  8
0
  6
Continuous
 62
     7
370
    25
100
AcDbCircle
 10
244.0
 20
274.0
 30
0.0
 40
3.99999999999986
100
AcDbArc
 50
180.0
 51
263.6276319916
  0
ARC
  5
18A
330
1B
100
AcDbEntity
 67
     1
  8
0
  6
Continuous
 62
     7
370
    25
100
AcDbCircle
 10
243.1120827554
 20
274.0
 30
0.0
 40
3.999999999999948
100
AcDbArc
 50
276.3723680084
 51
357.0
  0
ARC
  5
18B
330
1B
100
AcDbEntity
 67
     1
  8
0
  6
Continuous
 62
     7
370
    25
100
AcDbCircle
 10
-244.0
 20
274.0
 30
0.0
 40
3.999999999999945
100
AcDbArc
 50
276.3723680084
 51
0.0
  0
VIEWPORT
  5
547
330
1B
100
AcDbEntity
 67
     1
  8
0
100
AcDbViewport
 10
0.0
 20
0.0
 30
0.0
 40
205.6
 41
156.0
 68
     1
 69
     1
 12
0.0
 22
29.5
 13
0.0
 23
0.0
 14
10.0
 24
10.0
 15
10.0
 25
10.0
 16
0.0
 26
0.0
 36
1.0
 17
0.0
 27
0.0
 37
0.0
 42
50.0
 43
0.0
 44
0.0
 45
610.98
 50
0.0
 51
0.0
 72
   100
 90
   557152
  1

281
     0
 71
     1
 74
     0
110
0.0
120
0.0
130
0.0
111
1.0
121
0.0
131
0.0
112
0.0
122
1.0
132
0.0
 79
     0
146
0.0
  0
ENDSEC
  0
SECTION
  2
OBJECTS
  0
DICTIONARY
  5
C
330
0
100
AcDbDictionary
281
     1
  3
ACAD_GROUP
350
D
  3
ACAD_LAYOUT
350
1A
  3
ACAD_MLINESTYLE
350
17
  3
ACAD_PLOTSETTINGS
350
19
  3
ACAD_PLOTSTYLENAME
350
E
  3
ACAD_SCALELIST
350
47
  0
DICTIONARY
  5
D
102
{ACAD_REACTORS
330
C
102
}
330
C
100
AcDbDictionary
281
     1
  0
DICTIONARY
  5
1A
102
{ACAD_REACTORS
330
C
102
}
330
C
100
AcDbDictionary
281
     1
  3
_Back
350
1E
  3
_Bottom
350
27C
  3
_Dimetric
350
49C
  3
_Isometric
350
2FC
  3
_Left
350
26
  3
_Right
350
1C4
  3
_Top
350
1FF
  3
_Trimetric
350
3D0
  3
Model
350
22
  0
DICTIONARY
  5
17
102
{ACAD_REACTORS
330
C
102
}
330
C
100
AcDbDictionary
281
     1
  3
Standard
350
18
  0
DICTIONARY
  5
19
102
{ACAD_REACTORS
330
C
102
}
330
C
100
AcDbDictionary
281
     1
  0
ACDBDICTIONARYWDFLT
  5
E
102
{ACAD_REACTORS
330
C
102
}
330
C
100
AcDbDictionary
281
     1
  3
Normal
350
F
100
AcDbDictionaryWithDefault
340
F
  0
DICTIONARY
  5
47
102
{ACAD_REACTORS
330
C
102
}
330
C
100
AcDbDictionary
281
     1
  3
A0
350
48
  3
A1
350
49
  3
A2
350
4A
  3
A3
350
4B
  3
A4
350
4C
  3
A5
350
4D
  3
A6
350
4E
  3
A7
350
4F
  3
A8
350
50
  3
A9
350
51
  3
B0
350
52
  3
B1
350
53
  3
B2
350
54
  3
B3
350
55
  3
B4
350
56
  3
B5
350
57
  3
B6
350
58
  3
B7
350
59
  3
B8
350
5A
  3
B9
350
5B
  3
C0
350
5C
  3
C1
350
5D
  3
C2
350
5E
  3
C3
350
5F
  3
C4
350
60
  3
C5
350
61
  3
C6
350
62
  3
C7
350
63
  3
C8
350
64
  3
C9
350
65
  3
D0
350
66
  3
D1
350
67
  3
D2
350
68
  0
LAYOUT
  5
1E
102
{ACAD_REACTORS
330
1A
102
}
330
1A
100
AcDbPlotSettings
  1

  2
none_device
  4
ISO_A4_(210.00_x_297.00_MM)
  6

 40
7.5
 41
20.0
 42
7.5
 43
20.0
 44
210.0
 45
297.0
 46
0.0
 47
0.0
 48
0.0
 49
0.0
140
0.0
141
0.0
142
1.0
143
3.0717948718
 70
   688
 72
     1
 73
     1
 74
     1
  7

 75
     0
147
0.325542571
148
249.7310993736
149
270.0
100
AcDbLayout
  1
_Back
 70
     1
 71
     1
 10
-311.1669968095
 20
-293.0384615385
 11
601.1560801136
 21
352.0384615385
 12
0.0
 22
0.0
 32
0.0
 14
-249.7310993736
 24
-270.0
 34
0.0
 15
249.7310993736
 25
329.0
 35
0.0
146
0.0
 13
0.0
 23
0.0
 33
0.0
 16
1.0
 26
0.0
 36
0.0
 17
0.0
 27
1.0
 37
0.0
 76
     0
330
1B
331
547
  0
LAYOUT
  5
27C
102
{ACAD_REACTORS
330
1A
102
}
330
1A
100
AcDbPlotSettings
  1

  2
none_device
  4
ISO_A4_(210.00_x_297.00_MM)
  6

 40
7.5
 41
20.0
 42
7.5
 43
20.0
 44
210.0
 45
297.0
 46
0.0
 47
0.0
 48
0.0
 49
0.0
140
0.0
141
0.0
142
1.0
143
3.0717948718
 70
   688
 72
     1
 73
     1
 74
     1
  7

 75
     0
147
0.325542571
148
249.7310993736
149
270.0
100
AcDbLayout
  1
_Bottom
 70
     1
 71
     5
 10
0.0
 20
0.0
 11
0.0
 21
0.0
 12
0.0
 22
0.0
 32
0.0
 14
0.0
 24
0.0
 34
0.0
 15
0.0
 25
0.0
 35
0.0
146
0.0
 13
0.0
 23
0.0
 33
0.0
 16
1.0
 26
0.0
 36
0.0
 17
0.0
 27
1.0
 37
0.0
 76
     0
330
27B
331
54F
  0
LAYOUT
  5
49C
102
{ACAD_REACTORS
330
1A
102
}
330
1A
100
AcDbPlotSettings
  1

  2
none_device
  4
ISO_A4_(210.00_x_297.00_MM)
  6

 40
7.5
 41
20.0
 42
7.5
 43
20.0
 44
210.0
 45
297.0
 46
0.0
 47
0.0
 48
0.0
 49
0.0
140
0.0
141
0.0
142
1.0
143
3.0717948718
 70
   688
 72
     1
 73
     1
 74
     1
  7

 75
     0
147
0.325542571
148
249.7310993736
149
270.0
100
AcDbLayout
  1
_Dimetric
 70
     1
 71
     8
 10
0.0
 20
0.0
 11
0.0
 21
0.0
 12
0.0
 22
0.0
 32
0.0
 14
0.0
 24
0.0
 34
0.0
 15
0.0
 25
0.0
 35
0.0
146
0.0
 13
0.0
 23
0.0
 33
0.0
 16
1.0
 26
0.0
 36
0.0
 17
0.0
 27
1.0
 37
0.0
 76
     0
330
49B
331
555
  0
LAYOUT
  5
2FC
102
{ACAD_REACTORS
330
1A
102
}
330
1A
100
AcDbPlotSettings
  1

  2
none_device
  4
ISO_A4_(210.00_x_297.00_MM)
  6

 40
7.5
 41
20.0
 42
7.5
 43
20.0
 44
210.0
 45
297.0
 46
0.0
 47
0.0
 48
0.0
 49
0.0
140
0.0
141
0.0
142
1.0
143
3.0717948718
 70
   688
 72
     1
 73
     1
 74
     1
  7

 75
     0
147
0.325542571
148
249.7310993736
149
270.0
100
AcDbLayout
  1
_Isometric
 70
     1
 71
     6
 10
0.0
 20
0.0
 11
0.0
 21
0.0
 12
0.0
 22
0.0
 32
0.0
 14
0.0
 24
0.0
 34
0.0
 15
0.0
 25
0.0
 35
0.0
146
0.0
 13
0.0
 23
0.0
 33
0.0
 16
1.0
 26
0.0
 36
0.0
 17
0.0
 27
1.0
 37
0.0
 76
     0
330
2FB
331
551
  0
LAYOUT
  5
26
102
{ACAD_REACTORS
330
1A
102
}
330
1A
100
AcDbPlotSettings
  1

  2
none_device
  4
ISO_A4_(210.00_x_297.00_MM)
  6

 40
7.5
 41
20.0
 42
7.5
 43
20.0
 44
210.0
 45
297.0
 46
0.0
 47
0.0
 48
0.0
 49
0.0
140
0.0
141
0.0
142
1.0
143
3.0717948718
 70
   688
 72
     1
 73
     1
 74
     1
  7

 75
     0
147
0.325542571
148
249.7310993736
149
270.0
100
AcDbLayout
  1
_Left
 70
     1
 71
     2
 10
0.0
 20
0.0
 11
0.0
 21
0.0
 12
0.0
 22
0.0
 32
0.0
 14
0.0
 24
0.0
 34
0.0
 15
0.0
 25
0.0
 35
0.0
146
0.0
 13
0.0
 23
0.0
 33
0.0
 16
1.0
 26
0.0
 36
0.0
 17
0.0
 27
1.0
 37
0.0
 76
     0
330
23
331
549
  0
LAYOUT
  5
1C4
102
{ACAD_REACTORS
330
1A
102
}
330
1A
100
AcDbPlotSettings
  1

  2
none_device
  4
ISO_A4_(210.00_x_297.00_MM)
  6

 40
7.5
 41
20.0
 42
7.5
 43
20.0
 44
210.0
 45
297.0
 46
0.0
 47
0.0
 48
0.0
 49
0.0
140
0.0
141
0.0
142
1.0
143
3.0717948718
 70
   688
 72
     1
 73
     1
 74
     1
  7

 75
     0
147
0.325542571
148
249.7310993736
149
270.0
100
AcDbLayout
  1
_Right
 70
     1
 71
     3
 10
0.0
 20
0.0
 11
0.0
 21
0.0
 12
0.0
 22
0.0
 32
0.0
 14
0.0
 24
0.0
 34
0.0
 15
0.0
 25
0.0
 35
0.0
146
0.0
 13
0.0
 23
0.0
 33
0.0
 16
1.0
 26
0.0
 36
0.0
 17
0.0
 27
1.0
 37
0.0
 76
     0
330
1C3
331
54B
  0
LAYOUT
  5
1FF
102
{ACAD_REACTORS
330
1A
102
}
330
1A
100
AcDbPlotSettings
  1

  2
none_device
  4
ISO_A4_(210.00_x_297.00_MM)
  6

 40
7.5
 41
20.0
 42
7.5
 43
20.0
 44
210.0
 45
297.0
 46
0.0
 47
0.0
 48
0.0
 49
0.0
140
0.0
141
0.0
142
1.0
143
3.0717948718
 70
   688
 72
     1
 73
     1
 74
     1
  7

 75
     0
147
0.325542571
148
249.7310993736
149
270.0
100
AcDbLayout
  1
_Top
 70
     1
 71
     4
 10
0.0
 20
0.0
 11
0.0
 21
0.0
 12
0.0
 22
0.0
 32
0.0
 14
0.0
 24
0.0
 34
0.0
 15
0.0
 25
0.0
 35
0.0
146
0.0
 13
0.0
 23
0.0
 33
0.0
 16
1.0
 26
0.0
 36
0.0
 17
0.0
 27
1.0
 37
0.0
 76
     0
330
1FE
331
54D
  0
LAYOUT
  5
3D0
102
{ACAD_REACTORS
330
1A
102
}
330
1A
100
AcDbPlotSettings
  1

  2
none_device
  4
ISO_A4_(210.00_x_297.00_MM)
  6

 40
7.5
 41
20.0
 42
7.5
 43
20.0
 44
210.0
 45
297.0
 46
0.0
 47
0.0
 48
0.0
 49
0.0
140
0.0
141
0.0
142
1.0
143
3.0717948718
 70
   688
 72
     1
 73
     1
 74
     1
  7

 75
     0
147
0.325542571
148
249.7310993736
149
270.0
100
AcDbLayout
  1
_Trimetric
 70
     1
 71
     7
 10
0.0
 20
0.0
 11
0.0
 21
0.0
 12
0.0
 22
0.0
 32
0.0
 14
0.0
 24
0.0
 34
0.0
 15
0.0
 25
0.0
 35
0.0
146
0.0
 13
0.0
 23
0.0
 33
0.0
 16
1.0
 26
0.0
 36
0.0
 17
0.0
 27
1.0
 37
0.0
 76
     0
330
3CF
331
553
  0
LAYOUT
  5
22
102
{ACAD_REACTORS
330
1A
102
}
330
1A
100
AcDbPlotSettings
  1

  2
none_device
  4
ANSI_A_(11.00_x_8.50_Inches)
  6

 40
6.35
 41
19.05
 42
6.35000508
 43
19.05000254
 44
279.4
 45
215.9
 46
133.34999746
 47
78.3735221023
 48
0.0
 49
0.0
140
0.0
141
0.0
142
0.014048414
143
1.0
 70
  1696
 72
     0
 73
     0
 74
     0
  7

 75
     0
147
0.0179189148
148
-1300.4909072572
149
0.0
100
AcDbLayout
  1
Model
 70
     1
 71
     0
 10
0.0
 20
0.0
 11
420.0
 21
297.0
 12
0.0
 22
0.0
 32
0.0
 14
-249.7310993736
 24
-270.0
 34
0.0
 15
249.7310993736
 25
329.0
 35
0.0
146
0.0
 13
0.0
 23
0.0
 33
0.0
 16
1.0
 26
0.0
 36
0.0
 17
0.0
 27
1.0
 37
0.0
 76
     0
330
1F
331
29
  0
MLINESTYLE
  5
18
102
{ACAD_REACTORS
330
17
102
}
330
17
100
AcDbMlineStyle
  2
Standard
 70
     0
  3

 62
   256
 51
90.0
 52
90.0
 71
     2
 49
0.5
 62
   256
  6
BYLAYER
 49
-0.5
 62
   256
  6
BYLAYER
  0
ACDBPLACEHOLDER
  5
F
102
{ACAD_REACTORS
330
E
102
}
330
E
  0
SCALE
  5
48
102
{ACAD_REACTORS
330
47
102
}
330
47
100
AcDbScale
 70
     0
300
1:1
140
1.0
141
1.0
290
     1
  0
SCALE
  5
49
102
{ACAD_REACTORS
330
47
102
}
330
47
100
AcDbScale
 70
     0
300
1:2
140
1.0
141
2.0
290
     0
  0
SCALE
  5
4A
102
{ACAD_REACTORS
330
47
102
}
330
47
100
AcDbScale
 70
     0
300
1:4
140
1.0
141
4.0
290
     0
  0
SCALE
  5
4B
102
{ACAD_REACTORS
330
47
102
}
330
47
100
AcDbScale
 70
     0
300
1:5
140
1.0
141
5.0
290
     0
  0
SCALE
  5
4C
102
{ACAD_REACTORS
330
47
102
}
330
47
100
AcDbScale
 70
     0
300
1:8
140
1.0
141
8.0
290
     0
  0
SCALE
  5
4D
102
{ACAD_REACTORS
330
47
102
}
330
47
100
AcDbScale
 70
     0
300
1:10
140
1.0
141
10.0
290
     0
  0
SCALE
  5
4E
102
{ACAD_REACTORS
330
47
102
}
330
47
100
AcDbScale
 70
     0
300
1:16
140
1.0
141
16.0
290
     0
  0
SCALE
  5
4F
102
{ACAD_REACTORS
330
47
102
}
330
47
100
AcDbScale
 70
     0
300
1:20
140
1.0
141
20.0
290
     0
  0
SCALE
  5
50
102
{ACAD_REACTORS
330
47
102
}
330
47
100
AcDbScale
 70
     0
300
1:30
140
1.0
141
30.0
290
     0
  0
SCALE
  5
51
102
{ACAD_REACTORS
330
47
102
}
330
47
100
AcDbScale
 70
     0
300
1:40
140
1.0
141
40.0
290
     0
  0
SCALE
  5
52
102
{ACAD_REACTORS
330
47
102
}
330
47
100
AcDbScale
 70
     0
300
1:50
140
1.0
141
50.0
290
     0
  0
SCALE
  5
53
102
{ACAD_REACTORS
330
47
102
}
330
47
100
AcDbScale
 70
     0
300
1:100
140
1.0
141
100.0
290
     0
  0
SCALE
  5
54
102
{ACAD_REACTORS
330
47
102
}
330
47
100
AcDbScale
 70
     0
300
2:1
140
2.0
141
1.0
290
     0
  0
SCALE
  5
55
102
{ACAD_REACTORS
330
47
102
}
330
47
100
AcDbScale
 70
     0
300
4:1
140
4.0
141
1.0
290
     0
  0
SCALE
  5
56
102
{ACAD_REACTORS
330
47
102
}
330
47
100
AcDbScale
 70
     0
300
8:1
140
8.0
141
1.0
290
     0
  0
SCALE
  5
57
102
{ACAD_REACTORS
330
47
102
}
330
47
100
AcDbScale
 70
     0
300
10:1
140
10.0
141
1.0
290
     0
  0
SCALE
  5
58
102
{ACAD_REACTORS
330
47
102
}
330
47
100
AcDbScale
 70
     0
300
100:1
140
100.0
141
1.0
290
     0
  0
SCALE
  5
59
102
{ACAD_REACTORS
330
47
102
}
330
47
100
AcDbScale
 70
     0
300
1/128" = 1'-0"
140
0.0078125
141
12.0
290
     0
  0
SCALE
  5
5A
102
{ACAD_REACTORS
330
47
102
}
330
47
100
AcDbScale
 70
     0
300
1/64" = 1'-0"
140
0.015625
141
12.0
290
     0
  0
SCALE
  5
5B
102
{ACAD_REACTORS
330
47
102
}
330
47
100
AcDbScale
 70
     0
300
1/32" = 1'-0"
140
0.03125
141
12.0
290
     0
  0
SCALE
  5
5C
102
{ACAD_REACTORS
330
47
102
}
330
47
100
AcDbScale
 70
     0
300
1/16" = 1'-0"
140
0.0625
141
12.0
290
     0
  0
SCALE
  5
5D
102
{ACAD_REACTORS
330
47
102
}
330
47
100
AcDbScale
 70
     0
300
3/32" = 1'-0"
140
0.09375
141
12.0
290
     0
  0
SCALE
  5
5E
102
{ACAD_REACTORS
330
47
102
}
330
47
100
AcDbScale
 70
     0
300
1/8" = 1'-0"
140
0.125
141
12.0
290
     0
  0
SCALE
  5
5F
102
{ACAD_REACTORS
330
47
102
}
330
47
100
AcDbScale
 70
     0
300
3/16" = 1'-0"
140
0.1875
141
12.0
290
     0
  0
SCALE
  5
60
102
{ACAD_REACTORS
330
47
102
}
330
47
100
AcDbScale
 70
     0
300
1/4" = 1'-0"
140
0.25
141
12.0
290
     0
  0
SCALE
  5
61
102
{ACAD_REACTORS
330
47
102
}
330
47
100
AcDbScale
 70
     0
300
3/8" = 1'-0"
140
0.375
141
12.0
290
     0
  0
SCALE
  5
62
102
{ACAD_REACTORS
330
47
102
}
330
47
100
AcDbScale
 70
     0
300
1/2" = 1'-0"
140
0.5
141
12.0
290
     0
  0
SCALE
  5
63
102
{ACAD_REACTORS
330
47
102
}
330
47
100
AcDbScale
 70
     0
300
3/4" = 1'-0"
140
0.75
141
12.0
290
     0
  0
SCALE
  5
64
102
{ACAD_REACTORS
330
47
102
}
330
47
100
AcDbScale
 70
     0
300
1" = 1'-0"
140
1.0
141
12.0
290
     0
  0
SCALE
  5
65
102
{ACAD_REACTORS
330
47
102
}
330
47
100
AcDbScale
 70
     0
300
1-1/2" = 1'-0"
140
1.5
141
12.0
290
     0
  0
SCALE
  5
66
102
{ACAD_REACTORS
330
47
102
}
330
47
100
AcDbScale
 70
     0
300
3" = 1'-0"
140
3.0
141
12.0
290
     0
  0
SCALE
  5
67
102
{ACAD_REACTORS
330
47
102
}
330
47
100
AcDbScale
 70
     0
300
6" = 1'-0"
140
6.0
141
12.0
290
     0
  0
SCALE
  5
68
102
{ACAD_REACTORS
330
47
102
}
330
47
100
AcDbScale
 70
     0
300
1'-0" = 1'-0"
140
12.0
141
12.0
290
     0
  0
ENDSEC
  0
EOF
