  0
SECTION
  2
HEADER
  9
$ACADVER
  1
AC1015
  9
$ACADMAINTVER
 70
     6
  9
$DWGCODEPAGE
  3
ANSI_1252
  9
$INSBASE
 10
0.0
 20
0.0
 30
0.0
  9
$EXTMIN
 10
-150.0
 20
-700.0
 30
0.0
  9
$EXTMAX
 10
150.0
 20
700.0
 30
0.0
  9
$LIMMIN
 10
0.0
 20
0.0
  9
$LIMMAX
 10
420.0
 20
297.0
  9
$ORTHOMODE
 70
     0
  9
$REGENMODE
 70
     1
  9
$FILLMODE
 70
     1
  9
$QTEXTMODE
 70
     0
  9
$MIRRTEXT
 70
     1
  9
$LTSCALE
 40
1.0
  9
$ATTMODE
 70
     1
  9
$TEXTSIZE
 40
3.5
  9
$TRACEWID
 40
1.0
  9
$TEXTSTYLE
  7
Standard
  9
$CLAYER
  8
0
  9
$CELTYPE
  6
ByLayer
  9
$CECOLOR
 62
   256
  9
$CELTSCALE
 40
1.0
  9
$DISPSILH
 70
     0
  9
$DIMSCALE
 40
1.0
  9
$DIMASZ
 40
3.302
  9
$DIMEXO
 40
1.0
  9
$DIMDLI
 40
3.75
  9
$DIMRND
 40
0.0
  9
$DIMDLE
 40
0.0
  9
$DIMEXE
 40
1.0
  9
$DIMTP
 40
0.0
  9
$DIMTM
 40
0.0
  9
$DIMTXT
 40
3.5
  9
$DIMCEN
 40
2.5
  9
$DIMTSZ
 40
0.0
  9
$DIMTOL
 70
     0
  9
$DIMLIM
 70
     0
  9
$DIMTIH
 70
     1
  9
$DIMTOH
 70
     1
  9
$DIMSE1
 70
     0
  9
$DIMSE2
 70
     0
  9
$DIMTAD
 70
     1
  9
$DIMZIN
 70
     1
  9
$DIMBLK
  1

  9
$DIMASO
 70
     1
  9
$DIMSHO
 70
     1
  9
$DIMPOST
  1

  9
$DIMAPOST
  1

  9
$DIMALT
 70
     0
  9
$DIMALTD
 70
     3
  9
$DIMALTF
 40
0.0393700787
  9
$DIMLFAC
 40
1.0
  9
$DIMTOFL
 70
     1
  9
$DIMTVP
 40
0.0
  9
$DIMTIX
 70
     0
  9
$DIMSOXD
 70
     0
  9
$DIMSAH
 70
     0
  9
$DIMBLK1
  1

  9
$DIMBLK2
  1

  9
$DIMSTYLE
  2
ISO-25
  9
$DIMCLRD
 70
     0
  9
$DIMCLRE
 70
     0
  9
$DIMCLRT
 70
     0
  9
$DIMTFAC
 40
1.0
  9
$DIMGAP
 40
1.524
  9
$DIMJUST
 70
     0
  9
$DIMSD1
 70
     0
  9
$DIMSD2
 70
     0
  9
$DIMTOLJ
 70
     0
  9
$DIMTZIN
 70
     1
  9
$DIMALTZ
 70
     0
  9
$DIMALTTZ
 70
     0
  9
$DIMUPT
 70
     0
  9
$DIMDEC
 70
     2
  9
$DIMTDEC
 70
     2
  9
$DIMALTU
 70
     2
  9
$DIMALTTD
 70
     3
  9
$DIMTXSTY
  7
Standard
  9
$DIMAUNIT
 70
     0
  9
$DIMADEC
 70
     2
  9
$DIMALTRND
 40
0.0
  9
$DIMAZIN
 70
     0
  9
$DIMDSEP
 70
    44
  9
$DIMATFIT
 70
     3
  9
$DIMFRAC
 70
     0
  9
$DIMLDRBLK
  1

  9
$DIMLUNIT
 70
     2
  9
$DIMLWD
 70
    -2
  9
$DIMLWE
 70
    -2
  9
$DIMTMOVE
 70
     0
  9
$LUNITS
 70
     2
  9
$LUPREC
 70
     2
  9
$SKETCHINC
 40
1.0
  9
$FILLETRAD
 40
10.0
  9
$AUNITS
 70
     0
  9
$AUPREC
 70
     2
  9
$MENU
  1
.
  9
$ELEVATION
 40
0.0
  9
$PELEVATION
 40
0.0
  9
$THICKNESS
 40
0.0
  9
$LIMCHECK
 70
     0
  9
$CHAMFERA
 40
0.0
  9
$CHAMFERB
 40
0.0
  9
$CHAMFERC
 40
0.0
  9
$CHAMFERD
 40
0.0
  9
$SKPOLY
 70
     0
  9
$TDCREATE
 40
2458862.438130938
  9
$TDUCREATE
 40
2458862.438130938
  9
$TDUPDATE
 40
2458862.438151817
  9
$TDUUPDATE
 40
2458862.438151817
  9
$TDINDWG
 40
0.0000000116
  9
$TDUSRTIMER
 40
0.0000000116
  9
$USRTIMER
 70
     1
  9
$ANGBASE
 50
0.0
  9
$ANGDIR
 70
     0
  9
$PDMODE
 70
     0
  9
$PDSIZE
 40
-1.0
  9
$PLINEWID
 40
0.0
  9
$SPLFRAME
 70
     0
  9
$SPLINETYPE
 70
     6
  9
$SPLINESEGS
 70
     8
  9
$HANDSEED
  5
272
  9
$SURFTAB1
 70
     6
  9
$SURFTAB2
 70
     6
  9
$SURFTYPE
 70
     6
  9
$SURFU
 70
     6
  9
$SURFV
 70
     6
  9
$UCSBASE
  2

  9
$UCSNAME
  2

  9
$UCSORG
 10
0.0
 20
0.0
 30
0.0
  9
$UCSXDIR
 10
1.0
 20
0.0
 30
0.0
  9
$UCSYDIR
 10
0.0
 20
1.0
 30
0.0
  9
$UCSORTHOREF
  2

  9
$UCSORTHOVIEW
 70
     0
  9
$UCSORGTOP
 10
0.0
 20
0.0
 30
0.0
  9
$UCSORGBOTTOM
 10
0.0
 20
0.0
 30
0.0
  9
$UCSORGLEFT
 10
0.0
 20
0.0
 30
0.0
  9
$UCSORGRIGHT
 10
0.0
 20
0.0
 30
0.0
  9
$UCSORGFRONT
 10
0.0
 20
0.0
 30
0.0
  9
$UCSORGBACK
 10
0.0
 20
0.0
 30
0.0
  9
$PUCSBASE
  2

  9
$PUCSNAME
  2

  9
$PUCSORG
 10
0.0
 20
0.0
 30
0.0
  9
$PUCSXDIR
 10
1.0
 20
0.0
 30
0.0
  9
$PUCSYDIR
 10
0.0
 20
1.0
 30
0.0
  9
$PUCSORTHOREF
  2

  9
$PUCSORTHOVIEW
 70
     0
  9
$PUCSORGTOP
 10
0.0
 20
0.0
 30
0.0
  9
$PUCSORGBOTTOM
 10
0.0
 20
0.0
 30
0.0
  9
$PUCSORGLEFT
 10
0.0
 20
0.0
 30
0.0
  9
$PUCSORGRIGHT
 10
0.0
 20
0.0
 30
0.0
  9
$PUCSORGFRONT
 10
0.0
 20
0.0
 30
0.0
  9
$PUCSORGBACK
 10
0.0
 20
0.0
 30
0.0
  9
$USERI1
 70
     0
  9
$USERI2
 70
     0
  9
$USERI3
 70
     0
  9
$USERI4
 70
     0
  9
$USERI5
 70
     0
  9
$USERR1
 40
0.0
  9
$USERR2
 40
0.0
  9
$USERR3
 40
0.0
  9
$USERR4
 40
0.0
  9
$USERR5
 40
0.0
  9
$WORLDVIEW
 70
     1
  9
$SHADEDGE
 70
     3
  9
$SHADEDIF
 70
    70
  9
$TILEMODE
 70
     1
  9
$MAXACTVP
 70
    64
  9
$PINSBASE
 10
0.0
 20
0.0
 30
0.0
  9
$PLIMCHECK
 70
     0
  9
$PEXTMIN
 10
-150.0
 20
-700.0
 30
0.0
  9
$PEXTMAX
 10
150.0
 20
700.0
 30
0.0
  9
$PLIMMIN
 10
-293.5897435897
 20
-753.8461538462
  9
$PLIMMAX
 10
1838.7179487179
 20
753.8461538462
  9
$UNITMODE
 70
     0
  9
$VISRETAIN
 70
     1
  9
$PLINEGEN
 70
     0
  9
$PSLTSCALE
 70
     1
  9
$TREEDEPTH
 70
  3020
  9
$CMLSTYLE
  2
Standard
  9
$CMLJUST
 70
     0
  9
$CMLSCALE
 40
20.0
  9
$PROXYGRAPHICS
 70
     1
  9
$MEASUREMENT
 70
     1
  9
$CELWEIGHT
370
    -1
  9
$ENDCAPS
280
     0
  9
$JOINSTYLE
280
     0
  9
$LWDISPLAY
290
     1
  9
$INSUNITS
 70
     4
  9
$HYPERLINKBASE
  1

  9
$STYLESHEET
  1

  9
$XEDIT
290
     1
  9
$CEPSNTYPE
380
     0
  9
$PSTYLEMODE
290
     1
  9
$FINGERPRINTGUID
  2
{06fc3c3a-4f1b-4766-89bb-a80c2fc86ead}
  9
$VERSIONGUID
  2
{FAEB1C32-E019-11D5-929B-00C0DF256EC4}
  9
$EXTNAMES
290
     1
  9
$PSVPSCALE
 40
0.0
  9
$OLESTARTUP
290
     0
  0
ENDSEC
  0
SECTION
  2
CLASSES
  0
CLASS
  1
ACDBDICTIONARYWDFLT
  2
AcDbDictionaryWithDefault
  3
ObjectDBX Classes
 90
        0
280
     0
281
     0
  0
CLASS
  1
VISUALSTYLE
  2
AcDbVisualStyle
  3
ObjectDBX Classes
 90
     4095
280
     0
281
     0
  0
CLASS
  1
MATERIAL
  2
AcDbMaterial
  3
ObjectDBX Classes
 90
     1153
280
     0
281
     0
  0
CLASS
  1
SCALE
  2
AcDbScale
  3
ObjectDBX Classes
 90
     1153
280
     0
281
     0
  0
CLASS
  1
TABLESTYLE
  2
AcDbTableStyle
  3
ObjectDBX Classes
 90
     4095
280
     0
281
     0
  0
CLASS
  1
MLEADERSTYLE
  2
AcDbMLeaderStyle
  3
ACDB_MLEADERSTYLE_CLASS
 90
     4095
280
     0
281
     0
  0
CLASS
  1
SUN
  2
AcDbSun
  3
SCENEOE
 90
     1153
280
     0
281
     0
  0
CLASS
  1
ACDBPLACEHOLDER
  2
AcDbPlaceHolder
  3
ObjectDBX Classes
 90
        0
280
     0
281
     0
  0
CLASS
  1
LAYOUT
  2
AcDbLayout
  3
ObjectDBX Classes
 90
        0
280
     0
281
     0
  0
ENDSEC
  0
SECTION
  2
TABLES
  0
TABLE
  2
VPORT
  5
8
330
0
100
AcDbSymbolTable
 70
     1
  0
VPORT
  5
29
330
8
100
AcDbSymbolTableRecord
100
AcDbViewportTableRecord
  2
*Active
 70
     0
 10
0.0
 20
0.0
 11
1.0
 21
1.0
 12
0.0
 22
0.0
 13
0.0
 23
0.0
 14
10.0
 24
10.0
 15
10.0
 25
10.0
 16
0.0
 26
0.0
 36
1.0
 17
0.0
 27
0.0
 37
0.0
 40
1428.0
 41
0.2142857143
 42
50.0
 43
0.0
 44
0.0
 50
0.0
 51
0.0
 71
     0
 72
   100
 73
     1
 74
     3
 75
     0
 76
     0
 77
     0
 78
     0
281
     0
 65
     1
110
0.0
120
0.0
130
0.0
111
1.0
121
0.0
131
0.0
112
0.0
122
1.0
132
0.0
 79
     0
146
0.0
  0
ENDTAB
  0
TABLE
  2
LTYPE
  5
5
330
0
100
AcDbSymbolTable
 70
     6
  0
LTYPE
  5
14
330
5
100
AcDbSymbolTableRecord
100
AcDbLinetypeTableRecord
  2
ByBlock
 70
     0
  3

 72
    65
 73
     0
 40
0.0
  0
LTYPE
  5
15
330
5
100
AcDbSymbolTableRecord
100
AcDbLinetypeTableRecord
  2
ByLayer
 70
     0
  3

 72
    65
 73
     0
 40
0.0
  0
LTYPE
  5
16
330
5
100
AcDbSymbolTableRecord
100
AcDbLinetypeTableRecord
  2
Continuous
 70
     0
  3
Solid line
 72
    65
 73
     0
 40
0.0
  0
LTYPE
  5
6E
330
5
100
AcDbSymbolTableRecord
100
AcDbLinetypeTableRecord
  2
HIDDEN
 70
     0
  3
Hidden __ __ __ __ __ __ __ __ __ __ __ __ __ __
 72
    65
 73
     2
 40
1.905
 49
1.27
 74
     0
 49
-0.635
 74
     0
  0
LTYPE
  5
6F
330
5
100
AcDbSymbolTableRecord
100
AcDbLinetypeTableRecord
  2
PHANTOM
 70
     0
  3
Phantom ______  __  __  ______  __  __  ______
 72
    65
 73
     6
 40
12.7
 49
6.35
 74
     0
 49
-1.27
 74
     0
 49
1.27
 74
     0
 49
-1.27
 74
     0
 49
1.27
 74
     0
 49
-1.27
 74
     0
  0
LTYPE
  5
70
330
5
100
AcDbSymbolTableRecord
100
AcDbLinetypeTableRecord
  2
CENTER
 70
     0
  3
Center ____ _ ____ _ ____ _ ____ _ ____ _ ____
 72
    65
 73
     4
 40
10.16
 49
6.35
 74
     0
 49
-1.27
 74
     0
 49
1.27
 74
     0
 49
-1.27
 74
     0
  0
LTYPE
  5
71
330
5
100
AcDbSymbolTableRecord
100
AcDbLinetypeTableRecord
  2
CENTERX2
 70
     0
  3
Center (2x) ________  __  ________  __  _____
 72
    65
 73
     4
 40
20.32
 49
12.7
 74
     0
 49
-2.54
 74
     0
 49
2.54
 74
     0
 49
-2.54
 74
     0
  0
LTYPE
  5
72
330
5
100
AcDbSymbolTableRecord
100
AcDbLinetypeTableRecord
  2
DOT2
 70
     0
  3
Dot (.5x) ........................................
 72
    65
 73
     2
 40
0.635
 49
0.0
 74
     0
 49
-0.635
 74
     0
  0
ENDTAB
  0
TABLE
  2
LAYER
  5
2
330
0
100
AcDbSymbolTable
 70
     1
  0
LAYER
  5
10
330
2
100
AcDbSymbolTableRecord
100
AcDbLayerTableRecord
  2
0
 70
     0
 62
     7
  6
Continuous
370
    -3
390
F
  0
ENDTAB
  0
TABLE
  2
STYLE
  5
3
330
0
100
AcDbSymbolTable
 70
     1
  0
STYLE
  5
11
330
3
100
AcDbSymbolTableRecord
100
AcDbTextStyleTableRecord
  2
Standard
 70
     0
 40
0.0
 41
1.0
 50
0.0
 71
     0
 42
3.5
  3
txt
  4

  0
ENDTAB
  0
TABLE
  2
VIEW
  5
6
330
0
100
AcDbSymbolTable
 70
     0
  0
ENDTAB
  0
TABLE
  2
UCS
  5
7
330
0
100
AcDbSymbolTable
 70
     0
  0
ENDTAB
  0
TABLE
  2
APPID
  5
9
330
0
100
AcDbSymbolTable
 70
     1
  0
APPID
  5
12
330
9
100
AcDbSymbolTableRecord
100
AcDbRegAppTableRecord
  2
ACAD
 70
     0
  0
ENDTAB
  0
TABLE
  2
DIMSTYLE
  5
A
330
0
100
AcDbSymbolTable
 70
     1
100
AcDbDimStyleTable
  0
DIMSTYLE
105
27
330
A
100
AcDbSymbolTableRecord
100
AcDbDimStyleTableRecord
  2
ISO-25
 70
     0
 41
2.5
 42
0.625
 43
3.75
 44
1.25
 73
     0
 74
     0
 77
     1
 78
     8
140
2.5
141
2.5
143
0.0393700787
147
0.625
171
     3
172
     1
178
     0
271
     2
272
     2
274
     3
278
    44
283
     0
284
     8
340
11
  0
ENDTAB
  0
TABLE
  2
BLOCK_RECORD
  5
1
330
0
100
AcDbSymbolTable
 70
     7
  0
BLOCK_RECORD
  5
1F
330
1
100
AcDbSymbolTableRecord
100
AcDbBlockTableRecord
  2
*Model_Space
340
22
  0
BLOCK_RECORD
  5
1B
330
1
100
AcDbSymbolTableRecord
100
AcDbBlockTableRecord
  2
*Paper_Space
340
1E
  0
BLOCK_RECORD
  5
23
330
1
100
AcDbSymbolTableRecord
100
AcDbBlockTableRecord
  2
*Paper_Space0
340
26
  0
BLOCK_RECORD
  5
D9
330
1
100
AcDbSymbolTableRecord
100
AcDbBlockTableRecord
  2
*Paper_Space1
340
DA
  0
BLOCK_RECORD
  5
F5
330
1
100
AcDbSymbolTableRecord
100
AcDbBlockTableRecord
  2
*Paper_Space2
340
F6
  0
BLOCK_RECORD
  5
11C
330
1
100
AcDbSymbolTableRecord
100
AcDbBlockTableRecord
  2
*Paper_Space3
340
11D
  0
BLOCK_RECORD
  5
152
330
1
100
AcDbSymbolTableRecord
100
AcDbBlockTableRecord
  2
*Paper_Space4
340
153
  0
BLOCK_RECORD
  5
1AB
330
1
100
AcDbSymbolTableRecord
100
AcDbBlockTableRecord
  2
*Paper_Space5
340
1AC
  0
BLOCK_RECORD
  5
205
330
1
100
AcDbSymbolTableRecord
100
AcDbBlockTableRecord
  2
*Paper_Space6
340
206
  0
ENDTAB
  0
ENDSEC
  0
SECTION
  2
BLOCKS
  0
BLOCK
  5
20
330
1F
100
AcDbEntity
  8
0
100
AcDbBlockBegin
  2
*Model_Space
 70
     0
 10
0.0
 20
0.0
 30
0.0
  3
*Model_Space
  1

  0
ENDBLK
  5
21
330
1F
100
AcDbEntity
  8
0
100
AcDbBlockEnd
  0
BLOCK
  5
1C
330
1B
100
AcDbEntity
 67
     1
  8
0
100
AcDbBlockBegin
  2
*Paper_Space
 70
     0
 10
0.0
 20
0.0
 30
0.0
  3
*Paper_Space
  1

  0
ENDBLK
  5
1D
330
1B
100
AcDbEntity
 67
     1
  8
0
100
AcDbBlockEnd
  0
BLOCK
  5
24
330
23
100
AcDbEntity
  8
0
100
AcDbBlockBegin
  2
*Paper_Space0
 70
     0
 10
0.0
 20
0.0
 30
0.0
  3
*Paper_Space0
  1

  0
LINE
  5
D0
330
23
100
AcDbEntity
  8
0
  6
Continuous
 62
     7
370
    25
100
AcDbLine
 10
143.359601858
 20
700.0
 30
0.0
 11
143.359601858
 21
-700.0
 31
0.0
  0
LINE
  5
D1
330
23
100
AcDbEntity
  8
0
  6
Continuous
 62
     7
370
    25
100
AcDbLine
 10
153.0
 20
700.0
 30
0.0
 11
153.0
 21
-700.0
 31
0.0
  0
LINE
  5
D2
330
23
100
AcDbEntity
  8
0
  6
Continuous
 62
     7
370
    25
100
AcDbLine
 10
-90.0
 20
-700.0
 30
0.0
 11
-90.0
 21
700.0
 31
0.0
  0
LINE
  5
D3
330
23
100
AcDbEntity
  8
0
  6
Continuous
 62
     7
370
    25
100
AcDbLine
 10
-90.0
 20
700.0
 30
0.0
 11
153.0
 21
700.0
 31
0.0
  0
LINE
  5
D4
330
23
100
AcDbEntity
  8
0
  6
Continuous
 62
     7
370
    25
100
AcDbLine
 10
113.0
 20
-700.0
 30
0.0
 11
113.0
 21
700.0
 31
0.0
  0
LINE
  5
D5
330
23
100
AcDbEntity
  8
0
  6
Continuous
 62
     7
370
    25
100
AcDbLine
 10
-90.0
 20
-700.0
 30
0.0
 11
153.0
 21
-700.0
 31
0.0
  0
LINE
  5
D6
330
23
100
AcDbEntity
  8
0
  6
Continuous
 62
     7
370
    25
100
AcDbLine
 10
142.5346340601
 20
650.0
 30
0.0
 11
142.0
 21
650.0
 31
0.0
  0
LINE
  5
D7
330
23
100
AcDbEntity
  8
0
  6
Continuous
 62
     7
370
    25
100
AcDbLine
 10
142.0
 20
650.0
 30
0.0
 11
142.0
 21
-700.0
 31
0.0
  0
LINE
  5
D8
330
23
100
AcDbEntity
  8
0
  6
Continuous
 62
     7
370
    25
100
AcDbLine
 10
142.5346340601
 20
700.0
 30
0.0
 11
142.5346340601
 21
650.0
 31
0.0
  0
VIEWPORT
  5
264
330
23
100
AcDbEntity
  8
0
100
AcDbViewport
 10
0.0
 20
0.0
 30
0.0
 40
205.6
 41
156.0
 68
     1
 69
     1
 12
0.0
 22
0.0
 13
0.0
 23
0.0
 14
10.0
 24
10.0
 15
10.0
 25
10.0
 16
0.0
 26
0.0
 36
1.0
 17
0.0
 27
0.0
 37
0.0
 42
50.0
 43
0.0
 44
0.0
 45
1428.0
 50
0.0
 51
0.0
 72
   100
 90
   557152
  1

281
     0
 71
     1
 74
     0
110
0.0
120
0.0
130
0.0
111
1.0
121
0.0
131
0.0
112
0.0
122
1.0
132
0.0
 79
     0
146
0.0
  0
ENDBLK
  5
25
330
23
100
AcDbEntity
  8
0
100
AcDbBlockEnd
  0
BLOCK
  5
DB
330
D9
100
AcDbEntity
  8
0
100
AcDbBlockBegin
  2
*Paper_Space1
 70
     0
 10
0.0
 20
0.0
 30
0.0
  3
*Paper_Space1
  1

  0
LINE
  5
EC
330
D9
100
AcDbEntity
  8
0
  6
Continuous
 62
     7
370
    25
100
AcDbLine
 10
-153.0
 20
-700.0
 30
0.0
 11
-153.0
 21
700.0
 31
0.0
  0
LINE
  5
ED
330
D9
100
AcDbEntity
  8
0
  6
Continuous
 62
     7
370
    25
100
AcDbLine
 10
-153.0
 20
700.0
 30
0.0
 11
90.0
 21
700.0
 31
0.0
  0
LINE
  5
EE
330
D9
100
AcDbEntity
  8
0
  6
Continuous
 62
     7
370
    25
100
AcDbLine
 10
-143.359601858
 20
700.0
 30
0.0
 11
-143.359601858
 21
-700.0
 31
0.0
  0
LINE
  5
EF
330
D9
100
AcDbEntity
  8
0
  6
Continuous
 62
     7
370
    25
100
AcDbLine
 10
-153.0
 20
-700.0
 30
0.0
 11
90.0
 21
-700.0
 31
0.0
  0
LINE
  5
F0
330
D9
100
AcDbEntity
  8
0
  6
Continuous
 62
     7
370
    25
100
AcDbLine
 10
-113.0
 20
700.0
 30
0.0
 11
-113.0
 21
-700.0
 31
0.0
  0
LINE
  5
F1
330
D9
100
AcDbEntity
  8
0
  6
Continuous
 62
     7
370
    25
100
AcDbLine
 10
-142.0
 20
-700.0
 30
0.0
 11
-142.0
 21
650.0
 31
0.0
  0
LINE
  5
F2
330
D9
100
AcDbEntity
  8
0
  6
Continuous
 62
     7
370
    25
100
AcDbLine
 10
-142.0
 20
650.0
 30
0.0
 11
-142.5346340601
 21
650.0
 31
0.0
  0
LINE
  5
F3
330
D9
100
AcDbEntity
  8
0
  6
Continuous
 62
     7
370
    25
100
AcDbLine
 10
-142.5346340601
 20
700.0
 30
0.0
 11
-142.5346340601
 21
650.0
 31
0.0
  0
LINE
  5
F4
330
D9
100
AcDbEntity
  8
0
  6
Continuous
 62
     7
370
    25
100
AcDbLine
 10
90.0
 20
-700.0
 30
0.0
 11
90.0
 21
700.0
 31
0.0
  0
VIEWPORT
  5
266
330
D9
100
AcDbEntity
  8
0
100
AcDbViewport
 10
0.0
 20
0.0
 30
0.0
 40
205.6
 41
156.0
 68
     1
 69
     1
 12
0.0
 22
0.0
 13
0.0
 23
0.0
 14
10.0
 24
10.0
 15
10.0
 25
10.0
 16
0.0
 26
0.0
 36
1.0
 17
0.0
 27
0.0
 37
0.0
 42
50.0
 43
0.0
 44
0.0
 45
1428.0
 50
0.0
 51
0.0
 72
   100
 90
   557152
  1

281
     0
 71
     1
 74
     0
110
0.0
120
0.0
130
0.0
111
1.0
121
0.0
131
0.0
112
0.0
122
1.0
132
0.0
 79
     0
146
0.0
  0
ENDBLK
  5
DC
330
D9
100
AcDbEntity
  8
0
100
AcDbBlockEnd
  0
BLOCK
  5
F7
330
F5
100
AcDbEntity
  8
0
100
AcDbBlockBegin
  2
*Paper_Space2
 70
     0
 10
0.0
 20
0.0
 30
0.0
  3
*Paper_Space2
  1

  0
LINE
  5
10D
330
F5
100
AcDbEntity
  8
0
  6
Continuous
 62
     7
370
    25
100
AcDbLine
 10
136.0
 20
-143.359601858
 30
0.0
 11
130.0
 21
-134.0
 31
0.0
  0
LINE
  5
10E
330
F5
100
AcDbEntity
  8
0
  6
Continuous
 62
     7
370
    25
100
AcDbLine
 10
-109.9559109389
 20
-153.0
 30
0.0
 11
109.9559109389
 21
-153.0
 31
0.0
  0
LINE
  5
10F
330
F5
100
AcDbEntity
  8
0
  6
Continuous
 62
     7
370
    25
100
AcDbLine
 10
-136.0
 20
-143.359601858
 30
0.0
 11
-130.0
 21
-134.0
 31
0.0
  0
LINE
  5
110
330
F5
100
AcDbEntity
  8
0
  6
Continuous
 62
     7
370
    25
100
AcDbLine
 10
-131.0
 20
-134.0
 30
0.0
 11
131.0
 21
-134.0
 31
0.0
  0
LINE
  5
111
330
F5
100
AcDbEntity
  8
0
  6
Continuous
 62
     7
370
    25
100
AcDbLine
 10
-131.0
 20
90.0
 30
0.0
 11
-131.0
 21
-134.0
 31
0.0
  0
LINE
  5
112
330
F5
100
AcDbEntity
  8
0
  6
Continuous
 62
     7
370
    25
100
AcDbLine
 10
-150.0
 20
90.0
 30
0.0
 11
-150.0
 21
-113.0
 31
0.0
  0
LINE
  5
113
330
F5
100
AcDbEntity
  8
0
  6
Continuous
 62
     7
370
    25
100
AcDbLine
 10
-131.0
 20
-134.0
 30
0.0
 11
-136.9760151048
 21
-142.5346340601
 31
0.0
  0
LINE
  5
114
330
F5
100
AcDbEntity
  8
0
  6
Continuous
 62
     7
370
    25
100
AcDbLine
 10
150.0
 20
-113.0
 30
0.0
 11
150.0
 21
90.0
 31
0.0
  0
LINE
  5
115
330
F5
100
AcDbEntity
  8
0
  6
Continuous
 62
     7
370
    25
100
AcDbLine
 10
131.0
 20
-134.0
 30
0.0
 11
136.9760151048
 21
-142.5346340601
 31
0.0
  0
LINE
  5
116
330
F5
100
AcDbEntity
  8
0
  6
Continuous
 62
     7
370
    25
100
AcDbLine
 10
150.0
 20
90.0
 30
0.0
 11
-150.0
 21
90.0
 31
0.0
  0
LINE
  5
117
330
F5
100
AcDbEntity
  8
0
  6
Continuous
 62
     7
370
    25
100
AcDbLine
 10
131.0
 20
-134.0
 30
0.0
 11
131.0
 21
90.0
 31
0.0
  0
ARC
  5
118
330
F5
100
AcDbEntity
  8
0
  6
Continuous
 62
     7
370
    25
100
AcDbCircle
 10
109.9559109389
 20
-113.0
 30
0.0
 40
40.00000000000014
100
AcDbArc
 50
270.0
 51
310.6247566679
  0
ARC
  5
119
330
F5
100
AcDbEntity
  8
0
  6
Continuous
 62
     7
370
    25
100
AcDbCircle
 10
-109.9559109389
 20
-113.0
 30
0.0
 40
39.99999999999968
100
AcDbArc
 50
229.3752433321
 51
270.0
  0
ARC
  5
11A
330
F5
100
AcDbEntity
  8
0
  6
Continuous
 62
     7
370
    25
100
AcDbCircle
 10
-110.0
 20
-113.0
 30
0.0
 40
40.00000000000009
100
AcDbArc
 50
180.0
 51
227.5923966212
  0
ARC
  5
11B
330
F5
100
AcDbEntity
  8
0
  6
Continuous
 62
     7
370
    25
100
AcDbCircle
 10
110.0
 20
-113.0
 30
0.0
 40
40.00000000000041
100
AcDbArc
 50
312.4076033788
 51
0.0
  0
VIEWPORT
  5
268
330
F5
100
AcDbEntity
  8
0
100
AcDbViewport
 10
0.0
 20
0.0
 30
0.0
 40
205.6
 41
156.0
 68
     1
 69
     1
 12
0.0
 22
0.0
 13
0.0
 23
0.0
 14
10.0
 24
10.0
 15
10.0
 25
10.0
 16
0.0
 26
0.0
 36
1.0
 17
0.0
 27
0.0
 37
0.0
 42
50.0
 43
0.0
 44
0.0
 45
1428.0
 50
0.0
 51
0.0
 72
   100
 90
   557152
  1

281
     0
 71
     1
 74
     0
110
0.0
120
0.0
130
0.0
111
1.0
121
0.0
131
0.0
112
0.0
122
1.0
132
0.0
 79
     0
146
0.0
  0
ENDBLK
  5
F8
330
F5
100
AcDbEntity
  8
0
100
AcDbBlockEnd
  0
BLOCK
  5
11E
330
11C
100
AcDbEntity
  8
0
100
AcDbBlockBegin
  2
*Paper_Space3
 70
     0
 10
0.0
 20
0.0
 30
0.0
  3
*Paper_Space3
  1

  0
LINE
  5
13E
330
11C
100
AcDbEntity
  8
0
  6
Continuous
 62
     7
370
    25
100
AcDbLine
 10
-109.9559109389
 20
153.0
 30
0.0
 11
109.9559109389
 21
153.0
 31
0.0
  0
LINE
  5
13F
330
11C
100
AcDbEntity
  8
0
  6
Continuous
 62
     7
370
    25
100
AcDbLine
 10
136.0
 20
143.359601858
 30
0.0
 11
130.0
 21
134.0
 31
0.0
  0
LINE
  5
140
330
11C
100
AcDbEntity
  8
0
  6
Continuous
 62
     7
370
    25
100
AcDbLine
 10
-136.0
 20
143.359601858
 30
0.0
 11
-130.0
 21
134.0
 31
0.0
  0
LINE
  5
141
330
11C
100
AcDbEntity
  8
0
  6
Continuous
 62
     7
370
    25
100
AcDbLine
 10
131.0
 20
134.0
 30
0.0
 11
-131.0
 21
134.0
 31
0.0
  0
LINE
  5
142
330
11C
100
AcDbEntity
  8
0
  6
Continuous
 62
     7
370
    25
100
AcDbLine
 10
-131.0
 20
134.0
 30
0.0
 11
-131.0
 21
-90.0
 31
0.0
  0
LINE
  5
143
330
11C
100
AcDbEntity
  8
0
  6
Continuous
 62
     7
370
    25
100
AcDbLine
 10
-150.0
 20
-90.0
 30
0.0
 11
-150.0
 21
113.0
 31
0.0
  0
LINE
  5
144
330
11C
100
AcDbEntity
  8
0
  6
Continuous
 62
     7
370
    25
100
AcDbLine
 10
-137.5499546279
 20
142.0
 30
0.0
 11
-136.6016603057
 21
142.0
 31
0.0
  0
LINE
  5
145
330
11C
100
AcDbEntity
  8
0
  6
Continuous
 62
     7
370
    25
100
AcDbLine
 10
-131.0
 20
134.0
 30
0.0
 11
-136.9760151048
 21
142.5346340601
 31
0.0
  0
LINE
  5
146
330
11C
100
AcDbEntity
  8
0
  6
Continuous
 62
     7
370
    25
100
AcDbLine
 10
150.0
 20
113.0
 30
0.0
 11
150.0
 21
-90.0
 31
0.0
  0
LINE
  5
147
330
11C
100
AcDbEntity
  8
0
  6
Continuous
 62
     7
370
    25
100
AcDbLine
 10
131.0
 20
-90.0
 30
0.0
 11
131.0
 21
134.0
 31
0.0
  0
LINE
  5
148
330
11C
100
AcDbEntity
  8
0
  6
Continuous
 62
     7
370
    25
100
AcDbLine
 10
136.6016603057
 20
142.0
 30
0.0
 11
137.5499546279
 21
142.0
 31
0.0
  0
LINE
  5
149
330
11C
100
AcDbEntity
  8
0
  6
Continuous
 62
     7
370
    25
100
AcDbLine
 10
136.9760151048
 20
142.5346340601
 30
0.0
 11
131.0
 21
134.0
 31
0.0
  0
LINE
  5
14A
330
11C
100
AcDbEntity
  8
0
  6
Continuous
 62
     7
370
    25
100
AcDbLine
 10
-150.0
 20
-90.0
 30
0.0
 11
150.0
 21
-90.0
 31
0.0
  0
LINE
  5
14B
330
11C
100
AcDbEntity
  8
0
  6
Continuous
 62
     7
370
    25
100
AcDbLine
 10
131.0
 20
133.0
 30
0.0
 11
-131.0
 21
133.0
 31
0.0
  0
ARC
  5
14C
330
11C
100
AcDbEntity
  8
0
  6
Continuous
 62
     7
370
    25
100
AcDbCircle
 10
109.9559109389
 20
113.0
 30
0.0
 40
40.00000000000007
100
AcDbArc
 50
49.3752433321
 51
90.0
  0
ARC
  5
14D
330
11C
100
AcDbEntity
  8
0
  6
Continuous
 62
     7
370
    25
100
AcDbCircle
 10
-109.9559109389
 20
113.0
 30
0.0
 40
39.99999999999972
100
AcDbArc
 50
90.0
 51
130.6247566679
  0
ARC
  5
14E
330
11C
100
AcDbEntity
  8
0
  6
Continuous
 62
     7
370
    25
100
AcDbCircle
 10
-109.9999999998
 20
112.9999999998
 30
0.0
 40
40.00000000030737
100
AcDbArc
 50
132.4076033788
 51
180.0
  0
ARC
  5
14F
330
11C
100
AcDbEntity
  8
0
  6
Continuous
 62
     7
370
    25
100
AcDbCircle
 10
110.0
 20
113.0
 30
0.0
 40
40.0
100
AcDbArc
 50
0.0
 51
47.5923966212
  0
ARC
  5
150
330
11C
100
AcDbEntity
  8
0
  6
Continuous
 62
     7
370
    25
100
AcDbCircle
 10
-130.0
 20
133.0
 30
0.0
 40
1.000000000000028
100
AcDbArc
 50
90.0
 51
180.0
  0
ARC
  5
151
330
11C
100
AcDbEntity
  8
0
  6
Continuous
 62
     7
370
    25
100
AcDbCircle
 10
130.0
 20
133.0
 30
0.0
 40
1.000000000000028
100
AcDbArc
 50
0.0
 51
90.0
  0
VIEWPORT
  5
26A
330
11C
100
AcDbEntity
  8
0
100
AcDbViewport
 10
0.0
 20
0.0
 30
0.0
 40
205.6
 41
156.0
 68
     1
 69
     1
 12
0.0
 22
0.0
 13
0.0
 23
0.0
 14
10.0
 24
10.0
 15
10.0
 25
10.0
 16
0.0
 26
0.0
 36
1.0
 17
0.0
 27
0.0
 37
0.0
 42
50.0
 43
0.0
 44
0.0
 45
1428.0
 50
0.0
 51
0.0
 72
   100
 90
   557152
  1

281
     0
 71
     1
 74
     0
110
0.0
120
0.0
130
0.0
111
1.0
121
0.0
131
0.0
112
0.0
122
1.0
132
0.0
 79
     0
146
0.0
  0
ENDBLK
  5
11F
330
11C
100
AcDbEntity
  8
0
100
AcDbBlockEnd
  0
BLOCK
  5
154
330
152
100
AcDbEntity
  8
0
100
AcDbBlockBegin
  2
*Paper_Space4
 70
     0
 10
0.0
 20
0.0
 30
0.0
  3
*Paper_Space4
  1

  0
LWPOLYLINE
  5
15E
330
152
100
AcDbEntity
  8
0
  6
Continuous
 62
     7
370
    25
100
AcDbPolyline
 90
        9
 70
   128
 43
0.0
 10
-197.5370688634
 20
568.5743489917
 10
-197.1104241452
 20
566.5433098646
 10
-196.3740419736
 20
564.5420431924
 10
-195.3337029796
 20
562.5862590032
 10
-193.9975738684
 20
560.6913102857
 10
-192.3761433102
 20
558.8720724676
 10
-190.4821396035
 20
557.1428266428
 10
-188.3304307576
 20
555.5171474642
 10
-185.937907778
 20
554.0077965823
  0
LWPOLYLINE
  5
164
330
152
100
AcDbEntity
  8
0
  6
Continuous
 62
     7
370
    25
100
AcDbPolyline
 90
        9
 70
   128
 43
0.0
 10
-185.937907778
 20
-589.1493400578
 10
-188.3304307576
 20
-587.6399891758
 10
-190.4821396035
 20
-586.0143099972
 10
-192.3761433102
 20
-584.2850641724
 10
-193.9975738684
 20
-582.4658263543
 10
-195.3337029796
 20
-580.5708776368
 10
-196.3740419736
 20
-578.6150934476
 10
-197.1104241452
 20
-576.6138267754
 10
-197.5370688634
 20
-574.5827876484
  0
LWPOLYLINE
  5
166
330
152
100
AcDbEntity
  8
0
  6
Continuous
 62
     7
370
    25
100
AcDbPolyline
 90
        9
 70
   128
 43
0.0
 10
-185.9690834521
 20
586.6821183887
 10
-188.7482533826
 20
584.9018656118
 10
-191.1928361519
 20
582.9649159737
 10
-193.2765009358
 20
580.892132536
 10
-194.9768043906
 20
578.7058414382
 10
-196.2754323927
 20
576.4295914214
 10
-197.1583973012
 20
574.0879001825
 10
-197.6161886204
 20
571.7059902914
 10
-197.6438754384
 20
569.3095175172
  0
LINE
  5
185
330
152
100
AcDbEntity
  8
0
  6
Continuous
 62
     7
370
    25
100
AcDbLine
 10
-197.6848122046
 20
570.3539561523
 30
0.0
 11
-197.6848122046
 21
-572.8031804878
 31
0.0
  0
LINE
  5
186
330
152
100
AcDbEntity
  8
0
  6
Continuous
 62
     7
370
    25
100
AcDbLine
 10
-30.4367672651
 20
-678.9182376911
 30
0.0
 11
-30.4367672651
 21
464.2388989489
 31
0.0
  0
LINE
  5
187
330
152
100
AcDbEntity
  8
0
  6
Continuous
 62
     7
370
    25
100
AcDbLine
 10
-5.2040243806
 20
457.5428457838
 30
0.0
 11
-5.2040243806
 21
-685.6142908563
 31
0.0
  0
LINE
  5
188
330
152
100
AcDbEntity
  8
0
  6
Continuous
 62
     7
370
    25
100
AcDbLine
 10
-187.3832970144
 20
570.3539561523
 30
0.0
 11
-2.1213203436
 21
463.4044935035
 31
0.0
  0
LINE
  5
189
330
152
100
AcDbEntity
  8
0
  6
Continuous
 62
     7
370
    25
100
AcDbLine
 10
-5.2040243806
 20
457.5428457838
 30
0.0
 11
-2.8284271247
 21
463.8126975594
 31
0.0
  0
LINE
  5
18A
330
152
100
AcDbEntity
  8
0
  6
Continuous
 62
     7
370
    25
100
AcDbLine
 10
-185.937907778
 20
554.0077965823
 30
0.0
 11
-30.4367672651
 21
464.2388989489
 31
0.0
  0
LINE
  5
18B
330
152
100
AcDbEntity
  8
0
  6
Continuous
 62
     7
370
    25
100
AcDbLine
 10
-197.5370688634
 20
568.5743489917
 30
0.0
 11
-186.6761902332
 21
569.9457520964
 31
0.0
  0
LINE
  5
18C
330
152
100
AcDbEntity
  8
0
  6
Continuous
 62
     7
370
    25
100
AcDbLine
 10
-2.8284271247
 20
463.8126975594
 30
0.0
 11
-2.8284271247
 21
461.0894532625
 31
0.0
  0
LINE
  5
18D
330
152
100
AcDbEntity
  8
0
  6
Continuous
 62
     7
370
    25
100
AcDbLine
 10
-5.2040243806
 20
-685.6142908563
 30
0.0
 11
-3.817202605
 21
-681.9540883742
 31
0.0
  0
LINE
  5
18E
330
152
100
AcDbEntity
  8
0
  6
Continuous
 62
     7
370
    25
100
AcDbLine
 10
-185.937907778
 20
554.0077965823
 30
0.0
 11
-185.937907778
 21
-589.1493400578
 31
0.0
  0
LINE
  5
18F
330
152
100
AcDbEntity
  8
0
  6
Continuous
 62
     7
370
    25
100
AcDbLine
 10
-185.937907778
 20
-589.1493400578
 30
0.0
 11
-30.4367672651
 21
-678.9182376911
 31
0.0
  0
LINE
  5
190
330
152
100
AcDbEntity
  8
0
  6
Continuous
 62
     7
370
    25
100
AcDbLine
 10
-197.5370688634
 20
568.5743489917
 30
0.0
 11
-197.5370688634
 21
-574.5827876484
 31
0.0
  0
LINE
  5
191
330
152
100
AcDbEntity
  8
0
  6
Continuous
 62
     7
370
    25
100
AcDbLine
 10
-42.4264068712
 20
669.5475417387
 30
0.0
 11
-185.9690834521
 21
586.6821183887
 31
0.0
  0
LINE
  5
192
330
152
100
AcDbEntity
  8
0
  6
Continuous
 62
     7
370
    25
100
AcDbLine
 10
-28.9913780286
 20
661.7916646764
 30
0.0
 11
-187.3832970144
 21
570.3539561523
 31
0.0
  0
LINE
  5
193
330
152
100
AcDbEntity
  8
0
  6
Continuous
 62
     7
370
    25
100
AcDbLine
 10
-187.3832970144
 20
570.3539561523
 30
0.0
 11
-197.6438754384
 21
569.3095175172
 31
0.0
  0
LINE
  5
194
330
152
100
AcDbEntity
  8
0
  6
Continuous
 62
     7
370
    25
100
AcDbLine
 10
-197.5370688634
 20
528.4933489136
 30
0.0
 11
-197.6438754384
 21
528.4824769229
 31
0.0
  0
LINE
  5
195
330
152
100
AcDbEntity
  8
0
  6
Continuous
 62
     7
370
    25
100
AcDbLine
 10
-197.6438754384
 20
569.3095175172
 30
0.0
 11
-197.6438754384
 21
528.4824769229
 31
0.0
  0
LINE
  5
196
330
152
100
AcDbEntity
  8
0
  6
Continuous
 62
     7
370
    25
100
AcDbLine
 10
-187.3832970144
 20
569.8564657257
 30
0.0
 11
-187.3832970144
 21
570.3539561523
 31
0.0
  0
LINE
  5
197
330
152
100
AcDbEntity
  8
0
  6
Continuous
 62
     7
370
    25
100
AcDbLine
 10
-197.6716685978
 20
528.9350011559
 30
0.0
 11
-197.6716685978
 21
-573.3950948899
 31
0.0
  0
LINE
  5
198
330
152
100
AcDbEntity
  8
0
  6
Continuous
 62
     7
370
    25
100
AcDbLine
 10
-197.6716685978
 20
-573.3950948899
 30
0.0
 11
-197.6848122046
 21
-572.8031804878
 31
0.0
  0
LINE
  5
199
330
152
100
AcDbEntity
  8
0
  6
Continuous
 62
     7
370
    25
100
AcDbLine
 10
-197.6716685978
 20
-573.3950948899
 30
0.0
 11
-197.5370688634
 21
-573.4727976626
 31
0.0
  0
LINE
  5
19A
330
152
100
AcDbEntity
  8
0
  6
Continuous
 62
     7
370
    25
100
AcDbLine
 10
169.7056274848
 20
547.0863249653
 30
0.0
 11
-42.4264068712
 21
669.5475417387
 31
0.0
  0
LINE
  5
19B
330
152
100
AcDbEntity
  8
0
  6
Continuous
 62
     7
370
    25
100
AcDbLine
 10
26.1629509039
 20
464.2209016153
 30
0.0
 11
169.7056274848
 21
547.0863249653
 31
0.0
  0
LINE
  5
19C
330
152
100
AcDbEntity
  8
0
  6
Continuous
 62
     7
370
    25
100
AcDbLine
 10
-2.1213203436
 20
463.4044935035
 30
0.0
 11
-3.9305371574
 21
457.4811876605
 31
0.0
  0
LINE
  5
19D
330
152
100
AcDbEntity
  8
0
  6
Continuous
 62
     7
370
    25
100
AcDbLine
 10
-2.1213203436
 20
463.4044935035
 30
0.0
 11
156.2705986422
 21
554.8422020277
 31
0.0
  0
LINE
  5
19E
330
152
100
AcDbEntity
  8
0
  6
Continuous
 62
     7
370
    25
100
AcDbLine
 10
26.1629509039
 20
464.2209016153
 30
0.0
 11
26.1629509039
 21
-678.9362350247
 31
0.0
  0
LINE
  5
19F
330
152
100
AcDbEntity
  8
0
  6
Continuous
 62
     7
370
    25
100
AcDbLine
 10
-3.1466572592
 20
-685.691993629
 30
0.0
 11
-3.1466572592
 21
416.6381024168
 31
0.0
  0
LINE
  5
1A0
330
152
100
AcDbEntity
  8
0
  6
Continuous
 62
     7
370
    25
100
AcDbLine
 10
-3.9305371574
 20
457.4811876605
 30
0.0
 11
-3.9305371574
 21
416.6541470662
 31
0.0
  0
LINE
  5
1A1
330
152
100
AcDbEntity
  8
0
  6
Continuous
 62
     7
370
    25
100
AcDbLine
 10
169.7056274848
 20
-596.0708116747
 30
0.0
 11
169.7056274848
 21
547.0863249653
 31
0.0
  0
LINE
  5
1A2
330
152
100
AcDbEntity
  8
0
  6
Continuous
 62
     7
370
    25
100
AcDbLine
 10
26.1629509039
 20
-678.9362350247
 30
0.0
 11
169.7056274848
 21
-596.0708116747
 31
0.0
  0
LINE
  5
1A3
330
152
100
AcDbEntity
  8
0
  6
Continuous
 62
     7
370
    25
100
AcDbLine
 10
-3.817202605
 20
-685.3048960404
 30
0.0
 11
-3.1466572592
 21
-685.691993629
 31
0.0
  0
LINE
  5
1A4
330
152
100
AcDbEntity
  8
0
  6
Continuous
 62
     7
370
    25
100
AcDbLine
 10
-3.817202605
 20
416.651277722
 30
0.0
 11
-3.817202605
 21
-685.3048960404
 31
0.0
  0
ARC
  5
1A5
330
152
100
AcDbEntity
  8
0
  6
Continuous
 62
     7
370
    25
100
AcDbCircle
 10
-3.7872320069
 20
513.7720556086
 30
0.0
 40
56.24705626210361
100
AcDbArc
 50
241.7191232795
 51
268.5566389546
  0
ARC
  5
1A6
330
152
100
AcDbEntity
  8
0
  6
Continuous
 62
     7
370
    25
100
AcDbCircle
 10
-3.7872320069
 20
-629.3850810314
 30
0.0
 40
56.24705626209964
100
AcDbArc
 50
241.7191232795
 51
268.5566389546
  0
ARC
  5
1A7
330
152
100
AcDbEntity
  8
0
  6
Continuous
 62
     7
370
    25
100
AcDbCircle
 10
-184.3034097106
 20
529.5289380331
 30
0.0
 40
13.38144636013999
100
AcDbArc
 50
182.5439148193
 51
184.4852466135
  0
ARC
  5
1A8
330
152
100
AcDbEntity
  8
0
  6
Continuous
 62
     7
370
    25
100
AcDbCircle
 10
-1.2184722795
 20
515.9266045666
 30
0.0
 40
58.50830755740567
100
AcDbArc
 50
267.3431880367
 51
297.904035336
  0
ARC
  5
1A9
330
152
100
AcDbEntity
  8
0
  6
Continuous
 62
     7
370
    25
100
AcDbCircle
 10
-1.1135986432
 20
-627.5551397099
 30
0.0
 40
58.17239131184908
100
AcDbArc
 50
267.9971701067
 51
297.9623762802
  0
ARC
  5
1AA
330
152
100
AcDbEntity
  8
0
  6
Continuous
 62
     7
370
    25
100
AcDbCircle
 10
-2.1224878936
 20
485.8317826528
 30
0.0
 40
69.20125943573963
100
AcDbArc
 50
268.50283965
 51
269.1519991827
  0
VIEWPORT
  5
26C
330
152
100
AcDbEntity
  8
0
100
AcDbViewport
 10
0.0
 20
0.0
 30
0.0
 40
205.6
 41
156.0
 68
     1
 69
     1
 12
0.0
 22
0.0
 13
0.0
 23
0.0
 14
10.0
 24
10.0
 15
10.0
 25
10.0
 16
0.0
 26
0.0
 36
1.0
 17
0.0
 27
0.0
 37
0.0
 42
50.0
 43
0.0
 44
0.0
 45
1428.0
 50
0.0
 51
0.0
 72
   100
 90
   557152
  1

281
     0
 71
     1
 74
     0
110
0.0
120
0.0
130
0.0
111
1.0
121
0.0
131
0.0
112
0.0
122
1.0
132
0.0
 79
     0
146
0.0
  0
ENDBLK
  5
155
330
152
100
AcDbEntity
  8
0
100
AcDbBlockEnd
  0
BLOCK
  5
1AD
330
1AB
100
AcDbEntity
  8
0
100
AcDbBlockBegin
  2
*Paper_Space5
 70
     0
 10
0.0
 20
0.0
 30
0.0
  3
*Paper_Space5
  1

  0
LWPOLYLINE
  5
1B7
330
1AB
100
AcDbEntity
  8
0
  6
Continuous
 62
     7
370
    25
100
AcDbPolyline
 90
        9
 70
   128
 43
0.0
 10
-187.1861296941
 20
567.4052823103
 10
-185.7393213292
 20
565.7390077072
 10
-184.0118288743
 20
564.1452300972
 10
-182.0172132183
 20
562.636460702
 10
-179.7711321786
 20
561.2245434251
 10
-177.2912175864
 20
559.9205618772
 10
-174.5969368764
 20
558.7347523684
 10
-171.7094402661
 20
557.6764235537
 10
-168.6513947262
 20
556.7538833591
  0
LWPOLYLINE
  5
1BB
330
1AB
100
AcDbEntity
  8
0
  6
Continuous
 62
     7
370
    25
100
AcDbPolyline
 90
        9
 70
   128
 43
0.0
 10
-168.6513947262
 20
-643.2803376239
 10
-171.7094402661
 20
-642.3577974293
 10
-174.5969368764
 20
-641.2994686146
 10
-177.2912175864
 20
-640.1136591058
 10
-179.7711321786
 20
-638.8096775578
 10
-182.0172132183
 20
-637.397760281
 10
-184.0118288743
 20
-635.8889908858
 10
-185.7393213292
 20
-634.2952132758
 10
-187.1861296941
 20
-632.6289386727
  0
LWPOLYLINE
  5
1BD
330
1AB
100
AcDbEntity
  8
0
  6
Continuous
 62
     7
370
    25
100
AcDbPolyline
 90
        9
 70
   128
 43
0.0
 10
-185.3992972007
 20
584.5994769252
 10
-187.1435820721
 20
582.6592651009
 10
-188.4880331582
 20
580.6363913554
 10
-189.4181692536
 20
578.5526442465
 10
-189.9239717776
 20
576.4304680045
 10
-189.999992685
 20
574.2927207835
 10
-189.6454131476
 20
572.1624284541
 10
-188.8640523741
 20
570.0625365894
 10
-187.6643264725
 20
568.0156633164
  0
LWPOLYLINE
  5
1CA
330
1AB
100
AcDbEntity
  8
0
  6
Continuous
 62
     7
370
    25
100
AcDbPolyline
 90
        9
 70
   128
 43
0.0
 10
79.9261393025
 20
-687.544512463
 10
77.8552082726
 20
-689.3391511533
 10
75.4422612902
 20
-691.0166284304
 10
72.7120768176
 20
-692.5597183426
 10
69.6926910172
 20
-693.9525749573
 10
66.4151098489
 20
-695.180895082
 10
62.9129906713
 20
-696.2320651431
 10
59.2222966155
 20
-697.0952907147
 10
55.3809272808
 20
-697.7617073656
  0
LWPOLYLINE
  5
1CE
330
1AB
100
AcDbEntity
  8
0
  6
Continuous
 62
     7
370
    25
100
AcDbPolyline
 90
        9
 70
   128
 43
0.0
 10
54.6238135151
 20
502.1669384746
 10
58.5816749392
 20
502.8120900262
 10
62.3883936042
 20
503.6650402102
 10
66.0029669958
 20
504.7166018222
 10
69.3864622139
 20
505.9554483961
 10
72.5024353226
 20
507.3682362023
 10
75.3173238911
 20
508.9397479744
 10
77.8008084975
 20
510.6530568157
 10
79.9261393025
 20
512.48970852
  0
LINE
  5
1E0
330
1AB
100
AcDbEntity
  8
0
  6
Continuous
 62
     7
370
    25
100
AcDbLine
 10
-190.0225723336
 20
574.9848411378
 30
0.0
 11
-190.0225723336
 21
-625.0493798451
 31
0.0
  0
LINE
  5
1E1
330
1AB
100
AcDbEntity
  8
0
  6
Continuous
 62
     7
370
    25
100
AcDbLine
 10
25.8426057136
 20
-696.1396394412
 30
0.0
 11
25.8426057136
 21
503.8945815418
 31
0.0
  0
LINE
  5
1E2
330
1AB
100
AcDbEntity
  8
0
  6
Continuous
 62
     7
370
    25
100
AcDbLine
 10
53.3755994021
 20
502.0257589563
 30
0.0
 11
53.3755994021
 21
-698.0084620267
 31
0.0
  0
LINE
  5
1E3
330
1AB
100
AcDbEntity
  8
0
  6
Continuous
 62
     7
370
    25
100
AcDbLine
 10
-178.3959560564
 20
570.4668357833
 30
0.0
 11
53.3215918231
 21
507.4909713761
 31
0.0
  0
LINE
  5
1E4
330
1AB
100
AcDbEntity
  8
0
  6
Continuous
 62
     7
370
    25
100
AcDbLine
 10
53.3755994021
 20
502.0257589563
 30
0.0
 11
52.4371737014
 21
507.7313372708
 31
0.0
  0
LINE
  5
1E5
330
1AB
100
AcDbEntity
  8
0
  6
Continuous
 62
     7
370
    25
100
AcDbLine
 10
-168.6513947262
 20
556.7538833591
 30
0.0
 11
25.8426057136
 21
503.8945815418
 31
0.0
  0
LINE
  5
1E6
330
1AB
100
AcDbEntity
  8
0
  6
Continuous
 62
     7
370
    25
100
AcDbLine
 10
-187.1861296941
 20
567.4052823103
 30
0.0
 11
-177.5115379347
 21
570.2264698886
 31
0.0
  0
LINE
  5
1E7
330
1AB
100
AcDbEntity
  8
0
  6
Continuous
 62
     7
370
    25
100
AcDbLine
 10
-168.6513947262
 20
556.7538833591
 30
0.0
 11
-168.6513947262
 21
-643.2803376239
 31
0.0
  0
LINE
  5
1E8
330
1AB
100
AcDbEntity
  8
0
  6
Continuous
 62
     7
370
    25
100
AcDbLine
 10
-168.6513947262
 20
-643.2803376239
 30
0.0
 11
25.8426057136
 21
-696.1396394412
 31
0.0
  0
LINE
  5
1E9
330
1AB
100
AcDbEntity
  8
0
  6
Continuous
 62
     7
370
    25
100
AcDbLine
 10
-187.1861296941
 20
567.4052823103
 30
0.0
 11
-187.1861296941
 21
-632.6289386727
 31
0.0
  0
LINE
  5
1EA
330
1AB
100
AcDbEntity
  8
0
  6
Continuous
 62
     7
370
    25
100
AcDbLine
 10
-90.6601332479
 20
677.0678053065
 30
0.0
 11
-185.3992972007
 21
584.5994769252
 31
0.0
  0
LINE
  5
1EB
330
1AB
100
AcDbEntity
  8
0
  6
Continuous
 62
     7
370
    25
100
AcDbLine
 10
-73.856188936
 20
672.5008533075
 30
0.0
 11
-178.3959560564
 21
570.4668357833
 31
0.0
  0
LINE
  5
1EC
330
1AB
100
AcDbEntity
  8
0
  6
Continuous
 62
     7
370
    25
100
AcDbLine
 10
-178.3959560564
 20
570.4668357833
 30
0.0
 11
-187.6643264725
 21
568.0156633164
 31
0.0
  0
LINE
  5
1ED
330
1AB
100
AcDbEntity
  8
0
  6
Continuous
 62
     7
370
    25
100
AcDbLine
 10
-187.1861296941
 20
525.2837652571
 30
0.0
 11
-187.6643264725
 21
525.1572982813
 31
0.0
  0
LINE
  5
1EE
330
1AB
100
AcDbEntity
  8
0
  6
Continuous
 62
     7
370
    25
100
AcDbLine
 10
-187.6643264725
 20
568.0156633164
 30
0.0
 11
-187.6643264725
 21
525.1572982813
 31
0.0
  0
LINE
  5
1EF
330
1AB
100
AcDbEntity
  8
0
  6
Continuous
 62
     7
370
    25
100
AcDbLine
 10
-178.3959560564
 20
569.9685665599
 30
0.0
 11
-178.3959560564
 21
570.4668357833
 31
0.0
  0
LINE
  5
1F0
330
1AB
100
AcDbEntity
  8
0
  6
Continuous
 62
     7
370
    25
100
AcDbLine
 10
-187.9224177369
 20
525.5387843981
 30
0.0
 11
-187.9224177369
 21
-631.6370715498
 31
0.0
  0
LINE
  5
1F1
330
1AB
100
AcDbEntity
  8
0
  6
Continuous
 62
     7
370
    25
100
AcDbLine
 10
-187.9224177369
 20
-631.6370715498
 30
0.0
 11
-187.1861296941
 21
-631.8371788631
 31
0.0
  0
LINE
  5
1F2
330
1AB
100
AcDbEntity
  8
0
  6
Continuous
 62
     7
370
    25
100
AcDbLine
 10
79.9261393025
 20
512.48970852
 30
0.0
 11
79.9261393025
 21
-687.544512463
 31
0.0
  0
LINE
  5
1F3
330
1AB
100
AcDbEntity
  8
0
  6
Continuous
 62
     7
370
    25
100
AcDbLine
 10
55.3809272808
 20
-697.7617073656
 30
0.0
 11
55.3809272808
 21
459.4141485823
 31
0.0
  0
LINE
  5
1F4
330
1AB
100
AcDbEntity
  8
0
  6
Continuous
 62
     7
370
    25
100
AcDbLine
 10
54.6238135151
 20
502.1669384746
 30
0.0
 11
54.6238135151
 21
459.3085734395
 31
0.0
  0
LINE
  5
1F5
330
1AB
100
AcDbEntity
  8
0
  6
Continuous
 62
     7
370
    25
100
AcDbLine
 10
174.6653032553
 20
604.9580369013
 30
0.0
 11
-90.6601332479
 21
677.0678053065
 31
0.0
  0
LINE
  5
1F6
330
1AB
100
AcDbEntity
  8
0
  6
Continuous
 62
     7
370
    25
100
AcDbLine
 10
79.9261393025
 20
512.48970852
 30
0.0
 11
174.6653032553
 21
604.9580369013
 31
0.0
  0
LINE
  5
1F7
330
1AB
100
AcDbEntity
  8
0
  6
Continuous
 62
     7
370
    25
100
AcDbLine
 10
53.3215918231
 20
507.4909713761
 30
0.0
 11
54.6238135151
 21
502.1669384746
 31
0.0
  0
LINE
  5
1F8
330
1AB
100
AcDbEntity
  8
0
  6
Continuous
 62
     7
370
    25
100
AcDbLine
 10
157.8613589434
 20
609.5249889003
 30
0.0
 11
53.3215918231
 21
507.4909713761
 31
0.0
  0
LINE
  5
1F9
330
1AB
100
AcDbEntity
  8
0
  6
Continuous
 62
     7
370
    25
100
AcDbLine
 10
54.5422385975
 20
-697.5337697524
 30
0.0
 11
53.3755994021
 21
-692.7640554262
 31
0.0
  0
LINE
  5
1FA
330
1AB
100
AcDbEntity
  8
0
  6
Continuous
 62
     7
370
    25
100
AcDbLine
 10
53.3215918231
 20
502.3541221623
 30
0.0
 11
53.3215918231
 21
507.4909713761
 31
0.0
  0
LINE
  5
1FB
330
1AB
100
AcDbEntity
  8
0
  6
Continuous
 62
     7
370
    25
100
AcDbLine
 10
54.5422385975
 20
459.6420861955
 30
0.0
 11
54.6238135151
 21
459.3085734395
 31
0.0
  0
LINE
  5
1FC
330
1AB
100
AcDbEntity
  8
0
  6
Continuous
 62
     7
370
    25
100
AcDbLine
 10
54.5422385975
 20
459.6420861955
 30
0.0
 11
54.5422385975
 21
-697.5337697524
 31
0.0
  0
LINE
  5
1FD
330
1AB
100
AcDbEntity
  8
0
  6
Continuous
 62
     7
370
    25
100
AcDbLine
 10
174.6653032553
 20
-595.0761840817
 30
0.0
 11
174.6653032553
 21
604.9580369013
 31
0.0
  0
LINE
  5
1FE
330
1AB
100
AcDbEntity
  8
0
  6
Continuous
 62
     7
370
    25
100
AcDbLine
 10
79.9261393025
 20
-687.544512463
 30
0.0
 11
174.6653032553
 21
-595.0761840817
 31
0.0
  0
LINE
  5
1FF
330
1AB
100
AcDbEntity
  8
0
  6
Continuous
 62
     7
370
    25
100
AcDbLine
 10
54.5422385975
 20
-697.5337697524
 30
0.0
 11
55.3809272808
 21
-697.7617073656
 31
0.0
  0
ARC
  5
200
330
1AB
100
AcDbEntity
  8
0
  6
Continuous
 62
     7
370
    25
100
AcDbCircle
 10
44.5448916081
 20
575.6781745247
 30
0.0
 40
74.17991452685057
100
AcDbArc
 50
255.3969650091
 51
276.8369588144
  0
ARC
  5
201
330
1AB
100
AcDbEntity
  8
0
  6
Continuous
 62
     7
370
    25
100
AcDbCircle
 10
44.5448916081
 20
-624.3560464583
 30
0.0
 40
74.17991452685011
100
AcDbArc
 50
255.3969650091
 51
276.8369588144
  0
ARC
  5
202
330
1AB
100
AcDbEntity
  8
0
  6
Continuous
 62
     7
370
    25
100
AcDbCircle
 10
-174.7699475825
 20
534.1589310526
 30
0.0
 40
15.72559695241127
100
AcDbArc
 50
213.2408875714
 51
214.9190930011
  0
ARC
  5
203
330
1AB
100
AcDbEntity
  8
0
  6
Continuous
 62
     7
370
    25
100
AcDbCircle
 10
-178.1976132284
 20
-624.9081958615
 30
0.0
 40
11.82580190762112
100
AcDbArc
 50
180.6840498965
 51
214.6804891368
  0
ARC
  5
204
330
1AB
100
AcDbEntity
  8
0
  6
Continuous
 62
     7
370
    25
100
AcDbCircle
 10
45.0738116087
 20
530.5622927377
 30
0.0
 40
71.89085512240227
100
AcDbArc
 50
277.6337526982
 51
278.2430005492
  0
VIEWPORT
  5
26E
330
1AB
100
AcDbEntity
  8
0
100
AcDbViewport
 10
0.0
 20
0.0
 30
0.0
 40
205.6
 41
156.0
 68
     1
 69
     1
 12
0.0
 22
0.0
 13
0.0
 23
0.0
 14
10.0
 24
10.0
 15
10.0
 25
10.0
 16
0.0
 26
0.0
 36
1.0
 17
0.0
 27
0.0
 37
0.0
 42
50.0
 43
0.0
 44
0.0
 45
1428.0
 50
0.0
 51
0.0
 72
   100
 90
   557152
  1

281
     0
 71
     1
 74
     0
110
0.0
120
0.0
130
0.0
111
1.0
121
0.0
131
0.0
112
0.0
122
1.0
132
0.0
 79
     0
146
0.0
  0
ENDBLK
  5
1AE
330
1AB
100
AcDbEntity
  8
0
100
AcDbBlockEnd
  0
BLOCK
  5
207
330
205
100
AcDbEntity
  8
0
100
AcDbBlockBegin
  2
*Paper_Space6
 70
     0
 10
0.0
 20
0.0
 30
0.0
  3
*Paper_Space6
  1

  0
LWPOLYLINE
  5
211
330
205
100
AcDbEntity
  8
0
  6
Continuous
 62
     7
370
    25
100
AcDbPolyline
 90
        9
 70
   128
 43
0.0
 10
-177.9016244539
 20
631.2938733976
 10
-176.0652255799
 20
630.2834990488
 10
-173.9677393541
 20
629.3312724605
 10
-171.6256311323
 20
628.4446686516
 10
-169.057286563
 20
627.6306474998
 10
-166.2828672601
 20
626.8955991053
 10
-163.3241525323
 20
626.2452936293
 10
-160.2043684157
 20
625.6848359974
 10
-156.9480053477
 20
625.2186258255
  0
LWPOLYLINE
  5
215
330
205
100
AcDbEntity
  8
0
  6
Continuous
 62
     7
370
    25
100
AcDbPolyline
 90
        9
 70
   128
 43
0.0
 10
-156.9480053477
 20
-694.7140324286
 10
-160.2043684157
 20
-694.2478222568
 10
-163.3241525323
 20
-693.6873646248
 10
-166.2828672601
 20
-693.0370591488
 10
-169.057286563
 20
-692.3020107544
 10
-171.6256311323
 20
-691.4879896025
 10
-173.9677393541
 20
-690.6013857937
 10
-176.0652255799
 20
-689.6491592054
 10
-177.9016244539
 20
-688.6387848566
  0
LWPOLYLINE
  5
217
330
205
100
AcDbEntity
  8
0
  6
Continuous
 62
     7
370
    25
100
AcDbPolyline
 90
        9
 70
   128
 43
0.0
 10
-180.2636851365
 20
642.4100582636
 10
-181.5279245517
 20
641.0920022547
 10
-182.3755293952
 20
639.7373677362
 10
-182.797370038
 20
638.3607456
 10
-182.7889027958
 20
636.9769635689
 10
-182.3502188702
 20
635.6009264855
 10
-181.4860433657
 20
634.2474557708
 10
-180.2056843957
 20
632.9311297816
 10
-178.5229328235
 20
631.6661267852
  0
LWPOLYLINE
  5
223
330
205
100
AcDbEntity
  8
0
  6
Continuous
 62
     7
370
    25
100
AcDbPolyline
 90
        6
 70
   128
 43
0.0
 10
-178.8707824029
 20
-688.0321905908
 10
-180.4454467403
 20
-686.7871661627
 10
-181.6340151753
 20
-685.4954126047
 10
-182.4242823433
 20
-684.170194886
 10
-182.8081330201
 20
-682.8251216177
 10
-182.8471112675
 20
-682.2366451963
  0
LWPOLYLINE
  5
226
330
205
100
AcDbEntity
  8
0
  6
Continuous
 62
     7
370
    25
100
AcDbPolyline
 90
        9
 70
   128
 43
0.0
 10
100.3606188807
 20
-712.8779390334
 10
98.737239025
 20
-714.1159920775
 10
96.7463001973
 20
-715.292923247
 10
94.4082472739
 20
-716.3966466798
 10
91.747089633
 20
-717.4158282811
 10
88.790154603
 20
-718.3400021132
 10
85.5678068393
 20
-719.1596778695
 10
82.1131365106
 20
-719.8664383303
 10
78.4616194975
 20
-720.4530257988
  0
LWPOLYLINE
  5
22A
330
205
100
AcDbEntity
  8
0
  6
Continuous
 62
     7
370
    25
100
AcDbPolyline
 90
        9
 70
   128
 43
0.0
 10
77.7357265487
 20
599.3805704201
 10
81.5079527304
 20
599.9583108195
 10
85.080225367
 20
600.6632626931
 10
88.4140671838
 20
601.4878329398
 10
91.4735690663
 20
602.4231400383
 10
94.2257768403
 20
603.4591097103
 10
96.6410462246
 20
604.5845834321
 10
98.6933621321
 20
605.7874386233
 10
100.3606188807
 20
607.0547192208
  0
LINE
  5
23C
330
205
100
AcDbEntity
  8
0
  6
Continuous
 62
     7
370
    25
100
AcDbLine
 10
-182.8471112675
 20
637.6960130579
 30
0.0
 11
-182.8471112675
 21
-682.2366451963
 31
0.0
  0
LINE
  5
23D
330
205
100
AcDbEntity
  8
0
  6
Continuous
 62
     7
370
    25
100
AcDbLine
 10
48.760667851
 20
-720.6308891687
 30
0.0
 11
48.760667851
 21
599.3017690855
 31
0.0
  0
LINE
  5
23E
330
205
100
AcDbEntity
  8
0
  6
Continuous
 62
     7
370
    25
100
AcDbLine
 10
76.5310778551
 20
599.2383659988
 30
0.0
 11
76.5310778551
 21
-720.6942922554
 31
0.0
  0
LINE
  5
23F
330
205
100
AcDbEntity
  8
0
  6
Continuous
 62
     7
370
    25
100
AcDbLine
 10
-169.9154337495
 20
633.6229863654
 30
0.0
 11
75.1631250922
 21
602.745990268
 31
0.0
  0
LINE
  5
240
330
205
100
AcDbEntity
  8
0
  6
Continuous
 62
     7
370
    25
100
AcDbLine
 10
76.5310778551
 20
599.2383659988
 30
0.0
 11
74.2277107455
 21
602.8638413981
 31
0.0
  0
LINE
  5
241
330
205
100
AcDbEntity
  8
0
  6
Continuous
 62
     7
370
    25
100
AcDbLine
 10
-156.9480053477
 20
625.2186258255
 30
0.0
 11
48.760667851
 21
599.3017690855
 31
0.0
  0
LINE
  5
242
330
205
100
AcDbEntity
  8
0
  6
Continuous
 62
     7
370
    25
100
AcDbLine
 10
-177.9016244539
 20
631.2938733976
 30
0.0
 11
-168.9800194028
 21
633.5051352352
 31
0.0
  0
LINE
  5
243
330
205
100
AcDbEntity
  8
0
  6
Continuous
 62
     7
370
    25
100
AcDbLine
 10
-156.9480053477
 20
625.2186258255
 30
0.0
 11
-156.9480053477
 21
-694.7140324286
 31
0.0
  0
LINE
  5
244
330
205
100
AcDbEntity
  8
0
  6
Continuous
 62
     7
370
    25
100
AcDbLine
 10
-156.9480053477
 20
-694.7140324286
 30
0.0
 11
48.760667851
 21
-720.6308891687
 31
0.0
  0
LINE
  5
245
330
205
100
AcDbEntity
  8
0
  6
Continuous
 62
     7
370
    25
100
AcDbLine
 10
-177.9016244539
 20
631.2938733976
 30
0.0
 11
-177.9016244539
 21
-688.6387848566
 31
0.0
  0
LINE
  5
246
330
205
100
AcDbEntity
  8
0
  6
Continuous
 62
     7
370
    25
100
AcDbLine
 10
-108.4923468625
 20
705.7064290435
 30
0.0
 11
-180.2636851365
 21
642.4100582636
 31
0.0
  0
LINE
  5
247
330
205
100
AcDbEntity
  8
0
  6
Continuous
 62
     7
370
    25
100
AcDbLine
 10
-90.7194742748
 20
703.4672575708
 30
0.0
 11
-169.9154337495
 21
633.6229863654
 31
0.0
  0
LINE
  5
248
330
205
100
AcDbEntity
  8
0
  6
Continuous
 62
     7
370
    25
100
AcDbLine
 10
-169.9154337495
 20
633.6229863654
 30
0.0
 11
-178.5229328235
 21
631.6661267852
 31
0.0
  0
LINE
  5
249
330
205
100
AcDbEntity
  8
0
  6
Continuous
 62
     7
370
    25
100
AcDbLine
 10
-177.9016244539
 20
-688.1252810053
 30
0.0
 11
-177.983734289
 21
-688.1439481484
 31
0.0
  0
LINE
  5
24A
330
205
100
AcDbEntity
  8
0
  6
Continuous
 62
     7
370
    25
100
AcDbLine
 10
-177.983734289
 20
584.6482580252
 30
0.0
 11
-177.983734289
 21
-688.1439481484
 31
0.0
  0
LINE
  5
24B
330
205
100
AcDbEntity
  8
0
  6
Continuous
 62
     7
370
    25
100
AcDbLine
 10
-177.983734289
 20
584.6482580252
 30
0.0
 11
-178.5229328235
 21
584.5256747047
 31
0.0
  0
LINE
  5
24C
330
205
100
AcDbEntity
  8
0
  6
Continuous
 62
     7
370
    25
100
AcDbLine
 10
-178.5229328235
 20
631.6661267852
 30
0.0
 11
-178.5229328235
 21
584.5256747047
 31
0.0
  0
LINE
  5
24D
330
205
100
AcDbEntity
  8
0
  6
Continuous
 62
     7
370
    25
100
AcDbLine
 10
-169.9154337495
 20
633.2732883831
 30
0.0
 11
-169.9154337495
 21
633.6229863654
 31
0.0
  0
LINE
  5
24E
330
205
100
AcDbEntity
  8
0
  6
Continuous
 62
     7
370
    25
100
AcDbLine
 10
-178.8707824029
 20
584.7600155828
 30
0.0
 11
-178.8707824029
 21
-688.0321905908
 31
0.0
  0
LINE
  5
24F
330
205
100
AcDbEntity
  8
0
  6
Continuous
 62
     7
370
    25
100
AcDbLine
 10
-178.8707824029
 20
-688.0321905908
 30
0.0
 11
-177.983734289
 21
-688.1439481484
 31
0.0
  0
LINE
  5
250
330
205
100
AcDbEntity
  8
0
  6
Continuous
 62
     7
370
    25
100
AcDbLine
 10
100.3606188807
 20
607.0547192208
 30
0.0
 11
100.3606188807
 21
-712.8779390334
 31
0.0
  0
LINE
  5
251
330
205
100
AcDbEntity
  8
0
  6
Continuous
 62
     7
370
    25
100
AcDbLine
 10
78.4616194975
 20
-720.4530257988
 30
0.0
 11
78.4616194975
 21
552.3391803749
 31
0.0
  0
LINE
  5
252
330
205
100
AcDbEntity
  8
0
  6
Continuous
 62
     7
370
    25
100
AcDbLine
 10
77.7357265487
 20
552.2401183396
 30
0.0
 11
78.4616194975
 21
552.3391803749
 31
0.0
  0
LINE
  5
253
330
205
100
AcDbEntity
  8
0
  6
Continuous
 62
     7
370
    25
100
AcDbLine
 10
77.7357265487
 20
599.3805704201
 30
0.0
 11
77.7357265487
 21
552.2401183396
 31
0.0
  0
LINE
  5
254
330
205
100
AcDbEntity
  8
0
  6
Continuous
 62
     7
370
    25
100
AcDbLine
 10
172.1319571547
 20
670.3510900007
 30
0.0
 11
-108.4923468625
 21
705.7064290435
 31
0.0
  0
LINE
  5
255
330
205
100
AcDbEntity
  8
0
  6
Continuous
 62
     7
370
    25
100
AcDbLine
 10
100.3606188807
 20
607.0547192208
 30
0.0
 11
172.1319571547
 21
670.3510900007
 31
0.0
  0
LINE
  5
256
330
205
100
AcDbEntity
  8
0
  6
Continuous
 62
     7
370
    25
100
AcDbLine
 10
75.1631250922
 20
602.745990268
 30
0.0
 11
77.7357265487
 21
599.3805704201
 31
0.0
  0
LINE
  5
257
330
205
100
AcDbEntity
  8
0
  6
Continuous
 62
     7
370
    25
100
AcDbLine
 10
75.1631250922
 20
602.745990268
 30
0.0
 11
154.359084567
 21
672.5902614734
 31
0.0
  0
LINE
  5
258
330
205
100
AcDbEntity
  8
0
  6
Continuous
 62
     7
370
    25
100
AcDbLine
 10
77.5745713835
 20
-720.3412682412
 30
0.0
 11
76.5310778551
 21
-718.9761932807
 31
0.0
  0
LINE
  5
259
330
205
100
AcDbEntity
  8
0
  6
Continuous
 62
     7
370
    25
100
AcDbLine
 10
75.1631250922
 20
601.391509138
 30
0.0
 11
75.1631250922
 21
602.745990268
 31
0.0
  0
LINE
  5
25A
330
205
100
AcDbEntity
  8
0
  6
Continuous
 62
     7
370
    25
100
AcDbLine
 10
77.5745713835
 20
552.4509379324
 30
0.0
 11
77.7357265487
 21
552.2401183396
 31
0.0
  0
LINE
  5
25B
330
205
100
AcDbEntity
  8
0
  6
Continuous
 62
     7
370
    25
100
AcDbLine
 10
77.5745713835
 20
552.4509379324
 30
0.0
 11
77.5745713835
 21
-720.3412682412
 31
0.0
  0
LINE
  5
25C
330
205
100
AcDbEntity
  8
0
  6
Continuous
 62
     7
370
    25
100
AcDbLine
 10
77.5745713835
 20
-720.3412682412
 30
0.0
 11
78.4616194975
 21
-720.4530257988
 31
0.0
  0
LINE
  5
25D
330
205
100
AcDbEntity
  8
0
  6
Continuous
 62
     7
370
    25
100
AcDbLine
 10
172.1319571547
 20
-649.5815682534
 30
0.0
 11
172.1319571547
 21
670.3510900007
 31
0.0
  0
LINE
  5
25E
330
205
100
AcDbEntity
  8
0
  6
Continuous
 62
     7
370
    25
100
AcDbLine
 10
100.3606188807
 20
-712.8779390334
 30
0.0
 11
172.1319571547
 21
-649.5815682534
 31
0.0
  0
ARC
  5
25F
330
205
100
AcDbEntity
  8
0
  6
Continuous
 62
     7
370
    25
100
AcDbCircle
 10
62.909092186
 20
714.5595459459
 30
0.0
 40
116.1229221040084
100
AcDbArc
 50
263.0016901449
 51
276.7366844081
  0
ARC
  5
260
330
205
100
AcDbEntity
  8
0
  6
Continuous
 62
     7
370
    25
100
AcDbCircle
 10
62.909092186
 20
-605.3731123082
 30
0.0
 40
116.1229221040208
100
AcDbArc
 50
263.0016901449
 51
276.7366844081
  0
ARC
  5
261
330
205
100
AcDbEntity
  8
0
  6
Continuous
 62
     7
370
    25
100
AcDbCircle
 10
-168.4467641481
 20
599.8578205677
 30
0.0
 40
18.34676734308221
100
AcDbArc
 50
235.3775323268
 51
236.6873895045
  0
VIEWPORT
  5
270
330
205
100
AcDbEntity
  8
0
100
AcDbViewport
 10
0.0
 20
0.0
 30
0.0
 40
205.6
 41
156.0
 68
     1
 69
     1
 12
0.0
 22
0.0
 13
0.0
 23
0.0
 14
10.0
 24
10.0
 15
10.0
 25
10.0
 16
0.0
 26
0.0
 36
1.0
 17
0.0
 27
0.0
 37
0.0
 42
50.0
 43
0.0
 44
0.0
 45
1428.0
 50
0.0
 51
0.0
 72
   100
 90
   557152
  1

281
     0
 71
     1
 74
     0
110
0.0
120
0.0
130
0.0
111
1.0
121
0.0
131
0.0
112
0.0
122
1.0
132
0.0
 79
     0
146
0.0
  0
ENDBLK
  5
208
330
205
100
AcDbEntity
  8
0
100
AcDbBlockEnd
  0
ENDSEC
  0
SECTION
  2
ENTITIES
  0
LINE
  5
93
330
1F
100
AcDbEntity
  8
0
  6
Continuous
 62
     7
370
    25
100
AcDbLine
 10
109.9559109389
 20
-700.0
 30
0.0
 11
109.9559109389
 21
700.0
 31
0.0
  0
LINE
  5
94
330
1F
100
AcDbEntity
  8
0
  6
Continuous
 62
     7
370
    25
100
AcDbLine
 10
136.0
 20
700.0
 30
0.0
 11
136.0
 21
-700.0
 31
0.0
  0
LINE
  5
95
330
1F
100
AcDbEntity
  8
0
  6
Continuous
 62
     7
370
    25
100
AcDbLine
 10
-109.9559109389
 20
700.0
 30
0.0
 11
-109.9559109389
 21
-700.0
 31
0.0
  0
LINE
  5
96
330
1F
100
AcDbEntity
  8
0
  6
Continuous
 62
     7
370
    25
100
AcDbLine
 10
-136.0
 20
700.0
 30
0.0
 11
-136.0
 21
-700.0
 31
0.0
  0
LINE
  5
97
330
1F
100
AcDbEntity
  8
0
  6
Continuous
 62
     7
370
    25
100
AcDbLine
 10
-136.6016603057
 20
650.0
 30
0.0
 11
-137.5499546279
 21
650.0
 31
0.0
  0
LINE
  5
98
330
1F
100
AcDbEntity
  8
0
  6
Continuous
 62
     7
370
    25
100
AcDbLine
 10
-137.5499546279
 20
650.0
 30
0.0
 11
-137.5499546279
 21
-700.0
 31
0.0
  0
LINE
  5
99
330
1F
100
AcDbEntity
  8
0
  6
Continuous
 62
     7
370
    25
100
AcDbLine
 10
-150.0
 20
-700.0
 30
0.0
 11
-150.0
 21
700.0
 31
0.0
  0
LINE
  5
9A
330
1F
100
AcDbEntity
  8
0
  6
Continuous
 62
     7
370
    25
100
AcDbLine
 10
-136.9760151048
 20
700.0
 30
0.0
 11
-136.9760151048
 21
650.0
 31
0.0
  0
LINE
  5
9B
330
1F
100
AcDbEntity
  8
0
  6
Continuous
 62
     7
370
    25
100
AcDbLine
 10
-136.6016603057
 20
650.0
 30
0.0
 11
-136.6016603057
 21
-700.0
 31
0.0
  0
LINE
  5
9C
330
1F
100
AcDbEntity
  8
0
  6
Continuous
 62
     7
370
    25
100
AcDbLine
 10
150.0
 20
700.0
 30
0.0
 11
150.0
 21
-700.0
 31
0.0
  0
LINE
  5
9D
330
1F
100
AcDbEntity
  8
0
  6
Continuous
 62
     7
370
    25
100
AcDbLine
 10
-150.0
 20
-700.0
 30
0.0
 11
150.0
 21
-700.0
 31
0.0
  0
LINE
  5
9E
330
1F
100
AcDbEntity
  8
0
  6
Continuous
 62
     7
370
    25
100
AcDbLine
 10
137.5499546279
 20
-700.0
 30
0.0
 11
137.5499546279
 21
650.0
 31
0.0
  0
LINE
  5
9F
330
1F
100
AcDbEntity
  8
0
  6
Continuous
 62
     7
370
    25
100
AcDbLine
 10
137.5499546279
 20
650.0
 30
0.0
 11
136.6016603057
 21
650.0
 31
0.0
  0
LINE
  5
A0
330
1F
100
AcDbEntity
  8
0
  6
Continuous
 62
     7
370
    25
100
AcDbLine
 10
136.9760151048
 20
700.0
 30
0.0
 11
136.9760151048
 21
650.0
 31
0.0
  0
LINE
  5
A1
330
1F
100
AcDbEntity
  8
0
  6
Continuous
 62
     7
370
    25
100
AcDbLine
 10
-150.0
 20
700.0
 30
0.0
 11
150.0
 21
700.0
 31
0.0
  0
LINE
  5
A2
330
1F
100
AcDbEntity
  8
0
  6
Continuous
 62
     7
370
    25
100
AcDbLine
 10
136.6016603057
 20
650.0
 30
0.0
 11
136.6016603057
 21
-700.0
 31
0.0
  0
LINE
  5
B7
330
1B
100
AcDbEntity
 67
     1
  8
0
  6
Continuous
 62
     7
370
    25
100
AcDbLine
 10
131.0
 20
-700.0
 30
0.0
 11
131.0
 21
700.0
 31
0.0
  0
LINE
  5
B8
330
1B
100
AcDbEntity
 67
     1
  8
0
  6
Continuous
 62
     7
370
    25
100
AcDbLine
 10
-131.0
 20
-700.0
 30
0.0
 11
-131.0
 21
700.0
 31
0.0
  0
LINE
  5
B9
330
1B
100
AcDbEntity
 67
     1
  8
0
  6
Continuous
 62
     7
370
    25
100
AcDbLine
 10
-131.0
 20
484.0
 30
0.0
 11
131.0
 21
484.0
 31
0.0
  0
LINE
  5
BA
330
1B
100
AcDbEntity
 67
     1
  8
0
  6
Continuous
 62
     7
370
    25
100
AcDbLine
 10
-131.0
 20
584.0
 30
0.0
 11
131.0
 21
584.0
 31
0.0
  0
LINE
  5
BB
330
1B
100
AcDbEntity
 67
     1
  8
0
  6
Continuous
 62
     7
370
    25
100
AcDbLine
 10
150.0
 20
-700.0
 30
0.0
 11
150.0
 21
700.0
 31
0.0
  0
LINE
  5
BC
330
1B
100
AcDbEntity
 67
     1
  8
0
  6
Continuous
 62
     7
370
    25
100
AcDbLine
 10
150.0
 20
-700.0
 30
0.0
 11
-150.0
 21
-700.0
 31
0.0
  0
LINE
  5
BD
330
1B
100
AcDbEntity
 67
     1
  8
0
  6
Continuous
 62
     7
370
    25
100
AcDbLine
 10
-150.0
 20
-700.0
 30
0.0
 11
-150.0
 21
700.0
 31
0.0
  0
LINE
  5
BE
330
1B
100
AcDbEntity
 67
     1
  8
0
  6
Continuous
 62
     7
370
    25
100
AcDbLine
 10
-150.0
 20
700.0
 30
0.0
 11
150.0
 21
700.0
 31
0.0
  0
LINE
  5
BF
330
1B
100
AcDbEntity
 67
     1
  8
0
  6
Continuous
 62
     7
370
    25
100
AcDbLine
 10
-131.0
 20
684.0
 30
0.0
 11
131.0
 21
684.0
 31
0.0
  0
LINE
  5
C0
330
1B
100
AcDbEntity
 67
     1
  8
0
  6
Continuous
 62
     7
370
    25
100
AcDbLine
 10
131.0
 20
-684.0
 30
0.0
 11
-131.0
 21
-684.0
 31
0.0
  0
VIEWPORT
  5
262
330
1B
100
AcDbEntity
 67
     1
  8
0
100
AcDbViewport
 10
0.0
 20
0.0
 30
0.0
 40
205.6
 41
156.0
 68
     1
 69
     1
 12
0.0
 22
0.0
 13
0.0
 23
0.0
 14
10.0
 24
10.0
 15
10.0
 25
10.0
 16
0.0
 26
0.0
 36
1.0
 17
0.0
 27
0.0
 37
0.0
 42
50.0
 43
0.0
 44
0.0
 45
1428.0
 50
0.0
 51
0.0
 72
   100
 90
   557152
  1

281
     0
 71
     1
 74
     0
110
0.0
120
0.0
130
0.0
111
1.0
121
0.0
131
0.0
112
0.0
122
1.0
132
0.0
 79
     0
146
0.0
  0
ENDSEC
  0
SECTION
  2
OBJECTS
  0
DICTIONARY
  5
C
330
0
100
AcDbDictionary
281
     1
  3
ACAD_GROUP
350
D
  3
ACAD_LAYOUT
350
1A
  3
ACAD_MLINESTYLE
350
17
  3
ACAD_PLOTSETTINGS
350
19
  3
ACAD_PLOTSTYLENAME
350
E
  3
ACAD_SCALELIST
350
47
  0
DICTIONARY
  5
D
102
{ACAD_REACTORS
330
C
102
}
330
C
100
AcDbDictionary
281
     1
  0
DICTIONARY
  5
1A
102
{ACAD_REACTORS
330
C
102
}
330
C
100
AcDbDictionary
281
     1
  3
_Back
350
1E
  3
_Bottom
350
11D
  3
_Dimetric
350
206
  3
_Isometric
350
153
  3
_Left
350
26
  3
_Right
350
DA
  3
_Top
350
F6
  3
_Trimetric
350
1AC
  3
Model
350
22
  0
DICTIONARY
  5
17
102
{ACAD_REACTORS
330
C
102
}
330
C
100
AcDbDictionary
281
     1
  3
Standard
350
18
  0
DICTIONARY
  5
19
102
{ACAD_REACTORS
330
C
102
}
330
C
100
AcDbDictionary
281
     1
  0
ACDBDICTIONARYWDFLT
  5
E
102
{ACAD_REACTORS
330
C
102
}
330
C
100
AcDbDictionary
281
     1
  3
Normal
350
F
100
AcDbDictionaryWithDefault
340
F
  0
DICTIONARY
  5
47
102
{ACAD_REACTORS
330
C
102
}
330
C
100
AcDbDictionary
281
     1
  3
A0
350
48
  3
A1
350
49
  3
A2
350
4A
  3
A3
350
4B
  3
A4
350
4C
  3
A5
350
4D
  3
A6
350
4E
  3
A7
350
4F
  3
A8
350
50
  3
A9
350
51
  3
B0
350
52
  3
B1
350
53
  3
B2
350
54
  3
B3
350
55
  3
B4
350
56
  3
B5
350
57
  3
B6
350
58
  3
B7
350
59
  3
B8
350
5A
  3
B9
350
5B
  3
C0
350
5C
  3
C1
350
5D
  3
C2
350
5E
  3
C3
350
5F
  3
C4
350
60
  3
C5
350
61
  3
C6
350
62
  3
C7
350
63
  3
C8
350
64
  3
C9
350
65
  3
D0
350
66
  3
D1
350
67
  3
D2
350
68
  0
LAYOUT
  5
1E
102
{ACAD_REACTORS
330
1A
102
}
330
1A
100
AcDbPlotSettings
  1

  2
none_device
  4
ISO_A4_(210.00_x_297.00_MM)
  6

 40
7.5
 41
20.0
 42
7.5
 43
20.0
 44
210.0
 45
297.0
 46
0.0
 47
0.0
 48
0.0
 49
0.0
140
0.0
141
0.0
142
1.0
143
7.1794871795
 70
   688
 72
     1
 73
     1
 74
     1
  7

 75
     0
147
0.1392857143
148
150.0
149
700.0
100
AcDbLayout
  1
_Back
 70
     1
 71
     1
 10
-293.5897435897
 20
-753.8461538462
 11
1838.7179487179
 21
753.8461538462
 12
0.0
 22
0.0
 32
0.0
 14
-150.0
 24
-700.0
 34
0.0
 15
150.0
 25
700.0
 35
0.0
146
0.0
 13
0.0
 23
0.0
 33
0.0
 16
1.0
 26
0.0
 36
0.0
 17
0.0
 27
1.0
 37
0.0
 76
     0
330
1B
331
262
  0
LAYOUT
  5
11D
102
{ACAD_REACTORS
330
1A
102
}
330
1A
100
AcDbPlotSettings
  1

  2
none_device
  4
ISO_A4_(210.00_x_297.00_MM)
  6

 40
7.5
 41
20.0
 42
7.5
 43
20.0
 44
210.0
 45
297.0
 46
0.0
 47
0.0
 48
0.0
 49
0.0
140
0.0
141
0.0
142
1.0
143
7.1794871795
 70
   688
 72
     1
 73
     1
 74
     1
  7

 75
     0
147
0.1392857143
148
150.0
149
700.0
100
AcDbLayout
  1
_Bottom
 70
     1
 71
     5
 10
0.0
 20
0.0
 11
0.0
 21
0.0
 12
0.0
 22
0.0
 32
0.0
 14
0.0
 24
0.0
 34
0.0
 15
0.0
 25
0.0
 35
0.0
146
0.0
 13
0.0
 23
0.0
 33
0.0
 16
1.0
 26
0.0
 36
0.0
 17
0.0
 27
1.0
 37
0.0
 76
     0
330
11C
331
26A
  0
LAYOUT
  5
206
102
{ACAD_REACTORS
330
1A
102
}
330
1A
100
AcDbPlotSettings
  1

  2
none_device
  4
ISO_A4_(210.00_x_297.00_MM)
  6

 40
7.5
 41
20.0
 42
7.5
 43
20.0
 44
210.0
 45
297.0
 46
0.0
 47
0.0
 48
0.0
 49
0.0
140
0.0
141
0.0
142
1.0
143
7.1794871795
 70
   688
 72
     1
 73
     1
 74
     1
  7

 75
     0
147
0.1392857143
148
150.0
149
700.0
100
AcDbLayout
  1
_Dimetric
 70
     1
 71
     8
 10
0.0
 20
0.0
 11
0.0
 21
0.0
 12
0.0
 22
0.0
 32
0.0
 14
0.0
 24
0.0
 34
0.0
 15
0.0
 25
0.0
 35
0.0
146
0.0
 13
0.0
 23
0.0
 33
0.0
 16
1.0
 26
0.0
 36
0.0
 17
0.0
 27
1.0
 37
0.0
 76
     0
330
205
331
270
  0
LAYOUT
  5
153
102
{ACAD_REACTORS
330
1A
102
}
330
1A
100
AcDbPlotSettings
  1

  2
none_device
  4
ISO_A4_(210.00_x_297.00_MM)
  6

 40
7.5
 41
20.0
 42
7.5
 43
20.0
 44
210.0
 45
297.0
 46
0.0
 47
0.0
 48
0.0
 49
0.0
140
0.0
141
0.0
142
1.0
143
7.1794871795
 70
   688
 72
     1
 73
     1
 74
     1
  7

 75
     0
147
0.1392857143
148
150.0
149
700.0
100
AcDbLayout
  1
_Isometric
 70
     1
 71
     6
 10
0.0
 20
0.0
 11
0.0
 21
0.0
 12
0.0
 22
0.0
 32
0.0
 14
0.0
 24
0.0
 34
0.0
 15
0.0
 25
0.0
 35
0.0
146
0.0
 13
0.0
 23
0.0
 33
0.0
 16
1.0
 26
0.0
 36
0.0
 17
0.0
 27
1.0
 37
0.0
 76
     0
330
152
331
26C
  0
LAYOUT
  5
26
102
{ACAD_REACTORS
330
1A
102
}
330
1A
100
AcDbPlotSettings
  1

  2
none_device
  4
ISO_A4_(210.00_x_297.00_MM)
  6

 40
7.5
 41
20.0
 42
7.5
 43
20.0
 44
210.0
 45
297.0
 46
0.0
 47
0.0
 48
0.0
 49
0.0
140
0.0
141
0.0
142
1.0
143
7.1794871795
 70
   688
 72
     1
 73
     1
 74
     1
  7

 75
     0
147
0.1392857143
148
150.0
149
700.0
100
AcDbLayout
  1
_Left
 70
     1
 71
     2
 10
0.0
 20
0.0
 11
0.0
 21
0.0
 12
0.0
 22
0.0
 32
0.0
 14
0.0
 24
0.0
 34
0.0
 15
0.0
 25
0.0
 35
0.0
146
0.0
 13
0.0
 23
0.0
 33
0.0
 16
1.0
 26
0.0
 36
0.0
 17
0.0
 27
1.0
 37
0.0
 76
     0
330
23
331
264
  0
LAYOUT
  5
DA
102
{ACAD_REACTORS
330
1A
102
}
330
1A
100
AcDbPlotSettings
  1

  2
none_device
  4
ISO_A4_(210.00_x_297.00_MM)
  6

 40
7.5
 41
20.0
 42
7.5
 43
20.0
 44
210.0
 45
297.0
 46
0.0
 47
0.0
 48
0.0
 49
0.0
140
0.0
141
0.0
142
1.0
143
7.1794871795
 70
   688
 72
     1
 73
     1
 74
     1
  7

 75
     0
147
0.1392857143
148
150.0
149
700.0
100
AcDbLayout
  1
_Right
 70
     1
 71
     3
 10
0.0
 20
0.0
 11
0.0
 21
0.0
 12
0.0
 22
0.0
 32
0.0
 14
0.0
 24
0.0
 34
0.0
 15
0.0
 25
0.0
 35
0.0
146
0.0
 13
0.0
 23
0.0
 33
0.0
 16
1.0
 26
0.0
 36
0.0
 17
0.0
 27
1.0
 37
0.0
 76
     0
330
D9
331
266
  0
LAYOUT
  5
F6
102
{ACAD_REACTORS
330
1A
102
}
330
1A
100
AcDbPlotSettings
  1

  2
none_device
  4
ISO_A4_(210.00_x_297.00_MM)
  6

 40
7.5
 41
20.0
 42
7.5
 43
20.0
 44
210.0
 45
297.0
 46
0.0
 47
0.0
 48
0.0
 49
0.0
140
0.0
141
0.0
142
1.0
143
7.1794871795
 70
   688
 72
     1
 73
     1
 74
     1
  7

 75
     0
147
0.1392857143
148
150.0
149
700.0
100
AcDbLayout
  1
_Top
 70
     1
 71
     4
 10
0.0
 20
0.0
 11
0.0
 21
0.0
 12
0.0
 22
0.0
 32
0.0
 14
0.0
 24
0.0
 34
0.0
 15
0.0
 25
0.0
 35
0.0
146
0.0
 13
0.0
 23
0.0
 33
0.0
 16
1.0
 26
0.0
 36
0.0
 17
0.0
 27
1.0
 37
0.0
 76
     0
330
F5
331
268
  0
LAYOUT
  5
1AC
102
{ACAD_REACTORS
330
1A
102
}
330
1A
100
AcDbPlotSettings
  1

  2
none_device
  4
ISO_A4_(210.00_x_297.00_MM)
  6

 40
7.5
 41
20.0
 42
7.5
 43
20.0
 44
210.0
 45
297.0
 46
0.0
 47
0.0
 48
0.0
 49
0.0
140
0.0
141
0.0
142
1.0
143
7.1794871795
 70
   688
 72
     1
 73
     1
 74
     1
  7

 75
     0
147
0.1392857143
148
150.0
149
700.0
100
AcDbLayout
  1
_Trimetric
 70
     1
 71
     7
 10
0.0
 20
0.0
 11
0.0
 21
0.0
 12
0.0
 22
0.0
 32
0.0
 14
0.0
 24
0.0
 34
0.0
 15
0.0
 25
0.0
 35
0.0
146
0.0
 13
0.0
 23
0.0
 33
0.0
 16
1.0
 26
0.0
 36
0.0
 17
0.0
 27
1.0
 37
0.0
 76
     0
330
1AB
331
26E
  0
LAYOUT
  5
22
102
{ACAD_REACTORS
330
1A
102
}
330
1A
100
AcDbPlotSettings
  1

  2
none_device
  4
ANSI_A_(11.00_x_8.50_Inches)
  6

 40
6.35
 41
19.05
 42
6.35000508
 43
19.05000254
 44
279.4
 45
215.9
 46
133.34999746
 47
88.89999873
 48
0.0
 49
0.0
140
0.0
141
0.0
142
0.0060107143
143
1.0
 70
  1696
 72
     0
 73
     0
 74
     0
  7

 75
     0
147
0.0179189148
148
-1300.4909072572
149
0.0
100
AcDbLayout
  1
Model
 70
     1
 71
     0
 10
0.0
 20
0.0
 11
420.0
 21
297.0
 12
0.0
 22
0.0
 32
0.0
 14
-150.0
 24
-700.0
 34
0.0
 15
150.0
 25
700.0
 35
0.0
146
0.0
 13
0.0
 23
0.0
 33
0.0
 16
1.0
 26
0.0
 36
0.0
 17
0.0
 27
1.0
 37
0.0
 76
     0
330
1F
331
29
  0
MLINESTYLE
  5
18
102
{ACAD_REACTORS
330
17
102
}
330
17
100
AcDbMlineStyle
  2
Standard
 70
     0
  3

 62
   256
 51
90.0
 52
90.0
 71
     2
 49
0.5
 62
   256
  6
BYLAYER
 49
-0.5
 62
   256
  6
BYLAYER
  0
ACDBPLACEHOLDER
  5
F
102
{ACAD_REACTORS
330
E
102
}
330
E
  0
SCALE
  5
48
102
{ACAD_REACTORS
330
47
102
}
330
47
100
AcDbScale
 70
     0
300
1:1
140
1.0
141
1.0
290
     1
  0
SCALE
  5
49
102
{ACAD_REACTORS
330
47
102
}
330
47
100
AcDbScale
 70
     0
300
1:2
140
1.0
141
2.0
290
     0
  0
SCALE
  5
4A
102
{ACAD_REACTORS
330
47
102
}
330
47
100
AcDbScale
 70
     0
300
1:4
140
1.0
141
4.0
290
     0
  0
SCALE
  5
4B
102
{ACAD_REACTORS
330
47
102
}
330
47
100
AcDbScale
 70
     0
300
1:5
140
1.0
141
5.0
290
     0
  0
SCALE
  5
4C
102
{ACAD_REACTORS
330
47
102
}
330
47
100
AcDbScale
 70
     0
300
1:8
140
1.0
141
8.0
290
     0
  0
SCALE
  5
4D
102
{ACAD_REACTORS
330
47
102
}
330
47
100
AcDbScale
 70
     0
300
1:10
140
1.0
141
10.0
290
     0
  0
SCALE
  5
4E
102
{ACAD_REACTORS
330
47
102
}
330
47
100
AcDbScale
 70
     0
300
1:16
140
1.0
141
16.0
290
     0
  0
SCALE
  5
4F
102
{ACAD_REACTORS
330
47
102
}
330
47
100
AcDbScale
 70
     0
300
1:20
140
1.0
141
20.0
290
     0
  0
SCALE
  5
50
102
{ACAD_REACTORS
330
47
102
}
330
47
100
AcDbScale
 70
     0
300
1:30
140
1.0
141
30.0
290
     0
  0
SCALE
  5
51
102
{ACAD_REACTORS
330
47
102
}
330
47
100
AcDbScale
 70
     0
300
1:40
140
1.0
141
40.0
290
     0
  0
SCALE
  5
52
102
{ACAD_REACTORS
330
47
102
}
330
47
100
AcDbScale
 70
     0
300
1:50
140
1.0
141
50.0
290
     0
  0
SCALE
  5
53
102
{ACAD_REACTORS
330
47
102
}
330
47
100
AcDbScale
 70
     0
300
1:100
140
1.0
141
100.0
290
     0
  0
SCALE
  5
54
102
{ACAD_REACTORS
330
47
102
}
330
47
100
AcDbScale
 70
     0
300
2:1
140
2.0
141
1.0
290
     0
  0
SCALE
  5
55
102
{ACAD_REACTORS
330
47
102
}
330
47
100
AcDbScale
 70
     0
300
4:1
140
4.0
141
1.0
290
     0
  0
SCALE
  5
56
102
{ACAD_REACTORS
330
47
102
}
330
47
100
AcDbScale
 70
     0
300
8:1
140
8.0
141
1.0
290
     0
  0
SCALE
  5
57
102
{ACAD_REACTORS
330
47
102
}
330
47
100
AcDbScale
 70
     0
300
10:1
140
10.0
141
1.0
290
     0
  0
SCALE
  5
58
102
{ACAD_REACTORS
330
47
102
}
330
47
100
AcDbScale
 70
     0
300
100:1
140
100.0
141
1.0
290
     0
  0
SCALE
  5
59
102
{ACAD_REACTORS
330
47
102
}
330
47
100
AcDbScale
 70
     0
300
1/128" = 1'-0"
140
0.0078125
141
12.0
290
     0
  0
SCALE
  5
5A
102
{ACAD_REACTORS
330
47
102
}
330
47
100
AcDbScale
 70
     0
300
1/64" = 1'-0"
140
0.015625
141
12.0
290
     0
  0
SCALE
  5
5B
102
{ACAD_REACTORS
330
47
102
}
330
47
100
AcDbScale
 70
     0
300
1/32" = 1'-0"
140
0.03125
141
12.0
290
     0
  0
SCALE
  5
5C
102
{ACAD_REACTORS
330
47
102
}
330
47
100
AcDbScale
 70
     0
300
1/16" = 1'-0"
140
0.0625
141
12.0
290
     0
  0
SCALE
  5
5D
102
{ACAD_REACTORS
330
47
102
}
330
47
100
AcDbScale
 70
     0
300
3/32" = 1'-0"
140
0.09375
141
12.0
290
     0
  0
SCALE
  5
5E
102
{ACAD_REACTORS
330
47
102
}
330
47
100
AcDbScale
 70
     0
300
1/8" = 1'-0"
140
0.125
141
12.0
290
     0
  0
SCALE
  5
5F
102
{ACAD_REACTORS
330
47
102
}
330
47
100
AcDbScale
 70
     0
300
3/16" = 1'-0"
140
0.1875
141
12.0
290
     0
  0
SCALE
  5
60
102
{ACAD_REACTORS
330
47
102
}
330
47
100
AcDbScale
 70
     0
300
1/4" = 1'-0"
140
0.25
141
12.0
290
     0
  0
SCALE
  5
61
102
{ACAD_REACTORS
330
47
102
}
330
47
100
AcDbScale
 70
     0
300
3/8" = 1'-0"
140
0.375
141
12.0
290
     0
  0
SCALE
  5
62
102
{ACAD_REACTORS
330
47
102
}
330
47
100
AcDbScale
 70
     0
300
1/2" = 1'-0"
140
0.5
141
12.0
290
     0
  0
SCALE
  5
63
102
{ACAD_REACTORS
330
47
102
}
330
47
100
AcDbScale
 70
     0
300
3/4" = 1'-0"
140
0.75
141
12.0
290
     0
  0
SCALE
  5
64
102
{ACAD_REACTORS
330
47
102
}
330
47
100
AcDbScale
 70
     0
300
1" = 1'-0"
140
1.0
141
12.0
290
     0
  0
SCALE
  5
65
102
{ACAD_REACTORS
330
47
102
}
330
47
100
AcDbScale
 70
     0
300
1-1/2" = 1'-0"
140
1.5
141
12.0
290
     0
  0
SCALE
  5
66
102
{ACAD_REACTORS
330
47
102
}
330
47
100
AcDbScale
 70
     0
300
3" = 1'-0"
140
3.0
141
12.0
290
     0
  0
SCALE
  5
67
102
{ACAD_REACTORS
330
47
102
}
330
47
100
AcDbScale
 70
     0
300
6" = 1'-0"
140
6.0
141
12.0
290
     0
  0
SCALE
  5
68
102
{ACAD_REACTORS
330
47
102
}
330
47
100
AcDbScale
 70
     0
300
1'-0" = 1'-0"
140
12.0
141
12.0
290
     0
  0
ENDSEC
  0
EOF
