  0
SECTION
  2
HEADER
  9
$ACADVER
  1
AC1015
  9
$ACADMAINTVER
 70
     6
  9
$DWGCODEPAGE
  3
ANSI_1252
  9
$INSBASE
 10
0.0
 20
0.0
 30
0.0
  9
$EXTMIN
 10
-94.7106385916
 20
-39.4919791501
 30
0.0
  9
$EXTMAX
 10
-46.4106385916
 20
108.9080208499
 30
0.0
  9
$LIMMIN
 10
0.0
 20
0.0
  9
$LIMMAX
 10
420.0
 20
297.0
  9
$ORTHOMODE
 70
     0
  9
$REGENMODE
 70
     1
  9
$FILLMODE
 70
     1
  9
$QTEXTMODE
 70
     0
  9
$MIRRTEXT
 70
     1
  9
$LTSCALE
 40
1.0
  9
$ATTMODE
 70
     1
  9
$TEXTSIZE
 40
3.5
  9
$TRACEWID
 40
1.0
  9
$TEXTSTYLE
  7
Standard
  9
$CLAYER
  8
0
  9
$CELTYPE
  6
ByLayer
  9
$CECOLOR
 62
   256
  9
$CELTSCALE
 40
1.0
  9
$DISPSILH
 70
     0
  9
$DIMSCALE
 40
1.0
  9
$DIMASZ
 40
3.302
  9
$DIMEXO
 40
1.0
  9
$DIMDLI
 40
3.75
  9
$DIMRND
 40
0.0
  9
$DIMDLE
 40
0.0
  9
$DIMEXE
 40
1.0
  9
$DIMTP
 40
0.0
  9
$DIMTM
 40
0.0
  9
$DIMTXT
 40
3.5
  9
$DIMCEN
 40
2.5
  9
$DIMTSZ
 40
0.0
  9
$DIMTOL
 70
     0
  9
$DIMLIM
 70
     0
  9
$DIMTIH
 70
     1
  9
$DIMTOH
 70
     1
  9
$DIMSE1
 70
     0
  9
$DIMSE2
 70
     0
  9
$DIMTAD
 70
     1
  9
$DIMZIN
 70
     1
  9
$DIMBLK
  1

  9
$DIMASO
 70
     1
  9
$DIMSHO
 70
     1
  9
$DIMPOST
  1

  9
$DIMAPOST
  1

  9
$DIMALT
 70
     0
  9
$DIMALTD
 70
     3
  9
$DIMALTF
 40
0.0393700787
  9
$DIMLFAC
 40
1.0
  9
$DIMTOFL
 70
     1
  9
$DIMTVP
 40
0.0
  9
$DIMTIX
 70
     0
  9
$DIMSOXD
 70
     0
  9
$DIMSAH
 70
     0
  9
$DIMBLK1
  1

  9
$DIMBLK2
  1

  9
$DIMSTYLE
  2
ISO-25
  9
$DIMCLRD
 70
     0
  9
$DIMCLRE
 70
     0
  9
$DIMCLRT
 70
     0
  9
$DIMTFAC
 40
1.0
  9
$DIMGAP
 40
1.524
  9
$DIMJUST
 70
     0
  9
$DIMSD1
 70
     0
  9
$DIMSD2
 70
     0
  9
$DIMTOLJ
 70
     0
  9
$DIMTZIN
 70
     1
  9
$DIMALTZ
 70
     0
  9
$DIMALTTZ
 70
     0
  9
$DIMUPT
 70
     0
  9
$DIMDEC
 70
     2
  9
$DIMTDEC
 70
     2
  9
$DIMALTU
 70
     2
  9
$DIMALTTD
 70
     3
  9
$DIMTXSTY
  7
Standard
  9
$DIMAUNIT
 70
     0
  9
$DIMADEC
 70
     2
  9
$DIMALTRND
 40
0.0
  9
$DIMAZIN
 70
     0
  9
$DIMDSEP
 70
    44
  9
$DIMATFIT
 70
     3
  9
$DIMFRAC
 70
     0
  9
$DIMLDRBLK
  1

  9
$DIMLUNIT
 70
     2
  9
$DIMLWD
 70
    -2
  9
$DIMLWE
 70
    -2
  9
$DIMTMOVE
 70
     0
  9
$LUNITS
 70
     2
  9
$LUPREC
 70
     2
  9
$SKETCHINC
 40
1.0
  9
$FILLETRAD
 40
10.0
  9
$AUNITS
 70
     0
  9
$AUPREC
 70
     2
  9
$MENU
  1
.
  9
$ELEVATION
 40
0.0
  9
$PELEVATION
 40
0.0
  9
$THICKNESS
 40
0.0
  9
$LIMCHECK
 70
     0
  9
$CHAMFERA
 40
0.0
  9
$CHAMFERB
 40
0.0
  9
$CHAMFERC
 40
0.0
  9
$CHAMFERD
 40
0.0
  9
$SKPOLY
 70
     0
  9
$TDCREATE
 40
2458866.485694514
  9
$TDUCREATE
 40
2458866.485694514
  9
$TDUPDATE
 40
2458866.48576243
  9
$TDUUPDATE
 40
2458866.48576243
  9
$TDINDWG
 40
0.0000000116
  9
$TDUSRTIMER
 40
0.0000000116
  9
$USRTIMER
 70
     1
  9
$ANGBASE
 50
0.0
  9
$ANGDIR
 70
     0
  9
$PDMODE
 70
     0
  9
$PDSIZE
 40
-1.0
  9
$PLINEWID
 40
0.0
  9
$SPLFRAME
 70
     0
  9
$SPLINETYPE
 70
     6
  9
$SPLINESEGS
 70
     8
  9
$HANDSEED
  5
23A
  9
$SURFTAB1
 70
     6
  9
$SURFTAB2
 70
     6
  9
$SURFTYPE
 70
     6
  9
$SURFU
 70
     6
  9
$SURFV
 70
     6
  9
$UCSBASE
  2

  9
$UCSNAME
  2

  9
$UCSORG
 10
0.0
 20
0.0
 30
0.0
  9
$UCSXDIR
 10
1.0
 20
0.0
 30
0.0
  9
$UCSYDIR
 10
0.0
 20
1.0
 30
0.0
  9
$UCSORTHOREF
  2

  9
$UCSORTHOVIEW
 70
     0
  9
$UCSORGTOP
 10
0.0
 20
0.0
 30
0.0
  9
$UCSORGBOTTOM
 10
0.0
 20
0.0
 30
0.0
  9
$UCSORGLEFT
 10
0.0
 20
0.0
 30
0.0
  9
$UCSORGRIGHT
 10
0.0
 20
0.0
 30
0.0
  9
$UCSORGFRONT
 10
0.0
 20
0.0
 30
0.0
  9
$UCSORGBACK
 10
0.0
 20
0.0
 30
0.0
  9
$PUCSBASE
  2

  9
$PUCSNAME
  2

  9
$PUCSORG
 10
0.0
 20
0.0
 30
0.0
  9
$PUCSXDIR
 10
1.0
 20
0.0
 30
0.0
  9
$PUCSYDIR
 10
0.0
 20
1.0
 30
0.0
  9
$PUCSORTHOREF
  2

  9
$PUCSORTHOVIEW
 70
     0
  9
$PUCSORGTOP
 10
0.0
 20
0.0
 30
0.0
  9
$PUCSORGBOTTOM
 10
0.0
 20
0.0
 30
0.0
  9
$PUCSORGLEFT
 10
0.0
 20
0.0
 30
0.0
  9
$PUCSORGRIGHT
 10
0.0
 20
0.0
 30
0.0
  9
$PUCSORGFRONT
 10
0.0
 20
0.0
 30
0.0
  9
$PUCSORGBACK
 10
0.0
 20
0.0
 30
0.0
  9
$USERI1
 70
     0
  9
$USERI2
 70
     0
  9
$USERI3
 70
     0
  9
$USERI4
 70
     0
  9
$USERI5
 70
     0
  9
$USERR1
 40
0.0
  9
$USERR2
 40
0.0
  9
$USERR3
 40
0.0
  9
$USERR4
 40
0.0
  9
$USERR5
 40
0.0
  9
$WORLDVIEW
 70
     1
  9
$SHADEDGE
 70
     3
  9
$SHADEDIF
 70
    70
  9
$TILEMODE
 70
     0
  9
$MAXACTVP
 70
    64
  9
$PINSBASE
 10
0.0
 20
0.0
 30
0.0
  9
$PLIMCHECK
 70
     0
  9
$PEXTMIN
 10
-94.7106385916
 20
-39.4919791501
 30
0.0
  9
$PEXTMAX
 10
-46.4106385916
 20
108.9080208499
 30
0.0
  9
$PLIMMIN
 10
0.0
 20
0.0
  9
$PLIMMAX
 10
0.0
 20
0.0
  9
$UNITMODE
 70
     0
  9
$VISRETAIN
 70
     1
  9
$PLINEGEN
 70
     0
  9
$PSLTSCALE
 70
     1
  9
$TREEDEPTH
 70
  3020
  9
$CMLSTYLE
  2
Standard
  9
$CMLJUST
 70
     0
  9
$CMLSCALE
 40
20.0
  9
$PROXYGRAPHICS
 70
     1
  9
$MEASUREMENT
 70
     1
  9
$CELWEIGHT
370
    -1
  9
$ENDCAPS
280
     0
  9
$JOINSTYLE
280
     0
  9
$LWDISPLAY
290
     1
  9
$INSUNITS
 70
     4
  9
$HYPERLINKBASE
  1

  9
$STYLESHEET
  1

  9
$XEDIT
290
     1
  9
$CEPSNTYPE
380
     0
  9
$PSTYLEMODE
290
     1
  9
$FINGERPRINTGUID
  2
{005d7811-77a9-4195-b848-7fb39710126f}
  9
$VERSIONGUID
  2
{FAEB1C32-E019-11D5-929B-00C0DF256EC4}
  9
$EXTNAMES
290
     1
  9
$PSVPSCALE
 40
0.0
  9
$OLESTARTUP
290
     0
  0
ENDSEC
  0
SECTION
  2
CLASSES
  0
CLASS
  1
ACDBDICTIONARYWDFLT
  2
AcDbDictionaryWithDefault
  3
ObjectDBX Classes
 90
        0
280
     0
281
     0
  0
CLASS
  1
VISUALSTYLE
  2
AcDbVisualStyle
  3
ObjectDBX Classes
 90
     4095
280
     0
281
     0
  0
CLASS
  1
MATERIAL
  2
AcDbMaterial
  3
ObjectDBX Classes
 90
     1153
280
     0
281
     0
  0
CLASS
  1
SCALE
  2
AcDbScale
  3
ObjectDBX Classes
 90
     1153
280
     0
281
     0
  0
CLASS
  1
TABLESTYLE
  2
AcDbTableStyle
  3
ObjectDBX Classes
 90
     4095
280
     0
281
     0
  0
CLASS
  1
MLEADERSTYLE
  2
AcDbMLeaderStyle
  3
ACDB_MLEADERSTYLE_CLASS
 90
     4095
280
     0
281
     0
  0
CLASS
  1
SUN
  2
AcDbSun
  3
SCENEOE
 90
     1153
280
     0
281
     0
  0
CLASS
  1
ACDBPLACEHOLDER
  2
AcDbPlaceHolder
  3
ObjectDBX Classes
 90
        0
280
     0
281
     0
  0
CLASS
  1
LAYOUT
  2
AcDbLayout
  3
ObjectDBX Classes
 90
        0
280
     0
281
     0
  0
ENDSEC
  0
SECTION
  2
TABLES
  0
TABLE
  2
VPORT
  5
8
330
0
100
AcDbSymbolTable
 70
     1
  0
VPORT
  5
29
330
8
100
AcDbSymbolTableRecord
100
AcDbViewportTableRecord
  2
*Active
 70
     0
 10
0.0
 20
0.0
 11
1.0
 21
1.0
 12
-70.5606385916
 22
34.7080208499
 13
0.0
 23
0.0
 14
10.0
 24
10.0
 15
10.0
 25
10.0
 16
0.0
 26
0.0
 36
1.0
 17
0.0
 27
0.0
 37
0.0
 40
151.368
 41
0.3254716981
 42
50.0
 43
0.0
 44
0.0
 50
0.0
 51
0.0
 71
     0
 72
   100
 73
     1
 74
     3
 75
     0
 76
     0
 77
     0
 78
     0
281
     0
 65
     1
110
0.0
120
0.0
130
0.0
111
1.0
121
0.0
131
0.0
112
0.0
122
1.0
132
0.0
 79
     0
146
0.0
  0
ENDTAB
  0
TABLE
  2
LTYPE
  5
5
330
0
100
AcDbSymbolTable
 70
     6
  0
LTYPE
  5
14
330
5
100
AcDbSymbolTableRecord
100
AcDbLinetypeTableRecord
  2
ByBlock
 70
     0
  3

 72
    65
 73
     0
 40
0.0
  0
LTYPE
  5
15
330
5
100
AcDbSymbolTableRecord
100
AcDbLinetypeTableRecord
  2
ByLayer
 70
     0
  3

 72
    65
 73
     0
 40
0.0
  0
LTYPE
  5
16
330
5
100
AcDbSymbolTableRecord
100
AcDbLinetypeTableRecord
  2
Continuous
 70
     0
  3
Solid line
 72
    65
 73
     0
 40
0.0
  0
LTYPE
  5
6E
330
5
100
AcDbSymbolTableRecord
100
AcDbLinetypeTableRecord
  2
HIDDEN
 70
     0
  3
Hidden __ __ __ __ __ __ __ __ __ __ __ __ __ __
 72
    65
 73
     2
 40
1.905
 49
1.27
 74
     0
 49
-0.635
 74
     0
  0
LTYPE
  5
6F
330
5
100
AcDbSymbolTableRecord
100
AcDbLinetypeTableRecord
  2
PHANTOM
 70
     0
  3
Phantom ______  __  __  ______  __  __  ______
 72
    65
 73
     6
 40
12.7
 49
6.35
 74
     0
 49
-1.27
 74
     0
 49
1.27
 74
     0
 49
-1.27
 74
     0
 49
1.27
 74
     0
 49
-1.27
 74
     0
  0
LTYPE
  5
70
330
5
100
AcDbSymbolTableRecord
100
AcDbLinetypeTableRecord
  2
CENTER
 70
     0
  3
Center ____ _ ____ _ ____ _ ____ _ ____ _ ____
 72
    65
 73
     4
 40
10.16
 49
6.35
 74
     0
 49
-1.27
 74
     0
 49
1.27
 74
     0
 49
-1.27
 74
     0
  0
LTYPE
  5
71
330
5
100
AcDbSymbolTableRecord
100
AcDbLinetypeTableRecord
  2
CENTERX2
 70
     0
  3
Center (2x) ________  __  ________  __  _____
 72
    65
 73
     4
 40
20.32
 49
12.7
 74
     0
 49
-2.54
 74
     0
 49
2.54
 74
     0
 49
-2.54
 74
     0
  0
LTYPE
  5
72
330
5
100
AcDbSymbolTableRecord
100
AcDbLinetypeTableRecord
  2
DOT2
 70
     0
  3
Dot (.5x) ........................................
 72
    65
 73
     2
 40
0.635
 49
0.0
 74
     0
 49
-0.635
 74
     0
  0
ENDTAB
  0
TABLE
  2
LAYER
  5
2
330
0
100
AcDbSymbolTable
 70
     1
  0
LAYER
  5
10
330
2
100
AcDbSymbolTableRecord
100
AcDbLayerTableRecord
  2
0
 70
     0
 62
     7
  6
Continuous
370
    -3
390
F
  0
ENDTAB
  0
TABLE
  2
STYLE
  5
3
330
0
100
AcDbSymbolTable
 70
     1
  0
STYLE
  5
11
330
3
100
AcDbSymbolTableRecord
100
AcDbTextStyleTableRecord
  2
Standard
 70
     0
 40
0.0
 41
1.0
 50
0.0
 71
     0
 42
3.5
  3
txt
  4

  0
ENDTAB
  0
TABLE
  2
VIEW
  5
6
330
0
100
AcDbSymbolTable
 70
     0
  0
ENDTAB
  0
TABLE
  2
UCS
  5
7
330
0
100
AcDbSymbolTable
 70
     0
  0
ENDTAB
  0
TABLE
  2
APPID
  5
9
330
0
100
AcDbSymbolTable
 70
     1
  0
APPID
  5
12
330
9
100
AcDbSymbolTableRecord
100
AcDbRegAppTableRecord
  2
ACAD
 70
     0
  0
ENDTAB
  0
TABLE
  2
DIMSTYLE
  5
A
330
0
100
AcDbSymbolTable
 70
     1
100
AcDbDimStyleTable
  0
DIMSTYLE
105
27
330
A
100
AcDbSymbolTableRecord
100
AcDbDimStyleTableRecord
  2
ISO-25
 70
     0
 41
2.5
 42
0.625
 43
3.75
 44
1.25
 73
     0
 74
     0
 77
     1
 78
     8
140
2.5
141
2.5
143
0.0393700787
147
0.625
171
     3
172
     1
178
     0
271
     2
272
     2
274
     3
278
    44
283
     0
284
     8
340
11
  0
ENDTAB
  0
TABLE
  2
BLOCK_RECORD
  5
1
330
0
100
AcDbSymbolTable
 70
     1
  0
BLOCK_RECORD
  5
1F
330
1
100
AcDbSymbolTableRecord
100
AcDbBlockTableRecord
  2
*Model_Space
340
22
  0
BLOCK_RECORD
  5
23
330
1
100
AcDbSymbolTableRecord
100
AcDbBlockTableRecord
  2
*Paper_Space
340
26
  0
BLOCK_RECORD
  5
1B
330
1
100
AcDbSymbolTableRecord
100
AcDbBlockTableRecord
  2
*Paper_Space0
340
1E
  0
ENDTAB
  0
ENDSEC
  0
SECTION
  2
BLOCKS
  0
BLOCK
  5
20
330
1F
100
AcDbEntity
  8
0
100
AcDbBlockBegin
  2
*Model_Space
 70
     0
 10
0.0
 20
0.0
 30
0.0
  3
*Model_Space
  1

  0
ENDBLK
  5
21
330
1F
100
AcDbEntity
  8
0
100
AcDbBlockEnd
  0
BLOCK
  5
24
330
23
100
AcDbEntity
 67
     1
  8
0
100
AcDbBlockBegin
  2
*Paper_Space
 70
     0
 10
0.0
 20
0.0
 30
0.0
  3
*Paper_Space
  1

  0
ENDBLK
  5
25
330
23
100
AcDbEntity
 67
     1
  8
0
100
AcDbBlockEnd
  0
BLOCK
  5
1C
330
1B
100
AcDbEntity
  8
0
100
AcDbBlockBegin
  2
*Paper_Space0
 70
     0
 10
0.0
 20
0.0
 30
0.0
  3
*Paper_Space0
  1

  0
SPLINE
  5
131
330
1B
100
AcDbEntity
  8
0
  6
Continuous
 62
     7
370
    25
100
AcDbSpline
210
0.0
220
0.0
230
1.0
 70
     8
 71
     3
 72
    15
 73
    11
 74
     0
 42
0.000000001
 43
0.00000001
 40
0.0
 40
0.0
 40
0.0
 40
0.0
 40
0.1490189744475369
 40
0.2764816897503253
 40
0.3762095451847633
 40
0.4501739557184773
 40
0.545332474953204
 40
0.672101968446729
 40
0.8263664750933121
 40
1.0
 40
1.0
 40
1.0
 40
1.0
 10
11.815668679963
 20
100.797960971861
 30
0.0
 10
12.4245204898516
 20
100.7366169549663
 30
0.0
 10
13.55415098039566
 20
100.6228026067601
 30
0.0
 10
15.00111336745991
 20
100.0558345022924
 30
0.0
 10
16.0638889197783
 20
99.42796625410655
 30
0.0
 10
16.92732745573941
 20
98.74394374764613
 30
0.0
 10
17.77496550019662
 20
97.8741570035998
 30
0.0
 10
18.64525993186417
 20
96.59797142740805
 30
0.0
 10
19.37842869299932
 20
94.85950171637175
 30
0.0
 10
19.48175682875086
 20
93.51486612886976
 30
0.0
 10
19.53647270596301
 20
92.80283435586104
 30
0.0
  0
SPLINE
  5
133
330
1B
100
AcDbEntity
  8
0
  6
Continuous
 62
     7
370
    25
100
AcDbSpline
210
0.0
220
0.0
230
1.0
 70
     8
 71
     3
 72
     9
 73
     5
 74
     0
 42
0.000000001
 43
0.00000001
 40
0.0
 40
0.0
 40
0.0
 40
0.0
 40
0.5000000923441308
 40
1.0
 40
1.0
 40
1.0
 40
1.0
 10
-46.06352729415128
 20
108.7421627236436
 30
0.0
 10
-46.03810756307663
 20
108.4551898175678
 30
0.0
 10
-45.98726811031676
 20
107.8812441114172
 30
0.0
 10
-45.66466153084065
 20
107.4038296942044
 30
0.0
 10
-45.50335827089343
 20
107.1651225296844
 30
0.0
  0
SPLINE
  5
134
330
1B
100
AcDbEntity
  8
0
  6
Continuous
 62
     7
370
    25
100
AcDbSpline
210
0.0
220
0.0
230
1.0
 70
     8
 71
     3
 72
    13
 73
     9
 74
     0
 42
0.000000001
 43
0.00000001
 40
0.0
 40
0.0
 40
0.0
 40
0.0
 40
0.2392520093151506
 40
0.3682304392829379
 40
0.5000030031919073
 40
0.6317751266827025
 40
0.7607522905500708
 40
1.0
 40
1.0
 40
1.0
 40
1.0
 10
-45.86327387403701
 20
108.908020849861
 30
0.0
 10
-45.88865126879049
 20
108.9053016154012
 30
0.0
 10
-45.92770937009831
 20
108.9011164681061
 30
0.0
 10
-45.97461186231533
 20
108.8757297121403
 30
0.0
 10
-46.00682071140985
 20
108.8494433505009
 30
0.0
 10
-46.03262388307351
 20
108.8168462953538
 30
0.0
 10
-46.05730832294602
 20
108.7695711490288
 30
0.0
 10
-46.06091093763465
 20
108.7304556300982
 30
0.0
 10
-46.06325167389323
 20
108.7050410017386
 30
0.0
  0
SPLINE
  5
138
330
1B
100
AcDbEntity
  8
0
  6
Continuous
 62
     7
370
    25
100
AcDbSpline
210
0.0
220
0.0
230
1.0
 70
     8
 71
     3
 72
     9
 73
     5
 74
     0
 42
0.000000001
 43
0.00000001
 40
0.0
 40
0.0
 40
0.0
 40
0.0
 40
0.500000000000004
 40
1.0
 40
1.0
 40
1.0
 40
1.0
 10
66.13647273545071
 20
93.40802093586684
 30
0.0
 10
66.28187795795799
 20
93.89767560616464
 30
0.0
 10
66.5726884029725
 20
94.87698494676019
 30
0.0
 10
66.61521127163283
 20
95.89767554882731
 30
0.0
 10
66.63647270596302
 20
96.40802084986088
 30
0.0
  0
SPLINE
  5
13A
330
1B
100
AcDbEntity
  8
0
  6
Continuous
 62
     7
370
    25
100
AcDbSpline
210
0.0
220
0.0
230
1.0
 70
     8
 71
     3
 72
    24
 73
    20
 74
     0
 42
0.000000001
 43
0.00000001
 40
0.0
 40
0.0
 40
0.0
 40
0.0
 40
0.1250000000000004
 40
0.1250000000000004
 40
0.2500000000000008
 40
0.2500000000000008
 40
0.3750000000000012
 40
0.3750000000000012
 40
0.5000000000000016
 40
0.5000000000000016
 40
0.625000000000002
 40
0.625000000000002
 40
0.7500000000000023
 40
0.7500000000000023
 40
0.8125000000000011
 40
0.8125000000000011
 40
0.8749999999999998
 40
0.8749999999999998
 40
1.0
 40
1.0
 40
1.0
 40
1.0
 10
16.693090683963
 20
100.627637642861
 30
0.0
 10
17.305014244963
 20
100.6062688008611
 30
0.0
 10
17.90856272696299
 20
100.538289946861
 30
0.0
 10
19.101252987963
 20
100.317054561861
 30
0.0
 10
19.69041973096303
 20
100.1637618028611
 30
0.0
 10
20.85482793736301
 20
99.771031553261
 30
0.0
 10
21.432390472963
 20
99.52957196886096
 30
0.0
 10
22.52970258496302
 20
98.97506674086098
 30
0.0
 10
23.05494491446302
 20
98.66069706036103
 30
0.0
 10
24.05386489646302
 20
97.95290777036098
 30
0.0
 10
24.53144473096298
 20
97.55507420486109
 30
0.0
 10
25.38879473896301
 20
96.69790012752762
 30
0.0
 10
25.77219764476306
 20
96.2373886530607
 30
0.0
 10
26.263072030363
 20
95.4899547594611
 30
0.0
 10
26.41221880629634
 20
95.2311127151943
 30
0.0
 10
26.67120311696302
 20
94.70609153786097
 30
0.0
 10
26.78214522296303
 20
94.43836877586098
 30
0.0
 10
27.054857156963
 20
93.61857070186095
 30
0.0
 10
27.155751735963
 20
93.04495350586099
 30
0.0
 10
27.159286359963
 20
92.470564403861
 30
0.0
  0
SPLINE
  5
13B
330
1B
100
AcDbEntity
  8
0
  6
Continuous
 62
     7
370
    25
100
AcDbSpline
210
0.0
220
0.0
230
1.0
 70
     8
 71
     3
 72
    19
 73
    15
 74
     0
 42
0.000000001
 43
0.00000001
 40
0.0
 40
0.0
 40
0.0
 40
0.0
 40
0.0477579792578943
 40
0.0966504530063518
 40
0.1466265021153855
 40
0.1976261750389547
 40
0.2495805394933062
 40
0.3684461951502062
 40
0.4995553637105227
 40
0.6046444202115087
 40
0.749374598709723
 40
0.852974104561066
 40
0.936066531015613
 40
1.0
 40
1.0
 40
1.0
 40
1.0
 10
-41.11369842249399
 20
105.2820114532274
 30
0.0
 10
-41.13017338792856
 20
105.2456701481512
 30
0.0
 10
-41.16351468287566
 20
105.1721242474861
 30
0.0
 10
-41.21061399832235
 20
105.0638605717332
 30
0.0
 10
-41.25589346048275
 20
104.9561773439776
 30
0.0
 10
-41.29870667489862
 20
104.8499590076063
 30
0.0
 10
-41.35566104690675
 20
104.7017414567217
 30
0.0
 10
-41.42101983093328
 20
104.5140943926562
 30
0.0
 10
-41.47592092379495
 20
104.3222232566532
 30
0.0
 10
-41.51107138307835
 20
104.1493488026272
 30
0.0
 10
-41.52101186795004
 20
104.023758336717
 30
0.0
 10
-41.50869796467698
 20
103.9418091563188
 30
0.0
 10
-41.48812842919738
 20
103.8993729194281
 30
0.0
 10
-41.4695365338425
 20
103.8865643204665
 30
0.0
 10
-41.46145194193109
 20
103.8809945658187
 30
0.0
  0
SPLINE
  5
13C
330
1B
100
AcDbEntity
  8
0
  6
Continuous
 62
     7
370
    25
100
AcDbSpline
210
0.0
220
0.0
230
1.0
 70
     8
 71
     3
 72
    15
 73
    11
 74
     0
 42
0.000000001
 43
0.00000001
 40
0.0
 40
0.0
 40
0.0
 40
0.0
 40
0.1352717794480252
 40
0.2685045767623257
 40
0.3992171633450092
 40
0.5269506704187494
 40
0.651274548152006
 40
0.7717913776021191
 40
0.8881404365819401
 40
1.0
 40
1.0
 40
1.0
 40
1.0
 10
-40.66899467805232
 20
106.294244068226
 30
0.0
 10
-40.6892716287649
 20
106.2467850379174
 30
0.0
 10
-40.72951989112478
 20
106.1525823380006
 30
0.0
 10
-40.78964966666403
 20
106.0132608437601
 30
0.0
 10
-40.84854649247389
 20
105.8777090825547
 30
0.0
 10
-40.90584361027289
 20
105.7468149915287
 30
0.0
 10
-40.96119324300079
 20
105.6213100819871
 30
0.0
 10
-41.01430442171836
 20
105.5019133656966
 30
0.0
 10
-41.06503216655581
 20
105.3888535816105
 30
0.0
 10
-41.09769049711463
 20
105.3171553282915
 30
0.0
 10
-41.11369842249399
 20
105.2820114532274
 30
0.0
  0
SPLINE
  5
13D
330
1B
100
AcDbEntity
  8
0
  6
Continuous
 62
     7
370
    25
100
AcDbSpline
210
0.0
220
0.0
230
1.0
 70
     8
 71
     3
 72
    10
 73
     6
 74
     0
 42
0.000000001
 43
0.00000001
 40
0.0
 40
0.0
 40
0.0
 40
0.0
 40
0.5
 40
0.5
 40
1.0
 40
1.0
 40
1.0
 40
1.0
 10
-35.9762785408139
 20
104.9684164037264
 30
0.0
 10
-36.78837740797439
 20
104.9967755213273
 30
0.0
 10
-37.60897445239153
 20
105.1236395425917
 30
0.0
 10
-39.19605099136536
 20
105.5719983316791
 30
0.0
 10
-39.9618732209337
 20
105.8933094650816
 30
0.0
 10
-40.66899467805212
 20
106.2942440682264
 30
0.0
  0
SPLINE
  5
13E
330
1B
100
AcDbEntity
  8
0
  6
Continuous
 62
     7
370
    25
100
AcDbSpline
210
0.0
220
0.0
230
1.0
 70
     8
 71
     3
 72
    14
 73
    10
 74
     0
 42
0.000000001
 43
0.00000001
 40
0.0
 40
0.0
 40
0.0
 40
0.0
 40
0.25
 40
0.25
 40
0.5
 40
0.5
 40
0.75
 40
0.75
 40
1.0
 40
1.0
 40
1.0
 40
1.0
 10
-36.06352729527759
 20
102.4699393377749
 30
0.0
 10
-36.06352729496318
 20
102.4699393379946
 30
0.0
 10
-36.0616533017476
 20
102.5236034745089
 30
0.0
 10
-36.05314952197758
 20
102.7671198411573
 30
0.0
 10
-36.04649091668372
 20
102.9577973317028
 30
0.0
 10
-36.0294545382772
 20
103.4456553249001
 30
0.0
 10
-36.01913440261617
 20
103.7411853067271
 30
0.0
 10
-35.99765429126501
 20
104.356295121344
 30
0.0
 10
-35.98656090587048
 20
104.6739680577667
 30
0.0
 10
-35.97627854081382
 20
104.9684164037264
 30
0.0
  0
SPLINE
  5
13F
330
1B
100
AcDbEntity
  8
0
  6
Continuous
 62
     7
370
    25
100
AcDbSpline
210
0.0
220
0.0
230
1.0
 70
     8
 71
     3
 72
    10
 73
     6
 74
     0
 42
0.000000001
 43
0.00000001
 40
0.0
 40
0.0
 40
0.0
 40
0.0
 40
0.5
 40
0.5
 40
1.0
 40
1.0
 40
1.0
 40
1.0
 10
-41.46145257716137
 20
103.8809933350512
 30
0.0
 10
-40.63319938701841
 20
103.4535120517543
 30
0.0
 10
-39.74825964740106
 20
103.1133066227127
 30
0.0
 10
-37.9267252696425
 20
102.6376498958204
 30
0.0
 10
-36.99067277657386
 20
102.5023159717073
 30
0.0
 10
-36.06352729527762
 20
102.4699393377749
 30
0.0
  0
SPLINE
  5
141
330
1B
100
AcDbEntity
  8
0
  6
Continuous
 62
     7
370
    25
100
AcDbSpline
210
0.0
220
0.0
230
1.0
 70
    24
 71
     3
 72
    14
 73
    10
 74
     0
 42
0.000000001
 43
0.00000001
 40
0.0
 40
0.0
 40
0.0
 40
0.0
 40
0.25
 40
0.25
 40
0.5
 40
0.5
 40
0.75
 40
0.75
 40
1.0
 40
1.0
 40
1.0
 40
1.0
 10
-40.66899480603699
 20
106.294243765861
 30
0.0
 10
-40.86124964523368
 20
106.294243765861
 30
0.0
 10
-41.06272099498933
 20
106.294243765861
 30
0.0
 10
-41.4571437427164
 20
106.294243765861
 30
0.0
 10
-41.64964246679748
 20
106.294243765861
 30
0.0
 10
-41.99540521509487
 20
106.294243765861
 30
0.0
 10
-42.14825166143852
 20
106.294243765861
 30
0.0
 10
-42.39521023973306
 20
106.294243765861
 30
0.0
 10
-42.48930977868128
 20
106.294243765861
 30
0.0
 10
-42.553654663037
 20
106.294243765861
 30
0.0
  0
SPLINE
  5
143
330
1B
100
AcDbEntity
  8
0
  6
Continuous
 62
     7
370
    25
100
AcDbSpline
210
0.0
220
0.0
230
1.0
 70
     8
 71
     3
 72
    14
 73
    10
 74
     0
 42
0.000000001
 43
0.00000001
 40
0.0
 40
0.0
 40
0.0
 40
0.0
 40
0.25
 40
0.25
 40
0.5
 40
0.5
 40
0.75
 40
0.75
 40
1.0
 40
1.0
 40
1.0
 40
1.0
 10
-42.55365466272358
 20
108.708020850048
 30
0.0
 10
-42.48930977848978
 20
108.7080208500891
 30
0.0
 10
-42.39521023963695
 20
108.7080208501236
 30
0.0
 10
-42.14825166147166
 20
108.7080208501676
 30
0.0
 10
-41.9954052151618
 20
108.7080208501772
 30
0.0
 10
-41.64964246687872
 20
108.7080208501643
 30
0.0
 10
-41.45714374277845
 20
108.7080208501419
 30
0.0
 10
-41.06272099498371
 20
108.7080208500678
 30
0.0
 10
-40.86124964518009
 20
108.7080208500161
 30
0.0
 10
-40.66899480593451
 20
108.7080208499545
 30
0.0
  0
SPLINE
  5
146
330
1B
100
AcDbEntity
  8
0
  6
Continuous
 62
     7
370
    25
100
AcDbSpline
210
0.0
220
0.0
230
1.0
 70
     8
 71
     3
 72
    28
 73
    24
 74
     0
 42
0.000000001
 43
0.00000001
 40
0.0
 40
0.0
 40
0.0
 40
0.0
 40
0.1249999999999997
 40
0.1249999999999997
 40
0.1874999999999995
 40
0.1874999999999995
 40
0.2499999999999993
 40
0.2499999999999993
 40
0.374999999999999
 40
0.374999999999999
 40
0.4374999999999988
 40
0.4374999999999988
 40
0.4999999999999987
 40
0.4999999999999987
 40
0.6249999999999983
 40
0.6249999999999983
 40
0.6874999999999982
 40
0.6874999999999982
 40
0.749999999999998
 40
0.749999999999998
 40
0.874999999999999
 40
0.874999999999999
 40
1.0
 40
1.0
 40
1.0
 40
1.0
 10
29.06798861174944
 20
92.47056457260861
 30
0.0
 10
29.06798858217657
 20
93.22428770311333
 30
0.0
 10
28.95947848296301
 20
93.97632556986096
 30
0.0
 10
28.65931955696303
 20
95.05029297786095
 30
0.0
 10
28.536562784963
 20
95.40088099686099
 30
0.0
 10
28.24842775296302
 20
96.08816303019432
 30
0.0
 10
28.08180560876301
 20
96.42687586666095
 30
0.0
 10
27.530767917563
 20
97.40462701546106
 30
0.0
 10
27.09717836396301
 20
98.00661690619431
 30
0.0
 10
26.36303070596301
 20
98.84656311819437
 30
0.0
 10
26.10342804556301
 20
99.11660537426103
 30
0.0
 10
25.560025091963
 20
99.632948079861
 30
0.0
 10
25.278829640963
 20
99.87692541186097
 30
0.0
 10
24.40904599496301
 20
100.569691002361
 30
0.0
 10
23.794511127463
 20
100.979687538361
 30
0.0
 10
22.823895046963
 20
101.521703032861
 30
0.0
 10
22.49215173196301
 20
101.690108496861
 30
0.0
 10
21.81202850476301
 20
102.002046791261
 30
0.0
 10
21.46580259096301
 20
102.144468648661
 30
0.0
 10
20.42081276496301
 20
102.527527651861
 30
0.0
 10
19.711084661963
 20
102.726505068861
 30
0.0
 10
18.265727203963
 20
103.012684324861
 30
0.0
 10
17.53006954596301
 20
103.099933555861
 30
0.0
 10
16.78033943459944
 20
103.1261147141779
 30
0.0
  0
SPLINE
  5
14B
330
1B
100
AcDbEntity
  8
0
  6
Continuous
 62
     7
370
    25
100
AcDbSpline
210
0.0
220
0.0
230
1.0
 70
     8
 71
     3
 72
    14
 73
    10
 74
     0
 42
0.000000001
 43
0.00000001
 40
0.0
 40
0.0
 40
0.0
 40
0.0
 40
0.25
 40
0.25
 40
0.5
 40
0.5
 40
0.75
 40
0.75
 40
1.0
 40
1.0
 40
1.0
 40
1.0
 10
-42.57237292111161
 20
106.0520952260002
 30
0.0
 10
-42.52258463579707
 20
105.978013840131
 30
0.0
 10
-42.45115926716833
 20
105.9013705843528
 30
0.0
 10
-42.26574737400854
 20
105.7505081753886
 30
0.0
 10
-42.15176936561461
 20
105.6763791729655
 30
0.0
 10
-41.89123466988811
 20
105.538834064991
 30
0.0
 10
-41.74483939888751
 20
105.4755031765997
 30
0.0
 10
-41.43637237359974
 20
105.3656301431125
 30
0.0
 10
-41.27450809401492
 20
105.3191118761485
 30
0.0
 10
-41.11369842247529
 20
105.2820114532612
 30
0.0
  0
SPLINE
  5
14C
330
1B
100
AcDbEntity
  8
0
  6
Continuous
 62
     7
370
    25
100
AcDbSpline
210
0.0
220
0.0
230
1.0
 70
     8
 71
     3
 72
     8
 73
     4
 74
     0
 42
0.000000001
 43
0.00000001
 40
0.0
 40
0.0
 40
0.0
 40
0.0
 40
1.0
 40
1.0
 40
1.0
 40
1.0
 10
-42.5536546626047
 20
106.2942438657473
 30
0.0
 10
-42.55365465946932
 20
106.2102876219747
 30
0.0
 10
-42.55959300481322
 20
106.1266308374434
 30
0.0
 10
-42.57237292111161
 20
106.0520952260002
 30
0.0
  0
SPLINE
  5
14D
330
1B
100
AcDbEntity
  8
0
  6
Continuous
 62
     7
370
    25
100
AcDbSpline
210
0.0
220
0.0
230
1.0
 70
     8
 71
     3
 72
    10
 73
     6
 74
     0
 42
0.000000001
 43
0.00000001
 40
0.0
 40
0.0
 40
0.0
 40
0.0
 40
0.5
 40
0.5
 40
1.0
 40
1.0
 40
1.0
 40
1.0
 10
27.15928647756195
 20
92.47056450107969
 30
0.0
 10
27.38576541133206
 20
92.47056460252804
 30
0.0
 10
27.68234734291139
 20
92.47056466691203
 30
0.0
 10
28.34955771713428
 20
92.47056469191584
 30
0.0
 10
28.71730990657204
 20
92.47056465242791
 30
0.0
 10
29.06798861174944
 20
92.47056457260861
 30
0.0
  0
SPLINE
  5
14E
330
1B
100
AcDbEntity
  8
0
  6
Continuous
 62
     7
370
    25
100
AcDbSpline
210
0.0
220
0.0
230
1.0
 70
     8
 71
     3
 72
    14
 73
    10
 74
     0
 42
0.000000001
 43
0.00000001
 40
0.0
 40
0.0
 40
0.0
 40
0.0
 40
0.25
 40
0.25
 40
0.5
 40
0.5
 40
0.75
 40
0.75
 40
1.0
 40
1.0
 40
1.0
 40
1.0
 10
16.78033943459945
 20
103.1261147141779
 30
0.0
 10
16.7700570707286
 20
102.83166636755
 30
0.0
 10
16.75896374267994
 20
102.5139934283704
 30
0.0
 10
16.73748388870643
 20
101.8988836032313
 30
0.0
 10
16.72716395394562
 20
101.603353613618
 30
0.0
 10
16.71012808910552
 20
101.1154956012757
 30
0.0
 10
16.70346979475253
 20
100.9248180994412
 30
0.0
 10
16.69496666233844
 20
100.6813017098017
 30
0.0
 10
16.69309300353879
 20
100.6276375616503
 30
0.0
 10
16.6930933134237
 20
100.6276375508009
 30
0.0
  0
SPLINE
  5
150
330
1B
100
AcDbEntity
  8
0
  6
Continuous
 62
     7
370
    25
100
AcDbSpline
210
0.0
220
0.0
230
1.0
 70
    24
 71
     3
 72
    10
 73
     6
 74
     0
 42
0.000000001
 43
0.00000001
 40
0.0
 40
0.0
 40
0.0
 40
0.0
 40
0.5
 40
0.5
 40
1.0
 40
1.0
 40
1.0
 40
1.0
 10
27.1592863605694
 20
83.908020849861
 30
0.0
 10
27.38576533081781
 20
83.908020849861
 30
0.0
 10
27.68234729210768
 20
83.90802084986102
 30
0.0
 10
28.34955770616321
 20
83.908020849861
 30
0.0
 10
28.7173099057048
 20
83.90802084986102
 30
0.0
 10
29.06798861322356
 20
83.908020849861
 30
0.0
  0
SPLINE
  5
152
330
1B
100
AcDbEntity
  8
0
  6
Continuous
 62
     7
370
    25
100
AcDbSpline
210
0.0
220
0.0
230
1.0
 70
     8
 71
     3
 72
    10
 73
     6
 74
     0
 42
0.000000001
 43
0.00000001
 40
0.0
 40
0.0
 40
0.0
 40
0.0
 40
0.5
 40
0.5
 40
1.0
 40
1.0
 40
1.0
 40
1.0
 10
-42.36518869540888
 20
108.9080208498687
 30
0.0
 10
-42.4096105470452
 20
108.9080208499899
 30
0.0
 10
-42.46165398655129
 20
108.88849463543
 30
0.0
 10
-42.53525452683319
 20
108.8103897770794
 30
0.0
 10
-42.55365466306417
 20
108.7551613020822
 30
0.0
 10
-42.55365466272361
 20
108.7080208500479
 30
0.0
  0
SPLINE
  5
153
330
1B
100
AcDbEntity
  8
0
  6
Continuous
 62
     7
370
    25
100
AcDbSpline
210
0.0
220
0.0
230
1.0
 70
    24
 71
     3
 72
    10
 73
     6
 74
     0
 42
0.000000001
 43
0.00000001
 40
0.0
 40
0.0
 40
0.0
 40
0.0
 40
0.5
 40
0.5
 40
1.0
 40
1.0
 40
1.0
 40
1.0
 10
-42.3651886954089
 20
108.9080208498687
 30
0.0
 10
-42.2407561254866
 20
108.908020849861
 30
0.0
 10
-42.01088958132951
 20
108.908020849861
 30
0.0
 10
-41.40345224819131
 20
108.908020849861
 30
0.0
 10
-41.0407842043428
 20
108.908020849861
 30
0.0
 10
-40.66899481654299
 20
108.9080208498649
 30
0.0
  0
SPLINE
  5
154
330
1B
100
AcDbEntity
  8
0
  6
Continuous
 62
     7
370
    25
100
AcDbSpline
210
0.0
220
0.0
230
1.0
 70
     8
 71
     3
 72
    10
 73
     6
 74
     0
 42
0.000000001
 43
0.00000001
 40
0.0
 40
0.0
 40
0.0
 40
0.0
 40
0.5
 40
0.5
 40
1.0
 40
1.0
 40
1.0
 40
1.0
 10
-40.66899480593441
 20
108.7080208499545
 30
0.0
 10
-40.66899480597568
 20
108.7551613020263
 30
0.0
 10
-40.66899480600696
 20
108.8103897770521
 30
0.0
 10
-40.66899480911415
 20
108.8884946354288
 30
0.0
 10
-40.66899481231574
 20
108.9080208499875
 30
0.0
 10
-40.66899481654301
 20
108.9080208498648
 30
0.0
  0
SPLINE
  5
155
330
1B
100
AcDbEntity
  8
0
  6
Continuous
 62
     7
370
    25
100
AcDbSpline
210
0.0
220
0.0
230
1.0
 70
     8
 71
     3
 72
    18
 73
    14
 74
     0
 42
0.000000001
 43
0.00000001
 40
0.0
 40
0.0
 40
0.0
 40
0.0
 40
0.2499999999999993
 40
0.2499999999999993
 40
0.3749999999999998
 40
0.3749999999999998
 40
0.5000000000000002
 40
0.5000000000000002
 40
0.6250000000000007
 40
0.6250000000000007
 40
0.7500000000000011
 40
0.7500000000000011
 40
1.0
 40
1.0
 40
1.0
 40
1.0
 10
60.93647270621939
 20
108.7080208499545
 30
0.0
 10
61.52572835719963
 20
108.7080208500109
 30
0.0
 10
62.16146150208257
 20
108.7080208500615
 30
0.0
 10
63.08468862992427
 20
108.7080208501149
 30
0.0
 10
63.38667428919135
 20
108.708020850129
 30
0.0
 10
63.95836865691275
 20
108.708020850148
 30
0.0
 10
64.22792892968423
 20
108.7080208501528
 30
0.0
 10
64.71608429434279
 20
108.7080208501528
 30
0.0
 10
64.93456949050552
 20
108.708020850148
 30
0.0
 10
65.30833103375484
 20
108.708020850129
 30
0.0
 10
65.4635818110128
 20
108.7080208501149
 30
0.0
 10
65.82907901191234
 20
108.7080208500616
 30
0.0
 10
65.93647270596765
 20
108.7080208500109
 30
0.0
 10
65.93647270596591
 20
108.7080208499545
 30
0.0
  0
SPLINE
  5
156
330
1B
100
AcDbEntity
  8
0
  6
Continuous
 62
     7
370
    25
100
AcDbSpline
210
0.0
220
0.0
230
1.0
 70
     8
 71
     3
 72
    10
 73
     6
 74
     0
 42
0.000000001
 43
0.00000001
 40
0.0
 40
0.0
 40
0.0
 40
0.0
 40
0.5
 40
0.5
 40
1.0
 40
1.0
 40
1.0
 40
1.0
 10
60.93647272132288
 20
108.9080208498648
 30
0.0
 10
60.93647271514254
 20
108.9080208499875
 30
0.0
 10
60.93647271046179
 20
108.8884946354289
 30
0.0
 10
60.93647270603811
 20
108.810389777052
 30
0.0
 10
60.93647270611623
 20
108.7551613020263
 30
0.0
 10
60.93647270621939
 20
108.7080208499545
 30
0.0
  0
SPLINE
  5
157
330
1B
100
AcDbEntity
  8
0
  6
Continuous
 62
     7
370
    25
100
AcDbSpline
210
0.0
220
0.0
230
1.0
 70
    24
 71
     3
 72
    18
 73
    14
 74
     0
 42
0.000000001
 43
0.00000001
 40
0.0
 40
0.0
 40
0.0
 40
0.0
 40
0.2499999999999963
 40
0.2499999999999963
 40
0.3749999999999968
 40
0.3749999999999968
 40
0.4999999999999972
 40
0.4999999999999972
 40
0.6249999999999977
 40
0.6249999999999977
 40
0.7499999999999981
 40
0.7499999999999981
 40
1.0
 40
1.0
 40
1.0
 40
1.0
 10
65.73647270607401
 20
108.9080208498649
 30
0.0
 10
65.7364727061269
 20
108.9080208498664
 30
0.0
 10
65.63337475982846
 20
108.9080208498678
 30
0.0
 10
65.28249744732683
 20
108.9080208498692
 30
0.0
 10
65.13345670134352
 20
108.9080208498697
 30
0.0
 10
64.77464562039933
 20
108.9080208498702
 30
0.0
 10
64.56489983247452
 20
108.9080208498703
 30
0.0
 10
64.09627068345202
 20
108.9080208498703
 30
0.0
 10
63.83749282225013
 20
108.9080208498702
 30
0.0
 10
63.28866623084856
 20
108.9080208498697
 30
0.0
 10
62.99875999890436
 20
108.9080208498693
 30
0.0
 10
62.11246195945705
 20
108.9080208498678
 30
0.0
 10
61.50215814312901
 20
108.9080208498664
 30
0.0
 10
60.93647272132291
 20
108.9080208498649
 30
0.0
  0
SPLINE
  5
158
330
1B
100
AcDbEntity
  8
0
  6
Continuous
 62
     7
370
    25
100
AcDbSpline
210
0.0
220
0.0
230
1.0
 70
     8
 71
     3
 72
    10
 73
     6
 74
     0
 42
0.000000001
 43
0.00000001
 40
0.0
 40
0.0
 40
0.0
 40
0.0
 40
0.5
 40
0.5
 40
1.0
 40
1.0
 40
1.0
 40
1.0
 10
65.93647270596593
 20
108.7080208499545
 30
0.0
 10
65.93647270608898
 20
108.7551613020263
 30
0.0
 10
65.91694649153058
 20
108.8103897770521
 30
0.0
 10
65.83884163315916
 20
108.8884946354288
 30
0.0
 10
65.78361315813879
 20
108.9080208499876
 30
0.0
 10
65.736472706074
 20
108.9080208498649
 30
0.0
  0
SPLINE
  5
15A
330
1B
100
AcDbEntity
  8
0
  6
Continuous
 62
     7
370
    25
100
AcDbSpline
210
0.0
220
0.0
230
1.0
 70
     8
 71
     3
 72
    14
 73
    10
 74
     0
 42
0.000000001
 43
0.00000001
 40
0.0
 40
0.0
 40
0.0
 40
0.0
 40
0.25
 40
0.25
 40
0.5
 40
0.5
 40
0.75
 40
0.75
 40
1.0
 40
1.0
 40
1.0
 40
1.0
 10
65.93647270596301
 20
91.9080208499233
 30
0.0
 10
65.93647270596301
 20
91.908020849861
 30
0.0
 10
65.80714391156302
 20
91.86342471386102
 30
0.0
 10
65.30459683316299
 20
91.69013261786098
 30
0.0
 10
64.93629950889635
 20
91.56313354052766
 30
0.0
 10
64.00771369342966
 20
91.24293153519434
 30
0.0
 10
63.45651780036299
 20
91.052863985861
 30
0.0
 10
62.243261921963
 20
90.63449988986099
 30
0.0
 10
61.59308205342967
 20
90.41029993519435
 30
0.0
 10
60.93647270923816
 20
90.18388291824782
 30
0.0
  0
SPLINE
  5
15D
330
1B
100
AcDbEntity
  8
0
  6
Continuous
 62
     7
370
    25
100
AcDbSpline
210
0.0
220
0.0
230
1.0
 70
    24
 71
     3
 72
    13
 73
     9
 74
     0
 42
0.000000001
 43
0.00000001
 40
0.0
 40
0.0
 40
0.0
 40
0.0
 40
0.1251061622877756
 40
0.3075808712790187
 40
0.4875625771725776
 40
0.6637066016843016
 40
0.834840469174899
 40
0.9999999999999999
 40
0.9999999999999999
 40
0.9999999999999999
 40
0.9999999999999999
 10
19.60553380562386
 20
83.90802084986099
 30
0.0
 10
19.60199183082751
 20
83.90802084986099
 30
0.0
 10
19.59328367709641
 20
83.90802084986096
 30
0.0
 10
20.21009021667787
 20
83.90802084986105
 30
0.0
 10
21.31294060631439
 20
83.90802084986099
 30
0.0
 10
22.88994173377506
 20
83.90802084986103
 30
0.0
 10
24.81351563566063
 20
83.90802084986097
 30
0.0
 10
26.38667866434352
 20
83.90802084986099
 30
0.0
 10
27.1592863605694
 20
83.908020849861
 30
0.0
  0
SPLINE
  5
15E
330
1B
100
AcDbEntity
  8
0
  6
Continuous
 62
     7
370
    25
100
AcDbSpline
210
0.0
220
0.0
230
1.0
 70
     8
 71
     3
 72
    12
 73
     8
 74
     0
 42
0.000000001
 43
0.00000001
 40
0.0
 40
0.0
 40
0.0
 40
0.0
 40
0.5000000000000001
 40
0.5000000000000001
 40
0.75
 40
0.75
 40
1.0
 40
1.0
 40
1.0
 40
1.0
 10
-42.57237412594933
 20
106.0520952259952
 30
0.0
 10
-43.61812106887219
 20
106.5559335376492
 30
0.0
 10
-44.42490670582299
 20
107.1521991436966
 30
0.0
 10
-45.29351262039185
 20
107.9177278977677
 30
0.0
 10
-45.52573787142844
 20
108.1506762735405
 30
0.0
 10
-45.87136260283894
 20
108.5173272039818
 30
0.0
 10
-45.98486532685576
 20
108.6500423806244
 30
0.0
 10
-46.03445409859636
 20
108.7080206206573
 30
0.0
  0
SPLINE
  5
15F
330
1B
100
AcDbEntity
  8
0
  6
Continuous
 62
     7
370
    25
100
AcDbSpline
210
0.0
220
0.0
230
1.0
 70
     8
 71
     3
 72
    14
 73
    10
 74
     0
 42
0.000000001
 43
0.00000001
 40
0.0
 40
0.0
 40
0.0
 40
0.0
 40
0.2499999999999996
 40
0.2499999999999996
 40
0.499999999999999
 40
0.499999999999999
 40
0.7499999999999996
 40
0.7499999999999996
 40
1.0
 40
1.0
 40
1.0
 40
1.0
 10
-45.50335841655271
 20
107.1651227088336
 30
0.0
 10
-45.50364256251429
 20
107.1654721446604
 30
0.0
 10
-45.41474752258102
 20
107.0529665636808
 30
0.0
 10
-45.06506225877103
 20
106.650035667966
 30
0.0
 10
-44.8060521416155
 20
106.3637440540714
 30
0.0
 10
-44.12710630584034
 20
105.7083341294211
 30
0.0
 10
-43.70726706624107
 20
105.3397598532391
 30
0.0
 10
-42.70664785536849
 20
104.5977041984456
 30
0.0
 10
-42.12596772382951
 20
104.2239493885453
 30
0.0
 10
-41.46145670273955
 20
103.8809939058822
 30
0.0
  0
SPLINE
  5
160
330
1B
100
AcDbEntity
  8
0
  6
Continuous
 62
     7
370
    25
100
AcDbSpline
210
0.0
220
0.0
230
1.0
 70
     8
 71
     3
 72
    10
 73
     6
 74
     0
 42
0.000000001
 43
0.00000001
 40
0.0
 40
0.0
 40
0.0
 40
0.0
 40
0.5
 40
0.5
 40
1.0
 40
1.0
 40
1.0
 40
1.0
 10
-46.03445418522579
 20
108.7080208097767
 30
0.0
 10
-45.93754830191801
 20
108.7080208298438
 30
0.0
 10
-45.5963968102466
 20
108.7080208400593
 30
0.0
 10
-44.42911709109647
 20
108.708020850188
 30
0.0
 10
-43.6030731366899
 20
108.7080208501408
 30
0.0
 10
-42.55365466272362
 20
108.708020850048
 30
0.0
  0
SPLINE
  5
161
330
1B
100
AcDbEntity
  8
0
  6
Continuous
 62
     7
370
    25
100
AcDbSpline
210
0.0
220
0.0
230
1.0
 70
     8
 71
     3
 72
    10
 73
     6
 74
     0
 42
0.000000001
 43
0.00000001
 40
0.0
 40
0.0
 40
0.0
 40
0.0
 40
0.5
 40
0.5
 40
1.0
 40
1.0
 40
1.0
 40
1.0
 10
-45.83454974260778
 20
108.9080208498648
 30
0.0
 10
-45.88166767879628
 20
108.9080208499875
 30
0.0
 10
-45.93686977352076
 20
108.8884946354289
 30
0.0
 10
-46.01493731612729
 20
108.8103897652842
 30
0.0
 10
-46.03445419539207
 20
108.7551612780148
 30
0.0
 10
-46.03445418522575
 20
108.7080208097766
 30
0.0
  0
SPLINE
  5
162
330
1B
100
AcDbEntity
  8
0
  6
Continuous
 62
     7
370
    25
100
AcDbSpline
210
0.0
220
0.0
230
1.0
 70
    24
 71
     3
 72
    10
 73
     6
 74
     0
 42
0.000000001
 43
0.00000001
 40
0.0
 40
0.0
 40
0.0
 40
0.0
 40
0.5
 40
0.5
 40
1.0
 40
1.0
 40
1.0
 40
1.0
 10
-45.83454974260781
 20
108.9080208498649
 30
0.0
 10
-45.73752491464551
 20
108.908020849861
 30
0.0
 10
-45.39705547674122
 20
108.908020849861
 30
0.0
 10
-44.2353644458365
 20
108.908020849861
 30
0.0
 10
-43.41589552700491
 20
108.908020849861
 30
0.0
 10
-42.3651886954089
 20
108.9080208498687
 30
0.0
  0
SPLINE
  5
163
330
1B
100
AcDbEntity
  8
0
  6
Continuous
 62
     7
370
    25
100
AcDbSpline
210
0.0
220
0.0
230
1.0
 70
     8
 71
     3
 72
    14
 73
    10
 74
     0
 42
0.000000001
 43
0.00000001
 40
0.0
 40
0.0
 40
0.0
 40
0.0
 40
0.25
 40
0.25
 40
0.5
 40
0.5
 40
0.75
 40
0.75
 40
1.0
 40
1.0
 40
1.0
 40
1.0
 10
66.1364727207069
 20
96.40802084959162
 30
0.0
 10
66.13647271774065
 20
96.76157424027532
 30
0.0
 10
66.13647271508813
 20
97.14301412731105
 30
0.0
 10
66.13647271081294
 20
97.88159582977758
 30
0.0
 10
66.13647270920178
 20
98.23644797475315
 30
0.0
 10
66.1364727070426
 20
98.82223441244436
 30
0.0
 10
66.1364727064877
 20
99.05118687288302
 30
0.0
 10
66.13647270595591
 20
99.34358463355781
 30
0.0
 10
66.136472705963
 20
99.40802084993352
 30
0.0
 10
66.136472705963
 20
99.408020849861
 30
0.0
  0
SPLINE
  5
165
330
1B
100
AcDbEntity
  8
0
  6
Continuous
 62
     7
370
    25
100
AcDbSpline
210
0.0
220
0.0
230
1.0
 70
    24
 71
     3
 72
    18
 73
    14
 74
     0
 42
0.000000001
 43
0.00000001
 40
0.0
 40
0.0
 40
0.0
 40
0.0
 40
0.1250000000000017
 40
0.1250000000000017
 40
0.2500000000000035
 40
0.2500000000000035
 40
0.3750000000000052
 40
0.3750000000000052
 40
0.500000000000007
 40
0.500000000000007
 40
0.7500000000000034
 40
0.7500000000000034
 40
1.0
 40
1.0
 40
1.0
 40
1.0
 10
66.13647271333494
 20
93.40802084992835
 30
0.0
 10
66.13647271333491
 20
93.4080208499656
 30
0.0
 10
66.13647271341283
 20
93.4397368263159
 30
0.0
 10
66.13647271371063
 20
93.56092025827338
 30
0.0
 10
66.13647271393015
 20
93.65023538284736
 30
0.0
 10
66.1364727144743
 20
93.87168866999713
 30
0.0
 10
66.13647271479856
 20
94.00362978215219
 30
0.0
 10
66.13647271550683
 20
94.29186397236123
 30
0.0
 10
66.13647271589056
 20
94.44802084978704
 30
0.0
 10
66.13647271707009
 20
94.92802084968596
 30
0.0
 10
66.13647271788787
 20
95.26082084963467
 30
0.0
 10
66.13647271939762
 20
95.8752208495829
 30
0.0
 10
66.13647272009257
 20
96.1580208495804
 30
0.0
 10
66.1364727207069
 20
96.40802084959162
 30
0.0
  0
SPLINE
  5
166
330
1B
100
AcDbEntity
  8
0
  6
Continuous
 62
     7
370
    25
100
AcDbSpline
210
0.0
220
0.0
230
1.0
 70
     8
 71
     3
 72
     8
 73
     4
 74
     0
 42
0.000000001
 43
0.00000001
 40
0.0
 40
0.0
 40
0.0
 40
0.0
 40
1.0
 40
1.0
 40
1.0
 40
1.0
 10
66.636472705963
 20
96.408020849861
 30
0.0
 10
66.63647269582506
 20
96.40802084967893
 30
0.0
 10
66.46527068094204
 20
96.4080208494969
 30
0.0
 10
66.1364727207069
 20
96.40802084959162
 30
0.0
  0
SPLINE
  5
168
330
1B
100
AcDbEntity
  8
0
  6
Continuous
 62
     7
370
    25
100
AcDbSpline
210
0.0
220
0.0
230
1.0
 70
     8
 71
     3
 72
    10
 73
     6
 74
     0
 42
0.000000001
 43
0.00000001
 40
0.0
 40
0.0
 40
0.0
 40
0.0
 40
0.3532739522137369
 40
0.6774687314832797
 40
1.0
 40
1.0
 40
1.0
 40
1.0
 10
60.88499464984261
 20
90.16613186192788
 30
0.0
 10
61.09922337225854
 20
89.20835560921124
 30
0.0
 10
61.51004692693319
 20
87.37164090407452
 30
0.0
 10
61.7676874453981
 20
84.59929021740872
 30
0.0
 10
61.74685975933416
 20
82.80357098751303
 30
0.0
 10
61.73647270282165
 20
81.908020849861
 30
0.0
  0
SPLINE
  5
169
330
1B
100
AcDbEntity
  8
0
  6
Continuous
 62
     7
370
    25
100
AcDbSpline
210
0.0
220
0.0
230
1.0
 70
     8
 71
     3
 72
    30
 73
    26
 74
     0
 42
0.000000001
 43
0.00000001
 40
0.0
 40
0.0
 40
0.0
 40
0.0
 40
0.1249999999999996
 40
0.1249999999999996
 40
0.1874999999999994
 40
0.1874999999999994
 40
0.2499999999999992
 40
0.2499999999999992
 40
0.3749999999999992
 40
0.3749999999999992
 40
0.4374999999999993
 40
0.4374999999999993
 40
0.4999999999999994
 40
0.4999999999999994
 40
0.5624999999999996
 40
0.5624999999999996
 40
0.6249999999999998
 40
0.6249999999999998
 40
0.7499999999999999
 40
0.7499999999999999
 40
0.8124999999999999
 40
0.8124999999999999
 40
0.875
 40
0.875
 40
1.0
 40
1.0
 40
1.0
 40
1.0
 10
-1.67688290103701
 20
66.40832734086099
 30
0.0
 10
0.0338248969630056
 20
66.32018018286104
 30
0.0
 10
1.722963344296367
 20
66.07859233252769
 30
0.0
 10
4.228613746296368
 20
65.49528800852765
 30
0.0
 10
5.061710642296394
 20
65.26272023019428
 30
0.0
 10
6.69338164896303
 20
64.73155769286112
 30
0.0
 10
7.494659537963008
 20
64.43257229786099
 30
0.0
 10
9.857177248462982
 20
63.43879767536098
 30
0.0
 10
11.37746684916301
 20
62.64798696586101
 30
0.0
 10
13.57860852756303
 20
61.26821699386099
 30
0.0
 10
14.30045285862969
 20
60.77439127052769
 30
0.0
 10
15.69234345596304
 20
59.73862817986095
 30
0.0
 10
16.36556156996303
 20
59.194911478861
 30
0.0
 10
17.66698208296302
 20
58.05623476686099
 30
0.0
 10
18.29519639496301
 20
57.46128177186102
 30
0.0
 10
19.50516468696297
 20
56.21890243586106
 30
0.0
 10
20.08820129516302
 20
55.56995333586102
 30
0.0
 10
21.75359174636293
 20
53.54958635586102
 30
0.0
 10
22.73604195029634
 20
52.12836708219434
 30
0.0
 10
23.98834602229635
 20
49.87578628019431
 30
0.0
 10
24.36915149240744
 20
49.10294467608323
 30
0.0
 10
25.04171672796303
 20
47.51931466186101
 30
0.0
 10
25.32906098996301
 20
46.71916307786099
 30
0.0
 10
26.03436180746301
 20
44.29304824286098
 30
0.0
 10
26.29639601596299
 20
42.641647217861
 30
0.0
 10
26.310048935963
 20
40.95160380786101
 30
0.0
  0
SPLINE
  5
16A
330
1B
100
AcDbEntity
  8
0
  6
Continuous
 62
     7
370
    25
100
AcDbSpline
210
0.0
220
0.0
230
1.0
 70
     8
 71
     3
 72
    10
 73
     6
 74
     0
 42
0.000000001
 43
0.00000001
 40
0.0
 40
0.0
 40
0.0
 40
0.0
 40
0.5
 40
0.5
 40
1.0
 40
1.0
 40
1.0
 40
1.0
 10
19.536472705963
 20
41.5702751524071
 30
0.0
 10
19.536472705963
 20
41.57027519794944
 30
0.0
 10
20.12705024454607
 20
41.51633417383691
 30
0.0
 10
22.42626772606596
 20
41.30633284610957
 30
0.0
 10
24.13447806615145
 20
41.1503117531521
 30
0.0
 10
26.31004895843945
 20
40.951603805098
 30
0.0
  0
SPLINE
  5
16B
330
1B
100
AcDbEntity
  8
0
  6
Continuous
 62
     7
370
    25
100
AcDbSpline
210
0.0
220
0.0
230
1.0
 70
     8
 71
     3
 72
    22
 73
    18
 74
     0
 42
0.000000001
 43
0.00000001
 40
0.0
 40
0.0
 40
0.0
 40
0.0
 40
0.1249999999999998
 40
0.1249999999999998
 40
0.2499999999999996
 40
0.2499999999999996
 40
0.3749999999999993
 40
0.3749999999999993
 40
0.4999999999999994
 40
0.4999999999999994
 40
0.6249999999999996
 40
0.6249999999999996
 40
0.7499999999999997
 40
0.7499999999999997
 40
0.8749999999999998
 40
0.8749999999999998
 40
1.0
 40
1.0
 40
1.0
 40
1.0
 10
-4.177065999930702
 20
66.5371535696113
 30
0.0
 10
-2.744230999613849
 20
66.46332428520945
 30
0.0
 10
-1.267550797068438
 20
66.26286746471122
 30
0.0
 10
1.705618135602643
 20
65.56889360537781
 30
0.0
 10
3.201804179270913
 20
65.07497542092315
 30
0.0
 10
6.12682978769338
 20
63.77888895253203
 30
0.0
 10
7.555130209093559
 20
62.9765154670114
 30
0.0
 10
10.25089004334253
 20
61.08359509715908
 30
0.0
 10
11.51773576620024
 20
59.99318425742495
 30
0.0
 10
13.80880346327532
 20
57.58102598160249
 30
0.0
 10
14.83257973721228
 20
56.25974780254283
 30
0.0
 10
16.58427261729736
 20
53.47015272996365
 30
0.0
 10
17.31208493862535
 20
52.00245571402434
 30
0.0
 10
18.45593697941603
 20
49.01461076153745
 30
0.0
 10
18.87220937208089
 20
47.49499069469697
 30
0.0
 10
19.41226914038815
 20
44.49004998387563
 30
0.0
 10
19.53647270596301
 20
43.00501098300157
 30
0.0
 10
19.536472705963
 20
41.5702751524071
 30
0.0
  0
SPLINE
  5
16C
330
1B
100
AcDbEntity
  8
0
  6
Continuous
 62
     7
370
    25
100
AcDbSpline
210
0.0
220
0.0
230
1.0
 70
     8
 71
     3
 72
    15
 73
    11
 74
     0
 42
0.000000001
 43
0.00000001
 40
0.0
 40
0.0
 40
0.0
 40
0.0
 40
0.1381590515692937
 40
0.2601964545343555
 40
0.3602977395531506
 40
0.4348814376656141
 40
0.4821814164683206
 40
0.5015279765072496
 40
0.7597758880300878
 40
0.9999999999999999
 40
0.9999999999999999
 40
0.9999999999999999
 40
0.9999999999999999
 10
-98.8635305418754
 20
81.90802084986099
 30
0.0
 10
-98.87790623773766
 20
81.90713024315714
 30
0.0
 10
-98.9049801431556
 20
81.90545295380046
 30
0.0
 10
-98.94081806296485
 20
81.89346161023171
 30
0.0
 10
-98.96824684430668
 20
81.87909642304919
 30
0.0
 10
-98.98711230664051
 20
81.8655974939525
 30
0.0
 10
-98.99826389073449
 20
81.85593066983019
 30
0.0
 10
-99.02268351193918
 20
81.83241518275932
 30
0.0
 10
-99.0549309178955
 20
81.78577412158465
 30
0.0
 10
-99.0607328594114
 20
81.73330622723117
 30
0.0
 10
-99.06352893658861
 20
81.70802084964936
 30
0.0
  0
SPLINE
  5
16D
330
1B
100
AcDbEntity
  8
0
  6
Continuous
 62
     7
370
    25
100
AcDbSpline
210
0.0
220
0.0
230
1.0
 70
    24
 71
     3
 72
    20
 73
    16
 74
     0
 42
0.000000001
 43
0.00000001
 40
0.0
 40
0.0
 40
0.0
 40
0.0
 40
0.1249999999999992
 40
0.1249999999999992
 40
0.2499999999999984
 40
0.2499999999999984
 40
0.3749999999999977
 40
0.3749999999999977
 40
0.4999999999999969
 40
0.4999999999999969
 40
0.6249999999999961
 40
0.6249999999999961
 40
0.7499999999999953
 40
0.7499999999999953
 40
1.0
 40
1.0
 40
1.0
 40
1.0
 10
-98.86352836648119
 20
81.908020849861
 30
0.0
 10
-98.7959225625704
 20
81.90802084986102
 30
0.0
 10
-98.70691313737032
 20
81.908020849861
 30
0.0
 10
-98.48566286510375
 20
81.90802084986103
 30
0.0
 10
-98.35369772303699
 20
81.90802084986103
 30
0.0
 10
-98.05541091983702
 20
81.90802084986102
 30
0.0
 10
-97.8893324277704
 20
81.908020849861
 30
0.0
 10
-97.51964390030376
 20
81.908020849861
 30
0.0
 10
-97.31775876317029
 20
81.90802084986103
 30
0.0
 10
-96.89121278690364
 20
81.90802084986102
 30
0.0
 10
-96.66592399877021
 20
81.908020849861
 30
0.0
 10
-96.1909263665036
 20
81.908020849861
 30
0.0
 10
-95.9424643673704
 20
81.90802084986102
 30
0.0
 10
-95.1816189733704
 20
81.90802084986102
 30
0.0
 10
-94.64944467803703
 20
81.90802084986103
 30
0.0
 10
-94.11162279897897
 20
81.908020849861
 30
0.0
  0
SPLINE
  5
16E
330
1B
100
AcDbEntity
  8
0
  6
Continuous
 62
     7
370
    25
100
AcDbSpline
210
0.0
220
0.0
230
1.0
 70
     8
 71
     3
 72
    10
 73
     6
 74
     0
 42
0.000000001
 43
0.00000001
 40
0.0
 40
0.0
 40
0.0
 40
0.0
 40
0.5
 40
0.5
 40
1.0
 40
1.0
 40
1.0
 40
1.0
 10
-94.1116227367782
 20
81.7080208480937
 30
0.0
 10
-94.11162280210573
 20
81.75516130016918
 30
0.0
 10
-94.1116228576549
 20
81.8103897757
 30
0.0
 10
-94.1116228819458
 20
81.8884946350288
 30
0.0
 10
-94.11162284964566
 20
81.90802084986102
 30
0.0
 10
-94.11162279897897
 20
81.908020849861
 30
0.0
  0
SPLINE
  5
16F
330
1B
100
AcDbEntity
  8
0
  6
Continuous
 62
     7
370
    25
100
AcDbSpline
210
0.0
220
0.0
230
1.0
 70
     8
 71
     3
 72
    20
 73
    16
 74
     0
 42
0.000000001
 43
0.00000001
 40
0.0
 40
0.0
 40
0.0
 40
0.0
 40
0.125
 40
0.125
 40
0.25
 40
0.25
 40
0.375
 40
0.375
 40
0.5
 40
0.5
 40
0.625
 40
0.625
 40
0.75
 40
0.75
 40
1.0
 40
1.0
 40
1.0
 40
1.0
 10
-99.06352831989942
 20
81.67621278423732
 30
0.0
 10
-98.99478564660396
 20
81.67649377360107
 30
0.0
 10
-98.90364773012601
 20
81.67687018059331
 30
0.0
 10
-98.67775724420738
 20
81.67783205622608
 30
0.0
 10
-98.54144873211129
 20
81.67842446688253
 30
0.0
 10
-98.230370160728
 20
81.67983372439807
 30
0.0
 10
-98.05682298631672
 20
81.68064487056058
 30
0.0
 10
-97.6748244946074
 20
81.68252419201416
 30
0.0
 10
-97.46443675615178
 20
81.68360264868262
 30
0.0
 10
-97.01622179363922
 20
81.68604842322223
 30
0.0
 10
-96.78063486009675
 20
81.68740279799135
 30
0.0
 10
-96.28743312883432
 20
81.69044778896986
 30
0.0
 10
-96.02850129204649
 20
81.69214718352936
 30
0.0
 10
-95.22591966478271
 20
81.69786899674119
 30
0.0
 10
-94.67589057917843
 20
81.70235045515714
 30
0.0
 10
-94.111622659037
 20
81.70802084986099
 30
0.0
  0
SPLINE
  5
170
330
1B
100
AcDbEntity
  8
0
  6
Continuous
 62
     7
370
    25
100
AcDbSpline
210
0.0
220
0.0
230
1.0
 70
     8
 71
     3
 72
     8
 73
     4
 74
     0
 42
0.000000001
 43
0.00000001
 40
0.0
 40
0.0
 40
0.0
 40
0.0
 40
1.0
 40
1.0
 40
1.0
 40
1.0
 10
-99.06352762092541
 20
81.67621279148621
 30
0.0
 10
-99.063527294037
 20
81.6867053047943
 30
0.0
 10
-99.063527294037
 20
81.697307990661
 30
0.0
 10
-99.06352785819239
 20
81.7080208496495
 30
0.0
  0
SPLINE
  5
171
330
1B
100
AcDbEntity
  8
0
  6
Continuous
 62
     7
370
    25
100
AcDbSpline
210
0.0
220
0.0
230
1.0
 70
     8
 71
     3
 72
    25
 73
    21
 74
     0
 42
0.000000001
 43
0.00000001
 40
0.0
 40
0.0
 40
0.0
 40
0.0
 40
0.1250000000000097
 40
0.1875000000000103
 40
0.1875000000000103
 40
0.2500000000000109
 40
0.2500000000000109
 40
0.3750000000000016
 40
0.3750000000000016
 40
0.4375000000000061
 40
0.4375000000000061
 40
0.5000000000000107
 40
0.5000000000000107
 40
0.6250000000000088
 40
0.6250000000000088
 40
0.6875000000000016
 40
0.6875000000000016
 40
0.7499999999999942
 40
0.7499999999999942
 40
1.0
 40
1.0
 40
1.0
 40
1.0
 10
-99.06352762092541
 20
81.67621279148621
 30
0.0
 10
-99.0635272945376
 20
81.62227417031487
 30
0.0
 10
-99.06352301169977
 20
81.54508377447496
 30
0.0
 10
-99.06352492765643
 20
81.47359949042315
 30
0.0
 10
-99.06352641227068
 20
81.42722560146123
 30
0.0
 10
-99.06352729515135
 20
81.40649459229607
 30
0.0
 10
-99.06352729453843
 20
81.33535759992206
 30
0.0
 10
-99.06352333332413
 20
81.29123515006681
 30
0.0
 10
-99.06352333548904
 20
81.23010942911868
 30
0.0
 10
-99.06352407871196
 20
81.2105771098505
 30
0.0
 10
-99.0635260444399
 20
81.1732148231355
 30
0.0
 10
-99.06352729418856
 20
81.15684704339284
 30
0.0
 10
-99.06352729375439
 20
81.10154790781809
 30
0.0
 10
-99.06352145952498
 20
81.06898368110907
 30
0.0
 10
-99.063521457635
 20
81.02669344008704
 30
0.0
 10
-99.06352255152541
 20
81.01368918985412
 30
0.0
 10
-99.06352546967096
 20
80.989880571534
 30
0.0
 10
-99.06352729394438
 20
80.97958661167506
 30
0.0
 10
-99.06352729356122
 20
80.92854557758012
 30
0.0
 10
-99.063527293562
 20
80.90802084709043
 30
0.0
 10
-99.06352729378679
 20
80.90802084823501
 30
0.0
  0
SPLINE
  5
172
330
1B
100
AcDbEntity
  8
0
  6
Continuous
 62
     7
370
    25
100
AcDbSpline
210
0.0
220
0.0
230
1.0
 70
     8
 71
     3
 72
    14
 73
    10
 74
     0
 42
0.000000001
 43
0.00000001
 40
0.0
 40
0.0
 40
0.0
 40
0.0
 40
0.25
 40
0.25
 40
0.5
 40
0.5
 40
0.75
 40
0.75
 40
1.0
 40
1.0
 40
1.0
 40
1.0
 10
-94.1116227367782
 20
81.7080208480937
 30
0.0
 10
-93.894058348747
 20
80.898123968261
 30
0.0
 10
-93.55035010111102
 20
80.12752670446103
 30
0.0
 10
-92.63588918249681
 20
78.72152876926098
 30
0.0
 10
-92.0708379373944
 20
78.09489326086099
 30
0.0
 10
-90.76659286051476
 20
77.040372131261
 30
0.0
 10
-90.03553049384918
 20
76.61906094346102
 30
0.0
 10
-88.46921885512577
 20
76.01928029386102
 30
0.0
 10
-87.64373419385198
 20
75.844550142161
 30
0.0
 10
-86.8062350535006
 20
75.8013965348826
 30
0.0
  0
SPLINE
  5
173
330
1B
100
AcDbEntity
  8
0
  6
Continuous
 62
     7
370
    25
100
AcDbSpline
210
0.0
220
0.0
230
1.0
 70
     8
 71
     3
 72
    18
 73
    14
 74
     0
 42
0.000000001
 43
0.00000001
 40
0.0
 40
0.0
 40
0.0
 40
0.0
 40
0.2499999999999982
 40
0.2499999999999982
 40
0.3749999999999974
 40
0.3749999999999974
 40
0.4999999999999968
 40
0.4999999999999968
 40
0.6249999999999961
 40
0.6249999999999961
 40
0.7499999999999953
 40
0.7499999999999953
 40
1.0
 40
1.0
 40
1.0
 40
1.0
 10
-87.06352729234293
 20
70.80802084988287
 30
0.0
 10
-87.06352729261117
 20
70.80802085021801
 30
0.0
 10
-87.05800097964669
 20
70.9152722624951
 30
0.0
 10
-87.03919306042428
 20
71.28028522962813
 30
0.0
 10
-87.0312040961579
 20
71.43533032081523
 30
0.0
 10
-87.01197090678347
 20
71.80859668104748
 30
0.0
 10
-87.00072799745979
 20
72.02679241414081
 30
0.0
 10
-86.97560827967405
 20
72.51430103958147
 30
0.0
 10
-86.96173712627602
 20
72.78350418180169
 30
0.0
 10
-86.93231862133086
 20
73.35444113262814
 30
0.0
 10
-86.91677890805407
 20
73.65602670220899
 30
0.0
 10
-86.8692710734703
 20
74.57803068057817
 30
0.0
 10
-86.836557233372
 20
75.21292156637213
 30
0.0
 10
-86.80623505350049
 20
75.8013965348826
 30
0.0
  0
SPLINE
  5
174
330
1B
100
AcDbEntity
  8
0
  6
Continuous
 62
     7
370
    25
100
AcDbSpline
210
0.0
220
0.0
230
1.0
 70
     8
 71
     3
 72
    22
 73
    18
 74
     0
 42
0.000000001
 43
0.00000001
 40
0.0
 40
0.0
 40
0.0
 40
0.0
 40
0.125
 40
0.125
 40
0.25
 40
0.25
 40
0.375
 40
0.375
 40
0.5
 40
0.5
 40
0.625
 40
0.625
 40
0.75
 40
0.75
 40
0.875
 40
0.875
 40
1.0
 40
1.0
 40
1.0
 40
1.0
 10
-99.06352729378675
 20
80.90802084823505
 30
0.0
 10
-98.91736832013251
 20
80.26351542564002
 30
0.0
 10
-98.71818101439175
 20
79.61436381319645
 30
0.0
 10
-98.20755035077926
 20
78.33256954543745
 30
0.0
 10
-97.8960449848984
 20
77.7000320870033
 30
0.0
 10
-97.16300251772579
 20
76.48015215990013
 30
0.0
 10
-96.74145892225667
 20
75.89294338276636
 30
0.0
 10
-95.80029339626638
 20
74.79150005599851
 30
0.0
 10
-95.2807324924705
 20
74.27739272598254
 30
0.0
 10
-94.16442174207658
 20
73.34496465648108
 30
0.0
 10
-93.56778788013695
 20
72.92672714035473
 30
0.0
 10
-92.32442789697645
 20
72.20058902933093
 30
0.0
 10
-91.67783927896062
 20
71.89270540349062
 30
0.0
 10
-90.36392822681383
 20
71.39199618399144
 30
0.0
 10
-89.69672626110743
 20
71.19912405821269
 30
0.0
 10
-88.36919422764792
 20
70.92380780007406
 30
0.0
 10
-87.70894104430825
 20
70.84127690198589
 30
0.0
 10
-87.06352729234293
 20
70.80802084988287
 30
0.0
  0
SPLINE
  5
175
330
1B
100
AcDbEntity
  8
0
  6
Continuous
 62
     7
370
    25
100
AcDbSpline
210
0.0
220
0.0
230
1.0
 70
    24
 71
     3
 72
    18
 73
    14
 74
     0
 42
0.000000001
 43
0.00000001
 40
0.0
 40
0.0
 40
0.0
 40
0.0
 40
0.2500000000000007
 40
0.2500000000000007
 40
0.3750000000000006
 40
0.3750000000000006
 40
0.5000000000000004
 40
0.5000000000000004
 40
0.6250000000000003
 40
0.6250000000000003
 40
0.7500000000000002
 40
0.7500000000000002
 40
1.0
 40
1.0
 40
1.0
 40
1.0
 10
-1.419590642036998
 20
71.401703021861
 30
0.0
 10
-1.449912825551281
 20
70.81322805435315
 30
0.0
 10
-1.48262666894584
 20
70.17833716928212
 30
0.0
 10
-1.530134507606262
 20
69.2563331916039
 30
0.0
 10
-1.54567422209867
 20
68.95474762219088
 30
0.0
 10
-1.575092729165919
 20
68.38381067161235
 30
0.0
 10
-1.588963883470323
 20
68.11460752947272
 30
0.0
 10
-1.614083602775089
 20
67.6270989041551
 30
0.0
 10
-1.625326512711609
 20
67.40890317110471
 30
0.0
 10
-1.644559703071004
 20
67.03563681096661
 30
0.0
 10
-1.652548667710085
 20
66.88059171983089
 30
0.0
 10
-1.671356587807205
 20
66.51557875291084
 30
0.0
 10
-1.676882901037
 20
66.40832734086099
 30
0.0
 10
-1.676882901037
 20
66.40832734086099
 30
0.0
  0
SPLINE
  5
178
330
1B
100
AcDbEntity
  8
0
  6
Continuous
 62
     7
370
    25
100
AcDbSpline
210
0.0
220
0.0
230
1.0
 70
     8
 71
     3
 72
    72
 73
    68
 74
     0
 42
0.000000001
 43
0.00000001
 40
0.0
 40
0.0
 40
0.0
 40
0.0
 40
0.0624999999999973
 40
0.0937499999999959
 40
0.1093749999999952
 40
0.1171874999999948
 40
0.1171874999999948
 40
0.1249999999999943
 40
0.1249999999999943
 40
0.1874999999999915
 40
0.2187499999999903
 40
0.2343749999999897
 40
0.2421874999999894
 40
0.2421874999999894
 40
0.2499999999999892
 40
0.2499999999999892
 40
0.3124999999999887
 40
0.3437499999999888
 40
0.3437499999999888
 40
0.3749999999999889
 40
0.3749999999999889
 40
0.406249999999989
 40
0.406249999999989
 40
0.437499999999989
 40
0.437499999999989
 40
0.4999999999999891
 40
0.4999999999999891
 40
0.5312499999999893
 40
0.5468749999999893
 40
0.5546874999999895
 40
0.5546874999999895
 40
0.5624999999999896
 40
0.5624999999999896
 40
0.5937499999999897
 40
0.6093749999999897
 40
0.6171874999999897
 40
0.6171874999999897
 40
0.6249999999999896
 40
0.6249999999999896
 40
0.6562499999999901
 40
0.6718749999999903
 40
0.6796874999999905
 40
0.6796874999999905
 40
0.6874999999999906
 40
0.6874999999999906
 40
0.7187499999999911
 40
0.7343749999999915
 40
0.7421874999999916
 40
0.7460937499999917
 40
0.7460937499999917
 40
0.7499999999999917
 40
0.7499999999999917
 40
0.7812499999999923
 40
0.7968749999999926
 40
0.8046874999999927
 40
0.8085937499999926
 40
0.8085937499999926
 40
0.8124999999999923
 40
0.8124999999999923
 40
0.8437499999999918
 40
0.8593749999999915
 40
0.8671874999999913
 40
0.8710937499999913
 40
0.8710937499999913
 40
0.8749999999999913
 40
0.8749999999999913
 40
1.0
 40
1.0
 40
1.0
 40
1.0
 10
-1.419590713201052
 20
71.401703015217
 30
0.0
 10
-0.4174233515479124
 20
71.35006461226101
 30
0.0
 10
1.079729551449558
 20
71.20431879653604
 30
0.0
 10
2.815736482169869
 20
70.91477757494232
 30
0.0
 10
3.681072083502549
 20
70.74013085500007
 30
0.0
 10
4.051358513210639
 20
70.65888023735086
 30
0.0
 10
4.298089091871883
 20
70.60329048705401
 30
0.0
 10
4.422821513865132
 20
70.5744450898235
 30
0.0
 10
5.519089868430312
 20
70.31453984206107
 30
0.0
 10
6.963179471136737
 20
69.90404257591115
 30
0.0
 10
8.617147985045152
 20
69.31320446108606
 30
0.0
 10
9.436431569687105
 20
68.98980424426107
 30
0.0
 10
9.785902961895296
 20
68.84520818860491
 30
0.0
 10
10.0185171913526
 20
68.7474783820049
 30
0.0
 10
10.13617598551043
 20
68.69728265101108
 30
0.0
 10
11.16582447100413
 20
68.25148808236108
 30
0.0
 10
12.51040078113182
 20
67.59966901336121
 30
0.0
 10
13.81254458546349
 20
66.86171047816109
 30
0.0
 10
14.67121100928557
 20
66.35059601776113
 30
0.0
 10
15.09432719252547
 20
66.08645052226115
 30
0.0
 10
15.93713933649243
 20
65.53508628166112
 30
0.0
 10
16.35235167582641
 20
65.25063045533606
 30
0.0
 10
17.17038888919525
 20
64.664171390636
 30
0.0
 10
17.57530345763243
 20
64.36053075526101
 30
0.0
 10
18.75892779858093
 20
63.43311211306101
 30
0.0
 10
19.51764445681223
 20
62.78498746216102
 30
0.0
 10
20.61893732356186
 20
61.759871134361
 30
0.0
 10
21.15737587475025
 20
61.23677318026096
 30
0.0
 10
21.76419039064381
 20
60.60804760096098
 30
0.0
 10
22.01967579877835
 20
60.33464135993601
 30
0.0
 10
22.1889820806858
 20
60.15149221673597
 30
0.0
 10
22.2719345340771
 20
60.060796193186
 30
0.0
 10
22.6960737502913
 20
59.59194322606101
 30
0.0
 10
23.19094923511105
 20
59.02017848847353
 30
0.0
 10
23.74364371178541
 20
58.33712256813914
 30
0.0
 10
23.9752284327283
 20
58.0409563751782
 30
0.0
 10
24.12844394880375
 20
57.84275048178444
 30
0.0
 10
24.20359470544566
 20
57.74441822926102
 30
0.0
 10
24.58511126846526
 20
57.239336789261
 30
0.0
 10
25.02702483894351
 20
56.62585973074851
 30
0.0
 10
25.51475463716397
 20
55.89722266742039
 30
0.0
 10
25.71781682911472
 20
55.58218239133756
 30
0.0
 10
25.85186609831975
 20
55.3715405964063
 30
0.0
 10
25.91729187893495
 20
55.26742164293599
 30
0.0
 10
26.25046788116875
 20
54.730195354061
 30
0.0
 10
26.63258832749988
 20
54.08007308656102
 30
0.0
 10
27.04743669127495
 20
53.31205834632348
 30
0.0
 10
27.24712116725953
 20
52.92566628583295
 30
0.0
 10
27.33104171998807
 20
52.75955868340015
 30
0.0
 10
27.38662019771645
 20
52.64870672509387
 30
0.0
 10
27.41344898343383
 20
52.59479609221106
 30
0.0
 10
27.66722068631
 20
52.08079114816102
 30
0.0
 10
27.98579758624151
 20
51.39186451643604
 30
0.0
 10
28.32284623766423
 20
50.58184004335476
 30
0.0
 10
28.4827144637512
 20
50.17525862279697
 30
0.0
 10
28.54937453929758
 20
50.00067318884002
 30
0.0
 10
28.59340239444162
 20
49.88420817648691
 30
0.0
 10
28.61474510336172
 20
49.82719377548607
 30
0.0
 10
28.81334678390418
 20
49.29112951216099
 30
0.0
 10
29.05677542366039
 20
48.57456883099849
 30
0.0
 10
29.30337170168347
 20
47.7354167920329
 30
0.0
 10
29.41731889027194
 20
47.31504962814773
 30
0.0
 10
29.46414962457627
 20
47.13472274125372
 30
0.0
 10
29.49492483075905
 20
47.01446714311457
 30
0.0
 10
29.50964939045623
 20
46.95609380657979
 30
0.0
 10
30.01727919848454
 20
44.91211433326102
 30
0.0
 10
30.26340274177101
 20
42.93126392776102
 30
0.0
 10
30.26340276357418
 20
40.95160381129434
 30
0.0
  0
SPLINE
  5
17D
330
1B
100
AcDbEntity
  8
0
  6
Continuous
 62
     7
370
    25
100
AcDbSpline
210
0.0
220
0.0
230
1.0
 70
     8
 71
     3
 72
    10
 73
     6
 74
     0
 42
0.000000001
 43
0.00000001
 40
0.0
 40
0.0
 40
0.0
 40
0.0
 40
0.5
 40
0.5
 40
1.0
 40
1.0
 40
1.0
 40
1.0
 10
60.93647269982966
 20
81.9080208498649
 30
0.0
 10
60.93647270229751
 20
81.90802084998762
 30
0.0
 10
60.93647270416658
 20
81.88849463542888
 30
0.0
 10
60.93647270588789
 20
81.81038977704604
 30
0.0
 10
60.93647270580978
 20
81.75516130201407
 30
0.0
 10
60.93647270570661
 20
81.70802084993399
 30
0.0
  0
SPLINE
  5
17F
330
1B
100
AcDbEntity
  8
0
  6
Continuous
 62
     7
370
    25
100
AcDbSpline
210
0.0
220
0.0
230
1.0
 70
     8
 71
     3
 72
    14
 73
    10
 74
     0
 42
0.000000001
 43
0.00000001
 40
0.0
 40
0.0
 40
0.0
 40
0.0
 40
0.25
 40
0.25
 40
0.5
 40
0.5
 40
0.75
 40
0.75
 40
1.0
 40
1.0
 40
1.0
 40
1.0
 10
26.31004895843945
 20
40.951603805098
 30
0.0
 10
26.53469935399679
 20
40.95160380551145
 30
0.0
 10
26.79756318475296
 20
40.95160380597247
 30
0.0
 10
27.38758652598669
 20
40.95160380696358
 30
0.0
 10
27.71463720281481
 20
40.95160380749344
 30
0.0
 10
28.40899658465647
 20
40.95160380858177
 30
0.0
 10
28.77606043656181
 20
40.95160380913983
 30
0.0
 10
29.5199256867832
 20
40.95160381023941
 30
0.0
 10
29.89647178459585
 20
40.95160381078058
 30
0.0
 10
30.26340276357418
 20
40.95160381129435
 30
0.0
  0
SPLINE
  5
181
330
1B
100
AcDbEntity
  8
0
  6
Continuous
 62
     7
370
    25
100
AcDbSpline
210
0.0
220
0.0
230
1.0
 70
     8
 71
     3
 72
    14
 73
    10
 74
     0
 42
0.000000001
 43
0.00000001
 40
0.0
 40
0.0
 40
0.0
 40
0.0
 40
0.25
 40
0.25
 40
0.5
 40
0.5
 40
0.75
 40
0.75
 40
1.0
 40
1.0
 40
1.0
 40
1.0
 10
30.26340276617139
 20
-34.39197915024152
 30
0.0
 10
29.89647178751499
 20
-34.39197915030477
 30
0.0
 10
29.51992568926483
 20
-34.39197915035531
 30
0.0
 10
28.7760604367413
 20
-34.39197915042645
 30
0.0
 10
28.40899658297221
 20
-34.39197915044708
 30
0.0
 10
27.71463719631
 20
-34.39197915045821
 30
0.0
 10
27.38758651652887
 20
-34.39197915044874
 30
0.0
 10
26.79756316880498
 20
-34.39197915040439
 30
0.0
 10
26.53469933451645
 20
-34.39197915036958
 30
0.0
 10
26.31004893540774
 20
-34.39197915032598
 30
0.0
  0
SPLINE
  5
182
330
1B
100
AcDbEntity
  8
0
  6
Continuous
 62
     7
370
    25
100
AcDbSpline
210
0.0
220
0.0
230
1.0
 70
     8
 71
     3
 72
    18
 73
    14
 74
     0
 42
0.000000001
 43
0.00000001
 40
0.0
 40
0.0
 40
0.0
 40
0.0
 40
0.2499999999999938
 40
0.2499999999999938
 40
0.3749999999999948
 40
0.3749999999999948
 40
0.4999999999999959
 40
0.4999999999999959
 40
0.6249999999999969
 40
0.6249999999999969
 40
0.7499999999999979
 40
0.7499999999999979
 40
1.0
 40
1.0
 40
1.0
 40
1.0
 10
60.93647270570662
 20
81.70802084993403
 30
0.0
 10
61.52572835679003
 20
81.70802084999457
 30
0.0
 10
62.16146150176519
 20
81.70802085004887
 30
0.0
 10
63.08468862971841
 20
81.70802085010617
 30
0.0
 10
63.38667428901825
 20
81.70802085012126
 30
0.0
 10
63.95836865679566
 20
81.70802085014164
 30
0.0
 10
64.22792892959036
 20
81.70802085014687
 30
0.0
 10
64.7160842942865
 20
81.70802085014685
 30
0.0
 10
64.9345694904635
 20
81.70802085014161
 30
0.0
 10
65.30833103373418
 20
81.70802085012126
 30
0.0
 10
65.46358181099922
 20
81.70802085010615
 30
0.0
 10
65.82907901191264
 20
81.70802085004885
 30
0.0
 10
65.9364727059677
 20
81.70802084999458
 30
0.0
 10
65.93647270596593
 20
81.70802084993403
 30
0.0
  0
SPLINE
  5
183
330
1B
100
AcDbEntity
  8
0
  6
Continuous
 62
     7
370
    25
100
AcDbSpline
210
0.0
220
0.0
230
1.0
 70
    24
 71
     3
 72
    12
 73
     8
 74
     0
 42
0.000000001
 43
0.00000001
 40
0.0
 40
0.0
 40
0.0
 40
0.0
 40
0.1975253871512611
 40
0.3952103195952818
 40
0.592890998095894
 40
0.8254442955677215
 40
1.0
 40
1.0
 40
1.0
 40
1.0
 10
60.93647269982966
 20
81.9080208498649
 30
0.0
 10
61.40520253412834
 20
81.90802084986329
 30
0.0
 10
62.34304080539405
 20
81.90802084986007
 30
0.0
 10
63.63361821388158
 20
81.9080208498612
 30
0.0
 10
64.74088161523899
 20
81.90802084986115
 30
0.0
 10
65.51380453129818
 20
81.90802084985992
 30
0.0
 10
65.62018187213552
 20
81.90802084986275
 30
0.0
 10
65.6657931742159
 20
81.90802084986393
 30
0.0
  0
SPLINE
  5
184
330
1B
100
AcDbEntity
  8
0
  6
Continuous
 62
     7
370
    25
100
AcDbSpline
210
0.0
220
0.0
230
1.0
 70
     8
 71
     3
 72
    10
 73
     6
 74
     0
 42
0.000000001
 43
0.00000001
 40
0.0
 40
0.0
 40
0.0
 40
0.0
 40
0.5
 40
0.5
 40
1.0
 40
1.0
 40
1.0
 40
1.0
 10
65.93647270596588
 20
81.70802084993402
 30
0.0
 10
65.93647270608895
 20
81.75516130201409
 30
0.0
 10
65.91694649153057
 20
81.81038977704608
 30
0.0
 10
65.83884163316718
 20
81.88849463542884
 30
0.0
 10
65.78361315815513
 20
81.90802084998755
 30
0.0
 10
65.73647270610137
 20
81.90802084986488
 30
0.0
  0
SPLINE
  5
185
330
1B
100
AcDbEntity
  8
0
  6
Continuous
 62
     7
370
    25
100
AcDbSpline
210
0.0
220
0.0
230
1.0
 70
     8
 71
     3
 72
    10
 73
     6
 74
     0
 42
0.000000001
 43
0.00000001
 40
0.0
 40
0.0
 40
0.0
 40
0.0
 40
0.5
 40
0.5
 40
1.0
 40
1.0
 40
1.0
 40
1.0
 10
30.26340277344033
 20
-34.59197915014285
 30
0.0
 10
30.26340277365064
 20
-34.59197915026553
 30
0.0
 10
30.26340277380993
 20
-34.57245293570682
 30
0.0
 10
30.26340277168089
 20
-34.49434807733266
 30
0.0
 10
30.2634027693065
 20
-34.43911960230971
 30
0.0
 10
30.26340276617139
 20
-34.3919791502415
 30
0.0
  0
SPLINE
  5
186
330
1B
100
AcDbEntity
  8
0
  6
Continuous
 62
     7
370
    25
100
AcDbSpline
210
0.0
220
0.0
230
1.0
 70
     8
 71
     3
 72
    10
 73
     6
 74
     0
 42
0.000000001
 43
0.00000001
 40
0.0
 40
0.0
 40
0.0
 40
0.0
 40
0.5
 40
0.5
 40
1.0
 40
1.0
 40
1.0
 40
1.0
 10
26.46818308243107
 20
-34.59197915014671
 30
0.0
 10
26.43091050805729
 20
-34.59197915026785
 30
0.0
 10
26.38724296959001
 20
-34.57245293570797
 30
0.0
 10
26.32548774311008
 20
-34.49434807735739
 30
0.0
 10
26.31004893571474
 20
-34.43911960236017
 30
0.0
 10
26.31004893540775
 20
-34.39197915032598
 30
0.0
  0
SPLINE
  5
187
330
1B
100
AcDbEntity
  8
0
  6
Continuous
 62
     7
370
    25
100
AcDbSpline
210
0.0
220
0.0
230
1.0
 70
     8
 71
     3
 72
    18
 73
    14
 74
     0
 42
0.000000001
 43
0.00000001
 40
0.0
 40
0.0
 40
0.0
 40
0.0
 40
0.2499999999999978
 40
0.2499999999999978
 40
0.3749999999999979
 40
0.3749999999999979
 40
0.499999999999998
 40
0.499999999999998
 40
0.6249999999999981
 40
0.6249999999999981
 40
0.7499999999999982
 40
0.7499999999999982
 40
1.0
 40
1.0
 40
1.0
 40
1.0
 10
65.93647270596593
 20
-34.39197915024152
 30
0.0
 10
65.93647270596769
 20
-34.39197915029615
 30
0.0
 10
65.82907901191264
 20
-34.39197915034513
 30
0.0
 10
65.46358181099919
 20
-34.39197915039681
 30
0.0
 10
65.30833103373415
 20
-34.39197915041044
 30
0.0
 10
64.9345694904635
 20
-34.39197915042878
 30
0.0
 10
64.71608429428646
 20
-34.39197915043351
 30
0.0
 10
64.22792892959035
 20
-34.39197915043351
 30
0.0
 10
63.95836865679562
 20
-34.39197915042878
 30
0.0
 10
63.38667428901823
 20
-34.39197915041044
 30
0.0
 10
63.0846886297184
 20
-34.39197915039682
 30
0.0
 10
62.16146150176522
 20
-34.39197915034513
 30
0.0
 10
61.52572835679004
 20
-34.39197915029615
 30
0.0
 10
60.93647270570662
 20
-34.39197915024152
 30
0.0
  0
SPLINE
  5
188
330
1B
100
AcDbEntity
  8
0
  6
Continuous
 62
     7
370
    25
100
AcDbSpline
210
0.0
220
0.0
230
1.0
 70
     8
 71
     3
 72
    10
 73
     6
 74
     0
 42
0.000000001
 43
0.00000001
 40
0.0
 40
0.0
 40
0.0
 40
0.0
 40
0.5
 40
0.5
 40
1.0
 40
1.0
 40
1.0
 40
1.0
 10
65.73647270606206
 20
-34.5919791501429
 30
0.0
 10
65.78361315813167
 20
-34.59197915026559
 30
0.0
 10
65.83884163315574
 20
-34.57245293570686
 30
0.0
 10
65.91694649153061
 20
-34.49434807733266
 30
0.0
 10
65.936472706089
 20
-34.43911960230971
 30
0.0
 10
65.93647270596591
 20
-34.39197915024152
 30
0.0
  0
SPLINE
  5
189
330
1B
100
AcDbEntity
  8
0
  6
Continuous
 62
     7
370
    25
100
AcDbSpline
210
0.0
220
0.0
230
1.0
 70
     8
 71
     3
 72
    10
 73
     6
 74
     0
 42
0.000000001
 43
0.00000001
 40
0.0
 40
0.0
 40
0.0
 40
0.0
 40
0.5
 40
0.5
 40
1.0
 40
1.0
 40
1.0
 40
1.0
 10
60.9364727057066
 20
-34.39197915024152
 30
0.0
 10
60.93647270580976
 20
-34.43911960230972
 30
0.0
 10
60.93647270588791
 20
-34.49434807733272
 30
0.0
 10
60.93647270708108
 20
-34.57245293570686
 30
0.0
 10
60.93647270824437
 20
-34.59197915026559
 30
0.0
 10
60.93647270978034
 20
-34.59197915014289
 30
0.0
  0
SPLINE
  5
18C
330
1B
100
AcDbEntity
  8
0
  6
Continuous
 62
     7
370
    25
100
AcDbSpline
210
0.0
220
0.0
230
1.0
 70
     8
 71
     3
 72
    14
 73
    10
 74
     0
 42
0.000000001
 43
0.00000001
 40
0.0
 40
0.0
 40
0.0
 40
0.0
 40
0.25
 40
0.25
 40
0.5
 40
0.5
 40
0.75
 40
0.75
 40
1.0
 40
1.0
 40
1.0
 40
1.0
 10
26.31004893540774
 20
-34.39197915032598
 30
0.0
 10
25.24183153903149
 20
-34.39197915037108
 30
0.0
 10
24.27136777091364
 20
-34.39197915040607
 30
0.0
 10
22.57869106429163
 20
-34.39197915045303
 30
0.0
 10
21.85672102918547
 20
-34.39197915046502
 30
0.0
 10
20.69659686761928
 20
-34.39197915046502
 30
0.0
 10
20.25855195192396
 20
-34.39197915045304
 30
0.0
 10
19.67851717378324
 20
-34.39197915040607
 30
0.0
 10
19.53647270595583
 20
-34.39197915037108
 30
0.0
 10
19.53647270595722
 20
-34.39197915032598
 30
0.0
  0
SPLINE
  5
18D
330
1B
100
AcDbEntity
  8
0
  6
Continuous
 62
     7
370
    25
100
AcDbSpline
210
0.0
220
0.0
230
1.0
 70
     8
 71
     3
 72
    10
 73
     6
 74
     0
 42
0.000000001
 43
0.00000001
 40
0.0
 40
0.0
 40
0.0
 40
0.0
 40
0.5
 40
0.5
 40
1.0
 40
1.0
 40
1.0
 40
1.0
 10
19.53647270595722
 20
-34.39197915032598
 30
0.0
 10
19.53647270583529
 20
-34.43911960236019
 30
0.0
 10
19.55599892039457
 20
-34.49434807735744
 30
0.0
 10
19.63410378002868
 20
-34.57245293570797
 30
0.0
 10
19.68933225636199
 20
-34.59197915026786
 30
0.0
 10
19.7364727101603
 20
-34.59197915014671
 30
0.0
  0
SPLINE
  5
18E
330
1B
100
AcDbEntity
  8
0
  6
Continuous
 62
     7
370
    25
100
AcDbSpline
210
0.0
220
0.0
230
1.0
 70
     8
 71
     3
 72
    17
 73
    13
 74
     0
 42
0.000000001
 43
0.00000001
 40
0.0
 40
0.0
 40
0.0
 40
0.0
 40
0.077905589853358
 40
0.1578923803803879
 40
0.2400125369150381
 40
0.3243173835141572
 40
0.4108570754130085
 40
0.4996802343634545
 40
0.6189975756337552
 40
0.7421172914313654
 40
0.8691013187020297
 40
1.0
 40
1.0
 40
1.0
 40
1.0
 10
-87.813527294037
 20
70.8684865881102
 30
0.0
 10
-87.81264016135066
 20
70.86838030417972
 30
0.0
 10
-87.81084219676522
 20
70.86816489700787
 30
0.0
 10
-87.79600641938634
 20
70.86647417548845
 30
0.0
 10
-87.77140481962756
 20
70.86379329899735
 30
0.0
 10
-87.7353537497593
 20
70.8600099608104
 30
0.0
 10
-87.68727346061387
 20
70.85517876451941
 30
0.0
 10
-87.61975842164708
 20
70.84856193068994
 30
0.0
 10
-87.52681775125677
 20
70.84025977993427
 30
0.0
 10
-87.40064906835482
 20
70.83044787822114
 30
0.0
 10
-87.24894496789206
 20
70.8197115768756
 30
0.0
 10
-87.12595551252285
 20
70.81195699701455
 30
0.0
 10
-87.06352729618087
 20
70.80802084990539
 30
0.0
  0
SPLINE
  5
18F
330
1B
100
AcDbEntity
  8
0
  6
Continuous
 62
     7
370
    25
100
AcDbSpline
210
0.0
220
0.0
230
1.0
 70
    24
 71
     3
 72
    14
 73
    10
 74
     0
 42
0.000000001
 43
0.00000001
 40
0.0
 40
0.0
 40
0.0
 40
0.0
 40
0.25
 40
0.25
 40
0.5
 40
0.5
 40
0.75
 40
0.75
 40
1.0
 40
1.0
 40
1.0
 40
1.0
 10
23.6459150982048
 20
-39.49197915013901
 30
0.0
 10
23.86175655713545
 20
-39.49197915013901
 30
0.0
 10
24.12530594111532
 20
-39.49197915013901
 30
0.0
 10
24.73584406257039
 20
-39.49197915013901
 30
0.0
 10
25.0827026157169
 20
-39.49197915013901
 30
0.0
 10
25.82973427814449
 20
-39.49197915013901
 30
0.0
 10
26.22952282996345
 20
-39.49197915013901
 30
0.0
 10
27.04190763017932
 20
-39.49197915013901
 30
0.0
 10
27.45409919808996
 20
-39.49197915013901
 30
0.0
 10
27.85367534893984
 20
-39.49197915013901
 30
0.0
  0
SPLINE
  5
191
330
1B
100
AcDbEntity
  8
0
  6
Continuous
 62
     7
370
    25
100
AcDbSpline
210
0.0
220
0.0
230
1.0
 70
     8
 71
     3
 72
    14
 73
    10
 74
     0
 42
0.000000001
 43
0.00000001
 40
0.0
 40
0.0
 40
0.0
 40
0.0
 40
0.25
 40
0.25
 40
0.5
 40
0.5
 40
0.75
 40
0.75
 40
1.0
 40
1.0
 40
1.0
 40
1.0
 10
23.64591509633986
 20
-34.79197914995198
 30
0.0
 10
23.86175655550102
 20
-34.79197914990906
 30
0.0
 10
24.12530593973374
 20
-34.79197914987429
 30
0.0
 10
24.73584406154676
 20
-34.79197914983022
 30
0.0
 10
25.08270261479617
 20
-34.791979149821
 30
0.0
 10
25.82973427706718
 20
-34.79197914983345
 30
0.0
 10
26.22952282862422
 20
-34.79197914985517
 30
0.0
 10
27.04190762779561
 20
-34.791979149929
 30
0.0
 10
27.45409919492277
 20
-34.7919791499811
 30
0.0
 10
27.85367534470663
 20
-34.79197915004549
 30
0.0
  0
SPLINE
  5
193
330
1B
100
AcDbEntity
  8
0
  6
Continuous
 62
     7
370
    25
100
AcDbSpline
210
0.0
220
0.0
230
1.0
 70
    24
 71
     3
 72
    14
 73
    10
 74
     0
 42
0.000000001
 43
0.00000001
 40
0.0
 40
0.0
 40
0.0
 40
0.0
 40
0.25
 40
0.25
 40
0.5
 40
0.5
 40
0.75
 40
0.75
 40
1.0
 40
1.0
 40
1.0
 40
1.0
 10
23.81422549826985
 20
-34.59197915013127
 30
0.0
 10
24.0314612836482
 20
-34.591979150139
 30
0.0
 10
24.28719080629606
 20
-34.591979150139
 30
0.0
 10
24.87563730462515
 20
-34.591979150139
 30
0.0
 10
25.19920490117805
 20
-34.591979150139
 30
0.0
 10
25.90502858544636
 20
-34.591979150139
 30
0.0
 10
26.27631029816621
 20
-34.591979150139
 30
0.0
 10
27.05561346477739
 20
-34.59197915013901
 30
0.0
 10
27.4515179444998
 20
-34.591979150139
 30
0.0
 10
27.853675336855
 20
-34.59197915013514
 30
0.0
  0
SPLINE
  5
194
330
1B
100
AcDbEntity
  8
0
  6
Continuous
 62
     7
370
    25
100
AcDbSpline
210
0.0
220
0.0
230
1.0
 70
     8
 71
     3
 72
    10
 73
     6
 74
     0
 42
0.000000001
 43
0.00000001
 40
0.0
 40
0.0
 40
0.0
 40
0.0
 40
0.5
 40
0.5
 40
1.0
 40
1.0
 40
1.0
 40
1.0
 10
27.85367534470663
 20
-34.79197915004549
 30
0.0
 10
27.85367534480978
 20
-34.74483869797366
 30
0.0
 10
27.85367534488792
 20
-34.68961022294796
 30
0.0
 10
27.85367534258823
 20
-34.61150536457115
 30
0.0
 10
27.85367534011742
 20
-34.59197915001244
 30
0.0
 10
27.85367533685502
 20
-34.59197915013514
 30
0.0
  0
SPLINE
  5
195
330
1B
100
AcDbEntity
  8
0
  6
Continuous
 62
     7
370
    25
100
AcDbSpline
210
0.0
220
0.0
230
1.0
 70
     8
 71
     3
 72
    10
 73
     6
 74
     0
 42
0.000000001
 43
0.00000001
 40
0.0
 40
0.0
 40
0.0
 40
0.0
 40
0.5
 40
0.5
 40
1.0
 40
1.0
 40
1.0
 40
1.0
 10
23.64591509633986
 20
-34.79197914995198
 30
0.0
 10
23.64591509549187
 20
-34.74483869791779
 30
0.0
 10
23.66234742071202
 20
-34.68961022292056
 30
0.0
 10
23.72807672194597
 20
-34.61150536457001
 30
0.0
 10
23.7745543564812
 20
-34.59197915001013
 30
0.0
 10
23.81422549826983
 20
-34.59197915013125
 30
0.0
  0
SPLINE
  5
196
330
1B
100
AcDbEntity
  8
0
  6
Continuous
 62
     7
370
    25
100
AcDbSpline
210
0.0
220
0.0
230
1.0
 70
     8
 71
     3
 72
    18
 73
    14
 74
     0
 42
0.000000001
 43
0.00000001
 40
0.0
 40
0.0
 40
0.0
 40
0.0
 40
0.2499999999999963
 40
0.2499999999999963
 40
0.3749999999999969
 40
0.3749999999999969
 40
0.4999999999999976
 40
0.4999999999999976
 40
0.6249999999999981
 40
0.6249999999999981
 40
0.7499999999999988
 40
0.7499999999999988
 40
1.0
 40
1.0
 40
1.0
 40
1.0
 10
63.2364727062194
 20
-34.79197915004549
 30
0.0
 10
63.82572835719967
 20
-34.79197914998903
 30
0.0
 10
64.4614615020826
 20
-34.79197914993846
 30
0.0
 10
65.38468862992426
 20
-34.79197914988504
 30
0.0
 10
65.68667428919134
 20
-34.79197914987099
 30
0.0
 10
66.25836865691278
 20
-34.79197914985203
 30
0.0
 10
66.52792892968422
 20
-34.79197914984715
 30
0.0
 10
67.0160842943428
 20
-34.79197914984715
 30
0.0
 10
67.23456949050554
 20
-34.79197914985205
 30
0.0
 10
67.60833103375484
 20
-34.79197914987099
 30
0.0
 10
67.76358181101283
 20
-34.79197914988505
 30
0.0
 10
68.12907901191237
 20
-34.79197914993846
 30
0.0
 10
68.23647270596766
 20
-34.79197914998905
 30
0.0
 10
68.23647270596594
 20
-34.79197915004549
 30
0.0
  0
SPLINE
  5
197
330
1B
100
AcDbEntity
  8
0
  6
Continuous
 62
     7
370
    25
100
AcDbSpline
210
0.0
220
0.0
230
1.0
 70
     8
 71
     3
 72
    10
 73
     6
 74
     0
 42
0.000000001
 43
0.00000001
 40
0.0
 40
0.0
 40
0.0
 40
0.0
 40
0.5
 40
0.5
 40
1.0
 40
1.0
 40
1.0
 40
1.0
 10
63.23647270206769
 20
-34.59197915013514
 30
0.0
 10
63.23647270363507
 20
-34.59197915001246
 30
0.0
 10
63.23647270482215
 20
-34.61150536457115
 30
0.0
 10
63.23647270603814
 20
-34.68961022294796
 30
0.0
 10
63.23647270611628
 20
-34.74483869797366
 30
0.0
 10
63.23647270621943
 20
-34.79197915004549
 30
0.0
  0
SPLINE
  5
198
330
1B
100
AcDbEntity
  8
0
  6
Continuous
 62
     7
370
    25
100
AcDbSpline
210
0.0
220
0.0
230
1.0
 70
    24
 71
     3
 72
    12
 73
     8
 74
     0
 42
0.000000001
 43
0.00000001
 40
0.0
 40
0.0
 40
0.0
 40
0.0
 40
0.1975253795649548
 40
0.3952103336629981
 40
0.5928910105142606
 40
0.825444311885312
 40
0.9999999999999999
 40
0.9999999999999999
 40
0.9999999999999999
 40
0.9999999999999999
 10
63.23647270206766
 20
-34.59197915013514
 30
0.0
 10
63.70520250677718
 20
-34.59197915013673
 30
0.0
 10
64.64304078824281
 20
-34.59197915013992
 30
0.0
 10
65.93361820254873
 20
-34.59197915013883
 30
0.0
 10
67.04088163690298
 20
-34.59197915013881
 30
0.0
 10
67.81380450484394
 20
-34.59197915014006
 30
0.0
 10
67.9201818500505
 20
-34.59197915013727
 30
0.0
 10
67.9657931511318
 20
-34.59197915013609
 30
0.0
  0
SPLINE
  5
199
330
1B
100
AcDbEntity
  8
0
  6
Continuous
 62
     7
370
    25
100
AcDbSpline
210
0.0
220
0.0
230
1.0
 70
     8
 71
     3
 72
    10
 73
     6
 74
     0
 42
0.000000001
 43
0.00000001
 40
0.0
 40
0.0
 40
0.0
 40
0.0
 40
0.5
 40
0.5
 40
1.0
 40
1.0
 40
1.0
 40
1.0
 10
68.23647270596591
 20
-34.79197915004551
 30
0.0
 10
68.23647270608897
 20
-34.74483869797366
 30
0.0
 10
68.21694649153059
 20
-34.68961022294798
 30
0.0
 10
68.13884163315915
 20
-34.61150536457115
 30
0.0
 10
68.08361315813877
 20
-34.59197915001246
 30
0.0
 10
68.036472706074
 20
-34.59197915013514
 30
0.0
  0
SPLINE
  5
19E
330
1B
100
AcDbEntity
  8
0
  6
Continuous
 62
     7
370
    25
100
AcDbSpline
210
0.0
220
0.0
230
1.0
 70
    24
 71
     3
 72
    18
 73
    14
 74
     0
 42
0.000000001
 43
0.00000001
 40
0.0
 40
0.0
 40
0.0
 40
0.0
 40
0.2500000000000009
 40
0.2500000000000009
 40
0.3750000000000008
 40
0.3750000000000008
 40
0.5000000000000008
 40
0.5000000000000008
 40
0.6250000000000008
 40
0.6250000000000008
 40
0.7500000000000008
 40
0.7500000000000008
 40
1.0
 40
1.0
 40
1.0
 40
1.0
 10
63.23647270209349
 20
-39.49197915013901
 30
0.0
 10
63.82572835412753
 20
-39.49197915013901
 30
0.0
 10
64.4614614999649
 20
-39.49197915013901
 30
0.0
 10
65.38468862894
 20
-39.49197915013901
 30
0.0
 10
65.68667428853522
 20
-39.491979150139
 30
0.0
 10
66.25836865679798
 20
-39.491979150139
 30
0.0
 10
66.52792892978253
 20
-39.49197915013898
 30
0.0
 10
67.01608429475064
 20
-39.49197915013898
 30
0.0
 10
67.23456949100984
 20
-39.491979150139
 30
0.0
 10
67.60833103435037
 20
-39.49197915013898
 30
0.0
 10
67.76358181160332
 20
-39.49197915013898
 30
0.0
 10
68.12907901237774
 20
-39.491979150139
 30
0.0
 10
68.23647270620468
 20
-39.49197915013898
 30
0.0
 10
68.236472705963
 20
-39.49197915013901
 30
0.0
  0
SPLINE
  5
1A0
330
1B
100
AcDbEntity
  8
0
  6
Continuous
 62
     7
370
    25
100
AcDbSpline
210
0.0
220
0.0
230
1.0
 70
    24
 71
     3
 72
    14
 73
    10
 74
     0
 42
0.000000001
 43
0.00000001
 40
0.0
 40
0.0
 40
0.0
 40
0.0
 40
0.25
 40
0.25
 40
0.5
 40
0.5
 40
0.75
 40
0.75
 40
1.0
 40
1.0
 40
1.0
 40
1.0
 10
17.23647270595527
 20
-34.79197914988964
 30
0.0
 10
17.23647270595433
 20
-34.79197914985934
 30
0.0
 10
17.37066686247248
 20
-34.79197914983599
 30
0.0
 10
17.91579250755319
 20
-34.79197914980671
 30
0.0
 10
18.326752705173
 20
-34.79197914980077
 30
0.0
 10
19.41703270455948
 20
-34.79197914980871
 30
0.0
 10
20.09629508821251
 20
-34.79197914982262
 30
0.0
 10
21.6982759482536
 20
-34.79197914987152
 30
0.0
 10
22.62086285539079
 20
-34.7919791499065
 30
0.0
 10
23.64591509633983
 20
-34.79197914995198
 30
0.0
  0
SPLINE
  5
1A1
330
1B
100
AcDbEntity
  8
0
  6
Continuous
 62
     7
370
    25
100
AcDbSpline
210
0.0
220
0.0
230
1.0
 70
    24
 71
     3
 72
    25
 73
    21
 74
     0
 42
0.000000001
 43
0.00000001
 40
0.0
 40
0.0
 40
0.0
 40
0.0
 40
0.0278131465454436
 40
0.0556018916058811
 40
0.0833732091445825
 40
0.1111340862590142
 40
0.1388915179308287
 40
0.1666525017461425
 40
0.1944240326059743
 40
0.2222130974468203
 40
0.2500266699912578
 40
0.3750137151883254
 40
0.5000029292693114
 40
0.6249899879998961
 40
0.749979190961579
 40
0.8000234374766337
 40
0.8500068712863591
 40
0.8999702481927876
 40
0.9499543730596616
 40
1.0
 40
1.0
 40
1.0
 40
1.0
 10
23.64591509820482
 20
-39.49197915013901
 30
0.0
 10
23.53114620050449
 20
-39.49197915013901
 30
0.0
 10
23.30170909603183
 20
-39.49197915013901
 30
0.0
 10
22.9685912061963
 20
-39.49197915013898
 30
0.0
 10
22.64379373487679
 20
-39.49197915013901
 30
0.0
 10
22.32809211183083
 20
-39.49197915013902
 30
0.0
 10
22.02127884563789
 20
-39.49197915013898
 30
0.0
 10
21.72340947190786
 20
-39.49197915013901
 30
0.0
 10
21.43446959969599
 20
-39.491979150139
 30
0.0
 10
21.1544615693094
 20
-39.49197915013901
 30
0.0
 10
20.56783521033004
 20
-39.49197915013898
 30
0.0
 10
19.74963293650886
 20
-39.491979150139
 30
0.0
 10
18.83909851048205
 20
-39.491979150139
 30
0.0
 10
18.12535267602369
 20
-39.49197915013901
 30
0.0
 10
17.71583347886363
 20
-39.49197915013901
 30
0.0
 10
17.49410520489633
 20
-39.49197915013901
 30
0.0
 10
17.3788457445804
 20
-39.49197915013901
 30
0.0
 10
17.29712144816065
 20
-39.49197915013901
 30
0.0
 10
17.24594525400219
 20
-39.49197915013898
 30
0.0
 10
17.239631525809
 20
-39.491979150139
 30
0.0
 10
17.236472720753
 20
-39.49197915013901
 30
0.0
  0
SPLINE
  5
1A2
330
1B
100
AcDbEntity
  8
0
  6
Continuous
 62
     7
370
    25
100
AcDbSpline
210
0.0
220
0.0
230
1.0
 70
     8
 71
     3
 72
    10
 73
     6
 74
     0
 42
0.000000001
 43
0.00000001
 40
0.0
 40
0.0
 40
0.0
 40
0.0
 40
0.5
 40
0.5
 40
1.0
 40
1.0
 40
1.0
 40
1.0
 10
17.43647271060498
 20
-34.59197915013125
 30
0.0
 10
17.38933225662775
 20
-34.59197915001013
 30
0.0
 10
17.33410378015894
 20
-34.61150536457001
 30
0.0
 10
17.25599892039398
 20
-34.6896102229023
 30
0.0
 10
17.2364727058341
 20
-34.74483869788055
 30
0.0
 10
17.23647270595523
 20
-34.79197914988964
 30
0.0
  0
SPLINE
  5
1A3
330
1B
100
AcDbEntity
  8
0
  6
Continuous
 62
     7
370
    25
100
AcDbSpline
210
0.0
220
0.0
230
1.0
 70
    24
 71
     3
 72
    12
 73
     8
 74
     0
 42
0.000000001
 43
0.00000001
 40
0.0
 40
0.0
 40
0.0
 40
0.0
 40
0.1618408641476833
 40
0.3542575355170756
 40
0.5466719441296717
 40
0.7733504237879958
 40
0.9999999999999999
 40
0.9999999999999999
 40
0.9999999999999999
 40
0.9999999999999999
 10
17.47261518252812
 20
-34.59197915013247
 30
0.0
 10
17.51185154195916
 20
-34.59197915013511
 30
0.0
 10
17.59773699535131
 20
-34.59197915014088
 30
0.0
 10
18.27830632971405
 20
-34.59197915013858
 30
0.0
 10
19.47199878671996
 20
-34.59197915013871
 30
0.0
 10
21.23970404617891
 20
-34.59197915014102
 30
0.0
 10
22.95608815884268
 20
-34.59197915013451
 30
0.0
 10
23.81422549826985
 20
-34.59197915013127
 30
0.0
  0
SPLINE
  5
1A4
330
1B
100
AcDbEntity
  8
0
  6
Continuous
 62
     8
370
    25
100
AcDbSpline
210
0.0
220
0.0
230
1.0
 70
     8
 71
     3
 72
    13
 73
     9
 74
     0
 42
0.000000001
 43
0.00000001
 40
0.0
 40
0.0
 40
0.0
 40
0.0
 40
0.1199993191975769
 40
0.2959749166652553
 40
0.4719588323197459
 40
0.6479554263614683
 40
0.8239682841247802
 40
1.0
 40
1.0
 40
1.0
 40
1.0
 10
19.5999866490426
 20
92.80006587634598
 30
0.0
 10
19.59676161955045
 20
92.80020645185245
 30
0.0
 10
19.58880717579557
 20
92.8005531773513
 30
0.0
 10
20.16286626710203
 20
92.77553058086566
 30
0.0
 10
21.20782333739389
 20
92.72998206540107
 30
0.0
 10
22.74670043245215
 20
92.66290413469474
 30
0.0
 10
24.69571702725454
 20
92.5779486470079
 30
0.0
 10
26.33806733531509
 20
92.50636049465277
 30
0.0
 10
27.15928647756195
 20
92.47056450107969
 30
0.0
  0
SPLINE
  5
1A5
330
1B
100
AcDbEntity
  8
0
  6
Continuous
 62
     8
370
    25
100
AcDbSpline
210
0.0
220
0.0
230
1.0
 70
     8
 71
     3
 72
    11
 73
     7
 74
     0
 42
0.000000001
 43
0.00000001
 40
0.0
 40
0.0
 40
0.0
 40
0.0
 40
0.3006150023779307
 40
0.5876440156304933
 40
0.8641583616182489
 40
1.0
 40
1.0
 40
1.0
 40
1.0
 10
-42.57237256303699
 20
106.052095157861
 30
0.0
 10
-42.5721067633221
 20
105.8091909633964
 30
0.0
 10
-42.57158717643994
 20
105.3343603823558
 30
0.0
 10
-42.32832290225648
 20
104.7120933156805
 30
0.0
 10
-42.03152866000264
 20
104.2738293675074
 30
0.0
 10
-41.78212237048656
 20
104.1087377509323
 30
0.0
 10
-41.69996093649556
 20
104.0543519373908
 30
0.0
  0
LINE
  5
1A6
330
1B
100
AcDbEntity
  8
0
  6
Continuous
 62
     7
370
    25
100
AcDbLine
 10
19.536472707
 20
92.8028593781
 30
0.0
 11
19.536472707
 21
83.9079958499
 31
0.0
  0
LINE
  5
1A7
330
1B
100
AcDbEntity
  8
0
  6
Continuous
 62
     7
370
    25
100
AcDbLine
 10
66.1364727207
 20
99.4080208499
 30
0.0
 11
65.936472706
 21
99.4080208499
 31
0.0
  0
LINE
  5
1A8
330
1B
100
AcDbEntity
  8
0
  6
Continuous
 62
     7
370
    25
100
AcDbLine
 10
65.936472706
 20
93.4080208499
 30
0.0
 11
66.136472706
 21
93.4080208499
 31
0.0
  0
LINE
  5
1A9
330
1B
100
AcDbEntity
  8
0
  6
Continuous
 62
     7
370
    25
100
AcDbLine
 10
17.236472706
 20
-34.79195415
 30
0.0
 11
17.236472706
 21
-39.4944791501
 31
0.0
  0
LINE
  5
1AA
330
1B
100
AcDbEntity
  8
0
  6
Continuous
 62
     7
370
    25
100
AcDbLine
 10
-40.6689946781
 20
106.2942440682
 30
0.0
 11
-40.6689948059
 21
108.70802085
 31
0.0
  0
LINE
  5
1AB
330
1B
100
AcDbEntity
  8
0
  6
Continuous
 62
     7
370
    25
100
AcDbLine
 10
-42.5536546627
 20
108.70802085
 30
0.0
 11
-42.5536546626
 21
106.2942438657
 31
0.0
  0
LINE
  5
1AC
330
1B
100
AcDbEntity
  8
0
  6
Continuous
 62
     7
370
    25
100
AcDbLine
 10
42.7364727012
 20
83.9080208499
 30
0.0
 11
29.0679886132
 21
83.9080208499
 31
0.0
  0
LINE
  5
1AD
330
1B
100
AcDbEntity
  8
0
  6
Continuous
 62
     7
370
    25
100
AcDbLine
 10
29.0679886132
 20
83.9080208499
 30
0.0
 11
29.0679886117
 21
92.4705645726
 31
0.0
  0
LINE
  5
1AE
330
1B
100
AcDbEntity
  8
0
  6
Continuous
 62
     7
370
    25
100
AcDbLine
 10
16.7803394346
 20
103.1261147142
 30
0.0
 11
-35.9762785408
 21
104.9684164037
 31
0.0
  0
LINE
  5
1AF
330
1B
100
AcDbEntity
  8
0
  6
Continuous
 62
     7
370
    25
100
AcDbLine
 10
-40.6689948059
 20
108.70802085
 30
0.0
 11
60.9364727062
 21
108.70802085
 31
0.0
  0
LINE
  5
1B0
330
1B
100
AcDbEntity
  8
0
  6
Continuous
 62
     7
370
    25
100
AcDbLine
 10
60.9364727092
 20
90.1838829182
 30
0.0
 11
60.9364727062
 21
108.70802085
 31
0.0
  0
LINE
  5
1B1
330
1B
100
AcDbEntity
  8
0
  6
Continuous
 62
     7
370
    25
100
AcDbLine
 10
42.7364727012
 20
83.9080208499
 30
0.0
 11
60.9364727092
 21
90.1838829182
 31
0.0
  0
LINE
  5
1B2
330
1B
100
AcDbEntity
  8
0
  6
Continuous
 62
     7
370
    25
100
AcDbLine
 10
16.6930933134
 20
100.6276375508
 30
0.0
 11
-36.0635272953
 21
102.4699393378
 31
0.0
  0
LINE
  5
1B3
330
1B
100
AcDbEntity
  8
0
  6
Continuous
 62
     7
370
    25
100
AcDbLine
 10
27.1592863606
 20
83.9080208499
 30
0.0
 11
27.1592864776
 21
92.4705645011
 31
0.0
  0
LINE
  5
1B4
330
1B
100
AcDbEntity
  8
0
  6
Continuous
 62
     7
370
    25
100
AcDbLine
 10
-40.6689948165
 20
108.9080208499
 30
0.0
 11
60.9364727213
 21
108.9080208499
 31
0.0
  0
LINE
  5
1B5
330
1B
100
AcDbEntity
  8
0
  6
Continuous
 62
     7
370
    25
100
AcDbLine
 10
65.936472706
 20
108.70802085
 30
0.0
 11
65.936472706
 21
91.9080208499
 31
0.0
  0
LINE
  5
1B6
330
1B
100
AcDbEntity
  8
0
  6
Continuous
 62
     7
370
    25
100
AcDbLine
 10
-41.6999609365
 20
104.0543519374
 30
0.0
 11
-41.461448428
 21
103.8809927529
 31
0.0
  0
LINE
  5
1B7
330
1B
100
AcDbEntity
  8
0
  6
Continuous
 62
     7
370
    25
100
AcDbLine
 10
66.1364727207
 20
96.4080208496
 30
0.0
 11
65.936472706
 21
96.4080208497
 31
0.0
  0
LINE
  5
1B8
330
1B
100
AcDbEntity
  8
0
  6
Continuous
 62
     7
370
    25
100
AcDbLine
 10
23.7364727091
 20
81.9080208499
 30
0.0
 11
23.7725104529
 21
83.9080208499
 31
0.0
  0
LINE
  5
1B9
330
1B
100
AcDbEntity
  8
0
  6
Continuous
 62
     7
370
    25
100
AcDbLine
 10
-1.6768797354
 20
66.4083271777
 30
0.0
 11
-87.0635272923
 21
70.8080208499
 31
0.0
  0
LINE
  5
1BA
330
1B
100
AcDbEntity
  8
0
  6
Continuous
 62
     7
370
    25
100
AcDbLine
 10
-86.8062350535
 20
75.8013965349
 30
0.0
 11
-1.4195907132
 21
71.4017030152
 31
0.0
  0
LINE
  5
1BB
330
1B
100
AcDbEntity
  8
0
  6
Continuous
 62
     7
370
    25
100
AcDbLine
 10
60.9364727057
 20
81.7080208499
 30
0.0
 11
-94.1116227368
 21
81.7080208481
 31
0.0
  0
LINE
  5
1BC
330
1B
100
AcDbEntity
  8
0
  6
Continuous
 62
     7
370
    25
100
AcDbLine
 10
60.9364727057
 20
-34.3919791502
 30
0.0
 11
60.9364727057
 21
81.7080208499
 31
0.0
  0
LINE
  5
1BD
330
1B
100
AcDbEntity
  8
0
  6
Continuous
 62
     7
370
    25
100
AcDbLine
 10
30.2634027662
 20
-34.3919791502
 30
0.0
 11
60.9364727057
 21
-34.3919791502
 31
0.0
  0
LINE
  5
1BE
330
1B
100
AcDbEntity
  8
0
  6
Continuous
 62
     7
370
    25
100
AcDbLine
 10
30.2634027636
 20
40.9516038113
 30
0.0
 11
30.2634027662
 21
-34.3919791502
 31
0.0
  0
LINE
  5
1BF
330
1B
100
AcDbEntity
  8
0
  6
Continuous
 62
     7
370
    25
100
AcDbLine
 10
-94.111622799
 20
81.9080208499
 30
0.0
 11
60.9364726998
 21
81.9080208499
 31
0.0
  0
LINE
  5
1C0
330
1B
100
AcDbEntity
  8
0
  6
Continuous
 62
     7
370
    25
100
AcDbLine
 10
26.3100489354
 20
-34.3919791503
 30
0.0
 11
26.3100489584
 21
40.9516038051
 31
0.0
  0
LINE
  5
1C1
330
1B
100
AcDbEntity
  8
0
  6
Continuous
 62
     7
370
    25
100
AcDbLine
 10
65.936472706
 20
-34.3919791502
 30
0.0
 11
65.936472706
 21
81.7080208499
 31
0.0
  0
LINE
  5
1C2
330
1B
100
AcDbEntity
  8
0
  6
Continuous
 62
     7
370
    25
100
AcDbLine
 10
19.536472706
 20
41.5702751524
 30
0.0
 11
19.536472706
 21
-34.3919791503
 31
0.0
  0
LINE
  5
1C3
330
1B
100
AcDbEntity
  8
0
  6
Continuous
 62
     7
370
    25
100
AcDbLine
 10
23.6459150963
 20
-34.79197915
 30
0.0
 11
23.6459150982
 21
-39.4919791501
 31
0.0
  0
LINE
  5
1C4
330
1B
100
AcDbEntity
  8
0
  6
Continuous
 62
     7
370
    25
100
AcDbLine
 10
27.8536753447
 20
-34.79197915
 30
0.0
 11
27.8536753489
 21
-39.4919791501
 31
0.0
  0
LINE
  5
1C5
330
1B
100
AcDbEntity
  8
0
  6
Continuous
 62
     7
370
    25
100
AcDbLine
 10
63.2364727062
 20
-34.79197915
 30
0.0
 11
27.8536753447
 21
-34.79197915
 31
0.0
  0
LINE
  5
1C6
330
1B
100
AcDbEntity
  8
0
  6
Continuous
 62
     7
370
    25
100
AcDbLine
 10
27.8536753369
 20
-34.5919791501
 30
0.0
 11
63.2364727021
 21
-34.5919791501
 31
0.0
  0
LINE
  5
1C7
330
1B
100
AcDbEntity
  8
0
  6
Continuous
 62
     7
370
    25
100
AcDbLine
 10
63.2364727021
 20
-39.4919791501
 30
0.0
 11
63.2364727062
 21
-34.79197915
 31
0.0
  0
LINE
  5
1C8
330
1B
100
AcDbEntity
  8
0
  6
Continuous
 62
     7
370
    25
100
AcDbLine
 10
68.236472706
 20
-34.79197915
 30
0.0
 11
68.236472706
 21
-39.4919791501
 31
0.0
  0
LINE
  5
1C9
330
1B
100
AcDbEntity
  8
0
  6
Continuous
 62
     7
370
    25
100
AcDbLine
 10
27.8536753489
 20
-39.4919791501
 30
0.0
 11
63.2364727021
 21
-39.4919791501
 31
0.0
  0
ARC
  5
1CA
330
1B
100
AcDbEntity
  8
0
  6
Continuous
 62
     7
370
    25
100
AcDbCircle
 10
57.386472706
 20
96.4080208499
 30
0.0
 40
9.249999999998389
100
AcDbArc
 50
0.0
 51
18.9112574642
  0
VIEWPORT
  5
236
330
1B
100
AcDbEntity
  8
0
100
AcDbViewport
 10
0.0
 20
0.0
 30
0.0
 40
205.6
 41
156.0
 68
     1
 69
     1
 12
-70.5606385916
 22
34.7080208499
 13
0.0
 23
0.0
 14
10.0
 24
10.0
 15
10.0
 25
10.0
 16
0.0
 26
0.0
 36
1.0
 17
0.0
 27
0.0
 37
0.0
 42
50.0
 43
0.0
 44
0.0
 45
151.368
 50
0.0
 51
0.0
 72
   100
 90
   557152
  1

281
     0
 71
     1
 74
     0
110
0.0
120
0.0
130
0.0
111
1.0
121
0.0
131
0.0
112
0.0
122
1.0
132
0.0
 79
     0
146
0.0
  0
ENDBLK
  5
1D
330
1B
100
AcDbEntity
  8
0
100
AcDbBlockEnd
  0
ENDSEC
  0
SECTION
  2
ENTITIES
  0
SPLINE
  5
73
330
1F
100
AcDbEntity
  8
0
  6
Continuous
 62
     7
370
    25
100
AcDbSpline
210
0.0
220
0.0
230
1.0
 70
    24
 71
     3
 72
     9
 73
     5
 74
     0
 42
0.000000001
 43
0.00000001
 40
0.0
 40
0.0
 40
0.0
 40
0.0
 40
0.4999995790083683
 40
1.0
 40
1.0
 40
1.0
 40
1.0
 10
-48.9008808147164
 20
104.5219317125272
 30
0.0
 10
-48.90088081471684
 20
104.6054568427983
 30
0.0
 10
-48.90088081471769
 20
104.772507243994
 30
0.0
 10
-48.90088081471857
 20
105.5379748384518
 30
0.0
 10
-48.900880814719
 20
105.9207089579362
 30
0.0
  0
SPLINE
  5
74
330
1F
100
AcDbEntity
  8
0
  6
Continuous
 62
     7
370
    25
100
AcDbSpline
210
0.0
220
0.0
230
1.0
 70
    24
 71
     3
 72
     9
 73
     5
 74
     0
 42
0.000000001
 43
0.00000001
 40
0.0
 40
0.0
 40
0.0
 40
0.0
 40
0.5000004209550752
 40
1.0
 40
1.0
 40
1.0
 40
1.0
 10
-92.22039638875583
 20
105.9207090678685
 30
0.0
 10
-92.22039638875627
 20
105.5379749488631
 30
0.0
 10
-92.22039638875711
 20
104.7725073553071
 30
0.0
 10
-92.22039638875793
 20
104.6054569544641
 30
0.0
 10
-92.22039638875839
 20
104.5219318243633
 30
0.0
  0
SPLINE
  5
77
330
1F
100
AcDbEntity
  8
0
  6
Continuous
 62
     7
370
    25
100
AcDbSpline
210
0.0
220
0.0
230
1.0
 70
     8
 71
     3
 72
     9
 73
     5
 74
     0
 42
0.000000001
 43
0.00000001
 40
0.0
 40
0.0
 40
0.0
 40
0.0
 40
0.5005128956223577
 40
1.0
 40
1.0
 40
1.0
 40
1.0
 10
-48.87771671133353
 20
81.70030674499183
 30
0.0
 10
-48.86315009825946
 20
81.74163482494275
 30
0.0
 10
-48.83404672609567
 20
81.82420628376506
 30
0.0
 10
-48.90271901033027
 20
81.87073708578258
 30
0.0
 10
-48.93701993073361
 20
81.89397862134669
 30
0.0
  0
SPLINE
  5
78
330
1F
100
AcDbEntity
  8
0
  6
Continuous
 62
     7
370
    25
100
AcDbSpline
210
0.0
220
0.0
230
1.0
 70
     8
 71
     3
 72
     9
 73
     5
 74
     0
 42
0.000000001
 43
0.00000001
 40
0.0
 40
0.0
 40
0.0
 40
0.0
 40
0.4994871044035732
 40
1.0
 40
1.0
 40
1.0
 40
1.0
 10
-92.18425725241619
 20
81.89397862134678
 30
0.0
 10
-92.21855817282018
 20
81.87073708578384
 30
0.0
 10
-92.28723045705252
 20
81.82420628377108
 30
0.0
 10
-92.25812708488942
 20
81.7416348249433
 30
0.0
 10
-92.24356047181648
 20
81.7003067449918
 30
0.0
  0
SPLINE
  5
79
330
1F
100
AcDbEntity
  8
0
  6
Continuous
 62
     7
370
    25
100
AcDbSpline
210
0.0
220
0.0
230
1.0
 70
    24
 71
     3
 72
    10
 73
     6
 74
     0
 42
0.000000001
 43
0.00000001
 40
0.0
 40
0.0
 40
0.0
 40
0.0
 40
0.5
 40
0.5
 40
1.0
 40
1.0
 40
1.0
 40
1.0
 10
-72.43541556109388
 20
108.9080208498649
 30
0.0
 10
-71.81610306990834
 20
108.908020849861
 30
0.0
 10
-71.19117743357502
 20
108.908020849861
 30
0.0
 10
-69.93009974957499
 20
108.908020849861
 30
0.0
 10
-69.30517411324168
 20
108.908020849861
 30
0.0
 10
-68.68586168327435
 20
108.9080208498649
 30
0.0
  0
SPLINE
  5
7A
330
1F
100
AcDbEntity
  8
0
  6
Continuous
 62
     7
370
    25
100
AcDbSpline
210
0.0
220
0.0
230
1.0
 70
     8
 71
     3
 72
    10
 73
     6
 74
     0
 42
0.000000001
 43
0.00000001
 40
0.0
 40
0.0
 40
0.0
 40
0.0
 40
0.5
 40
0.5
 40
1.0
 40
1.0
 40
1.0
 40
1.0
 10
-68.68586168327435
 20
108.9080208498648
 30
0.0
 10
-68.68440477578612
 20
108.9080208499875
 30
0.0
 10
-68.68269790254526
 20
108.8884946354289
 30
0.0
 10
-68.68028405200809
 20
108.8103897652842
 30
0.0
 10
-68.67968061524843
 20
108.7551612780148
 30
0.0
 10
-68.67968066017758
 20
108.7080208097766
 30
0.0
  0
SPLINE
  5
7B
330
1F
100
AcDbEntity
  8
0
  6
Continuous
 62
     7
370
    25
100
AcDbSpline
210
0.0
220
0.0
230
1.0
 70
     8
 71
     3
 72
     8
 73
     4
 74
     0
 42
0.000000001
 43
0.00000001
 40
0.0
 40
0.0
 40
0.0
 40
0.0
 40
1.0
 40
1.0
 40
1.0
 40
1.0
 10
-72.441596634575
 20
108.708020849861
 30
0.0
 10
-71.187482626575
 20
108.704084155861
 30
0.0
 10
-69.93379455657501
 20
108.704084155861
 30
0.0
 10
-68.679680548575
 20
108.708020849861
 30
0.0
  0
SPLINE
  5
7C
330
1F
100
AcDbEntity
  8
0
  6
Continuous
 62
     7
370
    25
100
AcDbSpline
210
0.0
220
0.0
230
1.0
 70
     8
 71
     3
 72
    10
 73
     6
 74
     0
 42
0.000000001
 43
0.00000001
 40
0.0
 40
0.0
 40
0.0
 40
0.0
 40
0.5
 40
0.5
 40
1.0
 40
1.0
 40
1.0
 40
1.0
 10
-72.43541536862668
 20
108.908020849861
 30
0.0
 10
-72.4368723322092
 20
108.908020849861
 30
0.0
 10
-72.43857928086527
 20
108.8884928704195
 30
0.0
 10
-72.44099318002968
 20
108.810382503484
 30
0.0
 10
-72.44159650318286
 20
108.7551522101941
 30
0.0
 10
-72.44159650317985
 20
108.70800993979
 30
0.0
  0
SPLINE
  5
7D
330
1F
100
AcDbEntity
  8
0
  6
Continuous
 62
     7
370
    25
100
AcDbSpline
210
0.0
220
0.0
230
1.0
 70
     8
 71
     3
 72
    20
 73
    16
 74
     0
 42
0.000000001
 43
0.00000001
 40
0.0
 40
0.0
 40
0.0
 40
0.0
 40
0.0552756716193208
 40
0.1127645461189734
 40
0.1724185085302459
 40
0.2341643128175718
 40
0.2979018207748431
 40
0.3635028523324285
 40
0.4308108291903618
 40
0.4996413727219096
 40
0.6117722414689811
 40
0.7494333499886129
 40
0.8754980651879837
 40
0.9582090927450518
 40
1.0
 40
1.0
 40
1.0
 40
1.0
 10
-90.8772309133579
 20
106.052095099947
 30
0.0
 10
-90.86565875747593
 20
106.0013976249746
 30
0.0
 10
-90.84205110392018
 20
105.8979727802435
 30
0.0
 10
-90.80018618458065
 20
105.7408554549651
 30
0.0
 10
-90.7525114934761
 20
105.5795070464043
 30
0.0
 10
-90.69842958861398
 20
105.4150961520912
 30
0.0
 10
-90.63799122770261
 20
105.2489643574118
 30
0.0
 10
-90.57118084256838
 20
105.0826648327782
 30
0.0
 10
-90.49813615493582
 20
104.9179135933334
 30
0.0
 10
-90.40300599372041
 20
104.7237475257373
 30
0.0
 10
-90.27278078166016
 20
104.4910211228607
 30
0.0
 10
-90.10930575775677
 20
104.2478269955677
 30
0.0
 10
-89.95258144989353
 20
104.0598078773396
 30
0.0
 10
-89.8373961629384
 20
103.9455966755213
 30
0.0
 10
-89.77992889477625
 20
103.8972287095206
 30
0.0
 10
-89.76063916022244
 20
103.8809932896912
 30
0.0
  0
SPLINE
  5
7E
330
1F
100
AcDbEntity
  8
0
  6
Continuous
 62
     7
370
    25
100
AcDbSpline
210
0.0
220
0.0
230
1.0
 70
     8
 71
     3
 72
    16
 73
    12
 74
     0
 42
0.000000001
 43
0.00000001
 40
0.0
 40
0.0
 40
0.0
 40
0.0
 40
0.2500000000000008
 40
0.2500000000000008
 40
0.5000000000000016
 40
0.5000000000000016
 40
0.6250000000000008
 40
0.6250000000000008
 40
0.7500000000000001
 40
0.7500000000000001
 40
1.0
 40
1.0
 40
1.0
 40
1.0
 10
-72.44159588724973
 20
108.7079990252374
 30
0.0
 10
-74.02806529432765
 20
108.6506973166891
 30
0.0
 10
-75.60185998784422
 20
108.5212259560376
 30
0.0
 10
-78.72836956142004
 20
108.1585933169862
 30
0.0
 10
-80.28116960328107
 20
107.9264499024564
 30
0.0
 10
-82.5984779460288
 20
107.5409893097676
 30
0.0
 10
-83.37017411788315
 20
107.4060930868862
 30
0.0
 10
-84.90041770062747
 20
107.132053841852
 30
0.0
 10
-85.65973605430298
 20
106.9927683159267
 30
0.0
 10
-87.92177273973495
 20
106.5770172222353
 30
0.0
 10
-89.40860491423666
 20
106.3026805636399
 30
0.0
 10
-90.87723093873075
 20
106.052095267311
 30
0.0
  0
SPLINE
  5
7F
330
1F
100
AcDbEntity
  8
0
  6
Continuous
 62
     7
370
    25
100
AcDbSpline
210
0.0
220
0.0
230
1.0
 70
     8
 71
     3
 72
    12
 73
     8
 74
     0
 42
0.000000001
 43
0.00000001
 40
0.0
 40
0.0
 40
0.0
 40
0.0
 40
0.5000000000000001
 40
0.5000000000000001
 40
0.75
 40
0.75
 40
1.0
 40
1.0
 40
1.0
 40
1.0
 10
-50.24404565655303
 20
106.0520952259952
 30
0.0
 10
-53.19690849209739
 20
106.5559335376492
 30
0.0
 10
-56.19091089943078
 20
107.1521991436966
 30
0.0
 10
-60.78497007643584
 20
107.9177278977677
 30
0.0
 10
-62.33372168631107
 20
108.1506762735405
 30
0.0
 10
-65.4763280623688
 20
108.5173272039818
 30
0.0
 10
-67.0758413343612
 20
108.6500423806244
 30
0.0
 10
-68.67968066989947
 20
108.7080206206573
 30
0.0
  0
SPLINE
  5
80
330
1F
100
AcDbEntity
  8
0
  6
Continuous
 62
     7
370
    25
100
AcDbSpline
210
0.0
220
0.0
230
1.0
 70
     8
 71
     3
 72
    14
 73
    10
 74
     0
 42
0.000000001
 43
0.00000001
 40
0.0
 40
0.0
 40
0.0
 40
0.0
 40
0.25
 40
0.25
 40
0.5
 40
0.5
 40
0.75
 40
0.75
 40
1.0
 40
1.0
 40
1.0
 40
1.0
 10
-50.244046348575
 20
106.052095157861
 30
0.0
 10
-50.2994334549897
 20
105.7998306775356
 30
0.0
 10
-50.36932073169516
 20
105.5622580757246
 30
0.0
 10
-50.53308611942855
 20
105.1115542399107
 30
0.0
 10
-50.62527786034845
 20
104.9041585850357
 30
0.0
 10
-50.82200149212543
 20
104.5322063166324
 30
0.0
 10
-50.9268925435081
 20
104.3672525533031
 30
0.0
 10
-51.14019328529412
 20
104.0880182876139
 30
0.0
 10
-51.25094139623553
 20
103.9708102133421
 30
0.0
 10
-51.36063859157501
 20
103.880992752861
 30
0.0
  0
SPLINE
  5
81
330
1F
100
AcDbEntity
  8
0
  6
Continuous
 62
     7
370
    25
100
AcDbSpline
210
0.0
220
0.0
230
1.0
 70
     8
 71
     3
 72
    22
 73
    18
 74
     0
 42
0.000000001
 43
0.00000001
 40
0.0
 40
0.0
 40
0.0
 40
0.0
 40
0.1249999999999999
 40
0.1249999999999999
 40
0.2499999999999999
 40
0.2499999999999999
 40
0.3749999999999998
 40
0.3749999999999998
 40
0.4999999999999996
 40
0.4999999999999996
 40
0.6249999999999994
 40
0.6249999999999994
 40
0.7499999999999993
 40
0.7499999999999993
 40
0.8749999999999997
 40
0.8749999999999997
 40
1.0
 40
1.0
 40
1.0
 40
1.0
 10
-89.76063916022244
 20
103.8809932896912
 30
0.0
 10
-88.23519674355748
 20
104.2222531028411
 30
0.0
 10
-86.68915795948863
 20
104.5961593938095
 30
0.0
 10
-83.54842531796085
 20
105.3428029948253
 30
0.0
 10
-81.94817709269624
 20
105.7167578114452
 30
0.0
 10
-78.73641992026558
 20
106.373935499214
 30
0.0
 10
-77.1210065823547
 20
106.6576153934808
 30
0.0
 10
-73.86495735392786
 20
107.0538511947418
 30
0.0
 10
-72.22419407476583
 20
107.164773273007
 30
0.0
 10
-68.91318515072969
 20
107.1654721446602
 30
0.0
 10
-67.23884041164905
 20
107.0529665636805
 30
0.0
 10
-63.94840559253413
 20
106.6500356679653
 30
0.0
 10
-62.33063902996664
 20
106.3637440540707
 30
0.0
 10
-59.13643564837993
 20
105.7083341294205
 30
0.0
 10
-57.56003882417741
 20
105.3397598532387
 30
0.0
 10
-54.43863646959383
 20
104.5977041984453
 30
0.0
 10
-52.89362200612466
 20
104.2239493885451
 30
0.0
 10
-51.36063556366986
 20
103.8809939058822
 30
0.0
  0
SPLINE
  5
82
330
1F
100
AcDbEntity
  8
0
  6
Continuous
 62
     7
370
    25
100
AcDbSpline
210
0.0
220
0.0
230
1.0
 70
     8
 71
     3
 72
     8
 73
     4
 74
     0
 42
0.000000001
 43
0.00000001
 40
0.0
 40
0.0
 40
0.0
 40
0.0
 40
1.0
 40
1.0
 40
1.0
 40
1.0
 10
-90.87723082781176
 20
106.0520950999473
 30
0.0
 10
-90.91314959086479
 20
106.1262898716023
 30
0.0
 10
-90.93000936224045
 20
106.2101329855485
 30
0.0
 10
-90.93000936290956
 20
106.2942439321735
 30
0.0
  0
SPLINE
  5
84
330
1F
100
AcDbEntity
  8
0
  6
Continuous
 62
     7
370
    25
100
AcDbSpline
210
0.0
220
0.0
230
1.0
 70
     8
 71
     3
 72
    10
 73
     6
 74
     0
 42
0.000000001
 43
0.00000001
 40
0.0
 40
0.0
 40
0.0
 40
0.0
 40
0.5
 40
0.5
 40
1.0
 40
1.0
 40
1.0
 40
1.0
 10
-90.93000936137467
 20
108.708020850048
 30
0.0
 10
-87.9752987997109
 20
108.7080208501408
 30
0.0
 10
-84.92114017836563
 20
108.708020850188
 30
0.0
 10
-78.7210848882012
 20
108.7080181059364
 30
0.0
 10
-75.57563583885639
 20
108.7080153509098
 30
0.0
 10
-72.44159627383846
 20
108.7080099389932
 30
0.0
  0
SPLINE
  5
85
330
1F
100
AcDbEntity
  8
0
  6
Continuous
 62
     7
370
    25
100
AcDbSpline
210
0.0
220
0.0
230
1.0
 70
    24
 71
     3
 72
    10
 73
     6
 74
     0
 42
0.000000001
 43
0.00000001
 40
0.0
 40
0.0
 40
0.0
 40
0.0
 40
0.5
 40
0.5
 40
1.0
 40
1.0
 40
1.0
 40
1.0
 10
-90.86307228535591
 20
108.9080208498687
 30
0.0
 10
-87.90473404257503
 20
108.908020849861
 30
0.0
 10
-84.86929422490834
 20
108.908020849861
 30
0.0
 10
-78.69892345424168
 20
108.908020849861
 30
0.0
 10
-75.57330271790836
 20
108.908020849861
 30
0.0
 10
-72.43541556109388
 20
108.9080208498649
 30
0.0
  0
SPLINE
  5
86
330
1F
100
AcDbEntity
  8
0
  6
Continuous
 62
     7
370
    25
100
AcDbSpline
210
0.0
220
0.0
230
1.0
 70
     8
 71
     3
 72
    10
 73
     6
 74
     0
 42
0.000000001
 43
0.00000001
 40
0.0
 40
0.0
 40
0.0
 40
0.0
 40
0.5
 40
0.5
 40
1.0
 40
1.0
 40
1.0
 40
1.0
 10
-90.8630722853559
 20
108.9080208498687
 30
0.0
 10
-90.87884950392768
 20
108.9080208499899
 30
0.0
 10
-90.89733366584748
 20
108.88849463543
 30
0.0
 10
-90.92347422000518
 20
108.8103897770794
 30
0.0
 10
-90.9300093597466
 20
108.7551613020822
 30
0.0
 10
-90.93000936137463
 20
108.7080208500479
 30
0.0
  0
SPLINE
  5
88
330
1F
100
AcDbEntity
  8
0
  6
Continuous
 62
     7
370
    25
100
AcDbSpline
210
0.0
220
0.0
230
1.0
 70
     8
 71
     3
 72
     8
 73
     4
 74
     0
 42
0.000000001
 43
0.00000001
 40
0.0
 40
0.0
 40
0.0
 40
0.0
 40
1.0
 40
1.0
 40
1.0
 40
1.0
 10
-50.19126782378645
 20
106.2942438657473
 30
0.0
 10
-50.19126781136356
 20
106.2102876219747
 30
0.0
 10
-50.20796319257506
 20
106.1266308374434
 30
0.0
 10
-50.24404608324165
 20
106.0520952260002
 30
0.0
  0
SPLINE
  5
89
330
1F
100
AcDbEntity
  8
0
  6
Continuous
 62
     7
370
    25
100
AcDbSpline
210
0.0
220
0.0
230
1.0
 70
     8
 71
     3
 72
    10
 73
     6
 74
     0
 42
0.000000001
 43
0.00000001
 40
0.0
 40
0.0
 40
0.0
 40
0.0
 40
0.5
 40
0.5
 40
1.0
 40
1.0
 40
1.0
 40
1.0
 10
-68.67968066017758
 20
108.7080208097767
 30
0.0
 10
-65.5456412187288
 20
108.7080208298438
 30
0.0
 10
-62.40019223228884
 20
108.7080208400593
 30
0.0
 10
-56.20013700545324
 20
108.708020850188
 30
0.0
 10
-53.14597838477951
 20
108.7080208501408
 30
0.0
 10
-50.19126782443485
 20
108.708020850048
 30
0.0
  0
SPLINE
  5
8A
330
1F
100
AcDbEntity
  8
0
  6
Continuous
 62
     7
370
    25
100
AcDbSpline
210
0.0
220
0.0
230
1.0
 70
    24
 71
     3
 72
    10
 73
     6
 74
     0
 42
0.000000001
 43
0.00000001
 40
0.0
 40
0.0
 40
0.0
 40
0.0
 40
0.5
 40
0.5
 40
1.0
 40
1.0
 40
1.0
 40
1.0
 10
-68.68586168327435
 20
108.9080208498649
 30
0.0
 10
-65.54797446524168
 20
108.908020849861
 30
0.0
 10
-62.42235367157502
 20
108.908020849861
 30
0.0
 10
-56.25198301557499
 20
108.908020849861
 30
0.0
 10
-53.21654314057501
 20
108.908020849861
 30
0.0
 10
-50.2582048977941
 20
108.9080208498687
 30
0.0
  0
SPLINE
  5
8B
330
1F
100
AcDbEntity
  8
0
  6
Continuous
 62
     7
370
    25
100
AcDbSpline
210
0.0
220
0.0
230
1.0
 70
     8
 71
     3
 72
    10
 73
     6
 74
     0
 42
0.000000001
 43
0.00000001
 40
0.0
 40
0.0
 40
0.0
 40
0.0
 40
0.5
 40
0.5
 40
1.0
 40
1.0
 40
1.0
 40
1.0
 10
-50.25820489779412
 20
108.9080208498687
 30
0.0
 10
-50.24242767922232
 20
108.9080208499899
 30
0.0
 10
-50.22394351730253
 20
108.88849463543
 30
0.0
 10
-50.19780296392376
 20
108.8103897770794
 30
0.0
 10
-50.19126782499281
 20
108.7551613020822
 30
0.0
 10
-50.19126782443485
 20
108.7080208500479
 30
0.0
  0
SPLINE
  5
8C
330
1F
100
AcDbEntity
  8
0
  6
Continuous
 62
     7
370
    25
100
AcDbSpline
210
0.0
220
0.0
230
1.0
 70
     8
 71
     3
 72
    10
 73
     6
 74
     0
 42
0.000000001
 43
0.00000001
 40
0.0
 40
0.0
 40
0.0
 40
0.0
 40
0.5
 40
0.5
 40
1.0
 40
1.0
 40
1.0
 40
1.0
 10
-51.36063710366724
 20
103.8809933350512
 30
0.0
 10
-51.36063783631018
 20
103.4535120517543
 30
0.0
 10
-51.36063821514449
 20
103.1133066227127
 30
0.0
 10
-51.36063859105583
 20
102.6376498958204
 30
0.0
 10
-51.36063859106542
 20
102.5023159717073
 30
0.0
 10
-51.36063859136898
 20
102.4699393377749
 30
0.0
  0
SPLINE
  5
8E
330
1F
100
AcDbEntity
  8
0
  6
Continuous
 62
     7
370
    25
100
AcDbSpline
210
0.0
220
0.0
230
1.0
 70
     8
 71
     3
 72
    10
 73
     6
 74
     0
 42
0.000000001
 43
0.00000001
 40
0.0
 40
0.0
 40
0.0
 40
0.0
 40
0.5
 40
0.5
 40
1.0
 40
1.0
 40
1.0
 40
1.0
 10
-89.76063859189325
 20
102.4699393377749
 30
0.0
 10
-89.7606385921417
 20
102.5023159717073
 30
0.0
 10
-89.76063859225805
 20
102.6376498958647
 30
0.0
 10
-89.76063862486276
 20
103.1133065102299
 30
0.0
 10
-89.7606386576055
 20
103.4535118258221
 30
0.0
 10
-89.76063872092789
 20
103.8809928897146
 30
0.0
  0
SPLINE
  5
8F
330
1F
100
AcDbEntity
  8
0
  6
Continuous
 62
     7
370
    25
100
AcDbSpline
210
0.0
220
0.0
230
1.0
 70
     8
 71
     3
 72
    19
 73
    15
 74
     0
 42
0.000000001
 43
0.00000001
 40
0.0
 40
0.0
 40
0.0
 40
0.0
 40
0.0477579792578943
 40
0.0966504530063518
 40
0.1466265021153855
 40
0.1976261750389547
 40
0.2495805394933062
 40
0.3684461951502062
 40
0.4995553637105227
 40
0.6046444202115087
 40
0.749374598709723
 40
0.852974104561066
 40
0.936066531015613
 40
1.0
 40
1.0
 40
1.0
 40
1.0
 10
-49.11585900714319
 20
105.2820114532274
 30
0.0
 10
-49.13612728869634
 20
105.2456701481512
 30
0.0
 10
-49.17714532639837
 20
105.1721242474861
 30
0.0
 10
-49.24757450334199
 20
105.0638605717332
 30
0.0
 10
-49.32557717201917
 20
104.9561773439776
 30
0.0
 10
-49.41182293064799
 20
104.8499590076063
 30
0.0
 10
-49.54603860889412
 20
104.7017414567217
 30
0.0
 10
-49.74861936216989
 20
104.5140943926562
 30
0.0
 10
-50.01631505620934
 20
104.3222232566532
 30
0.0
 10
-50.32734440953435
 20
104.1493488026272
 30
0.0
 10
-50.63530247054531
 20
104.023758336717
 30
0.0
 10
-50.93510152661265
 20
103.9418091563188
 30
0.0
 10
-51.16558975364091
 20
103.8993729194281
 30
0.0
 10
-51.30152593911959
 20
103.8865643204665
 30
0.0
 10
-51.3606371036679
 20
103.8809945658187
 30
0.0
  0
SPLINE
  5
90
330
1F
100
AcDbEntity
  8
0
  6
Continuous
 62
     7
370
    25
100
AcDbSpline
210
0.0
220
0.0
230
1.0
 70
     8
 71
     3
 72
    14
 73
    10
 74
     0
 42
0.000000001
 43
0.00000001
 40
0.0
 40
0.0
 40
0.0
 40
0.0
 40
0.25
 40
0.25
 40
0.5
 40
0.5
 40
0.75
 40
0.75
 40
1.0
 40
1.0
 40
1.0
 40
1.0
 10
-50.24404608324165
 20
106.0520952260002
 30
0.0
 10
-50.10345385861457
 20
105.978013840131
 30
0.0
 10
-49.96505241312062
 20
105.9013705843528
 30
0.0
 10
-49.70849936085229
 20
105.7505081753886
 30
0.0
 10
-49.59053728341718
 20
105.6763791729655
 30
0.0
 10
-49.3890311373591
 20
105.538834064991
 30
0.0
 10
-49.30561191346319
 20
105.4755031765997
 30
0.0
 10
-49.18018268426156
 20
105.3656301431125
 30
0.0
 10
-49.13815020407177
 20
105.3191118761485
 30
0.0
 10
-49.1158590072219
 20
105.2820114532612
 30
0.0
  0
SPLINE
  5
91
330
1F
100
AcDbEntity
  8
0
  6
Continuous
 62
     7
370
    25
100
AcDbSpline
210
0.0
220
0.0
230
1.0
 70
     8
 71
     3
 72
    18
 73
    14
 74
     0
 42
0.000000001
 43
0.00000001
 40
0.0
 40
0.0
 40
0.0
 40
0.0
 40
0.0463050237294104
 40
0.1031415158781588
 40
0.1710768142173177
 40
0.2506728972576627
 40
0.3953944913226003
 40
0.500496039013127
 40
0.6315935437914467
 40
0.7504747628306299
 40
0.8365141722006117
 40
0.9197817738882986
 40
1.0
 40
1.0
 40
1.0
 40
1.0
 10
-89.76063872092809
 20
103.8809929278071
 30
0.0
 10
-89.80344776139978
 20
103.8848022251927
 30
0.0
 10
-89.8988021953666
 20
103.893287194536
 30
0.0
 10
-90.05651891339475
 20
103.9173346334318
 30
0.0
 10
-90.24352723135766
 20
103.9567621196441
 30
0.0
 10
-90.50684308361954
 20
104.0324007269156
 30
0.0
 10
-90.79393079600577
 20
104.1493191900097
 30
0.0
 10
-91.10494482550172
 20
104.3222149485873
 30
0.0
 10
-91.37262665828511
 20
104.5141035971563
 30
0.0
 10
-91.59816336653645
 20
104.7228583461044
 30
0.0
 10
-91.76851484885148
 20
104.9183081446615
 30
0.0
 10
-91.89981663936675
 20
105.0972940210459
 30
0.0
 10
-91.97065781646133
 20
105.2212088544648
 30
0.0
 10
-92.00541773197624
 20
105.2820106270685
 30
0.0
  0
SPLINE
  5
92
330
1F
100
AcDbEntity
  8
0
  6
Continuous
 62
     7
370
    25
100
AcDbSpline
210
0.0
220
0.0
230
1.0
 70
     8
 71
     3
 72
    14
 73
    10
 74
     0
 42
0.000000001
 43
0.00000001
 40
0.0
 40
0.0
 40
0.0
 40
0.0
 40
0.25
 40
0.25
 40
0.5
 40
0.5
 40
0.75
 40
0.75
 40
1.0
 40
1.0
 40
1.0
 40
1.0
 10
-92.005417918575
 20
105.282010974861
 30
0.0
 10
-91.98312664712165
 20
105.3191113237511
 30
0.0
 10
-91.94109410669482
 20
105.3656295380756
 30
0.0
 10
-91.81566479785442
 20
105.4755025226153
 30
0.0
 10
-91.73224555471073
 20
105.5388334148713
 30
0.0
 10
-91.53073941279496
 20
105.6763785923223
 30
0.0
 10
-91.41277735864607
 20
105.7505076603836
 30
0.0
 10
-91.15622438543373
 20
105.9013702557549
 30
0.0
 10
-91.0178229954466
 20
105.9780136321444
 30
0.0
 10
-90.87723083457502
 20
106.052095157861
 30
0.0
  0
SPLINE
  5
93
330
1F
100
AcDbEntity
  8
0
  6
Continuous
 62
     7
370
    25
100
AcDbSpline
210
0.0
220
0.0
230
1.0
 70
    24
 71
     3
 72
    14
 73
    10
 74
     0
 42
0.000000001
 43
0.00000001
 40
0.0
 40
0.0
 40
0.0
 40
0.0
 40
0.25
 40
0.25
 40
0.5
 40
0.5
 40
0.75
 40
0.75
 40
1.0
 40
1.0
 40
1.0
 40
1.0
 10
-48.86063859157501
 20
106.294243765861
 30
0.0
 10
-48.860638591575
 20
106.294243765861
 30
0.0
 10
-48.88894080547904
 20
106.294243765861
 30
0.0
 10
-49.01092679635754
 20
106.294243765861
 30
0.0
 10
-49.10475798489887
 20
106.294243765861
 30
0.0
 10
-49.34887737822275
 20
106.294243765861
 30
0.0
 10
-49.49887075987168
 20
106.294243765861
 30
0.0
 10
-49.82972019145745
 20
106.294243765861
 30
0.0
 10
-50.010100336743
 20
106.294243765861
 30
0.0
 10
-50.19126782557501
 20
106.294243765861
 30
0.0
  0
SPLINE
  5
94
330
1F
100
AcDbEntity
  8
0
  6
Continuous
 62
     7
370
    25
100
AcDbSpline
210
0.0
220
0.0
230
1.0
 70
     8
 71
     3
 72
    15
 73
    11
 74
     0
 42
0.000000001
 43
0.00000001
 40
0.0
 40
0.0
 40
0.0
 40
0.0
 40
0.1352717794480252
 40
0.2685045767623257
 40
0.3992171633450092
 40
0.5269506704187494
 40
0.651274548152006
 40
0.7717913776021191
 40
0.8881404365819401
 40
1.0
 40
1.0
 40
1.0
 40
1.0
 10
-48.86063859171893
 20
106.294244068226
 30
0.0
 10
-48.86154870359757
 20
106.2467850379174
 30
0.0
 10
-48.8633552090326
 20
106.1525823380006
 30
0.0
 10
-48.87778133655613
 20
106.0132608437601
 30
0.0
 10
-48.90015892886336
 20
105.8777090825547
 30
0.0
 10
-48.93063703929455
 20
105.7468149915287
 30
0.0
 10
-48.96814000342017
 20
105.6213100819871
 30
0.0
 10
-49.0119847594237
 20
105.5019133656966
 30
0.0
 10
-49.06061580770278
 20
105.3888535816105
 30
0.0
 10
-49.09768770965356
 20
105.3171553282915
 30
0.0
 10
-49.11585900714319
 20
105.2820114532274
 30
0.0
  0
SPLINE
  5
96
330
1F
100
AcDbEntity
  8
0
  6
Continuous
 62
     7
370
    25
100
AcDbSpline
210
0.0
220
0.0
230
1.0
 70
    24
 71
     3
 72
    14
 73
    10
 74
     0
 42
0.000000001
 43
0.00000001
 40
0.0
 40
0.0
 40
0.0
 40
0.0
 40
0.25
 40
0.25
 40
0.5
 40
0.5
 40
0.75
 40
0.75
 40
1.0
 40
1.0
 40
1.0
 40
1.0
 10
-90.930009357575
 20
106.294243765861
 30
0.0
 10
-91.111176846407
 20
106.294243765861
 30
0.0
 10
-91.2915569916926
 20
106.294243765861
 30
0.0
 10
-91.62240642327835
 20
106.294243765861
 30
0.0
 10
-91.77239980492728
 20
106.294243765861
 30
0.0
 10
-92.01651919825112
 20
106.294243765861
 30
0.0
 10
-92.11035038679243
 20
106.294243765861
 30
0.0
 10
-92.232336377671
 20
106.294243765861
 30
0.0
 10
-92.26063859157502
 20
106.294243765861
 30
0.0
 10
-92.260638591575
 20
106.294243765861
 30
0.0
  0
SPLINE
  5
98
330
1F
100
AcDbEntity
  8
0
  6
Continuous
 62
     7
370
    25
100
AcDbSpline
210
0.0
220
0.0
230
1.0
 70
     8
 71
     3
 72
    14
 73
    10
 74
     0
 42
0.000000001
 43
0.00000001
 40
0.0
 40
0.0
 40
0.0
 40
0.0
 40
0.25
 40
0.25
 40
0.5
 40
0.5
 40
0.75
 40
0.75
 40
1.0
 40
1.0
 40
1.0
 40
1.0
 10
-92.26063859157789
 20
108.7080208499545
 30
0.0
 10
-92.26063859157982
 20
108.708020850016
 30
0.0
 10
-92.23233637765006
 20
108.7080208500678
 30
0.0
 10
-92.11035038683289
 20
108.7080208501419
 30
0.0
 10
-92.01651919838154
 20
108.7080208501643
 30
0.0
 10
-91.77239980552405
 20
108.7080208501771
 30
0.0
 10
-91.62240642425381
 20
108.7080208501677
 30
0.0
 10
-91.29155699380306
 20
108.7080208501236
 30
0.0
 10
-91.11117684927345
 20
108.708020850089
 30
0.0
 10
-90.93000936137464
 20
108.708020850048
 30
0.0
  0
SPLINE
  5
9A
330
1F
100
AcDbEntity
  8
0
  6
Continuous
 62
     7
370
    25
100
AcDbSpline
210
0.0
220
0.0
230
1.0
 70
     8
 71
     3
 72
    14
 73
    10
 74
     0
 42
0.000000001
 43
0.00000001
 40
0.0
 40
0.0
 40
0.0
 40
0.0
 40
0.25
 40
0.25
 40
0.5
 40
0.5
 40
0.75
 40
0.75
 40
1.0
 40
1.0
 40
1.0
 40
1.0
 10
-50.19126782443487
 20
108.708020850048
 30
0.0
 10
-50.01010033595232
 20
108.7080208500891
 30
0.0
 10
-49.82972019093349
 20
108.7080208501236
 30
0.0
 10
-49.4988707597191
 20
108.7080208501676
 30
0.0
 10
-49.34887737817487
 20
108.7080208501772
 30
0.0
 10
-49.10475798495145
 20
108.7080208501643
 30
0.0
 10
-49.01092679640706
 20
108.7080208501419
 30
0.0
 10
-48.88894080549921
 20
108.7080208500678
 30
0.0
 10
-48.86063859157018
 20
108.7080208500161
 30
0.0
 10
-48.8606385915721
 20
108.7080208499545
 30
0.0
  0
SPLINE
  5
9B
330
1F
100
AcDbEntity
  8
0
  6
Continuous
 62
     7
370
    25
100
AcDbSpline
210
0.0
220
0.0
230
1.0
 70
     8
 71
     3
 72
    10
 73
     6
 74
     0
 42
0.000000001
 43
0.00000001
 40
0.0
 40
0.0
 40
0.0
 40
0.0
 40
0.5
 40
0.5
 40
1.0
 40
1.0
 40
1.0
 40
1.0
 10
-48.86063859157213
 20
108.7080208499545
 30
0.0
 10
-48.86063859144904
 20
108.7551613020263
 30
0.0
 10
-48.88016480600744
 20
108.8103897770521
 30
0.0
 10
-48.95826966437882
 20
108.8884946354288
 30
0.0
 10
-49.01349813939922
 20
108.9080208499875
 30
0.0
 10
-49.060638591464
 20
108.9080208498648
 30
0.0
  0
SPLINE
  5
9C
330
1F
100
AcDbEntity
  8
0
  6
Continuous
 62
     7
370
    25
100
AcDbSpline
210
0.0
220
0.0
230
1.0
 70
    24
 71
     3
 72
    12
 73
     8
 74
     0
 42
0.000000001
 43
0.00000001
 40
0.0
 40
0.0
 40
0.0
 40
0.0
 40
0.4999999999999959
 40
0.4999999999999959
 40
0.7499999999999979
 40
0.7499999999999979
 40
1.0
 40
1.0
 40
1.0
 40
1.0
 10
-50.2582048977941
 20
108.9080208498687
 30
0.0
 10
-49.98493322388192
 20
108.9080208498628
 30
0.0
 10
-49.74033329769607
 20
108.9080208498614
 30
0.0
 10
-49.4460960469959
 20
108.9080208498609
 30
0.0
 10
-49.35980875654428
 20
108.908020849861
 30
0.0
 10
-49.21924271203709
 20
108.9080208498611
 30
0.0
 10
-49.16447354403923
 20
108.9080208498612
 30
0.0
 10
-49.12615650643754
 20
108.9080208498617
 30
0.0
  0
SPLINE
  5
9D
330
1F
100
AcDbEntity
  8
0
  6
Continuous
 62
     7
370
    25
100
AcDbSpline
210
0.0
220
0.0
230
1.0
 70
     8
 71
     3
 72
    10
 73
     6
 74
     0
 42
0.000000001
 43
0.00000001
 40
0.0
 40
0.0
 40
0.0
 40
0.0
 40
0.5
 40
0.5
 40
1.0
 40
1.0
 40
1.0
 40
1.0
 10
-92.06063859168597
 20
108.9080208498648
 30
0.0
 10
-92.10777904375077
 20
108.9080208499875
 30
0.0
 10
-92.16300751877114
 20
108.8884946354288
 30
0.0
 10
-92.24111237714254
 20
108.810389777052
 30
0.0
 10
-92.26063859170097
 20
108.7551613020263
 30
0.0
 10
-92.26063859157789
 20
108.7080208499545
 30
0.0
  0
SPLINE
  5
9E
330
1F
100
AcDbEntity
  8
0
  6
Continuous
 62
     7
370
    25
100
AcDbSpline
210
0.0
220
0.0
230
1.0
 70
    24
 71
     3
 72
    11
 73
     7
 74
     0
 42
0.000000001
 43
0.00000001
 40
0.0
 40
0.0
 40
0.0
 40
0.0
 40
0.0595273272566443
 40
0.425342039909078
 40
0.7123179321782993
 40
1.0
 40
1.0
 40
1.0
 40
1.0
 10
-91.97231154228605
 20
108.9080208498619
 30
0.0
 10
-91.9672826931083
 20
108.9080208498617
 30
0.0
 10
-91.93134993640253
 20
108.9080208498602
 30
0.0
 10
-91.68996128169333
 20
108.9080208498613
 30
0.0
 10
-91.31103133432084
 20
108.9080208498611
 30
0.0
 10
-91.01251424715097
 20
108.9080208498662
 30
0.0
 10
-90.86307228535591
 20
108.9080208498687
 30
0.0
  0
SPLINE
  5
9F
330
1F
100
AcDbEntity
  8
0
  6
Continuous
 62
     7
370
    25
100
AcDbSpline
210
0.0
220
0.0
230
1.0
 70
     8
 71
     3
 72
    10
 73
     6
 74
     0
 42
0.000000001
 43
0.00000001
 40
0.0
 40
0.0
 40
0.0
 40
0.0
 40
0.5
 40
0.5
 40
1.0
 40
1.0
 40
1.0
 40
1.0
 10
-48.86063859147706
 20
104.9684164037264
 30
0.0
 10
-48.86063859159565
 20
104.9967755213273
 30
0.0
 10
-48.86063859165758
 20
105.1236395425917
 30
0.0
 10
-48.86063859169154
 20
105.5719983316791
 30
0.0
 10
-48.86063859166394
 20
105.8933094650816
 30
0.0
 10
-48.86063859161102
 20
106.2942440682264
 30
0.0
  0
SPLINE
  5
A0
330
1F
100
AcDbEntity
  8
0
  6
Continuous
 62
     7
370
    25
100
AcDbSpline
210
0.0
220
0.0
230
1.0
 70
    24
 71
     3
 72
     8
 73
     4
 74
     0
 42
0.000000001
 43
0.00000001
 40
0.0
 40
0.0
 40
0.0
 40
0.0
 40
1.0
 40
1.0
 40
1.0
 40
1.0
 10
-92.26063859167296
 20
104.9684164038759
 30
0.0
 10
-92.2606385916181
 20
104.9844737074516
 30
0.0
 10
-92.26063859159397
 20
105.0314926049365
 30
0.0
 10
-92.26063859158334
 20
105.1089903481049
 30
0.0
  0
SPLINE
  5
A1
330
1F
100
AcDbEntity
  8
0
  6
Continuous
 62
     7
370
    25
100
AcDbSpline
210
0.0
220
0.0
230
1.0
 70
    24
 71
     3
 72
     8
 73
     4
 74
     0
 42
0.000000001
 43
0.00000001
 40
0.0
 40
0.0
 40
0.0
 40
0.0
 40
1.0
 40
1.0
 40
1.0
 40
1.0
 10
-92.26063859157493
 20
105.4323601107205
 30
0.0
 10
-92.26063859157449
 20
105.6487792927561
 30
0.0
 10
-92.26063859157068
 20
105.9376312013252
 30
0.0
 10
-92.260638591539
 20
106.294244268863
 30
0.0
  0
SPLINE
  5
A3
330
1F
100
AcDbEntity
  8
0
  6
Continuous
 62
     7
370
    25
100
AcDbSpline
210
0.0
220
0.0
230
1.0
 70
     8
 71
     3
 72
    14
 73
    10
 74
     0
 42
0.000000001
 43
0.00000001
 40
0.0
 40
0.0
 40
0.0
 40
0.0
 40
0.25
 40
0.25
 40
0.5
 40
0.5
 40
0.75
 40
0.75
 40
1.0
 40
1.0
 40
1.0
 40
1.0
 10
-89.7606371618766
 20
100.6276375508611
 30
0.0
 10
-90.05526515586257
 20
100.6276375617034
 30
0.0
 10
-90.37313191009375
 20
100.6813017098504
 30
0.0
 10
-90.98861701399258
 20
100.9248180994896
 30
0.0
 10
-91.28432730385774
 20
101.1154956013284
 30
0.0
 10
-91.77248294770568
 20
101.6033536136881
 30
0.0
 10
-91.9632767738473
 20
101.8988836033146
 30
0.0
 10
-92.20694171380558
 20
102.5139934284846
 30
0.0
 10
-92.26063859154277
 20
102.831666367682
 30
0.0
 10
-92.26063859153847
 20
103.1261147143274
 30
0.0
  0
SPLINE
  5
A5
330
1F
100
AcDbEntity
  8
0
  6
Continuous
 62
     7
370
    25
100
AcDbSpline
210
0.0
220
0.0
230
1.0
 70
     8
 71
     3
 72
    14
 73
    10
 74
     0
 42
0.000000001
 43
0.00000001
 40
0.0
 40
0.0
 40
0.0
 40
0.0
 40
0.25
 40
0.25
 40
0.5
 40
0.5
 40
0.75
 40
0.75
 40
1.0
 40
1.0
 40
1.0
 40
1.0
 10
-48.86063859161155
 20
103.1261147141779
 30
0.0
 10
-48.86063859160726
 20
102.83166636755
 30
0.0
 10
-48.9143354692779
 20
102.5139934283704
 30
0.0
 10
-49.15800040893402
 20
101.8988836032313
 30
0.0
 10
-49.3487942348391
 20
101.603353613618
 30
0.0
 10
-49.83694987808178
 20
101.1154956012757
 30
0.0
 10
-50.13266016758032
 20
100.9248180994412
 30
0.0
 10
-50.74814527071607
 20
100.6813017098017
 30
0.0
 10
-51.06601202455309
 20
100.6276375616503
 30
0.0
 10
-51.36064001817375
 20
100.6276375508009
 30
0.0
  0
SPLINE
  5
A8
330
1F
100
AcDbEntity
  8
0
  6
Continuous
 62
     7
370
    25
100
AcDbSpline
210
0.0
220
0.0
230
1.0
 70
     8
 71
     3
 72
    22
 73
    18
 74
     0
 42
0.000000001
 43
0.00000001
 40
0.0
 40
0.0
 40
0.0
 40
0.0
 40
0.125
 40
0.125
 40
0.25
 40
0.25
 40
0.375
 40
0.375
 40
0.5
 40
0.5
 40
0.625
 40
0.625
 40
0.75
 40
0.75
 40
0.875
 40
0.875
 40
1.0
 40
1.0
 40
1.0
 40
1.0
 10
-89.7606371618766
 20
100.6276375508611
 30
0.0
 10
-88.293002188375
 20
100.655472734225
 30
0.0
 10
-86.78158961877503
 20
100.680021083372
 30
0.0
 10
-83.671212300375
 20
100.7225442966506
 30
0.0
 10
-82.08426270677502
 20
100.7403548960305
 30
0.0
 10
-78.846841497175
 20
100.7690740802709
 30
0.0
 10
-77.208875903575
 20
100.7798717269777
 30
0.0
 10
-73.89443458517502
 20
100.7943431221511
 30
0.0
 10
-72.23076236757501
 20
100.7979609709445
 30
0.0
 10
-68.890514815575
 20
100.7979609709444
 30
0.0
 10
-67.22684257237499
 20
100.7943431233867
 30
0.0
 10
-63.91240130517499
 20
100.7798717257422
 30
0.0
 10
-62.274435660375
 20
100.769074080271
 30
0.0
 10
-59.03701450197501
 20
100.7403548960305
 30
0.0
 10
-57.45006490837502
 20
100.7225442966507
 30
0.0
 10
-54.33968753877502
 20
100.680021083372
 30
0.0
 10
-52.82827499477502
 20
100.655472734225
 30
0.0
 10
-51.36064001817375
 20
100.6276375508009
 30
0.0
  0
SPLINE
  5
A9
330
1F
100
AcDbEntity
  8
0
  6
Continuous
 62
     7
370
    25
100
AcDbSpline
210
0.0
220
0.0
230
1.0
 70
     8
 71
     3
 72
    24
 73
    20
 74
     0
 42
0.000000001
 43
0.00000001
 40
0.0
 40
0.0
 40
0.0
 40
0.0
 40
0.1250000000000004
 40
0.1250000000000004
 40
0.2500000000000008
 40
0.2500000000000008
 40
0.3750000000000012
 40
0.3750000000000012
 40
0.5000000000000016
 40
0.5000000000000016
 40
0.625000000000002
 40
0.625000000000002
 40
0.7500000000000023
 40
0.7500000000000023
 40
0.8125000000000011
 40
0.8125000000000011
 40
0.8749999999999998
 40
0.8749999999999998
 40
1.0
 40
1.0
 40
1.0
 40
1.0
 10
-51.36063859157501
 20
100.627637642861
 30
0.0
 10
-51.28570174357502
 20
100.6062688008611
 30
0.0
 10
-51.20881678457501
 20
100.538289946861
 30
0.0
 10
-51.050965459575
 20
100.317054561861
 30
0.0
 10
-50.969992498575
 20
100.1637618028611
 30
0.0
 10
-50.80403680737503
 20
99.771031553261
 30
0.0
 10
-50.718640418075
 20
99.52957196886096
 30
0.0
 10
-50.55098433607502
 20
98.97506674086098
 30
0.0
 10
-50.46796583007502
 20
98.66069706036103
 30
0.0
 10
-50.305537044075
 20
97.95290777036098
 30
0.0
 10
-50.22542732957499
 20
97.55507420486109
 30
0.0
 10
-50.07803650024166
 20
96.69790012752762
 30
0.0
 10
-50.01020201917507
 20
96.2373886530607
 30
0.0
 10
-49.92134694637499
 20
95.4899547594611
 30
0.0
 10
-49.89394900224163
 20
95.2311127151943
 30
0.0
 10
-49.845687171575
 20
94.70609153786097
 30
0.0
 10
-49.82462485157502
 20
94.43836877586098
 30
0.0
 10
-49.771701611575
 20
93.61857070186095
 30
0.0
 10
-49.75024108157502
 20
93.04495350586099
 30
0.0
 10
-49.74606255757501
 20
92.470564403861
 30
0.0
  0
SPLINE
  5
AA
330
1F
100
AcDbEntity
  8
0
  6
Continuous
 62
     7
370
    25
100
AcDbSpline
210
0.0
220
0.0
230
1.0
 70
     8
 71
     3
 72
    22
 73
    18
 74
     0
 42
0.000000001
 43
0.00000001
 40
0.0
 40
0.0
 40
0.0
 40
0.0
 40
0.125
 40
0.125
 40
0.25
 40
0.25
 40
0.375
 40
0.375
 40
0.5
 40
0.5
 40
0.625
 40
0.625
 40
0.75
 40
0.75
 40
0.875
 40
0.875
 40
1.0
 40
1.0
 40
1.0
 40
1.0
 10
-91.37521452962089
 20
92.47056450089359
 30
0.0
 10
-89.93551053846923
 20
92.52364852338896
 30
0.0
 10
-88.38868774129749
 20
92.57121106085147
 30
0.0
 10
-85.1281901673127
 20
92.65383073515115
 30
0.0
 10
-83.41458614866393
 20
92.6888880813232
 30
0.0
 10
-79.87319422386406
 20
92.74542007249259
 30
0.0
 10
-78.04547137963897
 20
92.76689492719181
 30
0.0
 10
-74.33201427306207
 20
92.79560199992754
 30
0.0
 10
-72.44634150769888
 20
92.80283437805633
 30
0.0
 10
-68.67493570189248
 20
92.8028343781238
 30
0.0
 10
-66.78926293639302
 20
92.79560200006229
 30
0.0
 10
-63.07580582927589
 20
92.76689492745959
 30
0.0
 10
-61.24808298464713
 20
92.74542007282555
 30
0.0
 10
-57.70669105878251
 20
92.68888808178292
 30
0.0
 10
-55.99308703947423
 20
92.65383073567205
 30
0.0
 10
-52.73258946393409
 20
92.57121106148908
 30
0.0
 10
-51.18576668519397
 20
92.52364852474241
 30
0.0
 10
-49.74606265738558
 20
92.47056450107968
 30
0.0
  0
SPLINE
  5
AB
330
1F
100
AcDbEntity
  8
0
  6
Continuous
 62
     7
370
    25
100
AcDbSpline
210
0.0
220
0.0
230
1.0
 70
     8
 71
     3
 72
    24
 73
    20
 74
     0
 42
0.000000001
 43
0.00000001
 40
0.0
 40
0.0
 40
0.0
 40
0.0
 40
0.1249999999999998
 40
0.1249999999999998
 40
0.1874999999999998
 40
0.1874999999999998
 40
0.2499999999999998
 40
0.2499999999999998
 40
0.3749999999999999
 40
0.3749999999999999
 40
0.4999999999999999
 40
0.4999999999999999
 40
0.6249999999999999
 40
0.6249999999999999
 40
0.75
 40
0.75
 40
0.875
 40
0.875
 40
1.0
 40
1.0
 40
1.0
 40
1.0
 10
-91.37521494892563
 20
92.47056440386098
 30
0.0
 10
-91.37103642628718
 20
93.04495353156058
 30
0.0
 10
-91.34957590330941
 20
93.61857075290783
 30
0.0
 10
-91.29665268025366
 20
94.4383688602023
 30
0.0
 10
-91.27559036695399
 20
94.70609163258173
 30
0.0
 10
-91.22732855145037
 20
95.23111282897116
 30
0.0
 10
-91.19993061584015
 20
95.48995488195922
 30
0.0
 10
-91.11107557026035
 20
96.23738879839824
 30
0.0
 10
-91.04324110945572
 20
96.69790028373463
 30
0.0
 10
-90.89585032233154
 20
97.55507437415376
 30
0.0
 10
-90.81574062990849
 20
97.95290794178251
 30
0.0
 10
-90.65331188644069
 20
98.66069722779561
 30
0.0
 10
-90.57029340111188
 20
98.97506690228697
 30
0.0
 10
-90.40263735841621
 20
99.52957211137019
 30
0.0
 10
-90.31724098789608
 20
99.77103168268599
 30
0.0
 10
-90.15128533066354
 20
100.1637619013685
 30
0.0
 10
-90.07031238497432
 20
100.3170546425439
 30
0.0
 10
-89.91246108742367
 20
100.5382899889556
 30
0.0
 10
-89.83557614056484
 20
100.6062688221801
 30
0.0
 10
-89.76063930323075
 20
100.6276376428611
 30
0.0
  0
SPLINE
  5
AD
330
1F
100
AcDbEntity
  8
0
  6
Continuous
 62
     7
370
    25
100
AcDbSpline
210
0.0
220
0.0
230
1.0
 70
    24
 71
     3
 72
    22
 73
    18
 74
     0
 42
0.000000001
 43
0.00000001
 40
0.0
 40
0.0
 40
0.0
 40
0.0
 40
0.1250000000000001
 40
0.1250000000000001
 40
0.2500000000000002
 40
0.2500000000000002
 40
0.3750000000000003
 40
0.3750000000000003
 40
0.5000000000000004
 40
0.5000000000000004
 40
0.6250000000000006
 40
0.6250000000000006
 40
0.7500000000000007
 40
0.7500000000000007
 40
0.8750000000000003
 40
0.8750000000000003
 40
1.0
 40
1.0
 40
1.0
 40
1.0
 10
-91.3752146254467
 20
83.908020849861
 30
0.0
 10
-90.05092036414808
 20
83.90802084986102
 30
0.0
 10
-88.59587702179685
 20
83.908020849861
 30
0.0
 10
-85.45077553181488
 20
83.90802084986102
 30
0.0
 10
-83.76070438443291
 20
83.90802084986096
 30
0.0
 10
-80.20097021570538
 20
83.90802084986099
 30
0.0
 10
-78.3315393004219
 20
83.90802084986095
 30
0.0
 10
-74.49473993315965
 20
83.90802084986095
 30
0.0
 10
-72.52782520067323
 20
83.908020849861
 30
0.0
 10
-68.59345197749175
 20
83.908020849861
 30
0.0
 10
-66.6265372450862
 20
83.90802084986102
 30
0.0
 10
-62.78973787813978
 20
83.90802084986099
 30
0.0
 10
-60.92030696309107
 20
83.908020849861
 30
0.0
 10
-57.3605727949648
 20
83.908020849861
 30
0.0
 10
-55.67050164794917
 20
83.90802084986102
 30
0.0
 10
-52.52540015880017
 20
83.90802084986102
 30
0.0
 10
-51.07035681691541
 20
83.90802084986103
 30
0.0
 10
-49.74606255611606
 20
83.908020849861
 30
0.0
  0
SPLINE
  5
AF
330
1F
100
AcDbEntity
  8
0
  6
Continuous
 62
     7
370
    25
100
AcDbSpline
210
0.0
220
0.0
230
1.0
 70
     8
 71
     3
 72
    10
 73
     6
 74
     0
 42
0.000000001
 43
0.00000001
 40
0.0
 40
0.0
 40
0.0
 40
0.0
 40
0.5
 40
0.5
 40
1.0
 40
1.0
 40
1.0
 40
1.0
 10
-92.260638591575
 20
92.47056457260862
 30
0.0
 10
-92.260638591575
 20
92.47056465242794
 30
0.0
 10
-92.1832608660068
 20
92.47056469189957
 30
0.0
 10
-91.87374996373403
 20
92.47056466683073
 30
0.0
 10
-91.6429510464464
 20
92.47056460239824
 30
0.0
 10
-91.37521452962092
 20
92.4705645008936
 30
0.0
  0
SPLINE
  5
B0
330
1F
100
AcDbEntity
  8
0
  6
Continuous
 62
     7
370
    25
100
AcDbSpline
210
0.0
220
0.0
230
1.0
 70
    24
 71
     3
 72
    60
 73
    56
 74
     0
 42
0.000000001
 43
0.00000001
 40
0.0
 40
0.0
 40
0.0
 40
0.0
 40
0.031249999999994
 40
0.046874999999991
 40
0.046874999999991
 40
0.062499999999988
 40
0.062499999999988
 40
0.0937499999999819
 40
0.1093749999999789
 40
0.1093749999999789
 40
0.124999999999976
 40
0.124999999999976
 40
0.15624999999997
 40
0.171874999999967
 40
0.171874999999967
 40
0.187499999999964
 40
0.187499999999964
 40
0.2187499999999602
 40
0.2343749999999593
 40
0.2421874999999588
 40
0.2421874999999588
 40
0.2499999999999583
 40
0.2499999999999583
 40
0.2812499999999551
 40
0.2968749999999527
 40
0.2968749999999527
 40
0.3124999999999503
 40
0.3124999999999503
 40
0.3437499999999455
 40
0.3593749999999431
 40
0.3593749999999431
 40
0.3749999999999407
 40
0.3749999999999407
 40
0.4374999999999372
 40
0.4687499999999362
 40
0.4843749999999357
 40
0.4921874999999362
 40
0.4921874999999362
 40
0.4999999999999367
 40
0.4999999999999367
 40
0.5624999999999457
 40
0.5624999999999457
 40
0.6249999999999548
 40
0.6249999999999548
 40
0.6874999999999638
 40
0.7187499999999678
 40
0.7187499999999678
 40
0.7499999999999717
 40
0.7499999999999717
 40
0.8124999999999792
 40
0.843749999999983
 40
0.843749999999983
 40
0.8749999999999867
 40
0.8749999999999867
 40
1.0
 40
1.0
 40
1.0
 40
1.0
 10
-92.260638591575
 20
92.47056457260862
 30
0.0
 10
-92.26063859157502
 20
92.65818968052768
 30
0.0
 10
-92.26063859157503
 20
92.93951648782769
 30
0.0
 10
-92.260638591575
 20
93.22067663447764
 30
0.0
 10
-92.26063859157503
 20
93.4080796965443
 30
0.0
 10
-92.260638591575
 20
93.50354291572759
 30
0.0
 10
-92.26063859157503
 20
93.77919578372766
 30
0.0
 10
-92.26063859157495
 20
94.05413179842743
 30
0.0
 10
-92.26063859157499
 20
94.32799253317755
 30
0.0
 10
-92.26063859157503
 20
94.51032740524427
 30
0.0
 10
-92.260638591575
 20
94.60375075519426
 30
0.0
 10
-92.26063859157506
 20
94.86941004159426
 30
0.0
 10
-92.26063859157497
 20
95.13376695599428
 30
0.0
 10
-92.260638591575
 20
95.39617031239423
 30
0.0
 10
-92.260638591575
 20
95.57067175932757
 30
0.0
 10
-92.260638591575
 20
95.65922579719428
 30
0.0
 10
-92.26063859157503
 20
95.91511446639421
 30
0.0
 10
-92.26063859157502
 20
96.16909266449426
 30
0.0
 10
-92.260638591575
 20
96.46205723785258
 30
0.0
 10
-92.260638591575
 20
96.58689705691503
 30
0.0
 10
-92.26063859157505
 20
96.6699643970317
 30
0.0
 10
-92.260638591575
 20
96.71276273159421
 30
0.0
 10
-92.260638591575
 20
96.91291371492753
 30
0.0
 10
-92.26063859157497
 20
97.15065588622755
 30
0.0
 10
-92.26063859157502
 20
97.38473954447753
 30
0.0
 10
-92.26063859157506
 20
97.53998231374422
 30
0.0
 10
-92.26063859157499
 20
97.61933589519421
 30
0.0
 10
-92.26063859157499
 20
97.8433449455942
 30
0.0
 10
-92.26063859157499
 20
98.06442140529408
 30
0.0
 10
-92.26063859157502
 20
98.2810989789442
 30
0.0
 10
-92.26063859157497
 20
98.42457316447747
 30
0.0
 10
-92.26063859157499
 20
98.49749716612753
 30
0.0
 10
-92.26063859157503
 20
98.84291660879416
 30
0.0
 10
-92.26063859157502
 20
99.24282655049417
 30
0.0
 10
-92.26063859157502
 20
99.68384971751914
 30
0.0
 10
-92.26063859157503
 20
99.8979766931253
 30
0.0
 10
-92.26063859157503
 20
99.98837726669105
 30
0.0
 10
-92.260638591575
 20
100.0483402867868
 30
0.0
 10
-92.26063859157503
 20
100.0792878490275
 30
0.0
 10
-92.26063859157503
 20
100.3363225789275
 30
0.0
 10
-92.26063859157499
 20
100.5533255652608
 30
0.0
 10
-92.260638591575
 20
100.9643868796609
 30
0.0
 10
-92.26063859157505
 20
101.1595956797276
 30
0.0
 10
-92.26063859157502
 20
101.5224667335943
 30
0.0
 10
-92.26063859157502
 20
101.7749338521943
 30
0.0
 10
-92.260638591575
 20
101.9978717130943
 30
0.0
 10
-92.26063859157503
 20
102.1399348964276
 30
0.0
 10
-92.26063859157505
 20
102.208408007461
 30
0.0
 10
-92.26063859157502
 20
102.399648966661
 30
0.0
 10
-92.26063859157502
 20
102.569949410361
 30
0.0
 10
-92.26063859157499
 20
102.708839080811
 30
0.0
 10
-92.260638591575
 20
102.794452022611
 30
0.0
 10
-92.260638591575
 20
102.8332895113277
 30
0.0
 10
-92.26063859157502
 20
103.0148154879944
 30
0.0
 10
-92.26063859157502
 20
103.1003221597276
 30
0.0
 10
-92.26063859153847
 20
103.1261147143274
 30
0.0
  0
SPLINE
  5
B1
330
1F
100
AcDbEntity
  8
0
  6
Continuous
 62
     7
370
    25
100
AcDbSpline
210
0.0
220
0.0
230
1.0
 70
     8
 71
     3
 72
    10
 73
     6
 74
     0
 42
0.000000001
 43
0.00000001
 40
0.0
 40
0.0
 40
0.0
 40
0.0
 40
0.5
 40
0.5
 40
1.0
 40
1.0
 40
1.0
 40
1.0
 10
-49.74606265738556
 20
92.47056450107969
 30
0.0
 10
-49.47832613939394
 20
92.47056460252804
 30
0.0
 10
-49.24752722110109
 20
92.47056466691203
 30
0.0
 10
-48.93801631748022
 20
92.47056469191584
 30
0.0
 10
-48.86063859157502
 20
92.47056465242791
 30
0.0
 10
-48.86063859157501
 20
92.47056457260861
 30
0.0
  0
SPLINE
  5
B2
330
1F
100
AcDbEntity
  8
0
  6
Continuous
 62
     7
370
    25
100
AcDbSpline
210
0.0
220
0.0
230
1.0
 70
    24
 71
     3
 72
    28
 73
    24
 74
     0
 42
0.000000001
 43
0.00000001
 40
0.0
 40
0.0
 40
0.0
 40
0.0
 40
0.1249999999999997
 40
0.1249999999999997
 40
0.1874999999999995
 40
0.1874999999999995
 40
0.2499999999999993
 40
0.2499999999999993
 40
0.374999999999999
 40
0.374999999999999
 40
0.4374999999999988
 40
0.4374999999999988
 40
0.4999999999999987
 40
0.4999999999999987
 40
0.6249999999999983
 40
0.6249999999999983
 40
0.6874999999999982
 40
0.6874999999999982
 40
0.749999999999998
 40
0.749999999999998
 40
0.874999999999999
 40
0.874999999999999
 40
1.0
 40
1.0
 40
1.0
 40
1.0
 10
-48.86063859157501
 20
92.47056457260861
 30
0.0
 10
-48.86063859157502
 20
93.22428770311333
 30
0.0
 10
-48.860638591575
 20
93.97632556986096
 30
0.0
 10
-48.86063859157503
 20
95.05029297786095
 30
0.0
 10
-48.86063859157502
 20
95.40088099686099
 30
0.0
 10
-48.86063859157501
 20
96.08816303019432
 30
0.0
 10
-48.860638591575
 20
96.42687586666095
 30
0.0
 10
-48.86063859157503
 20
97.40462701546106
 30
0.0
 10
-48.860638591575
 20
98.00661690619431
 30
0.0
 10
-48.86063859157503
 20
98.84656311819437
 30
0.0
 10
-48.86063859157503
 20
99.11660537426103
 30
0.0
 10
-48.860638591575
 20
99.632948079861
 30
0.0
 10
-48.860638591575
 20
99.87692541186097
 30
0.0
 10
-48.86063859157501
 20
100.569691002361
 30
0.0
 10
-48.860638591575
 20
100.979687538361
 30
0.0
 10
-48.860638591575
 20
101.521703032861
 30
0.0
 10
-48.860638591575
 20
101.690108496861
 30
0.0
 10
-48.86063859157504
 20
102.002046791261
 30
0.0
 10
-48.86063859157504
 20
102.144468648661
 30
0.0
 10
-48.86063859157501
 20
102.527527651861
 30
0.0
 10
-48.86063859157502
 20
102.726505068861
 30
0.0
 10
-48.86063859157502
 20
103.012684324861
 30
0.0
 10
-48.86063859157501
 20
103.099933555861
 30
0.0
 10
-48.86063859161155
 20
103.1261147141779
 30
0.0
  0
SPLINE
  5
B3
330
1F
100
AcDbEntity
  8
0
  6
Continuous
 62
     7
370
    25
100
AcDbSpline
210
0.0
220
0.0
230
1.0
 70
    24
 71
     3
 72
    10
 73
     6
 74
     0
 42
0.000000001
 43
0.00000001
 40
0.0
 40
0.0
 40
0.0
 40
0.0
 40
0.5
 40
0.5
 40
1.0
 40
1.0
 40
1.0
 40
1.0
 10
-49.74606255611606
 20
83.908020849861
 30
0.0
 10
-49.47832606885838
 20
83.908020849861
 30
0.0
 10
-49.24752717705313
 20
83.90802084986102
 30
0.0
 10
-48.93801630881467
 20
83.908020849861
 30
0.0
 10
-48.86063859164694
 20
83.90802084986102
 30
0.0
 10
-48.86063859157501
 20
83.908020849861
 30
0.0
  0
SPLINE
  5
B5
330
1F
100
AcDbEntity
  8
0
  6
Continuous
 62
     7
370
    25
100
AcDbSpline
210
0.0
220
0.0
230
1.0
 70
    24
 71
     3
 72
    10
 73
     6
 74
     0
 42
0.000000001
 43
0.00000001
 40
0.0
 40
0.0
 40
0.0
 40
0.0
 40
0.5
 40
0.5
 40
1.0
 40
1.0
 40
1.0
 40
1.0
 10
-92.260638591575
 20
83.908020849861
 30
0.0
 10
-92.2606385914401
 20
83.908020849861
 30
0.0
 10
-92.18326087420637
 20
83.90802084986102
 30
0.0
 10
-91.87375000552183
 20
83.908020849861
 30
0.0
 10
-91.64295111332878
 20
83.90802084986102
 30
0.0
 10
-91.3752146254467
 20
83.908020849861
 30
0.0
  0
SPLINE
  5
B7
330
1F
100
AcDbEntity
  8
0
  6
Continuous
 62
     7
370
    25
100
AcDbSpline
210
0.0
220
0.0
230
1.0
 70
    24
 71
     3
 72
    10
 73
     6
 74
     0
 42
0.000000001
 43
0.00000001
 40
0.0
 40
0.0
 40
0.0
 40
0.0
 40
0.1969440372426014
 40
0.5969156852345969
 40
1.0
 40
1.0
 40
1.0
 40
1.0
 10
-88.62304788039937
 20
81.908020849861
 30
0.0
 10
-88.74684706010773
 20
81.90802084986102
 30
0.0
 10
-89.12206873841657
 20
81.908020849861
 30
0.0
 10
-89.46715906671527
 20
81.90802084986095
 30
0.0
 10
-89.52939833625403
 20
81.90802084986097
 30
0.0
 10
-89.56063859157499
 20
81.90802084986102
 30
0.0
  0
SPLINE
  5
B8
330
1F
100
AcDbEntity
  8
0
  6
Continuous
 62
     7
370
    25
100
AcDbSpline
210
0.0
220
0.0
230
1.0
 70
     8
 71
     3
 72
    15
 73
    11
 74
     0
 42
0.000000001
 43
0.00000001
 40
0.0
 40
0.0
 40
0.0
 40
0.0
 40
0.1381590515692937
 40
0.2601964545343555
 40
0.3602977395531506
 40
0.4348814376656141
 40
0.4821814164683206
 40
0.5015279765072496
 40
0.7597758880300878
 40
0.9999999999999999
 40
0.9999999999999999
 40
0.9999999999999999
 40
0.9999999999999999
 10
-52.61797276190023
 20
81.90802084986099
 30
0.0
 10
-52.61609167738759
 20
81.90713024315714
 30
0.0
 10
-52.61254901032878
 20
81.90545295380046
 30
0.0
 10
-52.60772523741191
 20
81.89346161023171
 30
0.0
 10
-52.60421082055571
 20
81.87909642304919
 30
0.0
 10
-52.6019593363286
 20
81.8655974939525
 30
0.0
 10
-52.60074258018174
 20
81.85593066983019
 30
0.0
 10
-52.59813838767924
 20
81.83241518275932
 30
0.0
 10
-52.5934866772259
 20
81.78577412158465
 30
0.0
 10
-52.5929310170218
 20
81.73330622723117
 30
0.0
 10
-52.59266323272741
 20
81.70802084964936
 30
0.0
  0
SPLINE
  5
B9
330
1F
100
AcDbEntity
  8
0
  6
Continuous
 62
     7
370
    25
100
AcDbSpline
210
0.0
220
0.0
230
1.0
 70
    24
 71
     3
 72
    20
 73
    16
 74
     0
 42
0.000000001
 43
0.00000001
 40
0.0
 40
0.0
 40
0.0
 40
0.0
 40
0.1249999999999992
 40
0.1249999999999992
 40
0.2499999999999984
 40
0.2499999999999984
 40
0.3749999999999977
 40
0.3749999999999977
 40
0.4999999999999969
 40
0.4999999999999969
 40
0.6249999999999961
 40
0.6249999999999961
 40
0.7499999999999953
 40
0.7499999999999953
 40
1.0
 40
1.0
 40
1.0
 40
1.0
 10
-52.6179733275829
 20
81.908020849861
 30
0.0
 10
-52.35799285077502
 20
81.90802084986102
 30
0.0
 10
-52.10560422164171
 20
81.908020849861
 30
0.0
 10
-51.61507490390829
 20
81.90802084986103
 30
0.0
 10
-51.37863353337502
 20
81.90802084986103
 30
0.0
 10
-50.93575534577501
 20
81.90802084986102
 30
0.0
 10
-50.72868046194166
 20
81.908020849861
 30
0.0
 10
-50.33940287100835
 20
81.908020849861
 30
0.0
 10
-50.15979915137502
 20
81.90802084986103
 30
0.0
 10
-49.839160321775
 20
81.90802084986102
 30
0.0
 10
-49.69715852190836
 20
81.908020849861
 30
0.0
 10
-49.44958758204166
 20
81.908020849861
 30
0.0
 10
-49.34505735317502
 20
81.90802084986102
 30
0.0
 10
-49.09496089697501
 20
81.90802084986102
 30
0.0
 10
-49.01063859157502
 20
81.90802084986103
 30
0.0
 10
-49.01063859156136
 20
81.908020849861
 30
0.0
  0
SPLINE
  5
BA
330
1F
100
AcDbEntity
  8
0
  6
Continuous
 62
     7
370
    25
100
AcDbSpline
210
0.0
220
0.0
230
1.0
 70
     8
 71
     3
 72
    10
 73
     6
 74
     0
 42
0.000000001
 43
0.00000001
 40
0.0
 40
0.0
 40
0.0
 40
0.0
 40
0.5
 40
0.5
 40
1.0
 40
1.0
 40
1.0
 40
1.0
 10
-48.8106385916469
 20
81.7080208480937
 30
0.0
 10
-48.81063859078932
 20
81.75516130016918
 30
0.0
 10
-48.83016480479115
 20
81.8103897757
 30
0.0
 10
-48.9082696633964
 20
81.8884946350288
 30
0.0
 10
-48.96349813906507
 20
81.90802084986102
 30
0.0
 10
-49.01063859156136
 20
81.908020849861
 30
0.0
  0
SPLINE
  5
BC
330
1F
100
AcDbEntity
  8
0
  6
Continuous
 62
     7
370
    25
100
AcDbSpline
210
0.0
220
0.0
230
1.0
 70
     8
 71
     3
 72
     8
 73
     4
 74
     0
 42
0.000000001
 43
0.00000001
 40
0.0
 40
0.0
 40
0.0
 40
0.0
 40
1.0
 40
1.0
 40
1.0
 40
1.0
 10
-52.60302720583606
 20
81.67621279148621
 30
0.0
 10
-52.5961181616901
 20
81.6867053047943
 30
0.0
 10
-52.59266354613931
 20
81.697307990661
 30
0.0
 10
-52.59266350707085
 20
81.7080208496495
 30
0.0
  0
SPLINE
  5
BD
330
1F
100
AcDbEntity
  8
0
  6
Continuous
 62
     7
370
    25
100
AcDbSpline
210
0.0
220
0.0
230
1.0
 70
     8
 71
     3
 72
     8
 73
     4
 74
     0
 42
0.000000001
 43
0.00000001
 40
0.0
 40
0.0
 40
0.0
 40
0.0
 40
1.0
 40
1.0
 40
1.0
 40
1.0
 10
-88.51824997731376
 20
81.67621279148621
 30
0.0
 10
-88.52515659788921
 20
81.6867011902697
 30
0.0
 10
-88.52861375412976
 20
81.69738197187459
 30
0.0
 10
-88.52861367607895
 20
81.7080208496495
 30
0.0
  0
SPLINE
  5
BE
330
1F
100
AcDbEntity
  8
0
  6
Continuous
 62
     7
370
    25
100
AcDbSpline
210
0.0
220
0.0
230
1.0
 70
     8
 71
     3
 72
    20
 73
    16
 74
     0
 42
0.000000001
 43
0.00000001
 40
0.0
 40
0.0
 40
0.0
 40
0.0
 40
0.2499999999999957
 40
0.2499999999999957
 40
0.3749999999999964
 40
0.3749999999999964
 40
0.4999999999999971
 40
0.4999999999999971
 40
0.6249999999999978
 40
0.6249999999999978
 40
0.7499999999999986
 40
0.7499999999999986
 40
0.8749999999999992
 40
0.8749999999999992
 40
1.0
 40
1.0
 40
1.0
 40
1.0
 10
-92.310638591575
 20
81.70802086866354
 30
0.0
 10
-92.31063859210812
 20
81.70235047422626
 30
0.0
 10
-92.22323394591861
 20
81.69786901599473
 30
0.0
 10
-91.95720357546892
 20
81.69214720300336
 30
0.0
 10
-91.84697981448484
 20
81.69044780850598
 30
0.0
 10
-91.58769877511438
 20
81.68740281763489
 30
0.0
 10
-91.4382382211126
 20
81.6860484429113
 30
0.0
 10
-91.09805582669043
 20
81.68360266845136
 30
0.0
 10
-90.90851739718556
 20
81.68252421181667
 30
0.0
 10
-90.50176435521365
 20
81.68064489042035
 30
0.0
 10
-90.28318022576399
 20
81.67983374428167
 30
0.0
 10
-89.81464117774375
 20
81.6784244868067
 30
0.0
 10
-89.56567315499503
 20
81.67783207616677
 30
0.0
 10
-89.0548992297024
 20
81.67687020056057
 30
0.0
 10
-88.79095518258418
 20
81.67649379357849
 30
0.0
 10
-88.51825015441722
 20
81.67621280422229
 30
0.0
  0
SPLINE
  5
BF
330
1F
100
AcDbEntity
  8
0
  6
Continuous
 62
     7
370
    25
100
AcDbSpline
210
0.0
220
0.0
230
1.0
 70
     8
 71
     3
 72
    10
 73
     6
 74
     0
 42
0.000000001
 43
0.00000001
 40
0.0
 40
0.0
 40
0.0
 40
0.0
 40
0.5
 40
0.5
 40
1.0
 40
1.0
 40
1.0
 40
1.0
 10
-92.11063859158867
 20
81.908020849861
 30
0.0
 10
-92.15777904408496
 20
81.90802084986099
 30
0.0
 10
-92.21300751975367
 20
81.88849463502878
 30
0.0
 10
-92.29111237835885
 20
81.81038977569995
 30
0.0
 10
-92.31063859236068
 20
81.75516130016915
 30
0.0
 10
-92.3106385915031
 20
81.7080208480937
 30
0.0
  0
SPLINE
  5
C0
330
1F
100
AcDbEntity
  8
0
  6
Continuous
 62
     7
370
    25
100
AcDbSpline
210
0.0
220
0.0
230
1.0
 70
    24
 71
     3
 72
    20
 73
    16
 74
     0
 42
0.000000001
 43
0.00000001
 40
0.0
 40
0.0
 40
0.0
 40
0.0
 40
0.1250000000000004
 40
0.1250000000000004
 40
0.2500000000000009
 40
0.2500000000000009
 40
0.3750000000000013
 40
0.3750000000000013
 40
0.5000000000000018
 40
0.5000000000000018
 40
0.6250000000000022
 40
0.6250000000000022
 40
0.7500000000000027
 40
0.7500000000000027
 40
1.0
 40
1.0
 40
1.0
 40
1.0
 10
-92.11063859158867
 20
81.908020849861
 30
0.0
 10
-92.11063859157501
 20
81.908020849861
 30
0.0
 10
-92.08987742214165
 20
81.908020849861
 30
0.0
 10
-92.00568231920833
 20
81.90802084986099
 30
0.0
 10
-91.94358730157501
 20
81.90802084986099
 30
0.0
 10
-91.77558332917505
 20
81.90802084986099
 30
0.0
 10
-91.67165583944157
 20
81.90802084986099
 30
0.0
 10
-91.42415242290843
 20
81.90802084986099
 30
0.0
 10
-91.28353327104178
 20
81.90802084986099
 30
0.0
 10
-90.96006162210841
 20
81.90802084986099
 30
0.0
 10
-90.78123160494164
 20
81.908020849861
 30
0.0
 10
-90.3932394284084
 20
81.90802084986099
 30
0.0
 10
-90.18758150017504
 20
81.90802084986099
 30
0.0
 10
-89.51708523037506
 20
81.908020849861
 30
0.0
 10
-89.02326517017504
 20
81.90802084986099
 30
0.0
 10
-88.5033038555669
 20
81.908020849861
 30
0.0
  0
SPLINE
  5
C1
330
1F
100
AcDbEntity
  8
0
  6
Continuous
 62
     7
370
    25
100
AcDbSpline
210
0.0
220
0.0
230
1.0
 70
     8
 71
     3
 72
    13
 73
     9
 74
     0
 42
0.000000001
 43
0.00000001
 40
0.0
 40
0.0
 40
0.0
 40
0.0
 40
0.1174156673421148
 40
0.2414422819140785
 40
0.3701922848235774
 40
0.5012691687320812
 40
0.6891852574970246
 40
1.0
 40
1.0
 40
1.0
 40
1.0
 10
-88.52861395042248
 20
81.70802084964934
 30
0.0
 10
-88.52854327547566
 20
81.7203272571288
 30
0.0
 10
-88.52839794631457
 20
81.74563296948615
 30
0.0
 10
-88.52703412481722
 20
81.78304786063539
 30
0.0
 10
-88.52466969070665
 20
81.81890885229299
 30
0.0
 10
-88.52082685426424
 20
81.85513233992032
 30
0.0
 10
-88.51437484772194
 20
81.89613221323363
 30
0.0
 10
-88.50755477090851
 20
81.9034563588036
 30
0.0
 10
-88.5033044212495
 20
81.90802084986102
 30
0.0
  0
SPLINE
  5
C2
330
1F
100
AcDbEntity
  8
0
  6
Continuous
 62
     7
370
    25
100
AcDbSpline
210
0.0
220
0.0
230
1.0
 70
     8
 71
     3
 72
    25
 73
    21
 74
     0
 42
0.000000001
 43
0.00000001
 40
0.0
 40
0.0
 40
0.0
 40
0.0
 40
0.1250000000000097
 40
0.1875000000000103
 40
0.1875000000000103
 40
0.2500000000000109
 40
0.2500000000000109
 40
0.3750000000000016
 40
0.3750000000000016
 40
0.4375000000000061
 40
0.4375000000000061
 40
0.5000000000000107
 40
0.5000000000000107
 40
0.6250000000000088
 40
0.6250000000000088
 40
0.6875000000000016
 40
0.6875000000000016
 40
0.7499999999999942
 40
0.7499999999999942
 40
1.0
 40
1.0
 40
1.0
 40
1.0
 10
-52.60302720583606
 20
81.67621279148621
 30
0.0
 10
-52.63854549198151
 20
81.62227417031487
 30
0.0
 10
-52.69384198284545
 20
81.54508377447496
 30
0.0
 10
-52.75212372824937
 20
81.47359949042315
 30
0.0
 10
-52.79163523112334
 20
81.42722560146123
 30
0.0
 10
-52.81002807002108
 20
81.40649459229607
 30
0.0
 10
-52.87633029164264
 20
81.33535759992206
 30
0.0
 10
-52.92180918786482
 20
81.29123515006681
 30
0.0
 10
-52.99188263366287
 20
81.23010942911868
 30
0.0
 10
-53.01554949077935
 20
81.2105771098505
 30
0.0
 10
-53.0634893577582
 20
81.1732148231355
 30
0.0
 10
-53.08564552404092
 20
81.15684704339284
 30
0.0
 10
-53.16570470487335
 20
81.10154790781809
 30
0.0
 10
-53.22010892552293
 20
81.06898368110907
 30
0.0
 10
-53.30315972359036
 20
81.02669344008704
 30
0.0
 10
-53.33108391518889
 20
81.01368918985412
 30
0.0
 10
-53.3873945507662
 20
80.989880571534
 30
0.0
 10
-53.41427535358924
 20
80.97958661167506
 30
0.0
 10
-53.5648410771483
 20
80.92854557758012
 30
0.0
 10
-53.68714916296009
 20
80.90802084709043
 30
0.0
 10
-53.81063859490826
 20
80.90802084823501
 30
0.0
  0
SPLINE
  5
C3
330
1F
100
AcDbEntity
  8
0
  6
Continuous
 62
     7
370
    25
100
AcDbSpline
210
0.0
220
0.0
230
1.0
 70
     8
 71
     3
 72
    14
 73
    10
 74
     0
 42
0.000000001
 43
0.00000001
 40
0.0
 40
0.0
 40
0.0
 40
0.0
 40
0.25
 40
0.25
 40
0.5
 40
0.5
 40
0.75
 40
0.75
 40
1.0
 40
1.0
 40
1.0
 40
1.0
 10
-48.8106385916469
 20
81.7080208480937
 30
0.0
 10
-48.810638591575
 20
80.898123968261
 30
0.0
 10
-48.81063859157501
 20
80.12752670446103
 30
0.0
 10
-48.81063859157501
 20
78.72152876926098
 30
0.0
 10
-48.81063859157501
 20
78.09489326086099
 30
0.0
 10
-48.81063859157501
 20
77.040372131261
 30
0.0
 10
-48.81063859157501
 20
76.61906094346102
 30
0.0
 10
-48.81063859157502
 20
76.01928029386102
 30
0.0
 10
-48.81063859157501
 20
75.844550142161
 30
0.0
 10
-48.81063859173275
 20
75.8013965348826
 30
0.0
  0
SPLINE
  5
C4
330
1F
100
AcDbEntity
  8
0
  6
Continuous
 62
     7
370
    25
100
AcDbSpline
210
0.0
220
0.0
230
1.0
 70
     8
 71
     3
 72
    18
 73
    14
 74
     0
 42
0.000000001
 43
0.00000001
 40
0.0
 40
0.0
 40
0.0
 40
0.0
 40
0.2499999999999982
 40
0.2499999999999982
 40
0.3749999999999974
 40
0.3749999999999974
 40
0.4999999999999968
 40
0.4999999999999968
 40
0.6249999999999961
 40
0.6249999999999961
 40
0.7499999999999953
 40
0.7499999999999953
 40
1.0
 40
1.0
 40
1.0
 40
1.0
 10
-53.81063859146084
 20
70.80802084988287
 30
0.0
 10
-53.22138294030809
 20
70.80802085021801
 30
0.0
 10
-52.58564979540077
 20
70.9152722624951
 30
0.0
 10
-51.66242266767043
 20
71.28028522962813
 30
0.0
 10
-51.36043700846292
 20
71.43533032081523
 30
0.0
 10
-50.78874264087339
 20
71.80859668104748
 30
0.0
 10
-50.51918236817385
 20
72.02679241414081
 30
0.0
 10
-50.03102700363762
 20
72.51430103958147
 30
0.0
 10
-49.81254180752503
 20
72.78350418180169
 30
0.0
 10
-49.43878026433118
 20
73.35444113262814
 30
0.0
 10
-49.28352948707848
 20
73.65602670220899
 30
0.0
 10
-48.9180322861196
 20
74.57803068057817
 30
0.0
 10
-48.81063859192113
 20
75.21292156637213
 30
0.0
 10
-48.81063859173275
 20
75.8013965348826
 30
0.0
  0
SPLINE
  5
C5
330
1F
100
AcDbEntity
  8
0
  6
Continuous
 62
     7
370
    25
100
AcDbSpline
210
0.0
220
0.0
230
1.0
 70
     8
 71
     3
 72
    22
 73
    18
 74
     0
 42
0.000000001
 43
0.00000001
 40
0.0
 40
0.0
 40
0.0
 40
0.0
 40
0.125
 40
0.125
 40
0.25
 40
0.25
 40
0.375
 40
0.375
 40
0.5
 40
0.5
 40
0.625
 40
0.625
 40
0.75
 40
0.75
 40
0.875
 40
0.875
 40
1.0
 40
1.0
 40
1.0
 40
1.0
 10
-53.81063859490825
 20
80.90802084823505
 30
0.0
 10
-53.81063859427247
 20
80.26351542564002
 30
0.0
 10
-53.81063859368486
 20
79.61436381319645
 30
0.0
 10
-53.81063859262919
 20
78.33256954543745
 30
0.0
 10
-53.81063859216128
 20
77.7000320870033
 30
0.0
 10
-53.81063859136215
 20
76.48015215990013
 30
0.0
 10
-53.81063859103103
 20
75.89294338276636
 30
0.0
 10
-53.81063859051257
 20
74.79150005599851
 30
0.0
 10
-53.81063859032525
 20
74.27739272598254
 30
0.0
 10
-53.81063859008948
 20
73.34496465648108
 30
0.0
 10
-53.81063859004102
 20
72.92672714035473
 30
0.0
 10
-53.8106385900665
 20
72.20058902933093
 30
0.0
 10
-53.81063859014035
 20
71.89270540349062
 30
0.0
 10
-53.81063859038531
 20
71.39199618399144
 30
0.0
 10
-53.81063859055624
 20
71.19912405821269
 30
0.0
 10
-53.8106385909656
 20
70.92380780007406
 30
0.0
 10
-53.81063859120387
 20
70.84127690198589
 30
0.0
 10
-53.81063859146084
 20
70.80802084988287
 30
0.0
  0
SPLINE
  5
C6
330
1F
100
AcDbEntity
  8
0
  6
Continuous
 62
     7
370
    25
100
AcDbSpline
210
0.0
220
0.0
230
1.0
 70
    24
 71
     3
 72
    14
 73
    10
 74
     0
 42
0.000000001
 43
0.00000001
 40
0.0
 40
0.0
 40
0.0
 40
0.0
 40
0.25
 40
0.25
 40
0.5
 40
0.5
 40
0.75
 40
0.75
 40
1.0
 40
1.0
 40
1.0
 40
1.0
 10
-92.31063859150309
 20
81.70802084809374
 30
0.0
 10
-92.31063859145554
 20
80.93881955783647
 30
0.0
 10
-92.31063859141567
 20
80.1655523212831
 30
0.0
 10
-92.31063859135679
 20
78.7350545136686
 30
0.0
 10
-92.31063859133795
 20
78.08000775251507
 30
0.0
 10
-92.31063859132128
 20
76.99923545913595
 30
0.0
 10
-92.31063859132345
 20
76.57472905315983
 30
0.0
 10
-92.31063859134262
 20
75.99599930983412
 30
0.0
 10
-92.31063859135949
 20
75.84099445903112
 30
0.0
 10
-92.3106385913793
 20
75.80139653584791
 30
0.0
  0
SPLINE
  5
C7
330
1F
100
AcDbEntity
  8
0
  6
Continuous
 62
     7
370
    25
100
AcDbSpline
210
0.0
220
0.0
230
1.0
 70
     8
 71
     3
 72
    24
 73
    20
 74
     0
 42
0.000000001
 43
0.00000001
 40
0.0
 40
0.0
 40
0.0
 40
0.0
 40
0.1250000000000033
 40
0.1875000000000049
 40
0.1875000000000049
 40
0.2500000000000066
 40
0.2500000000000066
 40
0.3750000000000113
 40
0.4374999999999937
 40
0.4687499999999874
 40
0.4687499999999874
 40
0.4999999999999811
 40
0.4999999999999811
 40
0.6250000000000152
 40
0.6875000000000198
 40
0.6875000000000198
 40
0.7500000000000243
 40
0.7500000000000243
 40
1.0
 40
1.0
 40
1.0
 40
1.0
 10
-88.51824997731376
 20
81.67621279148621
 30
0.0
 10
-88.48260164863885
 20
81.62207669706102
 30
0.0
 10
-88.42720079805196
 20
81.544766772061
 30
0.0
 10
-88.36890699045367
 20
81.47329817376102
 30
0.0
 10
-88.32940157271908
 20
81.42695051416098
 30
0.0
 10
-88.31099639293888
 20
81.4062158109276
 30
0.0
 10
-88.24480272206422
 20
81.33521826852771
 30
0.0
 10
-88.17684411095779
 20
81.2692969074277
 30
0.0
 10
-88.09447041926143
 20
81.201271970086
 30
0.0
 10
-88.05850555594742
 20
81.17402199349849
 30
0.0
 10
-88.03438190205227
 20
81.1562783575485
 30
0.0
 10
-88.02338746533017
 20
81.1484075953277
 30
0.0
 10
-87.95663829181919
 20
81.1022158399944
 30
0.0
 10
-87.8751707411068
 20
81.0533535968944
 30
0.0
 10
-87.79165037664553
 20
81.01434314874427
 30
0.0
 10
-87.73551395283828
 20
80.99052547107775
 30
0.0
 10
-87.7090046974504
 20
80.98032020426102
 30
0.0
 10
-87.55744749910585
 20
80.92867780826099
 30
0.0
 10
-87.4347626062012
 20
80.90802084986099
 30
0.0
 10
-87.31063858824176
 20
80.90802084823501
 30
0.0
  0
SPLINE
  5
C8
330
1F
100
AcDbEntity
  8
0
  6
Continuous
 62
     7
370
    25
100
AcDbSpline
210
0.0
220
0.0
230
1.0
 70
     8
 71
     3
 72
    22
 73
    18
 74
     0
 42
0.000000001
 43
0.00000001
 40
0.0
 40
0.0
 40
0.0
 40
0.0
 40
0.125
 40
0.125
 40
0.25
 40
0.25
 40
0.375
 40
0.375
 40
0.5
 40
0.5
 40
0.625
 40
0.625
 40
0.75
 40
0.75
 40
0.875
 40
0.875
 40
1.0
 40
1.0
 40
1.0
 40
1.0
 10
-87.31063859242646
 20
70.80802084989908
 30
0.0
 10
-87.31063859260429
 20
70.84127690200033
 30
0.0
 10
-87.31063859276927
 20
70.92380780008685
 30
0.0
 10
-87.31063859304518
 20
71.19912405822255
 30
0.0
 10
-87.31063859315603
 20
71.39199618399996
 30
0.0
 10
-87.31063859329502
 20
71.89270540349685
 30
0.0
 10
-87.31063859332296
 20
72.20058902933617
 30
0.0
 10
-87.31063859327053
 20
72.9267271403583
 30
0.0
 10
-87.31063859319003
 20
73.34496465648394
 30
0.0
 10
-87.31063859290262
 20
74.27739272598426
 30
0.0
 10
-87.31063859269571
 20
74.7915000559998
 30
0.0
 10
-87.31063859214787
 20
75.89294338276704
 30
0.0
 10
-87.31063859180698
 20
76.48015215990058
 30
0.0
 10
-87.31063859099493
 20
77.70003208700348
 30
0.0
 10
-87.31063859052394
 20
78.3325695454376
 30
0.0
 10
-87.31063858946513
 20
79.61436381319648
 30
0.0
 10
-87.31063858887752
 20
80.26351542564004
 30
0.0
 10
-87.31063858824176
 20
80.90802084823508
 30
0.0
  0
SPLINE
  5
C9
330
1F
100
AcDbEntity
  8
0
  6
Continuous
 62
     7
370
    25
100
AcDbSpline
210
0.0
220
0.0
230
1.0
 70
     8
 71
     3
 72
    18
 73
    14
 74
     0
 42
0.000000001
 43
0.00000001
 40
0.0
 40
0.0
 40
0.0
 40
0.0
 40
0.2500000000000027
 40
0.2500000000000027
 40
0.3750000000000031
 40
0.3750000000000031
 40
0.5000000000000034
 40
0.5000000000000034
 40
0.6250000000000038
 40
0.6250000000000038
 40
0.7500000000000041
 40
0.7500000000000041
 40
1.0
 40
1.0
 40
1.0
 40
1.0
 10
-92.3106385913793
 20
75.80139653584791
 30
0.0
 10
-92.31063859119857
 20
75.21292156714324
 30
0.0
 10
-92.20324489700656
 20
74.57803068117563
 30
0.0
 10
-91.8377476960759
 20
73.65602670259693
 30
0.0
 10
-91.68249691883577
 20
73.35444113295469
 30
0.0
 10
-91.30873537567678
 20
72.78350418202349
 30
0.0
 10
-91.09025017958648
 20
72.51430103976001
 30
0.0
 10
-90.60209481510698
 20
72.02679241424981
 30
0.0
 10
-90.33253454244195
 20
71.80859668113031
 30
0.0
 10
-89.76084017493447
 20
71.43533032085966
 30
0.0
 10
-89.45885451577455
 20
71.28028522966032
 30
0.0
 10
-88.53562738820557
 20
70.91527226250467
 30
0.0
 10
-87.89989424343085
 20
70.80802085023097
 30
0.0
 10
-87.31063859242646
 20
70.80802084989908
 30
0.0
  0
SPLINE
  5
CD
330
1F
100
AcDbEntity
  8
0
  6
Continuous
 62
     7
370
    25
100
AcDbSpline
210
0.0
220
0.0
230
1.0
 70
     8
 71
     3
 72
    16
 73
    12
 74
     0
 42
0.000000001
 43
0.00000001
 40
0.0
 40
0.0
 40
0.0
 40
0.0
 40
0.0505943122007827
 40
0.1344257859775035
 40
0.250751328523843
 40
0.3883848248894922
 40
0.4997252784705684
 40
0.6323270420806202
 40
0.7598609345465378
 40
0.8823913397257108
 40
1.0
 40
1.0
 40
1.0
 40
1.0
 10
-66.34015284269462
 20
70.80802084990536
 30
0.0
 10
-66.40849597575355
 20
70.80936325377142
 30
0.0
 10
-66.59007922054909
 20
70.81292993324479
 30
0.0
 10
-66.93218261204682
 20
70.81996527485151
 30
0.0
 10
-67.39789447698693
 20
70.8296361475777
 30
0.0
 10
-67.90776026859024
 20
70.83998881000142
 30
0.0
 10
-68.4454134282644
 20
70.84988205025898
 30
0.0
 10
-68.9729122867102
 20
70.85785622028331
 30
0.0
 10
-69.51955528712367
 20
70.86391319924701
 30
0.0
 10
-70.04676060292941
 20
70.86774629326162
 30
0.0
 10
-70.39170250438774
 20
70.86824321805054
 30
0.0
 10
-70.56063859492501
 20
70.86848658811019
 30
0.0
  0
SPLINE
  5
CE
330
1F
100
AcDbEntity
  8
0
  6
Continuous
 62
     7
370
    25
100
AcDbSpline
210
0.0
220
0.0
230
1.0
 70
     8
 71
     3
 72
    17
 73
    13
 74
     0
 42
0.000000001
 43
0.00000001
 40
0.0
 40
0.0
 40
0.0
 40
0.0
 40
0.077905589853358
 40
0.1578923803803879
 40
0.2400125369150381
 40
0.3243173835141572
 40
0.4108570754130085
 40
0.4996802343634545
 40
0.6189975756337552
 40
0.7421172914313654
 40
0.8691013187020297
 40
1.0
 40
1.0
 40
1.0
 40
1.0
 10
-70.56063859660006
 20
70.8684865881102
 30
0.0
 10
-70.6725414680853
 20
70.86838030417972
 30
0.0
 10
-70.89933662852837
 20
70.86816489700787
 30
0.0
 10
-71.2438233012721
 20
70.86647417548845
 30
0.0
 10
-71.59692889671686
 20
70.86379329899735
 30
0.0
 10
-71.95851862745263
 20
70.8600099608104
 30
0.0
 10
-72.3284064797496
 20
70.85517876451941
 30
0.0
 10
-72.746260669232
 20
70.84856193068994
 30
0.0
 10
-73.2129875863923
 20
70.84025977993427
 30
0.0
 10
-73.72841987168884
 20
70.83044787822114
 30
0.0
 10
-74.2544061315254
 20
70.8197115768756
 30
0.0
 10
-74.60378375538839
 20
70.81195699701455
 30
0.0
 10
-74.78112433976698
 20
70.80802084990539
 30
0.0
  0
SPLINE
  5
D1
330
1F
100
AcDbEntity
  8
0
  6
Continuous
 62
     7
370
    25
100
AcDbSpline
210
0.0
220
0.0
230
1.0
 70
     8
 71
     3
 72
    38
 73
    34
 74
     0
 42
0.000000001
 43
0.00000001
 40
0.0
 40
0.0
 40
0.0
 40
0.0
 40
0.0098967704721757
 40
0.0199014183014891
 40
0.0300107879574642
 40
0.0402214546504953
 40
0.0505297239518515
 40
0.0609316328001863
 40
0.0714229519691526
 40
0.081999190059401
 40
0.0926555990650969
 40
0.1033871815502391
 40
0.1141886994536706
 40
0.1250546845239274
 40
0.1849455012994724
 40
0.2500093588421932
 40
0.3072595981357201
 40
0.3750096387756583
 40
0.4376932935607179
 40
0.500032169070825
 40
0.5401132245267197
 40
0.5862427907865501
 40
0.6440155883185682
 40
0.6989060566443318
 40
0.7500948680259932
 40
0.814126940991704
 40
0.874994673454251
 40
0.8960876620500745
 40
0.9171994943566503
 40
0.9382331289133989
 40
0.959098131705568
 40
0.9797118014334176
 40
1.0
 40
1.0
 40
1.0
 40
1.0
 10
-74.78112433976698
 20
70.80802084990539
 30
0.0
 10
-74.8866270799479
 20
70.80597459125015
 30
0.0
 10
-75.09878256745736
 20
70.80185976919127
 30
0.0
 10
-75.41431321218852
 20
70.79506297901277
 30
0.0
 10
-75.72953638651485
 20
70.78776832516553
 30
0.0
 10
-76.04367299812871
 20
70.77993205321533
 30
0.0
 10
-76.35631001898386
 20
70.77156608160007
 30
0.0
 10
-76.66691703329411
 20
70.76266718239579
 30
0.0
 10
-76.9749804208239
 20
70.75323624205299
 30
0.0
 10
-77.27996939890896
 20
70.7432730392481
 30
0.0
 10
-77.5813496048544
 20
70.73277761144836
 30
0.0
 10
-77.8785779983531
 20
70.72175007987435
 30
0.0
 10
-78.17112566075284
 20
70.710189957803
 30
0.0
 10
-78.89001582056125
 20
70.67993406495187
 30
0.0
 10
-79.99053806738335
 20
70.62319015834396
 30
0.0
 10
-81.1889038838254
 20
70.53555481233182
 30
0.0
 10
-82.11719282644943
 20
70.43410138810835
 30
0.0
 10
-82.68486189018614
 20
70.3272298758653
 30
0.0
 10
-82.87287068338235
 20
70.21574977986633
 30
0.0
 10
-82.70507371638458
 20
70.1176197850966
 30
0.0
 10
-82.31617700981975
 20
70.03181658267157
 30
0.0
 10
-81.75009663400006
 20
69.95358285389783
 30
0.0
 10
-80.88514647787497
 20
69.87079709896277
 30
0.0
 10
-79.74625463793197
 20
69.79452002853752
 30
0.0
 10
-78.35011818422176
 20
69.72468414346228
 30
0.0
 10
-76.69580103962035
 20
69.66561190693623
 30
0.0
 10
-75.1791380781973
 20
69.6291908302964
 30
0.0
 10
-74.06413757475617
 20
69.61028868646358
 30
0.0
 10
-73.36774305559459
 20
69.60081490167465
 30
0.0
 10
-72.66421297462612
 20
69.59342717508481
 30
0.0
 10
-71.95907990641338
 20
69.58818430453157
 30
0.0
 10
-71.25771120596582
 20
69.58488507555192
 30
0.0
 10
-70.79176021689031
 20
69.58446812461614
 30
0.0
 10
-70.56063859377494
 20
69.58426130806399
 30
0.0
  0
SPLINE
  5
D2
330
1F
100
AcDbEntity
  8
0
  6
Continuous
 62
     7
370
    25
100
AcDbSpline
210
0.0
220
0.0
230
1.0
 70
     8
 71
     3
 72
    37
 73
    33
 74
     0
 42
0.000000001
 43
0.00000001
 40
0.0
 40
0.0
 40
0.0
 40
0.0
 40
0.0102215481506989
 40
0.0204949362933215
 40
0.0308157139852653
 40
0.0411792971599754
 40
0.0515809786391433
 40
0.0620159394425011
 40
0.0724792608352518
 40
0.0829659370442953
 40
0.0934708885661343
 40
0.1039889759819497
 40
0.1145150141888366
 40
0.1250437869508365
 40
0.1860110817049349
 40
0.2499688054342754
 40
0.3090196954170704
 40
0.3749475542232282
 40
0.4177071731323881
 40
0.4999285746825783
 40
0.5624524169024679
 40
0.6249763022927524
 40
0.7079085913105052
 40
0.7499541454038153
 40
0.8159103018399806
 40
0.8749333529537744
 40
0.8965650917437913
 40
0.9179241313602523
 40
0.9389764442874381
 40
0.9596910916965408
 40
0.9800403888844257
 40
1.0
 40
1.0
 40
1.0
 40
1.0
 10
-70.560638591575
 20
69.58426130806399
 30
0.0
 10
-70.44423049628499
 20
69.5843123695914
 30
0.0
 10
-70.21082392598645
 20
69.58441475161182
 30
0.0
 10
-69.86016574725492
 20
69.58523763525417
 30
0.0
 10
-69.50847127530609
 20
69.58654956133664
 30
0.0
 10
-69.1561981714958
 20
69.58839929363312
 30
0.0
 10
-68.80381326907975
 20
69.59077367317656
 30
0.0
 10
-68.45179057944635
 20
69.59367624198904
 30
0.0
 10
-68.1006090561631
 20
69.59710604365515
 30
0.0
 10
-67.75075090900992
 20
69.60106332710956
 30
0.0
 10
-67.40269748573917
 20
69.60554804412327
 30
0.0
 10
-67.05693400613033
 20
69.61056012871173
 30
0.0
 10
-66.71392104340691
 20
69.61609988900543
 30
0.0
 10
-65.83157520598364
 20
69.63185514578228
 30
0.0
 10
-64.42450012344706
 20
69.66562847238022
 30
0.0
 10
-62.69681487195233
 20
69.7273087998988
 30
0.0
 10
-61.16130754432212
 20
69.80604818008486
 30
0.0
 10
-60.05098997373276
 20
69.88598230273116
 30
0.0
 10
-59.07534120987019
 20
69.987899968936
 30
0.0
 10
-58.45776573009134
 20
70.09265801200448
 30
0.0
 10
-58.24863991587718
 20
70.21450815768931
 30
0.0
 10
-58.45135491949623
 20
70.33682207588562
 30
0.0
 10
-59.06488426926793
 20
70.44160067903191
 30
0.0
 10
-60.03672110228938
 20
70.54369405375976
 30
0.0
 10
-61.13744746929775
 20
70.62340981581116
 30
0.0
 10
-62.32617982960346
 20
70.68475807683971
 30
0.0
 10
-63.23650696863056
 20
70.72186786199772
 30
0.0
 10
-63.83426963457868
 20
70.7433683881256
 30
0.0
 10
-64.44672959885625
 20
70.76276280977623
 30
0.0
 10
-65.0702414557841
 20
70.78000839528977
 30
0.0
 10
-65.69966352825723
 20
70.79528309331417
 30
0.0
 10
-66.1280368364764
 20
70.80380238443625
 30
0.0
 10
-66.34015284269462
 20
70.80802084990538
 30
0.0
  0
SPLINE
  5
D4
330
1F
100
AcDbEntity
  8
0
  6
Continuous
 62
     7
370
    25
100
AcDbSpline
210
0.0
220
0.0
230
1.0
 70
     8
 71
     3
 72
    10
 73
     6
 74
     0
 42
0.000000001
 43
0.00000001
 40
0.0
 40
0.0
 40
0.0
 40
0.0
 40
0.4999999999999993
 40
0.4999999999999993
 40
1.0
 40
1.0
 40
1.0
 40
1.0
 10
-53.81063958128056
 20
66.40832717766244
 30
0.0
 10
-56.52010845246999
 20
66.45095376614647
 30
0.0
 10
-59.29094624278812
 20
66.48322028967061
 30
0.0
 10
-64.89476521215065
 20
66.5263185773807
 30
0.0
 10
-67.72768849280168
 20
66.53715357005787
 30
0.0
 10
-70.56063859500868
 20
66.5371535696113
 30
0.0
  0
SPLINE
  5
D5
330
1F
100
AcDbEntity
  8
0
  6
Continuous
 62
     7
370
    25
100
AcDbSpline
210
0.0
220
0.0
230
1.0
 70
     8
 71
     3
 72
     8
 73
     4
 74
     0
 42
0.000000001
 43
0.00000001
 40
0.0
 40
0.0
 40
0.0
 40
0.0
 40
1.0
 40
1.0
 40
1.0
 40
1.0
 10
-87.3106376072683
 20
66.40832717767145
 30
0.0
 10
-81.88922978624166
 20
66.49362106759641
 30
0.0
 10
-76.22912972890833
 20
66.53715356911195
 30
0.0
 10
-70.56063859500868
 20
66.5371535696113
 30
0.0
  0
SPLINE
  5
D7
330
1F
100
AcDbEntity
  8
0
  6
Continuous
 62
     7
370
    25
100
AcDbSpline
210
0.0
220
0.0
230
1.0
 70
     8
 71
     3
 72
    18
 73
    14
 74
     0
 42
0.000000001
 43
0.00000001
 40
0.0
 40
0.0
 40
0.0
 40
0.0
 40
0.25
 40
0.25
 40
0.375
 40
0.375
 40
0.5
 40
0.5
 40
0.625
 40
0.625
 40
0.75
 40
0.75
 40
1.0
 40
1.0
 40
1.0
 40
1.0
 10
-87.31063859157501
 20
66.40832734086099
 30
0.0
 10
-87.89989424256378
 20
66.40832734086098
 30
0.0
 10
-88.53562738746494
 20
66.51557875291083
 30
0.0
 10
-89.45885451534406
 20
66.88059171983089
 30
0.0
 10
-89.76084017462524
 20
67.03563681096657
 30
0.0
 10
-90.33253454237627
 20
67.40890317110467
 30
0.0
 10
-90.60209481516323
 20
67.62709890415508
 30
0.0
 10
-91.09025017985229
 20
68.11460752947269
 30
0.0
 10
-91.30873537602993
 20
68.38381067161235
 30
0.0
 10
-91.68249691930659
 20
68.95474762219088
 30
0.0
 10
-91.83774769657695
 20
69.2563331916039
 30
0.0
 10
-92.20324489750753
 20
70.17833716928212
 30
0.0
 10
-92.31063859157501
 20
70.81322805435313
 30
0.0
 10
-92.31063859157501
 20
71.401703021861
 30
0.0
  0
SPLINE
  5
D9
330
1F
100
AcDbEntity
  8
0
  6
Continuous
 62
     7
370
    25
100
AcDbSpline
210
0.0
220
0.0
230
1.0
 70
     8
 71
     3
 72
    18
 73
    14
 74
     0
 42
0.000000001
 43
0.00000001
 40
0.0
 40
0.0
 40
0.0
 40
0.0
 40
0.2500000000000007
 40
0.2500000000000007
 40
0.3750000000000006
 40
0.3750000000000006
 40
0.5000000000000004
 40
0.5000000000000004
 40
0.6250000000000003
 40
0.6250000000000003
 40
0.7500000000000002
 40
0.7500000000000002
 40
1.0
 40
1.0
 40
1.0
 40
1.0
 10
-48.81063859157501
 20
71.401703021861
 30
0.0
 10
-48.81063859157501
 20
70.81322805435315
 30
0.0
 10
-48.91803228564249
 20
70.17833716928212
 30
0.0
 10
-49.28352948657305
 20
69.2563331916039
 30
0.0
 10
-49.43878026384342
 20
68.95474762219088
 30
0.0
 10
-49.81254180712008
 20
68.38381067161235
 30
0.0
 10
-50.03102700329774
 20
68.11460752947272
 30
0.0
 10
-50.51918236798684
 20
67.6270989041551
 30
0.0
 10
-50.78874264077379
 20
67.40890317110471
 30
0.0
 10
-51.3604370085248
 20
67.03563681096661
 30
0.0
 10
-51.66242266780593
 20
66.88059171983089
 30
0.0
 10
-52.58564979568504
 20
66.51557875291084
 30
0.0
 10
-53.22138294058622
 20
66.40832734086099
 30
0.0
 10
-53.81063859157501
 20
66.40832734086099
 30
0.0
  0
SPLINE
  5
DB
330
1F
100
AcDbEntity
  8
0
  6
Continuous
 62
     7
370
    25
100
AcDbSpline
210
0.0
220
0.0
230
1.0
 70
     8
 71
     3
 72
    22
 73
    18
 74
     0
 42
0.000000001
 43
0.00000001
 40
0.0
 40
0.0
 40
0.0
 40
0.0
 40
0.1249999999999998
 40
0.1249999999999998
 40
0.2499999999999996
 40
0.2499999999999996
 40
0.3749999999999993
 40
0.3749999999999993
 40
0.4999999999999994
 40
0.4999999999999994
 40
0.6249999999999996
 40
0.6249999999999996
 40
0.7499999999999997
 40
0.7499999999999997
 40
0.8749999999999998
 40
0.8749999999999998
 40
1.0
 40
1.0
 40
1.0
 40
1.0
 10
-70.56063859500868
 20
66.5371535696113
 30
0.0
 10
-70.56063859480123
 20
66.46332428520945
 30
0.0
 10
-70.56063859460262
 20
66.26286746471122
 30
0.0
 10
-70.56063859423824
 20
65.56889360537781
 30
0.0
 10
-70.56063859407261
 20
65.07497542092315
 30
0.0
 10
-70.56063859378924
 20
63.77888895253203
 30
0.0
 10
-70.56063859367161
 20
62.9765154670114
 30
0.0
 10
-70.56063859349591
 20
61.08359509715908
 30
0.0
 10
-70.56063859343789
 20
59.99318425742495
 30
0.0
 10
-70.56063859338687
 20
57.58102598160249
 30
0.0
 10
-70.5606385933939
 20
56.25974780254283
 30
0.0
 10
-70.56063859347051
 20
53.47015272996365
 30
0.0
 10
-70.56063859354018
 20
52.00245571402434
 30
0.0
 10
-70.56063859373293
 20
49.01461076153745
 30
0.0
 10
-70.560638593856
 20
47.49499069469697
 30
0.0
 10
-70.5606385941421
 20
44.49004998387563
 30
0.0
 10
-70.56063859430505
 20
43.00501098300157
 30
0.0
 10
-70.5606385944806
 20
41.5702751524071
 30
0.0
  0
SPLINE
  5
DC
330
1F
100
AcDbEntity
  8
0
  6
Continuous
 62
     7
370
    25
100
AcDbSpline
210
0.0
220
0.0
230
1.0
 70
     8
 71
     3
 72
    10
 73
     6
 74
     0
 42
0.000000001
 43
0.00000001
 40
0.0
 40
0.0
 40
0.0
 40
0.0
 40
0.5
 40
0.5
 40
1.0
 40
1.0
 40
1.0
 40
1.0
 10
-90.37184640836031
 20
40.95160380501675
 30
0.0
 10
-87.56222400738771
 20
41.15031175215352
 30
0.0
 10
-84.39158809851574
 20
41.30633284596749
 30
0.0
 10
-77.66686395062588
 20
41.51633417380727
 30
0.0
 10
-74.11410012301037
 20
41.57027519794944
 30
0.0
 10
-70.5606385944806
 20
41.5702751524071
 30
0.0
  0
SPLINE
  5
DD
330
1F
100
AcDbEntity
  8
0
  6
Continuous
 62
     7
370
    25
100
AcDbSpline
210
0.0
220
0.0
230
1.0
 70
     8
 71
     3
 72
    30
 73
    26
 74
     0
 42
0.000000001
 43
0.00000001
 40
0.0
 40
0.0
 40
0.0
 40
0.0
 40
0.1249999999999998
 40
0.1249999999999998
 40
0.1874999999999998
 40
0.1874999999999998
 40
0.2499999999999997
 40
0.2499999999999997
 40
0.3749999999999994
 40
0.3749999999999994
 40
0.4374999999999993
 40
0.4374999999999993
 40
0.4999999999999991
 40
0.4999999999999991
 40
0.5624999999999989
 40
0.5624999999999989
 40
0.6249999999999989
 40
0.6249999999999989
 40
0.749999999999999
 40
0.749999999999999
 40
0.8124999999999993
 40
0.8124999999999993
 40
0.8749999999999997
 40
0.8749999999999997
 40
1.0
 40
1.0
 40
1.0
 40
1.0
 10
-90.37184663699456
 20
40.95160380786101
 30
0.0
 10
-90.35421476464614
 20
42.64164723149415
 30
0.0
 10
-90.29315338538447
 20
44.29304826949615
 30
0.0
 10
-90.15223813923974
 20
46.7191631214491
 30
0.0
 10
-90.09708073622515
 20
47.51931471068223
 30
0.0
 10
-89.97318671879063
 20
49.10294473434281
 30
0.0
 10
-89.90528727885146
 20
49.87578634259367
 30
0.0
 10
-89.69023502932866
 20
52.12836715515024
 30
0.0
 10
-89.53150779462594
 20
53.54958643340225
 30
0.0
 10
-89.2852125996437
 20
55.56995341671471
 30
0.0
 10
-89.20235890061645
 20
56.21890251721581
 30
0.0
 10
-89.03794049693629
 20
57.4612818531253
 30
0.0
 10
-88.9561830668989
 20
58.05623484753642
 30
0.0
 10
-88.7946319103595
 20
59.19491155739557
 30
0.0
 10
-88.71483411685799
 20
59.73862825684354
 30
0.0
 10
-88.55785001536374
 20
60.7743913435618
 30
0.0
 10
-88.48035705578972
 20
61.26821706448535
 30
0.0
 10
-88.25585216831533
 20
62.64798702830036
 30
0.0
 10
-88.11607250322072
 20
63.43879773107405
 30
0.0
 10
-87.92001616755984
 20
64.4325723424379
 30
0.0
 10
-87.85691868992842
 20
64.73155773354901
 30
0.0
 10
-87.73491627623376
 20
65.26272026287197
 30
0.0
 10
-87.67584736051118
 20
65.49528803707041
 30
0.0
 10
-87.50704187865247
 20
66.07859234868678
 30
0.0
 10
-87.40481897687796
 20
66.32018019074758
 30
0.0
 10
-87.3106390108264
 20
66.40832734086102
 30
0.0
  0
SPLINE
  5
DE
330
1F
100
AcDbEntity
  8
0
  6
Continuous
 62
     7
370
    25
100
AcDbSpline
210
0.0
220
0.0
230
1.0
 70
     8
 71
     3
 72
    30
 73
    26
 74
     0
 42
0.000000001
 43
0.00000001
 40
0.0
 40
0.0
 40
0.0
 40
0.0
 40
0.1249999999999996
 40
0.1249999999999996
 40
0.1874999999999994
 40
0.1874999999999994
 40
0.2499999999999992
 40
0.2499999999999992
 40
0.3749999999999992
 40
0.3749999999999992
 40
0.4374999999999993
 40
0.4374999999999993
 40
0.4999999999999994
 40
0.4999999999999994
 40
0.5624999999999996
 40
0.5624999999999996
 40
0.6249999999999998
 40
0.6249999999999998
 40
0.7499999999999999
 40
0.7499999999999999
 40
0.8124999999999999
 40
0.8124999999999999
 40
0.875
 40
0.875
 40
1.0
 40
1.0
 40
1.0
 40
1.0
 10
-53.81063859157501
 20
66.40832734086099
 30
0.0
 10
-53.71645862157502
 20
66.32018018286104
 30
0.0
 10
-53.61423571524167
 20
66.07859233252769
 30
0.0
 10
-53.44543022524166
 20
65.49528800852765
 30
0.0
 10
-53.38636130657498
 20
65.26272023019428
 30
0.0
 10
-53.26435888657507
 20
64.73155769286112
 30
0.0
 10
-53.20126140557499
 20
64.43257229786099
 30
0.0
 10
-53.00520505907497
 20
63.43879767536098
 30
0.0
 10
-52.86542538577501
 20
62.64798696586101
 30
0.0
 10
-52.64092048417502
 20
61.26821699386099
 30
0.0
 10
-52.56342751957501
 20
60.77439127052769
 30
0.0
 10
-52.406443407575
 20
59.73862817986095
 30
0.0
 10
-52.32664560857503
 20
59.194911478861
 30
0.0
 10
-52.16509444057503
 20
58.05623476686099
 30
0.0
 10
-52.08333700457504
 20
57.46128177186102
 30
0.0
 10
-51.91891858857499
 20
56.21890243586106
 30
0.0
 10
-51.83606488317501
 20
55.56995333586102
 30
0.0
 10
-51.589769668775
 20
53.54958635586102
 30
0.0
 10
-51.43104242090832
 20
52.12836708219434
 30
0.0
 10
-51.21599015290835
 20
49.87578628019431
 30
0.0
 10
-51.14809070701949
 20
49.10294467608323
 30
0.0
 10
-51.02419667857501
 20
47.51931466186101
 30
0.0
 10
-50.969039270575
 20
46.71916307786099
 30
0.0
 10
-50.82812401157501
 20
44.29304824286098
 30
0.0
 10
-50.76706262657502
 20
42.641647217861
 30
0.0
 10
-50.74943075257501
 20
40.95160380786101
 30
0.0
  0
SPLINE
  5
DF
330
1F
100
AcDbEntity
  8
0
  6
Continuous
 62
     7
370
    25
100
AcDbSpline
210
0.0
220
0.0
230
1.0
 70
     8
 71
     3
 72
    10
 73
     6
 74
     0
 42
0.000000001
 43
0.00000001
 40
0.0
 40
0.0
 40
0.0
 40
0.0
 40
0.5
 40
0.5
 40
1.0
 40
1.0
 40
1.0
 40
1.0
 10
-70.5606385944806
 20
41.5702751524071
 30
0.0
 10
-67.00717704381317
 20
41.57027519794944
 30
0.0
 10
-63.45441323446028
 20
41.51633417383691
 30
0.0
 10
-56.72968908819639
 20
41.30633284610957
 30
0.0
 10
-53.55905318671365
 20
41.1503117531521
 30
0.0
 10
-50.74943077726456
 20
40.951603805098
 30
0.0
  0
SPLINE
  5
E0
330
1F
100
AcDbEntity
  8
0
  6
Continuous
 62
     7
370
    25
100
AcDbSpline
210
0.0
220
0.0
230
1.0
 70
     8
 71
     3
 72
    14
 73
    10
 74
     0
 42
0.000000001
 43
0.00000001
 40
0.0
 40
0.0
 40
0.0
 40
0.0
 40
0.25
 40
0.25
 40
0.5
 40
0.5
 40
0.75
 40
0.75
 40
1.0
 40
1.0
 40
1.0
 40
1.0
 10
-50.74943077726456
 20
40.951603805098
 30
0.0
 10
-50.45930917351141
 20
40.95160380551145
 30
0.0
 10
-50.18661673881068
 20
40.95160380597247
 30
0.0
 10
-49.7026878318546
 20
40.95160380696358
 30
0.0
 10
-49.49168997727506
 20
40.95160380749344
 30
0.0
 10
-49.15116428442504
 20
40.95160380858177
 30
0.0
 10
-49.02175652629818
 20
40.95160380913983
 30
0.0
 10
-48.85152369990906
 20
40.95160381023941
 30
0.0
 10
-48.81063859157501
 20
40.95160381078058
 30
0.0
 10
-48.81063859157501
 20
40.95160381129435
 30
0.0
  0
SPLINE
  5
E1
330
1F
100
AcDbEntity
  8
0
  6
Continuous
 62
     7
370
    25
100
AcDbSpline
210
0.0
220
0.0
230
1.0
 70
     8
 71
     3
 72
    72
 73
    68
 74
     0
 42
0.000000001
 43
0.00000001
 40
0.0
 40
0.0
 40
0.0
 40
0.0
 40
0.0624999999999973
 40
0.0937499999999959
 40
0.1093749999999952
 40
0.1171874999999948
 40
0.1171874999999948
 40
0.1249999999999943
 40
0.1249999999999943
 40
0.1874999999999915
 40
0.2187499999999903
 40
0.2343749999999897
 40
0.2421874999999894
 40
0.2421874999999894
 40
0.2499999999999892
 40
0.2499999999999892
 40
0.3124999999999887
 40
0.3437499999999888
 40
0.3437499999999888
 40
0.3749999999999889
 40
0.3749999999999889
 40
0.406249999999989
 40
0.406249999999989
 40
0.437499999999989
 40
0.437499999999989
 40
0.4999999999999891
 40
0.4999999999999891
 40
0.5312499999999893
 40
0.5468749999999893
 40
0.5546874999999895
 40
0.5546874999999895
 40
0.5624999999999896
 40
0.5624999999999896
 40
0.5937499999999897
 40
0.6093749999999897
 40
0.6171874999999897
 40
0.6171874999999897
 40
0.6249999999999896
 40
0.6249999999999896
 40
0.6562499999999901
 40
0.6718749999999903
 40
0.6796874999999905
 40
0.6796874999999905
 40
0.6874999999999906
 40
0.6874999999999906
 40
0.7187499999999911
 40
0.7343749999999915
 40
0.7421874999999916
 40
0.7460937499999917
 40
0.7460937499999917
 40
0.7499999999999917
 40
0.7499999999999917
 40
0.7812499999999923
 40
0.7968749999999926
 40
0.8046874999999927
 40
0.8085937499999926
 40
0.8085937499999926
 40
0.8124999999999923
 40
0.8124999999999923
 40
0.8437499999999918
 40
0.8593749999999915
 40
0.8671874999999913
 40
0.8710937499999913
 40
0.8710937499999913
 40
0.8749999999999913
 40
0.8749999999999913
 40
1.0
 40
1.0
 40
1.0
 40
1.0
 10
-48.81063859139046
 20
71.401703015217
 30
0.0
 10
-48.81063859157501
 20
71.35006461226101
 30
0.0
 10
-48.81063859157505
 20
71.20431879653604
 30
0.0
 10
-48.81063859157496
 20
70.91477757494232
 30
0.0
 10
-48.81063859157498
 20
70.74013085500007
 30
0.0
 10
-48.81063859157502
 20
70.65888023735086
 30
0.0
 10
-48.81063859157501
 20
70.60329048705401
 30
0.0
 10
-48.810638591575
 20
70.5744450898235
 30
0.0
 10
-48.81063859157501
 20
70.31453984206107
 30
0.0
 10
-48.81063859157499
 20
69.90404257591115
 30
0.0
 10
-48.81063859157497
 20
69.31320446108606
 30
0.0
 10
-48.81063859157503
 20
68.98980424426107
 30
0.0
 10
-48.81063859157501
 20
68.84520818860491
 30
0.0
 10
-48.81063859157501
 20
68.7474783820049
 30
0.0
 10
-48.81063859157501
 20
68.69728265101108
 30
0.0
 10
-48.81063859157501
 20
68.25148808236108
 30
0.0
 10
-48.81063859157504
 20
67.59966901336121
 30
0.0
 10
-48.81063859157499
 20
66.86171047816109
 30
0.0
 10
-48.81063859157501
 20
66.35059601776113
 30
0.0
 10
-48.81063859157501
 20
66.08645052226115
 30
0.0
 10
-48.81063859157501
 20
65.53508628166112
 30
0.0
 10
-48.81063859157501
 20
65.25063045533606
 30
0.0
 10
-48.81063859157502
 20
64.664171390636
 30
0.0
 10
-48.81063859157503
 20
64.36053075526101
 30
0.0
 10
-48.81063859157501
 20
63.43311211306101
 30
0.0
 10
-48.81063859157501
 20
62.78498746216102
 30
0.0
 10
-48.810638591575
 20
61.759871134361
 30
0.0
 10
-48.81063859157501
 20
61.23677318026096
 30
0.0
 10
-48.810638591575
 20
60.60804760096098
 30
0.0
 10
-48.81063859157501
 20
60.33464135993601
 30
0.0
 10
-48.81063859157501
 20
60.15149221673597
 30
0.0
 10
-48.81063859157501
 20
60.060796193186
 30
0.0
 10
-48.810638591575
 20
59.59194322606101
 30
0.0
 10
-48.81063859157501
 20
59.02017848847353
 30
0.0
 10
-48.81063859157503
 20
58.33712256813914
 30
0.0
 10
-48.81063859157501
 20
58.0409563751782
 30
0.0
 10
-48.81063859157502
 20
57.84275048178444
 30
0.0
 10
-48.81063859157502
 20
57.74441822926102
 30
0.0
 10
-48.81063859157501
 20
57.239336789261
 30
0.0
 10
-48.81063859157502
 20
56.62585973074851
 30
0.0
 10
-48.810638591575
 20
55.89722266742039
 30
0.0
 10
-48.81063859157502
 20
55.58218239133756
 30
0.0
 10
-48.81063859157501
 20
55.3715405964063
 30
0.0
 10
-48.81063859157501
 20
55.26742164293599
 30
0.0
 10
-48.81063859157501
 20
54.730195354061
 30
0.0
 10
-48.810638591575
 20
54.08007308656102
 30
0.0
 10
-48.810638591575
 20
53.31205834632348
 30
0.0
 10
-48.81063859157504
 20
52.92566628583295
 30
0.0
 10
-48.81063859157502
 20
52.75955868340015
 30
0.0
 10
-48.81063859157501
 20
52.64870672509387
 30
0.0
 10
-48.81063859157501
 20
52.59479609221106
 30
0.0
 10
-48.81063859157501
 20
52.08079114816102
 30
0.0
 10
-48.81063859157501
 20
51.39186451643604
 30
0.0
 10
-48.81063859157501
 20
50.58184004335476
 30
0.0
 10
-48.81063859157503
 20
50.17525862279697
 30
0.0
 10
-48.81063859157501
 20
50.00067318884002
 30
0.0
 10
-48.81063859157502
 20
49.88420817648691
 30
0.0
 10
-48.81063859157502
 20
49.82719377548607
 30
0.0
 10
-48.81063859157501
 20
49.29112951216099
 30
0.0
 10
-48.81063859157503
 20
48.57456883099849
 30
0.0
 10
-48.81063859157501
 20
47.7354167920329
 30
0.0
 10
-48.81063859157503
 20
47.31504962814773
 30
0.0
 10
-48.81063859157501
 20
47.13472274125372
 30
0.0
 10
-48.81063859157499
 20
47.01446714311457
 30
0.0
 10
-48.810638591575
 20
46.95609380657979
 30
0.0
 10
-48.81063859157502
 20
44.91211433326102
 30
0.0
 10
-48.81063859157502
 20
42.93126392776102
 30
0.0
 10
-48.81063859157501
 20
40.95160381129434
 30
0.0
  0
SPLINE
  5
E2
330
1F
100
AcDbEntity
  8
0
  6
Continuous
 62
     7
370
    25
100
AcDbSpline
210
0.0
220
0.0
230
1.0
 70
     8
 71
     3
 72
    14
 73
    10
 74
     0
 42
0.000000001
 43
0.00000001
 40
0.0
 40
0.0
 40
0.0
 40
0.0
 40
0.25
 40
0.25
 40
0.5
 40
0.5
 40
0.75
 40
0.75
 40
1.0
 40
1.0
 40
1.0
 40
1.0
 10
-92.31063859157501
 20
40.95160381129435
 30
0.0
 10
-92.31063859157503
 20
40.95160381078059
 30
0.0
 10
-92.26975348329317
 20
40.95160381023771
 30
0.0
 10
-92.0995206571213
 20
40.95160380913099
 30
0.0
 10
-91.97011289915966
 20
40.95160380856749
 30
0.0
 10
-91.62958720674429
 20
40.95160380746491
 30
0.0
 10
-91.41858935243411
 20
40.9516038069262
 30
0.0
 10
-90.93466044609578
 20
40.95160380591483
 30
0.0
 10
-90.66196801174311
 20
40.95160380544237
 30
0.0
 10
-90.37184640836031
 20
40.95160380501675
 30
0.0
  0
SPLINE
  5
E3
330
1F
100
AcDbEntity
  8
0
  6
Continuous
 62
     7
370
    25
100
AcDbSpline
210
0.0
220
0.0
230
1.0
 70
    24
 71
     3
 72
    30
 73
    26
 74
     0
 42
0.000000001
 43
0.00000001
 40
0.0
 40
0.0
 40
0.0
 40
0.0
 40
0.125
 40
0.125
 40
0.1875
 40
0.1875
 40
0.25
 40
0.25
 40
0.375
 40
0.375
 40
0.4375
 40
0.4375
 40
0.5
 40
0.5
 40
0.5625
 40
0.5625
 40
0.625
 40
0.625
 40
0.75
 40
0.75
 40
0.8125
 40
0.8125
 40
0.875
 40
0.875
 40
1.0
 40
1.0
 40
1.0
 40
1.0
 10
-92.31063859153171
 20
71.40170301615149
 30
0.0
 10
-92.3106385916183
 20
71.29770467357051
 30
0.0
 10
-92.310638591575
 20
71.00982433352762
 30
0.0
 10
-92.31063859157501
 20
70.31343793752767
 30
0.0
 10
-92.31063859157501
 20
70.03564547619436
 30
0.0
 10
-92.31063859157501
 20
69.40100306286101
 30
0.0
 10
-92.31063859157501
 20
69.04368756986099
 30
0.0
 10
-92.31063859157503
 20
67.85587470536099
 30
0.0
 10
-92.31063859157503
 20
66.91046625246103
 30
0.0
 10
-92.31063859157501
 20
65.26091943966102
 30
0.0
 10
-92.31063859157501
 20
64.67053294752769
 30
0.0
 10
-92.31063859157501
 20
63.43224954886102
 30
0.0
 10
-92.31063859157501
 20
62.78222563686099
 30
0.0
 10
-92.31063859157503
 20
61.420927515861
 30
0.0
 10
-92.31063859157501
 20
60.709662031861
 30
0.0
 10
-92.31063859157503
 20
59.22438907852767
 30
0.0
 10
-92.31063859157501
 20
58.448561588061
 30
0.0
 10
-92.31063859157506
 20
56.033082783261
 30
0.0
 10
-92.310638591575
 20
54.33382017186099
 30
0.0
 10
-92.310638591575
 20
51.639616585861
 30
0.0
 10
-92.31063859157499
 20
50.71510298408322
 30
0.0
 10
-92.31063859157503
 20
48.820159193861
 30
0.0
 10
-92.31063859157501
 20
47.86245543986099
 30
0.0
 10
-92.31063859157503
 20
44.957554254861
 30
0.0
 10
-92.31063859157501
 20
42.97881313642764
 30
0.0
 10
-92.31063859157501
 20
40.95160381129435
 30
0.0
  0
SPLINE
  5
E4
330
1F
100
AcDbEntity
  8
0
  6
Continuous
 62
     7
370
    25
100
AcDbSpline
210
0.0
220
0.0
230
1.0
 70
     8
 71
     3
 72
    14
 73
    10
 74
     0
 42
0.000000001
 43
0.00000001
 40
0.0
 40
0.0
 40
0.0
 40
0.0
 40
0.25
 40
0.25
 40
0.5
 40
0.5
 40
0.75
 40
0.75
 40
1.0
 40
1.0
 40
1.0
 40
1.0
 10
-70.5606385930278
 20
-34.39197915032598
 30
0.0
 10
-72.30540316405188
 20
-34.39197915037108
 30
0.0
 10
-74.07394393859659
 20
-34.39197915040607
 30
0.0
 10
-77.58774202583747
 20
-34.39197915045303
 30
0.0
 10
-79.33267311351261
 20
-34.39197915046502
 30
0.0
 10
-82.72577892689327
 20
-34.39197915046502
 30
0.0
 10
-84.3736342353395
 20
-34.39197915045304
 30
0.0
 10
-87.50701306825665
 20
-34.39197915040607
 30
0.0
 10
-88.99231208782442
 20
-34.39197915037108
 30
0.0
 10
-90.37184643070103
 20
-34.39197915032598
 30
0.0
  0
SPLINE
  5
E8
330
1F
100
AcDbEntity
  8
0
  6
Continuous
 62
     7
370
    25
100
AcDbSpline
210
0.0
220
0.0
230
1.0
 70
     8
 71
     3
 72
    14
 73
    10
 74
     0
 42
0.000000001
 43
0.00000001
 40
0.0
 40
0.0
 40
0.0
 40
0.0
 40
0.25
 40
0.25
 40
0.5
 40
0.5
 40
0.75
 40
0.75
 40
1.0
 40
1.0
 40
1.0
 40
1.0
 10
-50.74943075377519
 20
-34.39197915032598
 30
0.0
 10
-52.12896509633212
 20
-34.39197915037108
 30
0.0
 10
-53.61426411565184
 20
-34.39197915040607
 30
0.0
 10
-56.74764294828664
 20
-34.39197915045303
 30
0.0
 10
-58.39549825669886
 20
-34.39197915046502
 30
0.0
 10
-61.78860407028244
 20
-34.39197915046502
 30
0.0
 10
-63.53353515819467
 20
-34.39197915045304
 30
0.0
 10
-67.0473332462157
 20
-34.39197915040607
 30
0.0
 10
-68.81587402130334
 20
-34.39197915037108
 30
0.0
 10
-70.5606385930278
 20
-34.39197915032598
 30
0.0
  0
SPLINE
  5
E9
330
1F
100
AcDbEntity
  8
0
  6
Continuous
 62
     7
370
    25
100
AcDbSpline
210
0.0
220
0.0
230
1.0
 70
     8
 71
     3
 72
    10
 73
     6
 74
     0
 42
0.000000001
 43
0.00000001
 40
0.0
 40
0.0
 40
0.0
 40
0.0
 40
0.5
 40
0.5
 40
1.0
 40
1.0
 40
1.0
 40
1.0
 10
-70.5606385930278
 20
-34.39197915032598
 30
0.0
 10
-70.56063859244323
 20
-34.43911960236019
 30
0.0
 10
-70.56063859200053
 20
-34.49434807735744
 30
0.0
 10
-70.560638591575
 20
-34.57245293570797
 30
0.0
 10
-70.56063859157499
 20
-34.59197915026786
 30
0.0
 10
-70.56063859157499
 20
-34.59197915014671
 30
0.0
  0
SPLINE
  5
EA
330
1F
100
AcDbEntity
  8
0
  6
Continuous
 62
     7
370
    25
100
AcDbSpline
210
0.0
220
0.0
230
1.0
 70
     8
 71
     3
 72
    10
 73
     6
 74
     0
 42
0.000000001
 43
0.00000001
 40
0.0
 40
0.0
 40
0.0
 40
0.0
 40
0.5
 40
0.5
 40
1.0
 40
1.0
 40
1.0
 40
1.0
 10
-90.371846430701
 20
-34.39197915032598
 30
0.0
 10
-90.37184643061529
 20
-34.43911960236018
 30
0.0
 10
-90.35989167038159
 20
-34.49434807735742
 30
0.0
 10
-90.31207262845544
 20
-34.57245293570797
 30
0.0
 10
-90.27825945928294
 20
-34.59197915026783
 30
0.0
 10
-90.24939811349671
 20
-34.59197915014671
 30
0.0
  0
SPLINE
  5
EB
330
1F
100
AcDbEntity
  8
0
  6
Continuous
 62
     7
370
    25
100
AcDbSpline
210
0.0
220
0.0
230
1.0
 70
     8
 71
     3
 72
    10
 73
     6
 74
     0
 42
0.000000001
 43
0.00000001
 40
0.0
 40
0.0
 40
0.0
 40
0.0
 40
0.5
 40
0.5
 40
1.0
 40
1.0
 40
1.0
 40
1.0
 10
-50.87187906965333
 20
-34.59197915014671
 30
0.0
 10
-50.84301772386711
 20
-34.59197915026785
 30
0.0
 10
-50.80920455469461
 20
-34.57245293570797
 30
0.0
 10
-50.76138551315686
 20
-34.49434807735739
 30
0.0
 10
-50.7494307533273
 20
-34.43911960236017
 30
0.0
 10
-50.74943075377519
 20
-34.39197915032598
 30
0.0
  0
SPLINE
  5
EC
330
1F
100
AcDbEntity
  8
0
  6
Continuous
 62
     7
370
    25
100
AcDbSpline
210
0.0
220
0.0
230
1.0
 70
     8
 71
     3
 72
    14
 73
    10
 74
     0
 42
0.000000001
 43
0.00000001
 40
0.0
 40
0.0
 40
0.0
 40
0.0
 40
0.25
 40
0.25
 40
0.5
 40
0.5
 40
0.75
 40
0.75
 40
1.0
 40
1.0
 40
1.0
 40
1.0
 10
-48.81063859157211
 20
-34.39197915024152
 30
0.0
 10
-48.81063859157008
 20
-34.39197915030477
 30
0.0
 10
-48.85152369936183
 20
-34.39197915035531
 30
0.0
 10
-49.0217565235689
 20
-34.39197915042645
 30
0.0
 10
-49.15116428005585
 20
-34.39197915044708
 30
0.0
 10
-49.49168996868685
 20
-34.39197915045821
 30
0.0
 10
-49.70268782068938
 20
-34.39197915044874
 30
0.0
 10
-50.18661672186037
 20
-34.39197915040439
 30
0.0
 10
-50.45930915335634
 20
-34.39197915036958
 30
0.0
 10
-50.74943075377519
 20
-34.39197915032598
 30
0.0
  0
SPLINE
  5
EE
330
1F
100
AcDbEntity
  8
0
  6
Continuous
 62
     7
370
    25
100
AcDbSpline
210
0.0
220
0.0
230
1.0
 70
     8
 71
     3
 72
    14
 73
    10
 74
     0
 42
0.000000001
 43
0.00000001
 40
0.0
 40
0.0
 40
0.0
 40
0.0
 40
0.25
 40
0.25
 40
0.5
 40
0.5
 40
0.75
 40
0.75
 40
1.0
 40
1.0
 40
1.0
 40
1.0
 10
-90.37184643070103
 20
-34.39197915032598
 30
0.0
 10
-90.66196803081093
 20
-34.39197915036955
 30
0.0
 10
-90.93466046206024
 20
-34.39197915040439
 30
0.0
 10
-91.41858936285367
 20
-34.39197915044871
 30
0.0
 10
-91.62958721472519
 20
-34.39197915045815
 30
0.0
 10
-91.97011290318152
 20
-34.39197915044702
 30
0.0
 10
-92.0995206596244
 20
-34.39197915042644
 30
0.0
 10
-92.26975348378801
 20
-34.39197915035529
 30
0.0
 10
-92.31063859157993
 20
-34.39197915030476
 30
0.0
 10
-92.31063859157791
 20
-34.39197915024152
 30
0.0
  0
SPLINE
  5
F0
330
1F
100
AcDbEntity
  8
0
  6
Continuous
 62
     7
370
    25
100
AcDbSpline
210
0.0
220
0.0
230
1.0
 70
     8
 71
     3
 72
    10
 73
     6
 74
     0
 42
0.000000001
 43
0.00000001
 40
0.0
 40
0.0
 40
0.0
 40
0.0
 40
0.5
 40
0.5
 40
1.0
 40
1.0
 40
1.0
 40
1.0
 10
-92.31063859157791
 20
-34.39197915024152
 30
0.0
 10
-92.310638591701
 20
-34.43911960230972
 30
0.0
 10
-92.2911123771426
 20
-34.49434807733272
 30
0.0
 10
-92.21300751876764
 20
-34.57245293570686
 30
0.0
 10
-92.15777904374366
 20
-34.59197915026559
 30
0.0
 10
-92.11063859167405
 20
-34.59197915014289
 30
0.0
  0
SPLINE
  5
F1
330
1F
100
AcDbEntity
  8
0
  6
Continuous
 62
     7
370
    25
100
AcDbSpline
210
0.0
220
0.0
230
1.0
 70
     8
 71
     3
 72
    10
 73
     6
 74
     0
 42
0.000000001
 43
0.00000001
 40
0.0
 40
0.0
 40
0.0
 40
0.0
 40
0.5
 40
0.5
 40
1.0
 40
1.0
 40
1.0
 40
1.0
 10
-49.01063859147593
 20
-34.59197915014285
 30
0.0
 10
-48.96349813940633
 20
-34.59197915026553
 30
0.0
 10
-48.90826966438232
 20
-34.57245293570682
 30
0.0
 10
-48.83016480600743
 20
-34.49434807733266
 30
0.0
 10
-48.81063859144905
 20
-34.43911960230971
 30
0.0
 10
-48.81063859157211
 20
-34.3919791502415
 30
0.0
  0
SPLINE
  5
F2
330
1F
100
AcDbEntity
  8
0
  6
Continuous
 62
     7
370
    25
100
AcDbSpline
210
0.0
220
0.0
230
1.0
 70
     8
 71
     3
 72
    14
 73
    10
 74
     0
 42
0.000000001
 43
0.00000001
 40
0.0
 40
0.0
 40
0.0
 40
0.0
 40
0.25
 40
0.25
 40
0.5
 40
0.5
 40
0.75
 40
0.75
 40
1.0
 40
1.0
 40
1.0
 40
1.0
 10
-70.56063859710615
 20
-34.79197914988964
 30
0.0
 10
-68.66301230852389
 20
-34.79197914985934
 30
0.0
 10
-66.74601079208286
 20
-34.79197914983599
 30
0.0
 10
-62.93108317996705
 20
-34.79197914980671
 30
0.0
 10
-61.03335592518569
 20
-34.79197914980077
 30
0.0
 10
-57.316405811072
 20
-34.79197914980871
 30
0.0
 10
-55.49737869986339
 20
-34.79197914982262
 30
0.0
 10
-51.99245473841758
 20
-34.79197914987152
 30
0.0
 10
-50.30670971519714
 20
-34.7919791499065
 30
0.0
 10
-48.70975842194413
 20
-34.79197914995198
 30
0.0
  0
SPLINE
  5
F4
330
1F
100
AcDbEntity
  8
0
  6
Continuous
 62
     7
370
    25
100
AcDbSpline
210
0.0
220
0.0
230
1.0
 70
    24
 71
     3
 72
    31
 73
    27
 74
     0
 42
0.000000001
 43
0.00000001
 40
0.0
 40
0.0
 40
0.0
 40
0.0
 40
0.0139094504824937
 40
0.0278066976982036
 40
0.0416952293502061
 40
0.0555785397100344
 40
0.0694601269921306
 40
0.0833434907134379
 40
0.0972321290480732
 40
0.1111295361870679
 40
0.1250391997131272
 40
0.1875456519507875
 40
0.2500531888547733
 40
0.3125596478605921
 40
0.375067179203776
 40
0.5000014645639982
 40
0.6249357499242204
 40
0.6874422024462384
 40
0.7499497402394533
 40
0.812456194403874
 40
0.8749637293947421
 40
0.899991202909013
 40
0.9249881770837609
 40
0.9499750341797731
 40
0.9749721812057482
 40
1.0
 40
1.0
 40
1.0
 40
1.0
 10
-48.70975842530588
 20
-39.49197915013901
 30
0.0
 10
-48.89036504338714
 20
-39.49197915013901
 30
0.0
 10
-49.2514198267951
 20
-39.49197915013901
 30
0.0
 10
-49.79962544996278
 20
-39.49197915013898
 30
0.0
 10
-50.35231186905182
 20
-39.49197915013901
 30
0.0
 10
-50.90997673567157
 20
-39.49197915013901
 30
0.0
 10
-51.47248654726683
 20
-39.49197915013901
 30
0.0
 10
-52.03987743452638
 20
-39.49197915013901
 30
0.0
 10
-52.61213767525459
 20
-39.491979150139
 30
0.0
 10
-53.18927737306498
 20
-39.49197915013901
 30
0.0
 10
-54.44876539513075
 20
-39.491979150139
 30
0.0
 10
-56.42540002160489
 20
-39.49197915013901
 30
0.0
 10
-59.16520017429347
 20
-39.491979150139
 30
0.0
 10
-61.96300480397687
 20
-39.491979150139
 30
0.0
 10
-65.74996099474774
 20
-39.49197915013901
 30
0.0
 10
-70.56063875827522
 20
-39.49197915013901
 30
0.0
 10
-75.37129907405455
 20
-39.49197915013901
 30
0.0
 10
-79.15825695741955
 20
-39.49197915013901
 30
0.0
 10
-81.95604174232952
 20
-39.49197915013901
 30
0.0
 10
-84.69587407081032
 20
-39.49197915013901
 30
0.0
 10
-86.83064815493678
 20
-39.49197915013901
 30
0.0
 10
-88.39544674255362
 20
-39.49197915013901
 30
0.0
 10
-89.42413465639991
 20
-39.49197915013901
 30
0.0
 10
-90.43667763544684
 20
-39.49197915013901
 30
0.0
 10
-91.43470323427805
 20
-39.49197915013901
 30
0.0
 10
-92.0857805169601
 20
-39.49197915013901
 30
0.0
 10
-92.41151875555443
 20
-39.49197915013901
 30
0.0
  0
SPLINE
  5
F6
330
1F
100
AcDbEntity
  8
0
  6
Continuous
 62
     7
370
    25
100
AcDbSpline
210
0.0
220
0.0
230
1.0
 70
     8
 71
     3
 72
    14
 73
    10
 74
     0
 42
0.000000001
 43
0.00000001
 40
0.0
 40
0.0
 40
0.0
 40
0.0
 40
0.25
 40
0.25
 40
0.5
 40
0.5
 40
0.75
 40
0.75
 40
1.0
 40
1.0
 40
1.0
 40
1.0
 10
-92.41151875948864
 20
-34.79197914995198
 30
0.0
 10
-90.81456746665343
 20
-34.79197914990649
 30
0.0
 10
-89.12882244375353
 20
-34.7919791498715
 30
0.0
 10
-85.6238984831453
 20
-34.79197914982262
 30
0.0
 10
-83.80487137245507
 20
-34.79197914980873
 30
0.0
 10
-80.08792125997176
 20
-34.79197914980077
 30
0.0
 10
-78.19019400630377
 20
-34.79197914980671
 30
0.0
 10
-74.3752663973694
 20
-34.791979149836
 30
0.0
 10
-72.45826488299741
 20
-34.79197914985934
 30
0.0
 10
-70.56063859710615
 20
-34.79197914988964
 30
0.0
  0
SPLINE
  5
F7
330
1F
100
AcDbEntity
  8
0
  6
Continuous
 62
     7
370
    25
100
AcDbSpline
210
0.0
220
0.0
230
1.0
 70
     8
 71
     3
 72
    10
 73
     6
 74
     0
 42
0.000000001
 43
0.00000001
 40
0.0
 40
0.0
 40
0.0
 40
0.0
 40
0.5
 40
0.5
 40
1.0
 40
1.0
 40
1.0
 40
1.0
 10
-70.560638591575
 20
-34.59197915013125
 30
0.0
 10
-70.56063859157499
 20
-34.59197915001013
 30
0.0
 10
-70.56063859157499
 20
-34.61150536457001
 30
0.0
 10
-70.56063859319504
 20
-34.6896102229023
 30
0.0
 10
-70.56063859488059
 20
-34.74483869788055
 30
0.0
 10
-70.56063859710615
 20
-34.79197914988964
 30
0.0
  0
SPLINE
  5
F8
330
1F
100
AcDbEntity
  8
0
  6
Continuous
 62
     7
370
    25
100
AcDbSpline
210
0.0
220
0.0
230
1.0
 70
    24
 71
     3
 72
    14
 73
    10
 74
     0
 42
0.000000001
 43
0.00000001
 40
0.0
 40
0.0
 40
0.0
 40
0.0
 40
0.2499999999999996
 40
0.2499999999999996
 40
0.4999999999999991
 40
0.4999999999999991
 40
0.7499999999999996
 40
0.7499999999999996
 40
1.0
 40
1.0
 40
1.0
 40
1.0
 10
-70.560638591575
 20
-34.59197915013127
 30
0.0
 10
-68.64327599624167
 20
-34.591979150139
 30
0.0
 10
-66.7356525726083
 20
-34.591979150139
 30
0.0
 10
-62.93988406874164
 20
-34.59197915013901
 30
0.0
 10
-61.07101945700833
 20
-34.591979150139
 30
0.0
 10
-57.39132932234166
 20
-34.59197915013901
 30
0.0
 10
-55.59919469874168
 20
-34.591979150139
 30
0.0
 10
-52.11034633900835
 20
-34.591979150139
 30
0.0
 10
-50.43135403814166
 20
-34.59197915013902
 30
0.0
 10
-48.81779362659245
 20
-34.59197915013127
 30
0.0
  0
SPLINE
  5
F9
330
1F
100
AcDbEntity
  8
0
  6
Continuous
 62
     7
370
    25
100
AcDbSpline
210
0.0
220
0.0
230
1.0
 70
     8
 71
     3
 72
    10
 73
     6
 74
     0
 42
0.000000001
 43
0.00000001
 40
0.0
 40
0.0
 40
0.0
 40
0.0
 40
0.5
 40
0.5
 40
1.0
 40
1.0
 40
1.0
 40
1.0
 10
-48.70975842194412
 20
-34.79197914995198
 30
0.0
 10
-48.70975842321821
 20
-34.74483869791779
 30
0.0
 10
-48.72030601736155
 20
-34.68961022292056
 30
0.0
 10
-48.76249638936849
 20
-34.61150536457001
 30
0.0
 10
-48.79232948631896
 20
-34.59197915001013
 30
0.0
 10
-48.81779362659244
 20
-34.59197915013125
 30
0.0
  0
SPLINE
  5
FA
330
1F
100
AcDbEntity
  8
0
  6
Continuous
 62
     7
370
    25
100
AcDbSpline
210
0.0
220
0.0
230
1.0
 70
     8
 71
     3
 72
    10
 73
     6
 74
     0
 42
0.000000001
 43
0.00000001
 40
0.0
 40
0.0
 40
0.0
 40
0.0
 40
0.5
 40
0.5
 40
1.0
 40
1.0
 40
1.0
 40
1.0
 10
-92.41151875948867
 20
-34.79197914995198
 30
0.0
 10
-92.41151875890554
 20
-34.74483869791779
 30
0.0
 10
-92.40097116528553
 20
-34.68961022292056
 30
0.0
 10
-92.35878079378153
 20
-34.61150536457001
 30
0.0
 10
-92.32894769683107
 20
-34.59197915001013
 30
0.0
 10
-92.30348355655757
 20
-34.59197915013125
 30
0.0
  0
SPLINE
  5
FB
330
1F
100
AcDbEntity
  8
0
  6
Continuous
 62
     7
370
    25
100
AcDbSpline
210
0.0
220
0.0
230
1.0
 70
    24
 71
     3
 72
    14
 73
    10
 74
     0
 42
0.000000001
 43
0.00000001
 40
0.0
 40
0.0
 40
0.0
 40
0.0
 40
0.25
 40
0.25
 40
0.5
 40
0.5
 40
0.75
 40
0.75
 40
1.0
 40
1.0
 40
1.0
 40
1.0
 10
-70.560638591575
 20
-34.59197915013127
 30
0.0
 10
-72.44888262756854
 20
-34.59197915013034
 30
0.0
 10
-74.35640609660217
 20
-34.59197915012961
 30
0.0
 10
-78.15247192720452
 20
-34.59197915012864
 30
0.0
 10
-80.04081643098986
 20
-34.59197915012839
 30
0.0
 10
-83.73938918536406
 20
-34.59197915012839
 30
0.0
 10
-85.54942265564766
 20
-34.59197915012863
 30
0.0
 10
-89.03701755886432
 20
-34.59197915012961
 30
0.0
 10
-90.71442791544406
 20
-34.59197915013034
 30
0.0
 10
-92.30348355655754
 20
-34.59197915013127
 30
0.0
  0
SPLINE
  5
FD
330
1F
100
AcDbEntity
  8
0
  6
Continuous
 62
     7
370
    25
100
AcDbSpline
210
0.0
220
0.0
230
1.0
 70
     8
 71
     3
 72
    14
 73
    10
 74
     0
 42
0.000000001
 43
0.00000001
 40
0.0
 40
0.0
 40
0.0
 40
0.0
 40
0.25
 40
0.25
 40
0.5
 40
0.5
 40
0.75
 40
0.75
 40
1.0
 40
1.0
 40
1.0
 40
1.0
 10
-94.71063859157792
 20
-34.79197915004549
 30
0.0
 10
-94.71063859157992
 20
-34.7919791499811
 30
0.0
 10
-94.6620457815442
 20
-34.791979149929
 30
0.0
 10
-94.4580092944718
 20
-34.79197914985514
 30
0.0
 10
-94.30246055635386
 20
-34.79197914983347
 30
0.0
 10
-93.89428252130271
 20
-34.791979149821
 30
0.0
 10
-93.64186334653503
 20
-34.79197914983025
 30
0.0
 10
-93.06841487387452
 20
-34.79197914987432
 30
0.0
 10
-92.74778288715356
 20
-34.79197914990906
 30
0.0
 10
-92.41151875948866
 20
-34.79197914995198
 30
0.0
  0
SPLINE
  5
FE
330
1F
100
AcDbEntity
  8
0
  6
Continuous
 62
     7
370
    25
100
AcDbSpline
210
0.0
220
0.0
230
1.0
 70
    24
 71
     3
 72
    20
 73
    16
 74
     0
 42
0.000000001
 43
0.00000001
 40
0.0
 40
0.0
 40
0.0
 40
0.0
 40
0.0418008431284308
 40
0.0834568627939651
 40
0.1250405557699152
 40
0.1666247971081362
 40
0.2082824589826008
 40
0.2500860296080148
 40
0.3750516461399289
 40
0.5000271168907101
 40
0.6249926971526573
 40
0.7499682016763659
 40
0.8334070545025372
 40
0.9165567540514294
 40
1.0
 40
1.0
 40
1.0
 40
1.0
 10
-92.41151875555443
 20
-39.49197915013901
 30
0.0
 10
-92.46969062465081
 20
-39.49197915013898
 30
0.0
 10
-92.58583282022163
 20
-39.49197915013898
 30
0.0
 10
-92.75361988062318
 20
-39.49197915013901
 30
0.0
 10
-92.9161534851667
 20
-39.49197915013898
 30
0.0
 10
-93.07301039652735
 20
-39.49197915013901
 30
0.0
 10
-93.22430593895189
 20
-39.49197915013901
 30
0.0
 10
-93.4662929046573
 20
-39.49197915013901
 30
0.0
 10
-93.77602863409788
 20
-39.491979150139
 30
0.0
 10
-94.10968053986109
 20
-39.49197915013902
 30
0.0
 10
-94.37543904241863
 20
-39.49197915013898
 30
0.0
 10
-94.54652655355792
 20
-39.49197915013901
 30
0.0
 10
-94.64678918042442
 20
-39.49197915013898
 30
0.0
 10
-94.70073691965582
 20
-39.49197915013901
 30
0.0
 10
-94.70733415936273
 20
-39.49197915013901
 30
0.0
 10
-94.710638591575
 20
-39.49197915013901
 30
0.0
  0
SPLINE
  5
FF
330
1F
100
AcDbEntity
  8
0
  6
Continuous
 62
     7
370
    25
100
AcDbSpline
210
0.0
220
0.0
230
1.0
 70
     8
 71
     3
 72
    14
 73
    10
 74
     0
 42
0.000000001
 43
0.00000001
 40
0.0
 40
0.0
 40
0.0
 40
0.0
 40
0.25
 40
0.25
 40
0.5
 40
0.5
 40
0.75
 40
0.75
 40
1.0
 40
1.0
 40
1.0
 40
1.0
 10
-48.70975842194412
 20
-34.79197914995198
 30
0.0
 10
-48.37349429467348
 20
-34.79197914990906
 30
0.0
 10
-48.05286230827119
 20
-34.79197914987429
 30
0.0
 10
-47.47941383610063
 20
-34.79197914983022
 30
0.0
 10
-47.22699466150427
 20
-34.791979149821
 30
0.0
 10
-46.81881662668178
 20
-34.79197914983345
 30
0.0
 10
-46.66326788862163
 20
-34.79197914985517
 30
0.0
 10
-46.45923140160615
 20
-34.791979149929
 30
0.0
 10
-46.41063859157009
 20
-34.7919791499811
 30
0.0
 10
-46.41063859157209
 20
-34.79197915004549
 30
0.0
  0
SPLINE
  5
101
330
1F
100
AcDbEntity
  8
0
  6
Continuous
 62
     7
370
    25
100
AcDbSpline
210
0.0
220
0.0
230
1.0
 70
    24
 71
     3
 72
    14
 73
    10
 74
     0
 42
0.000000001
 43
0.00000001
 40
0.0
 40
0.0
 40
0.0
 40
0.0
 40
0.25
 40
0.25
 40
0.5
 40
0.5
 40
0.75
 40
0.75
 40
1.0
 40
1.0
 40
1.0
 40
1.0
 10
-48.70975842530591
 20
-39.49197915013901
 30
0.0
 10
-48.37349429709415
 20
-39.49197915013901
 30
0.0
 10
-48.05286231000621
 20
-39.49197915013901
 30
0.0
 10
-47.4794138368797
 20
-39.49197915013901
 30
0.0
 10
-47.22699466201158
 20
-39.49197915013901
 30
0.0
 10
-46.81881662687892
 20
-39.49197915013901
 30
0.0
 10
-46.66326788877798
 20
-39.49197915013901
 30
0.0
 10
-46.45923140170819
 20
-39.49197915013901
 30
0.0
 10
-46.41063859165696
 20
-39.49197915013901
 30
0.0
 10
-46.410638591575
 20
-39.49197915013901
 30
0.0
  0
SPLINE
  5
102
330
1F
100
AcDbEntity
  8
0
  6
Continuous
 62
     7
370
    25
100
AcDbSpline
210
0.0
220
0.0
230
1.0
 70
     8
 71
     3
 72
    10
 73
     6
 74
     0
 42
0.000000001
 43
0.00000001
 40
0.0
 40
0.0
 40
0.0
 40
0.0
 40
0.5
 40
0.5
 40
1.0
 40
1.0
 40
1.0
 40
1.0
 10
-46.41063859157212
 20
-34.79197915004549
 30
0.0
 10
-46.41063859144904
 20
-34.74483869797366
 30
0.0
 10
-46.43016480600743
 20
-34.68961022294796
 30
0.0
 10
-46.50826966437882
 20
-34.61150536457115
 30
0.0
 10
-46.56349813939922
 20
-34.59197915001244
 30
0.0
 10
-46.61063859146403
 20
-34.59197915013514
 30
0.0
  0
SPLINE
  5
103
330
1F
100
AcDbEntity
  8
0
  6
Continuous
 62
     7
370
    25
100
AcDbSpline
210
0.0
220
0.0
230
1.0
 70
    24
 71
     3
 72
    14
 73
    10
 74
     0
 42
0.000000001
 43
0.00000001
 40
0.0
 40
0.0
 40
0.0
 40
0.0
 40
0.25
 40
0.25
 40
0.5
 40
0.5
 40
0.75
 40
0.75
 40
1.0
 40
1.0
 40
1.0
 40
1.0
 10
-48.81779362659245
 20
-34.59197915013127
 30
0.0
 10
-48.55381325441704
 20
-34.5919791501373
 30
0.0
 10
-48.30938600353132
 20
-34.59197915013863
 30
0.0
 10
-47.85963773454692
 20
-34.5919791501392
 30
0.0
 10
-47.65488962041089
 20
-34.591979150139
 30
0.0
 10
-47.29824955250253
 20
-34.591979150139
 30
0.0
 10
-47.14356862940074
 20
-34.591979150139
 30
0.0
 10
-46.89224975588691
 20
-34.59197915013901
 30
0.0
 10
-46.79453298065512
 20
-34.59197915013905
 30
0.0
 10
-46.72622935042464
 20
-34.591979150139
 30
0.0
  0
SPLINE
  5
104
330
1F
100
AcDbEntity
  8
0
  6
Continuous
 62
     7
370
    25
100
AcDbSpline
210
0.0
220
0.0
230
1.0
 70
     8
 71
     3
 72
    10
 73
     6
 74
     0
 42
0.000000001
 43
0.00000001
 40
0.0
 40
0.0
 40
0.0
 40
0.0
 40
0.5
 40
0.5
 40
1.0
 40
1.0
 40
1.0
 40
1.0
 10
-94.51063859168605
 20
-34.59197915013514
 30
0.0
 10
-94.55777904375081
 20
-34.59197915001243
 30
0.0
 10
-94.61300751877116
 20
-34.61150536457115
 30
0.0
 10
-94.6911123771426
 20
-34.68961022294796
 30
0.0
 10
-94.71063859170097
 20
-34.74483869797366
 30
0.0
 10
-94.7106385915779
 20
-34.79197915004549
 30
0.0
  0
SPLINE
  5
105
330
1F
100
AcDbEntity
  8
0
  6
Continuous
 62
     7
370
    25
100
AcDbSpline
210
0.0
220
0.0
230
1.0
 70
    24
 71
     3
 72
    11
 73
     7
 74
     0
 42
0.000000001
 43
0.00000001
 40
0.0
 40
0.0
 40
0.0
 40
0.0
 40
0.0582118196362277
 40
0.4242621175185315
 40
0.7121883321457979
 40
1.0
 40
1.0
 40
1.0
 40
1.0
 10
-94.35328010639086
 20
-34.59197915013839
 30
0.0
 10
-94.34457528925545
 20
-34.59197915013862
 30
0.0
 10
-94.28113243222806
 20
-34.59197915014024
 30
0.0
 10
-93.8508394296086
 20
-34.59197915013787
 30
0.0
 10
-93.15936887176213
 20
-34.59197915014113
 30
0.0
 10
-92.5887408182459
 20
-34.59197915013456
 30
0.0
 10
-92.30348355655755
 20
-34.59197915013127
 30
0.0
  0
SPLINE
  5
106
330
1F
100
AcDbEntity
  8
0
  6
Continuous
 62
     8
370
    25
100
AcDbSpline
210
0.0
220
0.0
230
1.0
 70
     8
 71
     3
 72
     9
 73
     5
 74
     0
 42
0.000000001
 43
0.00000001
 40
0.0
 40
0.0
 40
0.0
 40
0.0
 40
0.8341674224581005
 40
1.0
 40
1.0
 40
1.0
 40
1.0
 10
-92.005417918575
 20
105.282010974861
 30
0.0
 10
-92.08792648075132
 20
105.4455813429476
 30
0.0
 10
-92.1868377543817
 20
105.6416695186337
 30
0.0
 10
-92.20831985216455
 20
105.855653818507
 30
0.0
 10
-92.21188228381088
 20
105.8911393865085
 30
0.0
  0
SPLINE
  5
107
330
1F
100
AcDbEntity
  8
0
  6
Continuous
 62
     8
370
    25
100
AcDbSpline
210
0.0
220
0.0
230
1.0
 70
     8
 71
     3
 72
    11
 73
     7
 74
     0
 42
0.000000001
 43
0.00000001
 40
0.0
 40
0.0
 40
0.0
 40
0.0
 40
0.3052625335274488
 40
0.6352689051901035
 40
0.8920141821859978
 40
1.0
 40
1.0
 40
1.0
 40
1.0
 10
-51.36063859136895
 20
102.4699393377749
 30
0.0
 10
-51.00565801746419
 20
102.5137812865564
 30
0.0
 10
-50.26692300815139
 20
102.6050189058015
 30
0.0
 10
-49.43934569776791
 20
103.2839859709987
 30
0.0
 10
-49.00031081610774
 20
103.9845305822791
 30
0.0
 10
-48.94914417200687
 20
104.4034781596807
 30
0.0
 10
-48.93399528016118
 20
104.5275158340405
 30
0.0
  0
SPLINE
  5
108
330
1F
100
AcDbEntity
  8
0
  6
Continuous
 62
     8
370
    25
100
AcDbSpline
210
0.0
220
0.0
230
1.0
 70
     8
 71
     3
 72
    11
 73
     7
 74
     0
 42
0.000000001
 43
0.00000001
 40
0.0
 40
0.0
 40
0.0
 40
0.0
 40
0.1762772089119281
 40
0.5060740231641621
 40
0.762656264422737
 40
1.0
 40
1.0
 40
1.0
 40
1.0
 10
-92.16681251838973
 20
104.5336522115033
 30
0.0
 10
-92.13684958965653
 20
104.3306872993406
 30
0.0
 10
-92.05082905425445
 20
103.7479955816001
 30
0.0
 10
-91.44260639523145
 20
103.0416801625162
 30
0.0
 10
-90.60881168486996
 20
102.5513192209716
 30
0.0
 10
-90.03592494231371
 20
102.4963523084625
 30
0.0
 10
-89.76063859189325
 20
102.4699393377749
 30
0.0
  0
SPLINE
  5
10A
330
1F
100
AcDbEntity
  8
0
  6
Continuous
 62
     8
370
    25
100
AcDbSpline
210
0.0
220
0.0
230
1.0
 70
     8
 71
     3
 72
    11
 73
     7
 74
     0
 42
0.000000001
 43
0.00000001
 40
0.0
 40
0.0
 40
0.0
 40
0.0
 40
0.2817457658357215
 40
0.5633319183465489
 40
0.8446424045995495
 40
1.0
 40
1.0
 40
1.0
 40
1.0
 10
-52.60302702952026
 20
81.6762127842373
 30
0.0
 10
-52.07171924207913
 20
81.67698492322432
 30
0.0
 10
-51.0094046612588
 20
81.67852876376975
 30
0.0
 10
-49.79580542981562
 20
81.68443936491869
 30
0.0
 10
-49.05812119240299
 20
81.69142477905463
 30
0.0
 10
-48.96296270681039
 20
81.69905630719643
 30
0.0
 10
-48.92910725887466
 20
81.70177144922567
 30
0.0
  0
LINE
  5
10C
330
1F
100
AcDbEntity
  8
0
  6
Continuous
 62
     7
370
    25
100
AcDbLine
 10
-51.5606385916
 20
81.9080208499
 30
0.0
 11
-51.5844088295
 21
83.9080208499
 31
0.0
  0
LINE
  5
10D
330
1F
100
AcDbEntity
  8
0
  6
Continuous
 62
     7
370
    25
100
AcDbLine
 10
-89.5368683537
 20
83.9080208499
 30
0.0
 11
-89.5606385916
 21
81.9080208499
 31
0.0
  0
LINE
  5
10E
330
1F
100
AcDbEntity
  8
0
  6
Continuous
 62
     7
370
    25
100
AcDbLine
 10
-90.9300093614
 20
108.70802085
 30
0.0
 11
-90.9300093629
 21
106.2942439322
 31
0.0
  0
LINE
  5
10F
330
1F
100
AcDbEntity
  8
0
  6
Continuous
 62
     7
370
    25
100
AcDbLine
 10
-50.1912678244
 20
108.70802085
 30
0.0
 11
-50.1912678238
 21
106.2942438657
 31
0.0
  0
LINE
  5
110
330
1F
100
AcDbEntity
  8
0
  6
Continuous
 62
     7
370
    25
100
AcDbLine
 10
-51.3606385914
 20
102.4699393378
 30
0.0
 11
-89.7606385919
 21
102.4699393378
 31
0.0
  0
LINE
  5
111
330
1F
100
AcDbEntity
  8
0
  6
Continuous
 62
     7
370
    25
100
AcDbLine
 10
-92.2118822838
 20
105.8911393865
 30
0.0
 11
-92.2606385916
 21
106.2942437659
 31
0.0
  0
LINE
  5
112
330
1F
100
AcDbEntity
  8
0
  6
Continuous
 62
     7
370
    25
100
AcDbLine
 10
-92.2606385915
 20
106.2942442689
 30
0.0
 11
-92.2606385916
 21
108.70802085
 31
0.0
  0
LINE
  5
113
330
1F
100
AcDbEntity
  8
0
  6
Continuous
 62
     7
370
    25
100
AcDbLine
 10
-48.8606385916
 20
106.2942440682
 30
0.0
 11
-48.8606385916
 21
108.70802085
 31
0.0
  0
LINE
  5
114
330
1F
100
AcDbEntity
  8
0
  6
Continuous
 62
     7
370
    25
100
AcDbLine
 10
-89.7606385919
 20
102.4699393378
 30
0.0
 11
-89.7606371619
 21
100.6276375509
 31
0.0
  0
LINE
  5
115
330
1F
100
AcDbEntity
  8
0
  6
Continuous
 62
     7
370
    25
100
AcDbLine
 10
-92.2606385915
 20
103.1261147143
 30
0.0
 11
-92.2606385916
 21
104.450559974
 31
0.0
  0
LINE
  5
116
330
1F
100
AcDbEntity
  8
0
  6
Continuous
 62
     7
370
    25
100
AcDbLine
 10
-51.3606400182
 20
100.6276375508
 30
0.0
 11
-51.3606385914
 21
102.4699393378
 31
0.0
  0
LINE
  5
117
330
1F
100
AcDbEntity
  8
0
  6
Continuous
 62
     7
370
    25
100
AcDbLine
 10
-48.8606385916
 20
103.1261147142
 30
0.0
 11
-48.8606385915
 21
104.9684164037
 31
0.0
  0
LINE
  5
118
330
1F
100
AcDbEntity
  8
0
  6
Continuous
 62
     7
370
    25
100
AcDbLine
 10
-49.7460625561
 20
83.9080208499
 30
0.0
 11
-49.7460626574
 21
92.4705645011
 31
0.0
  0
LINE
  5
119
330
1F
100
AcDbEntity
  8
0
  6
Continuous
 62
     7
370
    25
100
AcDbLine
 10
-91.3752145296
 20
92.4705645009
 30
0.0
 11
-91.3752146254
 21
83.9080208499
 31
0.0
  0
LINE
  5
11A
330
1F
100
AcDbEntity
  8
0
  6
Continuous
 62
     7
370
    25
100
AcDbLine
 10
-48.8606385916
 20
83.9080208499
 30
0.0
 11
-48.8606385916
 21
92.4705645726
 31
0.0
  0
LINE
  5
11B
330
1F
100
AcDbEntity
  8
0
  6
Continuous
 62
     7
370
    25
100
AcDbLine
 10
-92.2606385916
 20
83.9080208499
 30
0.0
 11
-92.2606385916
 21
92.4705645726
 31
0.0
  0
LINE
  5
11C
330
1F
100
AcDbEntity
  8
0
  6
Continuous
 62
     7
370
    25
100
AcDbLine
 10
-48.9291072589
 20
81.7017714492
 30
0.0
 11
-48.8106385916
 21
81.7080208499
 31
0.0
  0
LINE
  5
11D
330
1F
100
AcDbEntity
  8
0
  6
Continuous
 62
     7
370
    25
100
AcDbLine
 10
-52.5926635071
 20
81.7080208496
 30
0.0
 11
-88.5286136761
 21
81.7080208496
 31
0.0
  0
LINE
  5
11E
330
1F
100
AcDbEntity
  8
0
  6
Continuous
 62
     7
370
    25
100
AcDbLine
 10
-88.5033038556
 20
81.9080208499
 30
0.0
 11
-52.6179733276
 21
81.9080208499
 31
0.0
  0
LINE
  5
11F
330
1F
100
AcDbEntity
  8
0
  6
Continuous
 62
     7
370
    25
100
AcDbLine
 10
-87.3106385882
 20
80.9080208482
 30
0.0
 11
-53.8106385949
 21
80.9080208482
 31
0.0
  0
LINE
  5
120
330
1F
100
AcDbEntity
  8
0
  6
Continuous
 62
     7
370
    25
100
AcDbLine
 10
-74.7811243381
 20
70.8080208499
 30
0.0
 11
-87.3106385924
 21
70.8080208499
 31
0.0
  0
LINE
  5
121
330
1F
100
AcDbEntity
  8
0
  6
Continuous
 62
     7
370
    25
100
AcDbLine
 10
-53.8106385915
 20
70.8080208499
 30
0.0
 11
-66.3401528443
 21
70.8080208499
 31
0.0
  0
LINE
  5
122
330
1F
100
AcDbEntity
  8
0
  6
Continuous
 62
     7
370
    25
100
AcDbLine
 10
-53.8106395813
 20
66.4083271777
 30
0.0
 11
-53.8106385915
 21
70.8080208499
 31
0.0
  0
LINE
  5
123
330
1F
100
AcDbEntity
  8
0
  6
Continuous
 62
     7
370
    25
100
AcDbLine
 10
-87.3106385924
 20
70.8080208499
 30
0.0
 11
-87.3106376073
 21
66.4083271777
 31
0.0
  0
LINE
  5
124
330
1F
100
AcDbEntity
  8
0
  6
Continuous
 62
     7
370
    25
100
AcDbLine
 10
-92.3106385914
 20
75.8013965358
 30
0.0
 11
-92.3106385915
 21
71.4017030162
 31
0.0
  0
LINE
  5
125
330
1F
100
AcDbEntity
  8
0
  6
Continuous
 62
     7
370
    25
100
AcDbLine
 10
-48.8106385917
 20
75.8013965349
 30
0.0
 11
-48.8106385914
 21
71.4017030152
 31
0.0
  0
LINE
  5
126
330
1F
100
AcDbEntity
  8
0
  6
Continuous
 62
     7
370
    25
100
AcDbLine
 10
-90.3718464084
 20
40.951603805
 30
0.0
 11
-90.3718464307
 21
-34.3919791503
 31
0.0
  0
LINE
  5
127
330
1F
100
AcDbEntity
  8
0
  6
Continuous
 62
     7
370
    25
100
AcDbLine
 10
-70.5606385945
 20
41.5702751524
 30
0.0
 11
-70.560638593
 21
-34.3919791503
 31
0.0
  0
LINE
  5
128
330
1F
100
AcDbEntity
  8
0
  6
Continuous
 62
     7
370
    25
100
AcDbLine
 10
-50.7494307538
 20
-34.3919791503
 30
0.0
 11
-50.7494307773
 21
40.9516038051
 31
0.0
  0
LINE
  5
129
330
1F
100
AcDbEntity
  8
0
  6
Continuous
 62
     7
370
    25
100
AcDbLine
 10
-48.8106385916
 20
40.9516038113
 30
0.0
 11
-48.8106385916
 21
-34.3919791502
 31
0.0
  0
LINE
  5
12A
330
1F
100
AcDbEntity
  8
0
  6
Continuous
 62
     7
370
    25
100
AcDbLine
 10
-92.3106385916
 20
40.9516038113
 30
0.0
 11
-92.3106385916
 21
-34.3919791502
 31
0.0
  0
LINE
  5
12B
330
1F
100
AcDbEntity
  8
0
  6
Continuous
 62
     7
370
    25
100
AcDbLine
 10
-48.7097584219
 20
-34.79197915
 30
0.0
 11
-48.7097584253
 21
-39.4919791501
 31
0.0
  0
LINE
  5
12C
330
1F
100
AcDbEntity
  8
0
  6
Continuous
 62
     7
370
    25
100
AcDbLine
 10
-92.4115187556
 20
-39.4919791501
 30
0.0
 11
-92.4115187595
 21
-34.79197915
 31
0.0
  0
LINE
  5
12D
330
1F
100
AcDbEntity
  8
0
  6
Continuous
 62
     7
370
    25
100
AcDbLine
 10
-94.7106385916
 20
-39.4919791501
 30
0.0
 11
-94.7106385916
 21
-34.79197915
 31
0.0
  0
LINE
  5
12E
330
1F
100
AcDbEntity
  8
0
  6
Continuous
 62
     7
370
    25
100
AcDbLine
 10
-46.4106385916
 20
-34.79197915
 30
0.0
 11
-46.4106385916
 21
-39.4919791501
 31
0.0
  0
LINE
  5
12F
330
1F
100
AcDbEntity
  8
0
  6
Continuous
 62
     8
370
    25
100
AcDbLine
 10
-70.5606385916
 20
81.9080208499
 30
0.0
 11
-70.5606385916
 21
83.9080208499
 31
0.0
  0
LINE
  5
130
330
1F
100
AcDbEntity
  8
0
  6
Continuous
 62
     8
370
    25
100
AcDbLine
 10
-70.5606385923
 20
70.8684865881
 30
0.0
 11
-70.5606385923
 21
69.5842613081
 31
0.0
  0
SPLINE
  5
1CC
330
23
100
AcDbEntity
 67
     1
  8
0
  6
Continuous
 62
     7
370
    25
100
AcDbSpline
210
0.0
220
0.0
230
1.0
 70
     8
 71
     3
 72
    10
 73
     6
 74
     0
 42
0.000000001
 43
0.00000001
 40
0.0
 40
0.0
 40
0.0
 40
0.0
 40
0.5
 40
0.5
 40
1.0
 40
1.0
 40
1.0
 40
1.0
 10
-50.2582048977941
 20
-42.3651886954089
 30
0.0
 10
-49.90785659790835
 20
-42.2407561254866
 30
0.0
 10
-49.604634773575
 20
-42.01088958132951
 30
0.0
 10
-49.17576481357501
 20
-41.40345224819131
 30
0.0
 10
-49.06063859157501
 20
-41.0407842043428
 30
0.0
 10
-49.06063859146401
 20
-40.66899481654299
 30
0.0
  0
SPLINE
  5
1CD
330
23
100
AcDbEntity
 67
     1
  8
0
  6
Continuous
 62
     7
370
    25
100
AcDbSpline
210
0.0
220
0.0
230
1.0
 70
     8
 71
     3
 72
    10
 73
     6
 74
     0
 42
0.000000001
 43
0.00000001
 40
0.0
 40
0.0
 40
0.0
 40
0.0
 40
0.5
 40
0.5
 40
1.0
 40
1.0
 40
1.0
 40
1.0
 10
-68.68586168327435
 20
-45.83454974260781
 30
0.0
 10
-65.54797446524168
 20
-45.73752491464551
 30
0.0
 10
-62.42235367157502
 20
-45.39705547674122
 30
0.0
 10
-56.25198301557499
 20
-44.2353644458365
 30
0.0
 10
-53.21654314057501
 20
-43.41589552700491
 30
0.0
 10
-50.2582048977941
 20
-42.3651886954089
 30
0.0
  0
SPLINE
  5
1CE
330
23
100
AcDbEntity
 67
     1
  8
0
  6
Continuous
 62
     7
370
    25
100
AcDbSpline
210
0.0
220
0.0
230
1.0
 70
     8
 71
     3
 72
    10
 73
     6
 74
     0
 42
0.000000001
 43
0.00000001
 40
0.0
 40
0.0
 40
0.0
 40
0.0
 40
0.5
 40
0.5
 40
1.0
 40
1.0
 40
1.0
 40
1.0
 10
-72.43541556109388
 20
-45.8345497407149
 30
0.0
 10
-71.81610306990834
 20
-45.85369913721821
 30
0.0
 10
-71.19117743357502
 20
-45.86327384119601
 30
0.0
 10
-69.93009974957499
 20
-45.86327384119591
 30
0.0
 10
-69.30517411324168
 20
-45.85369913721821
 30
0.0
 10
-68.68586168327435
 20
-45.83454974260781
 30
0.0
  0
SPLINE
  5
1CF
330
23
100
AcDbEntity
 67
     1
  8
0
  6
Continuous
 62
     7
370
    25
100
AcDbSpline
210
0.0
220
0.0
230
1.0
 70
     8
 71
     3
 72
    10
 73
     6
 74
     0
 42
0.000000001
 43
0.00000001
 40
0.0
 40
0.0
 40
0.0
 40
0.0
 40
0.5
 40
0.5
 40
1.0
 40
1.0
 40
1.0
 40
1.0
 10
-90.86307228535591
 20
-42.3651886954089
 30
0.0
 10
-87.90473404257503
 20
-43.41589552700491
 30
0.0
 10
-84.86929422490834
 20
-44.23536444583649
 30
0.0
 10
-78.69892345424168
 20
-45.3970554767413
 30
0.0
 10
-75.57330271790836
 20
-45.7375249146456
 30
0.0
 10
-72.43541556109388
 20
-45.8345497407149
 30
0.0
  0
SPLINE
  5
1D0
330
23
100
AcDbEntity
 67
     1
  8
0
  6
Continuous
 62
     7
370
    25
100
AcDbSpline
210
0.0
220
0.0
230
1.0
 70
     8
 71
     3
 72
    10
 73
     6
 74
     0
 42
0.000000001
 43
0.00000001
 40
0.0
 40
0.0
 40
0.0
 40
0.0
 40
0.5
 40
0.5
 40
1.0
 40
1.0
 40
1.0
 40
1.0
 10
-92.060638591686
 20
-40.66899481654299
 30
0.0
 10
-92.06063859157503
 20
-41.04078420434279
 30
0.0
 10
-91.94551231224166
 20
-41.40345224819141
 30
0.0
 10
-91.51664246690834
 20
-42.0108895813295
 30
0.0
 10
-91.21342058524166
 20
-42.24075612548661
 30
0.0
 10
-90.86307228535591
 20
-42.3651886954089
 30
0.0
  0
SPLINE
  5
1D2
330
23
100
AcDbEntity
 67
     1
  8
0
  6
Continuous
 62
     7
370
    25
100
AcDbSpline
210
0.0
220
0.0
230
1.0
 70
     8
 71
     3
 72
    14
 73
    10
 74
     0
 42
0.000000001
 43
0.00000001
 40
0.0
 40
0.0
 40
0.0
 40
0.0
 40
0.25
 40
0.25
 40
0.5
 40
0.5
 40
0.75
 40
0.75
 40
1.0
 40
1.0
 40
1.0
 40
1.0
 10
-87.26063859124166
 20
65.736472706074
 30
0.0
 10
-87.89098355990836
 20
65.736472705963
 30
0.0
 10
-88.5151562662416
 20
65.6123171433808
 30
0.0
 10
-89.67988190090827
 20
65.12987181686864
 30
0.0
 10
-90.20902993924166
 20
64.77630634697881
 30
0.0
 10
-91.10047234190836
 20
63.88486409580166
 30
0.0
 10
-91.45403782090828
 20
63.35571595670772
 30
0.0
 10
-91.93648291424167
 20
62.1909903602523
 30
0.0
 10
-92.06063859157501
 20
61.56681767203914
 30
0.0
 10
-92.060638591686
 20
60.93647272132291
 30
0.0
  0
SPLINE
  5
1D4
330
23
100
AcDbEntity
 67
     1
  8
0
  6
Continuous
 62
     7
370
    25
100
AcDbSpline
210
0.0
220
0.0
230
1.0
 70
     8
 71
     3
 72
    18
 73
    14
 74
     0
 42
0.000000001
 43
0.00000001
 40
0.0
 40
0.0
 40
0.0
 40
0.0
 40
0.2499999999999963
 40
0.2499999999999963
 40
0.3749999999999968
 40
0.3749999999999968
 40
0.4999999999999972
 40
0.4999999999999972
 40
0.6249999999999977
 40
0.6249999999999977
 40
0.7499999999999981
 40
0.7499999999999981
 40
1.0
 40
1.0
 40
1.0
 40
1.0
 10
-53.86063859190833
 20
65.73647270607401
 30
0.0
 10
-53.29495316694499
 20
65.7364727061269
 30
0.0
 10
-52.68464934779366
 20
65.63337475982846
 30
0.0
 10
-51.79835130493348
 20
65.28249744732683
 30
0.0
 10
-51.50844507198737
 20
65.13345670134352
 30
0.0
 10
-50.95961847887217
 20
64.77464562039933
 30
0.0
 10
-50.70084061695877
 20
64.56489983247452
 30
0.0
 10
-50.23221146678715
 20
64.09627068345202
 30
0.0
 10
-50.02246567842451
 20
63.83749282225013
 30
0.0
 10
-49.66365459682723
 20
63.28866623084856
 30
0.0
 10
-49.51461385062812
 20
62.99875999890436
 30
0.0
 10
-49.16373653770201
 20
62.11246195945705
 30
0.0
 10
-49.06063859141108
 20
61.50215814312901
 30
0.0
 10
-49.06063859146401
 20
60.93647272132291
 30
0.0
  0
SPLINE
  5
1D5
330
23
100
AcDbEntity
 67
     1
  8
0
  6
Continuous
 62
     7
370
    25
100
AcDbSpline
210
0.0
220
0.0
230
1.0
 70
    24
 71
     3
 72
    10
 73
     6
 74
     0
 42
0.000000001
 43
0.00000001
 40
0.0
 40
0.0
 40
0.0
 40
0.0
 40
0.5
 40
0.5
 40
1.0
 40
1.0
 40
1.0
 40
1.0
 10
-72.43541536862668
 20
-45.83454975308598
 30
0.0
 10
-72.4368723322092
 20
-45.88166950410218
 30
0.0
 10
-72.43857928086527
 20
-45.93687403812888
 30
0.0
 10
-72.44099318002968
 20
-46.01494210308889
 30
0.0
 10
-72.44159650318286
 20
-46.03445421519698
 30
0.0
 10
-72.44159650317985
 20
-46.03445421509977
 30
0.0
  0
SPLINE
  5
1D6
330
23
100
AcDbEntity
 67
     1
  8
0
  6
Continuous
 62
     7
370
    25
100
AcDbSpline
210
0.0
220
0.0
230
1.0
 70
     8
 71
     3
 72
    10
 73
     6
 74
     0
 42
0.000000001
 43
0.00000001
 40
0.0
 40
0.0
 40
0.0
 40
0.0
 40
0.5
 40
0.5
 40
1.0
 40
1.0
 40
1.0
 40
1.0
 10
-90.93000936137467
 20
-42.55365466177907
 30
0.0
 10
-87.9752987997109
 20
-43.60307313621388
 30
0.0
 10
-84.92114017836563
 20
-44.42911709085897
 30
0.0
 10
-78.7210848882012
 20
-45.5963970188951
 30
0.0
 10
-75.57563583885639
 20
-45.9375487200306
 30
0.0
 10
-72.44159627383846
 20
-46.03445501480527
 30
0.0
  0
SPLINE
  5
1D7
330
23
100
AcDbEntity
 67
     1
  8
0
  6
Continuous
 62
     7
370
    25
100
AcDbSpline
210
0.0
220
0.0
230
1.0
 70
     8
 71
     3
 72
    10
 73
     6
 74
     0
 42
0.000000001
 43
0.00000001
 40
0.0
 40
0.0
 40
0.0
 40
0.0
 40
0.5
 40
0.5
 40
1.0
 40
1.0
 40
1.0
 40
1.0
 10
-90.8630722853559
 20
-42.36518869540888
 30
0.0
 10
-90.87884950392768
 20
-42.4096105470452
 30
0.0
 10
-90.89733366584748
 20
-42.46165398655129
 30
0.0
 10
-90.92347422000518
 20
-42.53525452655654
 30
0.0
 10
-90.9300093597466
 20
-42.5536546624997
 30
0.0
 10
-90.93000936137463
 20
-42.55365466177909
 30
0.0
  0
SPLINE
  5
1D8
330
23
100
AcDbEntity
 67
     1
  8
0
  6
Continuous
 62
     7
370
    25
100
AcDbSpline
210
0.0
220
0.0
230
1.0
 70
     8
 71
     3
 72
    10
 73
     6
 74
     0
 42
0.000000001
 43
0.00000001
 40
0.0
 40
0.0
 40
0.0
 40
0.0
 40
0.5
 40
0.5
 40
1.0
 40
1.0
 40
1.0
 40
1.0
 10
-68.68586168327435
 20
-45.83454974260778
 30
0.0
 10
-68.68440477578612
 20
-45.88166767879628
 30
0.0
 10
-68.68269790254526
 20
-45.93686977352076
 30
0.0
 10
-68.68028405200809
 20
-46.01493731612729
 30
0.0
 10
-68.67968061524843
 20
-46.03445419539207
 30
0.0
 10
-68.67968066017758
 20
-46.03445418522575
 30
0.0
  0
SPLINE
  5
1D9
330
23
100
AcDbEntity
 67
     1
  8
0
  6
Continuous
 62
     7
370
    25
100
AcDbSpline
210
0.0
220
0.0
230
1.0
 70
     8
 71
     3
 72
     8
 73
     4
 74
     0
 42
0.000000001
 43
0.00000001
 40
0.0
 40
0.0
 40
0.0
 40
0.0
 40
1.0
 40
1.0
 40
1.0
 40
1.0
 10
-72.441596634575
 20
-46.034454211037
 30
0.0
 10
-71.187482626575
 20
-46.073231975037
 30
0.0
 10
-69.93379455657501
 20
-46.073231975037
 30
0.0
 10
-68.679680548575
 20
-46.034454211037
 30
0.0
  0
SPLINE
  5
1DA
330
23
100
AcDbEntity
 67
     1
  8
0
  6
Continuous
 62
     7
370
    25
100
AcDbSpline
210
0.0
220
0.0
230
1.0
 70
     8
 71
     3
 72
    10
 73
     6
 74
     0
 42
0.000000001
 43
0.00000001
 40
0.0
 40
0.0
 40
0.0
 40
0.0
 40
0.5
 40
0.5
 40
1.0
 40
1.0
 40
1.0
 40
1.0
 10
-68.67968066017758
 20
-46.03445418522579
 30
0.0
 10
-65.5456412187288
 20
-45.93754830191801
 30
0.0
 10
-62.40019223228884
 20
-45.5963968102466
 30
0.0
 10
-56.20013700545324
 20
-44.42911709109647
 30
0.0
 10
-53.14597838477951
 20
-43.6030731366899
 30
0.0
 10
-50.19126782443485
 20
-42.55365466272362
 30
0.0
  0
SPLINE
  5
1DB
330
23
100
AcDbEntity
 67
     1
  8
0
  6
Continuous
 62
     7
370
    25
100
AcDbSpline
210
0.0
220
0.0
230
1.0
 70
     8
 71
     3
 72
    10
 73
     6
 74
     0
 42
0.000000001
 43
0.00000001
 40
0.0
 40
0.0
 40
0.0
 40
0.0
 40
0.5
 40
0.5
 40
1.0
 40
1.0
 40
1.0
 40
1.0
 10
-50.25820489779412
 20
-42.36518869540888
 30
0.0
 10
-50.24242767922232
 20
-42.4096105470452
 30
0.0
 10
-50.22394351730253
 20
-42.46165398655129
 30
0.0
 10
-50.19780296392376
 20
-42.53525452683319
 30
0.0
 10
-50.19126782499281
 20
-42.55365466306417
 30
0.0
 10
-50.19126782443485
 20
-42.55365466272361
 30
0.0
  0
SPLINE
  5
1DC
330
23
100
AcDbEntity
 67
     1
  8
0
  6
Continuous
 62
     7
370
    25
100
AcDbSpline
210
0.0
220
0.0
230
1.0
 70
     8
 71
     3
 72
    14
 73
    10
 74
     0
 42
0.000000001
 43
0.00000001
 40
0.0
 40
0.0
 40
0.0
 40
0.0
 40
0.25
 40
0.25
 40
0.5
 40
0.5
 40
0.75
 40
0.75
 40
1.0
 40
1.0
 40
1.0
 40
1.0
 10
-50.19126782443487
 20
-42.55365466272358
 30
0.0
 10
-50.01010033595232
 20
-42.48930977848978
 30
0.0
 10
-49.82972019093349
 20
-42.39521023963695
 30
0.0
 10
-49.4988707597191
 20
-42.14825166147166
 30
0.0
 10
-49.34887737817487
 20
-41.9954052151618
 30
0.0
 10
-49.10475798495145
 20
-41.64964246687872
 30
0.0
 10
-49.01092679640706
 20
-41.45714374277845
 30
0.0
 10
-48.88894080549921
 20
-41.06272099498371
 30
0.0
 10
-48.86063859157018
 20
-40.86124964518009
 30
0.0
 10
-48.8606385915721
 20
-40.66899480593451
 30
0.0
  0
SPLINE
  5
1DD
330
23
100
AcDbEntity
 67
     1
  8
0
  6
Continuous
 62
     7
370
    25
100
AcDbSpline
210
0.0
220
0.0
230
1.0
 70
     8
 71
     3
 72
    10
 73
     6
 74
     0
 42
0.000000001
 43
0.00000001
 40
0.0
 40
0.0
 40
0.0
 40
0.0
 40
0.5
 40
0.5
 40
1.0
 40
1.0
 40
1.0
 40
1.0
 10
-48.86063859157213
 20
-40.66899480593441
 30
0.0
 10
-48.86063859144904
 20
-40.66899480597568
 30
0.0
 10
-48.88016480600744
 20
-40.66899480600696
 30
0.0
 10
-48.95826966437882
 20
-40.66899480911415
 30
0.0
 10
-49.01349813939922
 20
-40.66899481231574
 30
0.0
 10
-49.060638591464
 20
-40.66899481654301
 30
0.0
  0
SPLINE
  5
1DE
330
23
100
AcDbEntity
 67
     1
  8
0
  6
Continuous
 62
     7
370
    25
100
AcDbSpline
210
0.0
220
0.0
230
1.0
 70
     8
 71
     3
 72
    14
 73
    10
 74
     0
 42
0.000000001
 43
0.00000001
 40
0.0
 40
0.0
 40
0.0
 40
0.0
 40
0.25
 40
0.25
 40
0.5
 40
0.5
 40
0.75
 40
0.75
 40
1.0
 40
1.0
 40
1.0
 40
1.0
 10
-92.26063859157789
 20
-40.66899480584469
 30
0.0
 10
-92.26063859157982
 20
-40.86124964511001
 30
0.0
 10
-92.23233637765006
 20
-41.06272099493044
 30
0.0
 10
-92.11035038683289
 20
-41.45714374271875
 30
0.0
 10
-92.01651919838154
 20
-41.64964246679524
 30
0.0
 10
-91.77239980552405
 20
-41.9954052149607
 30
0.0
 10
-91.62240642425381
 20
-42.1482516611764
 30
0.0
 10
-91.29155699380306
 20
-42.39521023907352
 30
0.0
 10
-91.11117684927345
 20
-42.48930977775255
 30
0.0
 10
-90.93000936137464
 20
-42.55365466177906
 30
0.0
  0
SPLINE
  5
1DF
330
23
100
AcDbEntity
 67
     1
  8
0
  6
Continuous
 62
     7
370
    25
100
AcDbSpline
210
0.0
220
0.0
230
1.0
 70
     8
 71
     3
 72
    10
 73
     6
 74
     0
 42
0.000000001
 43
0.00000001
 40
0.0
 40
0.0
 40
0.0
 40
0.0
 40
0.5
 40
0.5
 40
1.0
 40
1.0
 40
1.0
 40
1.0
 10
-92.06063859168597
 20
-40.66899481654295
 30
0.0
 10
-92.10777904375077
 20
-40.66899481231569
 30
0.0
 10
-92.16300751877114
 20
-40.66899480911412
 30
0.0
 10
-92.24111237714254
 20
-40.66899480598065
 30
0.0
 10
-92.26063859170097
 20
-40.66899480592208
 30
0.0
 10
-92.26063859157789
 20
-40.6689948058447
 30
0.0
  0
SPLINE
  5
1E0
330
23
100
AcDbEntity
 67
     1
  8
0
  6
Continuous
 62
     7
370
    25
100
AcDbSpline
210
0.0
220
0.0
230
1.0
 70
     8
 71
     3
 72
    10
 73
     6
 74
     0
 42
0.000000001
 43
0.00000001
 40
0.0
 40
0.0
 40
0.0
 40
0.0
 40
0.5
 40
0.5
 40
1.0
 40
1.0
 40
1.0
 40
1.0
 10
-92.26063859157789
 20
60.93647270548217
 30
0.0
 10
-92.26063859170097
 20
60.93647270567562
 30
0.0
 10
-92.24111237714257
 20
60.93647270582215
 30
0.0
 10
-92.16300751877114
 20
60.93647271046179
 30
0.0
 10
-92.1077790437508
 20
60.93647271514258
 30
0.0
 10
-92.06063859168597
 20
60.93647272132291
 30
0.0
  0
SPLINE
  5
1E1
330
23
100
AcDbEntity
 67
     1
  8
0
  6
Continuous
 62
     7
370
    25
100
AcDbSpline
210
0.0
220
0.0
230
1.0
 70
     8
 71
     3
 72
    18
 73
    14
 74
     0
 42
0.000000001
 43
0.00000001
 40
0.0
 40
0.0
 40
0.0
 40
0.0
 40
0.2499999999999987
 40
0.2499999999999987
 40
0.374999999999999
 40
0.374999999999999
 40
0.4999999999999993
 40
0.4999999999999993
 40
0.6249999999999997
 40
0.6249999999999997
 40
0.7499999999999999
 40
0.7499999999999999
 40
1.0
 40
1.0
 40
1.0
 40
1.0
 10
-87.26063859179953
 20
65.9364727059659
 30
0.0
 10
-87.84989424278619
 20
65.93647270596769
 30
0.0
 10
-88.4856273876749
 20
65.82907901191271
 30
0.0
 10
-89.40885451552347
 20
65.46358181099325
 30
0.0
 10
-89.7108401747926
 20
65.30833103372512
 30
0.0
 10
-90.28253454251745
 20
64.93456949044513
 30
0.0
 10
-90.55209481529037
 20
64.71608429426183
 30
0.0
 10
-91.04025017995129
 20
64.22792892954924
 30
0.0
 10
-91.2587353761149
 20
63.95836865674438
 30
0.0
 10
-91.63249691936552
 20
63.3866742889425
 30
0.0
 10
-91.787747696624
 20
63.08468862962832
 30
0.0
 10
-92.15324489752439
 20
62.16146150162627
 30
0.0
 10
-92.26063859157966
 20
61.52572835661076
 30
0.0
 10
-92.26063859157789
 20
60.93647270548215
 30
0.0
  0
SPLINE
  5
1E2
330
23
100
AcDbEntity
 67
     1
  8
0
  6
Continuous
 62
     7
370
    25
100
AcDbSpline
210
0.0
220
0.0
230
1.0
 70
    24
 71
     3
 72
    10
 73
     6
 74
     0
 42
0.000000001
 43
0.00000001
 40
0.0
 40
0.0
 40
0.0
 40
0.0
 40
0.5
 40
0.5
 40
1.0
 40
1.0
 40
1.0
 40
1.0
 10
-87.26063859124167
 20
65.73647270607398
 30
0.0
 10
-87.26063859137578
 20
65.78361315813878
 30
0.0
 10
-87.2606385914774
 20
65.83884163315916
 30
0.0
 10
-87.26063859164076
 20
65.91694649153055
 30
0.0
 10
-87.26063859170917
 20
65.93647270608898
 30
0.0
 10
-87.2606385917995
 20
65.93647270596591
 30
0.0
  0
SPLINE
  5
1E3
330
23
100
AcDbEntity
 67
     1
  8
0
  6
Continuous
 62
     7
370
    25
100
AcDbSpline
210
0.0
220
0.0
230
1.0
 70
     8
 71
     3
 72
    18
 73
    14
 74
     0
 42
0.000000001
 43
0.00000001
 40
0.0
 40
0.0
 40
0.0
 40
0.0
 40
0.2499999999999993
 40
0.2499999999999993
 40
0.3749999999999998
 40
0.3749999999999998
 40
0.5000000000000002
 40
0.5000000000000002
 40
0.6250000000000007
 40
0.6250000000000007
 40
0.7500000000000011
 40
0.7500000000000011
 40
1.0
 40
1.0
 40
1.0
 40
1.0
 10
-48.8606385915721
 20
60.93647270621939
 30
0.0
 10
-48.86063859157034
 20
61.52572835719963
 30
0.0
 10
-48.96803228562525
 20
62.16146150208257
 30
0.0
 10
-49.33352948654561
 20
63.08468862992427
 30
0.0
 10
-49.48878026381421
 20
63.38667428919135
 30
0.0
 10
-49.86254180709552
 20
63.95836865691275
 30
0.0
 10
-50.08102700327969
 20
64.22792892968423
 30
0.0
 10
-50.56918236799461
 20
64.71608429434279
 30
0.0
 10
-50.83874264080094
 20
64.93456949050552
 30
0.0
 10
-51.41043700860633
 20
65.30833103375484
 30
0.0
 10
-51.7124226679225
 20
65.4635818110128
 30
0.0
 10
-52.63564979593147
 20
65.82907901191234
 30
0.0
 10
-53.27138294095273
 20
65.93647270596765
 30
0.0
 10
-53.86063859208777
 20
65.93647270596591
 30
0.0
  0
SPLINE
  5
1E4
330
23
100
AcDbEntity
 67
     1
  8
0
  6
Continuous
 62
     7
370
    25
100
AcDbSpline
210
0.0
220
0.0
230
1.0
 70
     8
 71
     3
 72
    10
 73
     6
 74
     0
 42
0.000000001
 43
0.00000001
 40
0.0
 40
0.0
 40
0.0
 40
0.0
 40
0.5
 40
0.5
 40
1.0
 40
1.0
 40
1.0
 40
1.0
 10
-49.06063859146398
 20
60.93647272132288
 30
0.0
 10
-49.0134981393992
 20
60.93647271514254
 30
0.0
 10
-48.95826966437882
 20
60.93647271046179
 30
0.0
 10
-48.88016480600742
 20
60.93647270603811
 30
0.0
 10
-48.86063859144902
 20
60.93647270611623
 30
0.0
 10
-48.86063859157209
 20
60.93647270621939
 30
0.0
  0
SPLINE
  5
1E5
330
23
100
AcDbEntity
 67
     1
  8
0
  6
Continuous
 62
     7
370
    25
100
AcDbSpline
210
0.0
220
0.0
230
1.0
 70
     8
 71
     3
 72
    10
 73
     6
 74
     0
 42
0.000000001
 43
0.00000001
 40
0.0
 40
0.0
 40
0.0
 40
0.0
 40
0.5
 40
0.5
 40
1.0
 40
1.0
 40
1.0
 40
1.0
 10
-53.86063859208775
 20
65.93647270596593
 30
0.0
 10
-53.86063859188144
 20
65.93647270608898
 30
0.0
 10
-53.86063859172521
 20
65.91694649153058
 30
0.0
 10
-53.86063859167264
 20
65.83884163315916
 30
0.0
 10
-53.86063859177423
 20
65.78361315813879
 30
0.0
 10
-53.86063859190834
 20
65.736472706074
 30
0.0
  0
SPLINE
  5
1EB
330
23
100
AcDbEntity
 67
     1
  8
0
  6
Continuous
 62
     7
370
    25
100
AcDbSpline
210
0.0
220
0.0
230
1.0
 70
     8
 71
     3
 72
    22
 73
    18
 74
     0
 42
0.000000001
 43
0.00000001
 40
0.0
 40
0.0
 40
0.0
 40
0.0
 40
0.125
 40
0.125
 40
0.25
 40
0.25
 40
0.375
 40
0.375
 40
0.5
 40
0.5
 40
0.625
 40
0.625
 40
0.75
 40
0.75
 40
0.875
 40
0.875
 40
1.0
 40
1.0
 40
1.0
 40
1.0
 10
-67.56063863457794
 20
66.1364727207069
 30
0.0
 10
-67.56063862592643
 20
66.13647271774065
 30
0.0
 10
-67.62507483464404
 20
66.13647271508813
 30
0.0
 10
-67.91747258299131
 20
66.13647271081294
 30
0.0
 10
-68.1464250387934
 20
66.13647270920178
 30
0.0
 10
-68.73221147026771
 20
66.1364727070426
 30
0.0
 10
-69.08706361364226
 20
66.1364727064877
 30
0.0
 10
-69.82564531453963
 20
66.13647270595591
 30
0.0
 10
-70.20708520156082
 20
66.136472705963
 30
0.0
 10
-70.91419198281983
 20
66.136472705963
 30
0.0
 10
-71.29563186981459
 20
66.13647270595591
 30
0.0
 10
-72.03421357059202
 20
66.1364727064877
 30
0.0
 10
-72.38906571387267
 20
66.1364727070426
 30
0.0
 10
-72.97485214510665
 20
66.13647270920175
 30
0.0
 10
-73.20380460076314
 20
66.13647271081294
 30
0.0
 10
-73.49620234880749
 20
66.13647271508816
 30
0.0
 10
-73.56063855736865
 20
66.13647271774065
 30
0.0
 10
-73.56063854857207
 20
66.1364727207069
 30
0.0
  0
SPLINE
  5
1EE
330
23
100
AcDbEntity
 67
     1
  8
0
  6
Continuous
 62
     7
370
    25
100
AcDbSpline
210
0.0
220
0.0
230
1.0
 70
     8
 71
     3
 72
     8
 73
     4
 74
     0
 42
0.000000001
 43
0.00000001
 40
0.0
 40
0.0
 40
0.0
 40
0.0
 40
1.0
 40
1.0
 40
1.0
 40
1.0
 10
-70.560638591575
 20
66.636472705963
 30
0.0
 10
-69.54684480517254
 20
66.63647269582506
 30
0.0
 10
-68.51963271598879
 20
66.46527068094204
 30
0.0
 10
-67.56063863457794
 20
66.1364727207069
 30
0.0
  0
SPLINE
  5
1EF
330
23
100
AcDbEntity
 67
     1
  8
0
  6
Continuous
 62
     7
370
    25
100
AcDbSpline
210
0.0
220
0.0
230
1.0
 70
     8
 71
     3
 72
     8
 73
     4
 74
     0
 42
0.000000001
 43
0.00000001
 40
0.0
 40
0.0
 40
0.0
 40
0.0
 40
1.0
 40
1.0
 40
1.0
 40
1.0
 10
-73.56063854857207
 20
66.1364727207069
 30
0.0
 10
-72.60164446716124
 20
66.46527068094204
 30
0.0
 10
-71.57443237797747
 20
66.63647269582506
 30
0.0
 10
-70.560638591575
 20
66.636472705963
 30
0.0
  0
SPLINE
  5
1F0
330
23
100
AcDbEntity
 67
     1
  8
0
  6
Continuous
 62
     7
370
    25
100
AcDbSpline
210
0.0
220
0.0
230
1.0
 70
     8
 71
     3
 72
    20
 73
    16
 74
     0
 42
0.000000001
 43
0.00000001
 40
0.0
 40
0.0
 40
0.0
 40
0.0
 40
0.125
 40
0.125
 40
0.25
 40
0.25
 40
0.375
 40
0.375
 40
0.5
 40
0.5
 40
0.625
 40
0.625
 40
0.75
 40
0.75
 40
1.0
 40
1.0
 40
1.0
 40
1.0
 10
-52.60302702952028
 20
-99.06352831989942
 30
0.0
 10
-52.33032200152354
 20
-98.99478564660396
 30
0.0
 10
-52.06637795456214
 20
-98.90364773012601
 30
0.0
 10
-51.5556040295467
 20
-98.67775724420738
 30
0.0
 10
-51.30663600691939
 20
-98.54144873211129
 30
0.0
 10
-50.83809695908923
 20
-98.230370160728
 30
0.0
 10
-50.61951282970836
 20
-98.05682298631672
 30
0.0
 10
-50.21275978781484
 20
-97.6748244946074
 30
0.0
 10
-50.02322135831949
 20
-97.46443675615178
 30
0.0
 10
-49.68303896384896
 20
-97.01622179363922
 30
0.0
 10
-49.53357840978997
 20
-96.78063486009675
 30
0.0
 10
-49.2742973702381
 20
-96.28743312883432
 30
0.0
 10
-49.16407360912893
 20
-96.02850129204649
 30
0.0
 10
-48.89804323820367
 20
-95.22591966478271
 30
0.0
 10
-48.81063859157501
 20
-94.67589057917843
 30
0.0
 10
-48.81063859157501
 20
-94.111622659037
 30
0.0
  0
SPLINE
  5
1F1
330
23
100
AcDbEntity
 67
     1
  8
0
  6
Continuous
 62
     7
370
    25
100
AcDbSpline
210
0.0
220
0.0
230
1.0
 70
     8
 71
     3
 72
    20
 73
    16
 74
     0
 42
0.000000001
 43
0.00000001
 40
0.0
 40
0.0
 40
0.0
 40
0.0
 40
0.1249999999999992
 40
0.1249999999999992
 40
0.2499999999999984
 40
0.2499999999999984
 40
0.3749999999999977
 40
0.3749999999999977
 40
0.4999999999999969
 40
0.4999999999999969
 40
0.6249999999999961
 40
0.6249999999999961
 40
0.7499999999999953
 40
0.7499999999999953
 40
1.0
 40
1.0
 40
1.0
 40
1.0
 10
-52.6179733275829
 20
-98.86352836648119
 30
0.0
 10
-52.35799285077502
 20
-98.7959225625704
 30
0.0
 10
-52.10560422164171
 20
-98.70691313737032
 30
0.0
 10
-51.61507490390829
 20
-98.48566286510375
 30
0.0
 10
-51.37863353337502
 20
-98.35369772303699
 30
0.0
 10
-50.93575534577501
 20
-98.05541091983702
 30
0.0
 10
-50.72868046194166
 20
-97.8893324277704
 30
0.0
 10
-50.33940287100835
 20
-97.51964390030376
 30
0.0
 10
-50.15979915137502
 20
-97.31775876317029
 30
0.0
 10
-49.839160321775
 20
-96.89121278690364
 30
0.0
 10
-49.69715852190836
 20
-96.66592399877021
 30
0.0
 10
-49.44958758204166
 20
-96.1909263665036
 30
0.0
 10
-49.34505735317502
 20
-95.9424643673704
 30
0.0
 10
-49.09496089697501
 20
-95.1816189733704
 30
0.0
 10
-49.01063859157502
 20
-94.64944467803703
 30
0.0
 10
-49.01063859156136
 20
-94.11162279897897
 30
0.0
  0
SPLINE
  5
1F3
330
23
100
AcDbEntity
 67
     1
  8
0
  6
Continuous
 62
     7
370
    25
100
AcDbSpline
210
0.0
220
0.0
230
1.0
 70
     8
 71
     3
 72
    20
 73
    16
 74
     0
 42
0.000000001
 43
0.00000001
 40
0.0
 40
0.0
 40
0.0
 40
0.0
 40
0.1250000000000004
 40
0.1250000000000004
 40
0.2500000000000009
 40
0.2500000000000009
 40
0.3750000000000013
 40
0.3750000000000013
 40
0.5000000000000018
 40
0.5000000000000018
 40
0.6250000000000022
 40
0.6250000000000022
 40
0.7500000000000027
 40
0.7500000000000027
 40
1.0
 40
1.0
 40
1.0
 40
1.0
 10
-92.11063859158867
 20
-94.11162279897897
 30
0.0
 10
-92.11063859157501
 20
-94.38053370763701
 30
0.0
 10
-92.08987742214165
 20
-94.64571923137017
 30
0.0
 10
-92.00568231920833
 20
-95.1758850775035
 30
0.0
 10
-91.94358730157501
 20
-95.43329742110356
 30
0.0
 10
-91.77558332917505
 20
-95.94440105097013
 30
0.0
 10
-91.67165583944157
 20
-96.19099110917031
 30
0.0
 10
-91.42415242290843
 20
-96.66585925610362
 30
0.0
 10
-91.28353327104178
 20
-96.88932844610348
 30
0.0
 10
-90.96006162210841
 20
-97.31964310397004
 30
0.0
 10
-90.78123160494164
 20
-97.52025412737021
 30
0.0
 10
-90.3932394284084
 20
-97.8887222007037
 30
0.0
 10
-90.18758150017504
 20
-98.05402367103692
 30
0.0
 10
-89.51708523037506
 20
-98.50561562223702
 30
0.0
 10
-89.02326517017504
 20
-98.72831783110358
 30
0.0
 10
-88.5033038555669
 20
-98.8635283664814
 30
0.0
  0
SPLINE
  5
1F4
330
23
100
AcDbEntity
 67
     1
  8
0
  6
Continuous
 62
     7
370
    25
100
AcDbSpline
210
0.0
220
0.0
230
1.0
 70
     8
 71
     3
 72
    15
 73
    11
 74
     0
 42
0.000000001
 43
0.00000001
 40
0.0
 40
0.0
 40
0.0
 40
0.0
 40
0.1381590515692937
 40
0.2601964545343555
 40
0.3602977395531506
 40
0.4348814376656141
 40
0.4821814164683206
 40
0.5015279765072496
 40
0.7597758880300878
 40
0.9999999999999999
 40
0.9999999999999999
 40
0.9999999999999999
 40
0.9999999999999999
 10
-52.61797276190023
 20
-98.8635305418754
 30
0.0
 10
-52.61609167738759
 20
-98.87790623773766
 30
0.0
 10
-52.61254901032878
 20
-98.9049801431556
 30
0.0
 10
-52.60772523741191
 20
-98.94081806296485
 30
0.0
 10
-52.60421082055571
 20
-98.96824684430668
 30
0.0
 10
-52.6019593363286
 20
-98.98711230664051
 30
0.0
 10
-52.60074258018174
 20
-98.99826389073449
 30
0.0
 10
-52.59813838767924
 20
-99.02268351193918
 30
0.0
 10
-52.5934866772259
 20
-99.0549309178955
 30
0.0
 10
-52.5929310170218
 20
-99.0607328594114
 30
0.0
 10
-52.59266323272741
 20
-99.06352893658861
 30
0.0
  0
SPLINE
  5
1F6
330
23
100
AcDbEntity
 67
     1
  8
0
  6
Continuous
 62
     7
370
    25
100
AcDbSpline
210
0.0
220
0.0
230
1.0
 70
     8
 71
     3
 72
    13
 73
     9
 74
     0
 42
0.000000001
 43
0.00000001
 40
0.0
 40
0.0
 40
0.0
 40
0.0
 40
0.1174156673421148
 40
0.2414422819140785
 40
0.3701922848235774
 40
0.5012691687320812
 40
0.6891852574970246
 40
1.0
 40
1.0
 40
1.0
 40
1.0
 10
-88.52861395042248
 20
-99.0635289365886
 30
0.0
 10
-88.52854327547566
 20
-99.06286555800357
 30
0.0
 10
-88.52839794631457
 20
-99.06150145010413
 30
0.0
 10
-88.52703412481722
 20
-99.05022679358899
 30
0.0
 10
-88.52466969070665
 20
-99.03168164957633
 30
0.0
 10
-88.52082685426424
 20
-99.00192375416287
 30
0.0
 10
-88.51437484772194
 20
-98.94847159644391
 30
0.0
 10
-88.50755477090851
 20
-98.89614258109722
 30
0.0
 10
-88.5033044212495
 20
-98.86353054187548
 30
0.0
  0
SPLINE
  5
1F7
330
23
100
AcDbEntity
 67
     1
  8
0
  6
Continuous
 62
     7
370
    25
100
AcDbSpline
210
0.0
220
0.0
230
1.0
 70
     8
 71
     3
 72
    10
 73
     6
 74
     0
 42
0.000000001
 43
0.00000001
 40
0.0
 40
0.0
 40
0.0
 40
0.0
 40
0.5
 40
0.5
 40
1.0
 40
1.0
 40
1.0
 40
1.0
 10
-48.8106385916469
 20
-94.1116227367782
 30
0.0
 10
-48.81063859078932
 20
-94.11162280210573
 30
0.0
 10
-48.83016480479115
 20
-94.1116228576549
 30
0.0
 10
-48.9082696633964
 20
-94.1116228819458
 30
0.0
 10
-48.96349813906507
 20
-94.11162284964566
 30
0.0
 10
-49.01063859156136
 20
-94.11162279897897
 30
0.0
  0
SPLINE
  5
1F8
330
23
100
AcDbEntity
 67
     1
  8
0
  6
Continuous
 62
     7
370
    25
100
AcDbSpline
210
0.0
220
0.0
230
1.0
 70
     8
 71
     3
 72
    18
 73
    14
 74
     0
 42
0.000000001
 43
0.00000001
 40
0.0
 40
0.0
 40
0.0
 40
0.0
 40
0.2499999999999938
 40
0.2499999999999938
 40
0.3749999999999948
 40
0.3749999999999948
 40
0.4999999999999959
 40
0.4999999999999959
 40
0.6249999999999969
 40
0.6249999999999969
 40
0.7499999999999979
 40
0.7499999999999979
 40
1.0
 40
1.0
 40
1.0
 40
1.0
 10
-48.81063859157211
 20
60.93647270570662
 30
0.0
 10
-48.81063859157035
 20
61.52572835679003
 30
0.0
 10
-48.91803228562553
 20
62.16146150176519
 30
0.0
 10
-49.283529486532
 20
63.08468862971841
 30
0.0
 10
-49.43878026379355
 20
63.38667428901825
 30
0.0
 10
-49.81254180705353
 20
63.95836865679566
 30
0.0
 10
-50.03102700322337
 20
64.22792892959036
 30
0.0
 10
-50.51918236790073
 20
64.7160842942865
 30
0.0
 10
-50.78874264068381
 20
64.9345694904635
 30
0.0
 10
-51.36043700843324
 20
65.30833103373418
 30
0.0
 10
-51.66242266771666
 20
65.46358181099922
 30
0.0
 10
-52.5856497956141
 20
65.82907901191264
 30
0.0
 10
-53.22138294054318
 20
65.9364727059677
 30
0.0
 10
-53.81063859157503
 20
65.93647270596593
 30
0.0
  0
SPLINE
  5
1F9
330
23
100
AcDbEntity
 67
     1
  8
0
  6
Continuous
 62
     7
370
    25
100
AcDbSpline
210
0.0
220
0.0
230
1.0
 70
     8
 71
     3
 72
    14
 73
    10
 74
     0
 42
0.000000001
 43
0.00000001
 40
0.0
 40
0.0
 40
0.0
 40
0.0
 40
0.25
 40
0.25
 40
0.5
 40
0.5
 40
0.75
 40
0.75
 40
1.0
 40
1.0
 40
1.0
 40
1.0
 10
-90.03524490119509
 20
65.12890880679969
 30
0.0
 10
-90.39404301753883
 20
64.89573086726888
 30
0.0
 10
-90.72727740118555
 20
64.612545469255
 30
0.0
 10
-91.30759282700518
 20
63.97148317648077
 30
0.0
 10
-91.55439155800156
 20
63.61398707688593
 30
0.0
 10
-91.94352483889779
 20
62.86387703965614
 30
0.0
 10
-92.08591482721059
 20
62.47170300337102
 30
0.0
 10
-92.26932808082803
 20
61.69251089366926
 30
0.0
 10
-92.31063859157902
 20
61.30573958102983
 30
0.0
 10
-92.31063859157791
 20
60.93647270644382
 30
0.0
  0
SPLINE
  5
1FA
330
23
100
AcDbEntity
 67
     1
  8
0
  6
Continuous
 62
     7
370
    25
100
AcDbSpline
210
0.0
220
0.0
230
1.0
 70
     8
 71
     3
 72
    10
 73
     6
 74
     0
 42
0.000000001
 43
0.00000001
 40
0.0
 40
0.0
 40
0.0
 40
0.0
 40
0.5
 40
0.5
 40
1.0
 40
1.0
 40
1.0
 40
1.0
 10
-92.11063859158867
 20
-94.11162279897897
 30
0.0
 10
-92.15777904408496
 20
-94.11162284964564
 30
0.0
 10
-92.21300751975367
 20
-94.11162288194579
 30
0.0
 10
-92.29111237835885
 20
-94.11162285765484
 30
0.0
 10
-92.31063859236068
 20
-94.11162280210573
 30
0.0
 10
-92.3106385915031
 20
-94.1116227367782
 30
0.0
  0
SPLINE
  5
1FB
330
23
100
AcDbEntity
 67
     1
  8
0
  6
Continuous
 62
     7
370
    25
100
AcDbSpline
210
0.0
220
0.0
230
1.0
 70
     8
 71
     3
 72
    20
 73
    16
 74
     0
 42
0.000000001
 43
0.00000001
 40
0.0
 40
0.0
 40
0.0
 40
0.0
 40
0.2499999999999957
 40
0.2499999999999957
 40
0.3749999999999964
 40
0.3749999999999964
 40
0.4999999999999971
 40
0.4999999999999971
 40
0.6249999999999978
 40
0.6249999999999978
 40
0.7499999999999986
 40
0.7499999999999986
 40
0.8749999999999992
 40
0.8749999999999992
 40
1.0
 40
1.0
 40
1.0
 40
1.0
 10
-92.310638591575
 20
-94.111622659037
 30
0.0
 10
-92.31063859210812
 20
-94.6758905791784
 30
0.0
 10
-92.22323394591861
 20
-95.22591966494845
 30
0.0
 10
-91.95720357546892
 20
-96.02850129260369
 30
0.0
 10
-91.84697981448484
 20
-96.28743312954434
 30
0.0
 10
-91.58769877511438
 20
-96.78063486113373
 30
0.0
 10
-91.4382382211126
 20
-97.01622179485163
 30
0.0
 10
-91.09805582669043
 20
-97.46443675772286
 30
0.0
 10
-90.90851739718556
 20
-97.67482449636094
 30
0.0
 10
-90.50176435521365
 20
-98.05682298841705
 30
0.0
 10
-90.28318022576399
 20
-98.23037016299477
 30
0.0
 10
-89.81464117774375
 20
-98.54144873468503
 30
0.0
 10
-89.56567315499503
 20
-98.67775724692106
 30
0.0
 10
-89.0548992297024
 20
-98.9036477330756
 30
0.0
 10
-88.79095518258418
 20
-98.99478564965138
 30
0.0
 10
-88.51825015441722
 20
-99.06352832302102
 30
0.0
  0
SPLINE
  5
200
330
23
100
AcDbEntity
 67
     1
  8
0
  6
Continuous
 62
     7
370
    25
100
AcDbSpline
210
0.0
220
0.0
230
1.0
 70
     8
 71
     3
 72
    14
 73
    10
 74
     0
 42
0.000000001
 43
0.00000001
 40
0.0
 40
0.0
 40
0.0
 40
0.0
 40
0.25
 40
0.25
 40
0.5
 40
0.5
 40
0.75
 40
0.75
 40
1.0
 40
1.0
 40
1.0
 40
1.0
 10
-94.51063859168602
 20
27.853675336855
 30
0.0
 10
-94.51063859157499
 20
27.45151794449979
 30
0.0
 10
-94.460883616175
 20
27.0556134647774
 30
0.0
 10
-94.26186371457501
 20
26.2763102981662
 30
0.0
 10
-94.11569327207503
 20
25.90502861938205
 30
0.0
 10
-93.73003121207502
 20
25.19920486724235
 30
0.0
 10
-93.49653609977504
 20
24.87563730462511
 30
0.0
 10
-92.94821771057501
 20
24.28719080629606
 30
0.0
 10
-92.64191993114164
 20
24.03146128364819
 30
0.0
 10
-92.30348355655755
 20
23.81422549826991
 30
0.0
  0
SPLINE
  5
202
330
23
100
AcDbEntity
 67
     1
  8
0
  6
Continuous
 62
     7
370
    25
100
AcDbSpline
210
0.0
220
0.0
230
1.0
 70
     8
 71
     3
 72
    14
 73
    10
 74
     0
 42
0.000000001
 43
0.00000001
 40
0.0
 40
0.0
 40
0.0
 40
0.0
 40
0.25
 40
0.25
 40
0.5
 40
0.5
 40
0.75
 40
0.75
 40
1.0
 40
1.0
 40
1.0
 40
1.0
 10
-89.71063859584166
 20
68.03647270607401
 30
0.0
 10
-90.34098357210834
 20
68.036472705963
 30
0.0
 10
-90.96515622567496
 20
67.91231704393701
 30
0.0
 10
-92.12988189607496
 20
67.42987186289058
 30
0.0
 10
-92.65902987500833
 20
67.07630648640395
 30
0.0
 10
-93.55047237794163
 20
66.18486404642209
 30
0.0
 10
-93.90403781350834
 20
65.65571601709422
 30
0.0
 10
-94.38648290924166
 20
64.4909903382654
 30
0.0
 10
-94.510638591575
 20
63.86681767428021
 30
0.0
 10
-94.51063859168602
 20
63.23647270206766
 30
0.0
  0
SPLINE
  5
204
330
23
100
AcDbEntity
 67
     1
  8
0
  6
Continuous
 62
     7
370
    25
100
AcDbSpline
210
0.0
220
0.0
230
1.0
 70
     8
 71
     3
 72
    14
 73
    10
 74
     0
 42
0.000000001
 43
0.00000001
 40
0.0
 40
0.0
 40
0.0
 40
0.0
 40
0.25
 40
0.25
 40
0.5
 40
0.5
 40
0.75
 40
0.75
 40
1.0
 40
1.0
 40
1.0
 40
1.0
 10
-46.610638591464
 20
63.23647270206766
 30
0.0
 10
-46.61063859157501
 20
63.86681767428021
 30
0.0
 10
-46.73479421004166
 20
64.49099033826538
 30
0.0
 10
-47.21723943350834
 20
65.6557160170942
 30
0.0
 10
-47.570804869075
 20
66.18486404642206
 30
0.0
 10
-48.46224724427501
 20
67.07630648640394
 30
0.0
 10
-48.99139528707502
 20
67.42987186289061
 30
0.0
 10
-50.15612095747501
 20
67.91231704393701
 30
0.0
 10
-50.78029361104165
 20
68.036472705963
 30
0.0
 10
-51.41063858730836
 20
68.03647270607401
 30
0.0
  0
SPLINE
  5
206
330
23
100
AcDbEntity
 67
     1
  8
0
  6
Continuous
 62
     7
370
    25
100
AcDbSpline
210
0.0
220
0.0
230
1.0
 70
     8
 71
     3
 72
    14
 73
    10
 74
     0
 42
0.000000001
 43
0.00000001
 40
0.0
 40
0.0
 40
0.0
 40
0.0
 40
0.25
 40
0.25
 40
0.5
 40
0.5
 40
0.75
 40
0.75
 40
1.0
 40
1.0
 40
1.0
 40
1.0
 10
-48.81779362659245
 20
23.81422549826985
 30
0.0
 10
-48.47935725200835
 20
24.0314612836482
 30
0.0
 10
-48.17305947257503
 20
24.28719080629606
 30
0.0
 10
-47.624741083375
 20
24.87563730462515
 30
0.0
 10
-47.39124593914165
 20
25.19920490117805
 30
0.0
 10
-47.00558394300836
 20
25.90502858544636
 30
0.0
 10
-46.859413468575
 20
26.27631029816621
 30
0.0
 10
-46.66039356697501
 20
27.05561346477739
 30
0.0
 10
-46.610638591575
 20
27.4515179444998
 30
0.0
 10
-46.610638591464
 20
27.853675336855
 30
0.0
  0
SPLINE
  5
207
330
23
100
AcDbEntity
 67
     1
  8
0
  6
Continuous
 62
     7
370
    25
100
AcDbSpline
210
0.0
220
0.0
230
1.0
 70
     8
 71
     3
 72
    10
 73
     6
 74
     0
 42
0.000000001
 43
0.00000001
 40
0.0
 40
0.0
 40
0.0
 40
0.0
 40
0.5
 40
0.5
 40
1.0
 40
1.0
 40
1.0
 40
1.0
 10
-92.41151875948867
 20
23.64591509523754
 30
0.0
 10
-92.41151875890554
 20
23.64591509483309
 30
0.0
 10
-92.40097116528553
 20
23.66234742038915
 30
0.0
 10
-92.35878079378153
 20
23.728076721946
 30
0.0
 10
-92.32894769683107
 20
23.77455435648124
 30
0.0
 10
-92.30348355655757
 20
23.81422549826989
 30
0.0
  0
SPLINE
  5
208
330
23
100
AcDbEntity
 67
     1
  8
0
  6
Continuous
 62
     7
370
    25
100
AcDbSpline
210
0.0
220
0.0
230
1.0
 70
     8
 71
     3
 72
    14
 73
    10
 74
     0
 42
0.000000001
 43
0.00000001
 40
0.0
 40
0.0
 40
0.0
 40
0.0
 40
0.25
 40
0.25
 40
0.5
 40
0.5
 40
0.75
 40
0.75
 40
1.0
 40
1.0
 40
1.0
 40
1.0
 10
-94.71063859157792
 20
27.85367534448215
 30
0.0
 10
-94.71063859157992
 20
27.45409919474984
 30
0.0
 10
-94.6620457815442
 20
27.04190762766452
 30
0.0
 10
-94.4580092944718
 20
26.22952282852069
 30
0.0
 10
-94.30246055635386
 20
25.82973427694897
 30
0.0
 10
-93.89428252130271
 20
25.08270261456108
 30
0.0
 10
-93.64186334653503
 20
24.73584406120925
 30
0.0
 10
-93.06841487387452
 20
24.12530593908911
 30
0.0
 10
-92.74778288715356
 20
23.86175655465181
 30
0.0
 10
-92.41151875948866
 20
23.64591509523756
 30
0.0
  0
SPLINE
  5
209
330
23
100
AcDbEntity
 67
     1
  8
0
  6
Continuous
 62
     7
370
    25
100
AcDbSpline
210
0.0
220
0.0
230
1.0
 70
     8
 71
     3
 72
    10
 73
     6
 74
     0
 42
0.000000001
 43
0.00000001
 40
0.0
 40
0.0
 40
0.0
 40
0.0
 40
0.5
 40
0.5
 40
1.0
 40
1.0
 40
1.0
 40
1.0
 10
-94.51063859168605
 20
27.85367533685501
 30
0.0
 10
-94.55777904375081
 20
27.85367534011742
 30
0.0
 10
-94.61300751877116
 20
27.85367534258824
 30
0.0
 10
-94.6911123771426
 20
27.85367534482215
 30
0.0
 10
-94.71063859170097
 20
27.8536753446756
 30
0.0
 10
-94.7106385915779
 20
27.85367534448212
 30
0.0
  0
SPLINE
  5
20A
330
23
100
AcDbEntity
 67
     1
  8
0
  6
Continuous
 62
     7
370
    25
100
AcDbSpline
210
0.0
220
0.0
230
1.0
 70
     8
 71
     3
 72
    10
 73
     6
 74
     0
 42
0.000000001
 43
0.00000001
 40
0.0
 40
0.0
 40
0.0
 40
0.0
 40
0.5
 40
0.5
 40
1.0
 40
1.0
 40
1.0
 40
1.0
 10
-46.41063859157212
 20
27.85367534470663
 30
0.0
 10
-46.41063859144904
 20
27.85367534480978
 30
0.0
 10
-46.43016480600743
 20
27.85367534488792
 30
0.0
 10
-46.50826966437882
 20
27.85367534258823
 30
0.0
 10
-46.56349813939922
 20
27.85367534011742
 30
0.0
 10
-46.61063859146403
 20
27.85367533685502
 30
0.0
  0
SPLINE
  5
20B
330
23
100
AcDbEntity
 67
     1
  8
0
  6
Continuous
 62
     7
370
    25
100
AcDbSpline
210
0.0
220
0.0
230
1.0
 70
     8
 71
     3
 72
    14
 73
    10
 74
     0
 42
0.000000001
 43
0.00000001
 40
0.0
 40
0.0
 40
0.0
 40
0.0
 40
0.25
 40
0.25
 40
0.5
 40
0.5
 40
0.75
 40
0.75
 40
1.0
 40
1.0
 40
1.0
 40
1.0
 10
-48.70975842194412
 20
23.64591509633986
 30
0.0
 10
-48.37349429467348
 20
23.86175655550102
 30
0.0
 10
-48.05286230827119
 20
24.12530593973374
 30
0.0
 10
-47.47941383610063
 20
24.73584406154676
 30
0.0
 10
-47.22699466150427
 20
25.08270261479617
 30
0.0
 10
-46.81881662668178
 20
25.82973427706718
 30
0.0
 10
-46.66326788862163
 20
26.22952282862422
 30
0.0
 10
-46.45923140160615
 20
27.04190762779561
 30
0.0
 10
-46.41063859157009
 20
27.45409919492277
 30
0.0
 10
-46.41063859157209
 20
27.85367534470663
 30
0.0
  0
SPLINE
  5
20C
330
23
100
AcDbEntity
 67
     1
  8
0
  6
Continuous
 62
     7
370
    25
100
AcDbSpline
210
0.0
220
0.0
230
1.0
 70
     8
 71
     3
 72
    10
 73
     6
 74
     0
 42
0.000000001
 43
0.00000001
 40
0.0
 40
0.0
 40
0.0
 40
0.0
 40
0.5
 40
0.5
 40
1.0
 40
1.0
 40
1.0
 40
1.0
 10
-48.70975842194412
 20
23.64591509633986
 30
0.0
 10
-48.70975842321821
 20
23.64591509549187
 30
0.0
 10
-48.72030601736155
 20
23.66234742071202
 30
0.0
 10
-48.76249638936849
 20
23.72807672194597
 30
0.0
 10
-48.79232948631896
 20
23.7745543564812
 30
0.0
 10
-48.81779362659244
 20
23.81422549826983
 30
0.0
  0
SPLINE
  5
20E
330
23
100
AcDbEntity
 67
     1
  8
0
  6
Continuous
 62
     7
370
    25
100
AcDbSpline
210
0.0
220
0.0
230
1.0
 70
     8
 71
     3
 72
    18
 73
    14
 74
     0
 42
0.000000001
 43
0.00000001
 40
0.0
 40
0.0
 40
0.0
 40
0.0
 40
0.2499999999999963
 40
0.2499999999999963
 40
0.3749999999999969
 40
0.3749999999999969
 40
0.4999999999999976
 40
0.4999999999999976
 40
0.6249999999999981
 40
0.6249999999999981
 40
0.7499999999999988
 40
0.7499999999999988
 40
1.0
 40
1.0
 40
1.0
 40
1.0
 10
-46.41063859157209
 20
63.2364727062194
 30
0.0
 10
-46.41063859157033
 20
63.82572835719967
 30
0.0
 10
-46.51803228562526
 20
64.4614615020826
 30
0.0
 10
-46.88352948654559
 20
65.38468862992426
 30
0.0
 10
-47.03878026381419
 20
65.68667428919134
 30
0.0
 10
-47.41254180709552
 20
66.25836865691278
 30
0.0
 10
-47.6310270032797
 20
66.52792892968422
 30
0.0
 10
-48.11918236799461
 20
67.0160842943428
 30
0.0
 10
-48.38874264080093
 20
67.23456949050554
 30
0.0
 10
-48.96043700860633
 20
67.60833103375484
 30
0.0
 10
-49.26242266792251
 20
67.76358181101283
 30
0.0
 10
-50.18564979593145
 20
68.12907901191237
 30
0.0
 10
-50.82138294095274
 20
68.23647270596766
 30
0.0
 10
-51.41063859208777
 20
68.23647270596594
 30
0.0
  0
SPLINE
  5
20F
330
23
100
AcDbEntity
 67
     1
  8
0
  6
Continuous
 62
     7
370
    25
100
AcDbSpline
210
0.0
220
0.0
230
1.0
 70
     8
 71
     3
 72
    10
 73
     6
 74
     0
 42
0.000000001
 43
0.00000001
 40
0.0
 40
0.0
 40
0.0
 40
0.0
 40
0.5
 40
0.5
 40
1.0
 40
1.0
 40
1.0
 40
1.0
 10
-46.61063859146397
 20
63.23647270206769
 30
0.0
 10
-46.56349813939921
 20
63.23647270363507
 30
0.0
 10
-46.50826966437887
 20
63.23647270482215
 30
0.0
 10
-46.43016480600746
 20
63.23647270603814
 30
0.0
 10
-46.41063859144906
 20
63.23647270611628
 30
0.0
 10
-46.41063859157212
 20
63.23647270621943
 30
0.0
  0
SPLINE
  5
210
330
23
100
AcDbEntity
 67
     1
  8
0
  6
Continuous
 62
     7
370
    25
100
AcDbSpline
210
0.0
220
0.0
230
1.0
 70
     8
 71
     3
 72
    10
 73
     6
 74
     0
 42
0.000000001
 43
0.00000001
 40
0.0
 40
0.0
 40
0.0
 40
0.0
 40
0.5
 40
0.5
 40
1.0
 40
1.0
 40
1.0
 40
1.0
 10
-51.41063859208778
 20
68.23647270596591
 30
0.0
 10
-51.41063859188144
 20
68.23647270608897
 30
0.0
 10
-51.41063859172517
 20
68.21694649153059
 30
0.0
 10
-51.41063859032532
 20
68.13884163315915
 30
0.0
 10
-51.41063858902514
 20
68.08361315813877
 30
0.0
 10
-51.41063858730838
 20
68.036472706074
 30
0.0
  0
SPLINE
  5
211
330
23
100
AcDbEntity
 67
     1
  8
0
  6
Continuous
 62
     7
370
    25
100
AcDbSpline
210
0.0
220
0.0
230
1.0
 70
     8
 71
     3
 72
    18
 73
    14
 74
     0
 42
0.000000001
 43
0.00000001
 40
0.0
 40
0.0
 40
0.0
 40
0.0
 40
0.2500000000000054
 40
0.2500000000000054
 40
0.3750000000000056
 40
0.3750000000000056
 40
0.5000000000000059
 40
0.5000000000000059
 40
0.6250000000000061
 40
0.6250000000000061
 40
0.7500000000000063
 40
0.7500000000000063
 40
1.0
 40
1.0
 40
1.0
 40
1.0
 10
-89.71063859179951
 20
68.23647270596594
 30
0.0
 10
-90.29989424278621
 20
68.23647270596767
 30
0.0
 10
-90.93562738767483
 20
68.1290790119127
 30
0.0
 10
-91.85885451552348
 20
67.76358181099324
 30
0.0
 10
-92.16084017479261
 20
67.60833103372511
 30
0.0
 10
-92.7325345425175
 20
67.23456949044511
 30
0.0
 10
-93.00209481529036
 20
67.01608429426184
 30
0.0
 10
-93.49025017995133
 20
66.52792892954928
 30
0.0
 10
-93.70873537611492
 20
66.25836865674441
 30
0.0
 10
-94.08249691936557
 20
65.6866742889425
 30
0.0
 10
-94.23774769662401
 20
65.38468862962834
 30
0.0
 10
-94.60324489752442
 20
64.4614615016263
 30
0.0
 10
-94.7106385915797
 20
63.8257283566108
 30
0.0
 10
-94.71063859157792
 20
63.23647270548219
 30
0.0
  0
SPLINE
  5
212
330
23
100
AcDbEntity
 67
     1
  8
0
  6
Continuous
 62
     7
370
    25
100
AcDbSpline
210
0.0
220
0.0
230
1.0
 70
     8
 71
     3
 72
    10
 73
     6
 74
     0
 42
0.000000001
 43
0.00000001
 40
0.0
 40
0.0
 40
0.0
 40
0.0
 40
0.5
 40
0.5
 40
1.0
 40
1.0
 40
1.0
 40
1.0
 10
-89.71063859584163
 20
68.036472706074
 30
0.0
 10
-89.71063859412489
 20
68.0836131581388
 30
0.0
 10
-89.71063859282472
 20
68.13884163315917
 30
0.0
 10
-89.71063859164079
 20
68.21694649153056
 30
0.0
 10
-89.71063859170918
 20
68.236472706089
 30
0.0
 10
-89.7106385917995
 20
68.23647270596591
 30
0.0
  0
SPLINE
  5
213
330
23
100
AcDbEntity
 67
     1
  8
0
  6
Continuous
 62
     7
370
    25
100
AcDbSpline
210
0.0
220
0.0
230
1.0
 70
     8
 71
     3
 72
    10
 73
     6
 74
     0
 42
0.000000001
 43
0.00000001
 40
0.0
 40
0.0
 40
0.0
 40
0.0
 40
0.5
 40
0.5
 40
1.0
 40
1.0
 40
1.0
 40
1.0
 10
-94.7106385915779
 20
63.23647270548216
 30
0.0
 10
-94.71063859170097
 20
63.23647270567566
 30
0.0
 10
-94.69111237714257
 20
63.23647270582222
 30
0.0
 10
-94.61300751877116
 20
63.23647270482209
 30
0.0
 10
-94.55777904375081
 20
63.23647270363505
 30
0.0
 10
-94.51063859168605
 20
63.23647270206769
 30
0.0
  0
SPLINE
  5
21A
330
23
100
AcDbEntity
 67
     1
  8
0
  6
Continuous
 62
     8
370
    25
100
AcDbSpline
210
0.0
220
0.0
230
1.0
 70
     8
 71
     3
 72
    10
 73
     6
 74
     0
 42
0.000000001
 43
0.00000001
 40
0.0
 40
0.0
 40
0.0
 40
0.0
 40
0.0420042671856605
 40
0.5396591868036972
 40
1.0
 40
1.0
 40
1.0
 40
1.0
 10
-48.86063859157211
 20
60.93647270517247
 30
0.0
 10
-48.85903606418012
 20
60.93647270521604
 30
0.0
 10
-48.83844723625539
 20
60.93647270577607
 30
0.0
 10
-48.81836729397654
 20
60.93647270576222
 30
0.0
 10
-48.81314704921555
 20
60.93647270572465
 30
0.0
 10
-48.81063859157211
 20
60.9364727057066
 30
0.0
  0
SPLINE
  5
21B
330
23
100
AcDbEntity
 67
     1
  8
0
  6
Continuous
 62
     8
370
    25
100
AcDbSpline
210
0.0
220
0.0
230
1.0
 70
    24
 71
     3
 72
     9
 73
     5
 74
     0
 42
0.000000001
 43
0.00000001
 40
0.0
 40
0.0
 40
0.0
 40
0.0
 40
0.6144865983536726
 40
1.0
 40
1.0
 40
1.0
 40
1.0
 10
-92.3106385915779
 20
60.93647270644385
 30
0.0
 10
-92.30815086965718
 20
60.93647270637602
 30
0.0
 10
-92.30410241371462
 20
60.93647270626559
 30
0.0
 10
-92.27273222120326
 20
60.93647270555538
 30
0.0
 10
-92.26063859157792
 20
60.9364727052816
 30
0.0
  0
LINE
  5
21C
330
23
100
AcDbEntity
 67
     1
  8
0
  6
Continuous
 62
     7
370
    25
100
AcDbLine
 10
-49.0606385915
 20
-40.6689948165
 30
0.0
 11
-49.0606385915
 21
60.9364727213
 31
0.0
  0
LINE
  5
21D
330
23
100
AcDbEntity
 67
     1
  8
0
  6
Continuous
 62
     7
370
    25
100
AcDbLine
 10
-92.0606385917
 20
60.9364727213
 30
0.0
 11
-92.0606385917
 21
-40.6689948165
 31
0.0
  0
LINE
  5
21E
330
23
100
AcDbEntity
 67
     1
  8
0
  6
Continuous
 62
     7
370
    25
100
AcDbLine
 10
-53.8606385919
 20
65.7364727061
 30
0.0
 11
-87.2606385912
 21
65.7364727061
 31
0.0
  0
LINE
  5
21F
330
23
100
AcDbEntity
 67
     1
  8
0
  6
Continuous
 62
     7
370
    25
100
AcDbLine
 10
-87.2606385918
 20
65.936472706
 30
0.0
 11
-53.8606385921
 21
65.936472706
 31
0.0
  0
LINE
  5
220
330
23
100
AcDbEntity
 67
     1
  8
0
  6
Continuous
 62
     7
370
    25
100
AcDbLine
 10
-48.8606385916
 20
-40.6689948059
 30
0.0
 11
-48.8606385916
 21
60.9364727062
 31
0.0
  0
LINE
  5
221
330
23
100
AcDbEntity
 67
     1
  8
0
  6
Continuous
 62
     7
370
    25
100
AcDbLine
 10
-92.2606385916
 20
-40.6689948058
 30
0.0
 11
-92.2606385916
 21
60.9364727055
 31
0.0
  0
LINE
  5
222
330
23
100
AcDbEntity
 67
     1
  8
0
  6
Continuous
 62
     7
370
    25
100
AcDbLine
 10
-50.1912678238
 20
-42.5536546626
 30
0.0
 11
-50.2050456057
 21
-42.558545919
 31
0.0
  0
LINE
  5
223
330
23
100
AcDbEntity
 67
     1
  8
0
  6
Continuous
 62
     7
370
    25
100
AcDbLine
 10
-90.9271217812
 20
-42.5546799654
 30
0.0
 11
-90.9300093629
 21
-42.5536546613
 31
0.0
  0
LINE
  5
224
330
23
100
AcDbEntity
 67
     1
  8
0
  6
Continuous
 62
     7
370
    25
100
AcDbLine
 10
-67.5606386346
 20
66.1364727207
 30
0.0
 11
-67.5606385921
 21
65.936472706
 31
0.0
  0
LINE
  5
225
330
23
100
AcDbEntity
 67
     1
  8
0
  6
Continuous
 62
     7
370
    25
100
AcDbLine
 10
-73.5606385911
 20
65.936472706
 30
0.0
 11
-73.5606385486
 21
66.1364727207
 31
0.0
  0
LINE
  5
226
330
23
100
AcDbEntity
 67
     1
  8
0
  6
Continuous
 62
     7
370
    25
100
AcDbLine
 10
-88.5033038556
 20
-98.8635283665
 30
0.0
 11
-52.6179733276
 21
-98.8635283665
 31
0.0
  0
LINE
  5
227
330
23
100
AcDbEntity
 67
     1
  8
0
  6
Continuous
 62
     7
370
    25
100
AcDbLine
 10
-52.5926635071
 20
-99.0635278582
 30
0.0
 11
-88.5286136761
 21
-99.0635278582
 31
0.0
  0
LINE
  5
228
330
23
100
AcDbEntity
 67
     1
  8
0
  6
Continuous
 62
     7
370
    25
100
AcDbLine
 10
-48.8106385916
 20
60.9364727057
 30
0.0
 11
-48.8106385916
 21
-94.1116227368
 31
0.0
  0
LINE
  5
229
330
23
100
AcDbEntity
 67
     1
  8
0
  6
Continuous
 62
     7
370
    25
100
AcDbLine
 10
-92.3106385915
 20
-94.1116227368
 30
0.0
 11
-92.3106385916
 21
60.9364727064
 31
0.0
  0
LINE
  5
22A
330
23
100
AcDbEntity
 67
     1
  8
0
  6
Continuous
 62
     7
370
    25
100
AcDbLine
 10
-87.3106385921
 20
65.936472706
 30
0.0
 11
-87.2606785918
 21
65.936472706
 31
0.0
  0
LINE
  5
22B
330
23
100
AcDbEntity
 67
     1
  8
0
  6
Continuous
 62
     7
370
    25
100
AcDbLine
 10
-53.8605985921
 20
65.936472706
 30
0.0
 11
-53.8106385916
 21
65.936472706
 31
0.0
  0
LINE
  5
22C
330
23
100
AcDbEntity
 67
     1
  8
0
  6
Continuous
 62
     7
370
    25
100
AcDbLine
 10
-94.5106385917
 20
63.2364727021
 30
0.0
 11
-94.5106385917
 21
27.8536753369
 31
0.0
  0
LINE
  5
22D
330
23
100
AcDbEntity
 67
     1
  8
0
  6
Continuous
 62
     7
370
    25
100
AcDbLine
 10
-51.4106385873
 20
68.0364727061
 30
0.0
 11
-89.7106385958
 21
68.0364727061
 31
0.0
  0
LINE
  5
22E
330
23
100
AcDbEntity
 67
     1
  8
0
  6
Continuous
 62
     7
370
    25
100
AcDbLine
 10
-46.6106385915
 20
27.8536753369
 30
0.0
 11
-46.6106385915
 21
63.2364727021
 31
0.0
  0
LINE
  5
22F
330
23
100
AcDbEntity
 67
     1
  8
0
  6
Continuous
 62
     7
370
    25
100
AcDbLine
 10
-48.8106385916
 20
23.5897186018
 30
0.0
 11
-48.7097584219
 21
23.6459150963
 31
0.0
  0
LINE
  5
230
330
23
100
AcDbEntity
 67
     1
  8
0
  6
Continuous
 62
     7
370
    25
100
AcDbLine
 10
-92.4115187595
 20
23.6459150952
 30
0.0
 11
-92.3106385916
 21
23.5884552287
 31
0.0
  0
LINE
  5
231
330
23
100
AcDbEntity
 67
     1
  8
0
  6
Continuous
 62
     7
370
    25
100
AcDbLine
 10
-94.7106385916
 20
27.8536753445
 30
0.0
 11
-94.7106385916
 21
63.2364727055
 31
0.0
  0
LINE
  5
232
330
23
100
AcDbEntity
 67
     1
  8
0
  6
Continuous
 62
     7
370
    25
100
AcDbLine
 10
-46.4106385916
 20
63.2364727062
 30
0.0
 11
-46.4106385916
 21
27.8536753447
 31
0.0
  0
LINE
  5
233
330
23
100
AcDbEntity
 67
     1
  8
0
  6
Continuous
 62
     7
370
    25
100
AcDbLine
 10
-89.7106385918
 20
68.236472706
 30
0.0
 11
-51.4106385921
 21
68.236472706
 31
0.0
  0
LINE
  5
234
330
23
100
AcDbEntity
 67
     1
  8
0
  6
Continuous
 62
     8
370
    25
100
AcDbLine
 10
-49.0106385916
 20
-94.111622799
 30
0.0
 11
-49.0106385915
 21
-41.3806022558
 31
0.0
  0
LINE
  5
235
330
23
100
AcDbEntity
 67
     1
  8
0
  6
Continuous
 62
     8
370
    25
100
AcDbLine
 10
-92.1106385916
 20
-41.3968688296
 30
0.0
 11
-92.1106385916
 21
-94.111622799
 31
0.0
  0
VIEWPORT
  5
238
330
23
100
AcDbEntity
 67
     1
  8
0
100
AcDbViewport
 10
0.0
 20
0.0
 30
0.0
 40
205.6
 41
156.0
 68
     1
 69
     1
 12
-70.5606385916
 22
34.7080208499
 13
0.0
 23
0.0
 14
10.0
 24
10.0
 15
10.0
 25
10.0
 16
0.0
 26
0.0
 36
1.0
 17
0.0
 27
0.0
 37
0.0
 42
50.0
 43
0.0
 44
0.0
 45
151.368
 50
0.0
 51
0.0
 72
   100
 90
   557152
  1

281
     0
 71
     1
 74
     0
110
0.0
120
0.0
130
0.0
111
1.0
121
0.0
131
0.0
112
0.0
122
1.0
132
0.0
 79
     0
146
0.0
  0
ENDSEC
  0
SECTION
  2
OBJECTS
  0
DICTIONARY
  5
C
330
0
100
AcDbDictionary
281
     1
  3
ACAD_GROUP
350
D
  3
ACAD_LAYOUT
350
1A
  3
ACAD_MLINESTYLE
350
17
  3
ACAD_PLOTSETTINGS
350
19
  3
ACAD_PLOTSTYLENAME
350
E
  3
ACAD_SCALELIST
350
47
  0
DICTIONARY
  5
D
102
{ACAD_REACTORS
330
C
102
}
330
C
100
AcDbDictionary
281
     1
  0
DICTIONARY
  5
1A
102
{ACAD_REACTORS
330
C
102
}
330
C
100
AcDbDictionary
281
     1
  3
_Right
350
1E
  3
_Top
350
26
  3
Model
350
22
  0
DICTIONARY
  5
17
102
{ACAD_REACTORS
330
C
102
}
330
C
100
AcDbDictionary
281
     1
  3
Standard
350
18
  0
DICTIONARY
  5
19
102
{ACAD_REACTORS
330
C
102
}
330
C
100
AcDbDictionary
281
     1
  0
ACDBDICTIONARYWDFLT
  5
E
102
{ACAD_REACTORS
330
C
102
}
330
C
100
AcDbDictionary
281
     1
  3
Normal
350
F
100
AcDbDictionaryWithDefault
340
F
  0
DICTIONARY
  5
47
102
{ACAD_REACTORS
330
C
102
}
330
C
100
AcDbDictionary
281
     1
  3
A0
350
48
  3
A1
350
49
  3
A2
350
4A
  3
A3
350
4B
  3
A4
350
4C
  3
A5
350
4D
  3
A6
350
4E
  3
A7
350
4F
  3
A8
350
50
  3
A9
350
51
  3
B0
350
52
  3
B1
350
53
  3
B2
350
54
  3
B3
350
55
  3
B4
350
56
  3
B5
350
57
  3
B6
350
58
  3
B7
350
59
  3
B8
350
5A
  3
B9
350
5B
  3
C0
350
5C
  3
C1
350
5D
  3
C2
350
5E
  3
C3
350
5F
  3
C4
350
60
  3
C5
350
61
  3
C6
350
62
  3
C7
350
63
  3
C8
350
64
  3
C9
350
65
  3
D0
350
66
  3
D1
350
67
  3
D2
350
68
  0
LAYOUT
  5
1E
102
{ACAD_REACTORS
330
1A
102
}
330
1A
100
AcDbPlotSettings
  1

  2
none_device
  4
ISO_A4_(210.00_x_297.00_MM)
  6

 40
7.5
 41
20.0
 42
7.5
 43
20.0
 44
210.0
 45
297.0
 46
0.0
 47
0.0
 48
0.0
 49
0.0
140
0.0
141
0.0
142
1.0
143
0.7610384615
 70
   688
 72
     1
 73
     1
 74
     1
  7

 75
     0
147
1.3139940365
148
99.0635289366
149
39.4944791501
100
AcDbLayout
  1
_Right
 70
     1
 71
     1
 10
-114.2842981674
 20
-45.2022676117
 11
111.7441249096
 21
114.6158093114
 12
0.0
 22
0.0
 32
0.0
 14
1.0000000000E+20
 24
1.0000000000E+20
 34
1.0000000000E+20
 15
-1.0000000000E+20
 25
-1.0000000000E+20
 35
-1.0000000000E+20
146
0.0
 13
0.0
 23
0.0
 33
0.0
 16
1.0
 26
0.0
 36
0.0
 17
0.0
 27
1.0
 37
0.0
 76
     0
330
1B
331
236
  0
LAYOUT
  5
26
102
{ACAD_REACTORS
330
1A
102
}
330
1A
100
AcDbPlotSettings
  1

  2
none_device
  4
ANSI_A_(11.00_x_8.50_Inches)
  6

 40
6.35
 41
19.05
 42
6.35000508
 43
19.05000254
 44
279.4
 45
215.9
 46
234.9787134519
 47
38.9099240368
 48
0.0
 49
0.0
140
0.0
141
0.0
142
0.0567048518
143
1.0
 70
  1696
 72
     0
 73
     0
 74
     1
  7

 75
     0
147
0.0471698106
148
2405.6502202261
149
1003.0962704135
100
AcDbLayout
  1
_Top
 70
     1
 71
     2
 10
0.0
 20
0.0
 11
0.0
 21
0.0
 12
0.0
 22
0.0
 32
0.0
 14
-94.7106385916
 24
-39.4919791501
 34
0.0
 15
-46.4106385916
 25
108.9080208499
 35
0.0
146
0.0
 13
0.0
 23
0.0
 33
0.0
 16
1.0
 26
0.0
 36
0.0
 17
0.0
 27
1.0
 37
0.0
 76
     0
330
23
331
238
  0
LAYOUT
  5
22
102
{ACAD_REACTORS
330
1A
102
}
330
1A
100
AcDbPlotSettings
  1

  2
none_device
  4
Letter_(8.50_x_11.00_Inches)
  6

 40
6.35
 41
6.35
 42
6.35000508
 43
6.35000508
 44
215.9
 45
279.4
 46
0.0
 47
0.0
 48
0.0
 49
0.0
140
0.0
141
0.0
142
1.0
143
1.0
 70
  1712
 72
     1
 73
     0
 74
     0
  7

 75
     0
147
1.0
148
0.0
149
0.0
100
AcDbLayout
  1
Model
 70
     1
 71
     0
 10
0.0
 20
0.0
 11
420.0
 21
297.0
 12
0.0
 22
0.0
 32
0.0
 14
-94.7106385916
 24
-39.4919791501
 34
0.0
 15
-46.4106385916
 25
108.9080208499
 35
0.0
146
0.0
 13
0.0
 23
0.0
 33
0.0
 16
1.0
 26
0.0
 36
0.0
 17
0.0
 27
1.0
 37
0.0
 76
     0
330
1F
331
29
  0
MLINESTYLE
  5
18
102
{ACAD_REACTORS
330
17
102
}
330
17
100
AcDbMlineStyle
  2
Standard
 70
     0
  3

 62
   256
 51
90.0
 52
90.0
 71
     2
 49
0.5
 62
   256
  6
BYLAYER
 49
-0.5
 62
   256
  6
BYLAYER
  0
ACDBPLACEHOLDER
  5
F
102
{ACAD_REACTORS
330
E
102
}
330
E
  0
SCALE
  5
48
102
{ACAD_REACTORS
330
47
102
}
330
47
100
AcDbScale
 70
     0
300
1:1
140
1.0
141
1.0
290
     1
  0
SCALE
  5
49
102
{ACAD_REACTORS
330
47
102
}
330
47
100
AcDbScale
 70
     0
300
1:2
140
1.0
141
2.0
290
     0
  0
SCALE
  5
4A
102
{ACAD_REACTORS
330
47
102
}
330
47
100
AcDbScale
 70
     0
300
1:4
140
1.0
141
4.0
290
     0
  0
SCALE
  5
4B
102
{ACAD_REACTORS
330
47
102
}
330
47
100
AcDbScale
 70
     0
300
1:5
140
1.0
141
5.0
290
     0
  0
SCALE
  5
4C
102
{ACAD_REACTORS
330
47
102
}
330
47
100
AcDbScale
 70
     0
300
1:8
140
1.0
141
8.0
290
     0
  0
SCALE
  5
4D
102
{ACAD_REACTORS
330
47
102
}
330
47
100
AcDbScale
 70
     0
300
1:10
140
1.0
141
10.0
290
     0
  0
SCALE
  5
4E
102
{ACAD_REACTORS
330
47
102
}
330
47
100
AcDbScale
 70
     0
300
1:16
140
1.0
141
16.0
290
     0
  0
SCALE
  5
4F
102
{ACAD_REACTORS
330
47
102
}
330
47
100
AcDbScale
 70
     0
300
1:20
140
1.0
141
20.0
290
     0
  0
SCALE
  5
50
102
{ACAD_REACTORS
330
47
102
}
330
47
100
AcDbScale
 70
     0
300
1:30
140
1.0
141
30.0
290
     0
  0
SCALE
  5
51
102
{ACAD_REACTORS
330
47
102
}
330
47
100
AcDbScale
 70
     0
300
1:40
140
1.0
141
40.0
290
     0
  0
SCALE
  5
52
102
{ACAD_REACTORS
330
47
102
}
330
47
100
AcDbScale
 70
     0
300
1:50
140
1.0
141
50.0
290
     0
  0
SCALE
  5
53
102
{ACAD_REACTORS
330
47
102
}
330
47
100
AcDbScale
 70
     0
300
1:100
140
1.0
141
100.0
290
     0
  0
SCALE
  5
54
102
{ACAD_REACTORS
330
47
102
}
330
47
100
AcDbScale
 70
     0
300
2:1
140
2.0
141
1.0
290
     0
  0
SCALE
  5
55
102
{ACAD_REACTORS
330
47
102
}
330
47
100
AcDbScale
 70
     0
300
4:1
140
4.0
141
1.0
290
     0
  0
SCALE
  5
56
102
{ACAD_REACTORS
330
47
102
}
330
47
100
AcDbScale
 70
     0
300
8:1
140
8.0
141
1.0
290
     0
  0
SCALE
  5
57
102
{ACAD_REACTORS
330
47
102
}
330
47
100
AcDbScale
 70
     0
300
10:1
140
10.0
141
1.0
290
     0
  0
SCALE
  5
58
102
{ACAD_REACTORS
330
47
102
}
330
47
100
AcDbScale
 70
     0
300
100:1
140
100.0
141
1.0
290
     0
  0
SCALE
  5
59
102
{ACAD_REACTORS
330
47
102
}
330
47
100
AcDbScale
 70
     0
300
1/128" = 1'-0"
140
0.0078125
141
12.0
290
     0
  0
SCALE
  5
5A
102
{ACAD_REACTORS
330
47
102
}
330
47
100
AcDbScale
 70
     0
300
1/64" = 1'-0"
140
0.015625
141
12.0
290
     0
  0
SCALE
  5
5B
102
{ACAD_REACTORS
330
47
102
}
330
47
100
AcDbScale
 70
     0
300
1/32" = 1'-0"
140
0.03125
141
12.0
290
     0
  0
SCALE
  5
5C
102
{ACAD_REACTORS
330
47
102
}
330
47
100
AcDbScale
 70
     0
300
1/16" = 1'-0"
140
0.0625
141
12.0
290
     0
  0
SCALE
  5
5D
102
{ACAD_REACTORS
330
47
102
}
330
47
100
AcDbScale
 70
     0
300
3/32" = 1'-0"
140
0.09375
141
12.0
290
     0
  0
SCALE
  5
5E
102
{ACAD_REACTORS
330
47
102
}
330
47
100
AcDbScale
 70
     0
300
1/8" = 1'-0"
140
0.125
141
12.0
290
     0
  0
SCALE
  5
5F
102
{ACAD_REACTORS
330
47
102
}
330
47
100
AcDbScale
 70
     0
300
3/16" = 1'-0"
140
0.1875
141
12.0
290
     0
  0
SCALE
  5
60
102
{ACAD_REACTORS
330
47
102
}
330
47
100
AcDbScale
 70
     0
300
1/4" = 1'-0"
140
0.25
141
12.0
290
     0
  0
SCALE
  5
61
102
{ACAD_REACTORS
330
47
102
}
330
47
100
AcDbScale
 70
     0
300
3/8" = 1'-0"
140
0.375
141
12.0
290
     0
  0
SCALE
  5
62
102
{ACAD_REACTORS
330
47
102
}
330
47
100
AcDbScale
 70
     0
300
1/2" = 1'-0"
140
0.5
141
12.0
290
     0
  0
SCALE
  5
63
102
{ACAD_REACTORS
330
47
102
}
330
47
100
AcDbScale
 70
     0
300
3/4" = 1'-0"
140
0.75
141
12.0
290
     0
  0
SCALE
  5
64
102
{ACAD_REACTORS
330
47
102
}
330
47
100
AcDbScale
 70
     0
300
1" = 1'-0"
140
1.0
141
12.0
290
     0
  0
SCALE
  5
65
102
{ACAD_REACTORS
330
47
102
}
330
47
100
AcDbScale
 70
     0
300
1-1/2" = 1'-0"
140
1.5
141
12.0
290
     0
  0
SCALE
  5
66
102
{ACAD_REACTORS
330
47
102
}
330
47
100
AcDbScale
 70
     0
300
3" = 1'-0"
140
3.0
141
12.0
290
     0
  0
SCALE
  5
67
102
{ACAD_REACTORS
330
47
102
}
330
47
100
AcDbScale
 70
     0
300
6" = 1'-0"
140
6.0
141
12.0
290
     0
  0
SCALE
  5
68
102
{ACAD_REACTORS
330
47
102
}
330
47
100
AcDbScale
 70
     0
300
1'-0" = 1'-0"
140
12.0
141
12.0
290
     0
  0
ENDSEC
  0
EOF
