  0
SECTION
  2
HEADER
  9
$ACADVER
  1
AC1015
  9
$ACADMAINTVER
 70
     6
  9
$DWGCODEPAGE
  3
ANSI_1252
  9
$INSBASE
 10
0.0
 20
0.0
 30
0.0
  9
$EXTMIN
 10
-94.7106385916
 20
-31.2419791501
 30
0.0
  9
$EXTMAX
 10
-46.4106385916
 20
100.6580208499
 30
0.0
  9
$LIMMIN
 10
0.0
 20
0.0
  9
$LIMMAX
 10
420.0
 20
297.0
  9
$ORTHOMODE
 70
     0
  9
$REGENMODE
 70
     1
  9
$FILLMODE
 70
     1
  9
$QTEXTMODE
 70
     0
  9
$MIRRTEXT
 70
     1
  9
$LTSCALE
 40
1.0
  9
$ATTMODE
 70
     1
  9
$TEXTSIZE
 40
3.5
  9
$TRACEWID
 40
1.0
  9
$TEXTSTYLE
  7
Standard
  9
$CLAYER
  8
0
  9
$CELTYPE
  6
ByLayer
  9
$CECOLOR
 62
   256
  9
$CELTSCALE
 40
1.0
  9
$DISPSILH
 70
     0
  9
$DIMSCALE
 40
1.0
  9
$DIMASZ
 40
3.302
  9
$DIMEXO
 40
1.0
  9
$DIMDLI
 40
3.75
  9
$DIMRND
 40
0.0
  9
$DIMDLE
 40
0.0
  9
$DIMEXE
 40
1.0
  9
$DIMTP
 40
0.0
  9
$DIMTM
 40
0.0
  9
$DIMTXT
 40
3.5
  9
$DIMCEN
 40
2.5
  9
$DIMTSZ
 40
0.0
  9
$DIMTOL
 70
     0
  9
$DIMLIM
 70
     0
  9
$DIMTIH
 70
     1
  9
$DIMTOH
 70
     1
  9
$DIMSE1
 70
     0
  9
$DIMSE2
 70
     0
  9
$DIMTAD
 70
     1
  9
$DIMZIN
 70
     1
  9
$DIMBLK
  1

  9
$DIMASO
 70
     1
  9
$DIMSHO
 70
     1
  9
$DIMPOST
  1

  9
$DIMAPOST
  1

  9
$DIMALT
 70
     0
  9
$DIMALTD
 70
     3
  9
$DIMALTF
 40
0.0393700787
  9
$DIMLFAC
 40
1.0
  9
$DIMTOFL
 70
     1
  9
$DIMTVP
 40
0.0
  9
$DIMTIX
 70
     0
  9
$DIMSOXD
 70
     0
  9
$DIMSAH
 70
     0
  9
$DIMBLK1
  1

  9
$DIMBLK2
  1

  9
$DIMSTYLE
  2
ISO-25
  9
$DIMCLRD
 70
     0
  9
$DIMCLRE
 70
     0
  9
$DIMCLRT
 70
     0
  9
$DIMTFAC
 40
1.0
  9
$DIMGAP
 40
1.524
  9
$DIMJUST
 70
     0
  9
$DIMSD1
 70
     0
  9
$DIMSD2
 70
     0
  9
$DIMTOLJ
 70
     0
  9
$DIMTZIN
 70
     1
  9
$DIMALTZ
 70
     0
  9
$DIMALTTZ
 70
     0
  9
$DIMUPT
 70
     0
  9
$DIMDEC
 70
     2
  9
$DIMTDEC
 70
     2
  9
$DIMALTU
 70
     2
  9
$DIMALTTD
 70
     3
  9
$DIMTXSTY
  7
Standard
  9
$DIMAUNIT
 70
     0
  9
$DIMADEC
 70
     2
  9
$DIMALTRND
 40
0.0
  9
$DIMAZIN
 70
     0
  9
$DIMDSEP
 70
    44
  9
$DIMATFIT
 70
     3
  9
$DIMFRAC
 70
     0
  9
$DIMLDRBLK
  1

  9
$DIMLUNIT
 70
     2
  9
$DIMLWD
 70
    -2
  9
$DIMLWE
 70
    -2
  9
$DIMTMOVE
 70
     0
  9
$LUNITS
 70
     2
  9
$LUPREC
 70
     2
  9
$SKETCHINC
 40
1.0
  9
$FILLETRAD
 40
10.0
  9
$AUNITS
 70
     0
  9
$AUPREC
 70
     2
  9
$MENU
  1
.
  9
$ELEVATION
 40
0.0
  9
$PELEVATION
 40
0.0
  9
$THICKNESS
 40
0.0
  9
$LIMCHECK
 70
     0
  9
$CHAMFERA
 40
0.0
  9
$CHAMFERB
 40
0.0
  9
$CHAMFERC
 40
0.0
  9
$CHAMFERD
 40
0.0
  9
$SKPOLY
 70
     0
  9
$TDCREATE
 40
2459233.400578449
  9
$TDUCREATE
 40
2459233.400578449
  9
$TDUPDATE
 40
2459233.400647141
  9
$TDUUPDATE
 40
2459233.400647141
  9
$TDINDWG
 40
0.0000000116
  9
$TDUSRTIMER
 40
0.0000000116
  9
$USRTIMER
 70
     1
  9
$ANGBASE
 50
0.0
  9
$ANGDIR
 70
     0
  9
$PDMODE
 70
     0
  9
$PDSIZE
 40
-1.0
  9
$PLINEWID
 40
0.0
  9
$SPLFRAME
 70
     0
  9
$SPLINETYPE
 70
     6
  9
$SPLINESEGS
 70
     8
  9
$HANDSEED
  5
28E
  9
$SURFTAB1
 70
     6
  9
$SURFTAB2
 70
     6
  9
$SURFTYPE
 70
     6
  9
$SURFU
 70
     6
  9
$SURFV
 70
     6
  9
$UCSBASE
  2

  9
$UCSNAME
  2

  9
$UCSORG
 10
0.0
 20
0.0
 30
0.0
  9
$UCSXDIR
 10
1.0
 20
0.0
 30
0.0
  9
$UCSYDIR
 10
0.0
 20
1.0
 30
0.0
  9
$UCSORTHOREF
  2

  9
$UCSORTHOVIEW
 70
     0
  9
$UCSORGTOP
 10
0.0
 20
0.0
 30
0.0
  9
$UCSORGBOTTOM
 10
0.0
 20
0.0
 30
0.0
  9
$UCSORGLEFT
 10
0.0
 20
0.0
 30
0.0
  9
$UCSORGRIGHT
 10
0.0
 20
0.0
 30
0.0
  9
$UCSORGFRONT
 10
0.0
 20
0.0
 30
0.0
  9
$UCSORGBACK
 10
0.0
 20
0.0
 30
0.0
  9
$PUCSBASE
  2

  9
$PUCSNAME
  2

  9
$PUCSORG
 10
0.0
 20
0.0
 30
0.0
  9
$PUCSXDIR
 10
1.0
 20
0.0
 30
0.0
  9
$PUCSYDIR
 10
0.0
 20
1.0
 30
0.0
  9
$PUCSORTHOREF
  2

  9
$PUCSORTHOVIEW
 70
     0
  9
$PUCSORGTOP
 10
0.0
 20
0.0
 30
0.0
  9
$PUCSORGBOTTOM
 10
0.0
 20
0.0
 30
0.0
  9
$PUCSORGLEFT
 10
0.0
 20
0.0
 30
0.0
  9
$PUCSORGRIGHT
 10
0.0
 20
0.0
 30
0.0
  9
$PUCSORGFRONT
 10
0.0
 20
0.0
 30
0.0
  9
$PUCSORGBACK
 10
0.0
 20
0.0
 30
0.0
  9
$USERI1
 70
     0
  9
$USERI2
 70
     0
  9
$USERI3
 70
     0
  9
$USERI4
 70
     0
  9
$USERI5
 70
     0
  9
$USERR1
 40
0.0
  9
$USERR2
 40
0.0
  9
$USERR3
 40
0.0
  9
$USERR4
 40
0.0
  9
$USERR5
 40
0.0
  9
$WORLDVIEW
 70
     1
  9
$SHADEDGE
 70
     3
  9
$SHADEDIF
 70
    70
  9
$TILEMODE
 70
     0
  9
$MAXACTVP
 70
    64
  9
$PINSBASE
 10
0.0
 20
0.0
 30
0.0
  9
$PLIMCHECK
 70
     0
  9
$PEXTMIN
 10
-94.7106385916
 20
-31.2419791501
 30
0.0
  9
$PEXTMAX
 10
-46.4106385916
 20
100.6580208499
 30
0.0
  9
$PLIMMIN
 10
0.0
 20
0.0
  9
$PLIMMAX
 10
0.0
 20
0.0
  9
$UNITMODE
 70
     0
  9
$VISRETAIN
 70
     1
  9
$PLINEGEN
 70
     0
  9
$PSLTSCALE
 70
     1
  9
$TREEDEPTH
 70
  3020
  9
$CMLSTYLE
  2
Standard
  9
$CMLJUST
 70
     0
  9
$CMLSCALE
 40
20.0
  9
$PROXYGRAPHICS
 70
     1
  9
$MEASUREMENT
 70
     1
  9
$CELWEIGHT
370
    -1
  9
$ENDCAPS
280
     0
  9
$JOINSTYLE
280
     0
  9
$LWDISPLAY
290
     1
  9
$INSUNITS
 70
     4
  9
$HYPERLINKBASE
  1

  9
$STYLESHEET
  1

  9
$XEDIT
290
     1
  9
$CEPSNTYPE
380
     0
  9
$PSTYLEMODE
290
     1
  9
$FINGERPRINTGUID
  2
{a25afe5c-32b8-4135-b478-3aa36dc5d27e}
  9
$VERSIONGUID
  2
{FAEB1C32-E019-11D5-929B-00C0DF256EC4}
  9
$EXTNAMES
290
     1
  9
$PSVPSCALE
 40
0.0
  9
$OLESTARTUP
290
     0
  0
ENDSEC
  0
SECTION
  2
CLASSES
  0
CLASS
  1
ACDBDICTIONARYWDFLT
  2
AcDbDictionaryWithDefault
  3
ObjectDBX Classes
 90
        0
280
     0
281
     0
  0
CLASS
  1
VISUALSTYLE
  2
AcDbVisualStyle
  3
ObjectDBX Classes
 90
     4095
280
     0
281
     0
  0
CLASS
  1
MATERIAL
  2
AcDbMaterial
  3
ObjectDBX Classes
 90
     1153
280
     0
281
     0
  0
CLASS
  1
SCALE
  2
AcDbScale
  3
ObjectDBX Classes
 90
     1153
280
     0
281
     0
  0
CLASS
  1
TABLESTYLE
  2
AcDbTableStyle
  3
ObjectDBX Classes
 90
     4095
280
     0
281
     0
  0
CLASS
  1
MLEADERSTYLE
  2
AcDbMLeaderStyle
  3
ACDB_MLEADERSTYLE_CLASS
 90
     4095
280
     0
281
     0
  0
CLASS
  1
SUN
  2
AcDbSun
  3
SCENEOE
 90
     1153
280
     0
281
     0
  0
CLASS
  1
ACDBPLACEHOLDER
  2
AcDbPlaceHolder
  3
ObjectDBX Classes
 90
        0
280
     0
281
     0
  0
CLASS
  1
LAYOUT
  2
AcDbLayout
  3
ObjectDBX Classes
 90
        0
280
     0
281
     0
  0
ENDSEC
  0
SECTION
  2
TABLES
  0
TABLE
  2
VPORT
  5
8
330
0
100
AcDbSymbolTable
 70
     1
  0
VPORT
  5
29
330
8
100
AcDbSymbolTableRecord
100
AcDbViewportTableRecord
  2
*Active
 70
     0
 10
0.0
 20
0.0
 11
1.0
 21
1.0
 12
-70.5606385916
 22
34.7080208499
 13
0.0
 23
0.0
 14
10.0
 24
10.0
 15
10.0
 25
10.0
 16
0.0
 26
0.0
 36
1.0
 17
0.0
 27
0.0
 37
0.0
 40
134.538
 41
0.3661865049
 42
50.0
 43
0.0
 44
0.0
 50
0.0
 51
0.0
 71
     0
 72
   100
 73
     1
 74
     3
 75
     0
 76
     0
 77
     0
 78
     0
281
     0
 65
     1
110
0.0
120
0.0
130
0.0
111
1.0
121
0.0
131
0.0
112
0.0
122
1.0
132
0.0
 79
     0
146
0.0
  0
ENDTAB
  0
TABLE
  2
LTYPE
  5
5
330
0
100
AcDbSymbolTable
 70
     6
  0
LTYPE
  5
14
330
5
100
AcDbSymbolTableRecord
100
AcDbLinetypeTableRecord
  2
ByBlock
 70
     0
  3

 72
    65
 73
     0
 40
0.0
  0
LTYPE
  5
15
330
5
100
AcDbSymbolTableRecord
100
AcDbLinetypeTableRecord
  2
ByLayer
 70
     0
  3

 72
    65
 73
     0
 40
0.0
  0
LTYPE
  5
16
330
5
100
AcDbSymbolTableRecord
100
AcDbLinetypeTableRecord
  2
Continuous
 70
     0
  3
Solid line
 72
    65
 73
     0
 40
0.0
  0
LTYPE
  5
6E
330
5
100
AcDbSymbolTableRecord
100
AcDbLinetypeTableRecord
  2
HIDDEN
 70
     0
  3
Hidden __ __ __ __ __ __ __ __ __ __ __ __ __ __
 72
    65
 73
     2
 40
1.905
 49
1.27
 74
     0
 49
-0.635
 74
     0
  0
LTYPE
  5
6F
330
5
100
AcDbSymbolTableRecord
100
AcDbLinetypeTableRecord
  2
PHANTOM
 70
     0
  3
Phantom ______  __  __  ______  __  __  ______
 72
    65
 73
     6
 40
12.7
 49
6.35
 74
     0
 49
-1.27
 74
     0
 49
1.27
 74
     0
 49
-1.27
 74
     0
 49
1.27
 74
     0
 49
-1.27
 74
     0
  0
LTYPE
  5
70
330
5
100
AcDbSymbolTableRecord
100
AcDbLinetypeTableRecord
  2
CENTER
 70
     0
  3
Center ____ _ ____ _ ____ _ ____ _ ____ _ ____
 72
    65
 73
     4
 40
10.16
 49
6.35
 74
     0
 49
-1.27
 74
     0
 49
1.27
 74
     0
 49
-1.27
 74
     0
  0
LTYPE
  5
71
330
5
100
AcDbSymbolTableRecord
100
AcDbLinetypeTableRecord
  2
CENTERX2
 70
     0
  3
Center (2x) ________  __  ________  __  _____
 72
    65
 73
     4
 40
20.32
 49
12.7
 74
     0
 49
-2.54
 74
     0
 49
2.54
 74
     0
 49
-2.54
 74
     0
  0
LTYPE
  5
72
330
5
100
AcDbSymbolTableRecord
100
AcDbLinetypeTableRecord
  2
DOT2
 70
     0
  3
Dot (.5x) ........................................
 72
    65
 73
     2
 40
0.635
 49
0.0
 74
     0
 49
-0.635
 74
     0
  0
ENDTAB
  0
TABLE
  2
LAYER
  5
2
330
0
100
AcDbSymbolTable
 70
     1
  0
LAYER
  5
10
330
2
100
AcDbSymbolTableRecord
100
AcDbLayerTableRecord
  2
0
 70
     0
 62
     7
  6
Continuous
370
    -3
390
F
  0
ENDTAB
  0
TABLE
  2
STYLE
  5
3
330
0
100
AcDbSymbolTable
 70
     1
  0
STYLE
  5
11
330
3
100
AcDbSymbolTableRecord
100
AcDbTextStyleTableRecord
  2
Standard
 70
     0
 40
0.0
 41
1.0
 50
0.0
 71
     0
 42
3.5
  3
txt
  4

  0
ENDTAB
  0
TABLE
  2
VIEW
  5
6
330
0
100
AcDbSymbolTable
 70
     0
  0
ENDTAB
  0
TABLE
  2
UCS
  5
7
330
0
100
AcDbSymbolTable
 70
     0
  0
ENDTAB
  0
TABLE
  2
APPID
  5
9
330
0
100
AcDbSymbolTable
 70
     1
  0
APPID
  5
12
330
9
100
AcDbSymbolTableRecord
100
AcDbRegAppTableRecord
  2
ACAD
 70
     0
  0
ENDTAB
  0
TABLE
  2
DIMSTYLE
  5
A
330
0
100
AcDbSymbolTable
 70
     1
100
AcDbDimStyleTable
  0
DIMSTYLE
105
27
330
A
100
AcDbSymbolTableRecord
100
AcDbDimStyleTableRecord
  2
ISO-25
 70
     0
 41
2.5
 42
0.625
 43
3.75
 44
1.25
 73
     0
 74
     0
 77
     1
 78
     8
140
2.5
141
2.5
143
0.0393700787
147
0.625
171
     3
172
     1
178
     0
271
     2
272
     2
274
     3
278
    44
283
     0
284
     8
340
11
  0
ENDTAB
  0
TABLE
  2
BLOCK_RECORD
  5
1
330
0
100
AcDbSymbolTable
 70
     1
  0
BLOCK_RECORD
  5
1F
330
1
100
AcDbSymbolTableRecord
100
AcDbBlockTableRecord
  2
*Model_Space
340
22
  0
BLOCK_RECORD
  5
23
330
1
100
AcDbSymbolTableRecord
100
AcDbBlockTableRecord
  2
*Paper_Space
340
26
  0
BLOCK_RECORD
  5
1B
330
1
100
AcDbSymbolTableRecord
100
AcDbBlockTableRecord
  2
*Paper_Space0
340
1E
  0
ENDTAB
  0
ENDSEC
  0
SECTION
  2
BLOCKS
  0
BLOCK
  5
20
330
1F
100
AcDbEntity
  8
0
100
AcDbBlockBegin
  2
*Model_Space
 70
     0
 10
0.0
 20
0.0
 30
0.0
  3
*Model_Space
  1

  0
ENDBLK
  5
21
330
1F
100
AcDbEntity
  8
0
100
AcDbBlockEnd
  0
BLOCK
  5
24
330
23
100
AcDbEntity
 67
     1
  8
0
100
AcDbBlockBegin
  2
*Paper_Space
 70
     0
 10
0.0
 20
0.0
 30
0.0
  3
*Paper_Space
  1

  0
ENDBLK
  5
25
330
23
100
AcDbEntity
 67
     1
  8
0
100
AcDbBlockEnd
  0
BLOCK
  5
1C
330
1B
100
AcDbEntity
  8
0
100
AcDbBlockBegin
  2
*Paper_Space0
 70
     0
 10
0.0
 20
0.0
 30
0.0
  3
*Paper_Space0
  1

  0
SPLINE
  5
147
330
1B
100
AcDbEntity
  8
0
  6
Continuous
 62
     7
370
    25
100
AcDbSpline
210
0.0
220
0.0
230
1.0
 70
     8
 71
     3
 72
    18
 73
    14
 74
     0
 42
0.000000001
 43
0.00000001
 40
0.0
 40
0.0
 40
0.0
 40
0.0
 40
0.1489097085275731
 40
0.2762789636266246
 40
0.3460868354295725
 40
0.4024296431193227
 40
0.44991937249159
 40
0.5450081181766089
 40
0.6716846598553441
 40
0.7458545718345992
 40
0.8261067343719694
 40
0.9112859480363499
 40
1.0
 40
1.0
 40
1.0
 40
1.0
 10
9.865668679583003
 20
92.5479609719742
 30
0.0
 10
10.4744875810072
 20
92.48670729747231
 30
0.0
 10
11.60405701462564
 20
92.3730605656572
 30
0.0
 10
12.93648851780486
 20
91.85014758983655
 30
0.0
 10
13.84168577894459
 20
91.34242540741978
 30
0.0
 10
14.42473032442095
 20
90.93455146102272
 30
0.0
 10
15.05305090423155
 20
90.41644800140789
 30
0.0
 10
15.82414199398881
 20
89.62421076876278
 30
0.0
 10
16.51367555824609
 20
88.61882715908973
 30
0.0
 10
17.01227320337966
 20
87.57990036502255
 30
0.0
 10
17.32754691830641
 20
86.64966110979148
 30
0.0
 10
17.54425887287406
 20
85.62806549434579
 30
0.0
 10
17.57221202116343
 20
84.91606919466088
 30
0.0
 10
17.586472705963
 20
84.5528344454597
 30
0.0
  0
SPLINE
  5
149
330
1B
100
AcDbEntity
  8
0
  6
Continuous
 62
     7
370
    25
100
AcDbSpline
210
0.0
220
0.0
230
1.0
 70
     8
 71
     3
 72
     9
 73
     5
 74
     0
 42
0.000000001
 43
0.00000001
 40
0.0
 40
0.0
 40
0.0
 40
0.0
 40
0.5000011632832694
 40
1.0
 40
1.0
 40
1.0
 40
1.0
 10
-48.01352723070335
 20
100.4921625799722
 30
0.0
 10
-47.98810747003591
 20
100.2051895706238
 30
0.0
 10
-47.9372680669823
 20
99.63124488724769
 30
0.0
 10
-47.61465463781202
 20
99.15382143408647
 30
0.0
 10
-47.45334829851767
 20
98.91511026288457
 30
0.0
  0
SPLINE
  5
14A
330
1B
100
AcDbEntity
  8
0
  6
Continuous
 62
     7
370
    25
100
AcDbSpline
210
0.0
220
0.0
230
1.0
 70
     8
 71
     3
 72
    13
 73
     9
 74
     0
 42
0.000000001
 43
0.00000001
 40
0.0
 40
0.0
 40
0.0
 40
0.0
 40
0.239400618221131
 40
0.3684080781164017
 40
0.50017424309679
 40
0.6319112234503137
 40
0.7608383859107573
 40
0.9999999999999999
 40
0.9999999999999999
 40
0.9999999999999999
 40
0.9999999999999999
 10
-47.81353272794658
 20
100.658020849861
 30
0.0
 10
-47.83892974391387
 20
100.655303450931
 30
0.0
 10
-47.87801262478499
 20
100.651121708525
 30
0.0
 10
-47.92494604930499
 20
100.6257384426079
 30
0.0
 10
-47.95716518575175
 20
100.5994561866802
 30
0.0
 10
-47.98296814875983
 20
100.566863115346
 30
0.0
 10
-48.00763956971166
 20
100.5195908986589
 30
0.0
 10
-48.01121371204398
 20
100.4804802199297
 30
0.0
 10
-48.01353597151953
 20
100.4550684887145
 30
0.0
  0
SPLINE
  5
150
330
1B
100
AcDbEntity
  8
0
  6
Continuous
 62
     7
370
    25
100
AcDbSpline
210
0.0
220
0.0
230
1.0
 70
     8
 71
     3
 72
    33
 73
    29
 74
     0
 42
0.000000001
 43
0.00000001
 40
0.0
 40
0.0
 40
0.0
 40
0.0
 40
0.0151907243297751
 40
0.0305216133238485
 40
0.0460041427769301
 40
0.0616492311196779
 40
0.0774672894340506
 40
0.0934682755318164
 40
0.1096617509960686
 40
0.1260569401388767
 40
0.1858626041846427
 40
0.2513147702559908
 40
0.3099891973793086
 40
0.3761284269964805
 40
0.433019500053741
 40
0.5014431104187672
 40
0.5636527828184746
 40
0.6259058175980073
 40
0.7510749624412828
 40
0.8752060216502834
 40
0.9373625980464088
 40
0.9685999371126889
 40
0.9842776068429259
 40
0.9921337302856528
 40
0.9960664384697148
 40
0.998033995105586
 40
0.9990180791981239
 40
1.0
 40
1.0
 40
1.0
 40
1.0
 10
25.20928842633512
 20
84.22056440415493
 30
0.0
 10
25.20791725066837
 20
84.29426335281079
 30
0.0
 10
25.20516224751044
 20
84.44234126959842
 30
0.0
 10
25.18892192765176
 20
84.6650199345765
 30
0.0
 10
25.16371514260083
 20
84.8889916273534
 30
0.0
 10
25.12857081043884
 20
85.11398450616018
 30
0.0
 10
25.08365161501346
 20
85.33972751668718
 30
0.0
 10
25.028824353937
 20
85.56593697378513
 30
0.0
 10
24.96404737175816
 20
85.79233308802925
 30
0.0
 10
24.82361407638693
 20
86.21728111997214
 30
0.0
 10
24.54862185904209
 20
86.84760331648553
 30
0.0
 10
24.08869615375166
 20
87.61064689941253
 30
0.0
 10
23.52793953292596
 20
88.3389211222079
 30
0.0
 10
22.92665347988732
 20
88.97738308972849
 30
0.0
 10
22.23749327745251
 20
89.59036483990805
 30
0.0
 10
21.51611302668331
 20
90.13405196785733
 30
0.0
 10
20.73274126701363
 20
90.63212901673492
 30
0.0
 10
19.67571756573616
 20
91.20216388080074
 30
0.0
 10
18.28571842895425
 20
91.77333571321647
 30
0.0
 10
16.83034822160699
 20
92.14865323411276
 30
0.0
 10
15.7938816657571
 20
92.30126027927187
 30
0.0
 10
15.27087483959551
 20
92.349175782555
 30
0.0
 10
15.00766706809194
 20
92.36587537177577
 30
0.0
 10
14.87556166975874
 20
92.37237879570817
 30
0.0
 10
14.80937285313635
 20
92.3751650238297
 30
0.0
 10
14.77624430927033
 20
92.37643993447462
 30
0.0
 10
14.75731229424711
 20
92.37713612248605
 30
0.0
 10
14.7478525619273
 20
92.3774697250706
 30
0.0
 10
14.74312790026883
 20
92.37763634282328
 30
0.0
  0
SPLINE
  5
152
330
1B
100
AcDbEntity
  8
0
  6
Continuous
 62
     7
370
    25
100
AcDbSpline
210
0.0
220
0.0
230
1.0
 70
     8
 71
     3
 72
    28
 73
    24
 74
     0
 42
0.000000001
 43
0.00000001
 40
0.0
 40
0.0
 40
0.0
 40
0.0
 40
0.1249999999999998
 40
0.1249999999999998
 40
0.2499999999999995
 40
0.2499999999999995
 40
0.3124999999999994
 40
0.3124999999999994
 40
0.3749999999999992
 40
0.3749999999999992
 40
0.4999999999999994
 40
0.4999999999999994
 40
0.5625000000000003
 40
0.5625000000000003
 40
0.6250000000000012
 40
0.6250000000000012
 40
0.7500000000000016
 40
0.7500000000000016
 40
0.8125000000000018
 40
0.8125000000000018
 40
0.875000000000002
 40
0.875000000000002
 40
1.0
 40
1.0
 40
1.0
 40
1.0
 10
14.83033942533835
 20
94.8761147100064
 30
0.0
 10
15.58010851533825
 20
94.84993219644242
 30
0.0
 10
16.31572720415814
 20
94.76268432533814
 30
0.0
 10
17.76108466232634
 20
94.4765050686098
 30
0.0
 10
18.47081276499094
 20
94.27752765143889
 30
0.0
 10
19.5158025914574
 20
93.89446864919479
 30
0.0
 10
19.86202850477765
 20
93.7520467911337
 30
0.0
 10
20.54215173167705
 20
93.44010849723017
 30
0.0
 10
20.87389504742185
 20
93.27170303270464
 30
0.0
 10
21.8445111272207
 20
92.72968753875799
 30
0.0
 10
22.45904599523303
 20
92.31969100154511
 30
0.0
 10
23.3288296410249
 20
91.62692541238162
 30
0.0
 10
23.61002509194623
 20
91.38294807943707
 30
0.0
 10
24.15342804521135
 20
90.86660537467696
 30
0.0
 10
24.41303070532695
 20
90.59656311845676
 30
0.0
 10
25.1471783645997
 20
89.75661690686069
 30
0.0
 10
25.58076791585579
 20
89.15462701481569
 30
0.0
 10
26.13180561018237
 20
88.17687586692749
 30
0.0
 10
26.29842775245179
 20
87.83816302960179
 30
0.0
 10
26.58656278527197
 20
87.15088099687851
 30
0.0
 10
26.70931955619012
 20
86.80029297783693
 30
0.0
 10
27.00947848409163
 20
85.7263255692015
 30
0.0
 10
27.11798859783704
 20
84.97429113552455
 30
0.0
 10
27.11798859783704
 20
84.22056440415619
 30
0.0
  0
SPLINE
  5
15D
330
1B
100
AcDbEntity
  8
0
  6
Continuous
 62
     7
370
    25
100
AcDbSpline
210
0.0
220
0.0
230
1.0
 70
     8
 71
     3
 72
    22
 73
    18
 74
     0
 42
0.000000001
 43
0.00000001
 40
0.0
 40
0.0
 40
0.0
 40
0.0
 40
0.0330397239184046
 40
0.0669591319745193
 40
0.1017621659301288
 40
0.1374524738481266
 40
0.1740334374127289
 40
0.211508196266243
 40
0.2498796697278462
 40
0.3606880234143714
 40
0.4997785938555332
 40
0.66984386130476
 40
0.7491077983532336
 40
0.8164026614148021
 40
0.8806468504297986
 40
0.9418443946013102
 40
1.0
 40
1.0
 40
1.0
 40
1.0
 10
-45.23017252313016
 20
98.17593509331644
 30
0.0
 10
-45.20830444351652
 20
98.16936560757924
 30
0.0
 10
-45.16398604568442
 20
98.15605172325112
 30
0.0
 10
-45.08567011046808
 20
98.1327329272102
 30
0.0
 10
-44.99705184956376
 20
98.10666556351427
 30
0.0
 10
-44.89683759211835
 20
98.0776092720575
 30
0.0
 10
-44.78480376461575
 20
98.04563243087912
 30
0.0
 10
-44.66046399049387
 20
98.01070991002186
 30
0.0
 10
-44.43837491864328
 20
97.9493581739037
 30
0.0
 10
-44.04898085521878
 20
97.84460602179026
 30
0.0
 10
-43.38209977504833
 20
97.6791475884517
 30
0.0
 10
-42.66961719366093
 20
97.52301004911168
 30
0.0
 10
-42.04764719050534
 20
97.39673242875536
 30
0.0
 10
-41.6197409309081
 20
97.31757713554315
 30
0.0
 10
-41.22025276908941
 20
97.2480722461564
 30
0.0
 10
-40.8345468493488
 20
97.1849399123405
 30
0.0
 10
-40.58192710289383
 20
97.14697567972105
 30
0.0
 10
-40.45883647358362
 20
97.128477358232
 30
0.0
  0
SPLINE
  5
160
330
1B
100
AcDbEntity
  8
0
  6
Continuous
 62
     7
370
    25
100
AcDbSpline
210
0.0
220
0.0
230
1.0
 70
     8
 71
     3
 72
    20
 73
    16
 74
     0
 42
0.000000001
 43
0.00000001
 40
0.0
 40
0.0
 40
0.0
 40
0.0
 40
0.0501045538791887
 40
0.1001245907983527
 40
0.1501643821348482
 40
0.2003280760808722
 40
0.2507190525884509
 40
0.3765821254212328
 40
0.5003321353871977
 40
0.6281206851597
 40
0.7502668877689549
 40
0.8161114487198108
 40
0.8792751078652271
 40
0.9403523278719853
 40
0.9999999999999999
 40
0.9999999999999999
 40
0.9999999999999999
 40
0.9999999999999999
 10
-41.16446140061618
 20
94.73012511922495
 30
0.0
 10
-41.22657312256251
 20
94.74869715199405
 30
0.0
 10
-41.35069179566064
 20
94.78580989000557
 30
0.0
 10
-41.53535477616988
 20
94.8449406758743
 30
0.0
 10
-41.71846388802761
 20
94.9064318562062
 30
0.0
 10
-41.89991861922105
 20
94.97050049165718
 30
0.0
 10
-42.16896040163814
 20
95.07005182154734
 30
0.0
 10
-42.51590387994172
 20
95.20898726618222
 30
0.0
 10
-42.92781406574752
 20
95.39140757384926
 30
0.0
 10
-43.3055942041216
 20
95.574600655297
 30
0.0
 10
-43.59084532526247
 20
95.72431207521336
 30
0.0
 10
-43.79208890390265
 20
95.83527606998078
 30
0.0
 10
-43.928145076663
 20
95.91266727095793
 30
0.0
 10
-44.04380614100213
 20
95.98017854406956
 30
0.0
 10
-44.10326300828773
 20
96.0157607869494
 30
0.0
 10
-44.13263941660664
 20
96.03334123717258
 30
0.0
  0
SPLINE
  5
16F
330
1B
100
AcDbEntity
  8
0
  6
Continuous
 62
     7
370
    25
100
AcDbSpline
210
0.0
220
0.0
230
1.0
 70
    24
 71
     3
 72
    18
 73
    14
 74
     0
 42
0.000000001
 43
0.00000001
 40
0.0
 40
0.0
 40
0.0
 40
0.0
 40
0.2500000000000018
 40
0.2500000000000018
 40
0.3750000000000015
 40
0.3750000000000015
 40
0.5000000000000012
 40
0.5000000000000012
 40
0.6250000000000009
 40
0.6250000000000009
 40
0.7500000000000006
 40
0.7500000000000006
 40
1.0
 40
1.0
 40
1.0
 40
1.0
 10
63.986472705963
 20
83.65802084986099
 30
0.0
 10
63.986472705963
 20
83.65802084986096
 30
0.0
 10
63.87907901189555
 20
83.62098854156187
 30
0.0
 10
63.51358181096496
 20
83.49495502399961
 30
0.0
 10
63.35833103369456
 20
83.44142027321672
 30
0.0
 10
62.98456949041792
 20
83.31253698243164
 30
0.0
 10
62.7660842942403
 20
83.23719725961179
 30
0.0
 10
62.27792892955121
 20
83.06886782351206
 30
0.0
 10
62.0083686567642
 20
82.9759160053097
 30
0.0
 10
61.4366742890132
 20
82.77878001643006
 30
0.0
 10
61.13468862973207
 20
82.67464703047104
 30
0.0
 10
60.21146150185297
 20
82.35629284844374
 30
0.0
 10
59.57572835695181
 20
82.13707452261578
 30
0.0
 10
58.986472705963
 20
81.93388291882651
 30
0.0
  0
SPLINE
  5
172
330
1B
100
AcDbEntity
  8
0
  6
Continuous
 62
     7
370
    25
100
AcDbSpline
210
0.0
220
0.0
230
1.0
 70
     8
 71
     3
 72
    22
 73
    18
 74
     0
 42
0.000000001
 43
0.00000001
 40
0.0
 40
0.0
 40
0.0
 40
0.0
 40
0.0344929601526787
 40
0.0694357292043879
 40
0.1048322868162414
 40
0.140686461537886
 40
0.1770019371807836
 40
0.2137822589429601
 40
0.2510308392891119
 40
0.369736633341557
 40
0.5003108630453519
 40
0.6126048736107059
 40
0.7495894932265592
 40
0.784378703726557
 40
0.874593873022951
 40
0.9436824699147822
 40
1.0
 40
1.0
 40
1.0
 40
1.0
 10
-47.98445421054977
 20
100.4580208498598
 30
0.0
 10
-47.97797255988983
 20
100.4504379527523
 30
0.0
 10
-47.96492473395583
 20
100.4351732730087
 30
0.0
 10
-47.93816348663444
 20
100.404049747874
 30
0.0
 10
-47.90575499703617
 20
100.3667599582593
 30
0.0
 10
-47.86697933796103
 20
100.3227006985145
 30
0.0
 10
-47.8217667830334
 20
100.2720372846048
 30
0.0
 10
-47.76986763499213
 20
100.2147226892394
 30
0.0
 10
-47.66847592775629
 20
100.1044349423597
 30
0.0
 10
-47.48422206507077
 20
99.90963830091155
 30
0.0
 10
-47.18494210898947
 20
99.61801890791655
 30
0.0
 10
-46.80315430270824
 20
99.27536687147557
 30
0.0
 10
-46.46607283706837
 20
99.00499254077644
 30
0.0
 10
-46.12290642146021
 20
98.74908300285358
 30
0.0
 10
-45.8507168263069
 20
98.55965507831647
 30
0.0
 10
-45.52504645956334
 20
98.34954303415938
 30
0.0
 10
-45.32155617705214
 20
98.22973750181686
 30
0.0
 10
-45.23017252313011
 20
98.17593509331644
 30
0.0
  0
SPLINE
  5
174
330
1B
100
AcDbEntity
  8
0
  6
Continuous
 62
     7
370
    25
100
AcDbSpline
210
0.0
220
0.0
230
1.0
 70
     8
 71
     3
 72
    23
 73
    19
 74
     0
 42
0.000000001
 43
0.00000001
 40
0.0
 40
0.0
 40
0.0
 40
0.0
 40
0.0367267364630066
 40
0.073124635174063
 40
0.1091970706187696
 40
0.1449475095189293
 40
0.1803795131832918
 40
0.2154967398713873
 40
0.2503029471649115
 40
0.3774911756776451
 40
0.4988304435603932
 40
0.6261000671331395
 40
0.7476469638173205
 40
0.7989951862402264
 40
0.8498611994522095
 40
0.9002878482589189
 40
0.9503191069009959
 40
1.0
 40
1.0
 40
1.0
 40
1.0
 10
-44.13263941660664
 20
96.03334123717258
 30
0.0
 10
-44.21026142267701
 20
96.0806709331183
 30
0.0
 10
-44.36481043579427
 20
96.17490655224053
 30
0.0
 10
-44.58567905265718
 20
96.31787512845894
 30
0.0
 10
-44.79738454731601
 20
96.46060075040292
 30
0.0
 10
-44.99941260579786
 20
96.60281285967275
 30
0.0
 10
-45.19214690163868
 20
96.744018580314
 30
0.0
 10
-45.37574009476025
 20
96.8838108828309
 30
0.0
 10
-45.70547184715615
 20
97.14426357076188
 30
0.0
 10
-46.13345095363517
 20
97.51237673018727
 30
0.0
 10
-46.60523746742354
 20
97.965375657783
 30
0.0
 10
-46.97303645759916
 20
98.35364879110377
 30
0.0
 10
-47.19068361651801
 20
98.60133023848194
 30
0.0
 10
-47.30931619657623
 20
98.74086312439745
 30
0.0
 10
-47.37266240797251
 20
98.81672503054538
 30
0.0
 10
-47.41774470678055
 20
98.87144484634376
 30
0.0
 10
-47.44651142152497
 20
98.90669436260256
 30
0.0
 10
-47.45102428828689
 20
98.91224955329994
 30
0.0
 10
-47.45327279308047
 20
98.91501738881809
 30
0.0
  0
SPLINE
  5
17B
330
1B
100
AcDbEntity
  8
0
  6
Continuous
 62
     7
370
    25
100
AcDbSpline
210
0.0
220
0.0
230
1.0
 70
     8
 71
     3
 72
    37
 73
    33
 74
     0
 42
0.000000001
 43
0.00000001
 40
0.0
 40
0.0
 40
0.0
 40
0.0
 40
0.0109188625876255
 40
0.021920566210119
 40
0.0330056615623421
 40
0.0441746242612225
 40
0.0554278591434781
 40
0.0667657046986244
 40
0.0781884376366552
 40
0.0896962775901017
 40
0.1012893919503154
 40
0.1129679008377849
 40
0.1247318822060865
 40
0.1845176309658438
 40
0.2498771595492481
 40
0.2800693112643318
 40
0.3122040391215519
 40
0.3745734472972473
 40
0.4373567462957351
 40
0.4685318730176236
 40
0.4997853063411478
 40
0.5663770662934128
 40
0.6246420312090837
 40
0.6891578556890697
 40
0.7494997158805535
 40
0.8129583763158084
 40
0.8744180837828216
 40
0.9001959970671242
 40
0.9256577687524925
 40
0.950788224213679
 40
0.9755732811823453
 40
1.0
 40
1.0
 40
1.0
 40
1.0
 10
25.97325255137942
 20
33.0069470391895
 30
0.0
 10
25.97172482691253
 20
33.15100612988937
 30
0.0
 10
25.96865778718574
 20
33.44021728265493
 30
0.0
 10
25.95257046135458
 20
33.87542140124971
 30
0.0
 10
25.92790653815605
 20
34.31348802079714
 30
0.0
 10
25.89369538996433
 20
34.75423015772152
 30
0.0
 10
25.85002671764473
 20
35.19745957371231
 30
0.0
 10
25.79670725049193
 20
35.6429789145386
 30
0.0
 10
25.73362529127469
 20
36.09058378604765
 30
0.0
 10
25.66065218153334
 20
36.54006319091848
 30
0.0
 10
25.5776703382085
 20
36.99119658336892
 30
0.0
 10
25.48456297320981
 20
37.44376643183007
 30
0.0
 10
25.2408739601908
 20
38.51382291712029
 30
0.0
 10
24.72787859093163
 20
40.24778995272885
 30
0.0
 10
23.94306571797414
 20
42.14249501618917
 30
0.0
 10
23.18269386158937
 20
43.6430825964696
 30
0.0
 10
22.37032185827389
 20
45.07081175341713
 30
0.0
 10
21.21823541911717
 20
46.7952030788103
 30
0.0
 10
19.92256254822562
 20
48.39738758344378
 30
0.0
 10
18.80362947967977
 20
49.60802245008559
 30
0.0
 10
17.59719235513011
 20
50.80355781990058
 30
0.0
 10
16.0411091277155
 20
52.15020681869014
 30
0.0
 10
14.02204194063379
 20
53.61624817610714
 30
0.0
 10
11.95671850263418
 20
54.86619045999802
 30
0.0
 10
9.73094506383419
 20
55.96539557565142
 30
0.0
 10
7.456236410653835
 20
56.85662832085622
 30
0.0
 10
5.549355482064422
 20
57.41809493783697
 30
0.0
 10
4.101673951493845
 20
57.74914112782239
 30
0.0
 10
3.113042618300145
 20
57.93791804793362
 30
0.0
 10
2.131083596973242
 20
58.08828825288136
 30
0.0
 10
1.157987317968396
 20
58.20440432788288
 30
0.0
 10
0.5110872105339864
 20
58.2522687358521
 30
0.0
 10
0.1899923755086849
 20
58.27602667622624
 30
0.0
  0
SPLINE
  5
17C
330
1B
100
AcDbEntity
  8
0
  6
Continuous
 62
     7
370
    25
100
AcDbSpline
210
0.0
220
0.0
230
1.0
 70
     8
 71
     3
 72
    38
 73
    34
 74
     0
 42
0.000000001
 43
0.00000001
 40
0.0
 40
0.0
 40
0.0
 40
0.0
 40
0.0328517772815296
 40
0.0656633249789488
 40
0.0984347084876197
 40
0.1311659934436517
 40
0.1638572457246922
 40
0.1965085314507115
 40
0.2291199169847899
 40
0.2616914689339035
 40
0.294223254149713
 40
0.3267153397293471
 40
0.3591677930161896
 40
0.3915806816006657
 40
0.4239540733210269
 40
0.4562880362641349
 40
0.4885826387662477
 40
0.520837949413803
 40
0.553054037044201
 40
0.5852309707465893
 40
0.6173688198626422
 40
0.649467653987346
 40
0.6815275429697754
 40
0.7135485569138793
 40
0.7455307661792544
 40
0.7774742413819273
 40
0.8093790533951317
 40
0.8412452733500826
 40
0.8730729726367539
 40
0.9048622229046523
 40
0.9366130960635913
 40
0.9683256642844607
 40
1.0
 40
1.0
 40
1.0
 40
1.0
 10
25.9732519095994
 20
33.0069470391898
 30
0.0
 10
25.87766661984429
 20
33.01662481107876
 30
0.0
 10
25.68661309203634
 20
33.03596850366409
 30
0.0
 10
25.41139920079037
 20
33.06381285844501
 30
0.0
 10
25.14477678359116
 20
33.09077670970129
 30
0.0
 10
24.88757417006612
 20
33.11677755315003
 30
0.0
 10
24.63960585341835
 20
33.14183745515023
 30
0.0
 10
24.40095439007667
 20
33.16595051386835
 30
0.0
 10
24.17162756144189
 20
33.18911830777648
 30
0.0
 10
23.9516500846857
 20
33.21134041468043
 30
0.0
 10
23.74103910077503
 20
33.23261694748
 30
0.0
 10
23.5398107478992
 20
33.25294787595962
 30
0.0
 10
23.34797842154234
 20
33.27233320818087
 30
0.0
 10
23.16555325870758
 20
33.2907729419677
 30
0.0
 10
22.9925440279358
 20
33.30826707788192
 30
0.0
 10
22.82895717889784
 20
33.32481561575307
 30
0.0
 10
22.67479684994757
 20
33.34041855560606
 30
0.0
 10
22.53006488752541
 20
33.35507589741435
 30
0.0
 10
22.39476086306078
 20
33.36878764116122
 30
0.0
 10
22.26888209091743
 20
33.3815537868414
 30
0.0
 10
22.15242364746888
 20
33.39337433439329
 30
0.0
 10
22.04537838735964
 20
33.40424928396783
 30
0.0
 10
21.94773697255058
 20
33.41417863492273
 30
0.0
 10
21.85948785573537
 20
33.4231623895702
 30
0.0
 10
21.78061743574841
 20
33.43120053921557
 30
0.0
 10
21.7111095742026
 20
33.43829311616675
 30
0.0
 10
21.65094749361961
 20
33.44443999998583
 30
0.0
 10
21.60010680568411
 20
33.44964163925427
 30
0.0
 10
21.55858158408858
 20
33.45389636279465
 30
0.0
 10
21.52628733854896
 20
33.45721039614212
 30
0.0
 10
21.50342256949672
 20
33.45956054726296
 30
0.0
 10
21.48912197581917
 20
33.46103321331995
 30
0.0
 10
21.48735544074673
 20
33.46121554001103
 30
0.0
 10
21.48647270596299
 20
33.4613066483704
 30
0.0
  0
SPLINE
  5
17E
330
1B
100
AcDbEntity
  8
0
  6
Continuous
 62
     7
370
    25
100
AcDbSpline
210
0.0
220
0.0
230
1.0
 70
     8
 71
     3
 72
    31
 73
    27
 74
     0
 42
0.000000001
 43
0.00000001
 40
0.0
 40
0.0
 40
0.0
 40
0.0
 40
0.0346852082511002
 40
0.0699842140815639
 40
0.1058953505868879
 40
0.1424169221242157
 40
0.1795472446111473
 40
0.2172846882448145
 40
0.2556277222814153
 40
0.2945749613935774
 40
0.3341252129958771
 40
0.3742775248007228
 40
0.4150312317414078
 40
0.4563860012811883
 40
0.4983418760218635
 40
0.5408993124384753
 40
0.5840592145043699
 40
0.6278229609397317
 40
0.6721924248225584
 40
0.7171699843502085
 40
0.7627585236366017
 40
0.8089614225789846
 40
0.8557825350303612
 40
0.9032261547695781
 40
0.9512969690675341
 40
1.0
 40
1.0
 40
1.0
 40
1.0
 10
-74.0547631945661
 20
73.458020849861
 30
0.0
 10
-74.13217218387273
 20
73.45719669389024
 30
0.0
 10
-74.28836001011415
 20
73.45553379749136
 30
0.0
 10
-74.52424811936797
 20
73.45310421210333
 30
0.0
 10
-74.76328739441824
 20
73.45073528693288
 30
0.0
 10
-75.00490871260868
 20
73.4484566759966
 30
0.0
 10
-75.24848529872969
 20
73.44628748983715
 30
0.0
 10
-75.4933323438624
 20
73.4442424131559
 30
0.0
 10
-75.73870660164032
 20
73.44233013339948
 30
0.0
 10
-75.98380648483898
 20
73.44055404023
 30
0.0
 10
-76.22777257031146
 20
73.43891246904933
 30
0.0
 10
-76.46968858995615
 20
73.43739924566087
 30
0.0
 10
-76.70858293980007
 20
73.43600433032087
 30
0.0
 10
-76.94343074940846
 20
73.43471462017611
 30
0.0
 10
-77.17315655878753
 20
73.43351489457835
 30
0.0
 10
-77.39663761451106
 20
73.43238890532693
 30
0.0
 10
-77.61270792828282
 20
73.43132060392573
 30
0.0
 10
-77.82016272870635
 20
73.43029550229468
 30
0.0
 10
-78.01776487638442
 20
73.42930213612864
 30
0.0
 10
-78.20424740516785
 20
73.42833368519382
 30
0.0
 10
-78.37833454814103
 20
73.42738946254558
 30
0.0
 10
-78.53869618986242
 20
73.42647726870591
 30
0.0
 10
-78.68415971034818
 20
73.42561269657921
 30
0.0
 10
-78.81294577699433
 20
73.42483014782538
 30
0.0
 10
-78.92562369978043
 20
73.42414920406627
 30
0.0
 10
-78.98409875815499
 20
73.4238587684716
 30
0.0
 10
-79.01352729403688
 20
73.42371260197675
 30
0.0
  0
SPLINE
  5
17F
330
1B
100
AcDbEntity
  8
0
  6
Continuous
 62
     7
370
    25
100
AcDbSpline
210
0.0
220
0.0
230
1.0
 70
    24
 71
     3
 72
     8
 73
     4
 74
     0
 42
0.000000001
 43
0.00000001
 40
0.0
 40
0.0
 40
0.0
 40
0.0
 40
1.0
 40
1.0
 40
1.0
 40
1.0
 10
-79.01352729403699
 20
73.4237126019767
 30
0.0
 10
-79.01352729403699
 20
73.43376916840715
 30
0.0
 10
-79.01352729403699
 20
73.44578544336755
 30
0.0
 10
-79.01352729403699
 20
73.458020849861
 30
0.0
  0
SPLINE
  5
180
330
1B
100
AcDbEntity
  8
0
  6
Continuous
 62
     7
370
    25
100
AcDbSpline
210
0.0
220
0.0
230
1.0
 70
     8
 71
     3
 72
    13
 73
     9
 74
     0
 42
0.000000001
 43
0.00000001
 40
0.0
 40
0.0
 40
0.0
 40
0.0
 40
0.1202338315053918
 40
0.2437801831476534
 40
0.3707072414570923
 40
0.5010778074384068
 40
0.7133291742794414
 40
1.0
 40
1.0
 40
1.0
 40
1.0
 10
-79.01352729403702
 20
73.458020849861
 30
0.0
 10
-79.01283500292625
 20
73.47063212647647
 30
0.0
 10
-79.01143134763502
 20
73.49620212856786
 30
0.0
 10
-78.99998258760999
 20
73.53364437936352
 30
0.0
 10
-78.98147336591244
 20
73.56918607492304
 30
0.0
 10
-78.95022649843098
 20
73.60716928413875
 30
0.0
 10
-78.89584318270042
 20
73.6473572226421
 30
0.0
 10
-78.8435651930813
 20
73.65412958460166
 30
0.0
 10
-78.81352729403702
 20
73.658020849861
 30
0.0
  0
SPLINE
  5
181
330
1B
100
AcDbEntity
  8
0
  6
Continuous
 62
     7
370
    25
100
AcDbSpline
210
0.0
220
0.0
230
1.0
 70
    24
 71
     3
 72
    20
 73
    16
 74
     0
 42
0.000000001
 43
0.00000001
 40
0.0
 40
0.0
 40
0.0
 40
0.0
 40
0.1249999999999992
 40
0.1249999999999992
 40
0.2499999999999984
 40
0.2499999999999984
 40
0.3749999999999977
 40
0.3749999999999977
 40
0.4999999999999969
 40
0.4999999999999969
 40
0.6249999999999961
 40
0.6249999999999961
 40
0.7499999999999953
 40
0.7499999999999953
 40
1.0
 40
1.0
 40
1.0
 40
1.0
 10
-78.81352729403702
 20
73.658020849861
 30
0.0
 10
-78.74357335306703
 20
73.658020849861
 30
0.0
 10
-78.65245216343718
 20
73.658020849861
 30
0.0
 10
-78.4291860487608
 20
73.65802084986102
 30
0.0
 10
-78.29557127652659
 20
73.65802084986102
 30
0.0
 10
-77.99399342591424
 20
73.65802084986102
 30
0.0
 10
-77.8263235319479
 20
73.65802084986099
 30
0.0
 10
-77.45798384774963
 20
73.65802084986099
 30
0.0
 10
-77.25521321146991
 20
73.65802084986097
 30
0.0
 10
-76.82603433576699
 20
73.65802084986099
 30
0.0
 10
-76.60068580152505
 20
73.65802084986102
 30
0.0
 10
-76.12922306417735
 20
73.65802084986102
 30
0.0
 10
-75.8815482649175
 20
73.65802084986099
 30
0.0
 10
-75.11663522644659
 20
73.65802084986099
 30
0.0
 10
-74.59255543233601
 20
73.65802084986103
 30
0.0
 10
-74.05476319456619
 20
73.658020849861
 30
0.0
  0
SPLINE
  5
188
330
1B
100
AcDbEntity
  8
0
  6
Continuous
 62
     7
370
    25
100
AcDbSpline
210
0.0
220
0.0
230
1.0
 70
    24
 71
     3
 72
    16
 73
    12
 74
     0
 42
0.000000001
 43
0.00000001
 40
0.0
 40
0.0
 40
0.0
 40
0.0
 40
0.0616256410627758
 40
0.1236314589721687
 40
0.1864201483926323
 40
0.2503796186060055
 40
0.3736530522712709
 40
0.5005201312092619
 40
0.65812178306643
 40
0.8237230998343004
 40
1.0
 40
1.0
 40
1.0
 40
1.0
 10
-79.013527294037
 20
72.658020849861
 30
0.0
 10
-79.013527294037
 20
72.65876009037284
 30
0.0
 10
-79.01352729403702
 20
72.66024313187039
 30
0.0
 10
-79.01352729403696
 20
72.67222424239688
 30
0.0
 10
-79.01352729403703
 20
72.6913446917189
 30
0.0
 10
-79.01352729403696
 20
72.72636532089273
 30
0.0
 10
-79.01352729403702
 20
72.78673830138138
 30
0.0
 10
-79.01352729403696
 20
72.89062235011164
 30
0.0
 10
-79.013527294037
 20
73.0314341437615
 30
0.0
 10
-79.01352729403698
 20
73.21192830049583
 30
0.0
 10
-79.013527294037
 20
73.35166336626175
 30
0.0
 10
-79.013527294037
 20
73.42371260197675
 30
0.0
  0
SPLINE
  5
18C
330
1B
100
AcDbEntity
  8
0
  6
Continuous
 62
     7
370
    25
100
AcDbSpline
210
0.0
220
0.0
230
1.0
 70
     8
 71
     3
 72
    31
 73
    27
 74
     0
 42
0.000000001
 43
0.00000001
 40
0.0
 40
0.0
 40
0.0
 40
0.0
 40
0.1250000000000001
 40
0.1250000000000001
 40
0.1875000000000002
 40
0.1875000000000002
 40
0.2500000000000003
 40
0.3125000000000004
 40
0.3125000000000004
 40
0.3750000000000006
 40
0.3750000000000006
 40
0.5000000000000008
 40
0.5000000000000008
 40
0.5625000000000008
 40
0.5625000000000008
 40
0.6250000000000007
 40
0.6250000000000007
 40
0.7500000000000004
 40
0.7500000000000004
 40
0.7812500000000002
 40
0.7812500000000002
 40
0.8124999999999999
 40
0.8124999999999999
 40
0.8749999999999998
 40
0.8749999999999998
 40
1.0
 40
1.0
 40
1.0
 40
1.0
 10
0.5078928767866044
 20
63.26591036954029
 30
0.0
 10
2.466649669340241
 20
63.14110462700591
 30
0.0
 10
4.396412109712096
 20
62.83863325910681
 30
0.0
 10
7.248415404158399
 20
62.12364334556486
 30
0.0
 10
8.186535597353151
 20
61.84256551770575
 30
0.0
 10
10.0214585213459
 20
61.20274639766318
 30
0.0
 10
11.82046679947165
 20
60.48393942476004
 30
0.0
 10
13.54888778607515
 20
59.6098883039061
 30
0.0
 10
15.24171902354234
 20
58.65756388255721
 30
0.0
 10
16.0721477602455
 20
58.14102553337093
 30
0.0
 10
18.49649094402309
 20
56.47787350152618
 30
0.0
 10
19.9933168607938
 20
55.24089157686677
 30
0.0
 10
22.06270028389371
 20
53.1965864323986
 30
0.0
 10
22.72298052906365
 20
52.48345922763433
 30
0.0
 10
23.98240181992956
 20
50.99155400704398
 30
0.0
 10
24.58245076975135
 20
50.21071079960929
 30
0.0
 10
26.253952439359
 20
47.81157046730306
 30
0.0
 10
27.21029334162006
 20
46.12429818363081
 30
0.0
 10
28.19743997528745
 20
43.89940313188379
 30
0.0
 10
28.38435254098885
 20
43.44857673683958
 30
0.0
 10
28.73643520444029
 20
42.53483499902874
 30
0.0
 10
28.90169950728255
 20
42.07138959887266
 30
0.0
 10
29.35874948983025
 20
40.67811509048654
 30
0.0
 10
29.6139117376451
 20
39.74045767263891
 30
0.0
 10
30.23051079229912
 20
36.90101338242632
 30
0.0
 10
30.44442342150969
 20
34.97299690389594
 30
0.0
 10
30.44442342150968
 20
33.00694703918975
 30
0.0
  0
LWPOLYLINE
  5
1A1
330
1B
100
AcDbEntity
  8
0
  6
Continuous
 62
     7
370
    25
100
AcDbPolyline
 90
        3
 70
   128
 43
0.0
 10
23.7251012898
 20
75.6580208499
 10
23.715796954
 20
75.1890228065
 10
23.736472706
 20
73.6580208499
  0
SPLINE
  5
1B7
330
1B
100
AcDbEntity
  8
0
  6
Continuous
 62
     8
370
    25
100
AcDbSpline
210
0.0
220
0.0
230
1.0
 70
     8
 71
     3
 72
    38
 73
    34
 74
     0
 42
0.000000001
 43
0.00000001
 40
0.0
 40
0.0
 40
0.0
 40
0.0
 40
0.0249804690036637
 40
0.0498796221016547
 40
0.074697468224632
 40
0.099434016391581
 40
0.124089275710965
 40
0.1486632553819025
 40
0.1731559646953528
 40
0.1975674130353366
 40
0.2218976098801576
 40
0.2461465648036594
 40
0.2703142874765013
 40
0.2944007876674445
 40
0.3184060752446729
 40
0.3423301601771274
 40
0.3661730525358646
 40
0.3899347624954423
 40
0.4136153003353232
 40
0.4372146764412976
 40
0.4607329013069514
 40
0.4841699855351287
 40
0.5315387713019244
 40
0.5788122536415627
 40
0.6259905227180307
 40
0.6730736692427309
 40
0.7200617844783911
 40
0.7669549602429955
 40
0.813753288913761
 40
0.8604568634311244
 40
0.9070657773027736
 40
0.953580124607697
 40
1.0
 40
1.0
 40
1.0
 40
1.0
 10
25.20928636029311
 20
84.2205644041562
 30
0.0
 10
25.08835727624607
 20
84.22583504220496
 30
0.0
 10
24.84689275400348
 20
84.2363591614306
 30
0.0
 10
24.49493880974479
 20
84.25169352737824
 30
0.0
 10
24.15128711845334
 20
84.2666639534632
 30
0.0
 10
23.81664990176588
 20
84.28124014668255
 30
0.0
 10
23.49086936305932
 20
84.2954301842846
 30
0.0
 10
23.17401454032304
 20
84.30923191265931
 30
0.0
 10
22.86608892780701
 20
84.32264590606185
 30
0.0
 10
22.56710851431673
 20
84.33567201142513
 30
0.0
 10
22.27708105870078
 20
84.3483102696038
 30
0.0
 10
21.99601169900907
 20
84.3605606697491
 30
0.0
 10
21.72390154146082
 20
84.37242321480021
 30
0.0
 10
21.46074812210349
 20
84.38389790401129
 30
0.0
 10
21.20654536953614
 20
84.39498473765501
 30
0.0
 10
20.96128370304332
 20
84.40568371560096
 30
0.0
 10
20.72495008908549
 20
84.4159948383178
 30
0.0
 10
20.49752813246628
 20
84.42591810429118
 30
0.0
 10
20.27899807338542
 20
84.43545351930827
 30
0.0
 10
20.06933712703583
 20
84.4446010620654
 30
0.0
 10
19.86851855523281
 20
84.45336081184072
 30
0.0
 10
19.61094219306716
 20
84.46459158003378
 30
0.0
 10
19.30917668752278
 20
84.47773784011706
 30
0.0
 10
18.98038246181183
 20
84.49205243682022
 30
0.0
 10
18.68611269924299
 20
84.50486040864547
 30
0.0
 10
18.4264879860008
 20
84.51616178414082
 30
0.0
 10
18.20159019463244
 20
84.52595637602606
 30
0.0
 10
18.01144135244837
 20
84.53424490268905
 30
0.0
 10
17.85610072297176
 20
84.54102468534249
 30
0.0
 10
17.73530164001475
 20
84.54630569249362
 30
0.0
 10
17.64980649266615
 20
84.5500508336651
 30
0.0
 10
17.59636768029857
 20
84.55239811159278
 30
0.0
 10
17.58976879471793
 20
84.55268903965919
 30
0.0
 10
17.58647270596298
 20
84.5528343558215
 30
0.0
  0
LINE
  5
1B8
330
1B
100
AcDbEntity
  8
0
  6
Continuous
 62
     7
370
    25
100
AcDbLine
 10
17.586472706
 20
84.5553345421
 30
0.0
 11
17.586472706
 21
75.6580208499
 31
0.0
  0
LINE
  5
1B9
330
1B
100
AcDbEntity
  8
0
  6
Continuous
 62
     7
370
    25
100
AcDbLine
 10
63.986472706
 20
85.1580208499
 30
0.0
 11
64.186472706
 21
85.1580208499
 31
0.0
  0
LINE
  5
1BA
330
1B
100
AcDbEntity
  8
0
  6
Continuous
 62
     7
370
    25
100
AcDbLine
 10
64.186472706
 20
91.1580208499
 30
0.0
 11
63.986472706
 21
91.1580208499
 31
0.0
  0
LINE
  5
1BB
330
1B
100
AcDbEntity
  8
0
  6
Continuous
 62
     7
370
    25
100
AcDbLine
 10
17.236472706
 20
-26.5419791501
 30
0.0
 11
17.236472706
 21
-31.2419791501
 31
0.0
  0
LINE
  5
1BC
330
1B
100
AcDbEntity
  8
0
  6
Continuous
 62
     7
370
    25
100
AcDbLine
 10
27.1179885978
 20
84.2205644042
 30
0.0
 11
27.1179885978
 21
75.6580208499
 31
0.0
  0
LINE
  5
1BD
330
1B
100
AcDbEntity
  8
0
  6
Continuous
 62
     7
370
    25
100
AcDbLine
 10
-37.9262785523
 20
96.7184164056
 30
0.0
 11
14.8303394253
 21
94.87611471
 31
0.0
  0
LINE
  5
1BE
330
1B
100
AcDbEntity
  8
0
  6
Continuous
 62
     7
370
    25
100
AcDbLine
 10
-40.4588364736
 20
100.6580208499
 30
0.0
 11
-40.4588364736
 21
97.1284773582
 31
0.0
  0
LINE
  5
1BF
330
1B
100
AcDbEntity
  8
0
  6
Continuous
 62
     7
370
    25
100
AcDbLine
 10
63.986472706
 20
100.4580208499
 30
0.0
 11
-47.9844542105
 21
100.4580208499
 31
0.0
  0
LINE
  5
1C0
330
1B
100
AcDbEntity
  8
0
  6
Continuous
 62
     7
370
    25
100
AcDbLine
 10
58.986472706
 20
81.9338829188
 30
0.0
 11
58.986472706
 21
100.6580208499
 31
0.0
  0
LINE
  5
1C1
330
1B
100
AcDbEntity
  8
0
  6
Continuous
 62
     7
370
    25
100
AcDbLine
 10
58.986472706
 20
81.9338829188
 30
0.0
 11
40.786472706
 21
75.6580208499
 31
0.0
  0
LINE
  5
1C2
330
1B
100
AcDbEntity
  8
0
  6
Continuous
 62
     7
370
    25
100
AcDbLine
 10
17.586472706
 20
75.6580208499
 30
0.0
 11
40.786472706
 21
75.6580208499
 31
0.0
  0
LINE
  5
1C3
330
1B
100
AcDbEntity
  8
0
  6
Continuous
 62
     7
370
    25
100
AcDbLine
 10
-41.1644614006
 20
94.7301251192
 30
0.0
 11
-40.4588364736
 21
97.1284773582
 31
0.0
  0
LINE
  5
1C4
330
1B
100
AcDbEntity
  8
0
  6
Continuous
 62
     7
370
    25
100
AcDbLine
 10
-38.013527294
 20
94.219939338
 30
0.0
 11
-37.9262785523
 21
96.7184164056
 31
0.0
  0
LINE
  5
1C5
330
1B
100
AcDbEntity
  8
0
  6
Continuous
 62
     7
370
    25
100
AcDbLine
 10
-45.2301725231
 20
98.1759350933
 30
0.0
 11
-45.2301725231
 21
100.4580208499
 31
0.0
  0
LINE
  5
1C6
330
1B
100
AcDbEntity
  8
0
  6
Continuous
 62
     7
370
    25
100
AcDbLine
 10
14.7430906836
 20
92.3776376425
 30
0.0
 11
14.8303394253
 21
94.87611471
 31
0.0
  0
LINE
  5
1C7
330
1B
100
AcDbEntity
  8
0
  6
Continuous
 62
     7
370
    25
100
AcDbLine
 10
25.2092863603
 20
84.2205644042
 30
0.0
 11
27.1179885978
 21
84.2205644042
 31
0.0
  0
LINE
  5
1C8
330
1B
100
AcDbEntity
  8
0
  6
Continuous
 62
     7
370
    25
100
AcDbLine
 10
14.7430906836
 20
92.3776376425
 30
0.0
 11
-38.013527294
 21
94.219939338
 31
0.0
  0
LINE
  5
1C9
330
1B
100
AcDbEntity
  8
0
  6
Continuous
 62
     7
370
    25
100
AcDbLine
 10
25.2092863603
 20
75.6580208499
 30
0.0
 11
25.2092863603
 21
84.2205644042
 31
0.0
  0
LINE
  5
1CA
330
1B
100
AcDbEntity
  8
0
  6
Continuous
 62
     7
370
    25
100
AcDbLine
 10
-47.7845497494
 20
100.6580208499
 30
0.0
 11
63.786472706
 21
100.6580208499
 31
0.0
  0
LINE
  5
1CB
330
1B
100
AcDbEntity
  8
0
  6
Continuous
 62
     7
370
    25
100
AcDbLine
 10
63.986472706
 20
100.4580208499
 30
0.0
 11
63.986472706
 21
83.6580208499
 31
0.0
  0
LINE
  5
1CC
330
1B
100
AcDbEntity
  8
0
  6
Continuous
 62
     7
370
    25
100
AcDbLine
 10
64.186472706
 20
91.1580208499
 30
0.0
 11
64.186472706
 21
85.1580208499
 31
0.0
  0
LINE
  5
1CD
330
1B
100
AcDbEntity
  8
0
  6
Continuous
 62
     7
370
    25
100
AcDbLine
 10
64.686472706
 20
88.1580208499
 30
0.0
 11
63.986472706
 21
88.1580208499
 31
0.0
  0
LINE
  5
1CE
330
1B
100
AcDbEntity
  8
0
  6
Continuous
 62
     7
370
    25
100
AcDbLine
 10
-74.0547631946
 20
73.4580208499
 30
0.0
 11
-74.0547631946
 21
73.6580208499
 31
0.0
  0
LINE
  5
1CF
330
1B
100
AcDbEntity
  8
0
  6
Continuous
 62
     7
370
    25
100
AcDbLine
 10
63.986472706
 20
73.4580208499
 30
0.0
 11
-74.0547631946
 21
73.4580208499
 31
0.0
  0
LINE
  5
1D0
330
1B
100
AcDbEntity
  8
0
  6
Continuous
 62
     7
370
    25
100
AcDbLine
 10
-74.0547631946
 20
73.6580208499
 30
0.0
 11
63.786472706
 21
73.6580208499
 31
0.0
  0
LINE
  5
1D1
330
1B
100
AcDbEntity
  8
0
  6
Continuous
 62
     7
370
    25
100
AcDbLine
 10
58.986472706
 20
-26.3419791501
 30
0.0
 11
58.986472706
 21
73.6580208499
 31
0.0
  0
LINE
  5
1D2
330
1B
100
AcDbEntity
  8
0
  6
Continuous
 62
     7
370
    25
100
AcDbLine
 10
-67.013527294
 20
62.5580208499
 30
0.0
 11
-66.6955879597
 21
67.5479020689
 31
0.0
  0
LINE
  5
1D3
330
1B
100
AcDbEntity
  8
0
  6
Continuous
 62
     7
370
    25
100
AcDbLine
 10
21.486472706
 20
-26.1419791501
 30
0.0
 11
63.986472706
 21
-26.1419791501
 31
0.0
  0
LINE
  5
1D4
330
1B
100
AcDbEntity
  8
0
  6
Continuous
 62
     7
370
    25
100
AcDbLine
 10
30.4444234215
 20
33.0069470392
 30
0.0
 11
30.4444234215
 21
-26.3419791501
 31
0.0
  0
LINE
  5
1D5
330
1B
100
AcDbEntity
  8
0
  6
Continuous
 62
     7
370
    25
100
AcDbLine
 10
-66.6955879597
 20
67.5479020689
 30
0.0
 11
0.5078928768
 21
63.2659103695
 31
0.0
  0
LINE
  5
1D6
330
1B
100
AcDbEntity
  8
0
  6
Continuous
 62
     7
370
    25
100
AcDbLine
 10
0.1899535425
 20
58.2760291505
 30
0.0
 11
0.5078928768
 21
63.2659103695
 31
0.0
  0
LINE
  5
1D7
330
1B
100
AcDbEntity
  8
0
  6
Continuous
 62
     7
370
    25
100
AcDbLine
 10
25.9732519096
 20
33.0069470392
 30
0.0
 11
30.4444234215
 21
33.0069470392
 31
0.0
  0
LINE
  5
1D8
330
1B
100
AcDbEntity
  8
0
  6
Continuous
 62
     7
370
    25
100
AcDbLine
 10
0.1899535425
 20
58.2760291505
 30
0.0
 11
-67.013527294
 21
62.5580208499
 31
0.0
  0
LINE
  5
1D9
330
1B
100
AcDbEntity
  8
0
  6
Continuous
 62
     7
370
    25
100
AcDbLine
 10
25.9732519096
 20
-26.1419791501
 30
0.0
 11
25.9732519096
 21
33.0069470392
 31
0.0
  0
LINE
  5
1DA
330
1B
100
AcDbEntity
  8
0
  6
Continuous
 62
     7
370
    25
100
AcDbLine
 10
63.986472706
 20
73.4580208499
 30
0.0
 11
63.986472706
 21
-26.1419791501
 31
0.0
  0
LINE
  5
1DB
330
1B
100
AcDbEntity
  8
0
  6
Continuous
 62
     7
370
    25
100
AcDbLine
 10
21.486472706
 20
-26.1419791501
 30
0.0
 11
21.486472706
 21
33.4613066484
 31
0.0
  0
LINE
  5
1DC
330
1B
100
AcDbEntity
  8
0
  6
Continuous
 62
     7
370
    25
100
AcDbLine
 10
27.853675345
 20
-26.3419791501
 30
0.0
 11
27.853675345
 21
-31.2419791501
 31
0.0
  0
LINE
  5
1DD
330
1B
100
AcDbEntity
  8
0
  6
Continuous
 62
     7
370
    25
100
AcDbLine
 10
17.436472706
 20
-26.3419791501
 30
0.0
 11
68.036472706
 21
-26.3419791501
 31
0.0
  0
LINE
  5
1DE
330
1B
100
AcDbEntity
  8
0
  6
Continuous
 62
     7
370
    25
100
AcDbLine
 10
68.236472706
 20
-26.5419791501
 30
0.0
 11
17.236472706
 21
-26.5419791501
 31
0.0
  0
LINE
  5
1DF
330
1B
100
AcDbEntity
  8
0
  6
Continuous
 62
     7
370
    25
100
AcDbLine
 10
63.236472706
 20
-31.2419791501
 30
0.0
 11
63.236472706
 21
-26.3419791501
 31
0.0
  0
LINE
  5
1E0
330
1B
100
AcDbEntity
  8
0
  6
Continuous
 62
     7
370
    25
100
AcDbLine
 10
17.236472706
 20
-31.2419791501
 30
0.0
 11
68.236472706
 21
-31.2419791501
 31
0.0
  0
LINE
  5
1E1
330
1B
100
AcDbEntity
  8
0
  6
Continuous
 62
     7
370
    25
100
AcDbLine
 10
23.6459150941
 20
-31.2419791501
 30
0.0
 11
23.6459150941
 21
-26.5419791501
 31
0.0
  0
LINE
  5
1E2
330
1B
100
AcDbEntity
  8
0
  6
Continuous
 62
     7
370
    25
100
AcDbLine
 10
68.236472706
 20
-26.5419791501
 30
0.0
 11
68.236472706
 21
-31.2419791501
 31
0.0
  0
ARC
  5
1E3
330
1B
100
AcDbEntity
  8
0
  6
Continuous
 62
     7
370
    25
100
AcDbCircle
 10
55.436472706
 20
88.1580208499
 30
0.0
 40
9.249999999999702
100
AcDbArc
 50
341.0753555839
 51
18.9246444161
  0
ARC
  5
1E4
330
1B
100
AcDbEntity
  8
0
  6
Continuous
 62
     7
370
    25
100
AcDbCircle
 10
-37.5689515767
 20
106.9509221832
 30
0.0
 40
10.23874294322383
100
AcDbArc
 50
253.6054639982
 51
268.0
  0
ARC
  5
1E5
330
1B
100
AcDbEntity
  8
0
  6
Continuous
 62
     7
370
    25
100
AcDbCircle
 10
-37.5689515767
 20
106.9509221832
 30
0.0
 40
12.73874294322701
100
AcDbArc
 50
253.6054639982
 51
268.0
  0
ARC
  5
1E6
330
1B
100
AcDbEntity
  8
0
  6
Continuous
 62
     7
370
    25
100
AcDbCircle
 10
-42.9066372281
 20
98.013754676
 30
0.0
 40
2.329188432686
100
AcDbArc
 50
176.0072880743
 51
238.2398513564
  0
ARC
  5
1E7
330
1B
100
AcDbEntity
  8
0
  6
Continuous
 62
     7
370
    25
100
AcDbCircle
 10
-45.0346362161
 20
100.4624895545
 30
0.0
 40
0.1955873633556575
100
AcDbArc
 50
91.3719395887
 51
181.30918578
  0
ARC
  5
1E8
330
1B
100
AcDbEntity
  8
0
  6
Continuous
 62
     7
370
    25
100
AcDbCircle
 10
63.786472706
 20
100.4580208499
 30
0.0
 40
0.2000000000000028
100
AcDbArc
 50
0.0
 51
90.0
  0
ARC
  5
1E9
330
1B
100
AcDbEntity
  8
0
  6
Continuous
 62
     7
370
    25
100
AcDbCircle
 10
-47.7845019686
 20
100.4580686079
 30
0.0
 40
0.1999522476700613
100
AcDbArc
 50
90.0136914783
 51
180.0136849382
  0
ARC
  5
1EA
330
1B
100
AcDbEntity
  8
0
  6
Continuous
 62
     7
370
    25
100
AcDbCircle
 10
-3.513527294
 20
33.4613066484
 30
0.0
 40
24.99999999999995
100
AcDbArc
 50
0.0
 51
86.3542238813
  0
ARC
  5
1EB
330
1B
100
AcDbEntity
  8
0
  6
Continuous
 62
     7
370
    25
100
AcDbCircle
 10
-66.1739823135
 20
75.734212906
 30
0.0
 40
13.20291153019427
100
AcDbArc
 50
193.4733736435
 51
266.3542238813
  0
ARC
  5
1EC
330
1B
100
AcDbEntity
  8
0
  6
Continuous
 62
     7
370
    25
100
AcDbCircle
 10
-66.1739823135
 20
75.734212906
 30
0.0
 40
8.20291153019398
100
AcDbArc
 50
196.1102108187
 51
266.3542238813
  0
ARC
  5
1ED
330
1B
100
AcDbEntity
  8
0
  6
Continuous
 62
     7
370
    25
100
AcDbCircle
 10
63.786472706
 20
73.4580208499
 30
0.0
 40
0.2000000000000028
100
AcDbArc
 50
0.0
 51
90.0
  0
ARC
  5
1EE
330
1B
100
AcDbEntity
  8
0
  6
Continuous
 62
     7
370
    25
100
AcDbCircle
 10
26.1633008125
 20
-26.1519964008
 30
0.0
 40
0.1903127184829452
100
AcDbArc
 50
176.9827999927
 51
266.625548951
  0
ARC
  5
1EF
330
1B
100
AcDbEntity
  8
0
  6
Continuous
 62
     7
370
    25
100
AcDbCircle
 10
63.786472706
 20
-26.1419791501
 30
0.0
 40
0.1999999999999922
100
AcDbArc
 50
270.0
 51
0.0
  0
ARC
  5
1F0
330
1B
100
AcDbEntity
  8
0
  6
Continuous
 62
     7
370
    25
100
AcDbCircle
 10
21.686472706
 20
-26.1419791501
 30
0.0
 40
0.1999999999999957
100
AcDbArc
 50
180.0
 51
270.0
  0
ARC
  5
1F1
330
1B
100
AcDbEntity
  8
0
  6
Continuous
 62
     7
370
    25
100
AcDbCircle
 10
31.7593148799
 20
74.8284945455
 30
0.0
 40
29.99999999999878
100
AcDbArc
 50
357.7639923751
 51
14.8994992753
  0
ARC
  5
1F2
330
1B
100
AcDbEntity
  8
0
  6
Continuous
 62
     7
370
    25
100
AcDbCircle
 10
23.8315619331
 20
-26.5273896428
 30
0.0
 40
0.1862192325104623
100
AcDbArc
 50
95.3417934132
 51
184.4934924771
  0
ARC
  5
1F3
330
1B
100
AcDbEntity
  8
0
  6
Continuous
 62
     7
370
    25
100
AcDbCircle
 10
68.036472706
 20
-26.5419791501
 30
0.0
 40
0.2000000000000028
100
AcDbArc
 50
360.0
 51
90.0
  0
ARC
  5
1F4
330
1B
100
AcDbEntity
  8
0
  6
Continuous
 62
     7
370
    25
100
AcDbCircle
 10
17.436472706
 20
-26.5419791501
 30
0.0
 40
0.2000000000000099
100
AcDbArc
 50
90.0
 51
180.0
  0
VIEWPORT
  5
28A
330
1B
100
AcDbEntity
  8
0
100
AcDbViewport
 10
0.0
 20
0.0
 30
0.0
 40
205.6
 41
156.0
 68
     1
 69
     1
 12
-70.5606385916
 22
34.7080208499
 13
0.0
 23
0.0
 14
10.0
 24
10.0
 15
10.0
 25
10.0
 16
0.0
 26
0.0
 36
1.0
 17
0.0
 27
0.0
 37
0.0
 42
50.0
 43
0.0
 44
0.0
 45
134.538
 50
0.0
 51
0.0
 72
   100
 90
   557152
  1

281
     0
 71
     1
 74
     0
110
0.0
120
0.0
130
0.0
111
1.0
121
0.0
131
0.0
112
0.0
122
1.0
132
0.0
 79
     0
146
0.0
  0
ENDBLK
  5
1D
330
1B
100
AcDbEntity
  8
0
100
AcDbBlockEnd
  0
ENDSEC
  0
SECTION
  2
ENTITIES
  0
SPLINE
  5
73
330
1F
100
AcDbEntity
  8
0
  6
Continuous
 62
     7
370
    25
100
AcDbSpline
210
0.0
220
0.0
230
1.0
 70
     8
 71
     3
 72
     9
 73
     5
 74
     0
 42
0.000000001
 43
0.00000001
 40
0.0
 40
0.0
 40
0.0
 40
0.0
 40
0.4994980026945678
 40
1.0
 40
1.0
 40
1.0
 40
1.0
 10
-92.18425588863467
 20
73.64397916124726
 30
0.0
 10
-92.21872535200727
 20
73.62071032143456
 30
0.0
 10
-92.28773356262403
 20
73.57412587127224
 30
0.0
 10
-92.2592786814186
 20
73.49127318823392
 30
0.0
 10
-92.24503695654221
 20
73.44980525489115
 30
0.0
  0
SPLINE
  5
74
330
1F
100
AcDbEntity
  8
0
  6
Continuous
 62
     7
370
    25
100
AcDbSpline
210
0.0
220
0.0
230
1.0
 70
     8
 71
     3
 72
     9
 73
     5
 74
     0
 42
0.000000001
 43
0.00000001
 40
0.0
 40
0.0
 40
0.0
 40
0.0
 40
0.5005019973057019
 40
1.0
 40
1.0
 40
1.0
 40
1.0
 10
-48.87624022660793
 20
73.44980525489112
 30
0.0
 10
-48.8619985017314
 20
73.4912731882349
 30
0.0
 10
-48.83354362052573
 20
73.57412587127516
 30
0.0
 10
-48.90255183114568
 20
73.62071032143672
 30
0.0
 10
-48.93702129451986
 20
73.64397916124905
 30
0.0
  0
LWPOLYLINE
  5
75
330
1F
100
AcDbEntity
  8
0
  6
Continuous
 62
     7
370
    25
100
AcDbPolyline
 90
        3
 70
   128
 43
0.0
 10
-51.5606385916
 20
73.6580208499
 10
-51.5399628396
 20
75.1890228065
 10
-51.5492671754
 20
75.6580208499
  0
LWPOLYLINE
  5
76
330
1F
100
AcDbEntity
  8
0
  6
Continuous
 62
     7
370
    25
100
AcDbPolyline
 90
        3
 70
   128
 43
0.0
 10
-89.5720100077
 20
75.6580208499
 10
-89.5813143435
 20
75.1890228065
 10
-89.5606385916
 20
73.6580208499
  0
SPLINE
  5
77
330
1F
100
AcDbEntity
  8
0
  6
Continuous
 62
     7
370
    25
100
AcDbSpline
210
0.0
220
0.0
230
1.0
 70
     8
 71
     3
 72
    20
 73
    16
 74
     0
 42
0.000000001
 43
0.00000001
 40
0.0
 40
0.0
 40
0.0
 40
0.0
 40
0.0039063293098246
 40
0.0078128324098271
 40
0.0156258230923247
 40
0.0312517430632332
 40
0.062503343092493
 40
0.1250056324945788
 40
0.2500070072874035
 40
0.5000008699234056
 40
0.7499949073678168
 40
0.8749964918334024
 40
0.9374989114586757
 40
0.9687505813539712
 40
1.0
 40
1.0
 40
1.0
 40
1.0
 10
-68.67968140625138
 20
100.4580041138569
 30
0.0
 10
-68.68457823792886
 20
100.4579958150755
 30
0.0
 10
-68.69437211914084
 20
100.4579792171435
 30
0.0
 10
-68.7139601823804
 20
100.457911607733
 30
0.0
 10
-68.74823999113532
 20
100.4578107765897
 30
0.0
 10
-68.8168007479981
 20
100.4576026711637
 30
0.0
 10
-68.95392673830973
 20
100.4572148155808
 30
0.0
 10
-69.22819549618728
 20
100.4565143751059
 30
0.0
 10
-69.77679163794515
 20
100.4554405050472
 30
0.0
 10
-70.56063791135487
 20
100.4548349433564
 30
0.0
 10
-71.34448460182784
 20
100.4554222632719
 30
0.0
 10
-71.89308175083373
 20
100.4565399783547
 30
0.0
 10
-72.16735078795492
 20
100.4571780805762
 30
0.0
 10
-72.32406393921482
 20
100.4577222806416
 30
0.0
 10
-72.4024143549539
 20
100.4577589210334
 30
0.0
 10
-72.44158815175747
 20
100.4577772405694
 30
0.0
  0
SPLINE
  5
79
330
1F
100
AcDbEntity
  8
0
  6
Continuous
 62
     7
370
    25
100
AcDbSpline
210
0.0
220
0.0
230
1.0
 70
    24
 71
     3
 72
     8
 73
     4
 74
     0
 42
0.000000001
 43
0.00000001
 40
0.0
 40
0.0
 40
0.0
 40
0.0
 40
1.0
 40
1.0
 40
1.0
 40
1.0
 10
-72.43541549971418
 20
100.658020849861
 30
0.0
 10
-71.18556422760705
 20
100.658020849861
 30
0.0
 10
-69.93571295549994
 20
100.658020849861
 30
0.0
 10
-68.68586168339284
 20
100.658020849861
 30
0.0
  0
SPLINE
  5
7C
330
1F
100
AcDbEntity
  8
0
  6
Continuous
 62
     7
370
    25
100
AcDbSpline
210
0.0
220
0.0
230
1.0
 70
     8
 71
     3
 72
    30
 73
    26
 74
     0
 42
0.000000001
 43
0.00000001
 40
0.0
 40
0.0
 40
0.0
 40
0.0
 40
0.0182731887327498
 40
0.03638276602374
 40
0.0543304108299972
 40
0.0721178480001709
 40
0.0897468494441335
 40
0.107219235309093
 40
0.1245368751594624
 40
0.1878186891191183
 40
0.2481903844084206
 40
0.3115126960391674
 40
0.3719876959136392
 40
0.4354029675724623
 40
0.4975206709099375
 40
0.5598562527075414
 40
0.6234225424666967
 40
0.6846756242308064
 40
0.7488260653932477
 40
0.8099749199888567
 40
0.8741239307148222
 40
0.904847160417118
 40
0.9360609516376972
 40
0.9677753672311858
 40
1.0
 40
1.0
 40
1.0
 40
1.0
 10
-53.1132510912953
 20
96.03334123717258
 30
0.0
 10
-53.31458371063375
 20
96.08067093312013
 30
0.0
 10
-53.71544629074865
 20
96.17490655224596
 30
0.0
 10
-54.31727560405318
 20
96.31787512843742
 30
0.0
 10
-54.91605257688942
 20
96.46060075048256
 30
0.0
 10
-55.51200647085744
 20
96.60281285937934
 30
0.0
 10
-56.10507549649343
 20
96.7440185813946
 30
0.0
 10
-56.69528057351551
 20
96.88381087885153
 30
0.0
 10
-57.80392512690565
 20
97.14426360195698
 30
0.0
 10
-59.41264443509745
 20
97.51237625464829
 30
0.0
 10
-61.57716436507152
 20
97.96537731602797
 30
0.0
 10
-63.73965843956844
 20
98.35364239709297
 30
0.0
 10
-65.96626429825706
 20
98.66415417899884
 30
0.0
 10
-68.20184491504152
 20
98.86399472521109
 30
0.0
 10
-70.47319430020276
 20
98.93769927865402
 30
0.0
 10
-72.74692461820688
 20
98.87443229890515
 30
0.0
 10
-74.99769373170095
 20
98.68238202774384
 30
0.0
 10
-77.24703340819781
 20
98.37557272750671
 30
0.0
 10
-79.43917775810985
 20
97.98617000648576
 30
0.0
 10
-81.63365976417074
 20
97.52909464876967
 30
0.0
 10
-83.41481851921496
 20
97.12220738201242
 30
0.0
 10
-84.83843550628802
 20
96.7865135609867
 30
0.0
 10
-85.88816920309885
 20
96.53637218168238
 30
0.0
 10
-86.9474981294779
 20
96.28325648138149
 30
0.0
 10
-87.65264115102603
 20
96.1170883116734
 30
0.0
 10
-88.0080260918547
 20
96.03334123717258
 30
0.0
  0
SPLINE
  5
7E
330
1F
100
AcDbEntity
  8
0
  6
Continuous
 62
     7
370
    25
100
AcDbSpline
210
0.0
220
0.0
230
1.0
 70
     8
 71
     3
 72
    20
 73
    16
 74
     0
 42
0.000000001
 43
0.00000001
 40
0.0
 40
0.0
 40
0.0
 40
0.0
 40
0.0362890217155597
 40
0.0782788561120209
 40
0.1259695760071602
 40
0.2178372190777998
 40
0.2518233748541637
 40
0.3900398188516525
 40
0.5022104393581266
 40
0.63253135249188
 40
0.7510986195603223
 40
0.8153978543699247
 40
0.878301834000465
 40
0.9398292310818197
 40
1.0
 40
1.0
 40
1.0
 40
1.0
 10
-88.75541359213456
 20
98.17593509331644
 30
0.0
 10
-88.56454255664002
 20
98.21052896971024
 30
0.0
 10
-88.15281565916284
 20
98.28515123684687
 30
0.0
 10
-87.48783188326625
 20
98.40683899994313
 30
0.0
 10
-86.52651722116902
 20
98.58351480203058
 30
0.0
 10
-85.60272400265094
 20
98.7527950673834
 30
0.0
 10
-84.19120692563133
 20
99.01058496261608
 30
0.0
 10
-82.66126246794613
 20
99.28125505698348
 30
0.0
 10
-80.59600147353457
 20
99.62445467317228
 30
0.0
 10
-78.62083495250543
 20
99.91478948761649
 30
0.0
 10
-76.89446443565988
 20
100.1268371413418
 30
0.0
 10
-75.53307703566026
 20
100.2622738283884
 30
0.0
 10
-74.48451985099476
 20
100.3482078196852
 30
0.0
 10
-73.45653415661099
 20
100.4155990517828
 30
0.0
 10
-72.77738554303201
 20
100.4439857305015
 30
0.0
 10
-72.44159663484976
 20
100.4580208498601
 30
0.0
  0
SPLINE
  5
7F
330
1F
100
AcDbEntity
  8
0
  6
Continuous
 62
     7
370
    25
100
AcDbSpline
210
0.0
220
0.0
230
1.0
 70
     8
 71
     3
 72
    22
 73
    18
 74
     0
 42
0.000000001
 43
0.00000001
 40
0.0
 40
0.0
 40
0.0
 40
0.0
 40
0.0344929601526787
 40
0.0694357292043879
 40
0.1048322868162414
 40
0.140686461537886
 40
0.1770019371807836
 40
0.2137822589429601
 40
0.2510308392891119
 40
0.369736633341557
 40
0.5003108630453519
 40
0.6126048736107059
 40
0.7495894932265592
 40
0.784378703726557
 40
0.874593873022951
 40
0.9436824699147822
 40
1.0
 40
1.0
 40
1.0
 40
1.0
 10
-68.67968054829205
 20
100.4580208498598
 30
0.0
 10
-68.48716266111205
 20
100.4504379527523
 30
0.0
 10
-68.09961633797647
 20
100.4351732730087
 30
0.0
 10
-67.51514270599212
 20
100.404049747874
 30
0.0
 10
-66.92369756116351
 20
100.3667599582593
 30
0.0
 10
-66.32538602901666
 20
100.3227006985145
 30
0.0
 10
-65.72027009277974
 20
100.2720372846048
 30
0.0
 10
-65.10842699173179
 20
100.2147226892394
 30
0.0
 10
-64.0417221028292
 20
100.1044349423597
 30
0.0
 10
-62.46248125846144
 20
99.90963830091155
 30
0.0
 10
-60.48481914602702
 20
99.61801890791655
 30
0.0
 10
-58.42448703010636
 20
99.27536687147557
 30
0.0
 10
-56.89638490494143
 20
99.00499254077644
 30
0.0
 10
-55.49616049934439
 20
98.74908300285358
 30
0.0
 10
-54.4632401516307
 20
98.55965507831647
 30
0.0
 10
-53.3221132618872
 20
98.34954303415938
 30
0.0
 10
-52.66221256659136
 20
98.22973750181686
 30
0.0
 10
-52.36586359101554
 20
98.17593509331644
 30
0.0
  0
LWPOLYLINE
  5
83
330
1F
100
AcDbEntity
  8
0
  6
Continuous
 62
     7
370
    25
100
AcDbPolyline
 90
        9
 70
   128
 43
0.0
 10
-52.425654591
 20
100.6580208499
 10
-52.4139899456
 20
100.6541779059
 10
-52.4027735659
 20
100.6427967564
 10
-52.3924364912
 20
100.6243147723
 10
-52.3833759695
 20
100.5994422061
 10
-52.3759401914
 20
100.5691348965
 10
-52.3704149099
 20
100.5345575363
 10
-52.3670124583
 20
100.4970389143
 10
-52.365863591
 20
100.4580208499
  0
LWPOLYLINE
  5
85
330
1F
100
AcDbEntity
  8
0
  6
Continuous
 62
     7
370
    25
100
AcDbPolyline
 90
        9
 70
   128
 43
0.0
 10
-88.7554135921
 20
100.4580208499
 10
-88.7542647248
 20
100.4970389143
 10
-88.7508622733
 20
100.5345575363
 10
-88.7453369917
 20
100.5691348965
 10
-88.7379012137
 20
100.5994422061
 10
-88.7288406919
 20
100.6243147723
 10
-88.7185036172
 20
100.6427967564
 10
-88.7072872376
 20
100.6541779059
 10
-88.6956225921
 20
100.6580208499
  0
SPLINE
  5
88
330
1F
100
AcDbEntity
  8
0
  6
Continuous
 62
     7
370
    25
100
AcDbSpline
210
0.0
220
0.0
230
1.0
 70
     8
 71
     3
 72
    20
 73
    16
 74
     0
 42
0.000000001
 43
0.00000001
 40
0.0
 40
0.0
 40
0.0
 40
0.0
 40
0.0501045538791887
 40
0.1001245907983527
 40
0.1501643821348482
 40
0.2003280760808722
 40
0.2507190525884509
 40
0.3765821254212328
 40
0.5003321353871977
 40
0.6281206851597
 40
0.7502668877689549
 40
0.8161114487198108
 40
0.8792751078652271
 40
0.9403523278719853
 40
0.9999999999999999
 40
0.9999999999999999
 40
0.9999999999999999
 40
0.9999999999999999
 10
-51.360638591575
 20
94.73012511922495
 30
0.0
 10
-51.36148678256517
 20
94.74869715199405
 30
0.0
 10
-51.36318173380679
 20
94.78580989000557
 30
0.0
 10
-51.37694625607868
 20
94.8449406758743
 30
0.0
 10
-51.39893384864961
 20
94.9064318562062
 30
0.0
 10
-51.42994734139375
 20
94.97050049165718
 30
0.0
 10
-51.48953991357264
 20
95.07005182154734
 30
0.0
 10
-51.59814042033212
 20
95.20898726618222
 30
0.0
 10
-51.78943378797765
 20
95.39140757384926
 30
0.0
 10
-52.03215502335436
 20
95.574600655297
 30
0.0
 10
-52.28604404351067
 20
95.72431207521336
 30
0.0
 10
-52.51636544010087
 20
95.83527606998078
 30
0.0
 10
-52.70641370417754
 20
95.91266727095793
 30
0.0
 10
-52.90386192703851
 20
95.98017854406956
 30
0.0
 10
-53.04400787646497
 20
96.0157607869494
 30
0.0
 10
-53.1132510912953
 20
96.03334123717258
 30
0.0
  0
SPLINE
  5
8C
330
1F
100
AcDbEntity
  8
0
  6
Continuous
 62
     7
370
    25
100
AcDbSpline
210
0.0
220
0.0
230
1.0
 70
     8
 71
     3
 72
    21
 73
    17
 74
     0
 42
0.000000001
 43
0.00000001
 40
0.0
 40
0.0
 40
0.0
 40
0.0
 40
0.0341058285674271
 40
0.0685849390910854
 40
0.1035678619128836
 40
0.1391795874079247
 40
0.1755386212290097
 40
0.2127563306693169
 40
0.2509365692746189
 40
0.3728826825561103
 40
0.5004641418375555
 40
0.6243127291419556
 40
0.7502932285310545
 40
0.8338021206600994
 40
0.9168789537154817
 40
0.9999999999999999
 40
0.9999999999999999
 40
0.9999999999999999
 40
0.9999999999999999
 10
-88.00802609185472
 20
96.03334123717259
 30
0.0
 10
-88.04786221765953
 20
96.02356547902731
 30
0.0
 10
-88.1279704682639
 20
96.00390696888033
 30
0.0
 10
-88.24405271144406
 20
95.96969661436816
 30
0.0
 10
-88.3577455648412
 20
95.93203959760315
 30
0.0
 10
-88.46872142656294
 20
95.89071079703527
 30
0.0
 10
-88.57706985471229
 20
95.84594710246719
 30
0.0
 10
-88.68276830590685
 20
95.79787107079596
 30
0.0
 10
-88.86017298512618
 20
95.70973652445652
 30
0.0
 10
-89.09113263627339
 20
95.57320823762242
 30
0.0
 10
-89.33330220314676
 20
95.39017644309186
 30
0.0
 10
-89.52422284356847
 20
95.20778182503855
 30
0.0
 10
-89.64469362551027
 20
95.0534408999621
 30
0.0
 10
-89.71557829487162
 20
94.92624525623994
 30
0.0
 10
-89.75362416642795
 20
94.82346010384725
 30
0.0
 10
-89.75830003522252
 20
94.76124229798431
 30
0.0
 10
-89.760638591575
 20
94.73012511922495
 30
0.0
  0
SPLINE
  5
8D
330
1F
100
AcDbEntity
  8
0
  6
Continuous
 62
     7
370
    25
100
AcDbSpline
210
0.0
220
0.0
230
1.0
 70
     8
 71
     3
 72
    22
 73
    18
 74
     0
 42
0.000000001
 43
0.00000001
 40
0.0
 40
0.0
 40
0.0
 40
0.0
 40
0.0330397239184046
 40
0.0669591319745193
 40
0.1017621659301288
 40
0.1374524738481266
 40
0.1740334374127289
 40
0.211508196266243
 40
0.2498796697278462
 40
0.3606880234143714
 40
0.4997785938555332
 40
0.66984386130476
 40
0.7491077983532336
 40
0.8164026614148021
 40
0.8806468504297986
 40
0.9418443946013102
 40
1.0
 40
1.0
 40
1.0
 40
1.0
 10
-52.36586359101558
 20
98.17593509331644
 30
0.0
 10
-52.29894002487449
 20
98.16936560757924
 30
0.0
 10
-52.16331104962903
 20
98.15605172325112
 30
0.0
 10
-51.96135038810833
 20
98.1327329272102
 30
0.0
 10
-51.75784506056979
 20
98.10666556351427
 30
0.0
 10
-51.55375848612514
 20
98.0776092720575
 30
0.0
 10
-51.34976061435506
 20
98.04563243087912
 30
0.0
 10
-51.14666817114792
 20
98.01070991002186
 30
0.0
 10
-50.82027280651704
 20
97.9493581739037
 30
0.0
 10
-50.35056001448684
 20
97.84460602179026
 30
0.0
 10
-49.76481651754375
 20
97.6791475884517
 30
0.0
 10
-49.35188059180665
 20
97.52301004911168
 30
0.0
 10
-49.11228130139854
 20
97.39673242875536
 30
0.0
 10
-48.991228154913
 20
97.31757713554315
 30
0.0
 10
-48.91400157022174
 20
97.2480722461564
 30
0.0
 10
-48.86869028236084
 20
97.1849399123405
 30
0.0
 10
-48.86327649499682
 20
97.14697567972105
 30
0.0
 10
-48.86063859157502
 20
97.128477358232
 30
0.0
  0
SPLINE
  5
90
330
1F
100
AcDbEntity
  8
0
  6
Continuous
 62
     7
370
    25
100
AcDbSpline
210
0.0
220
0.0
230
1.0
 70
     8
 71
     3
 72
    24
 73
    20
 74
     0
 42
0.000000001
 43
0.00000001
 40
0.0
 40
0.0
 40
0.0
 40
0.0
 40
0.0327162310960625
 40
0.0664126150772865
 40
0.1010901355496881
 40
0.1367496936296618
 40
0.1733921166810812
 40
0.2110181659292206
 40
0.2496285431192743
 40
0.3141386976636421
 40
0.3927183523264578
 40
0.4460854468003521
 40
0.4994540029471781
 40
0.6356471259109335
 40
0.748923534135301
 40
0.81583067977787
 40
0.8799673348198579
 40
0.9413505963255093
 40
1.0
 40
1.0
 40
1.0
 40
1.0
 10
-92.26063859157502
 20
97.12847735823199
 30
0.0
 10
-92.25980507783095
 20
97.1387907041212
 30
0.0
 10
-92.25811307891811
 20
97.15972637573596
 30
0.0
 10
-92.24414851964515
 20
97.19313459285789
 30
0.0
 10
-92.22095415544575
 20
97.22857858332102
 30
0.0
 10
-92.18694737063524
 20
97.26617937426825
 30
0.0
 10
-92.14162160440404
 20
97.30590329457405
 30
0.0
 10
-92.08418335052636
 20
97.34775952601879
 30
0.0
 10
-91.99884094618768
 20
97.40120817328115
 30
0.0
 10
-91.86505174470491
 20
97.47223553636938
 30
0.0
 10
-91.68602902311909
 20
97.55077752145277
 30
0.0
 10
-91.48871203547989
 20
97.62527796138211
 30
0.0
 10
-91.201103470479
 20
97.7232415872052
 30
0.0
 10
-90.77988377273579
 20
97.84269744803274
 30
0.0
 10
-90.26562907480412
 20
97.95746683222005
 30
0.0
 10
-89.83307159071781
 20
98.03650831498351
 30
0.0
 10
-89.47392741774753
 20
98.09217274587252
 30
0.0
 10
-89.1163324619945
 20
98.13937923881711
 30
0.0
 10
-88.87387918091932
 20
98.16393624485367
 30
0.0
 10
-88.75541359213445
 20
98.17593509331644
 30
0.0
  0
SPLINE
  5
A1
330
1F
100
AcDbEntity
  8
0
  6
Continuous
 62
     7
370
    25
100
AcDbSpline
210
0.0
220
0.0
230
1.0
 70
     8
 71
     3
 72
    22
 73
    18
 74
     0
 42
0.000000001
 43
0.00000001
 40
0.0
 40
0.0
 40
0.0
 40
0.0
 40
0.1249999999999999
 40
0.1249999999999999
 40
0.2499999999999998
 40
0.2499999999999998
 40
0.3749999999999997
 40
0.3749999999999997
 40
0.4999999999999996
 40
0.4999999999999996
 40
0.6249999999999994
 40
0.6249999999999994
 40
0.7499999999999993
 40
0.7499999999999993
 40
0.8749999999999997
 40
0.8749999999999997
 40
1.0
 40
1.0
 40
1.0
 40
1.0
 10
-89.760638591575
 20
92.37763764245864
 30
0.0
 10
-88.35462409644664
 20
92.40430401732232
 30
0.0
 10
-86.88139929779572
 20
92.42843956202275
 30
0.0
 10
-83.82450527127783
 20
92.4706483100957
 30
0.0
 10
-82.24087851675476
 20
92.48871839570414
 30
0.0
 10
-78.99491211480228
 20
92.51798555600176
 30
0.0
 10
-77.3326487333071
 20
92.52918011927947
 30
0.0
 10
-73.96708748751003
 20
92.54416852997329
 30
0.0
 10
-72.26389052475685
 20
92.54796097197428
 30
0.0
 10
-68.85738665839322
 20
92.5479609719743
 30
0.0
 10
-67.15418969564
 20
92.54416852997328
 30
0.0
 10
-63.78862844984291
 20
92.52918011927949
 30
0.0
 10
-62.12636506834777
 20
92.51798555600176
 30
0.0
 10
-58.88039866639529
 20
92.48871839570411
 30
0.0
 10
-57.29677191187221
 20
92.47064831009568
 30
0.0
 10
-54.2398778853543
 20
92.4284395620227
 30
0.0
 10
-52.76665308670338
 20
92.4043040173223
 30
0.0
 10
-51.360638591575
 20
92.37763764245864
 30
0.0
  0
SPLINE
  5
A4
330
1F
100
AcDbEntity
  8
0
  6
Continuous
 62
     7
370
    25
100
AcDbSpline
210
0.0
220
0.0
230
1.0
 70
     8
 71
     3
 72
    33
 73
    29
 74
     0
 42
0.000000001
 43
0.00000001
 40
0.0
 40
0.0
 40
0.0
 40
0.0
 40
0.0151907243297751
 40
0.0305216133238485
 40
0.0460041427769301
 40
0.0616492311196779
 40
0.0774672894340506
 40
0.0934682755318164
 40
0.1096617509960686
 40
0.1260569401388767
 40
0.1858626041846427
 40
0.2513147702559908
 40
0.3099891973793086
 40
0.3761284269964805
 40
0.433019500053741
 40
0.5014431104187672
 40
0.5636527828184746
 40
0.6259058175980073
 40
0.7510749624412828
 40
0.8752060216502834
 40
0.9373625980464088
 40
0.9685999371126889
 40
0.9842776068429259
 40
0.9921337302856528
 40
0.9960664384697148
 40
0.998033995105586
 40
0.9990180791981239
 40
1.0
 40
1.0
 40
1.0
 40
1.0
 10
-49.74606430554099
 20
84.22056440415493
 30
0.0
 10
-49.74677474330416
 20
84.29426335281079
 30
0.0
 10
-49.74820217403276
 20
84.44234126959842
 30
0.0
 10
-49.75256368608101
 20
84.6650199345765
 30
0.0
 10
-49.75849128554512
 20
84.8889916273534
 30
0.0
 10
-49.76612657650414
 20
85.11398450616018
 30
0.0
 10
-49.77541744564599
 20
85.33972751668718
 30
0.0
 10
-49.78639129971526
 20
85.56593697378513
 30
0.0
 10
-49.79907803601966
 20
85.79233308802925
 30
0.0
 10
-49.82624791472831
 20
86.21728111997214
 30
0.0
 10
-49.87866748799529
 20
86.84760331648553
 30
0.0
 10
-49.96217377858896
 20
87.61064689941253
 30
0.0
 10
-50.06262870817733
 20
88.3389211222079
 30
0.0
 10
-50.16633289997605
 20
88.97738308972849
 30
0.0
 10
-50.28362130669596
 20
89.59036483990805
 30
0.0
 10
-50.40163349156857
 20
90.13405196785733
 30
0.0
 10
-50.52670230070997
 20
90.63212901673492
 30
0.0
 10
-50.69028228296603
 20
91.20216388080074
 30
0.0
 10
-50.89514786861448
 20
91.77333571321647
 30
0.0
 10
-51.09493984872297
 20
92.14865323411276
 30
0.0
 10
-51.22941568851164
 20
92.30126027927187
 30
0.0
 10
-51.2953691763494
 20
92.349175782555
 30
0.0
 10
-51.32807736293892
 20
92.36587537177577
 30
0.0
 10
-51.34437795917331
 20
92.37237879570817
 30
0.0
 10
-51.35250901273218
 20
92.3751650238297
 30
0.0
 10
-51.35657974322621
 20
92.37643993447462
 30
0.0
 10
-51.35889018375406
 20
92.37713612248605
 30
0.0
 10
-51.36006971329266
 20
92.3774697250706
 30
0.0
 10
-51.36065882911514
 20
92.37763634282328
 30
0.0
  0
SPLINE
  5
A5
330
1F
100
AcDbEntity
  8
0
  6
Continuous
 62
     7
370
    25
100
AcDbSpline
210
0.0
220
0.0
230
1.0
 70
     8
 71
     3
 72
    45
 73
    41
 74
     0
 42
0.000000001
 43
0.00000001
 40
0.0
 40
0.0
 40
0.0
 40
0.0
 40
0.0124922577999763
 40
0.024943851060918
 40
0.0373547842488779
 40
0.0497250618740793
 40
0.0620546884914914
 40
0.0743436687014188
 40
0.0865920071500936
 40
0.098799708530286
 40
0.1109667775819158
 40
0.1230932190926801
 40
0.1351790378986918
 40
0.1472242388851229
 40
0.1592288269868644
 40
0.1711928071891944
 40
0.1831161845284568
 40
0.1949989640927545
 40
0.2068411510226516
 40
0.2186427505118843
 40
0.2304037678080957
 40
0.2421242082135664
 40
0.3071325560496605
 40
0.3717813981605218
 40
0.4360716840935203
 40
0.5000043794625179
 40
0.5639363060868697
 40
0.6282263357704363
 40
0.6928754341280376
 40
0.7578845506849531
 40
0.7813650160873569
 40
0.8050078366871014
 40
0.8288130540250609
 40
0.8527807087894436
 40
0.8769108408384799
 40
0.9012034892223808
 40
0.9256586922045639
 40
0.9502764872822055
 40
0.9750569112061179
 40
1.0
 40
1.0
 40
1.0
 40
1.0
 10
-49.74606255793803
 20
84.22056440415622
 30
0.0
 10
-49.8904972458428
 20
84.225835042205
 30
0.0
 10
-50.17889646084568
 20
84.23635916143063
 30
0.0
 10
-50.61874400262697
 20
84.25169352737822
 30
0.0
 10
-51.06276774404703
 20
84.2666639534632
 30
0.0
 10
-51.51135377027176
 20
84.2812401466826
 30
0.0
 10
-51.9641553338755
 20
84.29543018428456
 30
0.0
 10
-52.42102249244461
 20
84.30923191265936
 30
0.0
 10
-52.88175432982138
 20
84.32264590606181
 30
0.0
 10
-53.34616511304697
 20
84.33567201142513
 30
0.0
 10
-53.81406674207251
 20
84.3483102696039
 30
0.0
 10
-54.28527351497748
 20
84.36056066974872
 30
0.0
 10
-54.75960094104722
 20
84.37242321480156
 30
0.0
 10
-55.23686613634996
 20
84.38389790400619
 30
0.0
 10
-55.71688780073851
 20
84.39498473767388
 30
0.0
 10
-56.19948628097642
 20
84.40568371553096
 30
0.0
 10
-56.68448369248522
 20
84.41599483857776
 30
0.0
 10
-57.17170370963223
 20
84.42591810332594
 30
0.0
 10
-57.66097260425322
 20
84.43545352289226
 30
0.0
 10
-58.15211563215585
 20
84.44460104875851
 30
0.0
 10
-58.64497068405974
 20
84.45336086124644
 30
0.0
 10
-59.88913455818506
 20
84.47442907075951
 30
0.0
 10
-61.9188807444956
 20
84.50336712658446
 30
0.0
 10
-64.77411855959923
 20
84.53188117080217
 30
0.0
 10
-67.66103021939998
 20
84.54900447395964
 30
0.0
 10
-70.56062648713804
 20
84.5547438891162
 30
0.0
 10
-73.46022191869915
 20
84.54900472813085
 30
0.0
 10
-76.34711324437481
 20
84.53188162072254
 30
0.0
 10
-79.20239760727733
 20
84.50336675915047
 30
0.0
 10
-81.4008951669425
 20
84.47202353079983
 30
0.0
 10
-82.97253468816456
 20
84.44474926254802
 30
0.0
 10
-83.95309344946222
 20
84.4260624335583
 30
0.0
 10
-84.92543903363415
 20
84.40582467784088
 30
0.0
 10
-85.88819289041153
 20
84.38403524108821
 30
0.0
 10
-86.8399286860995
 20
84.3606948775029
 30
0.0
 10
-87.77914851991916
 20
84.33580130227695
 30
0.0
 10
-88.70453177034675
 20
84.30936297023023
 30
0.0
 10
-89.61396555952776
 20
84.28134804745072
 30
0.0
 10
-90.50822018200792
 20
84.25187650572438
 30
0.0
 10
-91.08558688077453
 20
84.23102450966422
 30
0.0
 10
-91.37521462521207
 20
84.2205644041562
 30
0.0
  0
SPLINE
  5
A6
330
1F
100
AcDbEntity
  8
0
  6
Continuous
 62
     7
370
    25
100
AcDbSpline
210
0.0
220
0.0
230
1.0
 70
     8
 71
     3
 72
    29
 73
    25
 74
     0
 42
0.000000001
 43
0.00000001
 40
0.0
 40
0.0
 40
0.0
 40
0.0
 40
0.0009819482891781
 40
0.001966059929615
 40
0.0039336716441641
 40
0.0078664899182553
 40
0.0157228332809085
 40
0.0314009418830397
 40
0.0626391553898778
 40
0.1247974717624013
 40
0.2489320058267405
 40
0.3741046545849473
 40
0.4363594320410762
 40
0.4985708459035169
 40
0.5669932606061594
 40
0.6238890373806062
 40
0.6900268136322497
 40
0.7487061870361656
 40
0.8141568797304459
 40
0.8739675209977275
 40
0.9065490973571321
 40
0.938361714985611
 40
0.969483551035375
 40
1.0
 40
1.0
 40
1.0
 40
1.0
 10
-89.76061835403462
 20
92.37763634282327
 30
0.0
 10
-89.76120746985724
 20
92.37746972507055
 30
0.0
 10
-89.76238699939614
 20
92.377136122486
 30
0.0
 10
-89.7646974399238
 20
92.37643993447465
 30
0.0
 10
-89.7687681704179
 20
92.37516502382964
 30
0.0
 10
-89.77689922397673
 20
92.37237879570833
 30
0.0
 10
-89.79319982021097
 20
92.36587537177549
 30
0.0
 10
-89.82590800680535
 20
92.34917578255929
 30
0.0
 10
-89.89186149458159
 20
92.3012602792247
 30
0.0
 10
-90.0263373350705
 20
92.14865323464478
 30
0.0
 10
-90.22612930951436
 20
91.77333570906691
 30
0.0
 10
-90.4309949147122
 20
91.20216389280772
 30
0.0
 10
-90.59457485745628
 20
90.63212899609391
 30
0.0
 10
-90.71964177368206
 20
90.13406008319438
 30
0.0
 10
-90.83765356152863
 20
89.59037397242169
 30
0.0
 10
-90.95494062827544
 20
88.97740520487966
 30
0.0
 10
-91.05864641436466
 20
88.33893081188522
 30
0.0
 10
-91.15909928933324
 20
87.61068086026695
 30
0.0
 10
-91.24261238875624
 20
86.84758675275833
 30
0.0
 10
-91.30100515334976
 20
86.14535842637207
 30
0.0
 10
-91.3355605076004
 20
85.5699348874095
 30
0.0
 10
-91.35575179444723
 20
85.1173425796159
 30
0.0
 10
-91.36983971692815
 20
84.66770389492272
 30
0.0
 10
-91.37343358991951
 20
84.36863177802627
 30
0.0
 10
-91.375212877609
 20
84.22056440415493
 30
0.0
  0
SPLINE
  5
A8
330
1F
100
AcDbEntity
  8
0
  6
Continuous
 62
     7
370
    25
100
AcDbSpline
210
0.0
220
0.0
230
1.0
 70
    24
 71
     3
 72
    28
 73
    24
 74
     0
 42
0.000000001
 43
0.00000001
 40
0.0
 40
0.0
 40
0.0
 40
0.0
 40
0.1249999999999998
 40
0.1249999999999998
 40
0.2499999999999995
 40
0.2499999999999995
 40
0.3124999999999994
 40
0.3124999999999994
 40
0.3749999999999992
 40
0.3749999999999992
 40
0.4999999999999994
 40
0.4999999999999994
 40
0.5625000000000003
 40
0.5625000000000003
 40
0.6250000000000012
 40
0.6250000000000012
 40
0.7500000000000016
 40
0.7500000000000016
 40
0.8125000000000018
 40
0.8125000000000018
 40
0.875000000000002
 40
0.875000000000002
 40
1.0
 40
1.0
 40
1.0
 40
1.0
 10
-48.86063859157501
 20
94.8761147100064
 30
0.0
 10
-48.86063859157502
 20
94.84993219644242
 30
0.0
 10
-48.86063859157503
 20
94.76268432533814
 30
0.0
 10
-48.860638591575
 20
94.4765050686098
 30
0.0
 10
-48.860638591575
 20
94.27752765143889
 30
0.0
 10
-48.86063859157501
 20
93.89446864919479
 30
0.0
 10
-48.86063859157503
 20
93.7520467911337
 30
0.0
 10
-48.86063859157504
 20
93.44010849723017
 30
0.0
 10
-48.86063859157501
 20
93.27170303270464
 30
0.0
 10
-48.86063859157501
 20
92.72968753875799
 30
0.0
 10
-48.86063859157501
 20
92.31969100154511
 30
0.0
 10
-48.86063859157501
 20
91.62692541238162
 30
0.0
 10
-48.86063859157503
 20
91.38294807943707
 30
0.0
 10
-48.86063859157503
 20
90.86660537467696
 30
0.0
 10
-48.86063859157502
 20
90.59656311845676
 30
0.0
 10
-48.86063859157503
 20
89.75661690686069
 30
0.0
 10
-48.86063859157502
 20
89.15462701481569
 30
0.0
 10
-48.86063859157502
 20
88.17687586692749
 30
0.0
 10
-48.86063859157501
 20
87.83816302960179
 30
0.0
 10
-48.860638591575
 20
87.15088099687851
 30
0.0
 10
-48.860638591575
 20
86.80029297783693
 30
0.0
 10
-48.860638591575
 20
85.7263255692015
 30
0.0
 10
-48.86063859157501
 20
84.97429113552455
 30
0.0
 10
-48.86063859157501
 20
84.22056440415619
 30
0.0
  0
SPLINE
  5
AA
330
1F
100
AcDbEntity
  8
0
  6
Continuous
 62
     7
370
    25
100
AcDbSpline
210
0.0
220
0.0
230
1.0
 70
    24
 71
     3
 72
    28
 73
    24
 74
     0
 42
0.000000001
 43
0.00000001
 40
0.0
 40
0.0
 40
0.0
 40
0.0
 40
0.1250000000000004
 40
0.1250000000000004
 40
0.1875000000000006
 40
0.1875000000000006
 40
0.2500000000000008
 40
0.2500000000000008
 40
0.3749999999999992
 40
0.3749999999999992
 40
0.4374999999999984
 40
0.4374999999999984
 40
0.4999999999999977
 40
0.4999999999999977
 40
0.624999999999998
 40
0.624999999999998
 40
0.6874999999999981
 40
0.6874999999999981
 40
0.7499999999999982
 40
0.7499999999999982
 40
0.8749999999999991
 40
0.8749999999999991
 40
1.0
 40
1.0
 40
1.0
 40
1.0
 10
-92.260638591575
 20
84.22056440415619
 30
0.0
 10
-92.260638591575
 20
84.97429113552457
 30
0.0
 10
-92.26063859157503
 20
85.72632556920146
 30
0.0
 10
-92.26063859157505
 20
86.80029297783685
 30
0.0
 10
-92.26063859157506
 20
87.1508809968785
 30
0.0
 10
-92.260638591575
 20
87.83816302960179
 30
0.0
 10
-92.260638591575
 20
88.17687586692746
 30
0.0
 10
-92.26063859157502
 20
89.15462701481569
 30
0.0
 10
-92.260638591575
 20
89.75661690686063
 30
0.0
 10
-92.260638591575
 20
90.59656311845674
 30
0.0
 10
-92.26063859157499
 20
90.86660537467691
 30
0.0
 10
-92.260638591575
 20
91.38294807943704
 30
0.0
 10
-92.26063859157502
 20
91.62692541238165
 30
0.0
 10
-92.26063859157506
 20
92.31969100154504
 30
0.0
 10
-92.260638591575
 20
92.72968753875797
 30
0.0
 10
-92.26063859157503
 20
93.27170303270465
 30
0.0
 10
-92.260638591575
 20
93.44010849723016
 30
0.0
 10
-92.26063859157502
 20
93.75204679113362
 30
0.0
 10
-92.260638591575
 20
93.89446864919478
 30
0.0
 10
-92.260638591575
 20
94.27752765143892
 30
0.0
 10
-92.260638591575
 20
94.47650506860984
 30
0.0
 10
-92.26063859157502
 20
94.76268432533818
 30
0.0
 10
-92.26063859157503
 20
94.84993219644248
 30
0.0
 10
-92.260638591575
 20
94.8761147100064
 30
0.0
  0
SPLINE
  5
B2
330
1F
100
AcDbEntity
  8
0
  6
Continuous
 62
     7
370
    25
100
AcDbSpline
210
0.0
220
0.0
230
1.0
 70
    24
 71
     3
 72
    20
 73
    16
 74
     0
 42
0.000000001
 43
0.00000001
 40
0.0
 40
0.0
 40
0.0
 40
0.0
 40
0.2499999999999953
 40
0.2499999999999953
 40
0.3749999999999961
 40
0.3749999999999961
 40
0.4999999999999969
 40
0.4999999999999969
 40
0.6249999999999977
 40
0.6249999999999977
 40
0.7499999999999984
 40
0.7499999999999984
 40
0.8749999999999992
 40
0.8749999999999992
 40
1.0
 40
1.0
 40
1.0
 40
1.0
 10
-92.11063859157501
 20
73.658020849861
 30
0.0
 10
-92.11063859157501
 20
73.65802084986099
 30
0.0
 10
-92.02915386549388
 20
73.65802084986099
 30
0.0
 10
-91.78090851668514
 20
73.658020849861
 30
0.0
 10
-91.67769231830164
 20
73.658020849861
 30
0.0
 10
-91.43502524714798
 20
73.65802084986103
 30
0.0
 10
-91.29509297435177
 20
73.65802084986103
 30
0.0
 10
-90.97668296069965
 20
73.658020849861
 30
0.0
 10
-90.79836058643996
 20
73.65802084986106
 30
0.0
 10
-90.41597804478344
 20
73.65802084986105
 30
0.0
 10
-90.21047370160082
 20
73.658020849861
 30
0.0
 10
-89.7701778291312
 20
73.65802084986099
 30
0.0
 10
-89.53486752256168
 20
73.65802084986105
 30
0.0
 10
-89.05056900335195
 20
73.65802084986105
 30
0.0
 10
-88.79969007095183
 20
73.65802084986096
 30
0.0
 10
-88.5398025413141
 20
73.658020849861
 30
0.0
  0
SPLINE
  5
B3
330
1F
100
AcDbEntity
  8
0
  6
Continuous
 62
     7
370
    25
100
AcDbSpline
210
0.0
220
0.0
230
1.0
 70
     8
 71
     3
 72
    13
 73
     9
 74
     0
 42
0.000000001
 43
0.00000001
 40
0.0
 40
0.0
 40
0.0
 40
0.0
 40
0.11756559684613
 40
0.2417490961192906
 40
0.3706617728536272
 40
0.5019058680407996
 40
0.6418559105577695
 40
1.0
 40
1.0
 40
1.0
 40
1.0
 10
-88.56597115234467
 20
73.45802084986077
 30
0.0
 10
-88.56589858937156
 20
73.47033063020334
 30
0.0
 10
-88.56574937877225
 20
73.49564312255711
 30
0.0
 10
-88.56433006583968
 20
73.53306659099535
 30
0.0
 10
-88.56191782950918
 20
73.56892801029458
 30
0.0
 10
-88.55824087382543
 20
73.60126722002607
 30
0.0
 10
-88.55254299502197
 20
73.64359771060019
 30
0.0
 10
-88.54513209822426
 20
73.65198799364373
 30
0.0
 10
-88.5398034490488
 20
73.658020849861
 30
0.0
  0
SPLINE
  5
B4
330
1F
100
AcDbEntity
  8
0
  6
Continuous
 62
     7
370
    25
100
AcDbSpline
210
0.0
220
0.0
230
1.0
 70
     8
 71
     3
 72
     8
 73
     4
 74
     0
 42
0.000000001
 43
0.00000001
 40
0.0
 40
0.0
 40
0.0
 40
0.0
 40
1.0
 40
1.0
 40
1.0
 40
1.0
 10
-88.5659707139273
 20
73.458020849861
 30
0.0
 10
-88.5659707139273
 20
73.4458535236287
 30
0.0
 10
-88.56125387119286
 20
73.43382493498099
 30
0.0
 10
-88.55427966386391
 20
73.4237126019831
 30
0.0
  0
SPLINE
  5
B5
330
1F
100
AcDbEntity
  8
0
  6
Continuous
 62
     7
370
    25
100
AcDbSpline
210
0.0
220
0.0
230
1.0
 70
     8
 71
     3
 72
    42
 73
    38
 74
     0
 42
0.000000001
 43
0.00000001
 40
0.0
 40
0.0
 40
0.0
 40
0.0
 40
0.0334656523484092
 40
0.0666332017181771
 40
0.0995043132480315
 40
0.1320805873491819
 40
0.1643635493920899
 40
0.1963546406201781
 40
0.2280552103316099
 40
0.2594665093507194
 40
0.2905896847923239
 40
0.3214257761051361
 40
0.3519757123649652
 40
0.3822403107745917
 40
0.4122202763151053
 40
0.4419162024832449
 40
0.4713285730408068
 40
0.500457764695558
 40
0.5293040506281214
 40
0.5578676047760825
 40
0.5861485067847801
 40
0.6141467475339665
 40
0.6418622351505315
 40
0.6692948014195702
 40
0.6964442085092204
 40
0.7233101559287308
 40
0.7498922876437982
 40
0.7761901992786135
 40
0.8022034453396263
 40
0.8279315464020847
 40
0.8533739962066365
 40
0.87853026861948
 40
0.9033998244159274
 40
0.9279821178533735
 40
0.9522766030057614
 40
0.9762827398374521
 40
1.0
 40
1.0
 40
1.0
 40
1.0
 10
-88.55427966386392
 20
73.42371260198317
 30
0.0
 10
-88.62631410603645
 20
73.42380789832677
 30
0.0
 10
-88.76974132705591
 20
73.42399764213988
 30
0.0
 10
-88.98027539347422
 20
73.4244078796305
 30
0.0
 10
-89.1857759072834
 20
73.42488185992745
 30
0.0
 10
-89.3857141638998
 20
73.42541300236763
 30
0.0
 10
-89.57987934810014
 20
73.42598460692612
 30
0.0
 10
-89.76801154278634
 20
73.42658650709737
 30
0.0
 10
-89.94989806087378
 20
73.42721035091408
 30
0.0
 10
-90.12534720606973
 20
73.4278505221579
 30
0.0
 10
-90.2941943508136
 20
73.42850356494218
 30
0.0
 10
-90.45629939839921
 20
73.4291680016162
 30
0.0
 10
-90.61154645730343
 20
73.42984404762493
 30
0.0
 10
-90.75984287430583
 20
73.43053335742192
 30
0.0
 10
-90.90111838863047
 20
73.43123876863075
 30
0.0
 10
-91.0353242134626
 20
73.43196405548555
 30
0.0
 10
-91.16243210343981
 20
73.43271369073277
 30
0.0
 10
-91.28243339969914
 20
73.43349261804728
 30
0.0
 10
-91.39533806138952
 20
73.43430603600318
 30
0.0
 10
-91.50117368760579
 20
73.43515919466772
 30
0.0
 10
-91.5999845346136
 20
73.43605720564398
 30
0.0
 10
-91.69183053262714
 20
73.43700486623169
 30
0.0
 10
-91.77678630611366
 20
73.43800649820912
 30
0.0
 10
-91.85494020152032
 20
73.439065801583
 30
0.0
 10
-91.9263933251301
 20
73.44018572351523
 30
0.0
 10
-91.99125859675158
 20
73.44136834248957
 30
0.0
 10
-92.04965981258634
 20
73.44261476770502
 30
0.0
 10
-92.10173075469051
 20
73.44392505339758
 30
0.0
 10
-92.14761422130813
 20
73.44529812833244
 30
0.0
 10
-92.18746145014995
 20
73.44673173825693
 30
0.0
 10
-92.22143021085803
 20
73.4482224076908
 30
0.0
 10
-92.2496879014257
 20
73.4497653955488
 30
0.0
 10
-92.27239641031318
 20
73.4513547357482
 30
0.0
 10
-92.28976400317502
 20
73.45298302569729
 30
0.0
 10
-92.30185152653549
 20
73.45464219613464
 30
0.0
 10
-92.30927960997353
 20
73.45632073612998
 30
0.0
 10
-92.31018742942895
 20
73.4574564368045
 30
0.0
 10
-92.31063859157501
 20
73.458020849861
 30
0.0
  0
SPLINE
  5
B8
330
1F
100
AcDbEntity
  8
0
  6
Continuous
 62
     7
370
    25
100
AcDbSpline
210
0.0
220
0.0
230
1.0
 70
     8
 71
     3
 72
     8
 73
     4
 74
     0
 42
0.000000001
 43
0.00000001
 40
0.0
 40
0.0
 40
0.0
 40
0.0
 40
1.0
 40
1.0
 40
1.0
 40
1.0
 10
-52.56699751929045
 20
73.4237126019767
 30
0.0
 10
-52.56006177268373
 20
73.43376916840715
 30
0.0
 10
-52.55530646922004
 20
73.44578544336755
 30
0.0
 10
-52.55530646922266
 20
73.458020849861
 30
0.0
  0
SPLINE
  5
B9
330
1F
100
AcDbEntity
  8
0
  6
Continuous
 62
     7
370
    25
100
AcDbSpline
210
0.0
220
0.0
230
1.0
 70
     8
 71
     3
 72
    13
 73
     9
 74
     0
 42
0.000000001
 43
0.00000001
 40
0.0
 40
0.0
 40
0.0
 40
0.0
 40
0.1202338315053918
 40
0.2437801831476534
 40
0.3707072414570923
 40
0.5010778074384068
 40
0.7133291742794414
 40
1.0
 40
1.0
 40
1.0
 40
1.0
 10
-52.55530646922267
 20
73.458020849861
 30
0.0
 10
-52.55540113266279
 20
73.47063212647647
 30
0.0
 10
-52.55559306758231
 20
73.49620212856786
 30
0.0
 10
-52.55709521523875
 20
73.53364437936352
 30
0.0
 10
-52.55948413889551
 20
73.56918607492304
 30
0.0
 10
-52.56349630577333
 20
73.60716928413875
 30
0.0
 10
-52.57079260501866
 20
73.6473572226421
 30
0.0
 10
-52.5775766587282
 20
73.65412958460166
 30
0.0
 10
-52.58147464183587
 20
73.658020849861
 30
0.0
  0
SPLINE
  5
BA
330
1F
100
AcDbEntity
  8
0
  6
Continuous
 62
     7
370
    25
100
AcDbSpline
210
0.0
220
0.0
230
1.0
 70
    24
 71
     3
 72
    20
 73
    16
 74
     0
 42
0.000000001
 43
0.00000001
 40
0.0
 40
0.0
 40
0.0
 40
0.0
 40
0.1249999999999992
 40
0.1249999999999992
 40
0.2499999999999984
 40
0.2499999999999984
 40
0.3749999999999977
 40
0.3749999999999977
 40
0.4999999999999969
 40
0.4999999999999969
 40
0.6249999999999961
 40
0.6249999999999961
 40
0.7499999999999953
 40
0.7499999999999953
 40
1.0
 40
1.0
 40
1.0
 40
1.0
 10
-52.5814746418359
 20
73.658020849861
 30
0.0
 10
-52.32158711219811
 20
73.658020849861
 30
0.0
 10
-52.07070817979796
 20
73.658020849861
 30
0.0
 10
-51.58640966058841
 20
73.65802084986102
 30
0.0
 10
-51.35109935401876
 20
73.65802084986102
 30
0.0
 10
-50.91080348154921
 20
73.65802084986102
 30
0.0
 10
-50.70529913836656
 20
73.65802084986099
 30
0.0
 10
-50.32291659671006
 20
73.65802084986099
 30
0.0
 10
-50.14459422245033
 20
73.65802084986097
 30
0.0
 10
-49.82618420879827
 20
73.65802084986099
 30
0.0
 10
-49.68625193600203
 20
73.65802084986102
 30
0.0
 10
-49.44358486484836
 20
73.65802084986102
 30
0.0
 10
-49.34036866646485
 20
73.65802084986099
 30
0.0
 10
-49.09212331765614
 20
73.65802084986099
 30
0.0
 10
-49.01063859157502
 20
73.65802084986103
 30
0.0
 10
-49.01063859157501
 20
73.658020849861
 30
0.0
  0
SPLINE
  5
BC
330
1F
100
AcDbEntity
  8
0
  6
Continuous
 62
     7
370
    25
100
AcDbSpline
210
0.0
220
0.0
230
1.0
 70
     8
 71
     3
 72
    16
 73
    12
 74
     0
 42
0.000000001
 43
0.00000001
 40
0.0
 40
0.0
 40
0.0
 40
0.0
 40
0.0616256410627758
 40
0.1236314589721687
 40
0.1864201483926323
 40
0.2503796186060055
 40
0.3736530522712709
 40
0.5005201312092619
 40
0.65812178306643
 40
0.8237230998343004
 40
1.0
 40
1.0
 40
1.0
 40
1.0
 10
-53.81063859157501
 20
72.658020849861
 30
0.0
 10
-53.77942935664251
 20
72.65876009037284
 30
0.0
 10
-53.71681835282057
 20
72.66024313187039
 30
0.0
 10
-53.62304083237104
 20
72.67222424239688
 30
0.0
 10
-53.52932857218077
 20
72.6913446917189
 30
0.0
 10
-53.40756619868295
 20
72.72636532089273
 30
0.0
 10
-53.25984359013153
 20
72.78673830138138
 30
0.0
 10
-53.08075457162813
 20
72.89062235011164
 30
0.0
 10
-52.90074125704592
 20
73.0314341437615
 30
0.0
 10
-52.72230412755034
 20
73.21192830049583
 30
0.0
 10
-52.61983298607612
 20
73.35166336626175
 30
0.0
 10
-52.56699751929051
 20
73.42371260197675
 30
0.0
  0
SPLINE
  5
BE
330
1F
100
AcDbEntity
  8
0
  6
Continuous
 62
     7
370
    25
100
AcDbSpline
210
0.0
220
0.0
230
1.0
 70
     8
 71
     3
 72
    16
 73
    12
 74
     0
 42
0.000000001
 43
0.00000001
 40
0.0
 40
0.0
 40
0.0
 40
0.0
 40
0.1068875667877585
 40
0.2096732590778848
 40
0.3088724370582977
 40
0.4050581275278329
 40
0.4988586017104863
 40
0.624994641411421
 40
0.7489577951101263
 40
0.8762190370111301
 40
0.9999999999999999
 40
0.9999999999999999
 40
0.9999999999999999
 40
0.9999999999999999
 10
-88.55427966386394
 20
73.4237126019831
 30
0.0
 10
-88.52276202930251
 20
73.37970056196916
 30
0.0
 10
-88.46093626831349
 20
73.2933654703798
 30
0.0
 10
-88.35935486444573
 20
73.1742375673452
 30
0.0
 10
-88.2536253916619
 20
73.06632615071273
 30
0.0
 10
-88.14300360127811
 20
72.97015838000893
 30
0.0
 10
-88.0139060022539
 20
72.87530204967926
 30
0.0
 10
-87.86286195077496
 20
72.78750687937108
 30
0.0
 10
-87.68547948082846
 20
72.71547225804005
 30
0.0
 10
-87.50060785228912
 20
72.66722444235366
 30
0.0
 10
-87.37337371588056
 20
72.6610602285316
 30
0.0
 10
-87.31063859157501
 20
72.658020849861
 30
0.0
  0
SPLINE
  5
C7
330
1F
100
AcDbEntity
  8
0
  6
Continuous
 62
     7
370
    25
100
AcDbSpline
210
0.0
220
0.0
230
1.0
 70
     8
 71
     3
 72
    17
 73
    13
 74
     0
 42
0.000000001
 43
0.00000001
 40
0.0
 40
0.0
 40
0.0
 40
0.0
 40
0.0783465633648502
 40
0.1586653594052354
 40
0.240957267488222
 40
0.3252231042941666
 40
0.4114636295098675
 40
0.4996795508898822
 40
0.6110427600309942
 40
0.7487867665209768
 40
0.9244524402069926
 40
1.0
 40
1.0
 40
1.0
 40
1.0
 10
-70.56063859157503
 20
62.62733609917046
 30
0.0
 10
-70.67317805618339
 20
62.62721801026463
 30
0.0
 10
-70.90108996236624
 20
62.62697885977892
 30
0.0
 10
-71.24693878331868
 20
62.62510022364307
 30
0.0
 10
-71.60071053524457
 20
62.62211870069856
 30
0.0
 10
-71.96205630463149
 20
62.61791771193198
 30
0.0
 10
-72.33058593810182
 20
62.61252703785917
 30
0.0
 10
-72.73587103021522
 20
62.60542192445531
 30
0.0
 10
-73.21122857221765
 20
62.59553132890513
 30
0.0
 10
-73.80395559178972
 20
62.58173606037659
 30
0.0
 10
-74.33930637532087
 20
62.56869942695001
 30
0.0
 10
-74.67897540297164
 20
62.56048975206028
 30
0.0
 10
-74.78112434560856
 20
62.55802084986107
 30
0.0
  0
SPLINE
  5
CA
330
1F
100
AcDbEntity
  8
0
  6
Continuous
 62
     7
370
    25
100
AcDbSpline
210
0.0
220
0.0
230
1.0
 70
     8
 71
     3
 72
    15
 73
    11
 74
     0
 42
0.000000001
 43
0.00000001
 40
0.0
 40
0.0
 40
0.0
 40
0.0
 40
0.0755449468266151
 40
0.2507360383539786
 40
0.3883748755349744
 40
0.499711132656035
 40
0.6314691824918933
 40
0.7587683053620193
 40
0.8816109856934418
 40
1.0
 40
1.0
 40
1.0
 40
1.0
 10
-66.3401528375415
 20
62.55802084986107
 30
0.0
 10
-66.44229591750413
 20
62.56048956807328
 30
0.0
 10
-66.78131199059614
 20
62.56868332093622
 30
0.0
 10
-67.31583128786036
 20
62.58170169147797
 30
0.0
 10
-67.90767443297892
 20
62.59548103645798
 30
0.0
 10
-68.44415968425054
 20
62.60664498033158
 30
0.0
 10
-68.97009271900677
 20
62.61552453540985
 30
0.0
 10
-69.51562626808634
 20
62.62226166958652
 30
0.0
 10
-70.04405897737126
 20
62.62651675412226
 30
0.0
 10
-70.39057788646174
 20
62.62706636650428
 30
0.0
 10
-70.56063859157503
 20
62.62733609917046
 30
0.0
  0
SPLINE
  5
CB
330
1F
100
AcDbEntity
  8
0
  6
Continuous
 62
     7
370
    25
100
AcDbSpline
210
0.0
220
0.0
230
1.0
 70
     8
 71
     3
 72
    38
 73
    34
 74
     0
 42
0.000000001
 43
0.00000001
 40
0.0
 40
0.0
 40
0.0
 40
0.0
 40
0.0625000000000001
 40
0.0625000000000001
 40
0.1250000000000002
 40
0.1250000000000002
 40
0.1875000000000003
 40
0.1875000000000003
 40
0.2500000000000004
 40
0.2500000000000004
 40
0.3125000000000006
 40
0.3125000000000006
 40
0.3750000000000007
 40
0.3750000000000007
 40
0.4375000000000008
 40
0.4375000000000008
 40
0.5000000000000009
 40
0.5000000000000009
 40
0.562500000000001
 40
0.562500000000001
 40
0.6250000000000011
 40
0.6250000000000011
 40
0.6875000000000012
 40
0.6875000000000012
 40
0.7500000000000013
 40
0.7500000000000013
 40
0.812500000000001
 40
0.812500000000001
 40
0.8750000000000007
 40
0.8750000000000007
 40
0.9375000000000003
 40
0.9375000000000003
 40
1.0
 40
1.0
 40
1.0
 40
1.0
 10
-70.560638591575
 20
61.0447465135778
 30
0.0
 10
-70.05809514748839
 20
61.04474651357781
 30
0.0
 10
-69.52937210990879
 20
61.04670991472715
 30
0.0
 10
-68.42603699722261
 20
61.05587095235458
 30
0.0
 10
-67.85134269124893
 20
61.06307350983523
 30
0.0
 10
-66.6702484390562
 20
61.08412358055169
 30
0.0
 10
-66.06379166065223
 20
61.09797998652775
 30
0.0
 10
-64.84344724788012
 20
61.13364370648188
 30
0.0
 10
-64.22957637126954
 20
61.15546353403215
 30
0.0
 10
-63.02957277584027
 20
61.20793072115453
 30
0.0
 10
-62.4435810223824
 20
61.23859125539684
 30
0.0
 10
-61.34321404725458
 20
61.30878711246386
 30
0.0
 10
-60.82911769249459
 20
61.34833038161598
 30
0.0
 10
-59.91881988718015
 20
61.43516766169146
 30
0.0
 10
-59.5229688677308
 20
61.48245797163758
 30
0.0
 10
-58.88805085809567
 20
61.58240739470079
 30
0.0
 10
-58.64926319136747
 20
61.63504913955504
 30
0.0
 10
-58.34992867562465
 20
61.74237688973272
 30
0.0
 10
-58.28945233591574
 20
61.7970376136243
 30
0.0
 10
-58.34505146371012
 20
61.90480560687415
 30
0.0
 10
-58.46095862283328
 20
61.957890439535
 30
0.0
 10
-58.84597751611071
 20
62.05939429915338
 30
0.0
 10
-59.11478028604351
 20
62.10780215894872
 30
0.0
 10
-59.76821493541498
 20
62.19785591721947
 30
0.0
 10
-60.15254205405991
 20
62.2395031537371
 30
0.0
 10
-60.99537555650508
 20
62.31510092569768
 30
0.0
 10
-61.45367836742244
 20
62.3490607346819
 30
0.0
 10
-62.40646701018072
 20
62.4093303512873
 30
0.0
 10
-62.9008694468829
 20
62.43565153847202
 30
0.0
 10
-63.89582989945655
 20
62.48134058701673
 30
0.0
 10
-64.39639318318152
 20
62.5007180442617
 30
0.0
 10
-65.38264161941919
 20
62.53353896627502
 30
0.0
 10
-65.86837735941931
 20
62.54698885591831
 30
0.0
 10
-66.34015283754148
 20
62.55802084986099
 30
0.0
  0
SPLINE
  5
CC
330
1F
100
AcDbEntity
  8
0
  6
Continuous
 62
     7
370
    25
100
AcDbSpline
210
0.0
220
0.0
230
1.0
 70
     8
 71
     3
 72
    38
 73
    34
 74
     0
 42
0.000000001
 43
0.00000001
 40
0.0
 40
0.0
 40
0.0
 40
0.0
 40
0.0625000000000003
 40
0.0625000000000003
 40
0.1250000000000007
 40
0.1250000000000007
 40
0.1875000000000011
 40
0.1875000000000011
 40
0.2500000000000014
 40
0.2500000000000014
 40
0.3125000000000012
 40
0.3125000000000012
 40
0.3750000000000011
 40
0.3750000000000011
 40
0.4375000000000009
 40
0.4375000000000009
 40
0.5000000000000008
 40
0.5000000000000008
 40
0.5625000000000007
 40
0.5625000000000007
 40
0.6250000000000006
 40
0.6250000000000006
 40
0.6875000000000004
 40
0.6875000000000004
 40
0.7500000000000003
 40
0.7500000000000003
 40
0.8125000000000003
 40
0.8125000000000003
 40
0.8750000000000002
 40
0.8750000000000002
 40
0.9375000000000001
 40
0.9375000000000001
 40
1.0
 40
1.0
 40
1.0
 40
1.0
 10
-74.78112434560855
 20
62.55802084986099
 30
0.0
 10
-75.25289982373066
 20
62.54698885591832
 30
0.0
 10
-75.73863556373084
 20
62.53353896627503
 30
0.0
 10
-76.72488399996853
 20
62.50071804426169
 30
0.0
 10
-77.22544728369346
 20
62.48134058701671
 30
0.0
 10
-78.22040773626716
 20
62.43565153847204
 30
0.0
 10
-78.71481017296931
 20
62.40933035128728
 30
0.0
 10
-79.66759881572762
 20
62.34906073468186
 30
0.0
 10
-80.12590162664493
 20
62.31510092569772
 30
0.0
 10
-80.96873512909012
 20
62.2395031537371
 30
0.0
 10
-81.35306224773504
 20
62.19785591721945
 30
0.0
 10
-82.00649689710652
 20
62.10780215894869
 30
0.0
 10
-82.27529966703933
 20
62.05939429915338
 30
0.0
 10
-82.66031856031675
 20
61.95789043953496
 30
0.0
 10
-82.77622571943989
 20
61.90480560687413
 30
0.0
 10
-82.83182484723426
 20
61.79703761362428
 30
0.0
 10
-82.77134850752536
 20
61.74237688973272
 30
0.0
 10
-82.47201399178252
 20
61.63504913955503
 30
0.0
 10
-82.23322632505436
 20
61.58240739470077
 30
0.0
 10
-81.59830831541919
 20
61.48245797163752
 30
0.0
 10
-81.20245729596986
 20
61.43516766169144
 30
0.0
 10
-80.29215949065538
 20
61.34833038161595
 30
0.0
 10
-79.77806313589545
 20
61.30878711246384
 30
0.0
 10
-78.67769616076761
 20
61.23859125539681
 30
0.0
 10
-78.09170440730972
 20
61.20793072115448
 30
0.0
 10
-76.89170081188047
 20
61.15546353403209
 30
0.0
 10
-76.2778299352699
 20
61.13364370648186
 30
0.0
 10
-75.0574855224978
 20
61.09797998652774
 30
0.0
 10
-74.45102874409382
 20
61.08412358055167
 30
0.0
 10
-73.26993449190111
 20
61.06307350983519
 30
0.0
 10
-72.6952401859274
 20
61.05587095235458
 30
0.0
 10
-71.59190507324126
 20
61.04670991472717
 30
0.0
 10
-71.06318203566163
 20
61.0447465135778
 30
0.0
 10
-70.560638591575
 20
61.0447465135778
 30
0.0
  0
SPLINE
  5
CE
330
1F
100
AcDbEntity
  8
0
  6
Continuous
 62
     7
370
    25
100
AcDbSpline
210
0.0
220
0.0
230
1.0
 70
     8
 71
     3
 72
    10
 73
     6
 74
     0
 42
0.000000001
 43
0.00000001
 40
0.0
 40
0.0
 40
0.0
 40
0.0
 40
0.5
 40
0.5
 40
1.0
 40
1.0
 40
1.0
 40
1.0
 10
-70.560638591575
 20
58.41071274335589
 30
0.0
 10
-67.74683045877254
 20
58.41071274335587
 30
0.0
 10
-64.92190786382126
 20
58.39944477759118
 30
0.0
 10
-59.31652052251407
 20
58.35437291453242
 30
0.0
 10
-56.5362293160897
 20
58.32057041264027
 30
0.0
 10
-53.81063859157501
 20
58.2760291505432
 30
0.0
  0
SPLINE
  5
CF
330
1F
100
AcDbEntity
  8
0
  6
Continuous
 62
     7
370
    25
100
AcDbSpline
210
0.0
220
0.0
230
1.0
 70
     8
 71
     3
 72
    10
 73
     6
 74
     0
 42
0.000000001
 43
0.00000001
 40
0.0
 40
0.0
 40
0.0
 40
0.0
 40
0.5
 40
0.5
 40
1.0
 40
1.0
 40
1.0
 40
1.0
 10
-87.31063859157501
 20
58.2760291505432
 30
0.0
 10
-84.58504786706033
 20
58.32057041264024
 30
0.0
 10
-81.80475666063597
 20
58.35437291453245
 30
0.0
 10
-76.19936931932877
 20
58.39944477759116
 30
0.0
 10
-73.37444672437746
 20
58.41071274335587
 30
0.0
 10
-70.560638591575
 20
58.41071274335589
 30
0.0
  0
SPLINE
  5
D5
330
1F
100
AcDbEntity
  8
0
  6
Continuous
 62
     7
370
    25
100
AcDbSpline
210
0.0
220
0.0
230
1.0
 70
     8
 71
     3
 72
    37
 73
    33
 74
     0
 42
0.000000001
 43
0.00000001
 40
0.0
 40
0.0
 40
0.0
 40
0.0
 40
0.0109188625876255
 40
0.021920566210119
 40
0.0330056615623421
 40
0.0441746242612225
 40
0.0554278591434781
 40
0.0667657046986244
 40
0.0781884376366552
 40
0.0896962775901017
 40
0.1012893919503154
 40
0.1129679008377849
 40
0.1247318822060865
 40
0.1845176309658438
 40
0.2498771595492481
 40
0.2800693112643318
 40
0.3122040391215519
 40
0.3745734472972473
 40
0.4373567462957351
 40
0.4685318730176236
 40
0.4997853063411478
 40
0.5663770662934128
 40
0.6246420312090837
 40
0.6891578556890697
 40
0.7494997158805535
 40
0.8129583763158084
 40
0.8744180837828216
 40
0.9001959970671242
 40
0.9256577687524925
 40
0.950788224213679
 40
0.9755732811823453
 40
1.0
 40
1.0
 40
1.0
 40
1.0
 10
-51.57264308816666
 20
33.0069470391895
 30
0.0
 10
-51.5740917539776
 20
33.15100612988937
 30
0.0
 10
-51.57700007657717
 20
33.44021728265493
 30
0.0
 10
-51.58299646900063
 20
33.87542140124971
 30
0.0
 10
-51.59015782226198
 20
34.31348802079714
 30
0.0
 10
-51.59857951693431
 20
34.75423015772152
 30
0.0
 10
-51.60821080534849
 20
35.19745957371231
 30
0.0
 10
-51.61905219142245
 20
35.6429789145386
 30
0.0
 10
-51.63110236555344
 20
36.09058378604765
 30
0.0
 10
-51.6443728669451
 20
36.54006319091848
 30
0.0
 10
-51.6588848567099
 20
36.99119658336892
 30
0.0
 10
-51.67466890871202
 20
37.44376643183007
 30
0.0
 10
-51.71499988062108
 20
38.51382291712029
 30
0.0
 10
-51.79573087876432
 20
40.24778995272885
 30
0.0
 10
-51.90587312381945
 20
42.14249501618917
 30
0.0
 10
-52.00693494702388
 20
43.6430825964696
 30
0.0
 10
-52.11039468454618
 20
45.07081175341713
 30
0.0
 10
-52.24934544657316
 20
46.7952030788103
 30
0.0
 10
-52.39361595657445
 20
48.39738758344378
 30
0.0
 10
-52.50912318532734
 20
49.60802245008559
 30
0.0
 10
-52.63057101837472
 20
50.80355781990058
 30
0.0
 10
-52.77602037609081
 20
52.15020681869014
 30
0.0
 10
-52.94793096343835
 20
53.61624817610714
 30
0.0
 10
-53.10898026540998
 20
54.86619045999802
 30
0.0
 10
-53.26835321063486
 20
55.96539557565142
 30
0.0
 10
-53.41614209798697
 20
56.85662832085622
 30
0.0
 10
-53.52979847722421
 20
57.41809493783697
 30
0.0
 10
-53.61081184776928
 20
57.74914112782239
 30
0.0
 10
-53.66441416185684
 20
57.93791804793362
 30
0.0
 10
-53.71571691095048
 20
58.08828825288136
 30
0.0
 10
-53.76475332770823
 20
58.20440432788288
 30
0.0
 10
-53.79542461529289
 20
58.2522687358521
 30
0.0
 10
-53.81064859178297
 20
58.27602667622624
 30
0.0
  0
SPLINE
  5
D6
330
1F
100
AcDbEntity
  8
0
  6
Continuous
 62
     7
370
    25
100
AcDbSpline
210
0.0
220
0.0
230
1.0
 70
     8
 71
     3
 72
    38
 73
    34
 74
     0
 42
0.000000001
 43
0.00000001
 40
0.0
 40
0.0
 40
0.0
 40
0.0
 40
0.0328517772815296
 40
0.0656633249789488
 40
0.0984347084876197
 40
0.1311659934436517
 40
0.1638572457246922
 40
0.1965085314507115
 40
0.2291199169847899
 40
0.2616914689339035
 40
0.294223254149713
 40
0.3267153397293471
 40
0.3591677930161896
 40
0.3915806816006657
 40
0.4239540733210269
 40
0.4562880362641349
 40
0.4885826387662477
 40
0.520837949413803
 40
0.553054037044201
 40
0.5852309707465893
 40
0.6173688198626422
 40
0.649467653987346
 40
0.6815275429697754
 40
0.7135485569138793
 40
0.7455307661792544
 40
0.7774742413819273
 40
0.8093790533951317
 40
0.8412452733500826
 40
0.8730729726367539
 40
0.9048622229046523
 40
0.9366130960635913
 40
0.9683256642844607
 40
1.0
 40
1.0
 40
1.0
 40
1.0
 10
-51.57264276694037
 20
33.0069470391898
 30
0.0
 10
-51.76572423781158
 20
33.01662481107876
 30
0.0
 10
-52.1516507361127
 20
33.03596850366409
 30
0.0
 10
-52.7356772694398
 20
33.06381285844501
 30
0.0
 10
-53.32282668771779
 20
33.09077670970129
 30
0.0
 10
-53.91335274286253
 20
33.11677755315003
 30
0.0
 10
-54.50699769841435
 20
33.14183745515023
 30
0.0
 10
-55.10364072047529
 20
33.16595051386835
 30
0.0
 10
-55.70312450988735
 20
33.18911830777648
 30
0.0
 10
-56.3053017194367
 20
33.21134041468043
 30
0.0
 10
-56.91002258733995
 20
33.23261694748
 30
0.0
 10
-57.51713829237173
 20
33.25294787595962
 30
0.0
 10
-58.12650010357358
 20
33.27233320818087
 30
0.0
 10
-58.73795965419082
 20
33.2907729419677
 30
0.0
 10
-59.35136891437087
 20
33.30826707788192
 30
0.0
 10
-59.96658024386794
 20
33.32481561575307
 30
0.0
 10
-60.58344642277987
 20
33.34041855560606
 30
0.0
 10
-61.20182068758366
 20
33.35507589741435
 30
0.0
 10
-61.82155676516934
 20
33.36878764116122
 30
0.0
 10
-62.44250890681932
 20
33.3815537868414
 30
0.0
 10
-63.06453192160487
 20
33.39337433439329
 30
0.0
 10
-63.68748120933544
 20
33.40424928396783
 30
0.0
 10
-64.31121279301863
 20
33.41417863492273
 30
0.0
 10
-64.93558335083651
 20
33.4231623895702
 30
0.0
 10
-65.56045024763092
 20
33.43120053921557
 30
0.0
 10
-66.18567156589637
 20
33.43829311616675
 30
0.0
 10
-66.81110613627138
 20
33.44443999998583
 30
0.0
 10
-67.43661356754076
 20
33.44964163925427
 30
0.0
 10
-68.06205427609008
 20
33.45389636279465
 30
0.0
 10
-68.68728951501289
 20
33.45721039614212
 30
0.0
 10
-69.31218140210977
 20
33.45956054726296
 30
0.0
 10
-69.93659294960055
 20
33.46103321331995
 30
0.0
 10
-70.3527070388403
 20
33.46121554001103
 30
0.0
 10
-70.560638591575
 20
33.4613066483704
 30
0.0
  0
SPLINE
  5
D8
330
1F
100
AcDbEntity
  8
0
  6
Continuous
 62
     7
370
    25
100
AcDbSpline
210
0.0
220
0.0
230
1.0
 70
     8
 71
     3
 72
    38
 73
    34
 74
     0
 42
0.000000001
 43
0.00000001
 40
0.0
 40
0.0
 40
0.0
 40
0.0
 40
0.0316743357155392
 40
0.0633869039364078
 40
0.0951377770953511
 40
0.1269270273632495
 40
0.1587547266499187
 40
0.1906209466048716
 40
0.2225257586180761
 40
0.2544692338207489
 40
0.2864514430861232
 40
0.3184724570302251
 40
0.3505323460126581
 40
0.3826311801373602
 40
0.4147690292534155
 40
0.4469459629558037
 40
0.4791620505862009
 40
0.5114173612337561
 40
0.5437119637358667
 40
0.5760459266789758
 40
0.6084193183993352
 40
0.6408322069838137
 40
0.6732846602706574
 40
0.7057767458502877
 40
0.7383085310660994
 40
0.7708800830152127
 40
0.8034914685492894
 40
0.8361427542753088
 40
0.8688340065563506
 40
0.9015652915123833
 40
0.9343366750210502
 40
0.9671482227184697
 40
1.0
 40
1.0
 40
1.0
 40
1.0
 10
-70.56063859157483
 20
33.4613066483704
 30
0.0
 10
-70.76857014430955
 20
33.46121554001103
 30
0.0
 10
-71.18468423354928
 20
33.46103321331997
 30
0.0
 10
-71.80909578104007
 20
33.45956054726295
 30
0.0
 10
-72.43398766813696
 20
33.45721039614212
 30
0.0
 10
-73.05922290705979
 20
33.45389636279464
 30
0.0
 10
-73.68466361560913
 20
33.4496416392543
 30
0.0
 10
-74.31017104687851
 20
33.44443999998582
 30
0.0
 10
-74.93560561725353
 20
33.43829311616674
 30
0.0
 10
-75.56082693551896
 20
33.43120053921558
 30
0.0
 10
-76.18569383231339
 20
33.42316238957019
 30
0.0
 10
-76.81006439013125
 20
33.41417863492273
 30
0.0
 10
-77.43379597381443
 20
33.40424928396783
 30
0.0
 10
-78.05674526154506
 20
33.39337433439329
 30
0.0
 10
-78.67876827633057
 20
33.38155378684142
 30
0.0
 10
-79.29972041798058
 20
33.36878764116122
 30
0.0
 10
-79.91945649556628
 20
33.35507589741435
 30
0.0
 10
-80.53783076037
 20
33.34041855560605
 30
0.0
 10
-81.15469693928198
 20
33.3248156157531
 30
0.0
 10
-81.769908268779
 20
33.30826707788192
 30
0.0
 10
-82.38331752895911
 20
33.29077294196772
 30
0.0
 10
-82.99477707957631
 20
33.27233320818087
 30
0.0
 10
-83.60413889077815
 20
33.25294787595961
 30
0.0
 10
-84.21125459580996
 20
33.23261694748
 30
0.0
 10
-84.81597546371319
 20
33.21134041468043
 30
0.0
 10
-85.41815267326253
 20
33.18911830777648
 30
0.0
 10
-86.0176364626746
 20
33.16595051386836
 30
0.0
 10
-86.61427948473549
 20
33.14183745515023
 30
0.0
 10
-87.20792444028739
 20
33.11677755315003
 30
0.0
 10
-87.79845049543206
 20
33.0907767097013
 30
0.0
 10
-88.38559991371005
 20
33.06381285844501
 30
0.0
 10
-88.96962644703716
 20
33.03596850366406
 30
0.0
 10
-89.35555294533827
 20
33.01662481107874
 30
0.0
 10
-89.54863441620948
 20
33.0069470391898
 30
0.0
  0
SPLINE
  5
D9
330
1F
100
AcDbEntity
  8
0
  6
Continuous
 62
     7
370
    25
100
AcDbSpline
210
0.0
220
0.0
230
1.0
 70
     8
 71
     3
 72
    34
 73
    30
 74
     0
 42
0.000000001
 43
0.00000001
 40
0.0
 40
0.0
 40
0.0
 40
0.0
 40
0.0004913547890454
 40
0.0009836461200962
 40
0.0019681291970256
 40
0.0039367036968913
 40
0.0078723395907754
 40
0.0157379872191904
 40
0.0314502125008404
 40
0.0628257314616447
 40
0.1255965635888891
 40
0.250428365421086
 40
0.3752038588481652
 40
0.4378065702974381
 40
0.5000928411302734
 40
0.5625222917232374
 40
0.5943526888066388
 40
0.6253373939217779
 40
0.6877225529523984
 40
0.7198641612072281
 40
0.7500651726461739
 40
0.8154400035772981
 40
0.8752420542532511
 40
0.8967482181020795
 40
0.9179674152991815
 40
0.9389004612616313
 40
0.9595487420290517
 40
0.9799143142381617
 40
1.0
 40
1.0
 40
1.0
 40
1.0
 10
-87.31062859136847
 20
58.27602667622667
 30
0.0
 10
-87.31094195307142
 20
58.27561367945683
 30
0.0
 10
-87.31156927375727
 20
58.2747868987287
 30
0.0
 10
-87.31280063928693
 20
58.27310933164536
 30
0.0
 10
-87.31496970657663
 20
58.27012652128744
 30
0.0
 10
-87.31930659880557
 20
58.26396762299726
 30
0.0
 10
-87.32801388860256
 20
58.25088525231871
 30
0.0
 10
-87.34553796196697
 20
58.22166332832821
 30
0.0
 10
-87.38106259608382
 20
58.15103549957278
 30
0.0
 10
-87.45416918862081
 20
57.96113187903372
 30
0.0
 10
-87.60814967522546
 20
57.39099604340655
 30
0.0
 10
-87.85143441679347
 20
56.0470534736995
 30
0.0
 10
-88.12215136729475
 20
54.05474151845599
 30
0.0
 10
-88.3498811182603
 20
52.11460695028167
 30
0.0
 10
-88.52416074052579
 20
50.49414818375975
 30
0.0
 10
-88.67000477488523
 20
49.01070315799537
 30
0.0
 10
-88.78667140902647
 20
47.75194114200998
 30
0.0
 10
-88.89950539844999
 20
46.44657083504295
 30
0.0
 10
-89.01096843844635
 20
45.07081378273181
 30
0.0
 10
-89.11432599114318
 20
43.64309839315683
 30
0.0
 10
-89.21541161669461
 20
42.14252608526718
 30
0.0
 10
-89.32554243369597
 20
40.24777867981569
 30
0.0
 10
-89.41201763764158
 20
38.39058605834506
 30
0.0
 10
-89.46022380936319
 20
37.06991754268694
 30
0.0
 10
-89.48625144846827
 20
36.24344807625889
 30
0.0
 10
-89.50819088062742
 20
35.42303764108181
 30
0.0
 10
-89.52598825777574
 20
34.6099602485227
 30
0.0
 10
-89.54001466290998
 20
33.80545519476227
 30
0.0
 10
-89.54577423465022
 20
33.27188581710163
 30
0.0
 10
-89.54863409498338
 20
33.00694703918949
 30
0.0
  0
SPLINE
  5
DB
330
1F
100
AcDbEntity
  8
0
  6
Continuous
 62
     7
370
    25
100
AcDbSpline
210
0.0
220
0.0
230
1.0
 70
    24
 71
     3
 72
    31
 73
    27
 74
     0
 42
0.000000001
 43
0.00000001
 40
0.0
 40
0.0
 40
0.0
 40
0.0
 40
0.1250000000000001
 40
0.1250000000000001
 40
0.1875000000000002
 40
0.1875000000000002
 40
0.2500000000000003
 40
0.3125000000000004
 40
0.3125000000000004
 40
0.3750000000000006
 40
0.3750000000000006
 40
0.5000000000000008
 40
0.5000000000000008
 40
0.5625000000000008
 40
0.5625000000000008
 40
0.6250000000000007
 40
0.6250000000000007
 40
0.7500000000000004
 40
0.7500000000000004
 40
0.7812500000000002
 40
0.7812500000000002
 40
0.8124999999999999
 40
0.8124999999999999
 40
0.8749999999999998
 40
0.8749999999999998
 40
1.0
 40
1.0
 40
1.0
 40
1.0
 10
-48.81063859157501
 20
63.26591036954029
 30
0.0
 10
-48.81063859157501
 20
63.14110462700591
 30
0.0
 10
-48.81063859157504
 20
62.83863325910681
 30
0.0
 10
-48.81063859157501
 20
62.12364334556486
 30
0.0
 10
-48.81063859157505
 20
61.84256551770575
 30
0.0
 10
-48.81063859157503
 20
61.20274639766318
 30
0.0
 10
-48.81063859157501
 20
60.48393942476004
 30
0.0
 10
-48.81063859157501
 20
59.6098883039061
 30
0.0
 10
-48.810638591575
 20
58.65756388255721
 30
0.0
 10
-48.81063859157502
 20
58.14102553337093
 30
0.0
 10
-48.81063859157502
 20
56.47787350152618
 30
0.0
 10
-48.81063859157503
 20
55.24089157686677
 30
0.0
 10
-48.81063859157501
 20
53.1965864323986
 30
0.0
 10
-48.81063859157499
 20
52.48345922763433
 30
0.0
 10
-48.81063859157499
 20
50.99155400704398
 30
0.0
 10
-48.81063859157499
 20
50.21071079960929
 30
0.0
 10
-48.81063859157498
 20
47.81157046730306
 30
0.0
 10
-48.81063859157502
 20
46.12429818363081
 30
0.0
 10
-48.81063859157501
 20
43.89940313188379
 30
0.0
 10
-48.810638591575
 20
43.44857673683958
 30
0.0
 10
-48.81063859157499
 20
42.53483499902874
 30
0.0
 10
-48.81063859157504
 20
42.07138959887266
 30
0.0
 10
-48.81063859157503
 20
40.67811509048654
 30
0.0
 10
-48.810638591575
 20
39.74045767263891
 30
0.0
 10
-48.810638591575
 20
36.90101338242632
 30
0.0
 10
-48.81063859157502
 20
34.97299690389594
 30
0.0
 10
-48.81063859157501
 20
33.00694703918975
 30
0.0
  0
SPLINE
  5
DD
330
1F
100
AcDbEntity
  8
0
  6
Continuous
 62
     7
370
    25
100
AcDbSpline
210
0.0
220
0.0
230
1.0
 70
    24
 71
     3
 72
    31
 73
    27
 74
     0
 42
0.000000001
 43
0.00000001
 40
0.0
 40
0.0
 40
0.0
 40
0.0
 40
0.1249999999999993
 40
0.1249999999999993
 40
0.1874999999999989
 40
0.1874999999999989
 40
0.2187499999999989
 40
0.2187499999999989
 40
0.2499999999999989
 40
0.2499999999999989
 40
0.3749999999999987
 40
0.3749999999999987
 40
0.4374999999999989
 40
0.4374999999999989
 40
0.4999999999999991
 40
0.4999999999999991
 40
0.6249999999999994
 40
0.6249999999999994
 40
0.6874999999999997
 40
0.6874999999999997
 40
0.7499999999999997
 40
0.8124999999999998
 40
0.8124999999999998
 40
0.8749999999999999
 40
0.8749999999999999
 40
1.0
 40
1.0
 40
1.0
 40
1.0
 10
-92.31063859157501
 20
33.00694703918975
 30
0.0
 10
-92.310638591575
 20
34.97299690389594
 30
0.0
 10
-92.31063859157503
 20
36.90101338242635
 30
0.0
 10
-92.31063859157501
 20
39.74045767263895
 30
0.0
 10
-92.31063859157504
 20
40.67811509048656
 30
0.0
 10
-92.31063859157503
 20
42.07138959887268
 30
0.0
 10
-92.310638591575
 20
42.5348349990287
 30
0.0
 10
-92.31063859157503
 20
43.44857673683959
 30
0.0
 10
-92.31063859157499
 20
43.89940313188379
 30
0.0
 10
-92.31063859157499
 20
46.12429818363079
 30
0.0
 10
-92.31063859157501
 20
47.81157046730311
 30
0.0
 10
-92.310638591575
 20
50.21071079960924
 30
0.0
 10
-92.31063859157501
 20
50.991554007044
 30
0.0
 10
-92.31063859157503
 20
52.48345922763435
 30
0.0
 10
-92.31063859157501
 20
53.1965864323986
 30
0.0
 10
-92.310638591575
 20
55.24089157686675
 30
0.0
 10
-92.310638591575
 20
56.4778735015262
 30
0.0
 10
-92.31063859157501
 20
58.1410255333709
 30
0.0
 10
-92.31063859157497
 20
58.65756388255721
 30
0.0
 10
-92.310638591575
 20
59.6098883039061
 30
0.0
 10
-92.31063859157501
 20
60.48393957569073
 30
0.0
 10
-92.31063859157501
 20
61.20274639766314
 30
0.0
 10
-92.31063859157501
 20
61.84256551770572
 30
0.0
 10
-92.31063859157501
 20
62.12364334556481
 30
0.0
 10
-92.31063859157501
 20
62.83863325910674
 30
0.0
 10
-92.31063859157501
 20
63.14110462700589
 30
0.0
 10
-92.31063859157501
 20
63.26591036954029
 30
0.0
  0
LWPOLYLINE
  5
E3
330
1F
100
AcDbEntity
  8
0
  6
Continuous
 62
     7
370
    25
100
AcDbPolyline
 90
        9
 70
   128
 43
0.0
 10
-51.6621625999
 20
-26.3419791501
 10
-51.6446981469
 20
-26.3381362062
 10
-51.627904843
 20
-26.3267550566
 10
-51.6124280455
 20
-26.3082730726
 10
-51.598862519
 20
-26.2834005064
 10
-51.5877295791
 20
-26.2530931967
 10
-51.5794570585
 20
-26.2185158366
 10
-51.5743628654
 20
-26.1809972145
 10
-51.5726427669
 20
-26.1419791501
  0
LWPOLYLINE
  5
E5
330
1F
100
AcDbEntity
  8
0
  6
Continuous
 62
     7
370
    25
100
AcDbPolyline
 90
        9
 70
   128
 43
0.0
 10
-89.4591145832
 20
-26.3419791501
 10
-89.4765790363
 20
-26.3381362062
 10
-89.4933723402
 20
-26.3267550566
 10
-89.5088491377
 20
-26.3082730726
 10
-89.5224146642
 20
-26.2834005064
 10
-89.5335476041
 20
-26.2530931967
 10
-89.5418201247
 20
-26.2185158366
 10
-89.5469143177
 20
-26.1809972145
 10
-89.5486344162
 20
-26.1419791501
  0
LWPOLYLINE
  5
EE
330
1F
100
AcDbEntity
  8
0
  6
Continuous
 62
     7
370
    25
100
AcDbPolyline
 90
        9
 70
   128
 43
0.0
 10
-48.7097584255
 20
-26.5419791501
 10
-48.7118342917
 20
-26.5029610857
 10
-48.7179821159
 20
-26.4654424637
 10
-48.7279656408
 20
-26.4308651035
 10
-48.7414012049
 20
-26.4005577939
 10
-48.7577724872
 20
-26.3756852277
 10
-48.7764503485
 20
-26.3572032436
 10
-48.7967170089
 20
-26.3458220941
 10
-48.8177936321
 20
-26.3419791501
  0
LWPOLYLINE
  5
F1
330
1F
100
AcDbEntity
  8
0
  6
Continuous
 62
     7
370
    25
100
AcDbPolyline
 90
        9
 70
   128
 43
0.0
 10
-92.303483551
 20
-26.3419791501
 10
-92.3245601743
 20
-26.3458220941
 10
-92.3448268347
 20
-26.3572032436
 10
-92.3635046959
 20
-26.3756852277
 10
-92.3798759782
 20
-26.4005577939
 10
-92.3933115424
 20
-26.4308651035
 10
-92.4032950672
 20
-26.4654424637
 10
-92.4094428914
 20
-26.5029610857
 10
-92.4115187576
 20
-26.5419791501
  0
SPLINE
  5
101
330
1F
100
AcDbEntity
  8
0
  6
Continuous
 62
     8
370
    25
100
AcDbSpline
210
0.0
220
0.0
230
1.0
 70
     8
 71
     3
 72
    13
 73
     9
 74
     0
 42
0.000000001
 43
0.00000001
 40
0.0
 40
0.0
 40
0.0
 40
0.0
 40
0.1135552862377843
 40
0.3838378759505796
 40
0.5285758362223335
 40
0.6794608362593684
 40
0.8365638124689101
 40
0.9999999999999999
 40
0.9999999999999999
 40
0.9999999999999999
 40
0.9999999999999999
 10
-48.91697912358775
 20
73.4506273110225
 30
0.0
 10
-48.93915580763114
 20
73.4484042824994
 30
0.0
 10
-49.01411710252863
 20
73.4408900348165
 30
0.0
 10
-49.50689340204192
 20
73.43560990448795
 30
0.0
 10
-50.1915422967291
 20
73.43118759200428
 30
0.0
 10
-50.86331361890119
 20
73.42828507413479
 30
0.0
 10
-51.65801692240564
 20
73.42538536604303
 30
0.0
 10
-52.26003907005493
 20
73.42427748649185
 30
0.0
 10
-52.56699751929045
 20
73.4237126019767
 30
0.0
  0
LINE
  5
104
330
1F
100
AcDbEntity
  8
0
  6
Continuous
 62
     7
370
    25
100
AcDbLine
 10
-48.8606385916
 20
100.4580208499
 30
0.0
 11
-68.6796805483
 21
100.4580208499
 31
0.0
  0
LINE
  5
105
330
1F
100
AcDbEntity
  8
0
  6
Continuous
 62
     7
370
    25
100
AcDbLine
 10
-52.365863591
 20
98.1759350933
 30
0.0
 11
-52.365863591
 21
100.4580208499
 31
0.0
  0
LINE
  5
106
330
1F
100
AcDbEntity
  8
0
  6
Continuous
 62
     7
370
    25
100
AcDbLine
 10
-68.6858616834
 20
100.6580208499
 30
0.0
 11
-49.0606385916
 21
100.6580208499
 31
0.0
  0
LINE
  5
107
330
1F
100
AcDbEntity
  8
0
  6
Continuous
 62
     7
370
    25
100
AcDbLine
 10
-72.4415966348
 20
100.4580208499
 30
0.0
 11
-92.2606385916
 21
100.4580208499
 31
0.0
  0
LINE
  5
108
330
1F
100
AcDbEntity
  8
0
  6
Continuous
 62
     7
370
    25
100
AcDbLine
 10
-92.0606385916
 20
100.6580208499
 30
0.0
 11
-72.4354154997
 21
100.6580208499
 31
0.0
  0
LINE
  5
109
330
1F
100
AcDbEntity
  8
0
  6
Continuous
 62
     7
370
    25
100
AcDbLine
 10
-88.7554135921
 20
100.4580208499
 30
0.0
 11
-88.7554135921
 21
98.1759350933
 31
0.0
  0
LINE
  5
10A
330
1F
100
AcDbEntity
  8
0
  6
Continuous
 62
     7
370
    25
100
AcDbLine
 10
-51.3606385916
 20
92.3776376425
 30
0.0
 11
-51.3606385916
 21
94.7301251192
 31
0.0
  0
LINE
  5
10B
330
1F
100
AcDbEntity
  8
0
  6
Continuous
 62
     7
370
    25
100
AcDbLine
 10
-89.7606385916
 20
94.219939338
 30
0.0
 11
-51.3606385916
 21
94.219939338
 31
0.0
  0
LINE
  5
10C
330
1F
100
AcDbEntity
  8
0
  6
Continuous
 62
     7
370
    25
100
AcDbLine
 10
-89.7606385916
 20
94.7301251192
 30
0.0
 11
-89.7606385916
 21
92.3776376425
 31
0.0
  0
LINE
  5
10D
330
1F
100
AcDbEntity
  8
0
  6
Continuous
 62
     7
370
    25
100
AcDbLine
 10
-48.8606385916
 20
100.4580208499
 30
0.0
 11
-48.8606385916
 21
94.87611471
 31
0.0
  0
LINE
  5
10E
330
1F
100
AcDbEntity
  8
0
  6
Continuous
 62
     7
370
    25
100
AcDbLine
 10
-92.2606385916
 20
94.87611471
 30
0.0
 11
-92.2606385916
 21
100.4580208499
 31
0.0
  0
LINE
  5
10F
330
1F
100
AcDbEntity
  8
0
  6
Continuous
 62
     7
370
    25
100
AcDbLine
 10
-49.7460625579
 20
84.2205644042
 30
0.0
 11
-48.8606385916
 21
84.2205644042
 31
0.0
  0
LINE
  5
110
330
1F
100
AcDbEntity
  8
0
  6
Continuous
 62
     7
370
    25
100
AcDbLine
 10
-91.3752146252
 20
84.2205644042
 30
0.0
 11
-92.2606385916
 21
84.2205644042
 31
0.0
  0
LINE
  5
111
330
1F
100
AcDbEntity
  8
0
  6
Continuous
 62
     7
370
    25
100
AcDbLine
 10
-49.7460625579
 20
75.6580208499
 30
0.0
 11
-49.7460625579
 21
84.2205644042
 31
0.0
  0
LINE
  5
112
330
1F
100
AcDbEntity
  8
0
  6
Continuous
 62
     7
370
    25
100
AcDbLine
 10
-92.2606385916
 20
75.6580208499
 30
0.0
 11
-48.8606385916
 21
75.6580208499
 31
0.0
  0
LINE
  5
113
330
1F
100
AcDbEntity
  8
0
  6
Continuous
 62
     7
370
    25
100
AcDbLine
 10
-91.3752146252
 20
84.2205644042
 30
0.0
 11
-91.3752146252
 21
75.6580208499
 31
0.0
  0
LINE
  5
114
330
1F
100
AcDbEntity
  8
0
  6
Continuous
 62
     7
370
    25
100
AcDbLine
 10
-48.8606385916
 20
84.2205644042
 30
0.0
 11
-48.8606385916
 21
75.6580208499
 31
0.0
  0
LINE
  5
115
330
1F
100
AcDbEntity
  8
0
  6
Continuous
 62
     7
370
    25
100
AcDbLine
 10
-92.2606385916
 20
75.6580208499
 30
0.0
 11
-92.2606385916
 21
84.2205644042
 31
0.0
  0
LINE
  5
116
330
1F
100
AcDbEntity
  8
0
  6
Continuous
 62
     7
370
    25
100
AcDbLine
 10
-48.8106385916
 20
73.4580208499
 30
0.0
 11
-48.9169791236
 21
73.450627311
 31
0.0
  0
LINE
  5
117
330
1F
100
AcDbEntity
  8
0
  6
Continuous
 62
     7
370
    25
100
AcDbLine
 10
-87.3106385916
 20
72.6580208499
 30
0.0
 11
-53.8106385916
 21
72.6580208499
 31
0.0
  0
LINE
  5
118
330
1F
100
AcDbEntity
  8
0
  6
Continuous
 62
     7
370
    25
100
AcDbLine
 10
-52.5553064692
 20
73.4580208499
 30
0.0
 11
-88.5659707139
 21
73.4580208499
 31
0.0
  0
LINE
  5
119
330
1F
100
AcDbEntity
  8
0
  6
Continuous
 62
     7
370
    25
100
AcDbLine
 10
-53.8106385916
 20
58.2760291505
 30
0.0
 11
-53.8106385916
 21
72.6580208499
 31
0.0
  0
LINE
  5
11A
330
1F
100
AcDbEntity
  8
0
  6
Continuous
 62
     7
370
    25
100
AcDbLine
 10
-48.8106385916
 20
73.4580208499
 30
0.0
 11
-48.8106385916
 21
63.2659103695
 31
0.0
  0
LINE
  5
11B
330
1F
100
AcDbEntity
  8
0
  6
Continuous
 62
     7
370
    25
100
AcDbLine
 10
-87.3106385916
 20
72.6580208499
 30
0.0
 11
-87.3106385916
 21
58.2760291505
 31
0.0
  0
LINE
  5
11C
330
1F
100
AcDbEntity
  8
0
  6
Continuous
 62
     7
370
    25
100
AcDbLine
 10
-92.3106385916
 20
63.2659103695
 30
0.0
 11
-92.3106385916
 21
73.4580208499
 31
0.0
  0
LINE
  5
11D
330
1F
100
AcDbEntity
  8
0
  6
Continuous
 62
     7
370
    25
100
AcDbLine
 10
-89.5606385916
 20
73.6580208499
 30
0.0
 11
-52.5814746418
 21
73.6580208499
 31
0.0
  0
LINE
  5
11E
330
1F
100
AcDbEntity
  8
0
  6
Continuous
 62
     7
370
    25
100
AcDbLine
 10
-87.3106385916
 20
62.5580208499
 30
0.0
 11
-74.7811243456
 21
62.5580208499
 31
0.0
  0
LINE
  5
11F
330
1F
100
AcDbEntity
  8
0
  6
Continuous
 62
     7
370
    25
100
AcDbLine
 10
-66.3401528375
 20
62.5580208499
 30
0.0
 11
-53.8106385916
 21
62.5580208499
 31
0.0
  0
LINE
  5
120
330
1F
100
AcDbEntity
  8
0
  6
Continuous
 62
     7
370
    25
100
AcDbLine
 10
-70.5606385916
 20
-26.5419791501
 30
0.0
 11
-70.5606385916
 21
58.4107127434
 31
0.0
  0
LINE
  5
121
330
1F
100
AcDbEntity
  8
0
  6
Continuous
 62
     7
370
    25
100
AcDbLine
 10
-51.5726427669
 20
33.0069470392
 30
0.0
 11
-48.8106385916
 21
33.0069470392
 31
0.0
  0
LINE
  5
122
330
1F
100
AcDbEntity
  8
0
  6
Continuous
 62
     7
370
    25
100
AcDbLine
 10
-92.3106385916
 20
33.0069470392
 30
0.0
 11
-89.5486344162
 21
33.0069470392
 31
0.0
  0
LINE
  5
123
330
1F
100
AcDbEntity
  8
0
  6
Continuous
 62
     7
370
    25
100
AcDbLine
 10
-89.5486344162
 20
33.0069470392
 30
0.0
 11
-89.5486344162
 21
-26.1419791501
 31
0.0
  0
LINE
  5
124
330
1F
100
AcDbEntity
  8
0
  6
Continuous
 62
     7
370
    25
100
AcDbLine
 10
-92.3106385916
 20
-26.1419791501
 30
0.0
 11
-48.8106385916
 21
-26.1419791501
 31
0.0
  0
LINE
  5
125
330
1F
100
AcDbEntity
  8
0
  6
Continuous
 62
     7
370
    25
100
AcDbLine
 10
-51.5726427669
 20
-26.1419791501
 30
0.0
 11
-51.5726427669
 21
33.0069470392
 31
0.0
  0
LINE
  5
126
330
1F
100
AcDbEntity
  8
0
  6
Continuous
 62
     7
370
    25
100
AcDbLine
 10
-48.8106385916
 20
33.0069470392
 30
0.0
 11
-48.8106385916
 21
-26.1419791501
 31
0.0
  0
LINE
  5
127
330
1F
100
AcDbEntity
  8
0
  6
Continuous
 62
     7
370
    25
100
AcDbLine
 10
-92.3106385916
 20
-26.1419791501
 30
0.0
 11
-92.3106385916
 21
33.0069470392
 31
0.0
  0
LINE
  5
128
330
1F
100
AcDbEntity
  8
0
  6
Continuous
 62
     7
370
    25
100
AcDbLine
 10
-94.5106385916
 20
-26.3419791501
 30
0.0
 11
-46.6106385916
 21
-26.3419791501
 31
0.0
  0
LINE
  5
129
330
1F
100
AcDbEntity
  8
0
  6
Continuous
 62
     7
370
    25
100
AcDbLine
 10
-46.4106385916
 20
-26.5419791501
 30
0.0
 11
-94.7106385916
 21
-26.5419791501
 31
0.0
  0
LINE
  5
12A
330
1F
100
AcDbEntity
  8
0
  6
Continuous
 62
     7
370
    25
100
AcDbLine
 10
-48.7097584255
 20
-31.2419791501
 30
0.0
 11
-48.7097584255
 21
-26.5419791501
 31
0.0
  0
LINE
  5
12B
330
1F
100
AcDbEntity
  8
0
  6
Continuous
 62
     7
370
    25
100
AcDbLine
 10
-94.7106385916
 20
-31.2419791501
 30
0.0
 11
-46.4106385916
 21
-31.2419791501
 31
0.0
  0
LINE
  5
12C
330
1F
100
AcDbEntity
  8
0
  6
Continuous
 62
     7
370
    25
100
AcDbLine
 10
-92.4115187576
 20
-26.5419791501
 30
0.0
 11
-92.4115187576
 21
-31.2419791501
 31
0.0
  0
LINE
  5
12D
330
1F
100
AcDbEntity
  8
0
  6
Continuous
 62
     7
370
    25
100
AcDbLine
 10
-94.7106385916
 20
-31.2419791501
 30
0.0
 11
-94.7106385916
 21
-26.5419791501
 31
0.0
  0
LINE
  5
12E
330
1F
100
AcDbEntity
  8
0
  6
Continuous
 62
     7
370
    25
100
AcDbLine
 10
-46.4106385916
 20
-26.5419791501
 30
0.0
 11
-46.4106385916
 21
-31.2419791501
 31
0.0
  0
LINE
  5
12F
330
1F
100
AcDbEntity
  8
0
  6
Continuous
 62
     8
370
    25
100
AcDbLine
 10
-70.5606385916
 20
62.6273360992
 30
0.0
 11
-70.5606385916
 21
61.0447465136
 31
0.0
  0
LINE
  5
130
330
1F
100
AcDbEntity
  8
0
  6
Continuous
 62
     8
370
    25
100
AcDbLine
 10
-70.5606385916
 20
75.6580208499
 30
0.0
 11
-70.5606385916
 21
73.6580208499
 31
0.0
  0
ARC
  5
131
330
1F
100
AcDbEntity
  8
0
  6
Continuous
 62
     7
370
    25
100
AcDbCircle
 10
-70.8191349575
 20
100.5079730918
 30
0.0
 40
1.623230458358107
100
AcDbArc
 50
174.6961358046
 51
181.7634615876
  0
ARC
  5
132
330
1F
100
AcDbEntity
  8
0
  6
Continuous
 62
     7
370
    25
100
AcDbCircle
 10
-70.3021422256
 20
100.5079730918
 30
0.0
 40
1.623230458325753
100
AcDbArc
 50
358.2365384124
 51
5.3038641955
  0
ARC
  5
133
330
1F
100
AcDbEntity
  8
0
  6
Continuous
 62
     7
370
    25
100
AcDbCircle
 10
-58.0126934802
 20
98.944032984
 30
0.0
 40
5.698829894545943
100
AcDbArc
 50
329.2860320701
 51
352.2540040677
  0
ARC
  5
134
330
1F
100
AcDbEntity
  8
0
  6
Continuous
 62
     7
370
    25
100
AcDbCircle
 10
-83.108583703
 20
98.944032984
 30
0.0
 40
5.698829894545568
100
AcDbArc
 50
187.7459959323
 51
210.7139679299
  0
ARC
  5
135
330
1F
100
AcDbEntity
  8
0
  6
Continuous
 62
     7
370
    25
100
AcDbCircle
 10
-51.3108479378
 20
97.180378256
 30
0.0
 40
2.450758972965047
100
AcDbArc
 50
268.8358746659
 51
358.7865290912
  0
ARC
  5
136
330
1F
100
AcDbEntity
  8
0
  6
Continuous
 62
     7
370
    25
100
AcDbCircle
 10
-89.8104292453
 20
97.180378256
 30
0.0
 40
2.450758972965047
100
AcDbArc
 50
181.2134709088
 51
271.1641253341
  0
ARC
  5
137
330
1F
100
AcDbEntity
  8
0
  6
Continuous
 62
     7
370
    25
100
AcDbCircle
 10
-92.0606385916
 20
100.4580208499
 30
0.0
 40
0.2000000000000313
100
AcDbArc
 50
90.0
 51
180.0
  0
ARC
  5
138
330
1F
100
AcDbEntity
  8
0
  6
Continuous
 62
     7
370
    25
100
AcDbCircle
 10
-49.0606385916
 20
100.4580208499
 30
0.0
 40
0.1999999999999957
100
AcDbArc
 50
360.0
 51
90.0
  0
ARC
  5
139
330
1F
100
AcDbEntity
  8
0
  6
Continuous
 62
     7
370
    25
100
AcDbCircle
 10
-51.3598773573
 20
96.7191781039
 30
0.0
 40
2.499238881778424
100
AcDbArc
 50
269.9825484818
 51
359.9825378443
  0
ARC
  5
13A
330
1F
100
AcDbEntity
  8
0
  6
Continuous
 62
     7
370
    25
100
AcDbCircle
 10
-89.7613998259
 20
96.7191781039
 30
0.0
 40
2.499238881778424
100
AcDbArc
 50
180.0174621557
 51
270.0174515182
  0
ARC
  5
13B
330
1F
100
AcDbEntity
  8
0
  6
Continuous
 62
     7
370
    25
100
AcDbCircle
 10
-89.7613998259
 20
94.8768764083
 30
0.0
 40
2.499238881778381
100
AcDbArc
 50
180.0174621557
 51
270.0174515182
  0
ARC
  5
13C
330
1F
100
AcDbEntity
  8
0
  6
Continuous
 62
     7
370
    25
100
AcDbCircle
 10
-51.3598773573
 20
94.8768764083
 30
0.0
 40
2.499238881778389
100
AcDbArc
 50
269.9825484818
 51
359.9825378443
  0
ARC
  5
13D
330
1F
100
AcDbEntity
  8
0
  6
Continuous
 62
     7
370
    25
100
AcDbCircle
 10
-92.1106385916
 20
73.4580208499
 30
0.0
 40
0.2000000000000028
100
AcDbArc
 50
90.0
 51
180.0
  0
ARC
  5
13E
330
1F
100
AcDbEntity
  8
0
  6
Continuous
 62
     7
370
    25
100
AcDbCircle
 10
-49.0106385916
 20
73.4580208499
 30
0.0
 40
0.2000000000000242
100
AcDbArc
 50
0.0
 51
90.0
  0
ARC
  5
13F
330
1F
100
AcDbEntity
  8
0
  6
Continuous
 62
     7
370
    25
100
AcDbCircle
 10
-53.8053766627
 20
67.5527585103
 30
0.0
 40
4.994740432157911
100
AcDbArc
 50
269.9396392317
 51
359.9442906701
  0
ARC
  5
140
330
1F
100
AcDbEntity
  8
0
  6
Continuous
 62
     7
370
    25
100
AcDbCircle
 10
-87.3154852048
 20
67.5531746681
 30
0.0
 40
4.995156169525493
100
AcDbArc
 50
180.0604781376
 51
270.0555919606
  0
ARC
  5
141
330
1F
100
AcDbEntity
  8
0
  6
Continuous
 62
     7
370
    25
100
AcDbCircle
 10
-87.3154852048
 20
63.2711829688
 30
0.0
 40
4.995156169525456
100
AcDbArc
 50
180.0604781376
 51
270.0555919606
  0
ARC
  5
142
330
1F
100
AcDbEntity
  8
0
  6
Continuous
 62
     7
370
    25
100
AcDbCircle
 10
-53.8053766627
 20
63.270766811
 30
0.0
 40
4.994740432157911
100
AcDbArc
 50
269.9396392317
 51
359.9442906701
  0
ARC
  5
143
330
1F
100
AcDbEntity
  8
0
  6
Continuous
 62
     7
370
    25
100
AcDbCircle
 10
-92.1106385916
 20
-26.1419791501
 30
0.0
 40
0.2000000000000028
100
AcDbArc
 50
180.0
 51
270.0
  0
ARC
  5
144
330
1F
100
AcDbEntity
  8
0
  6
Continuous
 62
     7
370
    25
100
AcDbCircle
 10
-49.0106385916
 20
-26.1419791501
 30
0.0
 40
0.2000000000000028
100
AcDbArc
 50
270.0
 51
0.0
  0
ARC
  5
145
330
1F
100
AcDbEntity
  8
0
  6
Continuous
 62
     7
370
    25
100
AcDbCircle
 10
-94.5106385916
 20
-26.5419791501
 30
0.0
 40
0.1999999999999886
100
AcDbArc
 50
90.0
 51
180.0
  0
ARC
  5
146
330
1F
100
AcDbEntity
  8
0
  6
Continuous
 62
     7
370
    25
100
AcDbCircle
 10
-46.6106385916
 20
-26.5419791501
 30
0.0
 40
0.2000000000000242
100
AcDbArc
 50
0.0
 51
90.0
  0
SPLINE
  5
1F5
330
23
100
AcDbEntity
 67
     1
  8
0
  6
Continuous
 62
     7
370
    25
100
AcDbSpline
210
0.0
220
0.0
230
1.0
 70
     8
 71
     3
 72
    20
 73
    16
 74
     0
 42
0.000000001
 43
0.00000001
 40
0.0
 40
0.0
 40
0.0
 40
0.0
 40
0.0039063293098246
 40
0.0078128324098271
 40
0.0156258230923247
 40
0.0312517430632332
 40
0.062503343092493
 40
0.1250056324945788
 40
0.2500070072874035
 40
0.5000008699234056
 40
0.7499949073678168
 40
0.8749964918334024
 40
0.9374989114586757
 40
0.9687505813539712
 40
1.0
 40
1.0
 40
1.0
 40
1.0
 10
-68.67968140625138
 20
-47.98444686290338
 30
0.0
 10
-68.68457823792886
 20
-47.9845977928289
 30
0.0
 10
-68.69437211914084
 20
-47.98489965939471
 30
0.0
 10
-68.7139601823804
 20
-47.98549720595985
 30
0.0
 10
-68.74823999113532
 20
-47.98653065441142
 30
0.0
 10
-68.8168007479981
 20
-47.98854575431805
 30
0.0
 10
-68.95392673830973
 20
-47.99237153754629
 30
0.0
 10
-69.22819549618728
 20
-47.99920988355743
 30
0.0
 10
-69.77679163794515
 20
-48.00967610850326
 30
0.0
 10
-70.56063791135487
 20
-48.01562807454964
 30
0.0
 10
-71.34448460182784
 20
-48.00970006225904
 30
0.0
 10
-71.89308175083373
 20
-47.99925100362204
 30
0.0
 10
-72.16735078795492
 20
-47.99240026353987
 30
0.0
 10
-72.32406393921482
 20
-47.98804184828239
 30
0.0
 10
-72.4024143549539
 20
-47.98566533390576
 30
0.0
 10
-72.44158815175747
 20
-47.9844771195177
 30
0.0
  0
SPLINE
  5
1F7
330
23
100
AcDbEntity
 67
     1
  8
0
  6
Continuous
 62
     7
370
    25
100
AcDbSpline
210
0.0
220
0.0
230
1.0
 70
     8
 71
     3
 72
     8
 73
     4
 74
     0
 42
0.000000001
 43
0.00000001
 40
0.0
 40
0.0
 40
0.0
 40
0.0
 40
1.0
 40
1.0
 40
1.0
 40
1.0
 10
-72.43541549971418
 20
-47.78454974944821
 30
0.0
 10
-71.18556422760705
 20
-47.823195708253
 30
0.0
 10
-69.93571295549994
 20
-47.8231957082525
 30
0.0
 10
-68.68586168339284
 20
-47.7845497494468
 30
0.0
  0
SPLINE
  5
218
330
23
100
AcDbEntity
 67
     1
  8
0
  6
Continuous
 62
     7
370
    25
100
AcDbSpline
210
0.0
220
0.0
230
1.0
 70
     8
 71
     3
 72
    31
 73
    27
 74
     0
 42
0.000000001
 43
0.00000001
 40
0.0
 40
0.0
 40
0.0
 40
0.0
 40
0.0346852082511002
 40
0.0699842140815639
 40
0.1058953505868879
 40
0.1424169221242157
 40
0.1795472446111473
 40
0.2172846882448145
 40
0.2556277222814153
 40
0.2945749613935774
 40
0.3341252129958771
 40
0.3742775248007228
 40
0.4150312317414078
 40
0.4563860012811883
 40
0.4983418760218635
 40
0.5408993124384753
 40
0.5840592145043699
 40
0.6278229609397317
 40
0.6721924248225584
 40
0.7171699843502085
 40
0.7627585236366017
 40
0.8089614225789846
 40
0.8557825350303612
 40
0.9032261547695781
 40
0.9512969690675341
 40
1.0
 40
1.0
 40
1.0
 40
1.0
 10
-48.81063859157501
 20
-74.0547631945661
 30
0.0
 10
-48.81160395828656
 20
-74.13217218387273
 30
0.0
 10
-48.81355177506538
 20
-74.28836001011415
 30
0.0
 10
-48.82956909735996
 20
-74.52424811936797
 30
0.0
 10
-48.85584443469337
 20
-74.76328739441824
 30
0.0
 10
-48.89387933176864
 20
-75.00490871260868
 30
0.0
 10
-48.94395002620924
 20
-75.24848529872969
 30
0.0
 10
-49.00663838254262
 20
-75.4933323438624
 30
0.0
 10
-49.08240459013494
 20
-75.73870660164032
 30
0.0
 10
-49.17169764565787
 20
-75.98380648483898
 30
0.0
 10
-49.27491780087703
 20
-76.22777257031146
 30
0.0
 10
-49.39241936141103
 20
-76.46968858995615
 30
0.0
 10
-49.52450215834429
 20
-76.70858293980007
 30
0.0
 10
-49.67140591704752
 20
-76.94343074940846
 30
0.0
 10
-49.83330367089983
 20
-77.17315655878753
 30
0.0
 10
-50.0102953412326
 20
-77.39663761451106
 30
0.0
 10
-50.20240121670728
 20
-77.61270792828282
 30
0.0
 10
-50.40955557709299
 20
-77.82016272870635
 30
0.0
 10
-50.63160010394601
 20
-78.01776487638442
 30
0.0
 10
-50.8682786857238
 20
-78.20424740516785
 30
0.0
 10
-51.11922786814424
 20
-78.37833454814103
 30
0.0
 10
-51.38398522290569
 20
-78.53869618986242
 30
0.0
 10
-51.66193123168865
 20
-78.68415971034818
 30
0.0
 10
-51.95248648011505
 20
-78.81294577699433
 30
0.0
 10
-52.25433957475546
 20
-78.92562369978043
 30
0.0
 10
-52.46232528583585
 20
-78.98409875815499
 30
0.0
 10
-52.56699751929045
 20
-79.01352729403688
 30
0.0
  0
SPLINE
  5
219
330
23
100
AcDbEntity
 67
     1
  8
0
  6
Continuous
 62
     7
370
    25
100
AcDbSpline
210
0.0
220
0.0
230
1.0
 70
     8
 71
     3
 72
    42
 73
    38
 74
     0
 42
0.000000001
 43
0.00000001
 40
0.0
 40
0.0
 40
0.0
 40
0.0
 40
0.0334656523484092
 40
0.0666332017181771
 40
0.0995043132480315
 40
0.1320805873491819
 40
0.1643635493920899
 40
0.1963546406201781
 40
0.2280552103316099
 40
0.2594665093507194
 40
0.2905896847923239
 40
0.3214257761051361
 40
0.3519757123649652
 40
0.3822403107745917
 40
0.4122202763151053
 40
0.4419162024832449
 40
0.4713285730408068
 40
0.500457764695558
 40
0.5293040506281214
 40
0.5578676047760825
 40
0.5861485067847801
 40
0.6141467475339665
 40
0.6418622351505315
 40
0.6692948014195702
 40
0.6964442085092204
 40
0.7233101559287308
 40
0.7498922876437982
 40
0.7761901992786135
 40
0.8022034453396263
 40
0.8279315464020847
 40
0.8533739962066365
 40
0.87853026861948
 40
0.9033998244159274
 40
0.9279821178533735
 40
0.9522766030057614
 40
0.9762827398374521
 40
1.0
 40
1.0
 40
1.0
 40
1.0
 10
-88.55427966386392
 20
-79.01352729403689
 30
0.0
 10
-88.62631410603645
 20
-78.99373689070404
 30
0.0
 10
-88.76974132705591
 20
-78.95433237159791
 30
0.0
 10
-88.98027539347422
 20
-78.88330111450513
 30
0.0
 10
-89.1857759072834
 20
-78.80433421056803
 30
0.0
 10
-89.3857141638998
 20
-78.7169577693579
 30
0.0
 10
-89.57987934810014
 20
-78.62181542220118
 30
0.0
 10
-89.76801154278634
 20
-78.51926112857932
 30
0.0
 10
-89.94989806087378
 20
-78.4097291233844
 30
0.0
 10
-90.12534720606973
 20
-78.29363418204218
 30
0.0
 10
-90.2941943508136
 20
-78.17139614478181
 30
0.0
 10
-90.45629939839921
 20
-78.04343170320011
 30
0.0
 10
-90.61154645730343
 20
-77.91015494654413
 30
0.0
 10
-90.75984287430583
 20
-77.77197569980846
 30
0.0
 10
-90.90111838863047
 20
-77.62929855166595
 30
0.0
 10
-91.0353242134626
 20
-77.48252180531145
 30
0.0
 10
-91.16243210343981
 20
-77.3320365533717
 30
0.0
 10
-91.28243339969914
 20
-77.17822582185278
 30
0.0
 10
-91.39533806138952
 20
-77.02146379544429
 30
0.0
 10
-91.50117368760579
 20
-76.86211511841012
 30
0.0
 10
-91.5999845346136
 20
-76.7005342698107
 30
0.0
 10
-91.69183053262714
 20
-76.53706501038643
 30
0.0
 10
-91.77678630611366
 20
-76.37203989861396
 30
0.0
 10
-91.85494020152032
 20
-76.2057798732417
 30
0.0
 10
-91.9263933251301
 20
-76.03859389953509
 30
0.0
 10
-91.99125859675158
 20
-75.8707786763853
 30
0.0
 10
-92.04965981258634
 20
-75.70261840138035
 30
0.0
 10
-92.10173075469051
 20
-75.53438459089925
 30
0.0
 10
-92.14761422130813
 20
-75.3663359522911
 30
0.0
 10
-92.18746145014995
 20
-75.19871830512973
 30
0.0
 10
-92.22143021085803
 20
-75.03176454879927
 30
0.0
 10
-92.2496879014257
 20
-74.86569467277509
 30
0.0
 10
-92.27239641031318
 20
-74.70071580935448
 30
0.0
 10
-92.28976400317502
 20
-74.5370223163562
 30
0.0
 10
-92.30185152653549
 20
-74.37479592240575
 30
0.0
 10
-92.30927960997353
 20
-74.21420580233305
 30
0.0
 10
-92.31018742942895
 20
-74.1076958236866
 30
0.0
 10
-92.31063859157501
 20
-74.0547631945661
 30
0.0
  0
SPLINE
  5
21B
330
23
100
AcDbEntity
 67
     1
  8
0
  6
Continuous
 62
     7
370
    25
100
AcDbSpline
210
0.0
220
0.0
230
1.0
 70
     8
 71
     3
 72
    13
 73
     9
 74
     0
 42
0.000000001
 43
0.00000001
 40
0.0
 40
0.0
 40
0.0
 40
0.0
 40
0.11756559684613
 40
0.2417490961192906
 40
0.3706617728536272
 40
0.5019058680407996
 40
0.6418559105577695
 40
1.0
 40
1.0
 40
1.0
 40
1.0
 10
-88.56597115234467
 20
-79.01352895908262
 30
0.0
 10
-88.56589858937156
 20
-79.01286500956262
 30
0.0
 10
-88.56574937877225
 20
-79.01149973604184
 30
0.0
 10
-88.56433006583968
 20
-79.00021818337667
 30
0.0
 10
-88.56191782950918
 20
-78.98166861720362
 30
0.0
 10
-88.55824087382543
 20
-78.95509770671292
 30
0.0
 10
-88.55254299502197
 20
-78.90354153588338
 30
0.0
 10
-88.54513209822426
 20
-78.85118007293318
 30
0.0
 10
-88.5398034490488
 20
-78.81353066639149
 30
0.0
  0
SPLINE
  5
21D
330
23
100
AcDbEntity
 67
     1
  8
0
  6
Continuous
 62
     7
370
    25
100
AcDbSpline
210
0.0
220
0.0
230
1.0
 70
     8
 71
     3
 72
    13
 73
     9
 74
     0
 42
0.000000001
 43
0.00000001
 40
0.0
 40
0.0
 40
0.0
 40
0.0
 40
0.1202338315053918
 40
0.2437801831476534
 40
0.3707072414570923
 40
0.5010778074384068
 40
0.7133291742794414
 40
1.0
 40
1.0
 40
1.0
 40
1.0
 10
-52.55530646922267
 20
-79.01352729403702
 30
0.0
 10
-52.55540113266279
 20
-79.01283500292625
 30
0.0
 10
-52.55559306758231
 20
-79.01143134763502
 30
0.0
 10
-52.55709521523875
 20
-78.99998258760999
 30
0.0
 10
-52.55948413889551
 20
-78.98147336591244
 30
0.0
 10
-52.56349630577333
 20
-78.95022649843098
 30
0.0
 10
-52.57079260501866
 20
-78.89584318270042
 30
0.0
 10
-52.5775766587282
 20
-78.8435651930813
 30
0.0
 10
-52.58147464183587
 20
-78.81352729403702
 30
0.0
  0
SPLINE
  5
21E
330
23
100
AcDbEntity
 67
     1
  8
0
  6
Continuous
 62
     7
370
    25
100
AcDbSpline
210
0.0
220
0.0
230
1.0
 70
     8
 71
     3
 72
    20
 73
    16
 74
     0
 42
0.000000001
 43
0.00000001
 40
0.0
 40
0.0
 40
0.0
 40
0.0
 40
0.1249999999999992
 40
0.1249999999999992
 40
0.2499999999999984
 40
0.2499999999999984
 40
0.3749999999999977
 40
0.3749999999999977
 40
0.4999999999999969
 40
0.4999999999999969
 40
0.6249999999999961
 40
0.6249999999999961
 40
0.7499999999999953
 40
0.7499999999999953
 40
1.0
 40
1.0
 40
1.0
 40
1.0
 10
-52.5814746418359
 20
-78.81352729403702
 30
0.0
 10
-52.32158711219811
 20
-78.74357335306703
 30
0.0
 10
-52.07070817979796
 20
-78.65245216343718
 30
0.0
 10
-51.58640966058841
 20
-78.4291860487608
 30
0.0
 10
-51.35109935401876
 20
-78.29557127652659
 30
0.0
 10
-50.91080348154921
 20
-77.99399342591424
 30
0.0
 10
-50.70529913836656
 20
-77.8263235319479
 30
0.0
 10
-50.32291659671006
 20
-77.45798384774963
 30
0.0
 10
-50.14459422245033
 20
-77.25521321146991
 30
0.0
 10
-49.82618420879827
 20
-76.82603433576699
 30
0.0
 10
-49.68625193600203
 20
-76.60068580152505
 30
0.0
 10
-49.44358486484836
 20
-76.12922306417735
 30
0.0
 10
-49.34036866646485
 20
-75.8815482649175
 30
0.0
 10
-49.09212331765614
 20
-75.11663522644659
 30
0.0
 10
-49.01063859157502
 20
-74.59255543233601
 30
0.0
 10
-49.01063859157501
 20
-74.05476319456619
 30
0.0
  0
SPLINE
  5
21F
330
23
100
AcDbEntity
 67
     1
  8
0
  6
Continuous
 62
     7
370
    25
100
AcDbSpline
210
0.0
220
0.0
230
1.0
 70
     8
 71
     3
 72
    20
 73
    16
 74
     0
 42
0.000000001
 43
0.00000001
 40
0.0
 40
0.0
 40
0.0
 40
0.0
 40
0.2499999999999953
 40
0.2499999999999953
 40
0.3749999999999961
 40
0.3749999999999961
 40
0.4999999999999969
 40
0.4999999999999969
 40
0.6249999999999977
 40
0.6249999999999977
 40
0.7499999999999984
 40
0.7499999999999984
 40
0.8749999999999992
 40
0.8749999999999992
 40
1.0
 40
1.0
 40
1.0
 40
1.0
 10
-92.11063859157501
 20
-74.05476319456619
 30
0.0
 10
-92.11063859157501
 20
-74.59255543233598
 30
0.0
 10
-92.02915386549388
 20
-75.11663522644659
 30
0.0
 10
-91.78090851668514
 20
-75.88154826491754
 30
0.0
 10
-91.67769231830164
 20
-76.12922306417728
 30
0.0
 10
-91.43502524714798
 20
-76.600685801525
 30
0.0
 10
-91.29509297435177
 20
-76.82603433576693
 30
0.0
 10
-90.97668296069965
 20
-77.25521321146998
 30
0.0
 10
-90.79836058643996
 20
-77.45798384774946
 30
0.0
 10
-90.41597804478344
 20
-77.82632353194805
 30
0.0
 10
-90.21047370160082
 20
-77.99399342591423
 30
0.0
 10
-89.7701778291312
 20
-78.29557127652637
 30
0.0
 10
-89.53486752256168
 20
-78.42918604876078
 30
0.0
 10
-89.05056900335195
 20
-78.6524521634372
 30
0.0
 10
-88.79969007095183
 20
-78.74357335306718
 30
0.0
 10
-88.5398025413141
 20
-78.81352729403702
 30
0.0
  0
LINE
  5
246
330
23
100
AcDbEntity
 67
     1
  8
0
  6
Continuous
 62
     7
370
    25
100
AcDbLine
 10
-72.4415966348
 20
-47.9844542106
 30
0.0
 11
-72.4354154997
 21
-47.7845497494
 31
0.0
  0
LINE
  5
247
330
23
100
AcDbEntity
 67
     1
  8
0
  6
Continuous
 62
     7
370
    25
100
AcDbLine
 10
-68.6858616834
 20
-47.7845497494
 30
0.0
 11
-68.6796805483
 21
-47.9844542105
 31
0.0
  0
LINE
  5
248
330
23
100
AcDbEntity
 67
     1
  8
0
  6
Continuous
 62
     7
370
    25
100
AcDbLine
 10
-88.7554135921
 20
-45.2301725231
 30
0.0
 11
-88.6956225921
 21
-45.0393190811
 31
0.0
  0
LINE
  5
249
330
23
100
AcDbEntity
 67
     1
  8
0
  6
Continuous
 62
     7
370
    25
100
AcDbLine
 10
-52.425654591
 20
-45.0393190811
 30
0.0
 11
-52.365863591
 21
-45.2301725231
 31
0.0
  0
LINE
  5
24A
330
23
100
AcDbEntity
 67
     1
  8
0
  6
Continuous
 62
     7
370
    25
100
AcDbLine
 10
-92.2606385916
 20
-40.4588364736
 30
0.0
 11
-92.0606385916
 21
-40.4588364736
 31
0.0
  0
LINE
  5
24B
330
23
100
AcDbEntity
 67
     1
  8
0
  6
Continuous
 62
     7
370
    25
100
AcDbLine
 10
-49.0606385916
 20
-40.4588364736
 30
0.0
 11
-48.8606385916
 21
-40.4588364736
 31
0.0
  0
LINE
  5
24C
330
23
100
AcDbEntity
 67
     1
  8
0
  6
Continuous
 62
     7
370
    25
100
AcDbLine
 10
-92.2606385916
 20
-40.4588364736
 30
0.0
 11
-92.2606385916
 21
58.986472706
 31
0.0
  0
LINE
  5
24D
330
23
100
AcDbEntity
 67
     1
  8
0
  6
Continuous
 62
     7
370
    25
100
AcDbLine
 10
-92.0606385916
 20
58.986472706
 30
0.0
 11
-92.3106385916
 21
58.986472706
 31
0.0
  0
LINE
  5
24E
330
23
100
AcDbEntity
 67
     1
  8
0
  6
Continuous
 62
     7
370
    25
100
AcDbLine
 10
-92.0606385916
 20
58.986472706
 30
0.0
 11
-92.0606385916
 21
-40.4588364736
 31
0.0
  0
LINE
  5
24F
330
23
100
AcDbEntity
 67
     1
  8
0
  6
Continuous
 62
     7
370
    25
100
AcDbLine
 10
-87.2606385916
 20
63.986472706
 30
0.0
 11
-87.2606385916
 21
63.786472706
 31
0.0
  0
LINE
  5
250
330
23
100
AcDbEntity
 67
     1
  8
0
  6
Continuous
 62
     7
370
    25
100
AcDbLine
 10
-53.8606385916
 20
63.786472706
 30
0.0
 11
-53.8606385916
 21
63.986472706
 31
0.0
  0
LINE
  5
251
330
23
100
AcDbEntity
 67
     1
  8
0
  6
Continuous
 62
     7
370
    25
100
AcDbLine
 10
-53.8606385916
 20
63.786472706
 30
0.0
 11
-87.2606385916
 21
63.786472706
 31
0.0
  0
LINE
  5
252
330
23
100
AcDbEntity
 67
     1
  8
0
  6
Continuous
 62
     7
370
    25
100
AcDbLine
 10
-87.3106385916
 20
63.986472706
 30
0.0
 11
-53.8106385916
 21
63.986472706
 31
0.0
  0
LINE
  5
253
330
23
100
AcDbEntity
 67
     1
  8
0
  6
Continuous
 62
     7
370
    25
100
AcDbLine
 10
-49.0606385916
 20
-40.4588364736
 30
0.0
 11
-49.0606385916
 21
58.986472706
 31
0.0
  0
LINE
  5
254
330
23
100
AcDbEntity
 67
     1
  8
0
  6
Continuous
 62
     7
370
    25
100
AcDbLine
 10
-48.8106385916
 20
58.986472706
 30
0.0
 11
-49.0606385916
 21
58.986472706
 31
0.0
  0
LINE
  5
255
330
23
100
AcDbEntity
 67
     1
  8
0
  6
Continuous
 62
     7
370
    25
100
AcDbLine
 10
-48.8606385916
 20
58.986472706
 30
0.0
 11
-48.8606385916
 21
-40.4588364736
 31
0.0
  0
LINE
  5
256
330
23
100
AcDbEntity
 67
     1
  8
0
  6
Continuous
 62
     7
370
    25
100
AcDbLine
 10
-67.5606385916
 20
64.186472706
 30
0.0
 11
-67.5606385916
 21
63.986472706
 31
0.0
  0
LINE
  5
257
330
23
100
AcDbEntity
 67
     1
  8
0
  6
Continuous
 62
     7
370
    25
100
AcDbLine
 10
-73.5606385916
 20
64.186472706
 30
0.0
 11
-73.5606385916
 21
63.986472706
 31
0.0
  0
LINE
  5
258
330
23
100
AcDbEntity
 67
     1
  8
0
  6
Continuous
 62
     7
370
    25
100
AcDbLine
 10
-73.5606385916
 20
64.186472706
 30
0.0
 11
-67.5606385916
 21
64.186472706
 31
0.0
  0
LINE
  5
259
330
23
100
AcDbEntity
 67
     1
  8
0
  6
Continuous
 62
     7
370
    25
100
AcDbLine
 10
-52.5553064692
 20
-79.013527294
 30
0.0
 11
-88.5659707139
 21
-79.013527294
 31
0.0
  0
LINE
  5
25A
330
23
100
AcDbEntity
 67
     1
  8
0
  6
Continuous
 62
     7
370
    25
100
AcDbLine
 10
-88.5398025413
 20
-78.813527294
 30
0.0
 11
-52.5814746418
 21
-78.813527294
 31
0.0
  0
LINE
  5
25B
330
23
100
AcDbEntity
 67
     1
  8
0
  6
Continuous
 62
     7
370
    25
100
AcDbLine
 10
-48.8106385916
 20
-74.0547631946
 30
0.0
 11
-49.0106385916
 21
-74.0547631946
 31
0.0
  0
LINE
  5
25C
330
23
100
AcDbEntity
 67
     1
  8
0
  6
Continuous
 62
     7
370
    25
100
AcDbLine
 10
-92.1106385916
 20
-74.0547631946
 30
0.0
 11
-92.3106385916
 21
-74.0547631946
 31
0.0
  0
LINE
  5
25D
330
23
100
AcDbEntity
 67
     1
  8
0
  6
Continuous
 62
     7
370
    25
100
AcDbLine
 10
-92.3106385916
 20
-74.0547631946
 30
0.0
 11
-92.3106385916
 21
58.986472706
 31
0.0
  0
LINE
  5
25E
330
23
100
AcDbEntity
 67
     1
  8
0
  6
Continuous
 62
     7
370
    25
100
AcDbLine
 10
-48.8106385916
 20
58.986472706
 30
0.0
 11
-48.8106385916
 21
-74.0547631946
 31
0.0
  0
LINE
  5
25F
330
23
100
AcDbEntity
 67
     1
  8
0
  6
Continuous
 62
     7
370
    25
100
AcDbLine
 10
-94.5106385916
 20
63.236472706
 30
0.0
 11
-94.7106385916
 21
63.236472706
 31
0.0
  0
LINE
  5
260
330
23
100
AcDbEntity
 67
     1
  8
0
  6
Continuous
 62
     7
370
    25
100
AcDbLine
 10
-94.5106385916
 20
63.236472706
 30
0.0
 11
-94.5106385916
 21
27.853675345
 31
0.0
  0
LINE
  5
261
330
23
100
AcDbEntity
 67
     1
  8
0
  6
Continuous
 62
     7
370
    25
100
AcDbLine
 10
-94.7106385916
 20
27.853675345
 30
0.0
 11
-94.5106385916
 21
27.853675345
 31
0.0
  0
LINE
  5
262
330
23
100
AcDbEntity
 67
     1
  8
0
  6
Continuous
 62
     7
370
    25
100
AcDbLine
 10
-94.7106385916
 20
27.853675345
 30
0.0
 11
-94.7106385916
 21
63.236472706
 31
0.0
  0
LINE
  5
263
330
23
100
AcDbEntity
 67
     1
  8
0
  6
Continuous
 62
     7
370
    25
100
AcDbLine
 10
-92.3106385916
 20
23.5813727203
 30
0.0
 11
-92.4115187576
 21
23.6459150941
 31
0.0
  0
LINE
  5
264
330
23
100
AcDbEntity
 67
     1
  8
0
  6
Continuous
 62
     7
370
    25
100
AcDbLine
 10
-51.4106385916
 20
68.036472706
 30
0.0
 11
-89.7106385916
 21
68.036472706
 31
0.0
  0
LINE
  5
265
330
23
100
AcDbEntity
 67
     1
  8
0
  6
Continuous
 62
     7
370
    25
100
AcDbLine
 10
-46.6106385916
 20
27.853675345
 30
0.0
 11
-46.6106385916
 21
63.236472706
 31
0.0
  0
LINE
  5
266
330
23
100
AcDbEntity
 67
     1
  8
0
  6
Continuous
 62
     7
370
    25
100
AcDbLine
 10
-89.7106385916
 20
68.236472706
 30
0.0
 11
-89.7106385916
 21
68.036472706
 31
0.0
  0
LINE
  5
267
330
23
100
AcDbEntity
 67
     1
  8
0
  6
Continuous
 62
     7
370
    25
100
AcDbLine
 10
-46.6106385916
 20
27.853675345
 30
0.0
 11
-46.4106385916
 21
27.853675345
 31
0.0
  0
LINE
  5
268
330
23
100
AcDbEntity
 67
     1
  8
0
  6
Continuous
 62
     7
370
    25
100
AcDbLine
 10
-46.4106385916
 20
63.236472706
 30
0.0
 11
-46.6106385916
 21
63.236472706
 31
0.0
  0
LINE
  5
269
330
23
100
AcDbEntity
 67
     1
  8
0
  6
Continuous
 62
     7
370
    25
100
AcDbLine
 10
-46.4106385916
 20
63.236472706
 30
0.0
 11
-46.4106385916
 21
27.853675345
 31
0.0
  0
LINE
  5
26A
330
23
100
AcDbEntity
 67
     1
  8
0
  6
Continuous
 62
     7
370
    25
100
AcDbLine
 10
-51.4106385916
 20
68.036472706
 30
0.0
 11
-51.4106385916
 21
68.236472706
 31
0.0
  0
LINE
  5
26B
330
23
100
AcDbEntity
 67
     1
  8
0
  6
Continuous
 62
     7
370
    25
100
AcDbLine
 10
-89.7106385916
 20
68.236472706
 30
0.0
 11
-51.4106385916
 21
68.236472706
 31
0.0
  0
LINE
  5
26C
330
23
100
AcDbEntity
 67
     1
  8
0
  6
Continuous
 62
     7
370
    25
100
AcDbLine
 10
-48.7097584255
 20
23.6459150941
 30
0.0
 11
-48.8106385916
 21
23.5813727203
 31
0.0
  0
LINE
  5
26D
330
23
100
AcDbEntity
 67
     1
  8
0
  6
Continuous
 62
     8
370
    25
100
AcDbLine
 10
-92.1106385916
 20
-41.6743610517
 30
0.0
 11
-92.1106385916
 21
-74.0547631946
 31
0.0
  0
LINE
  5
26E
330
23
100
AcDbEntity
 67
     1
  8
0
  6
Continuous
 62
     8
370
    25
100
AcDbLine
 10
-49.0106385916
 20
-74.0547631946
 30
0.0
 11
-49.0106385916
 21
-41.6743610517
 31
0.0
  0
LINE
  5
26F
330
23
100
AcDbEntity
 67
     1
  8
0
  6
Continuous
 62
     8
370
    25
100
AcDbLine
 10
-87.3106385916
 20
63.9862226997
 30
0.0
 11
-87.3106385916
 21
63.986472706
 31
0.0
  0
LINE
  5
270
330
23
100
AcDbEntity
 67
     1
  8
0
  6
Continuous
 62
     8
370
    25
100
AcDbLine
 10
-53.8106385916
 20
63.9862226997
 30
0.0
 11
-53.8106385916
 21
63.986472706
 31
0.0
  0
LINE
  5
271
330
23
100
AcDbEntity
 67
     1
  8
0
  6
Continuous
 62
     8
370
    25
100
AcDbLine
 10
-92.3106385916
 20
23.8030785101
 30
0.0
 11
-92.4115187576
 21
23.6459150941
 31
0.0
  0
LINE
  5
272
330
23
100
AcDbEntity
 67
     1
  8
0
  6
Continuous
 62
     8
370
    25
100
AcDbLine
 10
-48.7097584255
 20
23.6459150941
 30
0.0
 11
-48.8106385916
 21
23.8030785101
 31
0.0
  0
ARC
  5
273
330
23
100
AcDbEntity
 67
     1
  8
0
  6
Continuous
 62
     7
370
    25
100
AcDbCircle
 10
-70.5606385916
 20
12.847722706
 30
0.0
 40
60.8612500000006
100
AcDbArc
 50
252.6051511746
 51
268.2289532152
  0
ARC
  5
274
330
23
100
AcDbEntity
 67
     1
  8
0
  6
Continuous
 62
     7
370
    25
100
AcDbCircle
 10
-70.5606385916
 20
12.847722706
 30
0.0
 40
60.66125000000068
100
AcDbArc
 50
252.6051511746
 51
268.2289532152
  0
ARC
  5
275
330
23
100
AcDbEntity
 67
     1
  8
0
  6
Continuous
 62
     7
370
    25
100
AcDbCircle
 10
-70.5606385916
 20
12.847722706
 30
0.0
 40
60.66125000000298
100
AcDbArc
 50
271.7710467848
 51
287.3948488254
  0
ARC
  5
276
330
23
100
AcDbEntity
 67
     1
  8
0
  6
Continuous
 62
     7
370
    25
100
AcDbCircle
 10
-70.5606385916
 20
12.847722706
 30
0.0
 40
60.86125000000273
100
AcDbArc
 50
271.7710467848
 51
287.3948488254
  0
ARC
  5
277
330
23
100
AcDbEntity
 67
     1
  8
0
  6
Continuous
 62
     7
370
    25
100
AcDbCircle
 10
-87.2606385916
 20
-40.4588364736
 30
0.0
 40
5.000000000000073
100
AcDbArc
 50
180.0
 51
252.6051511746
  0
ARC
  5
278
330
23
100
AcDbEntity
 67
     1
  8
0
  6
Continuous
 62
     7
370
    25
100
AcDbCircle
 10
-87.2606385916
 20
-40.4588364736
 30
0.0
 40
4.80000000000004
100
AcDbArc
 50
180.0
 51
252.6051511746
  0
ARC
  5
279
330
23
100
AcDbEntity
 67
     1
  8
0
  6
Continuous
 62
     7
370
    25
100
AcDbCircle
 10
-53.8606385916
 20
-40.4588364736
 30
0.0
 40
4.800000000000011
100
AcDbArc
 50
287.3948488254
 51
0.0
  0
ARC
  5
27A
330
23
100
AcDbEntity
 67
     1
  8
0
  6
Continuous
 62
     7
370
    25
100
AcDbCircle
 10
-53.8606385916
 20
-40.4588364736
 30
0.0
 40
4.999999999999872
100
AcDbArc
 50
287.3948488254
 51
0.0
  0
ARC
  5
27B
330
23
100
AcDbEntity
 67
     1
  8
0
  6
Continuous
 62
     7
370
    25
100
AcDbCircle
 10
-87.2606385916
 20
58.986472706
 30
0.0
 40
4.999999999999972
100
AcDbArc
 50
90.0
 51
180.0
  0
ARC
  5
27C
330
23
100
AcDbEntity
 67
     1
  8
0
  6
Continuous
 62
     7
370
    25
100
AcDbCircle
 10
-87.2606385916
 20
58.986472706
 30
0.0
 40
4.800000000000004
100
AcDbArc
 50
90.0
 51
180.0
  0
ARC
  5
27D
330
23
100
AcDbEntity
 67
     1
  8
0
  6
Continuous
 62
     7
370
    25
100
AcDbCircle
 10
-53.8606385916
 20
58.986472706
 30
0.0
 40
4.800000000000026
100
AcDbArc
 50
0.0
 51
90.0
  0
ARC
  5
27E
330
23
100
AcDbEntity
 67
     1
  8
0
  6
Continuous
 62
     7
370
    25
100
AcDbCircle
 10
-53.8606385916
 20
58.986472706
 30
0.0
 40
4.999999999999993
100
AcDbArc
 50
0.0
 51
90.0
  0
ARC
  5
27F
330
23
100
AcDbEntity
 67
     1
  8
0
  6
Continuous
 62
     7
370
    25
100
AcDbCircle
 10
-70.5606385916
 20
55.436472706
 30
0.0
 40
9.249999999999794
100
AcDbArc
 50
71.0753555839
 51
108.9246444161
  0
ARC
  5
280
330
23
100
AcDbEntity
 67
     1
  8
0
  6
Continuous
 62
     7
370
    25
100
AcDbCircle
 10
-87.3106385916
 20
58.986472706
 30
0.0
 40
5.0
100
AcDbArc
 50
90.0
 51
180.0
  0
ARC
  5
281
330
23
100
AcDbEntity
 67
     1
  8
0
  6
Continuous
 62
     7
370
    25
100
AcDbCircle
 10
-53.8106385916
 20
58.986472706
 30
0.0
 40
4.999999999999993
100
AcDbArc
 50
0.0
 51
90.0
  0
ARC
  5
282
330
23
100
AcDbEntity
 67
     1
  8
0
  6
Continuous
 62
     7
370
    25
100
AcDbCircle
 10
-89.7106385916
 20
27.853675345
 30
0.0
 40
4.799999999999965
100
AcDbArc
 50
180.0
 51
237.3043770069
  0
ARC
  5
283
330
23
100
AcDbEntity
 67
     1
  8
0
  6
Continuous
 62
     7
370
    25
100
AcDbCircle
 10
-89.7106385916
 20
63.236472706
 30
0.0
 40
4.800000000000011
100
AcDbArc
 50
90.0
 51
180.0
  0
ARC
  5
284
330
23
100
AcDbEntity
 67
     1
  8
0
  6
Continuous
 62
     7
370
    25
100
AcDbCircle
 10
-51.4106385916
 20
63.236472706
 30
0.0
 40
4.800000000000011
100
AcDbArc
 50
0.0
 51
90.0
  0
ARC
  5
285
330
23
100
AcDbEntity
 67
     1
  8
0
  6
Continuous
 62
     7
370
    25
100
AcDbCircle
 10
-51.4106385916
 20
27.853675345
 30
0.0
 40
4.79999999999997
100
AcDbArc
 50
302.6956229931
 51
0.0
  0
ARC
  5
286
330
23
100
AcDbEntity
 67
     1
  8
0
  6
Continuous
 62
     7
370
    25
100
AcDbCircle
 10
-89.7106385916
 20
63.236472706
 30
0.0
 40
4.999999999999972
100
AcDbArc
 50
90.0
 51
180.0
  0
ARC
  5
287
330
23
100
AcDbEntity
 67
     1
  8
0
  6
Continuous
 62
     7
370
    25
100
AcDbCircle
 10
-51.4106385916
 20
27.853675345
 30
0.0
 40
5.00000000000001
100
AcDbArc
 50
302.6956229931
 51
0.0
  0
ARC
  5
288
330
23
100
AcDbEntity
 67
     1
  8
0
  6
Continuous
 62
     7
370
    25
100
AcDbCircle
 10
-51.4106385916
 20
63.236472706
 30
0.0
 40
4.999999999999979
100
AcDbArc
 50
0.0
 51
90.0
  0
ARC
  5
289
330
23
100
AcDbEntity
 67
     1
  8
0
  6
Continuous
 62
     7
370
    25
100
AcDbCircle
 10
-89.7106385916
 20
27.853675345
 30
0.0
 40
5.000000000000089
100
AcDbArc
 50
180.0
 51
237.3043770069
  0
VIEWPORT
  5
28C
330
23
100
AcDbEntity
 67
     1
  8
0
100
AcDbViewport
 10
0.0
 20
0.0
 30
0.0
 40
205.6
 41
156.0
 68
     1
 69
     1
 12
-70.5606385916
 22
34.7080208499
 13
0.0
 23
0.0
 14
10.0
 24
10.0
 15
10.0
 25
10.0
 16
0.0
 26
0.0
 36
1.0
 17
0.0
 27
0.0
 37
0.0
 42
50.0
 43
0.0
 44
0.0
 45
134.538
 50
0.0
 51
0.0
 72
   100
 90
   557152
  1

281
     0
 71
     1
 74
     0
110
0.0
120
0.0
130
0.0
111
1.0
121
0.0
131
0.0
112
0.0
122
1.0
132
0.0
 79
     0
146
0.0
  0
ENDSEC
  0
SECTION
  2
OBJECTS
  0
DICTIONARY
  5
C
330
0
100
AcDbDictionary
281
     1
  3
ACAD_GROUP
350
D
  3
ACAD_LAYOUT
350
1A
  3
ACAD_MLINESTYLE
350
17
  3
ACAD_PLOTSETTINGS
350
19
  3
ACAD_PLOTSTYLENAME
350
E
  3
ACAD_SCALELIST
350
47
  0
DICTIONARY
  5
D
102
{ACAD_REACTORS
330
C
102
}
330
C
100
AcDbDictionary
281
     1
  0
DICTIONARY
  5
1A
102
{ACAD_REACTORS
330
C
102
}
330
C
100
AcDbDictionary
281
     1
  3
_Right
350
1E
  3
_Top
350
26
  3
Model
350
22
  0
DICTIONARY
  5
17
102
{ACAD_REACTORS
330
C
102
}
330
C
100
AcDbDictionary
281
     1
  3
Standard
350
18
  0
DICTIONARY
  5
19
102
{ACAD_REACTORS
330
C
102
}
330
C
100
AcDbDictionary
281
     1
  0
ACDBDICTIONARYWDFLT
  5
E
102
{ACAD_REACTORS
330
C
102
}
330
C
100
AcDbDictionary
281
     1
  3
Normal
350
F
100
AcDbDictionaryWithDefault
340
F
  0
DICTIONARY
  5
47
102
{ACAD_REACTORS
330
C
102
}
330
C
100
AcDbDictionary
281
     1
  3
A0
350
48
  3
A1
350
49
  3
A2
350
4A
  3
A3
350
4B
  3
A4
350
4C
  3
A5
350
4D
  3
A6
350
4E
  3
A7
350
4F
  3
A8
350
50
  3
A9
350
51
  3
B0
350
52
  3
B1
350
53
  3
B2
350
54
  3
B3
350
55
  3
B4
350
56
  3
B5
350
57
  3
B6
350
58
  3
B7
350
59
  3
B8
350
5A
  3
B9
350
5B
  3
C0
350
5C
  3
C1
350
5D
  3
C2
350
5E
  3
C3
350
5F
  3
C4
350
60
  3
C5
350
61
  3
C6
350
62
  3
C7
350
63
  3
C8
350
64
  3
C9
350
65
  3
D0
350
66
  3
D1
350
67
  3
D2
350
68
  0
LAYOUT
  5
1E
102
{ACAD_REACTORS
330
1A
102
}
330
1A
100
AcDbPlotSettings
  1

  2
none_device
  4
ISO_A4_(210.00_x_297.00_MM)
  6

 40
7.5
 41
20.0
 42
7.5
 43
20.0
 44
210.0
 45
297.0
 46
0.0
 47
0.0
 48
0.0
 49
0.0
140
0.0
141
0.0
142
1.0
143
0.6764102564
 70
   688
 72
     1
 73
     1
 74
     1
  7

 75
     0
147
1.4783927218
148
79.013527294
149
31.2419791501
100
AcDbLayout
  1
_Right
 70
     1
 71
     1
 10
-92.5417324222
 20
-36.3150560732
 11
108.3521137316
 21
105.7310977729
 12
0.0
 22
0.0
 32
0.0
 14
1.0000000000E+20
 24
1.0000000000E+20
 34
1.0000000000E+20
 15
-1.0000000000E+20
 25
-1.0000000000E+20
 35
-1.0000000000E+20
146
0.0
 13
0.0
 23
0.0
 33
0.0
 16
1.0
 26
0.0
 36
0.0
 17
0.0
 27
1.0
 37
0.0
 76
     0
330
1B
331
28A
  0
LAYOUT
  5
26
102
{ACAD_REACTORS
330
1A
102
}
330
1A
100
AcDbPlotSettings
  1

  2
none_device
  4
ANSI_A_(11.00_x_8.50_Inches)
  6

 40
6.35
 41
19.05
 42
6.35000508
 43
19.05000254
 44
279.4
 45
215.9
 46
247.6919341787
 47
32.6564272026
 48
0.0
 49
0.0
140
0.0
141
0.0
142
0.0637983321
143
1.0
 70
  1696
 72
     0
 73
     0
 74
     1
  7

 75
     0
147
0.0530705072
148
2405.650220226
149
793.5462704135
100
AcDbLayout
  1
_Top
 70
     1
 71
     2
 10
0.0
 20
0.0
 11
0.0
 21
0.0
 12
0.0
 22
0.0
 32
0.0
 14
-94.7106385916
 24
-31.2419791501
 34
0.0
 15
-46.4106385916
 25
100.6580208499
 35
0.0
146
0.0
 13
0.0
 23
0.0
 33
0.0
 16
1.0
 26
0.0
 36
0.0
 17
0.0
 27
1.0
 37
0.0
 76
     0
330
23
331
28C
  0
LAYOUT
  5
22
102
{ACAD_REACTORS
330
1A
102
}
330
1A
100
AcDbPlotSettings
  1

  2
none_device
  4
Letter_(8.50_x_11.00_Inches)
  6

 40
6.35
 41
6.35
 42
6.35000508
 43
6.35000508
 44
215.9
 45
279.4
 46
0.0
 47
0.0
 48
0.0
 49
0.0
140
0.0
141
0.0
142
1.0
143
1.0
 70
  1712
 72
     1
 73
     0
 74
     0
  7

 75
     0
147
1.0
148
0.0
149
0.0
100
AcDbLayout
  1
Model
 70
     1
 71
     0
 10
0.0
 20
0.0
 11
420.0
 21
297.0
 12
0.0
 22
0.0
 32
0.0
 14
-94.7106385916
 24
-31.2419791501
 34
0.0
 15
-46.4106385916
 25
100.6580208499
 35
0.0
146
0.0
 13
0.0
 23
0.0
 33
0.0
 16
1.0
 26
0.0
 36
0.0
 17
0.0
 27
1.0
 37
0.0
 76
     0
330
1F
331
29
  0
MLINESTYLE
  5
18
102
{ACAD_REACTORS
330
17
102
}
330
17
100
AcDbMlineStyle
  2
Standard
 70
     0
  3

 62
   256
 51
90.0
 52
90.0
 71
     2
 49
0.5
 62
   256
  6
BYLAYER
 49
-0.5
 62
   256
  6
BYLAYER
  0
ACDBPLACEHOLDER
  5
F
102
{ACAD_REACTORS
330
E
102
}
330
E
  0
SCALE
  5
48
102
{ACAD_REACTORS
330
47
102
}
330
47
100
AcDbScale
 70
     0
300
1:1
140
1.0
141
1.0
290
     1
  0
SCALE
  5
49
102
{ACAD_REACTORS
330
47
102
}
330
47
100
AcDbScale
 70
     0
300
1:2
140
1.0
141
2.0
290
     0
  0
SCALE
  5
4A
102
{ACAD_REACTORS
330
47
102
}
330
47
100
AcDbScale
 70
     0
300
1:4
140
1.0
141
4.0
290
     0
  0
SCALE
  5
4B
102
{ACAD_REACTORS
330
47
102
}
330
47
100
AcDbScale
 70
     0
300
1:5
140
1.0
141
5.0
290
     0
  0
SCALE
  5
4C
102
{ACAD_REACTORS
330
47
102
}
330
47
100
AcDbScale
 70
     0
300
1:8
140
1.0
141
8.0
290
     0
  0
SCALE
  5
4D
102
{ACAD_REACTORS
330
47
102
}
330
47
100
AcDbScale
 70
     0
300
1:10
140
1.0
141
10.0
290
     0
  0
SCALE
  5
4E
102
{ACAD_REACTORS
330
47
102
}
330
47
100
AcDbScale
 70
     0
300
1:16
140
1.0
141
16.0
290
     0
  0
SCALE
  5
4F
102
{ACAD_REACTORS
330
47
102
}
330
47
100
AcDbScale
 70
     0
300
1:20
140
1.0
141
20.0
290
     0
  0
SCALE
  5
50
102
{ACAD_REACTORS
330
47
102
}
330
47
100
AcDbScale
 70
     0
300
1:30
140
1.0
141
30.0
290
     0
  0
SCALE
  5
51
102
{ACAD_REACTORS
330
47
102
}
330
47
100
AcDbScale
 70
     0
300
1:40
140
1.0
141
40.0
290
     0
  0
SCALE
  5
52
102
{ACAD_REACTORS
330
47
102
}
330
47
100
AcDbScale
 70
     0
300
1:50
140
1.0
141
50.0
290
     0
  0
SCALE
  5
53
102
{ACAD_REACTORS
330
47
102
}
330
47
100
AcDbScale
 70
     0
300
1:100
140
1.0
141
100.0
290
     0
  0
SCALE
  5
54
102
{ACAD_REACTORS
330
47
102
}
330
47
100
AcDbScale
 70
     0
300
2:1
140
2.0
141
1.0
290
     0
  0
SCALE
  5
55
102
{ACAD_REACTORS
330
47
102
}
330
47
100
AcDbScale
 70
     0
300
4:1
140
4.0
141
1.0
290
     0
  0
SCALE
  5
56
102
{ACAD_REACTORS
330
47
102
}
330
47
100
AcDbScale
 70
     0
300
8:1
140
8.0
141
1.0
290
     0
  0
SCALE
  5
57
102
{ACAD_REACTORS
330
47
102
}
330
47
100
AcDbScale
 70
     0
300
10:1
140
10.0
141
1.0
290
     0
  0
SCALE
  5
58
102
{ACAD_REACTORS
330
47
102
}
330
47
100
AcDbScale
 70
     0
300
100:1
140
100.0
141
1.0
290
     0
  0
SCALE
  5
59
102
{ACAD_REACTORS
330
47
102
}
330
47
100
AcDbScale
 70
     0
300
1/128" = 1'-0"
140
0.0078125
141
12.0
290
     0
  0
SCALE
  5
5A
102
{ACAD_REACTORS
330
47
102
}
330
47
100
AcDbScale
 70
     0
300
1/64" = 1'-0"
140
0.015625
141
12.0
290
     0
  0
SCALE
  5
5B
102
{ACAD_REACTORS
330
47
102
}
330
47
100
AcDbScale
 70
     0
300
1/32" = 1'-0"
140
0.03125
141
12.0
290
     0
  0
SCALE
  5
5C
102
{ACAD_REACTORS
330
47
102
}
330
47
100
AcDbScale
 70
     0
300
1/16" = 1'-0"
140
0.0625
141
12.0
290
     0
  0
SCALE
  5
5D
102
{ACAD_REACTORS
330
47
102
}
330
47
100
AcDbScale
 70
     0
300
3/32" = 1'-0"
140
0.09375
141
12.0
290
     0
  0
SCALE
  5
5E
102
{ACAD_REACTORS
330
47
102
}
330
47
100
AcDbScale
 70
     0
300
1/8" = 1'-0"
140
0.125
141
12.0
290
     0
  0
SCALE
  5
5F
102
{ACAD_REACTORS
330
47
102
}
330
47
100
AcDbScale
 70
     0
300
3/16" = 1'-0"
140
0.1875
141
12.0
290
     0
  0
SCALE
  5
60
102
{ACAD_REACTORS
330
47
102
}
330
47
100
AcDbScale
 70
     0
300
1/4" = 1'-0"
140
0.25
141
12.0
290
     0
  0
SCALE
  5
61
102
{ACAD_REACTORS
330
47
102
}
330
47
100
AcDbScale
 70
     0
300
3/8" = 1'-0"
140
0.375
141
12.0
290
     0
  0
SCALE
  5
62
102
{ACAD_REACTORS
330
47
102
}
330
47
100
AcDbScale
 70
     0
300
1/2" = 1'-0"
140
0.5
141
12.0
290
     0
  0
SCALE
  5
63
102
{ACAD_REACTORS
330
47
102
}
330
47
100
AcDbScale
 70
     0
300
3/4" = 1'-0"
140
0.75
141
12.0
290
     0
  0
SCALE
  5
64
102
{ACAD_REACTORS
330
47
102
}
330
47
100
AcDbScale
 70
     0
300
1" = 1'-0"
140
1.0
141
12.0
290
     0
  0
SCALE
  5
65
102
{ACAD_REACTORS
330
47
102
}
330
47
100
AcDbScale
 70
     0
300
1-1/2" = 1'-0"
140
1.5
141
12.0
290
     0
  0
SCALE
  5
66
102
{ACAD_REACTORS
330
47
102
}
330
47
100
AcDbScale
 70
     0
300
3" = 1'-0"
140
3.0
141
12.0
290
     0
  0
SCALE
  5
67
102
{ACAD_REACTORS
330
47
102
}
330
47
100
AcDbScale
 70
     0
300
6" = 1'-0"
140
6.0
141
12.0
290
     0
  0
SCALE
  5
68
102
{ACAD_REACTORS
330
47
102
}
330
47
100
AcDbScale
 70
     0
300
1'-0" = 1'-0"
140
12.0
141
12.0
290
     0
  0
ENDSEC
  0
EOF
