  0
SECTION
  2
HEADER
  9
$ACADVER
  1
AC1015
  9
$ACADMAINTVER
 70
     6
  9
$DWGCODEPAGE
  3
ANSI_1252
  9
$INSBASE
 10
0.0
 20
0.0
 30
0.0
  9
$EXTMIN
 10
0.0
 20
-14.9606299213
 30
0.0
  9
$EXTMAX
 10
23.6220472441
 20
12.5984251969
 30
0.0
  9
$LIMMIN
 10
0.0
 20
0.0
  9
$LIMMAX
 10
12.0
 20
9.0
  9
$ORTHOMODE
 70
     0
  9
$REGENMODE
 70
     1
  9
$FILLMODE
 70
     1
  9
$QTEXTMODE
 70
     0
  9
$MIRRTEXT
 70
     1
  9
$LTSCALE
 40
1.0
  9
$ATTMODE
 70
     1
  9
$TEXTSIZE
 40
0.1377952756
  9
$TRACEWID
 40
0.05
  9
$TEXTSTYLE
  7
Standard
  9
$CLAYER
  8
0
  9
$CELTYPE
  6
ByLayer
  9
$CECOLOR
 62
   256
  9
$CELTSCALE
 40
1.0
  9
$DISPSILH
 70
     0
  9
$DIMSCALE
 40
1.0
  9
$DIMASZ
 40
0.13
  9
$DIMEXO
 40
0.0393700787
  9
$DIMDLI
 40
0.38
  9
$DIMRND
 40
0.0
  9
$DIMDLE
 40
0.0
  9
$DIMEXE
 40
0.0393700787
  9
$DIMTP
 40
0.0
  9
$DIMTM
 40
0.0
  9
$DIMTXT
 40
0.1377952756
  9
$DIMCEN
 40
0.09
  9
$DIMTSZ
 40
0.0
  9
$DIMTOL
 70
     0
  9
$DIMLIM
 70
     0
  9
$DIMTIH
 70
     1
  9
$DIMTOH
 70
     1
  9
$DIMSE1
 70
     0
  9
$DIMSE2
 70
     0
  9
$DIMTAD
 70
     1
  9
$DIMZIN
 70
     1
  9
$DIMBLK
  1

  9
$DIMASO
 70
     1
  9
$DIMSHO
 70
     1
  9
$DIMPOST
  1

  9
$DIMAPOST
  1

  9
$DIMALT
 70
     0
  9
$DIMALTD
 70
     2
  9
$DIMALTF
 40
25.4
  9
$DIMLFAC
 40
1.0
  9
$DIMTOFL
 70
     0
  9
$DIMTVP
 40
0.0
  9
$DIMTIX
 70
     0
  9
$DIMSOXD
 70
     0
  9
$DIMSAH
 70
     0
  9
$DIMBLK1
  1

  9
$DIMBLK2
  1

  9
$DIMSTYLE
  2
Standard
  9
$DIMCLRD
 70
     0
  9
$DIMCLRE
 70
     0
  9
$DIMCLRT
 70
     0
  9
$DIMTFAC
 40
1.0
  9
$DIMGAP
 40
0.06
  9
$DIMJUST
 70
     0
  9
$DIMSD1
 70
     0
  9
$DIMSD2
 70
     0
  9
$DIMTOLJ
 70
     1
  9
$DIMTZIN
 70
     1
  9
$DIMALTZ
 70
     0
  9
$DIMALTTZ
 70
     0
  9
$DIMUPT
 70
     0
  9
$DIMDEC
 70
     2
  9
$DIMTDEC
 70
     2
  9
$DIMALTU
 70
     2
  9
$DIMALTTD
 70
     2
  9
$DIMTXSTY
  7
Standard
  9
$DIMAUNIT
 70
     0
  9
$DIMADEC
 70
     2
  9
$DIMALTRND
 40
0.0
  9
$DIMAZIN
 70
     0
  9
$DIMDSEP
 70
    46
  9
$DIMATFIT
 70
     3
  9
$DIMFRAC
 70
     0
  9
$DIMLDRBLK
  1

  9
$DIMLUNIT
 70
     2
  9
$DIMLWD
 70
    -2
  9
$DIMLWE
 70
    -2
  9
$DIMTMOVE
 70
     0
  9
$LUNITS
 70
     2
  9
$LUPREC
 70
     2
  9
$SKETCHINC
 40
0.1
  9
$FILLETRAD
 40
0.5
  9
$AUNITS
 70
     0
  9
$AUPREC
 70
     2
  9
$MENU
  1
.
  9
$ELEVATION
 40
0.0
  9
$PELEVATION
 40
0.0
  9
$THICKNESS
 40
0.0
  9
$LIMCHECK
 70
     0
  9
$CHAMFERA
 40
0.0
  9
$CHAMFERB
 40
0.0
  9
$CHAMFERC
 40
0.0
  9
$CHAMFERD
 40
0.0
  9
$SKPOLY
 70
     0
  9
$TDCREATE
 40
2460060.536201805
  9
$TDUCREATE
 40
2460060.494535139
  9
$TDUPDATE
 40
2460060.536237303
  9
$TDUUPDATE
 40
2460060.494570637
  9
$TDINDWG
 40
0.0000000116
  9
$TDUSRTIMER
 40
0.0000000116
  9
$USRTIMER
 70
     1
  9
$ANGBASE
 50
0.0
  9
$ANGDIR
 70
     0
  9
$PDMODE
 70
     0
  9
$PDSIZE
 40
-1.0
  9
$PLINEWID
 40
0.0
  9
$SPLFRAME
 70
     0
  9
$SPLINETYPE
 70
     6
  9
$SPLINESEGS
 70
     8
  9
$HANDSEED
  5
649
  9
$SURFTAB1
 70
     6
  9
$SURFTAB2
 70
     6
  9
$SURFTYPE
 70
     6
  9
$SURFU
 70
     6
  9
$SURFV
 70
     6
  9
$UCSBASE
  2

  9
$UCSNAME
  2

  9
$UCSORG
 10
0.0
 20
0.0
 30
0.0
  9
$UCSXDIR
 10
1.0
 20
0.0
 30
0.0
  9
$UCSYDIR
 10
0.0
 20
1.0
 30
0.0
  9
$UCSORTHOREF
  2

  9
$UCSORTHOVIEW
 70
     0
  9
$UCSORGTOP
 10
0.0
 20
0.0
 30
0.0
  9
$UCSORGBOTTOM
 10
0.0
 20
0.0
 30
0.0
  9
$UCSORGLEFT
 10
0.0
 20
0.0
 30
0.0
  9
$UCSORGRIGHT
 10
0.0
 20
0.0
 30
0.0
  9
$UCSORGFRONT
 10
0.0
 20
0.0
 30
0.0
  9
$UCSORGBACK
 10
0.0
 20
0.0
 30
0.0
  9
$PUCSBASE
  2

  9
$PUCSNAME
  2

  9
$PUCSORG
 10
0.0
 20
0.0
 30
0.0
  9
$PUCSXDIR
 10
1.0
 20
0.0
 30
0.0
  9
$PUCSYDIR
 10
0.0
 20
1.0
 30
0.0
  9
$PUCSORTHOREF
  2

  9
$PUCSORTHOVIEW
 70
     0
  9
$PUCSORGTOP
 10
0.0
 20
0.0
 30
0.0
  9
$PUCSORGBOTTOM
 10
0.0
 20
0.0
 30
0.0
  9
$PUCSORGLEFT
 10
0.0
 20
0.0
 30
0.0
  9
$PUCSORGRIGHT
 10
0.0
 20
0.0
 30
0.0
  9
$PUCSORGFRONT
 10
0.0
 20
0.0
 30
0.0
  9
$PUCSORGBACK
 10
0.0
 20
0.0
 30
0.0
  9
$USERI1
 70
     0
  9
$USERI2
 70
     0
  9
$USERI3
 70
     0
  9
$USERI4
 70
     0
  9
$USERI5
 70
     0
  9
$USERR1
 40
0.0
  9
$USERR2
 40
0.0
  9
$USERR3
 40
0.0
  9
$USERR4
 40
0.0
  9
$USERR5
 40
0.0
  9
$WORLDVIEW
 70
     1
  9
$SHADEDGE
 70
     3
  9
$SHADEDIF
 70
    70
  9
$TILEMODE
 70
     1
  9
$MAXACTVP
 70
    64
  9
$PINSBASE
 10
0.0
 20
0.0
 30
0.0
  9
$PLIMCHECK
 70
     0
  9
$PEXTMIN
 10
-23.6220472441
 20
-14.9606299213
 30
0.0
  9
$PEXTMAX
 10
0.0
 20
12.5984251969
 30
0.0
  9
$PLIMMIN
 10
-24.4832691152
 20
-15.8218504361
  9
$PLIMMAX
 10
13.4104335371
 20
13.4596470679
  9
$UNITMODE
 70
     0
  9
$VISRETAIN
 70
     1
  9
$PLINEGEN
 70
     0
  9
$PSLTSCALE
 70
     1
  9
$TREEDEPTH
 70
  3020
  9
$CMLSTYLE
  2
Standard
  9
$CMLJUST
 70
     0
  9
$CMLSCALE
 40
1.0
  9
$PROXYGRAPHICS
 70
     1
  9
$MEASUREMENT
 70
     0
  9
$CELWEIGHT
370
    -1
  9
$ENDCAPS
280
     0
  9
$JOINSTYLE
280
     0
  9
$LWDISPLAY
290
     1
  9
$INSUNITS
 70
     1
  9
$HYPERLINKBASE
  1

  9
$STYLESHEET
  1

  9
$XEDIT
290
     1
  9
$CEPSNTYPE
380
     0
  9
$PSTYLEMODE
290
     1
  9
$FINGERPRINTGUID
  2
{4677060d-ddd4-4811-a80b-528b045d929c}
  9
$VERSIONGUID
  2
{FAEB1C32-E019-11D5-929B-00C0DF256EC4}
  9
$EXTNAMES
290
     1
  9
$PSVPSCALE
 40
0.0
  9
$OLESTARTUP
290
     0
  0
ENDSEC
  0
SECTION
  2
CLASSES
  0
CLASS
  1
ACDBDICTIONARYWDFLT
  2
AcDbDictionaryWithDefault
  3
ObjectDBX Classes
 90
        0
280
     0
281
     0
  0
CLASS
  1
VISUALSTYLE
  2
AcDbVisualStyle
  3
ObjectDBX Classes
 90
     4095
280
     0
281
     0
  0
CLASS
  1
MATERIAL
  2
AcDbMaterial
  3
ObjectDBX Classes
 90
     1153
280
     0
281
     0
  0
CLASS
  1
SCALE
  2
AcDbScale
  3
ObjectDBX Classes
 90
     1153
280
     0
281
     0
  0
CLASS
  1
TABLESTYLE
  2
AcDbTableStyle
  3
ObjectDBX Classes
 90
     4095
280
     0
281
     0
  0
CLASS
  1
MLEADERSTYLE
  2
AcDbMLeaderStyle
  3
ACDB_MLEADERSTYLE_CLASS
 90
     4095
280
     0
281
     0
  0
CLASS
  1
SUN
  2
AcDbSun
  3
SCENEOE
 90
     1153
280
     0
281
     0
  0
CLASS
  1
ACDBPLACEHOLDER
  2
AcDbPlaceHolder
  3
ObjectDBX Classes
 90
        0
280
     0
281
     0
  0
CLASS
  1
LAYOUT
  2
AcDbLayout
  3
ObjectDBX Classes
 90
        0
280
     0
281
     0
  0
ENDSEC
  0
SECTION
  2
TABLES
  0
TABLE
  2
VPORT
  5
8
330
0
100
AcDbSymbolTable
 70
     1
  0
VPORT
  5
29
330
8
100
AcDbSymbolTableRecord
100
AcDbViewportTableRecord
  2
*Active
 70
     0
 10
0.0
 20
0.0
 11
1.0
 21
1.0
 12
11.811023622
 22
-1.1811023622
 13
0.0
 23
0.0
 14
0.5
 24
0.5
 15
0.5
 25
0.5
 16
0.0
 26
0.0
 36
1.0
 17
0.0
 27
0.0
 37
0.0
 40
28.1102362205
 41
0.8571428571
 42
50.0
 43
0.0
 44
0.0
 50
0.0
 51
0.0
 71
     0
 72
   100
 73
     1
 74
     3
 75
     0
 76
     0
 77
     0
 78
     0
281
     0
 65
     1
110
0.0
120
0.0
130
0.0
111
1.0
121
0.0
131
0.0
112
0.0
122
1.0
132
0.0
 79
     0
146
0.0
  0
ENDTAB
  0
TABLE
  2
LTYPE
  5
5
330
0
100
AcDbSymbolTable
 70
     6
  0
LTYPE
  5
14
330
5
100
AcDbSymbolTableRecord
100
AcDbLinetypeTableRecord
  2
ByBlock
 70
     0
  3

 72
    65
 73
     0
 40
0.0
  0
LTYPE
  5
15
330
5
100
AcDbSymbolTableRecord
100
AcDbLinetypeTableRecord
  2
ByLayer
 70
     0
  3

 72
    65
 73
     0
 40
0.0
  0
LTYPE
  5
16
330
5
100
AcDbSymbolTableRecord
100
AcDbLinetypeTableRecord
  2
Continuous
 70
     0
  3
Solid line
 72
    65
 73
     0
 40
0.0
  0
LTYPE
  5
6E
330
5
100
AcDbSymbolTableRecord
100
AcDbLinetypeTableRecord
  2
HIDDEN
 70
     0
  3
Hidden __ __ __ __ __ __ __ __ __ __ __ __ __ __
 72
    65
 73
     2
 40
0.075
 49
0.05
 74
     0
 49
-0.025
 74
     0
  0
LTYPE
  5
6F
330
5
100
AcDbSymbolTableRecord
100
AcDbLinetypeTableRecord
  2
PHANTOM
 70
     0
  3
Phantom ______  __  __  ______  __  __  ______
 72
    65
 73
     6
 40
0.5
 49
0.25
 74
     0
 49
-0.05
 74
     0
 49
0.05
 74
     0
 49
-0.05
 74
     0
 49
0.05
 74
     0
 49
-0.05
 74
     0
  0
LTYPE
  5
70
330
5
100
AcDbSymbolTableRecord
100
AcDbLinetypeTableRecord
  2
CENTER
 70
     0
  3
Center ____ _ ____ _ ____ _ ____ _ ____ _ ____
 72
    65
 73
     4
 40
0.4
 49
0.25
 74
     0
 49
-0.05
 74
     0
 49
0.05
 74
     0
 49
-0.05
 74
     0
  0
LTYPE
  5
71
330
5
100
AcDbSymbolTableRecord
100
AcDbLinetypeTableRecord
  2
CENTERX2
 70
     0
  3
Center (2x) ________  __  ________  __  _____
 72
    65
 73
     4
 40
0.8
 49
0.5
 74
     0
 49
-0.1
 74
     0
 49
0.1
 74
     0
 49
-0.1
 74
     0
  0
LTYPE
  5
72
330
5
100
AcDbSymbolTableRecord
100
AcDbLinetypeTableRecord
  2
DOT2
 70
     0
  3
Dot (.5x) ........................................
 72
    65
 73
     2
 40
0.025
 49
0.0
 74
     0
 49
-0.025
 74
     0
  0
ENDTAB
  0
TABLE
  2
LAYER
  5
2
330
0
100
AcDbSymbolTable
 70
     1
  0
LAYER
  5
10
330
2
100
AcDbSymbolTableRecord
100
AcDbLayerTableRecord
  2
0
 70
     0
 62
     7
  6
Continuous
370
    -3
390
F
  0
ENDTAB
  0
TABLE
  2
STYLE
  5
3
330
0
100
AcDbSymbolTable
 70
     1
  0
STYLE
  5
11
330
3
100
AcDbSymbolTableRecord
100
AcDbTextStyleTableRecord
  2
Standard
 70
     0
 40
0.0
 41
1.0
 50
0.0
 71
     0
 42
0.1377952756
  3
txt
  4

  0
ENDTAB
  0
TABLE
  2
VIEW
  5
6
330
0
100
AcDbSymbolTable
 70
     0
  0
ENDTAB
  0
TABLE
  2
UCS
  5
7
330
0
100
AcDbSymbolTable
 70
     0
  0
ENDTAB
  0
TABLE
  2
APPID
  5
9
330
0
100
AcDbSymbolTable
 70
     1
  0
APPID
  5
12
330
9
100
AcDbSymbolTableRecord
100
AcDbRegAppTableRecord
  2
ACAD
 70
     0
  0
ENDTAB
  0
TABLE
  2
DIMSTYLE
  5
A
330
0
100
AcDbSymbolTable
 70
     1
100
AcDbDimStyleTable
  0
DIMSTYLE
105
27
330
A
100
AcDbSymbolTableRecord
100
AcDbDimStyleTableRecord
  2
Standard
 70
     0
178
     0
340
11
  0
ENDTAB
  0
TABLE
  2
BLOCK_RECORD
  5
1
330
0
100
AcDbSymbolTable
 70
     4
  0
BLOCK_RECORD
  5
1F
330
1
100
AcDbSymbolTableRecord
100
AcDbBlockTableRecord
  2
*Model_Space
340
22
  0
BLOCK_RECORD
  5
1B
330
1
100
AcDbSymbolTableRecord
100
AcDbBlockTableRecord
  2
*Paper_Space
340
1E
  0
BLOCK_RECORD
  5
23
330
1
100
AcDbSymbolTableRecord
100
AcDbBlockTableRecord
  2
*Paper_Space0
340
26
  0
BLOCK_RECORD
  5
287
330
1
100
AcDbSymbolTableRecord
100
AcDbBlockTableRecord
  2
*Paper_Space1
340
288
  0
BLOCK_RECORD
  5
34B
330
1
100
AcDbSymbolTableRecord
100
AcDbBlockTableRecord
  2
*Paper_Space2
340
34C
  0
BLOCK_RECORD
  5
39A
330
1
100
AcDbSymbolTableRecord
100
AcDbBlockTableRecord
  2
*Paper_Space3
340
39B
  0
ENDTAB
  0
ENDSEC
  0
SECTION
  2
BLOCKS
  0
BLOCK
  5
20
330
1F
100
AcDbEntity
  8
0
100
AcDbBlockBegin
  2
*Model_Space
 70
     0
 10
0.0
 20
0.0
 30
0.0
  3
*Model_Space
  1

  0
ENDBLK
  5
21
330
1F
100
AcDbEntity
  8
0
100
AcDbBlockEnd
  0
BLOCK
  5
1C
330
1B
100
AcDbEntity
 67
     1
  8
0
100
AcDbBlockBegin
  2
*Paper_Space
 70
     0
 10
0.0
 20
0.0
 30
0.0
  3
*Paper_Space
  1

  0
ENDBLK
  5
1D
330
1B
100
AcDbEntity
 67
     1
  8
0
100
AcDbBlockEnd
  0
BLOCK
  5
24
330
23
100
AcDbEntity
  8
0
100
AcDbBlockBegin
  2
*Paper_Space0
 70
     0
 10
0.0
 20
0.0
 30
0.0
  3
*Paper_Space0
  1

  0
LINE
  5
273
330
23
100
AcDbEntity
  8
0
  6
Continuous
 62
     7
370
    25
100
AcDbLine
 10
7.9275797604
 20
0.0
 30
0.0
 11
-8.6078533105
 21
0.0
 31
0.0
  0
LINE
  5
274
330
23
100
AcDbEntity
  8
0
  6
Continuous
 62
     7
370
    25
100
AcDbLine
 10
-8.6078533105
 20
0.0787401575
 30
0.0
 11
7.9275797604
 21
0.0787401575
 31
0.0
  0
LINE
  5
275
330
23
100
AcDbEntity
  8
0
  6
Continuous
 62
     7
370
    25
100
AcDbLine
 10
7.9275797604
 20
1.1811023622
 30
0.0
 11
-8.6078533105
 21
1.1811023622
 31
0.0
  0
LINE
  5
276
330
23
100
AcDbEntity
  8
0
  6
Continuous
 62
     7
370
    25
100
AcDbLine
 10
-8.6078533105
 20
11.2992125984
 30
0.0
 11
7.9275797604
 21
11.2992125984
 31
0.0
  0
LINE
  5
277
330
23
100
AcDbEntity
  8
0
  6
Continuous
 62
     7
370
    25
100
AcDbLine
 10
7.9275797604
 20
1.2992125984
 30
0.0
 11
-8.6078533105
 21
1.2992125984
 31
0.0
  0
LINE
  5
278
330
23
100
AcDbEntity
  8
0
  6
Continuous
 62
     7
370
    25
100
AcDbLine
 10
7.9275797604
 20
12.5984251969
 30
0.0
 11
7.9275797604
 21
-14.9606299213
 31
0.0
  0
LINE
  5
279
330
23
100
AcDbEntity
  8
0
  6
Continuous
 62
     7
370
    25
100
AcDbLine
 10
-8.6078533105
 20
11.4173228346
 30
0.0
 11
7.9275797604
 21
11.4173228346
 31
0.0
  0
LINE
  5
27A
330
23
100
AcDbEntity
  8
0
  6
Continuous
 62
     7
370
    25
100
AcDbLine
 10
-8.6078533105
 20
-14.9606299213
 30
0.0
 11
-8.6078533105
 21
12.5984251969
 31
0.0
  0
LINE
  5
27B
330
23
100
AcDbEntity
  8
0
  6
Continuous
 62
     7
370
    25
100
AcDbLine
 10
9.50238291
 20
12.5196850394
 30
0.0
 11
-8.6078533105
 21
12.5196850394
 31
0.0
  0
LINE
  5
27C
330
23
100
AcDbEntity
  8
0
  6
Continuous
 62
     7
370
    25
100
AcDbLine
 10
9.50238291
 20
12.5196850394
 30
0.0
 11
9.50238291
 21
-14.8818897638
 31
0.0
  0
LINE
  5
27D
330
23
100
AcDbEntity
  8
0
  6
Continuous
 62
     7
370
    25
100
AcDbLine
 10
7.9275797604
 20
-14.8818897638
 30
0.0
 11
9.50238291
 21
-14.8818897638
 31
0.0
  0
LINE
  5
27E
330
23
100
AcDbEntity
  8
0
  6
Continuous
 62
     7
370
    25
100
AcDbLine
 10
8.7149813352
 20
-14.9606299213
 30
0.0
 11
8.7149813352
 21
12.5984251969
 31
0.0
  0
LINE
  5
27F
330
23
100
AcDbEntity
  8
0
  6
Continuous
 62
     7
370
    25
100
AcDbLine
 10
-10.1826564601
 20
12.5984251969
 30
0.0
 11
9.4236427525
 21
12.5984251969
 31
0.0
  0
LINE
  5
280
330
23
100
AcDbEntity
  8
0
  6
Continuous
 62
     7
370
    25
100
AcDbLine
 10
9.4236427525
 20
-14.9606299213
 30
0.0
 11
7.9275797604
 21
-14.9606299213
 31
0.0
  0
LINE
  5
281
330
23
100
AcDbEntity
  8
0
  6
Continuous
 62
     7
370
    25
100
AcDbLine
 10
-10.1826564601
 20
-14.9606299213
 30
0.0
 11
-8.6078533105
 21
-14.9606299213
 31
0.0
  0
LINE
  5
282
330
23
100
AcDbEntity
  8
0
  6
Continuous
 62
     7
370
    25
100
AcDbLine
 10
-10.1826564601
 20
-14.9606299213
 30
0.0
 11
-10.1826564601
 21
12.5984251969
 31
0.0
  0
LINE
  5
283
330
23
100
AcDbEntity
  8
0
  6
Continuous
 62
     7
370
    25
100
AcDbLine
 10
-8.6078533105
 20
-9.6456692913
 30
0.0
 11
7.9275797604
 21
-9.6456692913
 31
0.0
  0
LINE
  5
284
330
23
100
AcDbEntity
  8
0
  6
Continuous
 62
     7
370
    25
100
AcDbLine
 10
-8.6078533105
 20
-10.3543307087
 30
0.0
 11
7.9275797604
 21
-10.3543307087
 31
0.0
  0
ARC
  5
285
330
23
100
AcDbEntity
  8
0
  6
Continuous
 62
     7
370
    25
100
AcDbCircle
 10
9.4236427525
 20
12.5196850394
 30
0.0
 40
0.078740157480313
100
AcDbArc
 50
0.0
 51
90.0
  0
ARC
  5
286
330
23
100
AcDbEntity
  8
0
  6
Continuous
 62
     7
370
    25
100
AcDbCircle
 10
9.4236427525
 20
-14.8818897638
 30
0.0
 40
0.0787401574803148
100
AcDbArc
 50
270.0
 51
0.0
  0
VIEWPORT
  5
641
330
23
100
AcDbEntity
  8
0
100
AcDbViewport
 10
0.0
 20
0.0
 30
0.0
 40
8.4
 41
6.4
 68
     1
 69
     1
 12
11.811023622
 22
-1.1811023622
 13
0.0
 23
0.0
 14
0.5
 24
0.5
 15
0.5
 25
0.5
 16
0.0
 26
0.0
 36
1.0
 17
0.0
 27
0.0
 37
0.0
 42
50.0
 43
0.0
 44
0.0
 45
28.1102362205
 50
0.0
 51
0.0
 72
   100
 90
   557152
  1

281
     0
 71
     1
 74
     0
110
0.0
120
0.0
130
0.0
111
1.0
121
0.0
131
0.0
112
0.0
122
1.0
132
0.0
 79
     0
146
0.0
  0
ENDBLK
  5
25
330
23
100
AcDbEntity
  8
0
100
AcDbBlockEnd
  0
BLOCK
  5
289
330
287
100
AcDbEntity
  8
0
100
AcDbBlockBegin
  2
*Paper_Space1
 70
     0
 10
0.0
 20
0.0
 30
0.0
  3
*Paper_Space1
  1

  0
SPLINE
  5
2F0
330
287
100
AcDbEntity
  8
0
  6
Continuous
 62
     7
370
    25
100
AcDbSpline
210
0.0
220
0.0
230
1.0
 70
     8
 71
     3
 72
    18
 73
    14
 74
     0
 42
0.000000001
 43
0.00000001
 40
0.0
 40
0.0
 40
0.0
 40
0.0
 40
0.1249999999999999
 40
0.1249999999999999
 40
0.2499999999999999
 40
0.2499999999999999
 40
0.3749999999999998
 40
0.3749999999999998
 40
0.4999999999999998
 40
0.4999999999999998
 40
0.7499999999999999
 40
0.7499999999999999
 40
1.0
 40
1.0
 40
1.0
 40
1.0
 10
14.96062992125982
 20
4.513365121510459
 30
0.0
 10
14.96062992125982
 20
4.518564434913088
 30
0.0
 10
14.96063003840873
 20
4.52367690805416
 30
0.0
 10
14.96062908123261
 20
4.533735277898661
 30
0.0
 10
14.96062797437871
 20
4.538733187896868
 30
0.0
 10
14.9606204597587
 20
4.548264977704399
 30
0.0
 10
14.96061409443635
 20
4.552785913713386
 30
0.0
 10
14.96059009980593
 20
4.561342320315911
 30
0.0
 10
14.96057216661171
 20
4.565394024079647
 30
0.0
 10
14.96049249973623
 20
4.576288622688875
 30
0.0
 10
14.96040168660804
 20
4.582156006281343
 30
0.0
 10
14.96010982292755
 20
4.590016837806724
 30
0.0
 10
14.95990548085332
 20
4.592105278990775
 30
0.0
 10
14.95964551545386
 20
4.592105278990774
 30
0.0
  0
SPLINE
  5
2F2
330
287
100
AcDbEntity
  8
0
  6
Continuous
 62
     7
370
    25
100
AcDbSpline
210
0.0
220
0.0
230
1.0
 70
     8
 71
     3
 72
    18
 73
    14
 74
     0
 42
0.000000001
 43
0.00000001
 40
0.0
 40
0.0
 40
0.0
 40
0.0
 40
0.1249999999999976
 40
0.1249999999999976
 40
0.2499999999999953
 40
0.2499999999999953
 40
0.3749999999999929
 40
0.3749999999999929
 40
0.4999999999999906
 40
0.4999999999999906
 40
0.7499999999999952
 40
0.7499999999999952
 40
1.0
 40
1.0
 40
1.0
 40
1.0
 10
8.66141732283462
 20
4.040924176628541
 30
0.0
 10
8.661417322834621
 20
4.03572486322591
 30
0.0
 10
8.661417205685712
 20
4.030612390084844
 30
0.0
 10
8.66141816286183
 20
4.020554020240341
 30
0.0
 10
8.661419269715726
 20
4.015556110242136
 30
0.0
 10
8.661426784335747
 20
4.006024320434602
 30
0.0
 10
8.661433149658091
 20
4.001503384425614
 30
0.0
 10
8.661457144288516
 20
3.992946977823092
 30
0.0
 10
8.661475077482724
 20
3.988895274059354
 30
0.0
 10
8.661554744358215
 20
3.978000675450127
 30
0.0
 10
8.661645557486397
 20
3.972133291857658
 30
0.0
 10
8.661937421166897
 20
3.96427246033228
 30
0.0
 10
8.662141763241115
 20
3.962184019148226
 30
0.0
 10
8.662401728640567
 20
3.962184019148225
 30
0.0
  0
SPLINE
  5
2F4
330
287
100
AcDbEntity
  8
0
  6
Continuous
 62
     7
370
    25
100
AcDbSpline
210
0.0
220
0.0
230
1.0
 70
     8
 71
     3
 72
    18
 73
    14
 74
     0
 42
0.000000001
 43
0.00000001
 40
0.0
 40
0.0
 40
0.0
 40
0.0
 40
0.1249999999999953
 40
0.1249999999999953
 40
0.2499999999999906
 40
0.2499999999999906
 40
0.3749999999999858
 40
0.3749999999999858
 40
0.4999999999999811
 40
0.4999999999999811
 40
0.7499999999999906
 40
0.7499999999999906
 40
1.0
 40
1.0
 40
1.0
 40
1.0
 10
8.662401728640575
 20
4.592105278990745
 30
0.0
 10
8.662271746262027
 20
4.592105278990745
 30
0.0
 10
8.662156794910127
 20
4.591595676122897
 30
0.0
 10
8.6619543116491
 20
4.589598599816565
 30
0.0
 10
8.661866051262948
 20
4.588086941134655
 30
0.0
 10
8.66171892800013
 20
4.584139682098308
 30
0.0
 10
8.661659931893519
 20
4.581724046731024
 30
0.0
 10
8.661564712852485
 20
4.57601668425538
 30
0.0
 10
8.661528545640007
 20
4.572694350353762
 30
0.0
 10
8.661448683666967
 20
4.561807524249385
 30
0.0
 10
8.661430594442352
 20
4.553031146637593
 30
0.0
 10
8.661415562214662
 20
4.534096712310951
 30
0.0
 10
8.661417322834621
 20
4.523763742569438
 30
0.0
 10
8.661417322834618
 20
4.51336512151043
 30
0.0
  0
SPLINE
  5
2F7
330
287
100
AcDbEntity
  8
0
  6
Continuous
 62
     7
370
    25
100
AcDbSpline
210
0.0
220
0.0
230
1.0
 70
     8
 71
     3
 72
    18
 73
    14
 74
     0
 42
0.000000001
 43
0.00000001
 40
0.0
 40
0.0
 40
0.0
 40
0.0
 40
0.1249999999999952
 40
0.1249999999999952
 40
0.2499999999999905
 40
0.2499999999999905
 40
0.3749999999999857
 40
0.3749999999999857
 40
0.4999999999999809
 40
0.4999999999999809
 40
0.7499999999999905
 40
0.7499999999999905
 40
1.0
 40
1.0
 40
1.0
 40
1.0
 10
14.95964551545386
 20
3.962184019148254
 30
0.0
 10
14.95977549783241
 20
3.962184019148254
 30
0.0
 10
14.95989044918431
 20
3.962693622016104
 30
0.0
 10
14.96009293244535
 20
3.964690698322435
 30
0.0
 10
14.96018119283149
 20
3.966202357004345
 30
0.0
 10
14.96032831609432
 20
3.970149616040693
 30
0.0
 10
14.96038731220092
 20
3.972565251407975
 30
0.0
 10
14.96048253124196
 20
3.978272613883621
 30
0.0
 10
14.96051869845444
 20
3.981594947785239
 30
0.0
 10
14.96059856042748
 20
3.992481773889612
 30
0.0
 10
14.96061664965209
 20
4.001258151501403
 30
0.0
 10
14.96063168187978
 20
4.020192585828045
 30
0.0
 10
14.96062992125981
 20
4.030525555569561
 30
0.0
 10
14.96062992125981
 20
4.040924176628569
 30
0.0
  0
LINE
  5
308
330
287
100
AcDbEntity
  8
0
  6
Continuous
 62
     7
370
    25
100
AcDbLine
 10
0.7086614173
 20
8.6078533105
 30
0.0
 11
0.7086614173
 21
-7.9275797604
 31
0.0
  0
LINE
  5
309
330
287
100
AcDbEntity
  8
0
  6
Continuous
 62
     7
370
    25
100
AcDbLine
 10
0.0787401575
 20
8.6078533105
 30
0.0
 11
0.0787401575
 21
-8.7149813352
 31
0.0
  0
LINE
  5
30A
330
287
100
AcDbEntity
  8
0
  6
Continuous
 62
     7
370
    25
100
AcDbLine
 10
0.0
 20
8.6078533105
 30
0.0
 11
1.5748031496
 21
8.6078533105
 31
0.0
  0
LINE
  5
30B
330
287
100
AcDbEntity
  8
0
  6
Continuous
 62
     7
370
    25
100
AcDbLine
 10
1.5748031496
 20
-7.9275797604
 30
0.0
 11
0.0
 21
-7.9275797604
 31
0.0
  0
LINE
  5
30C
330
287
100
AcDbEntity
  8
0
  6
Continuous
 62
     7
370
    25
100
AcDbLine
 10
0.0
 20
-8.7149813352
 30
0.0
 11
0.0
 21
10.1826564601
 31
0.0
  0
LINE
  5
30D
330
287
100
AcDbEntity
  8
0
  6
Continuous
 62
     7
370
    25
100
AcDbLine
 10
1.4960629921
 20
-9.50238291
 30
0.0
 11
1.4960629921
 21
-7.9275797604
 31
0.0
  0
LINE
  5
30E
330
287
100
AcDbEntity
  8
0
  6
Continuous
 62
     7
370
    25
100
AcDbLine
 10
0.7874015748
 20
-9.4236427525
 30
0.0
 11
1.5748031496
 21
-9.4236427525
 31
0.0
  0
LINE
  5
30F
330
287
100
AcDbEntity
  8
0
  6
Continuous
 62
     7
370
    25
100
AcDbLine
 10
0.0787401575
 20
-8.7149813352
 30
0.0
 11
0.0
 21
-8.7149813352
 31
0.0
  0
LINE
  5
310
330
287
100
AcDbEntity
  8
0
  6
Continuous
 62
     7
370
    25
100
AcDbLine
 10
0.7874015748
 20
-9.4236427525
 30
0.0
 11
0.7874015748
 21
-9.50238291
 31
0.0
  0
LINE
  5
311
330
287
100
AcDbEntity
  8
0
  6
Continuous
 62
     7
370
    25
100
AcDbLine
 10
1.4960629921
 20
-9.50238291
 30
0.0
 11
0.7874015748
 21
-9.50238291
 31
0.0
  0
LINE
  5
312
330
287
100
AcDbEntity
  8
0
  6
Continuous
 62
     7
370
    25
100
AcDbLine
 10
1.5748031496
 20
-7.9275797604
 30
0.0
 11
1.5748031496
 21
-9.50238291
 31
0.0
  0
LINE
  5
313
330
287
100
AcDbEntity
  8
0
  6
Continuous
 62
     7
370
    25
100
AcDbLine
 10
1.5748031496
 20
10.1826564601
 30
0.0
 11
1.5748031496
 21
8.6078533105
 31
0.0
  0
LINE
  5
314
330
287
100
AcDbEntity
  8
0
  6
Continuous
 62
     7
370
    25
100
AcDbLine
 10
22.8346456693
 20
-9.50238291
 30
0.0
 11
22.8346456693
 21
-9.4236427525
 31
0.0
  0
LINE
  5
315
330
287
100
AcDbEntity
  8
0
  6
Continuous
 62
     7
370
    25
100
AcDbLine
 10
23.6220472441
 20
-8.7149813352
 30
0.0
 11
23.5433070866
 21
-8.7149813352
 31
0.0
  0
LINE
  5
316
330
287
100
AcDbEntity
  8
0
  6
Continuous
 62
     7
370
    25
100
AcDbLine
 10
22.8346456693
 20
-9.50238291
 30
0.0
 11
22.125984252
 21
-9.50238291
 31
0.0
  0
LINE
  5
317
330
287
100
AcDbEntity
  8
0
  6
Continuous
 62
     7
370
    25
100
AcDbLine
 10
22.125984252
 20
-7.9275797604
 30
0.0
 11
22.125984252
 21
-9.50238291
 31
0.0
  0
LINE
  5
318
330
287
100
AcDbEntity
  8
0
  6
Continuous
 62
     7
370
    25
100
AcDbLine
 10
22.0472440945
 20
-9.4236427525
 30
0.0
 11
22.8346456693
 21
-9.4236427525
 31
0.0
  0
LINE
  5
319
330
287
100
AcDbEntity
  8
0
  6
Continuous
 62
     7
370
    25
100
AcDbLine
 10
22.0472440945
 20
-9.50238291
 30
0.0
 11
22.0472440945
 21
-7.9275797604
 31
0.0
  0
LINE
  5
31A
330
287
100
AcDbEntity
  8
0
  6
Continuous
 62
     7
370
    25
100
AcDbLine
 10
22.0472440945
 20
-7.9275797604
 30
0.0
 11
23.6220472441
 21
-7.9275797604
 31
0.0
  0
LINE
  5
31B
330
287
100
AcDbEntity
  8
0
  6
Continuous
 62
     7
370
    25
100
AcDbLine
 10
22.0472440945
 20
10.1826564601
 30
0.0
 11
22.0472440945
 21
8.6078533105
 31
0.0
  0
LINE
  5
31C
330
287
100
AcDbEntity
  8
0
  6
Continuous
 62
     7
370
    25
100
AcDbLine
 10
23.6220472441
 20
10.1826564601
 30
0.0
 11
0.0
 21
10.1826564601
 31
0.0
  0
LINE
  5
31D
330
287
100
AcDbEntity
  8
0
  6
Continuous
 62
     7
370
    25
100
AcDbLine
 10
23.5433070866
 20
-8.7149813352
 30
0.0
 11
23.5433070866
 21
10.1826564601
 31
0.0
  0
LINE
  5
31E
330
287
100
AcDbEntity
  8
0
  6
Continuous
 62
     7
370
    25
100
AcDbLine
 10
23.6220472441
 20
8.6078533105
 30
0.0
 11
22.0472440945
 21
8.6078533105
 31
0.0
  0
LINE
  5
31F
330
287
100
AcDbEntity
  8
0
  6
Continuous
 62
     7
370
    25
100
AcDbLine
 10
23.6220472441
 20
10.1826564601
 30
0.0
 11
23.6220472441
 21
-8.7149813352
 31
0.0
  0
LINE
  5
320
330
287
100
AcDbEntity
  8
0
  6
Continuous
 62
     7
370
    25
100
AcDbLine
 10
22.9133858268
 20
8.6078533105
 30
0.0
 11
22.9133858268
 21
-7.9275797604
 31
0.0
  0
LINE
  5
321
330
287
100
AcDbEntity
  8
0
  6
Continuous
 62
     7
370
    25
100
AcDbLine
 10
22.0472440945
 20
-8.1244301541
 30
0.0
 11
1.5748031496
 21
-8.1244301541
 31
0.0
  0
LINE
  5
322
330
287
100
AcDbEntity
  8
0
  6
Continuous
 62
     7
370
    25
100
AcDbLine
 10
22.0472440945
 20
-8.7543514139
 30
0.0
 11
1.5748031496
 21
-8.7543514139
 31
0.0
  0
LINE
  5
323
330
287
100
AcDbEntity
  8
0
  6
Continuous
 62
     7
370
    25
100
AcDbLine
 10
22.0472440945
 20
9.5527352003
 30
0.0
 11
1.5748031496
 21
9.5527352003
 31
0.0
  0
LINE
  5
324
330
287
100
AcDbEntity
  8
0
  6
Continuous
 62
     7
370
    25
100
AcDbLine
 10
2.1062992126
 20
4.592105279
 30
0.0
 11
2.1062992126
 21
-8.1244301541
 31
0.0
  0
LINE
  5
325
330
287
100
AcDbEntity
  8
0
  6
Continuous
 62
     7
370
    25
100
AcDbLine
 10
2.4803149606
 20
4.5133651215
 30
0.0
 11
2.0275590551
 21
4.5133651215
 31
0.0
  0
LINE
  5
326
330
287
100
AcDbEntity
  8
0
  6
Continuous
 62
     7
370
    25
100
AcDbLine
 10
2.0275590551
 20
-8.1244301541
 30
0.0
 11
2.0275590551
 21
4.5133651215
 31
0.0
  0
LINE
  5
327
330
287
100
AcDbEntity
  8
0
  6
Continuous
 62
     7
370
    25
100
AcDbLine
 10
2.5590551181
 20
4.592105279
 30
0.0
 11
2.5590551181
 21
-8.1244301541
 31
0.0
  0
LINE
  5
328
330
287
100
AcDbEntity
  8
0
  6
Continuous
 62
     7
370
    25
100
AcDbLine
 10
2.5590551181
 20
4.592105279
 30
0.0
 11
2.4803149606
 21
4.5133651215
 31
0.0
  0
LINE
  5
329
330
287
100
AcDbEntity
  8
0
  6
Continuous
 62
     7
370
    25
100
AcDbLine
 10
21.594488189
 20
4.5133651215
 30
0.0
 11
21.1417322835
 21
4.5133651215
 31
0.0
  0
LINE
  5
32A
330
287
100
AcDbEntity
  8
0
  6
Continuous
 62
     7
370
    25
100
AcDbLine
 10
21.1417322835
 20
4.5133651215
 30
0.0
 11
21.062992126
 21
4.592105279
 31
0.0
  0
LINE
  5
32B
330
287
100
AcDbEntity
  8
0
  6
Continuous
 62
     7
370
    25
100
AcDbLine
 10
2.1062992126
 20
4.592105279
 30
0.0
 11
21.5157480315
 21
4.592105279
 31
0.0
  0
LINE
  5
32C
330
287
100
AcDbEntity
  8
0
  6
Continuous
 62
     7
370
    25
100
AcDbLine
 10
21.5157480315
 20
-8.1244301541
 30
0.0
 11
21.5157480315
 21
4.592105279
 31
0.0
  0
LINE
  5
32D
330
287
100
AcDbEntity
  8
0
  6
Continuous
 62
     7
370
    25
100
AcDbLine
 10
21.594488189
 20
4.5133651215
 30
0.0
 11
21.594488189
 21
-8.1244301541
 31
0.0
  0
LINE
  5
32E
330
287
100
AcDbEntity
  8
0
  6
Continuous
 62
     7
370
    25
100
AcDbLine
 10
21.062992126
 20
-8.1244301541
 30
0.0
 11
21.062992126
 21
4.592105279
 31
0.0
  0
LINE
  5
32F
330
287
100
AcDbEntity
  8
0
  6
Continuous
 62
     7
370
    25
100
AcDbLine
 10
1.6141732283
 20
-9.4236427525
 30
0.0
 11
22.0078740157
 21
-9.4236427525
 31
0.0
  0
LINE
  5
330
330
287
100
AcDbEntity
  8
0
  6
Continuous
 62
     7
370
    25
100
AcDbLine
 10
21.9291338583
 20
-9.50238291
 30
0.0
 11
21.9291338583
 21
-8.7543514139
 31
0.0
  0
LINE
  5
331
330
287
100
AcDbEntity
  8
0
  6
Continuous
 62
     7
370
    25
100
AcDbLine
 10
22.0078740157
 20
-8.8330915714
 30
0.0
 11
1.6141732283
 21
-8.8330915714
 31
0.0
  0
LINE
  5
332
330
287
100
AcDbEntity
  8
0
  6
Continuous
 62
     7
370
    25
100
AcDbLine
 10
22.0078740157
 20
-8.8330915714
 30
0.0
 11
22.0078740157
 21
-9.4236427525
 31
0.0
  0
LINE
  5
333
330
287
100
AcDbEntity
  8
0
  6
Continuous
 62
     7
370
    25
100
AcDbLine
 10
22.0472440945
 20
-9.50238291
 30
0.0
 11
1.5748031496
 21
-9.50238291
 31
0.0
  0
LINE
  5
334
330
287
100
AcDbEntity
  8
0
  6
Continuous
 62
     7
370
    25
100
AcDbLine
 10
1.6929133858
 20
-8.7543514139
 30
0.0
 11
1.6929133858
 21
-9.50238291
 31
0.0
  0
LINE
  5
335
330
287
100
AcDbEntity
  8
0
  6
Continuous
 62
     7
370
    25
100
AcDbLine
 10
1.6141732283
 20
-9.4236427525
 30
0.0
 11
1.6141732283
 21
-8.8330915714
 31
0.0
  0
LINE
  5
336
330
287
100
AcDbEntity
  8
0
  6
Continuous
 62
     7
370
    25
100
AcDbLine
 10
21.062992126
 20
4.5133651215
 30
0.0
 11
14.9606299213
 21
4.5133651215
 31
0.0
  0
LINE
  5
337
330
287
100
AcDbEntity
  8
0
  6
Continuous
 62
     7
370
    25
100
AcDbLine
 10
2.5590551181
 20
3.9621840191
 30
0.0
 11
21.062992126
 21
3.9621840191
 31
0.0
  0
LINE
  5
338
330
287
100
AcDbEntity
  8
0
  6
Continuous
 62
     7
370
    25
100
AcDbLine
 10
8.6614173228
 20
4.0409241766
 30
0.0
 11
8.6614173228
 21
4.5133651215
 31
0.0
  0
LINE
  5
339
330
287
100
AcDbEntity
  8
0
  6
Continuous
 62
     7
370
    25
100
AcDbLine
 10
14.9606299213
 20
4.0409241766
 30
0.0
 11
14.9606299213
 21
4.5133651215
 31
0.0
  0
LINE
  5
33A
330
287
100
AcDbEntity
  8
0
  6
Continuous
 62
     7
370
    25
100
AcDbLine
 10
14.9606299213
 20
4.0409241766
 30
0.0
 11
21.062992126
 21
4.0409241766
 31
0.0
  0
LINE
  5
33B
330
287
100
AcDbEntity
  8
0
  6
Continuous
 62
     7
370
    25
100
AcDbLine
 10
8.6614173228
 20
4.5133651215
 30
0.0
 11
2.5590551181
 21
4.5133651215
 31
0.0
  0
LINE
  5
33C
330
287
100
AcDbEntity
  8
0
  6
Continuous
 62
     7
370
    25
100
AcDbLine
 10
2.5590551181
 20
4.0409241766
 30
0.0
 11
8.6614173228
 21
4.0409241766
 31
0.0
  0
LINE
  5
33D
330
287
100
AcDbEntity
  8
0
  6
Continuous
 62
     8
370
    25
100
AcDbLine
 10
2.4803149606
 20
-8.1244301541
 30
0.0
 11
2.4803149606
 21
4.5133651215
 31
0.0
  0
LINE
  5
33E
330
287
100
AcDbEntity
  8
0
  6
Continuous
 62
     8
370
    25
100
AcDbLine
 10
21.1417322835
 20
4.5133651215
 30
0.0
 11
21.1417322835
 21
-8.1244301541
 31
0.0
  0
ARC
  5
33F
330
287
100
AcDbEntity
  8
0
  6
Continuous
 62
     7
370
    25
100
AcDbCircle
 10
0.7874015748
 20
-8.7149813352
 30
0.0
 40
0.7086614173228316
100
AcDbArc
 50
180.0
 51
270.0
  0
ARC
  5
340
330
287
100
AcDbEntity
  8
0
  6
Continuous
 62
     7
370
    25
100
AcDbCircle
 10
0.7874015748
 20
-8.7149813352
 30
0.0
 40
0.7874015748031487
100
AcDbArc
 50
180.0
 51
270.0
  0
ARC
  5
341
330
287
100
AcDbEntity
  8
0
  6
Continuous
 62
     7
370
    25
100
AcDbCircle
 10
1.4960629921
 20
-9.4236427525
 30
0.0
 40
0.078740157480313
100
AcDbArc
 50
270.0
 51
0.0
  0
ARC
  5
342
330
287
100
AcDbEntity
  8
0
  6
Continuous
 62
     7
370
    25
100
AcDbCircle
 10
22.8346456693
 20
-8.7149813352
 30
0.0
 40
0.7874015748031518
100
AcDbArc
 50
270.0
 51
0.0
  0
ARC
  5
343
330
287
100
AcDbEntity
  8
0
  6
Continuous
 62
     7
370
    25
100
AcDbCircle
 10
22.8346456693
 20
-8.7149813352
 30
0.0
 40
0.7086614173228369
100
AcDbArc
 50
270.0
 51
0.0
  0
ARC
  5
344
330
287
100
AcDbEntity
  8
0
  6
Continuous
 62
     7
370
    25
100
AcDbCircle
 10
22.125984252
 20
-9.4236427525
 30
0.0
 40
0.0787401574803113
100
AcDbArc
 50
180.0
 51
270.0
  0
ARC
  5
345
330
287
100
AcDbEntity
  8
0
  6
Continuous
 62
     7
370
    25
100
AcDbCircle
 10
2.1062992126
 20
4.5133651215
 30
0.0
 40
0.0787401574803153
100
AcDbArc
 50
90.0
 51
180.0
  0
ARC
  5
346
330
287
100
AcDbEntity
  8
0
  6
Continuous
 62
     7
370
    25
100
AcDbCircle
 10
21.5157480315
 20
4.5133651215
 30
0.0
 40
0.0787401574803184
100
AcDbArc
 50
0.0
 51
90.0
  0
ARC
  5
347
330
287
100
AcDbEntity
  8
0
  6
Continuous
 62
     7
370
    25
100
AcDbCircle
 10
21.9291338583
 20
-9.4236427525
 30
0.0
 40
0.0787401574803166
100
AcDbArc
 50
270.0
 51
0.0
  0
ARC
  5
348
330
287
100
AcDbEntity
  8
0
  6
Continuous
 62
     7
370
    25
100
AcDbCircle
 10
1.6929133858
 20
-9.4236427525
 30
0.0
 40
0.0787401574803148
100
AcDbArc
 50
180.0
 51
270.0
  0
ARC
  5
349
330
287
100
AcDbEntity
  8
0
  6
Continuous
 62
     7
370
    25
100
AcDbCircle
 10
21.9291338583
 20
-8.8330915714
 30
0.0
 40
0.0787401574803113
100
AcDbArc
 50
0.0
 51
90.0
  0
ARC
  5
34A
330
287
100
AcDbEntity
  8
0
  6
Continuous
 62
     7
370
    25
100
AcDbCircle
 10
1.6929133858
 20
-8.8330915714
 30
0.0
 40
0.0787401574803048
100
AcDbArc
 50
90.0
 51
180.0
  0
VIEWPORT
  5
643
330
287
100
AcDbEntity
  8
0
100
AcDbViewport
 10
0.0
 20
0.0
 30
0.0
 40
8.4
 41
6.4
 68
     1
 69
     1
 12
11.811023622
 22
-1.1811023622
 13
0.0
 23
0.0
 14
0.5
 24
0.5
 15
0.5
 25
0.5
 16
0.0
 26
0.0
 36
1.0
 17
0.0
 27
0.0
 37
0.0
 42
50.0
 43
0.0
 44
0.0
 45
28.1102362205
 50
0.0
 51
0.0
 72
   100
 90
   557152
  1

281
     0
 71
     1
 74
     0
110
0.0
120
0.0
130
0.0
111
1.0
121
0.0
131
0.0
112
0.0
122
1.0
132
0.0
 79
     0
146
0.0
  0
ENDBLK
  5
28A
330
287
100
AcDbEntity
  8
0
100
AcDbBlockEnd
  0
BLOCK
  5
34D
330
34B
100
AcDbEntity
  8
0
100
AcDbBlockBegin
  2
*Paper_Space2
 70
     0
 10
0.0
 20
0.0
 30
0.0
  3
*Paper_Space2
  1

  0
LINE
  5
37C
330
34B
100
AcDbEntity
  8
0
  6
Continuous
 62
     7
370
    25
100
AcDbLine
 10
1.5748031496
 20
9.4236427525
 30
0.0
 11
0.7874015748
 21
9.4236427525
 31
0.0
  0
LINE
  5
37D
330
34B
100
AcDbEntity
  8
0
  6
Continuous
 62
     7
370
    25
100
AcDbLine
 10
1.5748031496
 20
9.50238291
 30
0.0
 11
1.5748031496
 21
7.9275797604
 31
0.0
  0
LINE
  5
37E
330
34B
100
AcDbEntity
  8
0
  6
Continuous
 62
     7
370
    25
100
AcDbLine
 10
0.0787401575
 20
8.7149813352
 30
0.0
 11
0.0787401575
 21
7.9275797604
 31
0.0
  0
LINE
  5
37F
330
34B
100
AcDbEntity
  8
0
  6
Continuous
 62
     7
370
    25
100
AcDbLine
 10
0.0
 20
7.9275797604
 30
0.0
 11
1.5748031496
 21
7.9275797604
 31
0.0
  0
LINE
  5
380
330
34B
100
AcDbEntity
  8
0
  6
Continuous
 62
     7
370
    25
100
AcDbLine
 10
0.7874015748
 20
9.4236427525
 30
0.0
 11
0.7874015748
 21
9.50238291
 31
0.0
  0
LINE
  5
381
330
34B
100
AcDbEntity
  8
0
  6
Continuous
 62
     7
370
    25
100
AcDbLine
 10
0.7874015748
 20
9.50238291
 30
0.0
 11
1.4960629921
 21
9.50238291
 31
0.0
  0
LINE
  5
382
330
34B
100
AcDbEntity
  8
0
  6
Continuous
 62
     7
370
    25
100
AcDbLine
 10
0.0787401575
 20
8.7149813352
 30
0.0
 11
0.0
 21
8.7149813352
 31
0.0
  0
LINE
  5
383
330
34B
100
AcDbEntity
  8
0
  6
Continuous
 62
     7
370
    25
100
AcDbLine
 10
0.0
 20
-10.1826564601
 30
0.0
 11
0.0
 21
8.7149813352
 31
0.0
  0
LINE
  5
384
330
34B
100
AcDbEntity
  8
0
  6
Continuous
 62
     7
370
    25
100
AcDbLine
 10
1.5748031496
 20
-8.6078533105
 30
0.0
 11
0.0
 21
-8.6078533105
 31
0.0
  0
LINE
  5
385
330
34B
100
AcDbEntity
  8
0
  6
Continuous
 62
     7
370
    25
100
AcDbLine
 10
1.5748031496
 20
-10.1826564601
 30
0.0
 11
1.5748031496
 21
-8.6078533105
 31
0.0
  0
LINE
  5
386
330
34B
100
AcDbEntity
  8
0
  6
Continuous
 62
     7
370
    25
100
AcDbLine
 10
22.125984252
 20
9.50238291
 30
0.0
 11
22.125984252
 21
7.9275797604
 31
0.0
  0
LINE
  5
387
330
34B
100
AcDbEntity
  8
0
  6
Continuous
 62
     7
370
    25
100
AcDbLine
 10
22.8346456693
 20
9.4236427525
 30
0.0
 11
22.0472440945
 21
9.4236427525
 31
0.0
  0
LINE
  5
388
330
34B
100
AcDbEntity
  8
0
  6
Continuous
 62
     7
370
    25
100
AcDbLine
 10
23.5433070866
 20
7.9275797604
 30
0.0
 11
23.5433070866
 21
8.7149813352
 31
0.0
  0
LINE
  5
389
330
34B
100
AcDbEntity
  8
0
  6
Continuous
 62
     7
370
    25
100
AcDbLine
 10
23.6220472441
 20
7.9275797604
 30
0.0
 11
22.0472440945
 21
7.9275797604
 31
0.0
  0
LINE
  5
38A
330
34B
100
AcDbEntity
  8
0
  6
Continuous
 62
     7
370
    25
100
AcDbLine
 10
23.6220472441
 20
8.7149813352
 30
0.0
 11
23.5433070866
 21
8.7149813352
 31
0.0
  0
LINE
  5
38B
330
34B
100
AcDbEntity
  8
0
  6
Continuous
 62
     7
370
    25
100
AcDbLine
 10
22.0472440945
 20
7.9275797604
 30
0.0
 11
22.0472440945
 21
9.50238291
 31
0.0
  0
LINE
  5
38C
330
34B
100
AcDbEntity
  8
0
  6
Continuous
 62
     7
370
    25
100
AcDbLine
 10
22.125984252
 20
9.50238291
 30
0.0
 11
22.8346456693
 21
9.50238291
 31
0.0
  0
LINE
  5
38D
330
34B
100
AcDbEntity
  8
0
  6
Continuous
 62
     7
370
    25
100
AcDbLine
 10
22.8346456693
 20
9.50238291
 30
0.0
 11
22.8346456693
 21
9.4236427525
 31
0.0
  0
LINE
  5
38E
330
34B
100
AcDbEntity
  8
0
  6
Continuous
 62
     7
370
    25
100
AcDbLine
 10
22.0472440945
 20
-10.1826564601
 30
0.0
 11
22.0472440945
 21
-8.6078533105
 31
0.0
  0
LINE
  5
38F
330
34B
100
AcDbEntity
  8
0
  6
Continuous
 62
     7
370
    25
100
AcDbLine
 10
22.0472440945
 20
-8.6078533105
 30
0.0
 11
23.6220472441
 21
-8.6078533105
 31
0.0
  0
LINE
  5
390
330
34B
100
AcDbEntity
  8
0
  6
Continuous
 62
     7
370
    25
100
AcDbLine
 10
23.5433070866
 20
-10.1826564601
 30
0.0
 11
23.5433070866
 21
-8.6078533105
 31
0.0
  0
LINE
  5
391
330
34B
100
AcDbEntity
  8
0
  6
Continuous
 62
     7
370
    25
100
AcDbLine
 10
23.6220472441
 20
-10.1826564601
 30
0.0
 11
0.0
 21
-10.1826564601
 31
0.0
  0
LINE
  5
392
330
34B
100
AcDbEntity
  8
0
  6
Continuous
 62
     7
370
    25
100
AcDbLine
 10
23.6220472441
 20
8.7149813352
 30
0.0
 11
23.6220472441
 21
-10.1826564601
 31
0.0
  0
LINE
  5
393
330
34B
100
AcDbEntity
  8
0
  6
Continuous
 62
     7
370
    25
100
AcDbLine
 10
1.5748031496
 20
9.50238291
 30
0.0
 11
22.0472440945
 21
9.50238291
 31
0.0
  0
ARC
  5
394
330
34B
100
AcDbEntity
  8
0
  6
Continuous
 62
     7
370
    25
100
AcDbCircle
 10
0.7874015748
 20
8.7149813352
 30
0.0
 40
0.7086614173228392
100
AcDbArc
 50
90.0
 51
180.0
  0
ARC
  5
395
330
34B
100
AcDbEntity
  8
0
  6
Continuous
 62
     7
370
    25
100
AcDbCircle
 10
1.4960629921
 20
9.4236427525
 30
0.0
 40
0.0787401574803184
100
AcDbArc
 50
0.0
 51
90.0
  0
ARC
  5
396
330
34B
100
AcDbEntity
  8
0
  6
Continuous
 62
     7
370
    25
100
AcDbCircle
 10
0.7874015748
 20
8.7149813352
 30
0.0
 40
0.7874015748031464
100
AcDbArc
 50
90.0
 51
180.0
  0
ARC
  5
397
330
34B
100
AcDbEntity
  8
0
  6
Continuous
 62
     7
370
    25
100
AcDbCircle
 10
22.8346456693
 20
8.7149813352
 30
0.0
 40
0.7086614173228369
100
AcDbArc
 50
0.0
 51
90.0
  0
ARC
  5
398
330
34B
100
AcDbEntity
  8
0
  6
Continuous
 62
     7
370
    25
100
AcDbCircle
 10
22.125984252
 20
9.4236427525
 30
0.0
 40
0.0787401574803184
100
AcDbArc
 50
90.0
 51
180.0
  0
ARC
  5
399
330
34B
100
AcDbEntity
  8
0
  6
Continuous
 62
     7
370
    25
100
AcDbCircle
 10
22.8346456693
 20
8.7149813352
 30
0.0
 40
0.7874015748031482
100
AcDbArc
 50
0.0
 51
90.0
  0
VIEWPORT
  5
645
330
34B
100
AcDbEntity
  8
0
100
AcDbViewport
 10
0.0
 20
0.0
 30
0.0
 40
8.4
 41
6.4
 68
     1
 69
     1
 12
11.811023622
 22
-1.1811023622
 13
0.0
 23
0.0
 14
0.5
 24
0.5
 15
0.5
 25
0.5
 16
0.0
 26
0.0
 36
1.0
 17
0.0
 27
0.0
 37
0.0
 42
50.0
 43
0.0
 44
0.0
 45
28.1102362205
 50
0.0
 51
0.0
 72
   100
 90
   557152
  1

281
     0
 71
     1
 74
     0
110
0.0
120
0.0
130
0.0
111
1.0
121
0.0
131
0.0
112
0.0
122
1.0
132
0.0
 79
     0
146
0.0
  0
ENDBLK
  5
34E
330
34B
100
AcDbEntity
  8
0
100
AcDbBlockEnd
  0
BLOCK
  5
39C
330
39A
100
AcDbEntity
  8
0
100
AcDbBlockBegin
  2
*Paper_Space3
 70
     0
 10
0.0
 20
0.0
 30
0.0
  3
*Paper_Space3
  1

  0
SPLINE
  5
39F
330
39A
100
AcDbEntity
  8
0
  6
Continuous
 62
     7
370
    25
100
AcDbSpline
210
0.0
220
0.0
230
1.0
 70
     8
 71
     3
 72
    14
 73
    10
 74
     0
 42
0.000000001
 43
0.00000001
 40
0.0
 40
0.0
 40
0.0
 40
0.0
 40
0.0867176322321866
 40
0.2502294201301587
 40
0.4137205323482486
 40
0.5755489890052188
 40
0.7340425511744156
 40
0.8881852282715356
 40
0.9999999999999999
 40
0.9999999999999999
 40
0.9999999999999999
 40
0.9999999999999999
 10
-6.146111579953371
 20
6.701393830550815
 30
0.0
 10
-6.158875042559218
 20
6.693710145655595
 30
0.0
 10
-6.195704851728395
 20
6.671538368517518
 30
0.0
 10
-6.249712911281598
 20
6.630189957137392
 30
0.0
 10
-6.303737819298913
 20
6.575985393405925
 30
0.0
 10
-6.346101583394287
 20
6.517040445501759
 30
0.0
 10
-6.375248067430429
 20
6.454816775877881
 30
0.0
 10
-6.391289735165755
 20
6.396264785572059
 30
0.0
 10
-6.3916713558979
 20
6.358827401289826
 30
0.0
 10
-6.391831798236475
 20
6.343087843717318
 30
0.0
  0
SPLINE
  5
3A3
330
39A
100
AcDbEntity
  8
0
  6
Continuous
 62
     7
370
    25
100
AcDbSpline
210
0.0
220
0.0
230
1.0
 70
     8
 71
     3
 72
    15
 73
    11
 74
     0
 42
0.000000001
 43
0.00000001
 40
0.0
 40
0.0
 40
0.0
 40
0.0
 40
0.0424099693688178
 40
0.1907516234391949
 40
0.3390238131643492
 40
0.4893691253370953
 40
0.6432212904075022
 40
0.8007213159894072
 40
0.9549410194160678
 40
0.9999999999999999
 40
0.9999999999999999
 40
0.9999999999999999
 40
0.9999999999999999
 10
-6.391754769664153
 20
-16.02976054982144
 30
0.0
 10
-6.392148771821325
 20
-16.03571559492628
 30
0.0
 10
-6.393920915311101
 20
-16.06250020567481
 30
0.0
 10
-6.384449038506317
 20
-16.10998857343893
 30
0.0
 10
-6.36354032410371
 20
-16.17031462359411
 30
0.0
 10
-6.330148837755466
 20
-16.22792256453859
 30
0.0
 10
-6.285771545333949
 20
-16.28235460195913
 30
0.0
 10
-6.231005639029855
 20
-16.3322589404404
 30
0.0
 10
-6.182390669339862
 20
-16.36663148726858
 30
0.0
 10
-6.152801906583861
 20
-16.38410250485179
 30
0.0
 10
-6.146111579953369
 20
-16.38805288341822
 30
0.0
  0
SPLINE
  5
3A7
330
39A
100
AcDbEntity
  8
0
  6
Continuous
 62
     7
370
    25
100
AcDbSpline
210
0.0
220
0.0
230
1.0
 70
     8
 71
     3
 72
    20
 73
    16
 74
     0
 42
0.000000001
 43
0.00000001
 40
0.0
 40
0.0
 40
0.0
 40
0.0
 40
0.0446830890037189
 40
0.1284463809119359
 40
0.2120573693442591
 40
0.29548282573332
 40
0.3787337440837273
 40
0.4618656137914052
 40
0.5449525190592597
 40
0.6280750728036403
 40
0.7112918566472742
 40
0.7946898828008288
 40
0.8783535519561885
 40
0.9623525637810666
 40
1.0
 40
1.0
 40
1.0
 40
1.0
 10
9.44364422573426
 20
-25.38782734445597
 30
0.0
 10
9.456851451835702
 20
-25.39513830164339
 30
0.0
 10
9.494817054313975
 20
-25.41615444024671
 30
0.0
 10
9.563630222048282
 20
-25.44603364009501
 30
0.0
 10
9.651156117690784
 20
-25.47500701277465
 30
0.0
 10
9.743864073581639
 20
-25.49686379462113
 30
0.0
 10
9.840157981317304
 20
-25.51147317464111
 30
0.0
 10
9.93860876527787
 20
-25.51865659802533
 30
0.0
 10
10.03772706395054
 20
-25.51834889459112
 30
0.0
 10
10.13603193030446
 20
-25.51055559189869
 30
0.0
 10
10.23204522578598
 20
-25.49535366225298
 30
0.0
 10
10.32437500947873
 20
-25.47291975030314
 30
0.0
 10
10.41151480250837
 20
-25.44337029765439
 30
0.0
 10
10.47762251023963
 20
-25.41398172528582
 30
0.0
 10
10.51347947252362
 20
-25.39400865762248
 30
0.0
 10
10.52457657171804
 20
-25.38782734445597
 30
0.0
  0
SPLINE
  5
3BE
330
39A
100
AcDbEntity
  8
0
  6
Continuous
 62
     7
370
    25
100
AcDbSpline
210
0.0
220
0.0
230
1.0
 70
     8
 71
     3
 72
     9
 73
     5
 74
     0
 42
0.000000001
 43
0.00000001
 40
0.0
 40
0.0
 40
0.0
 40
0.0
 40
0.5247128575942287
 40
1.0
 40
1.0
 40
1.0
 40
1.0
 10
6.615213901485559
 20
-19.4433726328679
 30
0.0
 10
6.615068279279377
 20
-19.44524880335998
 30
0.0
 10
6.614790751858286
 20
-19.44882441707886
 30
0.0
 10
6.614672801490535
 20
-19.44885474674821
 30
0.0
 10
6.614616741197301
 20
-19.44886916205009
 30
0.0
  0
SPLINE
  5
3BF
330
39A
100
AcDbEntity
  8
0
  6
Continuous
 62
     7
370
    25
100
AcDbSpline
210
0.0
220
0.0
230
1.0
 70
     8
 71
     3
 72
     9
 73
     5
 74
     0
 42
0.000000001
 43
0.00000001
 40
0.0
 40
0.0
 40
0.0
 40
0.0
 40
0.5247128575942429
 40
1.0
 40
1.0
 40
1.0
 40
1.0
 10
4.204369521534579
 20
-18.0516217965717
 30
0.0
 10
4.204223899328396
 20
-18.05349796706379
 30
0.0
 10
4.203946371907305
 20
-18.05707358078266
 30
0.0
 10
4.203828421539554
 20
-18.05710391045202
 30
0.0
 10
4.203772361246322
 20
-18.05711832575389
 30
0.0
  0
SPLINE
  5
3C0
330
39A
100
AcDbEntity
  8
0
  6
Continuous
 62
     7
370
    25
100
AcDbSpline
210
0.0
220
0.0
230
1.0
 70
     8
 71
     3
 72
     9
 73
     5
 74
     0
 42
0.000000001
 43
0.00000001
 40
0.0
 40
0.0
 40
0.0
 40
0.0
 40
0.524712857594246
 40
1.0
 40
1.0
 40
1.0
 40
1.0
 10
1.793525141583599
 20
-16.65987096027551
 30
0.0
 10
1.793379519377416
 20
-16.66174713076759
 30
0.0
 10
1.793101991956325
 20
-16.66532274448647
 30
0.0
 10
1.792984041588576
 20
-16.66535307415582
 30
0.0
 10
1.792927981295343
 20
-16.6653674894577
 30
0.0
  0
SPLINE
  5
3C1
330
39A
100
AcDbEntity
  8
0
  6
Continuous
 62
     7
370
    25
100
AcDbSpline
210
0.0
220
0.0
230
1.0
 70
     8
 71
     3
 72
     9
 73
     5
 74
     0
 42
0.000000001
 43
0.00000001
 40
0.0
 40
0.0
 40
0.0
 40
0.0
 40
0.524712857594231
 40
1.0
 40
1.0
 40
1.0
 40
1.0
 10
-0.6173192383673799
 20
-15.26812012397931
 30
0.0
 10
-0.617464860573561
 20
-15.2699962944714
 30
0.0
 10
-0.6177423879946523
 20
-15.27357190819027
 30
0.0
 10
-0.6178603383624037
 20
-15.27360223785963
 30
0.0
 10
-0.6179163986556366
 20
-15.2736166531615
 30
0.0
  0
SPLINE
  5
3C2
330
39A
100
AcDbEntity
  8
0
  6
Continuous
 62
     7
370
    25
100
AcDbSpline
210
0.0
220
0.0
230
1.0
 70
     8
 71
     3
 72
     9
 73
     5
 74
     0
 42
0.000000001
 43
0.00000001
 40
0.0
 40
0.0
 40
0.0
 40
0.0
 40
0.5247128575942452
 40
1.0
 40
1.0
 40
1.0
 40
1.0
 10
-3.028163618318359
 20
-13.87636928768312
 30
0.0
 10
-3.028309240524542
 20
-13.8782454581752
 30
0.0
 10
-3.028586767945632
 20
-13.88182107189408
 30
0.0
 10
-3.028704718313384
 20
-13.88185140156343
 30
0.0
 10
-3.028760778606618
 20
-13.8818658168653
 30
0.0
  0
SPLINE
  5
3C4
330
39A
100
AcDbEntity
  8
0
  6
Continuous
 62
     7
370
    25
100
AcDbSpline
210
0.0
220
0.0
230
1.0
 70
     8
 71
     3
 72
     9
 73
     5
 74
     0
 42
0.000000001
 43
0.00000001
 40
0.0
 40
0.0
 40
0.0
 40
0.0
 40
0.736855101908847
 40
1.0
 40
1.0
 40
1.0
 40
1.0
 10
21.69652804993577
 20
-13.42422117090448
 30
0.0
 10
21.69458969539329
 20
-13.42266991184344
 30
0.0
 10
21.6919591177703
 20
-13.42056466882209
 30
0.0
 10
21.69219899475809
 20
-13.42099699910744
 30
0.0
 10
21.6922621171636
 20
-13.42111076461632
 30
0.0
  0
SPLINE
  5
3C6
330
39A
100
AcDbEntity
  8
0
  6
Continuous
 62
     7
370
    25
100
AcDbSpline
210
0.0
220
0.0
230
1.0
 70
     8
 71
     3
 72
    13
 73
     9
 74
     0
 42
0.000000001
 43
0.00000001
 40
0.0
 40
0.0
 40
0.0
 40
0.0
 40
0.1287995441635063
 40
0.2891963099262435
 40
0.4654486133989029
 40
0.6521502291655191
 40
0.8389295793880762
 40
1.0
 40
1.0
 40
1.0
 40
1.0
 10
20.39882029878031
 20
-11.38984478396947
 30
0.0
 10
20.39685398301875
 20
-11.38857999664639
 30
0.0
 10
20.39243897312032
 20
-11.38574014322103
 30
0.0
 10
20.38381153309466
 20
-11.37736461702144
 30
0.0
 10
20.37492013234325
 20
-11.36530904090738
 30
0.0
 10
20.36763266395523
 20
-11.35101217851134
 30
0.0
 10
20.36339776624444
 20
-11.33702167834557
 30
0.0
 10
20.36300917444619
 20
-11.33051669716883
 30
0.0
 10
20.36282923859562
 20
-11.32750459211067
 30
0.0
  0
SPLINE
  5
3C8
330
39A
100
AcDbEntity
  8
0
  6
Continuous
 62
     7
370
    25
100
AcDbSpline
210
0.0
220
0.0
230
1.0
 70
     8
 71
     3
 72
    13
 73
     9
 74
     0
 42
0.000000001
 43
0.00000001
 40
0.0
 40
0.0
 40
0.0
 40
0.0
 40
0.1287995441635063
 40
0.2891963099262435
 40
0.4654486133989029
 40
0.6521502291655191
 40
0.8389295793880762
 40
1.0
 40
1.0
 40
1.0
 40
1.0
 10
17.98797591882933
 20
-9.998093947673276
 30
0.0
 10
17.98600960306777
 20
-9.996829160350195
 30
0.0
 10
17.98159459316935
 20
-9.993989306924837
 30
0.0
 10
17.97296715314367
 20
-9.985613780725243
 30
0.0
 10
17.96407575239228
 20
-9.973558204611187
 30
0.0
 10
17.95678828400425
 20
-9.959261342215143
 30
0.0
 10
17.95255338629346
 20
-9.945270842049371
 30
0.0
 10
17.95216479449522
 20
-9.938765860872632
 30
0.0
 10
17.95198485864464
 20
-9.935753755814476
 30
0.0
  0
LWPOLYLINE
  5
3D3
330
39A
100
AcDbEntity
  8
0
  6
Continuous
 62
     7
370
    25
100
AcDbPolyline
 90
        9
 70
   128
 43
0.0
 10
-5.5499677077
 20
-16.7055751282
 10
-5.5618997193
 20
-16.7099927291
 10
-5.5755128532
 20
-16.7105345595
 10
-5.5902839643
 20
-16.7071797971
 10
-5.605645407
 20
-16.7000573636
 10
-5.6210068496
 20
-16.6894409701
 10
-5.6357779607
 20
-16.6757385986
 10
-5.6493910946
 20
-16.6594768236
 10
-5.6613231063
 20
-16.6412805761
  0
LWPOLYLINE
  5
3E0
330
39A
100
AcDbEntity
  8
0
  6
Continuous
 62
     7
370
    25
100
AcDbPolyline
 90
       12
 70
   128
 43
0.0
 10
-6.1067447007
 20
6.6974955589
 10
-6.1729580974
 20
6.6533825033
 10
-6.2276226437
 20
6.6042785869
 10
-6.269625527
 20
6.551183424
 10
-6.2981116899
 20
6.4951778788
 10
-6.3125012362
 20
6.4374020629
 10
-6.3125012362
 20
6.3790321252
 10
-6.2981116899
 20
6.3212563092
 10
-6.269625527
 20
6.2652507641
 10
-6.2276226437
 20
6.2121556012
 10
-6.1729580974
 20
6.1630516848
 10
-6.1067447007
 20
6.1189386292
  0
LWPOLYLINE
  5
435
330
39A
100
AcDbEntity
  8
0
  6
Continuous
 62
     7
370
    25
100
AcDbPolyline
 90
        9
 70
   128
 43
0.0
 10
5.0566340101
 20
5.6841380064
 10
5.0544943474
 20
5.6966812513
 10
5.0481575851
 20
5.7087424663
 10
5.0378672416
 20
5.7198581457
 10
5.024018769
 20
5.7296011202
 10
5.0071443563
 20
5.7375969727
 10
4.9878924777
 20
5.7435384271
 10
4.9670029721
 20
5.7471971567
 10
4.9452786115
 20
5.7484325585
  0
SPLINE
  5
460
330
39A
100
AcDbEntity
  8
0
  6
Continuous
 62
     7
370
    25
100
AcDbSpline
210
0.0
220
0.0
230
1.0
 70
     8
 71
     3
 72
    18
 73
    14
 74
     0
 42
0.000000001
 43
0.00000001
 40
0.0
 40
0.0
 40
0.0
 40
0.0
 40
0.1249999999999952
 40
0.1249999999999952
 40
0.2499999999999905
 40
0.2499999999999905
 40
0.3749999999999857
 40
0.3749999999999857
 40
0.4999999999999809
 40
0.4999999999999809
 40
0.7499999999999905
 40
0.7499999999999905
 40
1.0
 40
1.0
 40
1.0
 40
1.0
 10
13.37975397637304
 20
0.3007357451947092
 30
0.0
 10
13.37984588779435
 20
0.3049267956306709
 30
0.0
 10
13.38028751431835
 20
0.3092614121389121
 30
0.0
 10
13.38184283780405
 20
0.3182055270016362
 30
0.0
 10
13.38297415142643
 20
0.3228670810856525
 30
0.0
 10
13.38586931691494
 20
0.3322008523018701
 30
0.0
 10
13.38761914561107
 20
0.3368542965248993
 30
0.0
 10
13.3917221903499
 20
0.3461319892692419
 30
0.0
 10
13.3940970092623
 20
0.3507820058800854
 30
0.0
 10
13.401851628769
 20
0.3640902073601607
 30
0.0
 10
13.40807025590594
 20
0.3724572499362665
 30
0.0
 10
13.42146955220638
 20
0.3866007803467034
 30
0.0
 10
13.42877482023408
 20
0.3925257512234379
 30
0.0
 10
13.43612775569989
 20
0.3967705105156072
 30
0.0
  0
LWPOLYLINE
  5
463
330
39A
100
AcDbEntity
  8
0
  6
Continuous
 62
     7
370
    25
100
AcDbPolyline
 90
       35
 70
   128
 43
0.0
 10
8.9269301919
 20
2.8712962
 10
8.9356958136
 20
2.6937197262
 10
8.9544747115
 20
2.511431976
 10
8.9831820939
 20
2.3252560281
 10
9.0216883391
 20
2.1360325177
 10
9.0698195809
 20
1.9446158402
 10
9.1273584938
 20
1.7518702942
 10
9.1940452738
 20
1.5586661782
 10
9.2695788119
 20
1.3658758614
 10
9.3536180538
 20
1.1743698445
 10
9.4457835394
 20
0.9850128292
 10
9.5456591164
 20
0.798659814
 10
9.6527938194
 20
0.6161522335
 10
9.7667039062
 20
0.4383141591
 10
9.8868750415
 20
0.2659485781
 10
10.0127646202
 20
0.0998337678
 10
10.1438042164
 20
-0.059280218
 10
10.2794021508
 20
-0.2106749364
 10
10.4189461618
 20
-0.3536667991
 10
10.5618061701
 20
-0.487610159
 10
10.7073371241
 20
-0.6119002253
 10
10.8548819118
 20
-0.7259757946
 10
11.0037743284
 20
-0.8293217845
 10
11.1533420842
 20
-0.9214715599
 10
11.3029098399
 20
-1.0020090395
 10
11.4518022565
 20
-1.0705705746
 10
11.5993470442
 20
-1.1268465912
 10
11.7448779982
 20
-1.1705829878
 10
11.8877380065
 20
-1.2015822827
 10
12.0272820175
 20
-1.2197045057
 10
12.1628799519
 20
-1.2248678298
 10
12.2939195481
 20
-1.2170489414
 10
12.4198091268
 20
-1.1962831449
 10
12.5399802621
 20
-1.1626642034
 10
12.638351951
 20
-1.1235804372
  0
LWPOLYLINE
  5
464
330
39A
100
AcDbEntity
  8
0
  6
Continuous
 62
     7
370
    25
100
AcDbPolyline
 90
       12
 70
   128
 43
0.0
 10
12.8128463541
 20
-1.0228469625
 10
12.8609006289
 20
-0.9864923019
 10
12.9530661145
 20
-0.9035472912
 10
13.0371053564
 20
-0.8090709176
 10
13.1126388945
 20
-0.7034897677
 10
13.1793256745
 20
-0.587280569
 10
13.2368645874
 20
-0.4609680377
 10
13.2849958292
 20
-0.3251225093
 10
13.3235020744
 20
-0.1803573632
 10
13.3522094568
 20
-0.0273262535
 10
13.3709883547
 20
0.1332798427
 10
13.3797539764
 20
0.3007357452
  0
SPLINE
  5
466
330
39A
100
AcDbEntity
  8
0
  6
Continuous
 62
     7
370
    25
100
AcDbSpline
210
0.0
220
0.0
230
1.0
 70
     8
 71
     3
 72
    10
 73
     6
 74
     0
 42
0.000000001
 43
0.00000001
 40
0.0
 40
0.0
 40
0.0
 40
0.0
 40
0.4297253738740244
 40
0.8594510420301253
 40
1.0
 40
1.0
 40
1.0
 40
1.0
 10
13.77019395153606
 20
0.5896228203949849
 30
0.0
 10
13.77639120006826
 20
0.592426734513847
 30
0.0
 10
13.78878570137664
 20
0.5980345646717367
 30
0.0
 10
13.80244185059959
 20
0.5980639369365593
 30
0.0
 10
13.8076776313347
 20
0.5937832793440122
 30
0.0
 10
13.80896803334939
 20
0.5927282754274854
 30
0.0
  0
SPLINE
  5
467
330
39A
100
AcDbEntity
  8
0
  6
Continuous
 62
     7
370
    25
100
AcDbSpline
210
0.0
220
0.0
230
1.0
 70
     8
 71
     3
 72
    18
 73
    14
 74
     0
 42
0.000000001
 43
0.00000001
 40
0.0
 40
0.0
 40
0.0
 40
0.0
 40
0.1249999999999976
 40
0.1249999999999976
 40
0.2499999999999953
 40
0.2499999999999953
 40
0.3749999999999929
 40
0.3749999999999929
 40
0.4999999999999906
 40
0.4999999999999906
 40
0.7499999999999952
 40
0.7499999999999952
 40
1.0
 40
1.0
 40
1.0
 40
1.0
 10
8.981911811217694
 20
2.968134642240666
 30
0.0
 10
8.97823534145318
 20
2.966012261421758
 30
0.0
 10
8.974620194189711
 20
2.963509006827945
 30
0.0
 10
8.967508529490704
 20
2.957771330707799
 30
0.0
 10
8.96397525610311
 20
2.954495912531355
 30
0.0
 10
8.957240576532133
 20
2.947377889672397
 30
0.0
 10
8.95404829298546
 20
2.94355688970996
 30
0.0
 10
8.948014966620114
 20
2.935393203611548
 30
0.0
 10
8.945162660096647
 20
2.93101876823363
 30
0.0
 10
8.937515348529653
 20
2.917648658250673
 30
0.0
 10
8.933430696382354
 20
2.908049955248506
 30
0.0
 10
8.928078627892658
 20
2.889262331775221
 30
0.0
 10
8.926746368635664
 20
2.879890559479024
 30
0.0
 10
8.926930191932492
 20
2.871296200034465
 30
0.0
  0
SPLINE
  5
469
330
39A
100
AcDbEntity
  8
0
  6
Continuous
 62
     7
370
    25
100
AcDbSpline
210
0.0
220
0.0
230
1.0
 70
     8
 71
     3
 72
    18
 73
    14
 74
     0
 42
0.000000001
 43
0.00000001
 40
0.0
 40
0.0
 40
0.0
 40
0.0
 40
0.1249999999999953
 40
0.1249999999999953
 40
0.2499999999999906
 40
0.2499999999999906
 40
0.3749999999999858
 40
0.3749999999999858
 40
0.4999999999999811
 40
0.4999999999999811
 40
0.7499999999999906
 40
0.7499999999999906
 40
1.0
 40
1.0
 40
1.0
 40
1.0
 10
9.372351786380715
 20
3.128432613206969
 30
0.0
 10
9.372259874959411
 20
3.132729782311172
 30
0.0
 10
9.371818248435408
 20
3.136742202120449
 30
0.0
 10
9.370262924949705
 20
3.144221196663569
 30
0.0
 10
9.369131611327328
 20
3.147720676832571
 30
0.0
 10
9.366236445838817
 20
3.153951986377253
 30
0.0
 10
9.36448661714269
 20
3.156681451191228
 30
0.0
 10
9.360383572403858
 20
3.161377344510844
 30
0.0
 10
9.35800875349146
 20
3.163344507979875
 30
0.0
 10
9.350254133984759
 20
3.167829816278951
 30
0.0
 10
9.344035506847817
 20
3.169046521170084
 30
0.0
 10
9.33063621054738
 20
3.167744098236095
 30
0.0
 10
9.323330942519673
 20
3.165231711412221
 30
0.0
 10
9.315978007053857
 20
3.160986952120047
 30
0.0
  0
LWPOLYLINE
  5
46A
330
39A
100
AcDbEntity
  8
0
  6
Continuous
 62
     7
370
    25
100
AcDbPolyline
 90
       34
 70
   128
 43
0.0
 10
12.934904353
 20
-0.9214238023
 10
12.8652307212
 20
-0.9391467317
 10
12.7393411426
 20
-0.9599125283
 10
12.6083015463
 20
-0.9677314166
 10
12.472703612
 20
-0.9625680925
 10
12.333159601
 20
-0.9444458696
 10
12.1902995926
 20
-0.9134465747
 10
12.0447686386
 20
-0.8697101781
 10
11.8972238509
 20
-0.8134341614
 10
11.7483314343
 20
-0.7448726263
 10
11.5987636786
 20
-0.6643351468
 10
11.4491959229
 20
-0.5721853714
 10
11.3003035063
 20
-0.4688393814
 10
11.1527587186
 20
-0.3547638121
 10
11.0072277646
 20
-0.2304737458
 10
10.8643677562
 20
-0.096530386
 10
10.7248237452
 20
0.0464614768
 10
10.5892258109
 20
0.1978561952
 10
10.4581862146
 20
0.356970181
 10
10.332296636
 20
0.5230849912
 10
10.2121255006
 20
0.6954505723
 10
10.0982154139
 20
0.8732886467
 10
9.9910807109
 20
1.0557962272
 10
9.8912051339
 20
1.2421492424
 10
9.7990396483
 20
1.4315062576
 10
9.7150004064
 20
1.6230122746
 10
9.6394668682
 20
1.8158025914
 10
9.5727800882
 20
2.0090067074
 10
9.5152411754
 20
2.2017522534
 10
9.4671099335
 20
2.3931689308
 10
9.4286036883
 20
2.5823924413
 10
9.3998963059
 20
2.7685683892
 10
9.381117408
 20
2.9508561394
 10
9.3723517864
 20
3.1284326132
  0
LWPOLYLINE
  5
4D1
330
39A
100
AcDbEntity
  8
0
  6
Continuous
 62
     8
370
    25
100
AcDbPolyline
 90
        7
 70
   128
 43
0.0
 10
-6.1624224
 20
6.0225020255
 10
-6.2359928408
 20
6.0715165317
 10
-6.2967312255
 20
6.1260764387
 10
-6.3434010959
 20
6.1850710642
 10
-6.375052388
 20
6.2472994477
 10
-6.3910407728
 20
6.3114947987
 10
-6.393045914
 20
6.3431739683
  0
LWPOLYLINE
  5
4D3
330
39A
100
AcDbEntity
  8
0
  6
Continuous
 62
     8
370
    25
100
AcDbPolyline
 90
        7
 70
   128
 43
0.0
 10
-6.3930469818
 20
-16.0305815948
 10
-6.3910407728
 20
-16.063009338
 10
-6.375052388
 20
-16.127204689
 10
-6.3434010959
 20
-16.1894330725
 10
-6.2967312255
 20
-16.248427698
 10
-6.2359928408
 20
-16.302987605
 10
-6.1624224
 20
-16.3520021113
  0
LINE
  5
509
330
39A
100
AcDbEntity
  8
0
  6
Continuous
 62
     7
370
    25
100
AcDbLine
 10
6.1029822674
 20
13.7726451928
 30
0.0
 11
-6.14611158
 21
6.7013938306
 31
0.0
  0
LINE
  5
50A
330
39A
100
AcDbEntity
  8
0
  6
Continuous
 62
     7
370
    25
100
AcDbLine
 10
-6.3930469818
 20
6.3439225419
 30
0.0
 11
-6.3930469818
 21
-16.0305815948
 31
0.0
  0
LINE
  5
50B
330
39A
100
AcDbEntity
  8
0
  6
Continuous
 62
     7
370
    25
100
AcDbLine
 10
-6.14611158
 20
-16.3880528834
 30
0.0
 11
-5.6056390082
 21
-16.7000610578
 31
0.0
  0
LINE
  5
50C
330
39A
100
AcDbEntity
  8
0
  6
Continuous
 62
     7
370
    25
100
AcDbLine
 10
8.9031716537
 20
-2.6558519191
 30
0.0
 11
8.9031716537
 21
-25.0303560558
 31
0.0
  0
LINE
  5
50D
330
39A
100
AcDbEntity
  8
0
  6
Continuous
 62
     7
370
    25
100
AcDbLine
 10
10.0004212188
 20
-1.976960114
 30
0.0
 11
8.942544932
 21
-2.5876590953
 31
0.0
  0
LINE
  5
50E
330
39A
100
AcDbEntity
  8
0
  6
Continuous
 62
     7
370
    25
100
AcDbLine
 10
10.5245765717
 20
-25.3878273445
 30
0.0
 11
11.0813535648
 21
-25.066406828
 31
0.0
  0
LINE
  5
50F
330
39A
100
AcDbEntity
  8
0
  6
Continuous
 62
     7
370
    25
100
AcDbLine
 10
8.942544932
 20
-25.0985488796
 30
0.0
 11
9.4436442257
 21
-25.3878273445
 31
0.0
  0
LINE
  5
510
330
39A
100
AcDbEntity
  8
0
  6
Continuous
 62
     7
370
    25
100
AcDbLine
 10
22.773670419
 20
-18.3165759822
 30
0.0
 11
23.8872244052
 21
-17.6737349493
 31
0.0
  0
LINE
  5
511
330
39A
100
AcDbEntity
  8
0
  6
Continuous
 62
     7
370
    25
100
AcDbLine
 10
11.0976643848
 20
-12.8410258898
 30
0.0
 11
22.773670419
 21
-6.10061108
 31
0.0
  0
LINE
  5
512
330
39A
100
AcDbEntity
  8
0
  6
Continuous
 62
     7
370
    25
100
AcDbLine
 10
4.6414426606
 20
5.9050055755
 30
0.0
 11
0.3713225544
 21
3.4399177091
 31
0.0
  0
LINE
  5
513
330
39A
100
AcDbEntity
  8
0
  6
Continuous
 62
     7
370
    25
100
AcDbLine
 10
5.02401237
 20
5.7296048145
 30
0.0
 11
4.7201764191
 21
5.9050055755
 31
0.0
  0
LINE
  5
514
330
39A
100
AcDbEntity
  8
0
  6
Continuous
 62
     7
370
    25
100
AcDbLine
 10
9.299667187
 20
-2.2983858549
 30
0.0
 11
-5.0095015347
 21
5.9621214183
 31
0.0
  0
LINE
  5
515
330
39A
100
AcDbEntity
  8
0
  6
Continuous
 62
     7
370
    25
100
AcDbLine
 10
-5.5058180379
 20
-4.5095742991
 30
0.0
 11
8.8033506837
 21
-12.7700815722
 31
0.0
  0
LINE
  5
516
330
39A
100
AcDbEntity
  8
0
  6
Continuous
 62
     7
370
    25
100
AcDbLine
 10
8.8820844422
 20
-12.7700815722
 30
0.0
 11
8.9031716537
 21
-12.7579081841
 31
0.0
  0
LINE
  5
517
330
39A
100
AcDbEntity
  8
0
  6
Continuous
 62
     7
370
    25
100
AcDbLine
 10
-5.5451913162
 20
5.6528632071
 30
0.0
 11
-5.5451913162
 21
4.7848867535
 31
0.0
  0
LINE
  5
518
330
39A
100
AcDbEntity
  8
0
  6
Continuous
 62
     7
370
    25
100
AcDbLine
 10
-5.0882352931
 20
5.9621214183
 30
0.0
 11
-5.5058180379
 21
5.7210560309
 31
0.0
  0
LINE
  5
519
330
39A
100
AcDbEntity
  8
0
  6
Continuous
 62
     7
370
    25
100
AcDbLine
 10
-5.5451913162
 20
4.6884449254
 30
0.0
 11
-5.5451913162
 21
-3.4769631935
 31
0.0
  0
LINE
  5
51A
330
39A
100
AcDbEntity
  8
0
  6
Continuous
 62
     7
370
    25
100
AcDbLine
 10
-5.5451913162
 20
-3.5734050217
 30
0.0
 11
-5.5451913162
 21
-4.4413814753
 31
0.0
  0
LINE
  5
51B
330
39A
100
AcDbEntity
  8
0
  6
Continuous
 62
     7
370
    25
100
AcDbLine
 10
14.711171079
 20
0.0730325747
 30
0.0
 11
13.8094880764
 21
0.5935630923
 31
0.0
  0
LINE
  5
51C
330
39A
100
AcDbEntity
  8
0
  6
Continuous
 62
     7
370
    25
100
AcDbLine
 10
9.3554160855
 20
3.1648441214
 30
0.0
 11
5.0403231901
 21
5.6558942264
 31
0.0
  0
LINE
  5
51D
330
39A
100
AcDbEntity
  8
0
  6
Continuous
 62
     7
370
    25
100
AcDbLine
 10
21.7714691809
 20
-13.4679401825
 30
0.0
 11
21.6961106926
 21
-13.4244366532
 31
0.0
  0
LINE
  5
51E
330
39A
100
AcDbEntity
  8
0
  6
Continuous
 62
     7
370
    25
100
AcDbLine
 10
20.474178787
 20
-11.4333483132
 30
0.0
 11
20.3988202988
 21
-11.389844784
 31
0.0
  0
LINE
  5
51F
330
39A
100
AcDbEntity
  8
0
  6
Continuous
 62
     7
370
    25
100
AcDbLine
 10
18.0633344071
 20
-10.0415974769
 30
0.0
 11
17.9879759188
 21
-9.9980939477
 31
0.0
  0
LINE
  5
520
330
39A
100
AcDbEntity
  8
0
  6
Continuous
 62
     7
370
    25
100
AcDbLine
 10
-4.5477691201
 20
6.4403591457
 30
0.0
 11
-5.5499677077
 21
7.0189160753
 31
0.0
  0
LINE
  5
521
330
39A
100
AcDbEntity
  8
0
  6
Continuous
 62
     7
370
    25
100
AcDbLine
 10
6.5877707411
 20
13.5116105079
 30
0.0
 11
-5.1045461132
 21
6.7617796622
 31
0.0
  0
LINE
  5
522
330
39A
100
AcDbEntity
  8
0
  6
Continuous
 62
     7
370
    25
100
AcDbLine
 10
6.1423491466
 20
13.7687469211
 30
0.0
 11
-6.1067447007
 21
6.6974955589
 31
0.0
  0
LINE
  5
523
330
39A
100
AcDbEntity
  8
0
  6
Continuous
 62
     7
370
    25
100
AcDbLine
 10
6.0866714473
 20
13.8008889727
 30
0.0
 11
7.2002254334
 21
13.1580479398
 31
0.0
  0
LINE
  5
524
330
39A
100
AcDbEntity
  8
0
  6
Continuous
 62
     7
370
    25
100
AcDbLine
 10
6.5877707411
 20
4.7625717701
 30
0.0
 11
6.5877707411
 21
13.5116105079
 31
0.0
  0
LINE
  5
525
330
39A
100
AcDbEntity
  8
0
  6
Continuous
 62
     7
370
    25
100
AcDbLine
 10
-5.6613231063
 20
-16.6412805761
 30
0.0
 11
-5.6613231063
 21
5.7332235606
 31
0.0
  0
LINE
  5
526
330
39A
100
AcDbEntity
  8
0
  6
Continuous
 62
     7
370
    25
100
AcDbLine
 10
-5.605645407
 20
5.8296601644
 30
0.0
 11
-4.5477691201
 21
6.4403591457
 31
0.0
  0
LINE
  5
527
330
39A
100
AcDbEntity
  8
0
  6
Continuous
 62
     7
370
    25
100
AcDbLine
 10
-6.1067447007
 20
6.1189386292
 30
0.0
 11
-5.605645407
 21
5.8296601644
 31
0.0
  0
LINE
  5
528
330
39A
100
AcDbEntity
  8
0
  6
Continuous
 62
     7
370
    25
100
AcDbLine
 10
-5.6613231063
 20
5.7332235606
 30
0.0
 11
-6.1624224
 21
6.0225020255
 31
0.0
  0
LINE
  5
529
330
39A
100
AcDbEntity
  8
0
  6
Continuous
 62
     7
370
    25
100
AcDbLine
 10
-5.5499677077
 20
-16.7055751282
 30
0.0
 11
-4.4920914208
 21
-16.0948761469
 31
0.0
  0
LINE
  5
52A
330
39A
100
AcDbEntity
  8
0
  6
Continuous
 62
     7
370
    25
100
AcDbLine
 10
-4.4920914208
 20
-16.0948761469
 30
0.0
 11
-4.4920914208
 21
-13.6193269139
 31
0.0
  0
LINE
  5
52B
330
39A
100
AcDbEntity
  8
0
  6
Continuous
 62
     7
370
    25
100
AcDbLine
 10
-4.4920914208
 20
-11.754993879
 30
0.0
 11
-4.4920914208
 21
-5.0947862185
 31
0.0
  0
LINE
  5
52C
330
39A
100
AcDbEntity
  8
0
  6
Continuous
 62
     7
370
    25
100
AcDbLine
 10
-4.4920914208
 20
6.2475068358
 30
0.0
 11
-4.4920914208
 21
6.3439225419
 31
0.0
  0
LINE
  5
52D
330
39A
100
AcDbEntity
  8
0
  6
Continuous
 62
     7
370
    25
100
AcDbLine
 10
-6.1624224
 20
-16.3520021113
 30
0.0
 11
-5.6613231063
 21
-16.6412805761
 31
0.0
  0
LINE
  5
52E
330
39A
100
AcDbEntity
  8
0
  6
Continuous
 62
     7
370
    25
100
AcDbLine
 10
-6.1624224
 20
6.0225020255
 30
0.0
 11
-6.1624224
 21
-16.3520021113
 31
0.0
  0
LINE
  5
52F
330
39A
100
AcDbEntity
  8
0
  6
Continuous
 62
     7
370
    25
100
AcDbLine
 10
7.2002254334
 20
13.1580479398
 30
0.0
 11
7.2002254334
 21
4.409009202
 31
0.0
  0
LINE
  5
530
330
39A
100
AcDbEntity
  8
0
  6
Continuous
 62
     7
370
    25
100
AcDbLine
 10
6.0866714473
 20
13.7632291568
 30
0.0
 11
6.0866714473
 21
13.8008889727
 31
0.0
  0
LINE
  5
531
330
39A
100
AcDbEntity
  8
0
  6
Continuous
 62
     7
370
    25
100
AcDbLine
 10
8.3137794195
 20
13.8008889727
 30
0.0
 11
7.2002254334
 21
13.1580479398
 31
0.0
  0
LINE
  5
532
330
39A
100
AcDbEntity
  8
0
  6
Continuous
 62
     7
370
    25
100
AcDbLine
 10
8.3137794195
 20
13.8008889727
 30
0.0
 11
8.3137794195
 21
6.5998991356
 31
0.0
  0
LINE
  5
533
330
39A
100
AcDbEntity
  8
0
  6
Continuous
 62
     7
370
    25
100
AcDbLine
 10
7.2002254334
 20
14.4437300057
 30
0.0
 11
6.0866714473
 21
13.8008889727
 31
0.0
  0
LINE
  5
534
330
39A
100
AcDbEntity
  8
0
  6
Continuous
 62
     7
370
    25
100
AcDbLine
 10
7.2002254334
 20
14.4437300057
 30
0.0
 11
8.3137794195
 21
13.8008889727
 31
0.0
  0
LINE
  5
535
330
39A
100
AcDbEntity
  8
0
  6
Continuous
 62
     7
370
    25
100
AcDbLine
 10
10.5408873918
 20
-25.3517765723
 30
0.0
 11
10.5408873918
 21
-2.9772724356
 31
0.0
  0
LINE
  5
536
330
39A
100
AcDbEntity
  8
0
  6
Continuous
 62
     7
370
    25
100
AcDbLine
 10
9.4273334057
 20
-2.9772724356
 30
0.0
 11
9.4273334057
 21
-25.3517765723
 31
0.0
  0
LINE
  5
537
330
39A
100
AcDbEntity
  8
0
  6
Continuous
 62
     7
370
    25
100
AcDbLine
 10
8.9819118112
 20
-2.591557367
 30
0.0
 11
9.483011105
 21
-2.8808358318
 31
0.0
  0
LINE
  5
538
330
39A
100
AcDbEntity
  8
0
  6
Continuous
 62
     7
370
    25
100
AcDbLine
 10
10.039788098
 20
-1.9808583857
 30
0.0
 11
8.9819118112
 21
-2.591557367
 31
0.0
  0
LINE
  5
539
330
39A
100
AcDbEntity
  8
0
  6
Continuous
 62
     7
370
    25
100
AcDbLine
 10
10.039788098
 20
-1.9808583857
 30
0.0
 11
11.0419866855
 21
-2.5594153154
 31
0.0
  0
LINE
  5
53A
330
39A
100
AcDbEntity
  8
0
  6
Continuous
 62
     7
370
    25
100
AcDbLine
 10
9.4273334057
 20
-2.9772724356
 30
0.0
 11
8.9262341119
 21
-2.6879939708
 31
0.0
  0
LINE
  5
53B
330
39A
100
AcDbEntity
  8
0
  6
Continuous
 62
     7
370
    25
100
AcDbLine
 10
8.9262341119
 20
-25.0624981075
 30
0.0
 11
9.4273334057
 21
-25.3517765723
 31
0.0
  0
LINE
  5
53C
330
39A
100
AcDbEntity
  8
0
  6
Continuous
 62
     7
370
    25
100
AcDbLine
 10
8.9262341119
 20
-2.6879939708
 30
0.0
 11
8.9262341119
 21
-25.0624981075
 31
0.0
  0
LINE
  5
53D
330
39A
100
AcDbEntity
  8
0
  6
Continuous
 62
     7
370
    25
100
AcDbLine
 10
11.0976643848
 20
-2.6558519191
 30
0.0
 11
11.0976643848
 21
-25.0303560558
 31
0.0
  0
LINE
  5
53E
330
39A
100
AcDbEntity
  8
0
  6
Continuous
 62
     7
370
    25
100
AcDbLine
 10
10.5408873918
 20
-25.3517765723
 30
0.0
 11
11.0976643848
 21
-25.0303560558
 31
0.0
  0
LINE
  5
53F
330
39A
100
AcDbEntity
  8
0
  6
Continuous
 62
     7
370
    25
100
AcDbLine
 10
21.676427253
 20
4.8011145117
 30
0.0
 11
21.676427253
 21
4.0939893755
 31
0.0
  0
LINE
  5
540
330
39A
100
AcDbEntity
  8
0
  6
Continuous
 62
     7
370
    25
100
AcDbLine
 10
21.676427253
 20
-6.7340360769
 30
0.0
 11
21.676427253
 21
-13.370710298
 31
0.0
  0
LINE
  5
541
330
39A
100
AcDbEntity
  8
0
  6
Continuous
 62
     7
370
    25
100
AcDbLine
 10
21.676427253
 20
-15.2264294963
 30
0.0
 11
21.676427253
 21
-17.7019787292
 31
0.0
  0
LINE
  5
542
330
39A
100
AcDbEntity
  8
0
  6
Continuous
 62
     7
370
    25
100
AcDbLine
 10
22.7343035398
 20
4.1904155304
 30
0.0
 11
21.676427253
 21
4.8011145117
 31
0.0
  0
LINE
  5
543
330
39A
100
AcDbEntity
  8
0
  6
Continuous
 62
     7
370
    25
100
AcDbLine
 10
22.7899812391
 20
-18.28052521
 30
0.0
 11
22.7899812391
 21
4.0939789267
 31
0.0
  0
LINE
  5
544
330
39A
100
AcDbEntity
  8
0
  6
Continuous
 62
     7
370
    25
100
AcDbLine
 10
21.676427253
 20
-17.7019787292
 30
0.0
 11
22.7343035398
 21
-18.3126777105
 31
0.0
  0
LINE
  5
545
330
39A
100
AcDbEntity
  8
0
  6
Continuous
 62
     7
370
    25
100
AcDbLine
 10
23.9035352252
 20
4.7368199596
 30
0.0
 11
10.5408873918
 21
-2.9772724356
 31
0.0
  0
LINE
  5
546
330
39A
100
AcDbEntity
  8
0
  6
Continuous
 62
     7
370
    25
100
AcDbLine
 10
10.4852096925
 20
-2.8808358318
 30
0.0
 11
23.8478575259
 21
4.8332565634
 31
0.0
  0
LINE
  5
547
330
39A
100
AcDbEntity
  8
0
  6
Continuous
 62
     7
370
    25
100
AcDbLine
 10
23.9035352252
 20
-17.6376841771
 30
0.0
 11
23.9035352252
 21
4.7368199596
 31
0.0
  0
LINE
  5
548
330
39A
100
AcDbEntity
  8
0
  6
Continuous
 62
     7
370
    25
100
AcDbLine
 10
22.7899812391
 20
-18.28052521
 30
0.0
 11
23.9035352252
 21
-17.6376841771
 31
0.0
  0
LINE
  5
549
330
39A
100
AcDbEntity
  8
0
  6
Continuous
 62
     7
370
    25
100
AcDbLine
 10
22.7899812391
 20
5.4439555446
 30
0.0
 11
21.676427253
 21
4.8011145117
 31
0.0
  0
LINE
  5
54A
330
39A
100
AcDbEntity
  8
0
  6
Continuous
 62
     7
370
    25
100
AcDbLine
 10
23.8478575259
 20
4.8332565634
 30
0.0
 11
22.7899812391
 21
5.4439555446
 31
0.0
  0
LINE
  5
54B
330
39A
100
AcDbEntity
  8
0
  6
Continuous
 62
     7
370
    25
100
AcDbLine
 10
22.7899812391
 20
3.193855197
 30
0.0
 11
11.0976643848
 21
-3.5559756488
 31
0.0
  0
LINE
  5
54C
330
39A
100
AcDbEntity
  8
0
  6
Continuous
 62
     7
370
    25
100
AcDbLine
 10
22.2888819454
 20
4.4475519436
 30
0.0
 11
10.5965650911
 21
-2.3022789022
 31
0.0
  0
LINE
  5
54D
330
39A
100
AcDbEntity
  8
0
  6
Continuous
 62
     7
370
    25
100
AcDbLine
 10
22.7343035398
 20
3.1617131454
 30
0.0
 11
22.7343035398
 21
3.1295554205
 31
0.0
  0
LINE
  5
54E
330
39A
100
AcDbEntity
  8
0
  6
Continuous
 62
     7
370
    25
100
AcDbLine
 10
11.0976643848
 20
-3.5881333736
 30
0.0
 11
22.7343035398
 21
3.1295554205
 31
0.0
  0
LINE
  5
54F
330
39A
100
AcDbEntity
  8
0
  6
Continuous
 62
     7
370
    25
100
AcDbLine
 10
22.7899812391
 20
3.0974133688
 30
0.0
 11
11.0976643848
 21
-3.6524174769
 31
0.0
  0
LINE
  5
550
330
39A
100
AcDbEntity
  8
0
  6
Continuous
 62
     7
370
    25
100
AcDbLine
 10
11.0976643848
 20
-11.8178255958
 30
0.0
 11
22.7899812391
 21
-5.06799475
 31
0.0
  0
LINE
  5
551
330
39A
100
AcDbEntity
  8
0
  6
Continuous
 62
     7
370
    25
100
AcDbLine
 10
22.7343035398
 20
3.1295554205
 30
0.0
 11
22.7899812391
 21
3.0974133688
 31
0.0
  0
LINE
  5
552
330
39A
100
AcDbEntity
  8
0
  6
Continuous
 62
     7
370
    25
100
AcDbLine
 10
22.7343035398
 20
-5.1322945265
 30
0.0
 11
11.0976643848
 21
-11.8499833207
 31
0.0
  0
LINE
  5
553
330
39A
100
AcDbEntity
  8
0
  6
Continuous
 62
     7
370
    25
100
AcDbLine
 10
22.7343035398
 20
-5.1322945265
 30
0.0
 11
22.7343035398
 21
-5.1001368017
 31
0.0
  0
LINE
  5
554
330
39A
100
AcDbEntity
  8
0
  6
Continuous
 62
     7
370
    25
100
AcDbLine
 10
11.0976643848
 20
-11.914267424
 30
0.0
 11
22.7899812391
 21
-5.1644365782
 31
0.0
  0
LINE
  5
555
330
39A
100
AcDbEntity
  8
0
  6
Continuous
 62
     7
370
    25
100
AcDbLine
 10
22.7899812391
 20
-5.1644365782
 30
0.0
 11
22.7343035398
 21
-5.1322945265
 31
0.0
  0
LINE
  5
556
330
39A
100
AcDbEntity
  8
0
  6
Continuous
 62
     7
370
    25
100
AcDbLine
 10
11.0976643848
 20
-12.8143911536
 30
0.0
 11
22.7899812391
 21
-6.0645603078
 31
0.0
  0
LINE
  5
557
330
39A
100
AcDbEntity
  8
0
  6
Continuous
 62
     7
370
    25
100
AcDbLine
 10
-5.0767072636
 20
6.0707255518
 30
0.0
 11
-5.0767072636
 21
5.9675832674
 31
0.0
  0
LINE
  5
558
330
39A
100
AcDbEntity
  8
0
  6
Continuous
 62
     7
370
    25
100
AcDbLine
 10
9.399494556
 20
-2.2862078764
 30
0.0
 11
-5.0767072636
 21
6.0707255518
 31
0.0
  0
LINE
  5
559
330
39A
100
AcDbEntity
  8
0
  6
Continuous
 62
     7
370
    25
100
AcDbLine
 10
9.399494556
 20
-2.2862078764
 30
0.0
 11
9.399494556
 21
-2.3238676923
 31
0.0
  0
LINE
  5
55A
330
39A
100
AcDbEntity
  8
0
  6
Continuous
 62
     7
370
    25
100
AcDbLine
 10
-4.6312856691
 20
6.3278619649
 30
0.0
 11
-5.0767072636
 21
6.0707255518
 31
0.0
  0
LINE
  5
55B
330
39A
100
AcDbEntity
  8
0
  6
Continuous
 62
     7
370
    25
100
AcDbLine
 10
9.8449161505
 20
-2.0290714632
 30
0.0
 11
-4.6312856691
 21
6.3278619649
 31
0.0
  0
LINE
  5
55C
330
39A
100
AcDbEntity
  8
0
  6
Continuous
 62
     7
370
    25
100
AcDbLine
 10
9.399494556
 20
-2.2862078764
 30
0.0
 11
9.8449161505
 21
-2.0290714632
 31
0.0
  0
LINE
  5
55D
330
39A
100
AcDbEntity
  8
0
  6
Continuous
 62
     7
370
    25
100
AcDbLine
 10
9.8449161505
 20
-2.0667312791
 30
0.0
 11
9.8449161505
 21
-2.0290714632
 31
0.0
  0
LINE
  5
55E
330
39A
100
AcDbEntity
  8
0
  6
Continuous
 62
     7
370
    25
100
AcDbLine
 10
16.7200984229
 20
1.2327616448
 30
0.0
 11
7.8683578251
 21
6.3427627225
 31
0.0
  0
LINE
  5
55F
330
39A
100
AcDbEntity
  8
0
  6
Continuous
 62
     7
370
    25
100
AcDbLine
 10
8.3137794195
 20
6.5998991356
 30
0.0
 11
7.8683578251
 21
6.3427627225
 31
0.0
  0
LINE
  5
560
330
39A
100
AcDbEntity
  8
0
  6
Continuous
 62
     7
370
    25
100
AcDbLine
 10
17.1655200173
 20
1.489898058
 30
0.0
 11
8.3137794195
 21
6.5998991356
 31
0.0
  0
LINE
  5
561
330
39A
100
AcDbEntity
  8
0
  6
Continuous
 62
     7
370
    25
100
AcDbLine
 10
7.8683578251
 20
4.0233045823
 30
0.0
 11
7.8683578251
 21
6.3427627225
 31
0.0
  0
LINE
  5
562
330
39A
100
AcDbEntity
  8
0
  6
Continuous
 62
     7
370
    25
100
AcDbLine
 10
13.5747111339
 20
0.4767729918
 30
0.0
 11
9.3858586159
 21
2.8949460782
 31
0.0
  0
LINE
  5
563
330
39A
100
AcDbEntity
  8
0
  6
Continuous
 62
     7
370
    25
100
AcDbLine
 10
5.0566340101
 20
5.6841380064
 30
0.0
 11
5.0566340101
 21
5.6464781904
 31
0.0
  0
LINE
  5
564
330
39A
100
AcDbEntity
  8
0
  6
Continuous
 62
     7
370
    25
100
AcDbLine
 10
4.9452786115
 20
5.7484325585
 30
0.0
 11
4.6808095398
 21
5.9011073038
 31
0.0
  0
LINE
  5
565
330
39A
100
AcDbEntity
  8
0
  6
Continuous
 62
     7
370
    25
100
AcDbLine
 10
3.276119598
 20
1.7630140698
 30
0.0
 11
4.6112124157
 21
2.5337467479
 31
0.0
  0
LINE
  5
566
330
39A
100
AcDbEntity
  8
0
  6
Continuous
 62
     7
370
    25
100
AcDbLine
 10
4.6112124157
 20
2.5337467479
 30
0.0
 11
11.7924636606
 21
-1.6119013531
 31
0.0
  0
LINE
  5
567
330
39A
100
AcDbEntity
  8
0
  6
Continuous
 62
     7
370
    25
100
AcDbLine
 10
8.7870398636
 20
-3.5077625713
 30
0.0
 11
8.7870398636
 21
-2.6397861177
 31
0.0
  0
LINE
  5
568
330
39A
100
AcDbEntity
  8
0
  6
Continuous
 62
     7
370
    25
100
AcDbLine
 10
-5.4664511587
 20
5.7171577592
 30
0.0
 11
8.842717563
 21
-2.5433495139
 31
0.0
  0
LINE
  5
569
330
39A
100
AcDbEntity
  8
0
  6
Continuous
 62
     7
370
    25
100
AcDbLine
 10
8.7870398636
 20
-2.6397861177
 30
0.0
 11
-5.522128858
 21
5.6207211555
 31
0.0
  0
LINE
  5
56A
330
39A
100
AcDbEntity
  8
0
  6
Continuous
 62
     7
370
    25
100
AcDbLine
 10
8.842717563
 20
-2.5433495139
 30
0.0
 11
9.2603003077
 21
-2.3022841266
 31
0.0
  0
LINE
  5
56B
330
39A
100
AcDbEntity
  8
0
  6
Continuous
 62
     7
370
    25
100
AcDbLine
 10
-5.522128858
 20
5.6207211555
 30
0.0
 11
-5.522128858
 21
4.720586977
 31
0.0
  0
LINE
  5
56C
330
39A
100
AcDbEntity
  8
0
  6
Continuous
 62
     7
370
    25
100
AcDbLine
 10
-5.522128858
 20
4.7527447019
 30
0.0
 11
8.7870398636
 21
-3.5077625713
 31
0.0
  0
LINE
  5
56D
330
39A
100
AcDbEntity
  8
0
  6
Continuous
 62
     7
370
    25
100
AcDbLine
 10
8.8983952623
 20
-2.6397861177
 30
0.0
 11
8.8983952623
 21
-12.7340308001
 31
0.0
  0
LINE
  5
56E
330
39A
100
AcDbEntity
  8
0
  6
Continuous
 62
     7
370
    25
100
AcDbLine
 10
-5.0488684139
 20
5.9582231466
 30
0.0
 11
-5.4664511587
 21
5.7171577592
 31
0.0
  0
LINE
  5
56F
330
39A
100
AcDbEntity
  8
0
  6
Continuous
 62
     7
370
    25
100
AcDbLine
 10
9.2603003077
 20
-2.3022841266
 30
0.0
 11
-5.0488684139
 21
5.9582231466
 31
0.0
  0
LINE
  5
570
330
39A
100
AcDbEntity
  8
0
  6
Continuous
 62
     7
370
    25
100
AcDbLine
 10
-5.522128858
 20
4.720586977
 30
0.0
 11
8.8983952623
 21
-3.6042043995
 31
0.0
  0
LINE
  5
571
330
39A
100
AcDbEntity
  8
0
  6
Continuous
 62
     7
370
    25
100
AcDbLine
 10
-5.522128858
 20
4.6563028737
 30
0.0
 11
8.7870398636
 21
-3.6042043995
 31
0.0
  0
LINE
  5
572
330
39A
100
AcDbEntity
  8
0
  6
Continuous
 62
     7
370
    25
100
AcDbLine
 10
8.7870398636
 20
-11.7696125183
 30
0.0
 11
8.7870398636
 21
-3.6042043995
 31
0.0
  0
LINE
  5
573
330
39A
100
AcDbEntity
  8
0
  6
Continuous
 62
     7
370
    25
100
AcDbLine
 10
-5.522128858
 20
4.6563028737
 30
0.0
 11
-5.522128858
 21
-3.54126297
 31
0.0
  0
LINE
  5
574
330
39A
100
AcDbEntity
  8
0
  6
Continuous
 62
     7
370
    25
100
AcDbLine
 10
8.7870398636
 20
-11.7696125183
 30
0.0
 11
-5.522128858
 21
-3.5091052451
 31
0.0
  0
LINE
  5
575
330
39A
100
AcDbEntity
  8
0
  6
Continuous
 62
     7
370
    25
100
AcDbLine
 10
-5.522128858
 20
-3.54126297
 30
0.0
 11
8.8983952623
 21
-11.8660543465
 31
0.0
  0
LINE
  5
576
330
39A
100
AcDbEntity
  8
0
  6
Continuous
 62
     7
370
    25
100
AcDbLine
 10
8.7870398636
 20
-11.8660543465
 30
0.0
 11
-5.522128858
 21
-3.6055470733
 31
0.0
  0
LINE
  5
577
330
39A
100
AcDbEntity
  8
0
  6
Continuous
 62
     7
370
    25
100
AcDbLine
 10
8.7870398636
 20
-12.7340308001
 30
0.0
 11
8.7870398636
 21
-11.8660543465
 31
0.0
  0
LINE
  5
578
330
39A
100
AcDbEntity
  8
0
  6
Continuous
 62
     7
370
    25
100
AcDbLine
 10
-5.522128858
 20
-3.6055470733
 30
0.0
 11
-5.522128858
 21
-4.4735235269
 31
0.0
  0
LINE
  5
579
330
39A
100
AcDbEntity
  8
0
  6
Continuous
 62
     7
370
    25
100
AcDbLine
 10
-5.522128858
 20
-4.4735235269
 30
0.0
 11
8.7870398636
 21
-12.7340308001
 31
0.0
  0
LINE
  5
57A
330
39A
100
AcDbEntity
  8
0
  6
Continuous
 62
     7
370
    25
100
AcDbLine
 10
4.6112124157
 20
2.5337467479
 30
0.0
 11
4.6112124157
 21
5.3627070411
 31
0.0
  0
LINE
  5
57B
330
39A
100
AcDbEntity
  8
0
  6
Continuous
 62
     7
370
    25
100
AcDbLine
 10
8.9269301919
 20
2.8712962
 30
0.0
 11
4.6112124157
 21
5.3627070411
 31
0.0
  0
LINE
  5
57C
330
39A
100
AcDbEntity
  8
0
  6
Continuous
 62
     7
370
    25
100
AcDbLine
 10
13.4361277557
 20
0.3967705105
 30
0.0
 11
13.7701939515
 21
0.5896228204
 31
0.0
  0
LINE
  5
57D
330
39A
100
AcDbEntity
  8
0
  6
Continuous
 62
     7
370
    25
100
AcDbLine
 10
8.9819118112
 20
2.9681346422
 30
0.0
 11
9.3159780071
 21
3.1609869521
 31
0.0
  0
LINE
  5
57E
330
39A
100
AcDbEntity
  8
0
  6
Continuous
 62
     7
370
    25
100
AcDbLine
 10
4.666890115
 20
5.4591436448
 30
0.0
 11
8.9819118112
 21
2.9681346422
 31
0.0
  0
LINE
  5
57F
330
39A
100
AcDbEntity
  8
0
  6
Continuous
 62
     7
370
    25
100
AcDbLine
 10
5.0566340101
 20
5.6841380064
 30
0.0
 11
0.7702158825
 21
3.2096414924
 31
0.0
  0
LINE
  5
580
330
39A
100
AcDbEntity
  8
0
  6
Continuous
 62
     7
370
    25
100
AcDbLine
 10
9.3159780071
 20
3.1609869521
 30
0.0
 11
5.0009563108
 21
5.6519959547
 31
0.0
  0
LINE
  5
581
330
39A
100
AcDbEntity
  8
0
  6
Continuous
 62
     7
370
    25
100
AcDbLine
 10
11.0976643848
 20
-20.75476834
 30
0.0
 11
22.7899812391
 21
-14.0049374943
 31
0.0
  0
LINE
  5
582
330
39A
100
AcDbEntity
  8
0
  6
Continuous
 62
     7
370
    25
100
AcDbLine
 10
11.0976643848
 20
-21.3334193091
 30
0.0
 11
22.7899812391
 21
-14.5835884633
 31
0.0
  0
LINE
  5
583
330
39A
100
AcDbEntity
  8
0
  6
Continuous
 62
     7
370
    25
100
AcDbLine
 10
11.0976643848
 20
-19.4690862742
 30
0.0
 11
21.676427253
 21
-13.3620964613
 31
0.0
  0
LINE
  5
584
330
39A
100
AcDbEntity
  8
0
  6
Continuous
 62
     7
370
    25
100
AcDbLine
 10
8.8705564126
 20
-20.75476834
 30
0.0
 11
8.9031716537
 21
-20.7359399621
 31
0.0
  0
LINE
  5
585
330
39A
100
AcDbEntity
  8
0
  6
Continuous
 62
     7
370
    25
100
AcDbLine
 10
6.6267451306
 20
-19.4594436587
 30
0.0
 11
8.8705564126
 21
-20.75476834
 31
0.0
  0
LINE
  5
586
330
39A
100
AcDbEntity
  8
0
  6
Continuous
 62
     7
370
    25
100
AcDbLine
 10
6.6267451306
 20
-19.427301607
 30
0.0
 11
8.9031716537
 21
-18.1131485478
 31
0.0
  0
LINE
  5
587
330
39A
100
AcDbEntity
  8
0
  6
Continuous
 62
     7
370
    25
100
AcDbLine
 10
11.0976643848
 20
-16.8462948598
 30
0.0
 11
20.4904922578
 21
-11.4239307471
 31
0.0
  0
LINE
  5
588
330
39A
100
AcDbEntity
  8
0
  6
Continuous
 62
     7
370
    25
100
AcDbLine
 10
21.676427253
 20
-12.0764143955
 30
0.0
 11
20.5461699571
 21
-11.4239307471
 31
0.0
  0
LINE
  5
589
330
39A
100
AcDbEntity
  8
0
  6
Continuous
 62
     7
370
    25
100
AcDbLine
 10
11.0976643848
 20
-19.6297965324
 30
0.0
 11
21.7877826516
 21
-13.4585226163
 31
0.0
  0
LINE
  5
58A
330
39A
100
AcDbEntity
  8
0
  6
Continuous
 62
     7
370
    25
100
AcDbLine
 10
22.7899812391
 20
-14.0049374943
 30
0.0
 11
21.8434603509
 21
-13.4585226163
 31
0.0
  0
LINE
  5
58B
330
39A
100
AcDbEntity
  8
0
  6
Continuous
 62
     7
370
    25
100
AcDbLine
 10
-3.0166323892
 20
-13.8924403135
 30
0.0
 11
-0.8006599569
 21
-15.171693969
 31
0.0
  0
LINE
  5
58C
330
39A
100
AcDbEntity
  8
0
  6
Continuous
 62
     7
370
    25
100
AcDbLine
 10
-0.6614657086
 20
-15.3163436503
 30
0.0
 11
-0.7449822575
 21
-15.2681305728
 31
0.0
  0
LINE
  5
58D
330
39A
100
AcDbEntity
  8
0
  6
Continuous
 62
     7
370
    25
100
AcDbLine
 10
-0.6057880093
 20
-15.2841911498
 30
0.0
 11
1.6101844231
 21
-16.5634448053
 31
0.0
  0
LINE
  5
58E
330
39A
100
AcDbEntity
  8
0
  6
Continuous
 62
     7
370
    25
100
AcDbLine
 10
1.7493786714
 20
-16.7080944866
 30
0.0
 11
1.6658621224
 21
-16.6598814091
 31
0.0
  0
LINE
  5
58F
330
39A
100
AcDbEntity
  8
0
  6
Continuous
 62
     7
370
    25
100
AcDbLine
 10
1.8050563707
 20
-16.6759419861
 30
0.0
 11
4.0210288031
 21
-17.9551956416
 31
0.0
  0
LINE
  5
590
330
39A
100
AcDbEntity
  8
0
  6
Continuous
 62
     7
370
    25
100
AcDbLine
 10
4.1602230513
 20
-18.0998453229
 30
0.0
 11
4.0767065024
 21
-18.0516322454
 31
0.0
  0
LINE
  5
591
330
39A
100
AcDbEntity
  8
0
  6
Continuous
 62
     7
370
    25
100
AcDbLine
 10
4.2159007506
 20
-18.0676928224
 30
0.0
 11
6.431873183
 21
-19.3469464779
 31
0.0
  0
LINE
  5
592
330
39A
100
AcDbEntity
  8
0
  6
Continuous
 62
     7
370
    25
100
AcDbLine
 10
6.5710674313
 20
-19.4915961592
 30
0.0
 11
6.4875508823
 21
-19.4433830817
 31
0.0
  0
LINE
  5
593
330
39A
100
AcDbEntity
  8
0
  6
Continuous
 62
     7
370
    25
100
AcDbLine
 10
8.8705564126
 20
-20.75476834
 30
0.0
 11
8.8705564126
 21
-21.3334193091
 31
0.0
  0
LINE
  5
594
330
39A
100
AcDbEntity
  8
0
  6
Continuous
 62
     7
370
    25
100
AcDbLine
 10
-5.605645407
 20
-12.3978349119
 30
0.0
 11
-5.605645407
 21
-12.976485881
 31
0.0
  0
LINE
  5
595
330
39A
100
AcDbEntity
  8
0
  6
Continuous
 62
     7
370
    25
100
AcDbLine
 10
-5.605645407
 20
-12.3978349119
 30
0.0
 11
-3.2115043368
 21
-13.7799431327
 31
0.0
  0
LINE
  5
596
330
39A
100
AcDbEntity
  8
0
  6
Continuous
 62
     7
370
    25
100
AcDbLine
 10
-3.0723100885
 20
-13.924592814
 30
0.0
 11
-3.1558266375
 21
-13.8763797365
 31
0.0
  0
LINE
  5
597
330
39A
100
AcDbEntity
  8
0
  6
Continuous
 62
     7
370
    25
100
AcDbLine
 10
-5.605645407
 20
-12.976485881
 30
0.0
 11
8.8705564126
 21
-21.3334193091
 31
0.0
  0
LINE
  5
598
330
39A
100
AcDbEntity
  8
0
  6
Continuous
 62
     7
370
    25
100
AcDbLine
 10
8.8705564126
 20
-21.3334193091
 30
0.0
 11
8.9031716537
 21
-21.3145909312
 31
0.0
  0
LINE
  5
599
330
39A
100
AcDbEntity
  8
0
  6
Continuous
 62
     7
370
    25
100
AcDbLine
 10
6.515389732
 20
-19.3951647798
 30
0.0
 11
6.5989062809
 21
-19.4433778573
 31
0.0
  0
LINE
  5
59A
330
39A
100
AcDbEntity
  8
0
  6
Continuous
 62
     7
370
    25
100
AcDbLine
 10
20.3512980095
 20
-11.3435756179
 30
0.0
 11
11.0976643848
 21
-16.6855846016
 31
0.0
  0
LINE
  5
59B
330
39A
100
AcDbEntity
  8
0
  6
Continuous
 62
     7
370
    25
100
AcDbLine
 10
8.9031716537
 20
-17.9524382895
 30
0.0
 11
6.4875508823
 21
-19.3469464779
 31
0.0
  0
LINE
  5
59C
330
39A
100
AcDbEntity
  8
0
  6
Continuous
 62
     7
370
    25
100
AcDbLine
 10
4.2159007506
 20
-18.0355507707
 30
0.0
 11
8.9031716537
 21
-15.3296468752
 31
0.0
  0
LINE
  5
59D
330
39A
100
AcDbEntity
  8
0
  6
Continuous
 62
     7
370
    25
100
AcDbLine
 10
11.0976643848
 20
-14.0627931872
 30
0.0
 11
18.0796478778
 21
-10.0321799108
 31
0.0
  0
LINE
  5
59E
330
39A
100
AcDbEntity
  8
0
  6
Continuous
 62
     7
370
    25
100
AcDbLine
 10
20.3512980095
 20
-11.3114335663
 30
0.0
 11
18.1353255771
 21
-10.0321799108
 31
0.0
  0
LINE
  5
59F
330
39A
100
AcDbEntity
  8
0
  6
Continuous
 62
     7
370
    25
100
AcDbLine
 10
4.104545352
 20
-18.0034139435
 30
0.0
 11
4.188061901
 21
-18.051627021
 31
0.0
  0
LINE
  5
5A0
330
39A
100
AcDbEntity
  8
0
  6
Continuous
 62
     7
370
    25
100
AcDbLine
 10
1.8050563707
 20
-16.6437999345
 30
0.0
 11
8.6593055683
 21
-12.6869260971
 31
0.0
  0
LINE
  5
5A1
330
39A
100
AcDbEntity
  8
0
  6
Continuous
 62
     7
370
    25
100
AcDbLine
 10
17.9404536296
 20
-9.91968273
 30
0.0
 11
17.0492905526
 21
-9.4052252362
 31
0.0
  0
LINE
  5
5A2
330
39A
100
AcDbEntity
  8
0
  6
Continuous
 62
     7
370
    25
100
AcDbLine
 10
17.9404536296
 20
-9.9518247816
 30
0.0
 11
11.0976643848
 21
-13.902082929
 31
0.0
  0
LINE
  5
5A3
330
39A
100
AcDbEntity
  8
0
  6
Continuous
 62
     7
370
    25
100
AcDbLine
 10
8.9031716537
 20
-15.1689366169
 30
0.0
 11
4.0767065024
 21
-17.9551956416
 31
0.0
  0
LINE
  5
5A4
330
39A
100
AcDbEntity
  8
0
  6
Continuous
 62
     7
370
    25
100
AcDbLine
 10
1.6937009721
 20
-16.6116631072
 30
0.0
 11
1.777217521
 21
-16.6598761847
 31
0.0
  0
LINE
  5
5A5
330
39A
100
AcDbEntity
  8
0
  6
Continuous
 62
     7
370
    25
100
AcDbLine
 10
8.52011132
 20
-12.606570968
 30
0.0
 11
1.6658621224
 21
-16.5634448053
 31
0.0
  0
LINE
  5
5A6
330
39A
100
AcDbEntity
  8
0
  6
Continuous
 62
     7
370
    25
100
AcDbLine
 10
-0.6057880093
 20
-15.2520490982
 30
0.0
 11
6.2484611883
 21
-11.2951752608
 31
0.0
  0
LINE
  5
5A7
330
39A
100
AcDbEntity
  8
0
  6
Continuous
 62
     7
370
    25
100
AcDbLine
 10
-0.7171434079
 20
-15.2199122709
 30
0.0
 11
-0.6336268589
 21
-15.2681253484
 31
0.0
  0
LINE
  5
5A8
330
39A
100
AcDbEntity
  8
0
  6
Continuous
 62
     7
370
    25
100
AcDbLine
 10
6.1092669401
 20
-11.2148201317
 30
0.0
 11
-0.7449822575
 21
-15.171693969
 31
0.0
  0
LINE
  5
5A9
330
39A
100
AcDbEntity
  8
0
  6
Continuous
 62
     7
370
    25
100
AcDbLine
 10
-3.0166323892
 20
-13.8602982619
 30
0.0
 11
3.8376168084
 21
-9.9034244245
 31
0.0
  0
LINE
  5
5AA
330
39A
100
AcDbEntity
  8
0
  6
Continuous
 62
     7
370
    25
100
AcDbLine
 10
-3.1279877878
 20
-13.8281614346
 30
0.0
 11
-3.0444712389
 21
-13.8763745121
 31
0.0
  0
LINE
  5
5AB
330
39A
100
AcDbEntity
  8
0
  6
Continuous
 62
     7
370
    25
100
AcDbLine
 10
1.2764426403
 20
-8.4248900488
 30
0.0
 11
-5.605645407
 21
-12.3978349119
 31
0.0
  0
LINE
  5
5AC
330
39A
100
AcDbEntity
  8
0
  6
Continuous
 62
     7
370
    25
100
AcDbLine
 10
3.6984225601
 20
-9.8230692954
 30
0.0
 11
-3.1558266375
 21
-13.7799431327
 31
0.0
  0
LINE
  5
5AD
330
39A
100
AcDbEntity
  8
0
  6
Continuous
 62
     7
370
    25
100
AcDbLine
 10
1.137248392
 20
-8.3445349197
 30
0.0
 11
-4.4920914208
 21
-11.5942836208
 31
0.0
  0
LINE
  5
5AE
330
39A
100
AcDbEntity
  8
0
  6
Continuous
 62
     7
370
    25
100
AcDbLine
 10
0.1628886542
 20
-7.7820490158
 30
0.0
 11
-4.4920914208
 21
-10.4693118131
 31
0.0
  0
LINE
  5
5AF
330
39A
100
AcDbEntity
  8
0
  6
Continuous
 62
     8
370
    25
100
AcDbLine
 10
-5.5499677077
 20
5.7332235606
 30
0.0
 11
-5.5499677077
 21
-12.3656928603
 31
0.0
  0
LINE
  5
5B0
330
39A
100
AcDbEntity
  8
0
  6
Continuous
 62
     8
370
    25
100
AcDbLine
 10
-5.5499677077
 20
-13.0086279326
 30
0.0
 11
-5.5499677077
 21
-16.7055751282
 31
0.0
  0
LINE
  5
5B1
330
39A
100
AcDbEntity
  8
0
  6
Continuous
 62
     8
370
    25
100
AcDbLine
 10
-4.4920914208
 20
6.3439225419
 30
0.0
 11
-4.5755989199
 21
6.2957146889
 31
0.0
  0
LINE
  5
5B2
330
39A
100
AcDbEntity
  8
0
  6
Continuous
 62
     8
370
    25
100
AcDbLine
 10
-5.0767072636
 20
6.0064309996
 30
0.0
 11
-5.5499677077
 21
5.7332235606
 31
0.0
  0
LINE
  5
5B3
330
39A
100
AcDbEntity
  8
0
  6
Continuous
 62
     8
370
    25
100
AcDbLine
 10
0.6588514339
 20
3.2739308201
 30
0.0
 11
4.9452786115
 21
5.7484325585
 31
0.0
  0
LINE
  5
5B4
330
39A
100
AcDbEntity
  8
0
  6
Continuous
 62
     8
370
    25
100
AcDbLine
 10
4.6808095398
 20
5.9011073038
 30
0.0
 11
0.3943823622
 21
3.4266055654
 31
0.0
  0
LINE
  5
5B5
330
39A
100
AcDbEntity
  8
0
  6
Continuous
 62
     8
370
    25
100
AcDbLine
 10
8.9058523042
 20
-2.635481259
 30
0.0
 11
8.8983952623
 21
-2.6397861177
 31
0.0
  0
LINE
  5
5B6
330
39A
100
AcDbEntity
  8
0
  6
Continuous
 62
     8
370
    25
100
AcDbLine
 10
8.8983952623
 20
-12.7340308001
 30
0.0
 11
8.9031716537
 21
-12.731273448
 31
0.0
  0
LINE
  5
5B7
330
39A
100
AcDbEntity
  8
0
  6
Continuous
 62
     8
370
    25
100
AcDbLine
 10
13.4361277557
 20
0.3967705105
 30
0.0
 11
14.3540450754
 21
-0.1331318788
 31
0.0
  0
LINE
  5
5B8
330
39A
100
AcDbEntity
  8
0
  6
Continuous
 62
     8
370
    25
100
AcDbLine
 10
14.2426806268
 20
-0.1974212065
 30
0.0
 11
13.3797539764
 21
0.3007357452
 31
0.0
  0
LINE
  5
5B9
330
39A
100
AcDbEntity
  8
0
  6
Continuous
 62
     8
370
    25
100
AcDbLine
 10
14.6881112712
 20
0.059720431
 30
0.0
 11
13.7701939515
 21
0.5896228204
 31
0.0
  0
LINE
  5
5BA
330
39A
100
AcDbEntity
  8
0
  6
Continuous
 62
     8
370
    25
100
AcDbLine
 10
21.676427253
 20
-13.426385789
 30
0.0
 11
11.0976643848
 21
-19.5333756019
 31
0.0
  0
LINE
  5
5BB
330
39A
100
AcDbEntity
  8
0
  6
Continuous
 62
     8
370
    25
100
AcDbLine
 10
21.759939277
 20
-13.4745962543
 30
0.0
 11
21.676427253
 21
-13.426385789
 31
0.0
  0
LINE
  5
5BC
330
39A
100
AcDbEntity
  8
0
  6
Continuous
 62
     8
370
    25
100
AcDbLine
 10
6.5989062809
 20
-19.4433778573
 30
0.0
 11
6.6262477401
 21
-19.4275939689
 31
0.0
  0
LINE
  5
5BD
330
39A
100
AcDbEntity
  8
0
  6
Continuous
 62
     8
370
    25
100
AcDbLine
 10
20.3791368592
 20
-11.3917939198
 30
0.0
 11
11.0976643848
 21
-16.7498739293
 31
0.0
  0
LINE
  5
5BE
330
39A
100
AcDbEntity
  8
0
  6
Continuous
 62
     8
370
    25
100
AcDbLine
 10
8.9031716537
 20
-18.0167276172
 30
0.0
 11
6.515389732
 21
-19.3951647798
 31
0.0
  0
LINE
  5
5BF
330
39A
100
AcDbEntity
  8
0
  6
Continuous
 62
     8
370
    25
100
AcDbLine
 10
20.4626488832
 20
-11.4400043851
 30
0.0
 11
20.3791368592
 21
-11.3917939198
 31
0.0
  0
LINE
  5
5C0
330
39A
100
AcDbEntity
  8
0
  6
Continuous
 62
     8
370
    25
100
AcDbLine
 10
4.188061901
 20
-18.051627021
 30
0.0
 11
4.2154033602
 21
-18.0358431326
 31
0.0
  0
LINE
  5
5C1
330
39A
100
AcDbEntity
  8
0
  6
Continuous
 62
     8
370
    25
100
AcDbLine
 10
17.9682924792
 20
-10.0000430835
 30
0.0
 11
11.0976643848
 21
-13.9663722567
 31
0.0
  0
LINE
  5
5C2
330
39A
100
AcDbEntity
  8
0
  6
Continuous
 62
     8
370
    25
100
AcDbLine
 10
8.9031716537
 20
-15.2332259446
 30
0.0
 11
4.104545352
 21
-18.0034139435
 31
0.0
  0
LINE
  5
5C3
330
39A
100
AcDbEntity
  8
0
  6
Continuous
 62
     8
370
    25
100
AcDbLine
 10
18.0518045032
 20
-10.0482535488
 30
0.0
 11
17.9682924792
 21
-10.0000430835
 31
0.0
  0
LINE
  5
5C4
330
39A
100
AcDbEntity
  8
0
  6
Continuous
 62
     8
370
    25
100
AcDbLine
 10
1.777217521
 20
-16.6598761847
 30
0.0
 11
1.8045589802
 21
-16.6440922963
 31
0.0
  0
LINE
  5
5C5
330
39A
100
AcDbEntity
  8
0
  6
Continuous
 62
     8
370
    25
100
AcDbLine
 10
8.5757935443
 20
-12.6387156318
 30
0.0
 11
1.6937009721
 21
-16.6116631072
 31
0.0
  0
LINE
  5
5C6
330
39A
100
AcDbEntity
  8
0
  6
Continuous
 62
     8
370
    25
100
AcDbLine
 10
-0.6336268589
 20
-15.2681253484
 30
0.0
 11
-0.6062853997
 21
-15.25234146
 31
0.0
  0
LINE
  5
5C7
330
39A
100
AcDbEntity
  8
0
  6
Continuous
 62
     8
370
    25
100
AcDbLine
 10
6.1649491643
 20
-11.2469647955
 30
0.0
 11
-0.7171434079
 21
-15.2199122709
 31
0.0
  0
LINE
  5
5C8
330
39A
100
AcDbEntity
  8
0
  6
Continuous
 62
     8
370
    25
100
AcDbLine
 10
-3.0444712389
 20
-13.8763745121
 30
0.0
 11
-3.0171297797
 21
-13.8605906237
 31
0.0
  0
LINE
  5
5C9
330
39A
100
AcDbEntity
  8
0
  6
Continuous
 62
     8
370
    25
100
AcDbLine
 10
3.7541047844
 20
-9.8552139592
 30
0.0
 11
-3.1279877878
 21
-13.8281614346
 31
0.0
  0
LINE
  5
5CA
330
39A
100
AcDbEntity
  8
0
  6
Continuous
 62
     8
370
    25
100
AcDbLine
 10
1.1929306163
 20
-8.3766795835
 30
0.0
 11
-4.4920914208
 21
-11.6585729485
 31
0.0
  0
ARC
  5
5CB
330
39A
100
AcDbEntity
  8
0
  6
Continuous
 62
     7
370
    25
100
AcDbCircle
 10
8.9819118112
 20
-2.6558519191
 30
0.0
 40
0.078740157480324
100
AcDbArc
 50
119.9973117337
 51
180.0
  0
ARC
  5
5CC
330
39A
100
AcDbEntity
  8
0
  6
Continuous
 62
     7
370
    25
100
AcDbCircle
 10
8.9819118112
 20
-25.0303560558
 30
0.0
 40
0.0787401574803344
100
AcDbArc
 50
180.0
 51
240.0026882663
  0
ARC
  5
5CD
330
39A
100
AcDbEntity
  8
0
  6
Continuous
 62
     7
370
    25
100
AcDbCircle
 10
4.6808095398
 20
5.8368127517
 30
0.0
 40
0.0787401574803121
100
AcDbArc
 50
60.0026882663
 51
119.9973117337
  0
ARC
  5
5CE
330
39A
100
AcDbEntity
  8
0
  6
Continuous
 62
     7
370
    25
100
AcDbCircle
 10
9.2603003077
 20
-2.3665786787
 30
0.0
 40
0.0787401574803065
100
AcDbArc
 50
5.5383628013
 51
60.0026882664
  0
ARC
  5
5CF
330
39A
100
AcDbEntity
  8
0
  6
Continuous
 62
     7
370
    25
100
AcDbCircle
 10
8.842717563
 20
-12.7018887484
 30
0.0
 40
0.0787401574803156
100
AcDbArc
 50
240.0026882664
 51
299.9973117337
  0
ARC
  5
5D0
330
39A
100
AcDbEntity
  8
0
  6
Continuous
 62
     7
370
    25
100
AcDbCircle
 10
-5.4664511587
 20
5.6528632071
 30
0.0
 40
0.0787401574803285
100
AcDbArc
 50
119.9973117337
 51
180.0
  0
ARC
  5
5D1
330
39A
100
AcDbEntity
  8
0
  6
Continuous
 62
     7
370
    25
100
AcDbCircle
 10
-5.0488684139
 20
5.8939285945
 30
0.0
 40
0.0787401574803342
100
AcDbArc
 50
60.0026882664
 51
119.9973117336
  0
ARC
  5
5D2
330
39A
100
AcDbEntity
  8
0
  6
Continuous
 62
     7
370
    25
100
AcDbCircle
 10
-5.4664511587
 20
-4.4413814753
 30
0.0
 40
0.0787401574803249
100
AcDbArc
 50
180.0
 51
240.0026882663
  0
ARC
  5
5D3
330
39A
100
AcDbEntity
  8
0
  6
Continuous
 62
     7
370
    25
100
AcDbCircle
 10
-5.5730322789
 20
6.9867206951
 30
0.0
 40
0.0396045067639269
100
AcDbArc
 50
54.3824225248
 51
114.3071190461
  0
ARC
  5
5D4
330
39A
100
AcDbEntity
  8
0
  6
Continuous
 62
     7
370
    25
100
AcDbCircle
 10
6.1192845754
 20
13.7365515409
 30
0.0
 40
0.0396045067639295
100
AcDbArc
 50
54.3824225248
 51
114.3071190461
  0
ARC
  5
5D5
330
39A
100
AcDbEntity
  8
0
  6
Continuous
 62
     7
370
    25
100
AcDbCircle
 10
-5.605645407
 20
5.8406811264
 30
0.0
 40
0.1210253470796673
100
AcDbArc
 50
242.6096722366
 51
297.3903277634
  0
ARC
  5
5D6
330
39A
100
AcDbEntity
  8
0
  6
Continuous
 62
     7
370
    25
100
AcDbCircle
 10
-5.5404399487
 20
5.7277227061
 30
0.0
 40
0.1210082525647278
100
AcDbArc
 50
122.60547834
 51
177.3945215143
  0
ARC
  5
5D7
330
39A
100
AcDbEntity
  8
0
  6
Continuous
 62
     7
370
    25
100
AcDbCircle
 10
-5.6708508652
 20
5.7277227061
 30
0.0
 40
0.1210082525647193
100
AcDbArc
 50
2.6054784857
 51
57.39452166
  0
ARC
  5
5D8
330
39A
100
AcDbEntity
  8
0
  6
Continuous
 62
     7
370
    25
100
AcDbCircle
 10
-4.6129745784
 20
6.3384216874
 30
0.0
 40
0.1210082525647342
100
AcDbArc
 50
2.6054784857
 51
57.39452166
  0
ARC
  5
5D9
330
39A
100
AcDbEntity
  8
0
  6
Continuous
 62
     7
370
    25
100
AcDbCircle
 10
-6.0415392424
 20
6.0170011709
 30
0.0
 40
0.1210082525647468
100
AcDbArc
 50
122.60547834
 51
177.3945215143
  0
ARC
  5
5DA
330
39A
100
AcDbEntity
  8
0
  6
Continuous
 62
     7
370
    25
100
AcDbCircle
 10
9.9841103987
 20
-1.9081044693
 30
0.0
 40
1.205454586515188
100
AcDbArc
 50
242.4914255688
 51
297.5085744312
  0
ARC
  5
5DB
330
39A
100
AcDbEntity
  8
0
  6
Continuous
 62
     7
370
    25
100
AcDbCircle
 10
9.5482165633
 20
-2.9827732901
 30
0.0
 40
0.1210082525647305
100
AcDbArc
 50
122.60547834
 51
177.3945215143
  0
ARC
  5
5DC
330
39A
100
AcDbEntity
  8
0
  6
Continuous
 62
     7
370
    25
100
AcDbCircle
 10
9.9841103987
 20
-1.9185846622
 30
0.0
 40
1.084909127863669
100
AcDbArc
 50
242.4914255688
 51
297.5085744312
  0
ARC
  5
5DD
330
39A
100
AcDbEntity
  8
0
  6
Continuous
 62
     7
370
    25
100
AcDbCircle
 10
10.4200042342
 20
-2.9827732901
 30
0.0
 40
0.1210082525647255
100
AcDbArc
 50
2.6054784857
 51
57.39452166
  0
ARC
  5
5DE
330
39A
100
AcDbEntity
  8
0
  6
Continuous
 62
     7
370
    25
100
AcDbCircle
 10
9.9841103987
 20
-24.282608606
 30
0.0
 40
1.205454586515182
100
AcDbArc
 50
242.4914255688
 51
297.5085744312
  0
ARC
  5
5DF
330
39A
100
AcDbEntity
  8
0
  6
Continuous
 62
     7
370
    25
100
AcDbCircle
 10
9.0471172695
 20
-2.6934948253
 30
0.0
 40
0.1210082525647304
100
AcDbArc
 50
122.60547834
 51
177.3945215143
  0
ARC
  5
5E0
330
39A
100
AcDbEntity
  8
0
  6
Continuous
 62
     7
370
    25
100
AcDbCircle
 10
10.9767812273
 20
-2.6613527736
 30
0.0
 40
0.1210082525647257
100
AcDbArc
 50
2.6054784857
 51
57.39452166
  0
ARC
  5
5E1
330
39A
100
AcDbEntity
  8
0
  6
Continuous
 62
     7
370
    25
100
AcDbCircle
 10
10.0167235268
 20
-2.013053766
 30
0.0
 40
0.0396045067639159
100
AcDbArc
 50
54.3824225248
 51
114.3071190461
  0
ARC
  5
5E2
330
39A
100
AcDbEntity
  8
0
  6
Continuous
 62
     7
370
    25
100
AcDbCircle
 10
11.0602088293
 20
-25.035124877
 30
0.0
 40
0.0377579170317253
100
AcDbArc
 50
304.0563508233
 51
7.2558295701
  0
ARC
  5
5E3
330
39A
100
AcDbEntity
  8
0
  6
Continuous
 62
     7
370
    25
100
AcDbCircle
 10
22.6690980815
 20
4.0884780722
 30
0.0
 40
0.1210082525647236
100
AcDbArc
 50
2.6054784857
 51
57.39452166
  0
ARC
  5
5E4
330
39A
100
AcDbEntity
  8
0
  6
Continuous
 62
     7
370
    25
100
AcDbCircle
 10
22.7560383755
 20
-18.2860312885
 30
0.0
 40
0.0343865509786202
100
AcDbArc
 50
230.7967147643
 51
9.2140369905
  0
ARC
  5
5E5
330
39A
100
AcDbEntity
  8
0
  6
Continuous
 62
     7
370
    25
100
AcDbCircle
 10
23.7826520676
 20
4.7313191051
 30
0.0
 40
0.1210082525647354
100
AcDbArc
 50
2.6054784857
 51
57.39452166
  0
ARC
  5
5E6
330
39A
100
AcDbEntity
  8
0
  6
Continuous
 62
     7
370
    25
100
AcDbCircle
 10
23.8660796697
 20
-17.6424529983
 30
0.0
 40
0.0377579170277405
100
AcDbArc
 50
304.0563508196
 51
7.2558295738
  0
ARC
  5
5E7
330
39A
100
AcDbEntity
  8
0
  6
Continuous
 62
     7
370
    25
100
AcDbCircle
 10
22.7525256835
 20
-6.069329129
 30
0.0
 40
0.0377579170266935
100
AcDbArc
 50
304.0563508186
 51
7.2558295748
  0
ARC
  5
5E8
330
39A
100
AcDbEntity
  8
0
  6
Continuous
 62
     7
370
    25
100
AcDbCircle
 10
8.9079230212
 20
-2.6452869722
 30
0.0
 40
0.1210082525647401
100
AcDbArc
 50
122.60547834
 51
177.3945215143
  0
ARC
  5
5E9
330
39A
100
AcDbEntity
  8
0
  6
Continuous
 62
     7
370
    25
100
AcDbCircle
 10
8.7775121047
 20
-2.6452869722
 30
0.0
 40
0.121008252564749
100
AcDbArc
 50
2.6054784857
 51
57.39452166
  0
ARC
  5
5EA
330
39A
100
AcDbEntity
  8
0
  6
Continuous
 62
     7
370
    25
100
AcDbCircle
 10
8.842717563
 20
-2.532328552
 30
0.0
 40
0.121025347079656
100
AcDbArc
 50
242.6096722366
 51
297.3903277634
  0
ARC
  5
5EB
330
39A
100
AcDbEntity
  8
0
  6
Continuous
 62
     7
370
    25
100
AcDbCircle
 10
8.842717563
 20
-3.4003050055
 30
0.0
 40
0.1210253470796602
100
AcDbArc
 50
242.6096722366
 51
297.3903277634
  0
ARC
  5
5EC
330
39A
100
AcDbEntity
  8
0
  6
Continuous
 62
     7
370
    25
100
AcDbCircle
 10
-5.4012457004
 20
5.615220301
 30
0.0
 40
0.1210082525647531
100
AcDbArc
 50
122.60547834
 51
177.3945215143
  0
ARC
  5
5ED
330
39A
100
AcDbEntity
  8
0
  6
Continuous
 62
     7
370
    25
100
AcDbCircle
 10
-5.5099298795
 20
4.6884449254
 30
0.0
 40
0.0343791588058476
100
AcDbArc
 50
110.7834207995
 51
249.2165792005
  0
ARC
  5
5EE
330
39A
100
AcDbEntity
  8
0
  6
Continuous
 62
     7
370
    25
100
AcDbCircle
 10
8.842717563
 20
-3.4967468337
 30
0.0
 40
0.1210253470796591
100
AcDbArc
 50
242.6096722366
 51
297.3903277634
  0
ARC
  5
5EF
330
39A
100
AcDbEntity
  8
0
  6
Continuous
 62
     7
370
    25
100
AcDbCircle
 10
8.842717563
 20
-11.6621549526
 30
0.0
 40
0.1210253470796584
100
AcDbArc
 50
242.6096722366
 51
297.3903277634
  0
ARC
  5
5F0
330
39A
100
AcDbEntity
  8
0
  6
Continuous
 62
     7
370
    25
100
AcDbCircle
 10
-5.5099298795
 20
-3.5734050217
 30
0.0
 40
0.0343791588058482
100
AcDbArc
 50
110.7834207995
 51
249.2165792005
  0
ARC
  5
5F1
330
39A
100
AcDbEntity
  8
0
  6
Continuous
 62
     7
370
    25
100
AcDbCircle
 10
8.842717563
 20
-11.7585967807
 30
0.0
 40
0.1210253470796489
100
AcDbArc
 50
242.6096722366
 51
297.3903277634
  0
ARC
  5
5F2
330
39A
100
AcDbEntity
  8
0
  6
Continuous
 62
     7
370
    25
100
AcDbCircle
 10
8.842717563
 20
-12.6265732343
 30
0.0
 40
0.1210253470796576
100
AcDbArc
 50
242.6096722366
 51
297.3903277634
  0
ARC
  5
5F3
330
39A
100
AcDbEntity
  8
0
  6
Continuous
 62
     7
370
    25
100
AcDbCircle
 10
-5.5057852483
 20
4.7888163895
 30
0.0
 40
0.0396015179916499
100
AcDbArc
 50
185.6947992512
 51
245.6253417064
  0
ARC
  5
5F4
330
39A
100
AcDbEntity
  8
0
  6
Continuous
 62
     7
370
    25
100
AcDbCircle
 10
-5.5057852483
 20
-3.4730335575
 30
0.0
 40
0.0396015179916472
100
AcDbArc
 50
185.6947992512
 51
245.6253417064
  0
ARC
  5
5F5
330
39A
100
AcDbEntity
  8
0
  6
Continuous
 62
     7
370
    25
100
AcDbCircle
 10
4.7320955733
 20
5.3572061866
 30
0.0
 40
0.1210082525647233
100
AcDbArc
 50
122.60547834
 51
177.3945215143
  0
ARC
  5
5F6
330
39A
100
AcDbEntity
  8
0
  6
Continuous
 62
     7
370
    25
100
AcDbCircle
 10
5.0240208821
 20
5.6198005745
 30
0.0
 40
0.0396045067639262
100
AcDbArc
 50
65.6928809539
 51
125.6175774752
  0
ARC
  5
5F7
330
39A
100
AcDbEntity
  8
0
  6
Continuous
 62
     7
370
    25
100
AcDbCircle
 10
6.6328446198
 20
-19.4433726329
 30
0.0
 40
0.0171895794029265
100
AcDbArc
 50
110.7834207995
 51
249.2165792005
  0
ARC
  5
5F8
330
39A
100
AcDbEntity
  8
0
  6
Continuous
 62
     7
370
    25
100
AcDbCircle
 10
20.5183311074
 20
-11.4776595299
 30
0.0
 40
0.060512673539807
100
AcDbArc
 50
62.6096722366
 51
117.3903277634
  0
ARC
  5
5F9
330
39A
100
AcDbEntity
  8
0
  6
Continuous
 62
     7
370
    25
100
AcDbCircle
 10
21.8156215013
 20
-13.5122513992
 30
0.0
 40
0.0605126735398355
100
AcDbArc
 50
62.6096722366
 51
117.3903277634
  0
ARC
  5
5FA
330
39A
100
AcDbEntity
  8
0
  6
Continuous
 62
     7
370
    25
100
AcDbCircle
 10
-0.6797767993
 20
-15.1661931145
 30
0.0
 40
0.1210082525647287
100
AcDbArc
 50
182.6054784857
 51
237.39452166
  0
ARC
  5
5FB
330
39A
100
AcDbEntity
  8
0
  6
Continuous
 62
     7
370
    25
100
AcDbCircle
 10
-0.6397308729
 20
-15.2896972283
 30
0.0
 40
0.0343865509786211
100
AcDbArc
 50
230.7967147643
 51
9.2140369905
  0
ARC
  5
5FC
330
39A
100
AcDbEntity
  8
0
  6
Continuous
 62
     7
370
    25
100
AcDbCircle
 10
1.7310675807
 20
-16.5579439508
 30
0.0
 40
0.1210082525647295
100
AcDbArc
 50
182.6054784857
 51
237.39452166
  0
ARC
  5
5FD
330
39A
100
AcDbEntity
  8
0
  6
Continuous
 62
     7
370
    25
100
AcDbCircle
 10
1.7711135071
 20
-16.6814480646
 30
0.0
 40
0.034386550978622
100
AcDbArc
 50
230.7967147643
 51
9.2140369905
  0
ARC
  5
5FE
330
39A
100
AcDbEntity
  8
0
  6
Continuous
 62
     7
370
    25
100
AcDbCircle
 10
4.1419119606
 20
-17.9496947871
 30
0.0
 40
0.1210082525647523
100
AcDbArc
 50
182.6054784857
 51
237.39452166
  0
ARC
  5
5FF
330
39A
100
AcDbEntity
  8
0
  6
Continuous
 62
     7
370
    25
100
AcDbCircle
 10
4.181957887
 20
-18.0731989009
 30
0.0
 40
0.0343865509786184
100
AcDbArc
 50
230.7967147643
 51
9.2140369905
  0
ARC
  5
600
330
39A
100
AcDbEntity
  8
0
  6
Continuous
 62
     7
370
    25
100
AcDbCircle
 10
6.5527563406
 20
-19.3414456234
 30
0.0
 40
0.1210082525647418
100
AcDbArc
 50
182.6054784857
 51
237.39452166
  0
ARC
  5
601
330
39A
100
AcDbEntity
  8
0
  6
Continuous
 62
     7
370
    25
100
AcDbCircle
 10
6.592802267
 20
-19.4649497372
 30
0.0
 40
0.0343865509786193
100
AcDbArc
 50
230.7967147643
 51
9.2140369905
  0
ARC
  5
602
330
39A
100
AcDbEntity
  8
0
  6
Continuous
 62
     7
370
    25
100
AcDbCircle
 10
-3.0906211792
 20
-13.7744422782
 30
0.0
 40
0.1210082525647431
100
AcDbArc
 50
182.6054784857
 51
237.39452166
  0
ARC
  5
603
330
39A
100
AcDbEntity
  8
0
  6
Continuous
 62
     7
370
    25
100
AcDbCircle
 10
-3.0505752528
 20
-13.897946392
 30
0.0
 40
0.0343865509786216
100
AcDbArc
 50
230.7967147643
 51
9.2140369905
  0
ARC
  5
604
330
39A
100
AcDbEntity
  8
0
  6
Continuous
 62
     7
370
    25
100
AcDbCircle
 10
21.7090299821
 20
-13.3754170599
 30
0.0
 40
0.0605041262823423
100
AcDbArc
 50
182.6054784856
 51
237.39452166
  0
ARC
  5
605
330
39A
100
AcDbEntity
  8
0
  6
Continuous
 62
     7
370
    25
100
AcDbCircle
 10
6.6315090101
 20
-19.4943465864
 30
0.0
 40
0.060504126282388
100
AcDbArc
 50
122.60547834
 51
177.3945215143
  0
ARC
  5
606
330
39A
100
AcDbEntity
  8
0
  6
Continuous
 62
     7
370
    25
100
AcDbCircle
 10
6.5479924611
 20
-19.4461335089
 30
0.0
 40
0.0605041262823825
100
AcDbArc
 50
122.60547834
 51
177.3945215143
  0
ARC
  5
607
330
39A
100
AcDbEntity
  8
0
  6
Continuous
 62
     7
370
    25
100
AcDbCircle
 10
6.4597120327
 20
-19.2932176951
 30
0.0
 40
0.0605126735398414
100
AcDbArc
 50
242.6096722366
 51
297.3903277634
  0
ARC
  5
608
330
39A
100
AcDbEntity
  8
0
  6
Continuous
 62
     7
370
    25
100
AcDbCircle
 10
6.5479924611
 20
-19.3441960507
 30
0.0
 40
0.0605041262823625
100
AcDbArc
 50
182.6054784857
 51
237.39452166
  0
ARC
  5
609
330
39A
100
AcDbEntity
  8
0
  6
Continuous
 62
     7
370
    25
100
AcDbCircle
 10
20.4117395883
 20
-11.3408251907
 30
0.0
 40
0.0605041262823979
100
AcDbArc
 50
182.6054784857
 51
237.39452166
  0
ARC
  5
60A
330
39A
100
AcDbEntity
  8
0
  6
Continuous
 62
     7
370
    25
100
AcDbCircle
 10
4.2220002399
 20
-18.0516217966
 30
0.0
 40
0.0171895794029265
100
AcDbArc
 50
110.7834207995
 51
249.2165792005
  0
ARC
  5
60B
330
39A
100
AcDbEntity
  8
0
  6
Continuous
 62
     7
370
    25
100
AcDbCircle
 10
18.1074867275
 20
-10.0859086936
 30
0.0
 40
0.0605126735398402
100
AcDbArc
 50
62.6096722366
 51
117.3903277634
  0
ARC
  5
60C
330
39A
100
AcDbEntity
  8
0
  6
Continuous
 62
     7
370
    25
100
AcDbCircle
 10
20.3451985203
 20
-11.3275045921
 30
0.0
 40
0.0171895794029259
100
AcDbArc
 50
290.7834207995
 51
69.2165792005
  0
ARC
  5
60D
330
39A
100
AcDbEntity
  8
0
  6
Continuous
 62
     7
370
    25
100
AcDbCircle
 10
4.2206646301
 20
-18.1025957501
 30
0.0
 40
0.0605041262823799
100
AcDbArc
 50
122.60547834
 51
177.3945215143
  0
ARC
  5
60E
330
39A
100
AcDbEntity
  8
0
  6
Continuous
 62
     7
370
    25
100
AcDbCircle
 10
4.1371480812
 20
-18.0543826726
 30
0.0
 40
0.0605041262823815
100
AcDbArc
 50
122.60547834
 51
177.3945215143
  0
ARC
  5
60F
330
39A
100
AcDbEntity
  8
0
  6
Continuous
 62
     7
370
    25
100
AcDbCircle
 10
4.0488676527
 20
-17.9014668588
 30
0.0
 40
0.0605126735398224
100
AcDbArc
 50
242.6096722366
 51
297.3903277634
  0
ARC
  5
610
330
39A
100
AcDbEntity
  8
0
  6
Continuous
 62
     7
370
    25
100
AcDbCircle
 10
4.1371480812
 20
-17.9524452144
 30
0.0
 40
0.0605041262823552
100
AcDbArc
 50
182.6054784857
 51
237.39452166
  0
ARC
  5
611
330
39A
100
AcDbEntity
  8
0
  6
Continuous
 62
     7
370
    25
100
AcDbCircle
 10
1.8111558599
 20
-16.6598709603
 30
0.0
 40
0.0171895794029252
100
AcDbArc
 50
110.7834207995
 51
249.2165792005
  0
ARC
  5
612
330
39A
100
AcDbEntity
  8
0
  6
Continuous
 62
     7
370
    25
100
AcDbCircle
 10
17.9343541403
 20
-9.9357537558
 30
0.0
 40
0.0171895794029271
100
AcDbArc
 50
290.7834207995
 51
69.2165792005
  0
ARC
  5
613
330
39A
100
AcDbEntity
  8
0
  6
Continuous
 62
     7
370
    25
100
AcDbCircle
 10
18.0008952084
 20
-9.9490743544
 30
0.0
 40
0.0605041262823677
100
AcDbArc
 50
182.6054784857
 51
237.39452166
  0
ARC
  5
614
330
39A
100
AcDbEntity
  8
0
  6
Continuous
 62
     7
370
    25
100
AcDbCircle
 10
1.8098202502
 20
-16.7108449138
 30
0.0
 40
0.060504126282372
100
AcDbArc
 50
122.60547834
 51
177.3945215143
  0
ARC
  5
615
330
39A
100
AcDbEntity
  8
0
  6
Continuous
 62
     7
370
    25
100
AcDbCircle
 10
1.7263037012
 20
-16.6626318364
 30
0.0
 40
0.060504126282365
100
AcDbArc
 50
122.60547834
 51
177.3945215143
  0
ARC
  5
616
330
39A
100
AcDbEntity
  8
0
  6
Continuous
 62
     7
370
    25
100
AcDbCircle
 10
1.6380232728
 20
-16.5097160225
 30
0.0
 40
0.0605126735398158
100
AcDbArc
 50
242.6096722366
 51
297.3903277634
  0
ARC
  5
617
330
39A
100
AcDbEntity
  8
0
  6
Continuous
 62
     7
370
    25
100
AcDbCircle
 10
1.7263037012
 20
-16.5606943781
 30
0.0
 40
0.0605041262823674
100
AcDbArc
 50
182.6054784857
 51
237.39452166
  0
ARC
  5
618
330
39A
100
AcDbEntity
  8
0
  6
Continuous
 62
     7
370
    25
100
AcDbCircle
 10
-0.59968852
 20
-15.268120124
 30
0.0
 40
0.0171895794029258
100
AcDbArc
 50
110.7834207995
 51
249.2165792005
  0
ARC
  5
619
330
39A
100
AcDbEntity
  8
0
  6
Continuous
 62
     7
370
    25
100
AcDbCircle
 10
-0.6010241298
 20
-15.3190940775
 30
0.0
 40
0.0605041262823695
100
AcDbArc
 50
122.60547834
 51
177.3945215143
  0
ARC
  5
61A
330
39A
100
AcDbEntity
  8
0
  6
Continuous
 62
     7
370
    25
100
AcDbCircle
 10
-0.6845406788
 20
-15.2708810001
 30
0.0
 40
0.0605041262823684
100
AcDbArc
 50
122.60547834
 51
177.3945215143
  0
ARC
  5
61B
330
39A
100
AcDbEntity
  8
0
  6
Continuous
 62
     7
370
    25
100
AcDbCircle
 10
-0.7728211072
 20
-15.1179651862
 30
0.0
 40
0.0605126735398349
100
AcDbArc
 50
242.6096722366
 51
297.3903277634
  0
ARC
  5
61C
330
39A
100
AcDbEntity
  8
0
  6
Continuous
 62
     7
370
    25
100
AcDbCircle
 10
-0.6845406788
 20
-15.1689435418
 30
0.0
 40
0.0605041262823605
100
AcDbArc
 50
182.6054784857
 51
237.39452166
  0
ARC
  5
61D
330
39A
100
AcDbEntity
  8
0
  6
Continuous
 62
     7
370
    25
100
AcDbCircle
 10
-3.0105329
 20
-13.8763692877
 30
0.0
 40
0.017189579402925
100
AcDbArc
 50
110.7834207995
 51
249.2165792005
  0
ARC
  5
61E
330
39A
100
AcDbEntity
  8
0
  6
Continuous
 62
     7
370
    25
100
AcDbCircle
 10
-3.0118685097
 20
-13.9273432412
 30
0.0
 40
0.060504126282377
100
AcDbArc
 50
122.60547834
 51
177.3945215143
  0
ARC
  5
61F
330
39A
100
AcDbEntity
  8
0
  6
Continuous
 62
     7
370
    25
100
AcDbCircle
 10
-3.0953850587
 20
-13.8791301638
 30
0.0
 40
0.060504126282363
100
AcDbArc
 50
122.60547834
 51
177.3945215143
  0
ARC
  5
620
330
39A
100
AcDbEntity
  8
0
  6
Continuous
 62
     7
370
    25
100
AcDbCircle
 10
-3.1836654871
 20
-13.7262143499
 30
0.0
 40
0.0605126735398311
100
AcDbArc
 50
242.6096722366
 51
297.3903277634
  0
ARC
  5
621
330
39A
100
AcDbEntity
  8
0
  6
Continuous
 62
     7
370
    25
100
AcDbCircle
 10
-3.0953850587
 20
-13.7771927055
 30
0.0
 40
0.0605041262823693
100
AcDbArc
 50
182.6054784857
 51
237.39452166
  0
ARC
  5
622
330
39A
100
AcDbEntity
  8
0
  6
Continuous
 62
     8
370
    25
100
AcDbCircle
 10
-6.1295959437
 20
6.6674484974
 30
0.0
 40
0.0377492411405733
100
AcDbArc
 50
52.7464643146
 51
115.9578376811
  0
ARC
  5
623
330
39A
100
AcDbEntity
  8
0
  6
Continuous
 62
     8
370
    25
100
AcDbCircle
 10
-6.1238395731
 20
-16.3562609095
 30
0.0
 40
0.0388171598513017
100
AcDbArc
 50
173.7011524891
 51
234.9866671175
  0
ARC
  5
624
330
39A
100
AcDbEntity
  8
0
  6
Continuous
 62
     8
370
    25
100
AcDbCircle
 10
8.95884724
 20
-2.6237527472
 30
0.0
 40
0.0396045067639187
100
AcDbArc
 50
54.3824225248
 51
114.3071190461
  0
ARC
  5
625
330
39A
100
AcDbEntity
  8
0
  6
Continuous
 62
     8
370
    25
100
AcDbCircle
 10
8.9425777216
 20
-2.6519222831
 30
0.0
 40
0.0396015179916453
100
AcDbArc
 50
185.6947992512
 51
245.6253417064
  0
ARC
  5
626
330
39A
100
AcDbEntity
  8
0
  6
Continuous
 62
     8
370
    25
100
AcDbCircle
 10
8.9425777216
 20
-25.0264264199
 30
0.0
 40
0.0396015179916411
100
AcDbArc
 50
185.6947992512
 51
245.6253417064
  0
ARC
  5
627
330
39A
100
AcDbEntity
  8
0
  6
Continuous
 62
     8
370
    25
100
AcDbCircle
 10
10.5034348812
 20
-25.3565461145
 30
0.0
 40
0.0377549875396733
100
AcDbArc
 50
304.0397273553
 51
7.2574987409
  0
ARC
  5
628
330
39A
100
AcDbEntity
  8
0
  6
Continuous
 62
     8
370
    25
100
AcDbCircle
 10
9.4647858977
 20
-25.3565461189
 30
0.0
 40
0.0377549696400508
100
AcDbArc
 50
172.7424910591
 51
235.9603742324
  0
ARC
  5
629
330
39A
100
AcDbEntity
  8
0
  6
Continuous
 62
     8
370
    25
100
AcDbCircle
 10
8.9636896675
 20
-25.0672669286
 30
0.0
 40
0.0377579170317371
100
AcDbArc
 50
172.74417043
 51
235.9436491767
  0
ARC
  5
62A
330
39A
100
AcDbEntity
  8
0
  6
Continuous
 62
     8
370
    25
100
AcDbCircle
 10
4.6577449686
 20
5.8689119236
 30
0.0
 40
0.0396045067639285
100
AcDbArc
 50
54.3824225248
 51
114.3071190461
  0
ARC
  5
62B
330
39A
100
AcDbEntity
  8
0
  6
Continuous
 62
     8
370
    25
100
AcDbCircle
 10
4.7038741111
 20
5.8689119236
 30
0.0
 40
0.0396045067639094
100
AcDbArc
 50
65.6928809539
 51
125.6175774752
  0
ARC
  5
62C
330
39A
100
AcDbEntity
  8
0
  6
Continuous
 62
     8
370
    25
100
AcDbCircle
 10
9.1944042975
 20
-2.4049504213
 30
0.0
 40
0.1219944762593742
100
AcDbArc
 50
14.636859162
 51
57.3057621612
  0
ARC
  5
62D
330
39A
100
AcDbEntity
  8
0
  6
Continuous
 62
     8
370
    25
100
AcDbCircle
 10
9.283364879
 20
-2.3344795068
 30
0.0
 40
0.0396045067639252
100
AcDbArc
 50
65.6928809539
 51
125.6175774752
  0
ARC
  5
62E
330
39A
100
AcDbEntity
  8
0
  6
Continuous
 62
     8
370
    25
100
AcDbCircle
 10
-5.0258038427
 20
5.9260277663
 30
0.0
 40
0.0396045067639354
100
AcDbArc
 50
65.6928809539
 51
125.6175774752
  0
ARC
  5
62F
330
39A
100
AcDbEntity
  8
0
  6
Continuous
 62
     8
370
    25
100
AcDbCircle
 10
8.8609397067
 20
-12.7387996212
 30
0.0
 40
0.0377579170404628
100
AcDbArc
 50
304.0563508315
 51
7.2558295619
  0
ARC
  5
630
330
39A
100
AcDbEntity
  8
0
  6
Continuous
 62
     8
370
    25
100
AcDbCircle
 10
8.8256226906
 20
-12.7382895983
 30
0.0
 40
0.0388171598432801
100
AcDbArc
 50
173.7011524821
 51
234.9866671245
  0
ARC
  5
631
330
39A
100
AcDbEntity
  8
0
  6
Continuous
 62
     8
370
    25
100
AcDbCircle
 10
-5.4846733024
 20
-4.4782923481
 30
0.0
 40
0.0377579170435204
100
AcDbArc
 50
172.744170441
 51
235.9436491657
  0
ARC
  5
632
330
39A
100
AcDbEntity
  8
0
  6
Continuous
 62
     8
370
    25
100
AcDbCircle
 10
-5.4895157299
 20
5.684962379
 30
0.0
 40
0.0396045067639077
100
AcDbArc
 50
54.3824225248
 51
114.3071190461
  0
ARC
  5
633
330
39A
100
AcDbEntity
  8
0
  6
Continuous
 62
     8
370
    25
100
AcDbCircle
 10
-5.5057852483
 20
5.6567928431
 30
0.0
 40
0.0396015179916441
100
AcDbArc
 50
185.6947992512
 51
245.6253417064
  0
ARC
  5
634
330
39A
100
AcDbEntity
  8
0
  6
Continuous
 62
     8
370
    25
100
AcDbCircle
 10
-5.0719329851
 20
5.9260277663
 30
0.0
 40
0.039604506763922
100
AcDbArc
 50
54.3824225248
 51
114.3071190461
  0
ARC
  5
635
330
39A
100
AcDbEntity
  8
0
  6
Continuous
 62
     8
370
    25
100
AcDbCircle
 10
-5.5057852483
 20
-4.4374518393
 30
0.0
 40
0.039601517991647
100
AcDbArc
 50
185.6947992512
 51
245.6253417064
  0
ARC
  5
636
330
39A
100
AcDbEntity
  8
0
  6
Continuous
 62
     8
370
    25
100
AcDbCircle
 10
6.6109771948
 20
-19.4257731295
 30
0.0
 40
0.0213455710249769
100
AcDbArc
 50
235.5630017811
 51
281.6926377453
  0
ARC
  5
637
330
39A
100
AcDbEntity
  8
0
  6
Continuous
 62
     8
370
    25
100
AcDbCircle
 10
4.2001328149
 20
-18.0340222932
 30
0.0
 40
0.0213455710249269
100
AcDbArc
 50
235.563001781
 51
281.6926377454
  0
ARC
  5
638
330
39A
100
AcDbEntity
  8
0
  6
Continuous
 62
     8
370
    25
100
AcDbCircle
 10
1.7892884349
 20
-16.6422714569
 30
0.0
 40
0.021345571025006
100
AcDbArc
 50
235.5630017811
 51
281.6926377453
  0
ARC
  5
639
330
39A
100
AcDbEntity
  8
0
  6
Continuous
 62
     8
370
    25
100
AcDbCircle
 10
-0.621555945
 20
-15.2505206206
 30
0.0
 40
0.0213455710249836
100
AcDbArc
 50
235.5630017811
 51
281.6926377453
  0
ARC
  5
63A
330
39A
100
AcDbEntity
  8
0
  6
Continuous
 62
     8
370
    25
100
AcDbCircle
 10
-3.032400325
 20
-13.8587697843
 30
0.0
 40
0.0213455710250188
100
AcDbArc
 50
235.5630017812
 51
281.6926377453
  0
ARC
  5
63B
330
39A
100
AcDbEntity
  8
0
  6
Continuous
 62
     8
370
    25
100
AcDbCircle
 10
21.6879595386
 20
-13.4424834792
 30
0.0
 40
0.019802253381955
100
AcDbArc
 50
65.6928809539
 51
125.6175774752
  0
ARC
  5
63C
330
39A
100
AcDbEntity
  8
0
  6
Continuous
 62
     8
370
    25
100
AcDbCircle
 10
21.6742037244
 20
-13.4181014966
 30
0.0
 40
0.047443332358004
100
AcDbArc
 50
87.3137323828
 51
122.6777871491
  0
ARC
  5
63D
330
39A
100
AcDbEntity
  8
0
  6
Continuous
 62
     8
370
    25
100
AcDbCircle
 10
20.3906691448
 20
-11.4078916099
 30
0.0
 40
0.0198022533819535
100
AcDbArc
 50
65.6928809539
 51
125.6175774752
  0
ARC
  5
63E
330
39A
100
AcDbEntity
  8
0
  6
Continuous
 62
     8
370
    25
100
AcDbCircle
 10
17.9798247648
 20
-10.0161407736
 30
0.0
 40
0.0198022533819681
100
AcDbArc
 50
65.6928809539
 51
125.6175774752
  0
VIEWPORT
  5
647
330
39A
100
AcDbEntity
  8
0
100
AcDbViewport
 10
0.0
 20
0.0
 30
0.0
 40
8.4
 41
6.4
 68
     1
 69
     1
 12
11.811023622
 22
-1.1811023622
 13
0.0
 23
0.0
 14
0.5
 24
0.5
 15
0.5
 25
0.5
 16
0.0
 26
0.0
 36
1.0
 17
0.0
 27
0.0
 37
0.0
 42
50.0
 43
0.0
 44
0.0
 45
28.1102362205
 50
0.0
 51
0.0
 72
   100
 90
   557152
  1

281
     0
 71
     1
 74
     0
110
0.0
120
0.0
130
0.0
111
1.0
121
0.0
131
0.0
112
0.0
122
1.0
132
0.0
 79
     0
146
0.0
  0
ENDBLK
  5
39D
330
39A
100
AcDbEntity
  8
0
100
AcDbBlockEnd
  0
ENDSEC
  0
SECTION
  2
ENTITIES
  0
LINE
  5
118
330
1F
100
AcDbEntity
  8
0
  6
Continuous
 62
     7
370
    25
100
AcDbLine
 10
1.5748031496
 20
12.5196850394
 30
0.0
 11
0.0
 21
12.5196850394
 31
0.0
  0
LINE
  5
119
330
1F
100
AcDbEntity
  8
0
  6
Continuous
 62
     7
370
    25
100
AcDbLine
 10
0.7874015748
 20
12.5984251969
 30
0.0
 11
0.7874015748
 21
-14.9606299213
 31
0.0
  0
LINE
  5
11A
330
1F
100
AcDbEntity
  8
0
  6
Continuous
 62
     7
370
    25
100
AcDbLine
 10
0.0
 20
-14.8818897638
 30
0.0
 11
1.4960629921
 21
-14.8818897638
 31
0.0
  0
LINE
  5
11B
330
1F
100
AcDbEntity
  8
0
  6
Continuous
 62
     7
370
    25
100
AcDbLine
 10
0.0
 20
-14.9606299213
 30
0.0
 11
0.0
 21
12.5984251969
 31
0.0
  0
LINE
  5
11C
330
1F
100
AcDbEntity
  8
0
  6
Continuous
 62
     7
370
    25
100
AcDbLine
 10
1.4960629921
 20
-14.8818897638
 30
0.0
 11
1.4960629921
 21
12.5984251969
 31
0.0
  0
LINE
  5
11D
330
1F
100
AcDbEntity
  8
0
  6
Continuous
 62
     7
370
    25
100
AcDbLine
 10
1.5748031496
 20
12.5984251969
 30
0.0
 11
1.5748031496
 21
-14.9606299213
 31
0.0
  0
LINE
  5
11E
330
1F
100
AcDbEntity
  8
0
  6
Continuous
 62
     7
370
    25
100
AcDbLine
 10
1.5748031496
 20
-14.9606299213
 30
0.0
 11
1.4960629921
 21
-14.8818897638
 31
0.0
  0
LINE
  5
11F
330
1F
100
AcDbEntity
  8
0
  6
Continuous
 62
     7
370
    25
100
AcDbLine
 10
1.5748031496
 20
-14.9606299213
 30
0.0
 11
0.0
 21
-14.9606299213
 31
0.0
  0
LINE
  5
120
330
1F
100
AcDbEntity
  8
0
  6
Continuous
 62
     7
370
    25
100
AcDbLine
 10
23.6220472441
 20
12.5196850394
 30
0.0
 11
22.0472440945
 21
12.5196850394
 31
0.0
  0
LINE
  5
121
330
1F
100
AcDbEntity
  8
0
  6
Continuous
 62
     7
370
    25
100
AcDbLine
 10
22.8346456693
 20
12.5984251969
 30
0.0
 11
22.8346456693
 21
-14.9606299213
 31
0.0
  0
LINE
  5
122
330
1F
100
AcDbEntity
  8
0
  6
Continuous
 62
     7
370
    25
100
AcDbLine
 10
22.0472440945
 20
-14.8818897638
 30
0.0
 11
23.6220472441
 21
-14.8818897638
 31
0.0
  0
LINE
  5
123
330
1F
100
AcDbEntity
  8
0
  6
Continuous
 62
     7
370
    25
100
AcDbLine
 10
22.125984252
 20
12.5984251969
 30
0.0
 11
22.125984252
 21
-14.9606299213
 31
0.0
  0
LINE
  5
124
330
1F
100
AcDbEntity
  8
0
  6
Continuous
 62
     7
370
    25
100
AcDbLine
 10
22.0472440945
 20
-14.9606299213
 30
0.0
 11
22.0472440945
 21
12.5984251969
 31
0.0
  0
LINE
  5
125
330
1F
100
AcDbEntity
  8
0
  6
Continuous
 62
     7
370
    25
100
AcDbLine
 10
23.5433070866
 20
12.5984251969
 30
0.0
 11
0.0
 21
12.5984251969
 31
0.0
  0
LINE
  5
126
330
1F
100
AcDbEntity
  8
0
  6
Continuous
 62
     7
370
    25
100
AcDbLine
 10
23.6220472441
 20
-14.8818897638
 30
0.0
 11
23.6220472441
 21
12.5196850394
 31
0.0
  0
LINE
  5
127
330
1F
100
AcDbEntity
  8
0
  6
Continuous
 62
     7
370
    25
100
AcDbLine
 10
23.5433070866
 20
-14.9606299213
 30
0.0
 11
22.0472440945
 21
-14.9606299213
 31
0.0
  0
LINE
  5
128
330
1F
100
AcDbEntity
  8
0
  6
Continuous
 62
     7
370
    25
100
AcDbLine
 10
22.0472440945
 20
0.0
 30
0.0
 11
1.5748031496
 21
0.0
 31
0.0
  0
LINE
  5
129
330
1F
100
AcDbEntity
  8
0
  6
Continuous
 62
     7
370
    25
100
AcDbLine
 10
22.0472440945
 20
0.6299212598
 30
0.0
 11
22.0078740157
 21
0.6299212598
 31
0.0
  0
LINE
  5
12A
330
1F
100
AcDbEntity
  8
0
  6
Continuous
 62
     7
370
    25
100
AcDbLine
 10
1.6141732283
 20
0.6299212598
 30
0.0
 11
1.5748031496
 21
0.6299212598
 31
0.0
  0
LINE
  5
12B
330
1F
100
AcDbEntity
  8
0
  6
Continuous
 62
     7
370
    25
100
AcDbLine
 10
22.0472440945
 20
10.2362204724
 30
0.0
 11
22.0078740157
 21
10.2362204724
 31
0.0
  0
LINE
  5
12C
330
1F
100
AcDbEntity
  8
0
  6
Continuous
 62
     7
370
    25
100
AcDbLine
 10
1.6141732283
 20
10.2362204724
 30
0.0
 11
1.5748031496
 21
10.2362204724
 31
0.0
  0
LINE
  5
12D
330
1F
100
AcDbEntity
  8
0
  6
Continuous
 62
     7
370
    25
100
AcDbLine
 10
22.0472440945
 20
3.7795275591
 30
0.0
 11
22.0078740157
 21
3.7795275591
 31
0.0
  0
LINE
  5
12E
330
1F
100
AcDbEntity
  8
0
  6
Continuous
 62
     7
370
    25
100
AcDbLine
 10
1.6141732283
 20
3.7795275591
 30
0.0
 11
1.5748031496
 21
3.7795275591
 31
0.0
  0
LINE
  5
12F
330
1F
100
AcDbEntity
  8
0
  6
Continuous
 62
     7
370
    25
100
AcDbLine
 10
1.6929133858
 20
11.2992125984
 30
0.0
 11
1.6929133858
 21
1.2992125984
 31
0.0
  0
LINE
  5
130
330
1F
100
AcDbEntity
  8
0
  6
Continuous
 62
     7
370
    25
100
AcDbLine
 10
1.6141732283
 20
11.2992125984
 30
0.0
 11
22.0078740157
 21
11.2992125984
 31
0.0
  0
LINE
  5
131
330
1F
100
AcDbEntity
  8
0
  6
Continuous
 62
     7
370
    25
100
AcDbLine
 10
21.9291338583
 20
1.2992125984
 30
0.0
 11
21.9291338583
 21
11.2992125984
 31
0.0
  0
LINE
  5
132
330
1F
100
AcDbEntity
  8
0
  6
Continuous
 62
     7
370
    25
100
AcDbLine
 10
22.0078740157
 20
1.2992125984
 30
0.0
 11
1.6141732283
 21
1.2992125984
 31
0.0
  0
LINE
  5
133
330
1F
100
AcDbEntity
  8
0
  6
Continuous
 62
     7
370
    25
100
AcDbLine
 10
1.6929133858
 20
1.1811023622
 30
0.0
 11
1.6929133858
 21
0.0393700787
 31
0.0
  0
LINE
  5
134
330
1F
100
AcDbEntity
  8
0
  6
Continuous
 62
     7
370
    25
100
AcDbLine
 10
1.6141732283
 20
0.1181102362
 30
0.0
 11
22.0078740157
 21
0.1181102362
 31
0.0
  0
LINE
  5
135
330
1F
100
AcDbEntity
  8
0
  6
Continuous
 62
     7
370
    25
100
AcDbLine
 10
22.0078740157
 20
1.1811023622
 30
0.0
 11
1.6141732283
 21
1.1811023622
 31
0.0
  0
LINE
  5
136
330
1F
100
AcDbEntity
  8
0
  6
Continuous
 62
     7
370
    25
100
AcDbLine
 10
1.6929133858
 20
12.5590551181
 30
0.0
 11
1.6929133858
 21
11.4173228346
 31
0.0
  0
LINE
  5
137
330
1F
100
AcDbEntity
  8
0
  6
Continuous
 62
     7
370
    25
100
AcDbLine
 10
22.0078740157
 20
12.4803149606
 30
0.0
 11
1.6141732283
 21
12.4803149606
 31
0.0
  0
LINE
  5
138
330
1F
100
AcDbEntity
  8
0
  6
Continuous
 62
     7
370
    25
100
AcDbLine
 10
21.9291338583
 20
0.0393700787
 30
0.0
 11
21.9291338583
 21
1.1811023622
 31
0.0
  0
LINE
  5
139
330
1F
100
AcDbEntity
  8
0
  6
Continuous
 62
     7
370
    25
100
AcDbLine
 10
21.9291338583
 20
0.0393700787
 30
0.0
 11
1.6929133858
 21
0.0393700787
 31
0.0
  0
LINE
  5
13A
330
1F
100
AcDbEntity
  8
0
  6
Continuous
 62
     7
370
    25
100
AcDbLine
 10
21.9291338583
 20
11.4173228346
 30
0.0
 11
21.9291338583
 21
12.5590551181
 31
0.0
  0
LINE
  5
13B
330
1F
100
AcDbEntity
  8
0
  6
Continuous
 62
     7
370
    25
100
AcDbLine
 10
1.6141732283
 20
11.4173228346
 30
0.0
 11
22.0078740157
 21
11.4173228346
 31
0.0
  0
LINE
  5
13C
330
1F
100
AcDbEntity
  8
0
  6
Continuous
 62
     7
370
    25
100
AcDbLine
 10
1.6141732283
 20
0.1181102362
 30
0.0
 11
1.6141732283
 21
12.4803149606
 31
0.0
  0
LINE
  5
13D
330
1F
100
AcDbEntity
  8
0
  6
Continuous
 62
     7
370
    25
100
AcDbLine
 10
1.6929133858
 20
12.5590551181
 30
0.0
 11
21.9291338583
 21
12.5590551181
 31
0.0
  0
LINE
  5
13E
330
1F
100
AcDbEntity
  8
0
  6
Continuous
 62
     7
370
    25
100
AcDbLine
 10
22.0078740157
 20
12.4803149606
 30
0.0
 11
22.0078740157
 21
0.1181102362
 31
0.0
  0
LINE
  5
13F
330
1F
100
AcDbEntity
  8
0
  6
Continuous
 62
     7
370
    25
100
AcDbLine
 10
18.6771653543
 20
-9.7244094488
 30
0.0
 11
18.6771653543
 21
-9.6850393701
 31
0.0
  0
LINE
  5
140
330
1F
100
AcDbEntity
  8
0
  6
Continuous
 62
     7
370
    25
100
AcDbLine
 10
15.4251968504
 20
-9.6456692913
 30
0.0
 11
18.6377952756
 21
-9.6456692913
 31
0.0
  0
LINE
  5
141
330
1F
100
AcDbEntity
  8
0
  6
Continuous
 62
     7
370
    25
100
AcDbLine
 10
5.1968503937
 20
-9.6456692913
 30
0.0
 11
8.4094488189
 21
-9.6456692913
 31
0.0
  0
LINE
  5
142
330
1F
100
AcDbEntity
  8
0
  6
Continuous
 62
     7
370
    25
100
AcDbLine
 10
8.5669291339
 20
-9.7244094488
 30
0.0
 11
8.4488188976
 21
-9.7244094488
 31
0.0
  0
LINE
  5
143
330
1F
100
AcDbEntity
  8
0
  6
Continuous
 62
     7
370
    25
100
AcDbLine
 10
8.6062992126
 20
-9.6456692913
 30
0.0
 11
11.8188976378
 21
-9.6456692913
 31
0.0
  0
LINE
  5
144
330
1F
100
AcDbEntity
  8
0
  6
Continuous
 62
     7
370
    25
100
AcDbLine
 10
11.9763779528
 20
-9.7244094488
 30
0.0
 11
11.8582677165
 21
-9.7244094488
 31
0.0
  0
LINE
  5
145
330
1F
100
AcDbEntity
  8
0
  6
Continuous
 62
     7
370
    25
100
AcDbLine
 10
12.0157480315
 20
-9.6456692913
 30
0.0
 11
15.2283464567
 21
-9.6456692913
 31
0.0
  0
LINE
  5
146
330
1F
100
AcDbEntity
  8
0
  6
Continuous
 62
     7
370
    25
100
AcDbLine
 10
15.3858267717
 20
-9.7244094488
 30
0.0
 11
15.2677165354
 21
-9.7244094488
 31
0.0
  0
LINE
  5
147
330
1F
100
AcDbEntity
  8
0
  6
Continuous
 62
     7
370
    25
100
AcDbLine
 10
18.7952755906
 20
-9.7244094488
 30
0.0
 11
18.6771653543
 21
-9.7244094488
 31
0.0
  0
LINE
  5
148
330
1F
100
AcDbEntity
  8
0
  6
Continuous
 62
     7
370
    25
100
AcDbLine
 10
18.8346456693
 20
-9.6456692913
 30
0.0
 11
22.0472440945
 21
-9.6456692913
 31
0.0
  0
LINE
  5
149
330
1F
100
AcDbEntity
  8
0
  6
Continuous
 62
     7
370
    25
100
AcDbLine
 10
1.5748031496
 20
-9.6456692913
 30
0.0
 11
5.0
 21
-9.6456692913
 31
0.0
  0
LINE
  5
14A
330
1F
100
AcDbEntity
  8
0
  6
Continuous
 62
     7
370
    25
100
AcDbLine
 10
5.157480315
 20
-9.7244094488
 30
0.0
 11
5.0393700787
 21
-9.7244094488
 31
0.0
  0
LINE
  5
14B
330
1F
100
AcDbEntity
  8
0
  6
Continuous
 62
     7
370
    25
100
AcDbLine
 10
1.5748031496
 20
-10.3543307087
 30
0.0
 11
22.0472440945
 21
-10.3543307087
 31
0.0
  0
LINE
  5
14C
330
1F
100
AcDbEntity
  8
0
  6
Continuous
 62
     7
370
    25
100
AcDbLine
 10
18.6771653543
 20
-9.6850393701
 30
0.0
 11
18.7952755906
 21
-9.6850393701
 31
0.0
  0
LINE
  5
14D
330
1F
100
AcDbEntity
  8
0
  6
Continuous
 62
     7
370
    25
100
AcDbLine
 10
18.7952755906
 20
-9.7244094488
 30
0.0
 11
18.7952755906
 21
-9.6850393701
 31
0.0
  0
LINE
  5
14E
330
1F
100
AcDbEntity
  8
0
  6
Continuous
 62
     7
370
    25
100
AcDbLine
 10
15.2677165354
 20
-9.7244094488
 30
0.0
 11
15.2677165354
 21
-9.6850393701
 31
0.0
  0
LINE
  5
14F
330
1F
100
AcDbEntity
  8
0
  6
Continuous
 62
     7
370
    25
100
AcDbLine
 10
15.2677165354
 20
-9.6850393701
 30
0.0
 11
15.3858267717
 21
-9.6850393701
 31
0.0
  0
LINE
  5
150
330
1F
100
AcDbEntity
  8
0
  6
Continuous
 62
     7
370
    25
100
AcDbLine
 10
15.3858267717
 20
-9.7244094488
 30
0.0
 11
15.3858267717
 21
-9.6850393701
 31
0.0
  0
LINE
  5
151
330
1F
100
AcDbEntity
  8
0
  6
Continuous
 62
     7
370
    25
100
AcDbLine
 10
11.8582677165
 20
-9.7244094488
 30
0.0
 11
11.8582677165
 21
-9.6850393701
 31
0.0
  0
LINE
  5
152
330
1F
100
AcDbEntity
  8
0
  6
Continuous
 62
     7
370
    25
100
AcDbLine
 10
11.8582677165
 20
-9.6850393701
 30
0.0
 11
11.9763779528
 21
-9.6850393701
 31
0.0
  0
LINE
  5
153
330
1F
100
AcDbEntity
  8
0
  6
Continuous
 62
     7
370
    25
100
AcDbLine
 10
11.9763779528
 20
-9.7244094488
 30
0.0
 11
11.9763779528
 21
-9.6850393701
 31
0.0
  0
LINE
  5
154
330
1F
100
AcDbEntity
  8
0
  6
Continuous
 62
     7
370
    25
100
AcDbLine
 10
8.4488188976
 20
-9.7244094488
 30
0.0
 11
8.4488188976
 21
-9.6850393701
 31
0.0
  0
LINE
  5
155
330
1F
100
AcDbEntity
  8
0
  6
Continuous
 62
     7
370
    25
100
AcDbLine
 10
8.4488188976
 20
-9.6850393701
 30
0.0
 11
8.5669291339
 21
-9.6850393701
 31
0.0
  0
LINE
  5
156
330
1F
100
AcDbEntity
  8
0
  6
Continuous
 62
     7
370
    25
100
AcDbLine
 10
8.5669291339
 20
-9.7244094488
 30
0.0
 11
8.5669291339
 21
-9.6850393701
 31
0.0
  0
LINE
  5
157
330
1F
100
AcDbEntity
  8
0
  6
Continuous
 62
     7
370
    25
100
AcDbLine
 10
5.0393700787
 20
-9.7244094488
 30
0.0
 11
5.0393700787
 21
-9.6850393701
 31
0.0
  0
LINE
  5
158
330
1F
100
AcDbEntity
  8
0
  6
Continuous
 62
     7
370
    25
100
AcDbLine
 10
5.0393700787
 20
-9.6850393701
 30
0.0
 11
5.157480315
 21
-9.6850393701
 31
0.0
  0
LINE
  5
159
330
1F
100
AcDbEntity
  8
0
  6
Continuous
 62
     7
370
    25
100
AcDbLine
 10
5.157480315
 20
-9.7244094488
 30
0.0
 11
5.157480315
 21
-9.6850393701
 31
0.0
  0
ARC
  5
15A
330
1F
100
AcDbEntity
  8
0
  6
Continuous
 62
     7
370
    25
100
AcDbCircle
 10
1.4960629921
 20
12.5196850394
 30
0.0
 40
0.0787401574803148
100
AcDbArc
 50
0.0
 51
90.0
  0
ARC
  5
15B
330
1F
100
AcDbEntity
  8
0
  6
Continuous
 62
     7
370
    25
100
AcDbCircle
 10
0.0787401575
 20
12.5196850394
 30
0.0
 40
0.0787401574803133
100
AcDbArc
 50
90.0
 51
180.0
  0
ARC
  5
15C
330
1F
100
AcDbEntity
  8
0
  6
Continuous
 62
     7
370
    25
100
AcDbCircle
 10
0.0787401575
 20
-14.8818897638
 30
0.0
 40
0.078740157480313
100
AcDbArc
 50
180.0
 51
270.0
  0
ARC
  5
15D
330
1F
100
AcDbEntity
  8
0
  6
Continuous
 62
     7
370
    25
100
AcDbCircle
 10
23.5433070866
 20
12.5196850394
 30
0.0
 40
0.0787401574803201
100
AcDbArc
 50
0.0
 51
90.0
  0
ARC
  5
15E
330
1F
100
AcDbEntity
  8
0
  6
Continuous
 62
     7
370
    25
100
AcDbCircle
 10
22.125984252
 20
12.5196850394
 30
0.0
 40
0.0787401574803113
100
AcDbArc
 50
90.0
 51
180.0
  0
ARC
  5
15F
330
1F
100
AcDbEntity
  8
0
  6
Continuous
 62
     7
370
    25
100
AcDbCircle
 10
22.125984252
 20
-14.8818897638
 30
0.0
 40
0.0787401574803201
100
AcDbArc
 50
180.0
 51
270.0
  0
ARC
  5
160
330
1F
100
AcDbEntity
  8
0
  6
Continuous
 62
     7
370
    25
100
AcDbCircle
 10
23.5433070866
 20
-14.8818897638
 30
0.0
 40
0.0787401574803219
100
AcDbArc
 50
270.0
 51
360.0
  0
ARC
  5
161
330
1F
100
AcDbEntity
  8
0
  6
Continuous
 62
     7
370
    25
100
AcDbCircle
 10
1.6929133858
 20
0.1181102362
 30
0.0
 40
0.0787401574803162
100
AcDbArc
 50
180.0
 51
270.0
  0
ARC
  5
162
330
1F
100
AcDbEntity
  8
0
  6
Continuous
 62
     7
370
    25
100
AcDbCircle
 10
1.6929133858
 20
12.4803149606
 30
0.0
 40
0.0787401574803133
100
AcDbArc
 50
90.0
 51
180.0
  0
ARC
  5
163
330
1F
100
AcDbEntity
  8
0
  6
Continuous
 62
     7
370
    25
100
AcDbCircle
 10
21.9291338583
 20
0.1181102362
 30
0.0
 40
0.0787401574803184
100
AcDbArc
 50
270.0
 51
360.0
  0
ARC
  5
164
330
1F
100
AcDbEntity
  8
0
  6
Continuous
 62
     7
370
    25
100
AcDbCircle
 10
21.9291338583
 20
12.4803149606
 30
0.0
 40
0.0787401574803219
100
AcDbArc
 50
0.0
 51
90.0
  0
ARC
  5
165
330
1F
100
AcDbEntity
  8
0
  6
Continuous
 62
     7
370
    25
100
AcDbCircle
 10
18.6771653543
 20
-9.6456692913
 30
0.0
 40
0.0393700787401627
100
AcDbArc
 50
180.0
 51
270.0
  0
ARC
  5
166
330
1F
100
AcDbEntity
  8
0
  6
Continuous
 62
     7
370
    25
100
AcDbCircle
 10
18.6771653543
 20
-9.6456692913
 30
0.0
 40
0.0787401574803184
100
AcDbArc
 50
180.0
 51
270.0
  0
ARC
  5
167
330
1F
100
AcDbEntity
  8
0
  6
Continuous
 62
     7
370
    25
100
AcDbCircle
 10
8.4488188976
 20
-9.6456692913
 30
0.0
 40
0.0787401574803166
100
AcDbArc
 50
180.0
 51
270.0
  0
ARC
  5
168
330
1F
100
AcDbEntity
  8
0
  6
Continuous
 62
     7
370
    25
100
AcDbCircle
 10
8.5669291339
 20
-9.6456692913
 30
0.0
 40
0.078740157480313
100
AcDbArc
 50
270.0
 51
0.0
  0
ARC
  5
169
330
1F
100
AcDbEntity
  8
0
  6
Continuous
 62
     7
370
    25
100
AcDbCircle
 10
11.8582677165
 20
-9.6456692913
 30
0.0
 40
0.0787401574803184
100
AcDbArc
 50
180.0
 51
270.0
  0
ARC
  5
16A
330
1F
100
AcDbEntity
  8
0
  6
Continuous
 62
     7
370
    25
100
AcDbCircle
 10
11.9763779528
 20
-9.6456692913
 30
0.0
 40
0.0787401574803166
100
AcDbArc
 50
270.0
 51
0.0
  0
ARC
  5
16B
330
1F
100
AcDbEntity
  8
0
  6
Continuous
 62
     7
370
    25
100
AcDbCircle
 10
15.2677165354
 20
-9.6456692913
 30
0.0
 40
0.0787401574803166
100
AcDbArc
 50
180.0
 51
270.0
  0
ARC
  5
16C
330
1F
100
AcDbEntity
  8
0
  6
Continuous
 62
     7
370
    25
100
AcDbCircle
 10
15.3858267717
 20
-9.6456692913
 30
0.0
 40
0.0787401574803201
100
AcDbArc
 50
270.0
 51
360.0
  0
ARC
  5
16D
330
1F
100
AcDbEntity
  8
0
  6
Continuous
 62
     7
370
    25
100
AcDbCircle
 10
18.7952755906
 20
-9.6456692913
 30
0.0
 40
0.0787401574803219
100
AcDbArc
 50
270.0
 51
360.0
  0
ARC
  5
16E
330
1F
100
AcDbEntity
  8
0
  6
Continuous
 62
     7
370
    25
100
AcDbCircle
 10
5.0393700787
 20
-9.6456692913
 30
0.0
 40
0.0787401574803157
100
AcDbArc
 50
180.0
 51
270.0
  0
ARC
  5
16F
330
1F
100
AcDbEntity
  8
0
  6
Continuous
 62
     7
370
    25
100
AcDbCircle
 10
5.157480315
 20
-9.6456692913
 30
0.0
 40
0.0787401574803148
100
AcDbArc
 50
270.0
 51
0.0
  0
ARC
  5
170
330
1F
100
AcDbEntity
  8
0
  6
Continuous
 62
     7
370
    25
100
AcDbCircle
 10
18.7952755906
 20
-9.6456692913
 30
0.0
 40
0.0393700787401592
100
AcDbArc
 50
270.0
 51
360.0
  0
ARC
  5
171
330
1F
100
AcDbEntity
  8
0
  6
Continuous
 62
     7
370
    25
100
AcDbCircle
 10
15.2677165354
 20
-9.6456692913
 30
0.0
 40
0.0393700787401592
100
AcDbArc
 50
180.0
 51
270.0
  0
ARC
  5
172
330
1F
100
AcDbEntity
  8
0
  6
Continuous
 62
     7
370
    25
100
AcDbCircle
 10
15.3858267717
 20
-9.6456692913
 30
0.0
 40
0.0393700787401574
100
AcDbArc
 50
270.0
 51
0.0
  0
ARC
  5
173
330
1F
100
AcDbEntity
  8
0
  6
Continuous
 62
     7
370
    25
100
AcDbCircle
 10
11.9763779528
 20
-9.6456692913
 30
0.0
 40
0.0393700787401592
100
AcDbArc
 50
270.0
 51
0.0
  0
ARC
  5
174
330
1F
100
AcDbEntity
  8
0
  6
Continuous
 62
     7
370
    25
100
AcDbCircle
 10
8.4488188976
 20
-9.6456692913
 30
0.0
 40
0.039370078740161
100
AcDbArc
 50
180.0
 51
270.0
  0
ARC
  5
175
330
1F
100
AcDbEntity
  8
0
  6
Continuous
 62
     7
370
    25
100
AcDbCircle
 10
8.5669291339
 20
-9.6456692913
 30
0.0
 40
0.0393700787401592
100
AcDbArc
 50
270.0
 51
0.0
  0
ARC
  5
176
330
1F
100
AcDbEntity
  8
0
  6
Continuous
 62
     7
370
    25
100
AcDbCircle
 10
11.8582677165
 20
-9.6456692913
 30
0.0
 40
0.0393700787401539
100
AcDbArc
 50
180.0
 51
270.0
  0
ARC
  5
177
330
1F
100
AcDbEntity
  8
0
  6
Continuous
 62
     7
370
    25
100
AcDbCircle
 10
5.0393700787
 20
-9.6456692913
 30
0.0
 40
0.0393700787401592
100
AcDbArc
 50
180.0
 51
270.0
  0
ARC
  5
178
330
1F
100
AcDbEntity
  8
0
  6
Continuous
 62
     7
370
    25
100
AcDbCircle
 10
5.157480315
 20
-9.6456692913
 30
0.0
 40
0.0393700787401592
100
AcDbArc
 50
270.0
 51
0.0
  0
CIRCLE
  5
189
330
1B
100
AcDbEntity
 67
     1
  8
0
  6
Continuous
 62
     7
370
    25
100
AcDbCircle
 10
-17.4803149606
 20
2.5984251969
 30
0.0
 40
0.0393700787401556
  0
CIRCLE
  5
18B
330
1B
100
AcDbEntity
 67
     1
  8
0
  6
Continuous
 62
     7
370
    25
100
AcDbCircle
 10
-11.811023622
 20
2.5984251969
 30
0.0
 40
0.0393700787401574
  0
CIRCLE
  5
18C
330
1B
100
AcDbEntity
 67
     1
  8
0
  6
Continuous
 62
     7
370
    25
100
AcDbCircle
 10
-6.1417322835
 20
2.5984251969
 30
0.0
 40
0.0393700787401574
  0
CIRCLE
  5
1A0
330
1B
100
AcDbEntity
 67
     1
  8
0
  6
Continuous
 62
     7
370
    25
100
AcDbCircle
 10
-15.5905511811
 20
9.0157480315
 30
0.0
 40
0.0393700787401592
  0
CIRCLE
  5
1A1
330
1B
100
AcDbEntity
 67
     1
  8
0
  6
Continuous
 62
     7
370
    25
100
AcDbCircle
 10
-18.1102362205
 20
9.0157480315
 30
0.0
 40
0.0393700787401592
  0
CIRCLE
  5
1A2
330
1B
100
AcDbEntity
 67
     1
  8
0
  6
Continuous
 62
     7
370
    25
100
AcDbCircle
 10
-8.031496063
 20
9.0157480315
 30
0.0
 40
0.0393700787401574
  0
CIRCLE
  5
1A3
330
1B
100
AcDbEntity
 67
     1
  8
0
  6
Continuous
 62
     7
370
    25
100
AcDbCircle
 10
-5.5118110236
 20
9.0157480315
 30
0.0
 40
0.0393700787401583
  0
CIRCLE
  5
1A4
330
1B
100
AcDbEntity
 67
     1
  8
0
  6
Continuous
 62
     7
370
    25
100
AcDbCircle
 10
-11.4960629921
 20
9.0157480315
 30
0.0
 40
0.0393700787401556
  0
CIRCLE
  5
1A5
330
1B
100
AcDbEntity
 67
     1
  8
0
  6
Continuous
 62
     7
370
    25
100
AcDbCircle
 10
-9.9212598425
 20
9.0157480315
 30
0.0
 40
0.0393700787401574
  0
CIRCLE
  5
1A6
330
1B
100
AcDbEntity
 67
     1
  8
0
  6
Continuous
 62
     7
370
    25
100
AcDbCircle
 10
-14.3307086614
 20
9.0157480315
 30
0.0
 40
0.0393700787401574
  0
CIRCLE
  5
1A7
330
1B
100
AcDbEntity
 67
     1
  8
0
  6
Continuous
 62
     7
370
    25
100
AcDbCircle
 10
-9.2913385827
 20
9.0157480315
 30
0.0
 40
0.0393700787401592
  0
CIRCLE
  5
1A8
330
1B
100
AcDbEntity
 67
     1
  8
0
  6
Continuous
 62
     7
370
    25
100
AcDbCircle
 10
-14.9606299213
 20
9.0157480315
 30
0.0
 40
0.0393700787401574
  0
CIRCLE
  5
1A9
330
1B
100
AcDbEntity
 67
     1
  8
0
  6
Continuous
 62
     7
370
    25
100
AcDbCircle
 10
-12.125984252
 20
9.0157480315
 30
0.0
 40
0.0393700787401574
  0
CIRCLE
  5
1AA
330
1B
100
AcDbEntity
 67
     1
  8
0
  6
Continuous
 62
     7
370
    25
100
AcDbCircle
 10
-12.4409448819
 20
9.0157480315
 30
0.0
 40
0.0393700787401574
  0
CIRCLE
  5
1AB
330
1B
100
AcDbEntity
 67
     1
  8
0
  6
Continuous
 62
     7
370
    25
100
AcDbCircle
 10
-11.1811023622
 20
9.0157480315
 30
0.0
 40
0.0393700787401574
  0
CIRCLE
  5
1AC
330
1B
100
AcDbEntity
 67
     1
  8
0
  6
Continuous
 62
     7
370
    25
100
AcDbCircle
 10
-13.7007874016
 20
9.0157480315
 30
0.0
 40
0.0393700787401592
  0
CIRCLE
  5
1AD
330
1B
100
AcDbEntity
 67
     1
  8
0
  6
Continuous
 62
     7
370
    25
100
AcDbCircle
 10
-8.6614173228
 20
9.0157480315
 30
0.0
 40
0.0393700787401574
  0
SPLINE
  5
1B2
330
1B
100
AcDbEntity
 67
     1
  8
0
  6
Continuous
 62
     7
370
    25
100
AcDbSpline
210
0.0
220
0.0
230
1.0
 70
     8
 71
     3
 72
    18
 73
    14
 74
     0
 42
0.000000001
 43
0.00000001
 40
0.0
 40
0.0
 40
0.0
 40
0.0
 40
0.1249999999999999
 40
0.1249999999999999
 40
0.2499999999999999
 40
0.2499999999999999
 40
0.3749999999999998
 40
0.3749999999999998
 40
0.4999999999999998
 40
0.4999999999999998
 40
0.7499999999999999
 40
0.7499999999999999
 40
1.0
 40
1.0
 40
1.0
 40
1.0
 10
-14.96062992125982
 20
5.944881889763784
 30
0.0
 10
-14.96062992125982
 20
5.944881889763785
 30
0.0
 10
-14.96063003840873
 20
5.944371970190273
 30
0.0
 10
-14.96062908123261
 20
5.942374007557119
 30
0.0
 10
-14.96062797437871
 20
5.940861775463059
 30
0.0
 10
-14.9606204597587
 20
5.936913362776112
 30
0.0
 10
-14.96061409443635
 20
5.934497148953195
 30
0.0
 10
-14.96059009980593
 20
5.928788761269532
 30
0.0
 10
-14.96057216661171
 20
5.925465971978288
 30
0.0
 10
-14.96049249973623
 20
5.914578126359261
 30
0.0
 10
-14.96040168660804
 20
5.905801415102998
 30
0.0
 10
-14.96010982292755
 20
5.886868301168448
 30
0.0
 10
-14.95990548085332
 20
5.876537098186248
 30
0.0
 10
-14.95964551545386
 20
5.86614173228347
 30
0.0
  0
SPLINE
  5
1B9
330
1B
100
AcDbEntity
 67
     1
  8
0
  6
Continuous
 62
     7
370
    25
100
AcDbSpline
210
0.0
220
0.0
230
1.0
 70
     8
 71
     3
 72
    18
 73
    14
 74
     0
 42
0.000000001
 43
0.00000001
 40
0.0
 40
0.0
 40
0.0
 40
0.0
 40
0.1249999999999953
 40
0.1249999999999953
 40
0.2499999999999906
 40
0.2499999999999906
 40
0.3749999999999858
 40
0.3749999999999858
 40
0.4999999999999811
 40
0.4999999999999811
 40
0.7499999999999906
 40
0.7499999999999906
 40
1.0
 40
1.0
 40
1.0
 40
1.0
 10
-8.662401728640575
 20
5.86614173228347
 30
0.0
 10
-8.662271746262027
 20
5.871339402391694
 30
0.0
 10
-8.662156794910127
 20
5.876450620469233
 30
0.0
 10
-8.6619543116491
 20
5.886507135199905
 30
0.0
 10
-8.661866051262948
 20
5.891504456910114
 30
0.0
 10
-8.66171892800013
 20
5.901035567011612
 30
0.0
 10
-8.661659931893519
 20
5.905556412099534
 30
0.0
 10
-8.661564712852485
 20
5.914112987509212
 30
0.0
 10
-8.661528545640007
 20
5.918164946690895
 30
0.0
 10
-8.661448683666967
 20
5.929060611377917
 30
0.0
 10
-8.661430594442352
 20
5.934929116250996
 30
0.0
 10
-8.661415562214662
 20
5.942792230555589
 30
0.0
 10
-8.661417322834621
 20
5.944881889763789
 30
0.0
 10
-8.661417322834618
 20
5.944881889763784
 30
0.0
  0
LINE
  5
1F9
330
1B
100
AcDbEntity
 67
     1
  8
0
  6
Continuous
 62
     7
370
    25
100
AcDbLine
 10
-1.5748031496
 20
12.5984251969
 30
0.0
 11
-1.5748031496
 21
-14.9606299213
 31
0.0
  0
LINE
  5
1FA
330
1B
100
AcDbEntity
 67
     1
  8
0
  6
Continuous
 62
     7
370
    25
100
AcDbLine
 10
0.0
 20
-14.9606299213
 30
0.0
 11
0.0
 21
12.5984251969
 31
0.0
  0
LINE
  5
1FB
330
1B
100
AcDbEntity
 67
     1
  8
0
  6
Continuous
 62
     7
370
    25
100
AcDbLine
 10
-1.5748031496
 20
-14.9606299213
 30
0.0
 11
0.0
 21
-14.9606299213
 31
0.0
  0
LINE
  5
1FC
330
1B
100
AcDbEntity
 67
     1
  8
0
  6
Continuous
 62
     7
370
    25
100
AcDbLine
 10
-23.5433070866
 20
12.5984251969
 30
0.0
 11
0.0
 21
12.5984251969
 31
0.0
  0
LINE
  5
1FD
330
1B
100
AcDbEntity
 67
     1
  8
0
  6
Continuous
 62
     7
370
    25
100
AcDbLine
 10
-23.6220472441
 20
-14.8818897638
 30
0.0
 11
-23.6220472441
 21
12.5196850394
 31
0.0
  0
LINE
  5
1FE
330
1B
100
AcDbEntity
 67
     1
  8
0
  6
Continuous
 62
     7
370
    25
100
AcDbLine
 10
-22.0472440945
 20
-14.9606299213
 30
0.0
 11
-23.5433070866
 21
-14.9606299213
 31
0.0
  0
LINE
  5
1FF
330
1B
100
AcDbEntity
 67
     1
  8
0
  6
Continuous
 62
     7
370
    25
100
AcDbLine
 10
-22.0472440945
 20
12.5984251969
 30
0.0
 11
-22.0472440945
 21
-14.9606299213
 31
0.0
  0
LINE
  5
200
330
1B
100
AcDbEntity
 67
     1
  8
0
  6
Continuous
 62
     7
370
    25
100
AcDbLine
 10
-22.0472440945
 20
0.6299212598
 30
0.0
 11
-1.5748031496
 21
0.6299212598
 31
0.0
  0
LINE
  5
201
330
1B
100
AcDbEntity
 67
     1
  8
0
  6
Continuous
 62
     7
370
    25
100
AcDbLine
 10
-1.5748031496
 20
0.0
 30
0.0
 11
-22.0472440945
 21
0.0
 31
0.0
  0
LINE
  5
202
330
1B
100
AcDbEntity
 67
     1
  8
0
  6
Continuous
 62
     7
370
    25
100
AcDbLine
 10
-22.0472440945
 20
10.2362204724
 30
0.0
 11
-1.5748031496
 21
10.2362204724
 31
0.0
  0
LINE
  5
203
330
1B
100
AcDbEntity
 67
     1
  8
0
  6
Continuous
 62
     7
370
    25
100
AcDbLine
 10
-22.0472440945
 20
3.7795275591
 30
0.0
 11
-1.5748031496
 21
3.7795275591
 31
0.0
  0
LINE
  5
204
330
1B
100
AcDbEntity
 67
     1
  8
0
  6
Continuous
 62
     7
370
    25
100
AcDbLine
 10
-8.6614173228
 20
5.9448818898
 30
0.0
 11
-2.0275590551
 21
5.9448818898
 31
0.0
  0
LINE
  5
205
330
1B
100
AcDbEntity
 67
     1
  8
0
  6
Continuous
 62
     7
370
    25
100
AcDbLine
 10
-2.5590551181
 20
5.9448818898
 30
0.0
 11
-2.5590551181
 21
3.7795275591
 31
0.0
  0
LINE
  5
206
330
1B
100
AcDbEntity
 67
     1
  8
0
  6
Continuous
 62
     7
370
    25
100
AcDbLine
 10
-2.4803149606
 20
6.0236220472
 30
0.0
 11
-2.1062992126
 21
6.0236220472
 31
0.0
  0
LINE
  5
207
330
1B
100
AcDbEntity
 67
     1
  8
0
  6
Continuous
 62
     7
370
    25
100
AcDbLine
 10
-2.1062992126
 20
3.7795275591
 30
0.0
 11
-2.1062992126
 21
6.0236220472
 31
0.0
  0
LINE
  5
208
330
1B
100
AcDbEntity
 67
     1
  8
0
  6
Continuous
 62
     7
370
    25
100
AcDbLine
 10
-2.0275590551
 20
5.9448818898
 30
0.0
 11
-2.0275590551
 21
3.7795275591
 31
0.0
  0
LINE
  5
209
330
1B
100
AcDbEntity
 67
     1
  8
0
  6
Continuous
 62
     7
370
    25
100
AcDbLine
 10
-21.594488189
 20
5.9448818898
 30
0.0
 11
-14.9606299213
 21
5.9448818898
 31
0.0
  0
LINE
  5
20A
330
1B
100
AcDbEntity
 67
     1
  8
0
  6
Continuous
 62
     7
370
    25
100
AcDbLine
 10
-21.062992126
 20
3.7795275591
 30
0.0
 11
-21.062992126
 21
5.9448818898
 31
0.0
  0
LINE
  5
20B
330
1B
100
AcDbEntity
 67
     1
  8
0
  6
Continuous
 62
     7
370
    25
100
AcDbLine
 10
-21.5157480315
 20
6.0236220472
 30
0.0
 11
-21.5157480315
 21
3.7795275591
 31
0.0
  0
LINE
  5
20C
330
1B
100
AcDbEntity
 67
     1
  8
0
  6
Continuous
 62
     7
370
    25
100
AcDbLine
 10
-21.5157480315
 20
6.0236220472
 30
0.0
 11
-21.1417322835
 21
6.0236220472
 31
0.0
  0
LINE
  5
20D
330
1B
100
AcDbEntity
 67
     1
  8
0
  6
Continuous
 62
     7
370
    25
100
AcDbLine
 10
-21.594488189
 20
3.7795275591
 30
0.0
 11
-21.594488189
 21
5.9448818898
 31
0.0
  0
LINE
  5
20E
330
1B
100
AcDbEntity
 67
     1
  8
0
  6
Continuous
 62
     7
370
    25
100
AcDbLine
 10
-22.0078740157
 20
3.7795275591
 30
0.0
 11
-22.0078740157
 21
10.2362204724
 31
0.0
  0
LINE
  5
20F
330
1B
100
AcDbEntity
 67
     1
  8
0
  6
Continuous
 62
     7
370
    25
100
AcDbLine
 10
-1.6141732283
 20
10.2362204724
 30
0.0
 11
-1.6141732283
 21
3.7795275591
 31
0.0
  0
LINE
  5
210
330
1B
100
AcDbEntity
 67
     1
  8
0
  6
Continuous
 62
     7
370
    25
100
AcDbLine
 10
-14.9596455155
 20
5.8661417323
 30
0.0
 11
-21.062992126
 21
5.8661417323
 31
0.0
  0
LINE
  5
211
330
1B
100
AcDbEntity
 67
     1
  8
0
  6
Continuous
 62
     7
370
    25
100
AcDbLine
 10
-2.5590551181
 20
5.8661417323
 30
0.0
 11
-8.6624017286
 21
5.8661417323
 31
0.0
  0
LINE
  5
212
330
1B
100
AcDbEntity
 67
     1
  8
0
  6
Continuous
 62
     7
370
    25
100
AcDbLine
 10
-5.0
 20
-9.6456692913
 30
0.0
 11
-1.5748031496
 21
-9.6456692913
 31
0.0
  0
LINE
  5
213
330
1B
100
AcDbEntity
 67
     1
  8
0
  6
Continuous
 62
     7
370
    25
100
AcDbLine
 10
-22.0472440945
 20
-10.3543307087
 30
0.0
 11
-1.5748031496
 21
-10.3543307087
 31
0.0
  0
LINE
  5
214
330
1B
100
AcDbEntity
 67
     1
  8
0
  6
Continuous
 62
     7
370
    25
100
AcDbLine
 10
-22.0472440945
 20
-9.6456692913
 30
0.0
 11
-18.8346456693
 21
-9.6456692913
 31
0.0
  0
LINE
  5
215
330
1B
100
AcDbEntity
 67
     1
  8
0
  6
Continuous
 62
     7
370
    25
100
AcDbLine
 10
-18.6771653543
 20
-9.7244094488
 30
0.0
 11
-18.7952755906
 21
-9.7244094488
 31
0.0
  0
LINE
  5
216
330
1B
100
AcDbEntity
 67
     1
  8
0
  6
Continuous
 62
     7
370
    25
100
AcDbLine
 10
-18.6377952756
 20
-9.6456692913
 30
0.0
 11
-15.4251968504
 21
-9.6456692913
 31
0.0
  0
LINE
  5
217
330
1B
100
AcDbEntity
 67
     1
  8
0
  6
Continuous
 62
     7
370
    25
100
AcDbLine
 10
-15.2677165354
 20
-9.7244094488
 30
0.0
 11
-15.3858267717
 21
-9.7244094488
 31
0.0
  0
LINE
  5
218
330
1B
100
AcDbEntity
 67
     1
  8
0
  6
Continuous
 62
     7
370
    25
100
AcDbLine
 10
-15.2283464567
 20
-9.6456692913
 30
0.0
 11
-12.0157480315
 21
-9.6456692913
 31
0.0
  0
LINE
  5
219
330
1B
100
AcDbEntity
 67
     1
  8
0
  6
Continuous
 62
     7
370
    25
100
AcDbLine
 10
-11.8582677165
 20
-9.7244094488
 30
0.0
 11
-11.9763779528
 21
-9.7244094488
 31
0.0
  0
LINE
  5
21A
330
1B
100
AcDbEntity
 67
     1
  8
0
  6
Continuous
 62
     7
370
    25
100
AcDbLine
 10
-11.8188976378
 20
-9.6456692913
 30
0.0
 11
-8.6062992126
 21
-9.6456692913
 31
0.0
  0
LINE
  5
21B
330
1B
100
AcDbEntity
 67
     1
  8
0
  6
Continuous
 62
     7
370
    25
100
AcDbLine
 10
-8.4488188976
 20
-9.7244094488
 30
0.0
 11
-8.5669291339
 21
-9.7244094488
 31
0.0
  0
LINE
  5
21C
330
1B
100
AcDbEntity
 67
     1
  8
0
  6
Continuous
 62
     7
370
    25
100
AcDbLine
 10
-5.0393700787
 20
-9.7244094488
 30
0.0
 11
-5.157480315
 21
-9.7244094488
 31
0.0
  0
LINE
  5
21D
330
1B
100
AcDbEntity
 67
     1
  8
0
  6
Continuous
 62
     7
370
    25
100
AcDbLine
 10
-8.4094488189
 20
-9.6456692913
 30
0.0
 11
-5.1968503937
 21
-9.6456692913
 31
0.0
  0
LINE
  5
21E
330
1B
100
AcDbEntity
 67
     1
  8
0
  6
Continuous
 62
     7
370
    25
100
AcDbLine
 10
-8.5669291339
 20
-9.6850393701
 30
0.0
 11
-8.4488188976
 21
-9.6850393701
 31
0.0
  0
LINE
  5
21F
330
1B
100
AcDbEntity
 67
     1
  8
0
  6
Continuous
 62
     7
370
    25
100
AcDbLine
 10
-8.4488188976
 20
-9.6850393701
 30
0.0
 11
-8.4488188976
 21
-9.7244094488
 31
0.0
  0
LINE
  5
220
330
1B
100
AcDbEntity
 67
     1
  8
0
  6
Continuous
 62
     7
370
    25
100
AcDbLine
 10
-8.5669291339
 20
-9.6850393701
 30
0.0
 11
-8.5669291339
 21
-9.7244094488
 31
0.0
  0
LINE
  5
221
330
1B
100
AcDbEntity
 67
     1
  8
0
  6
Continuous
 62
     7
370
    25
100
AcDbLine
 10
-5.157480315
 20
-9.6850393701
 30
0.0
 11
-5.157480315
 21
-9.7244094488
 31
0.0
  0
LINE
  5
222
330
1B
100
AcDbEntity
 67
     1
  8
0
  6
Continuous
 62
     7
370
    25
100
AcDbLine
 10
-5.0393700787
 20
-9.6850393701
 30
0.0
 11
-5.0393700787
 21
-9.7244094488
 31
0.0
  0
LINE
  5
223
330
1B
100
AcDbEntity
 67
     1
  8
0
  6
Continuous
 62
     7
370
    25
100
AcDbLine
 10
-5.157480315
 20
-9.6850393701
 30
0.0
 11
-5.0393700787
 21
-9.6850393701
 31
0.0
  0
LINE
  5
224
330
1B
100
AcDbEntity
 67
     1
  8
0
  6
Continuous
 62
     7
370
    25
100
AcDbLine
 10
-15.3858267717
 20
-9.6850393701
 30
0.0
 11
-15.3858267717
 21
-9.7244094488
 31
0.0
  0
LINE
  5
225
330
1B
100
AcDbEntity
 67
     1
  8
0
  6
Continuous
 62
     7
370
    25
100
AcDbLine
 10
-11.8582677165
 20
-9.6850393701
 30
0.0
 11
-11.8582677165
 21
-9.7244094488
 31
0.0
  0
LINE
  5
226
330
1B
100
AcDbEntity
 67
     1
  8
0
  6
Continuous
 62
     7
370
    25
100
AcDbLine
 10
-11.9763779528
 20
-9.6850393701
 30
0.0
 11
-11.8582677165
 21
-9.6850393701
 31
0.0
  0
LINE
  5
227
330
1B
100
AcDbEntity
 67
     1
  8
0
  6
Continuous
 62
     7
370
    25
100
AcDbLine
 10
-11.9763779528
 20
-9.6850393701
 30
0.0
 11
-11.9763779528
 21
-9.7244094488
 31
0.0
  0
LINE
  5
228
330
1B
100
AcDbEntity
 67
     1
  8
0
  6
Continuous
 62
     7
370
    25
100
AcDbLine
 10
-15.2677165354
 20
-9.6850393701
 30
0.0
 11
-15.2677165354
 21
-9.7244094488
 31
0.0
  0
LINE
  5
229
330
1B
100
AcDbEntity
 67
     1
  8
0
  6
Continuous
 62
     7
370
    25
100
AcDbLine
 10
-15.3858267717
 20
-9.6850393701
 30
0.0
 11
-15.2677165354
 21
-9.6850393701
 31
0.0
  0
LINE
  5
22A
330
1B
100
AcDbEntity
 67
     1
  8
0
  6
Continuous
 62
     7
370
    25
100
AcDbLine
 10
-18.6771653543
 20
-9.6850393701
 30
0.0
 11
-18.6771653543
 21
-9.7244094488
 31
0.0
  0
LINE
  5
22B
330
1B
100
AcDbEntity
 67
     1
  8
0
  6
Continuous
 62
     7
370
    25
100
AcDbLine
 10
-18.7952755906
 20
-9.6850393701
 30
0.0
 11
-18.6771653543
 21
-9.6850393701
 31
0.0
  0
LINE
  5
22C
330
1B
100
AcDbEntity
 67
     1
  8
0
  6
Continuous
 62
     7
370
    25
100
AcDbLine
 10
-18.7952755906
 20
-9.6850393701
 30
0.0
 11
-18.7952755906
 21
-9.7244094488
 31
0.0
  0
LINE
  5
22D
330
1B
100
AcDbEntity
 67
     1
  8
0
  6
Continuous
 62
     8
370
    25
100
AcDbLine
 10
-1.6929133858
 20
3.7795275591
 30
0.0
 11
-1.6929133858
 21
10.2362204724
 31
0.0
  0
LINE
  5
22E
330
1B
100
AcDbEntity
 67
     1
  8
0
  6
Continuous
 62
     8
370
    25
100
AcDbLine
 10
-21.9291338583
 20
10.2362204724
 30
0.0
 11
-21.9291338583
 21
3.7795275591
 31
0.0
  0
ARC
  5
22F
330
1B
100
AcDbEntity
 67
     1
  8
0
  6
Continuous
 62
     7
370
    25
100
AcDbCircle
 10
-23.5433070866
 20
12.5196850394
 30
0.0
 40
0.0787401574803148
100
AcDbArc
 50
90.0
 51
180.0
  0
ARC
  5
230
330
1B
100
AcDbEntity
 67
     1
  8
0
  6
Continuous
 62
     7
370
    25
100
AcDbCircle
 10
-23.5433070866
 20
-14.8818897638
 30
0.0
 40
0.0787401574803219
100
AcDbArc
 50
180.0
 51
270.0
  0
ARC
  5
231
330
1B
100
AcDbEntity
 67
     1
  8
0
  6
Continuous
 62
     7
370
    25
100
AcDbCircle
 10
-2.4803149606
 20
5.9448818898
 30
0.0
 40
0.0787401574803153
100
AcDbArc
 50
90.0
 51
180.0
  0
ARC
  5
232
330
1B
100
AcDbEntity
 67
     1
  8
0
  6
Continuous
 62
     7
370
    25
100
AcDbCircle
 10
-2.1062992126
 20
5.9448818898
 30
0.0
 40
0.0787401574803148
100
AcDbArc
 50
0.0
 51
90.0
  0
ARC
  5
233
330
1B
100
AcDbEntity
 67
     1
  8
0
  6
Continuous
 62
     7
370
    25
100
AcDbCircle
 10
-21.5157480315
 20
5.9448818898
 30
0.0
 40
0.0787401574803184
100
AcDbArc
 50
90.0
 51
180.0
  0
ARC
  5
234
330
1B
100
AcDbEntity
 67
     1
  8
0
  6
Continuous
 62
     7
370
    25
100
AcDbCircle
 10
-21.1417322835
 20
5.9448818898
 30
0.0
 40
0.0787401574803193
100
AcDbArc
 50
0.0
 51
90.0
  0
ARC
  5
235
330
1B
100
AcDbEntity
 67
     1
  8
0
  6
Continuous
 62
     7
370
    25
100
AcDbCircle
 10
-11.811023622
 20
5.9448818898
 30
0.0
 40
3.149606299212596
100
AcDbArc
 50
181.4325437376
 51
223.4325365578
  0
ARC
  5
236
330
1B
100
AcDbEntity
 67
     1
  8
0
  6
Continuous
 62
     7
370
    25
100
AcDbCircle
 10
-11.811023622
 20
5.9448818898
 30
0.0
 40
3.149606299212492
100
AcDbArc
 50
316.5674634422
 51
358.5674562624
  0
ARC
  5
237
330
1B
100
AcDbEntity
 67
     1
  8
0
  6
Continuous
 62
     7
370
    25
100
AcDbCircle
 10
-18.7952755906
 20
-9.6456692913
 30
0.0
 40
0.0787401574803184
100
AcDbArc
 50
180.0
 51
270.0
  0
ARC
  5
238
330
1B
100
AcDbEntity
 67
     1
  8
0
  6
Continuous
 62
     7
370
    25
100
AcDbCircle
 10
-18.6771653543
 20
-9.6456692913
 30
0.0
 40
0.0787401574803166
100
AcDbArc
 50
270.0
 51
0.0
  0
ARC
  5
239
330
1B
100
AcDbEntity
 67
     1
  8
0
  6
Continuous
 62
     7
370
    25
100
AcDbCircle
 10
-15.3858267717
 20
-9.6456692913
 30
0.0
 40
0.0787401574803148
100
AcDbArc
 50
180.0
 51
270.0
  0
ARC
  5
23A
330
1B
100
AcDbEntity
 67
     1
  8
0
  6
Continuous
 62
     7
370
    25
100
AcDbCircle
 10
-15.2677165354
 20
-9.6456692913
 30
0.0
 40
0.0787401574803148
100
AcDbArc
 50
270.0
 51
0.0
  0
ARC
  5
23B
330
1B
100
AcDbEntity
 67
     1
  8
0
  6
Continuous
 62
     7
370
    25
100
AcDbCircle
 10
-11.9763779528
 20
-9.6456692913
 30
0.0
 40
0.0787401574803184
100
AcDbArc
 50
180.0
 51
270.0
  0
ARC
  5
23C
330
1B
100
AcDbEntity
 67
     1
  8
0
  6
Continuous
 62
     7
370
    25
100
AcDbCircle
 10
-11.8582677165
 20
-9.6456692913
 30
0.0
 40
0.0787401574803166
100
AcDbArc
 50
270.0
 51
0.0
  0
ARC
  5
23D
330
1B
100
AcDbEntity
 67
     1
  8
0
  6
Continuous
 62
     7
370
    25
100
AcDbCircle
 10
-8.5669291339
 20
-9.6456692913
 30
0.0
 40
0.0787401574803166
100
AcDbArc
 50
180.0
 51
270.0
  0
ARC
  5
23E
330
1B
100
AcDbEntity
 67
     1
  8
0
  6
Continuous
 62
     7
370
    25
100
AcDbCircle
 10
-8.4488188976
 20
-9.6456692913
 30
0.0
 40
0.0787401574803148
100
AcDbArc
 50
270.0
 51
0.0
  0
ARC
  5
23F
330
1B
100
AcDbEntity
 67
     1
  8
0
  6
Continuous
 62
     7
370
    25
100
AcDbCircle
 10
-5.157480315
 20
-9.6456692913
 30
0.0
 40
0.0787401574803139
100
AcDbArc
 50
180.0
 51
270.0
  0
ARC
  5
240
330
1B
100
AcDbEntity
 67
     1
  8
0
  6
Continuous
 62
     7
370
    25
100
AcDbCircle
 10
-5.0393700787
 20
-9.6456692913
 30
0.0
 40
0.0787401574803139
100
AcDbArc
 50
270.0
 51
0.0
  0
ARC
  5
241
330
1B
100
AcDbEntity
 67
     1
  8
0
  6
Continuous
 62
     7
370
    25
100
AcDbCircle
 10
-5.157480315
 20
-9.6456692913
 30
0.0
 40
0.0393700787401592
100
AcDbArc
 50
180.0
 51
270.0
  0
ARC
  5
242
330
1B
100
AcDbEntity
 67
     1
  8
0
  6
Continuous
 62
     7
370
    25
100
AcDbCircle
 10
-8.5669291339
 20
-9.6456692913
 30
0.0
 40
0.039370078740161
100
AcDbArc
 50
180.0
 51
270.0
  0
ARC
  5
243
330
1B
100
AcDbEntity
 67
     1
  8
0
  6
Continuous
 62
     7
370
    25
100
AcDbCircle
 10
-5.0393700787
 20
-9.6456692913
 30
0.0
 40
0.0393700787401592
100
AcDbArc
 50
270.0
 51
360.0
  0
ARC
  5
244
330
1B
100
AcDbEntity
 67
     1
  8
0
  6
Continuous
 62
     7
370
    25
100
AcDbCircle
 10
-8.4488188976
 20
-9.6456692913
 30
0.0
 40
0.0393700787401556
100
AcDbArc
 50
270.0
 51
0.0
  0
ARC
  5
245
330
1B
100
AcDbEntity
 67
     1
  8
0
  6
Continuous
 62
     7
370
    25
100
AcDbCircle
 10
-15.3858267717
 20
-9.6456692913
 30
0.0
 40
0.0393700787401574
100
AcDbArc
 50
180.0
 51
270.0
  0
ARC
  5
246
330
1B
100
AcDbEntity
 67
     1
  8
0
  6
Continuous
 62
     7
370
    25
100
AcDbCircle
 10
-11.8582677165
 20
-9.6456692913
 30
0.0
 40
0.039370078740161
100
AcDbArc
 50
270.0
 51
360.0
  0
ARC
  5
247
330
1B
100
AcDbEntity
 67
     1
  8
0
  6
Continuous
 62
     7
370
    25
100
AcDbCircle
 10
-15.2677165354
 20
-9.6456692913
 30
0.0
 40
0.0393700787401556
100
AcDbArc
 50
270.0
 51
0.0
  0
ARC
  5
248
330
1B
100
AcDbEntity
 67
     1
  8
0
  6
Continuous
 62
     7
370
    25
100
AcDbCircle
 10
-11.9763779528
 20
-9.6456692913
 30
0.0
 40
0.0393700787401574
100
AcDbArc
 50
180.0
 51
270.0
  0
ARC
  5
249
330
1B
100
AcDbEntity
 67
     1
  8
0
  6
Continuous
 62
     7
370
    25
100
AcDbCircle
 10
-18.6771653543
 20
-9.6456692913
 30
0.0
 40
0.0393700787401556
100
AcDbArc
 50
270.0
 51
0.0
  0
ARC
  5
24A
330
1B
100
AcDbEntity
 67
     1
  8
0
  6
Continuous
 62
     7
370
    25
100
AcDbCircle
 10
-18.7952755906
 20
-9.6456692913
 30
0.0
 40
0.0393700787401592
100
AcDbArc
 50
180.0
 51
270.0
  0
VIEWPORT
  5
63F
330
1B
100
AcDbEntity
 67
     1
  8
0
100
AcDbViewport
 10
0.0
 20
0.0
 30
0.0
 40
8.4
 41
6.4
 68
     1
 69
     1
 12
11.811023622
 22
-1.1811023622
 13
0.0
 23
0.0
 14
0.5
 24
0.5
 15
0.5
 25
0.5
 16
0.0
 26
0.0
 36
1.0
 17
0.0
 27
0.0
 37
0.0
 42
50.0
 43
0.0
 44
0.0
 45
28.1102362205
 50
0.0
 51
0.0
 72
   100
 90
   557152
  1

281
     0
 71
     1
 74
     0
110
0.0
120
0.0
130
0.0
111
1.0
121
0.0
131
0.0
112
0.0
122
1.0
132
0.0
 79
     0
146
0.0
  0
ENDSEC
  0
SECTION
  2
OBJECTS
  0
DICTIONARY
  5
C
330
0
100
AcDbDictionary
281
     1
  3
ACAD_GROUP
350
D
  3
ACAD_LAYOUT
350
1A
  3
ACAD_MLINESTYLE
350
17
  3
ACAD_PLOTSETTINGS
350
19
  3
ACAD_PLOTSTYLENAME
350
E
  3
ACAD_SCALELIST
350
47
  0
DICTIONARY
  5
D
102
{ACAD_REACTORS
330
C
102
}
330
C
100
AcDbDictionary
281
     1
  0
DICTIONARY
  5
1A
102
{ACAD_REACTORS
330
C
102
}
330
C
100
AcDbDictionary
281
     1
  3
_Back
350
1E
  3
_Bottom
350
34C
  3
_Isometric
350
39B
  3
_Left
350
26
  3
_Top
350
288
  3
Model
350
22
  0
DICTIONARY
  5
17
102
{ACAD_REACTORS
330
C
102
}
330
C
100
AcDbDictionary
281
     1
  3
Standard
350
18
  0
DICTIONARY
  5
19
102
{ACAD_REACTORS
330
C
102
}
330
C
100
AcDbDictionary
281
     1
  0
ACDBDICTIONARYWDFLT
  5
E
102
{ACAD_REACTORS
330
C
102
}
330
C
100
AcDbDictionary
281
     1
  3
Normal
350
F
100
AcDbDictionaryWithDefault
340
F
  0
DICTIONARY
  5
47
102
{ACAD_REACTORS
330
C
102
}
330
C
100
AcDbDictionary
281
     1
  3
A0
350
48
  3
A1
350
49
  3
A2
350
4A
  3
A3
350
4B
  3
A4
350
4C
  3
A5
350
4D
  3
A6
350
4E
  3
A7
350
4F
  3
A8
350
50
  3
A9
350
51
  3
B0
350
52
  3
B1
350
53
  3
B2
350
54
  3
B3
350
55
  3
B4
350
56
  3
B5
350
57
  3
B6
350
58
  3
B7
350
59
  3
B8
350
5A
  3
B9
350
5B
  3
C0
350
5C
  3
C1
350
5D
  3
C2
350
5E
  3
C3
350
5F
  3
C4
350
60
  3
C5
350
61
  3
C6
350
62
  3
C7
350
63
  3
C8
350
64
  3
C9
350
65
  3
D0
350
66
  3
D1
350
67
  3
D2
350
68
  0
LAYOUT
  5
1E
102
{ACAD_REACTORS
330
1A
102
}
330
1A
100
AcDbPlotSettings
  1

  2
none_device
  4
Letter_(8.50_x_11.00_Inches)
  6

 40
6.35
 41
6.35
 42
6.35001
 43
6.35001
 44
215.9
 45
279.4
 46
0.0
 47
0.0
 48
0.0
 49
0.0
140
0.0
141
0.0
142
1.0
143
3.4448820593
 70
   688
 72
     0
 73
     1
 74
     1
  7

 75
     0
147
0.2902857
148
600.0
149
380.0
100
AcDbLayout
  1
_Back
 70
     1
 71
     1
 10
-24.4832691152
 20
-15.8218504361
 11
13.4104335371
 21
13.4596470679
 12
0.0
 22
0.0
 32
0.0
 14
-23.6220472441
 24
-14.9606299213
 34
0.0
 15
0.0
 25
12.5984251969
 35
0.0
146
0.0
 13
0.0
 23
0.0
 33
0.0
 16
1.0
 26
0.0
 36
0.0
 17
0.0
 27
1.0
 37
0.0
 76
     0
330
1B
331
63F
  0
LAYOUT
  5
34C
102
{ACAD_REACTORS
330
1A
102
}
330
1A
100
AcDbPlotSettings
  1

  2
none_device
  4
Letter_(8.50_x_11.00_Inches)
  6

 40
6.35
 41
6.35
 42
6.35001
 43
6.35001
 44
215.9
 45
279.4
 46
0.0
 47
0.0
 48
0.0
 49
0.0
140
0.0
141
0.0
142
1.0
143
3.4448820593
 70
   688
 72
     0
 73
     1
 74
     1
  7

 75
     0
147
0.2902857
148
600.0
149
380.0
100
AcDbLayout
  1
_Bottom
 70
     1
 71
     4
 10
0.0
 20
0.0
 11
0.0
 21
0.0
 12
0.0
 22
0.0
 32
0.0
 14
0.0
 24
0.0
 34
0.0
 15
0.0
 25
0.0
 35
0.0
146
0.0
 13
0.0
 23
0.0
 33
0.0
 16
1.0
 26
0.0
 36
0.0
 17
0.0
 27
1.0
 37
0.0
 76
     0
330
34B
331
645
  0
LAYOUT
  5
39B
102
{ACAD_REACTORS
330
1A
102
}
330
1A
100
AcDbPlotSettings
  1

  2
none_device
  4
Letter_(8.50_x_11.00_Inches)
  6

 40
6.35
 41
6.35
 42
6.35001
 43
6.35001
 44
215.9
 45
279.4
 46
0.0
 47
0.0
 48
0.0
 49
0.0
140
0.0
141
0.0
142
1.0
143
3.4448820593
 70
   688
 72
     0
 73
     1
 74
     1
  7

 75
     0
147
0.2902857
148
600.0
149
380.0
100
AcDbLayout
  1
_Isometric
 70
     1
 71
     5
 10
0.0
 20
0.0
 11
0.0
 21
0.0
 12
0.0
 22
0.0
 32
0.0
 14
0.0
 24
0.0
 34
0.0
 15
0.0
 25
0.0
 35
0.0
146
0.0
 13
0.0
 23
0.0
 33
0.0
 16
1.0
 26
0.0
 36
0.0
 17
0.0
 27
1.0
 37
0.0
 76
     0
330
39A
331
647
  0
LAYOUT
  5
26
102
{ACAD_REACTORS
330
1A
102
}
330
1A
100
AcDbPlotSettings
  1

  2
none_device
  4
Letter_(8.50_x_11.00_Inches)
  6

 40
6.35
 41
6.35
 42
6.35001
 43
6.35001
 44
215.9
 45
279.4
 46
0.0
 47
0.0
 48
0.0
 49
0.0
140
0.0
141
0.0
142
1.0
143
3.4448820593
 70
   688
 72
     0
 73
     1
 74
     1
  7

 75
     0
147
0.2902857
148
600.0
149
380.0
100
AcDbLayout
  1
_Left
 70
     1
 71
     2
 10
0.0
 20
0.0
 11
0.0
 21
0.0
 12
0.0
 22
0.0
 32
0.0
 14
0.0
 24
0.0
 34
0.0
 15
0.0
 25
0.0
 35
0.0
146
0.0
 13
0.0
 23
0.0
 33
0.0
 16
1.0
 26
0.0
 36
0.0
 17
0.0
 27
1.0
 37
0.0
 76
     0
330
23
331
641
  0
LAYOUT
  5
288
102
{ACAD_REACTORS
330
1A
102
}
330
1A
100
AcDbPlotSettings
  1

  2
none_device
  4
Letter_(8.50_x_11.00_Inches)
  6

 40
6.35
 41
6.35
 42
6.35001
 43
6.35001
 44
215.9
 45
279.4
 46
0.0
 47
0.0
 48
0.0
 49
0.0
140
0.0
141
0.0
142
1.0
143
3.4448820593
 70
   688
 72
     0
 73
     1
 74
     1
  7

 75
     0
147
0.2902857
148
600.0
149
380.0
100
AcDbLayout
  1
_Top
 70
     1
 71
     3
 10
0.0
 20
0.0
 11
0.0
 21
0.0
 12
0.0
 22
0.0
 32
0.0
 14
0.0
 24
0.0
 34
0.0
 15
0.0
 25
0.0
 35
0.0
146
0.0
 13
0.0
 23
0.0
 33
0.0
 16
1.0
 26
0.0
 36
0.0
 17
0.0
 27
1.0
 37
0.0
 76
     0
330
287
331
643
  0
LAYOUT
  5
22
102
{ACAD_REACTORS
330
1A
102
}
330
1A
100
AcDbPlotSettings
  1

  2
none_device
  4
ANSI_A_(11.00_x_8.50_Inches)
  6

 40
6.35
 41
19.05
 42
6.35000508
 43
19.05000254
 44
279.4
 45
215.9
 46
41.7467117457
 47
98.0603273014
 48
0.0
 49
0.0
140
0.0
141
0.0
142
0.3053442857
143
1.0
 70
  1696
 72
     0
 73
     0
 74
     0
  7

 75
     0
147
0.5913241897
148
-39.4088153714
149
0.0
100
AcDbLayout
  1
Model
 70
     1
 71
     0
 10
0.0
 20
0.0
 11
12.0
 21
9.0
 12
0.0
 22
0.0
 32
0.0
 14
0.0
 24
-14.9606299213
 34
0.0
 15
23.6220472441
 25
12.5984251969
 35
0.0
146
0.0
 13
0.0
 23
0.0
 33
0.0
 16
1.0
 26
0.0
 36
0.0
 17
0.0
 27
1.0
 37
0.0
 76
     0
330
1F
331
29
  0
MLINESTYLE
  5
18
102
{ACAD_REACTORS
330
17
102
}
330
17
100
AcDbMlineStyle
  2
Standard
 70
     0
  3

 62
   256
 51
90.0
 52
90.0
 71
     2
 49
0.5
 62
   256
  6
BYLAYER
 49
-0.5
 62
   256
  6
BYLAYER
  0
ACDBPLACEHOLDER
  5
F
102
{ACAD_REACTORS
330
E
102
}
330
E
  0
SCALE
  5
48
102
{ACAD_REACTORS
330
47
102
}
330
47
100
AcDbScale
 70
     0
300
1:1
140
1.0
141
1.0
290
     1
  0
SCALE
  5
49
102
{ACAD_REACTORS
330
47
102
}
330
47
100
AcDbScale
 70
     0
300
1:2
140
1.0
141
2.0
290
     0
  0
SCALE
  5
4A
102
{ACAD_REACTORS
330
47
102
}
330
47
100
AcDbScale
 70
     0
300
1:4
140
1.0
141
4.0
290
     0
  0
SCALE
  5
4B
102
{ACAD_REACTORS
330
47
102
}
330
47
100
AcDbScale
 70
     0
300
1:5
140
1.0
141
5.0
290
     0
  0
SCALE
  5
4C
102
{ACAD_REACTORS
330
47
102
}
330
47
100
AcDbScale
 70
     0
300
1:8
140
1.0
141
8.0
290
     0
  0
SCALE
  5
4D
102
{ACAD_REACTORS
330
47
102
}
330
47
100
AcDbScale
 70
     0
300
1:10
140
1.0
141
10.0
290
     0
  0
SCALE
  5
4E
102
{ACAD_REACTORS
330
47
102
}
330
47
100
AcDbScale
 70
     0
300
1:16
140
1.0
141
16.0
290
     0
  0
SCALE
  5
4F
102
{ACAD_REACTORS
330
47
102
}
330
47
100
AcDbScale
 70
     0
300
1:20
140
1.0
141
20.0
290
     0
  0
SCALE
  5
50
102
{ACAD_REACTORS
330
47
102
}
330
47
100
AcDbScale
 70
     0
300
1:30
140
1.0
141
30.0
290
     0
  0
SCALE
  5
51
102
{ACAD_REACTORS
330
47
102
}
330
47
100
AcDbScale
 70
     0
300
1:40
140
1.0
141
40.0
290
     0
  0
SCALE
  5
52
102
{ACAD_REACTORS
330
47
102
}
330
47
100
AcDbScale
 70
     0
300
1:50
140
1.0
141
50.0
290
     0
  0
SCALE
  5
53
102
{ACAD_REACTORS
330
47
102
}
330
47
100
AcDbScale
 70
     0
300
1:100
140
1.0
141
100.0
290
     0
  0
SCALE
  5
54
102
{ACAD_REACTORS
330
47
102
}
330
47
100
AcDbScale
 70
     0
300
2:1
140
2.0
141
1.0
290
     0
  0
SCALE
  5
55
102
{ACAD_REACTORS
330
47
102
}
330
47
100
AcDbScale
 70
     0
300
4:1
140
4.0
141
1.0
290
     0
  0
SCALE
  5
56
102
{ACAD_REACTORS
330
47
102
}
330
47
100
AcDbScale
 70
     0
300
8:1
140
8.0
141
1.0
290
     0
  0
SCALE
  5
57
102
{ACAD_REACTORS
330
47
102
}
330
47
100
AcDbScale
 70
     0
300
10:1
140
10.0
141
1.0
290
     0
  0
SCALE
  5
58
102
{ACAD_REACTORS
330
47
102
}
330
47
100
AcDbScale
 70
     0
300
100:1
140
100.0
141
1.0
290
     0
  0
SCALE
  5
59
102
{ACAD_REACTORS
330
47
102
}
330
47
100
AcDbScale
 70
     0
300
1/128" = 1'-0"
140
0.0078125
141
12.0
290
     0
  0
SCALE
  5
5A
102
{ACAD_REACTORS
330
47
102
}
330
47
100
AcDbScale
 70
     0
300
1/64" = 1'-0"
140
0.015625
141
12.0
290
     0
  0
SCALE
  5
5B
102
{ACAD_REACTORS
330
47
102
}
330
47
100
AcDbScale
 70
     0
300
1/32" = 1'-0"
140
0.03125
141
12.0
290
     0
  0
SCALE
  5
5C
102
{ACAD_REACTORS
330
47
102
}
330
47
100
AcDbScale
 70
     0
300
1/16" = 1'-0"
140
0.0625
141
12.0
290
     0
  0
SCALE
  5
5D
102
{ACAD_REACTORS
330
47
102
}
330
47
100
AcDbScale
 70
     0
300
3/32" = 1'-0"
140
0.09375
141
12.0
290
     0
  0
SCALE
  5
5E
102
{ACAD_REACTORS
330
47
102
}
330
47
100
AcDbScale
 70
     0
300
1/8" = 1'-0"
140
0.125
141
12.0
290
     0
  0
SCALE
  5
5F
102
{ACAD_REACTORS
330
47
102
}
330
47
100
AcDbScale
 70
     0
300
3/16" = 1'-0"
140
0.1875
141
12.0
290
     0
  0
SCALE
  5
60
102
{ACAD_REACTORS
330
47
102
}
330
47
100
AcDbScale
 70
     0
300
1/4" = 1'-0"
140
0.25
141
12.0
290
     0
  0
SCALE
  5
61
102
{ACAD_REACTORS
330
47
102
}
330
47
100
AcDbScale
 70
     0
300
3/8" = 1'-0"
140
0.375
141
12.0
290
     0
  0
SCALE
  5
62
102
{ACAD_REACTORS
330
47
102
}
330
47
100
AcDbScale
 70
     0
300
1/2" = 1'-0"
140
0.5
141
12.0
290
     0
  0
SCALE
  5
63
102
{ACAD_REACTORS
330
47
102
}
330
47
100
AcDbScale
 70
     0
300
3/4" = 1'-0"
140
0.75
141
12.0
290
     0
  0
SCALE
  5
64
102
{ACAD_REACTORS
330
47
102
}
330
47
100
AcDbScale
 70
     0
300
1" = 1'-0"
140
1.0
141
12.0
290
     0
  0
SCALE
  5
65
102
{ACAD_REACTORS
330
47
102
}
330
47
100
AcDbScale
 70
     0
300
1-1/2" = 1'-0"
140
1.5
141
12.0
290
     0
  0
SCALE
  5
66
102
{ACAD_REACTORS
330
47
102
}
330
47
100
AcDbScale
 70
     0
300
3" = 1'-0"
140
3.0
141
12.0
290
     0
  0
SCALE
  5
67
102
{ACAD_REACTORS
330
47
102
}
330
47
100
AcDbScale
 70
     0
300
6" = 1'-0"
140
6.0
141
12.0
290
     0
  0
SCALE
  5
68
102
{ACAD_REACTORS
330
47
102
}
330
47
100
AcDbScale
 70
     0
300
1'-0" = 1'-0"
140
12.0
141
12.0
290
     0
  0
ENDSEC
  0
EOF
