  0
SECTION
  2
HEADER
  9
$ACADVER
  1
AC1015
  9
$ACADMAINTVER
 70
     6
  9
$DWGCODEPAGE
  3
ANSI_1252
  9
$INSBASE
 10
0.0
 20
0.0
 30
0.0
  9
$EXTMIN
 10
-300.0
 20
-16.0
 30
0.0
  9
$EXTMAX
 10
300.0
 20
16.0
 30
0.0
  9
$LIMMIN
 10
0.0
 20
0.0
  9
$LIMMAX
 10
420.0
 20
297.0
  9
$ORTHOMODE
 70
     0
  9
$REGENMODE
 70
     1
  9
$FILLMODE
 70
     1
  9
$QTEXTMODE
 70
     0
  9
$MIRRTEXT
 70
     1
  9
$LTSCALE
 40
1.0
  9
$ATTMODE
 70
     1
  9
$TEXTSIZE
 40
3.5
  9
$TRACEWID
 40
1.0
  9
$TEXTSTYLE
  7
Standard
  9
$CLAYER
  8
0
  9
$CELTYPE
  6
ByLayer
  9
$CECOLOR
 62
   256
  9
$CELTSCALE
 40
1.0
  9
$DISPSILH
 70
     0
  9
$DIMSCALE
 40
1.0
  9
$DIMASZ
 40
3.302
  9
$DIMEXO
 40
1.0
  9
$DIMDLI
 40
3.75
  9
$DIMRND
 40
0.0
  9
$DIMDLE
 40
0.0
  9
$DIMEXE
 40
1.0
  9
$DIMTP
 40
0.0
  9
$DIMTM
 40
0.0
  9
$DIMTXT
 40
3.5
  9
$DIMCEN
 40
2.5
  9
$DIMTSZ
 40
0.0
  9
$DIMTOL
 70
     0
  9
$DIMLIM
 70
     0
  9
$DIMTIH
 70
     1
  9
$DIMTOH
 70
     1
  9
$DIMSE1
 70
     0
  9
$DIMSE2
 70
     0
  9
$DIMTAD
 70
     1
  9
$DIMZIN
 70
     1
  9
$DIMBLK
  1

  9
$DIMASO
 70
     1
  9
$DIMSHO
 70
     1
  9
$DIMPOST
  1

  9
$DIMAPOST
  1

  9
$DIMALT
 70
     0
  9
$DIMALTD
 70
     3
  9
$DIMALTF
 40
0.0393700787
  9
$DIMLFAC
 40
1.0
  9
$DIMTOFL
 70
     1
  9
$DIMTVP
 40
0.0
  9
$DIMTIX
 70
     0
  9
$DIMSOXD
 70
     0
  9
$DIMSAH
 70
     0
  9
$DIMBLK1
  1

  9
$DIMBLK2
  1

  9
$DIMSTYLE
  2
ISO-25
  9
$DIMCLRD
 70
     0
  9
$DIMCLRE
 70
     0
  9
$DIMCLRT
 70
     0
  9
$DIMTFAC
 40
1.0
  9
$DIMGAP
 40
1.524
  9
$DIMJUST
 70
     0
  9
$DIMSD1
 70
     0
  9
$DIMSD2
 70
     0
  9
$DIMTOLJ
 70
     0
  9
$DIMTZIN
 70
     1
  9
$DIMALTZ
 70
     0
  9
$DIMALTTZ
 70
     0
  9
$DIMUPT
 70
     0
  9
$DIMDEC
 70
     2
  9
$DIMTDEC
 70
     2
  9
$DIMALTU
 70
     2
  9
$DIMALTTD
 70
     3
  9
$DIMTXSTY
  7
Standard
  9
$DIMAUNIT
 70
     0
  9
$DIMADEC
 70
     2
  9
$DIMALTRND
 40
0.0
  9
$DIMAZIN
 70
     0
  9
$DIMDSEP
 70
    44
  9
$DIMATFIT
 70
     3
  9
$DIMFRAC
 70
     0
  9
$DIMLDRBLK
  1

  9
$DIMLUNIT
 70
     2
  9
$DIMLWD
 70
    -2
  9
$DIMLWE
 70
    -2
  9
$DIMTMOVE
 70
     0
  9
$LUNITS
 70
     2
  9
$LUPREC
 70
     2
  9
$SKETCHINC
 40
1.0
  9
$FILLETRAD
 40
10.0
  9
$AUNITS
 70
     0
  9
$AUPREC
 70
     2
  9
$MENU
  1
.
  9
$ELEVATION
 40
0.0
  9
$PELEVATION
 40
0.0
  9
$THICKNESS
 40
0.0
  9
$LIMCHECK
 70
     0
  9
$CHAMFERA
 40
0.0
  9
$CHAMFERB
 40
0.0
  9
$CHAMFERC
 40
0.0
  9
$CHAMFERD
 40
0.0
  9
$SKPOLY
 70
     0
  9
$TDCREATE
 40
2459299.483522974
  9
$TDUCREATE
 40
2459299.483522974
  9
$TDUPDATE
 40
2459299.483562535
  9
$TDUUPDATE
 40
2459299.483562535
  9
$TDINDWG
 40
0.0000000116
  9
$TDUSRTIMER
 40
0.0000000116
  9
$USRTIMER
 70
     1
  9
$ANGBASE
 50
0.0
  9
$ANGDIR
 70
     0
  9
$PDMODE
 70
     0
  9
$PDSIZE
 40
-1.0
  9
$PLINEWID
 40
0.0
  9
$SPLFRAME
 70
     0
  9
$SPLINETYPE
 70
     6
  9
$SPLINESEGS
 70
     8
  9
$HANDSEED
  5
179
  9
$SURFTAB1
 70
     6
  9
$SURFTAB2
 70
     6
  9
$SURFTYPE
 70
     6
  9
$SURFU
 70
     6
  9
$SURFV
 70
     6
  9
$UCSBASE
  2

  9
$UCSNAME
  2

  9
$UCSORG
 10
0.0
 20
0.0
 30
0.0
  9
$UCSXDIR
 10
1.0
 20
0.0
 30
0.0
  9
$UCSYDIR
 10
0.0
 20
1.0
 30
0.0
  9
$UCSORTHOREF
  2

  9
$UCSORTHOVIEW
 70
     0
  9
$UCSORGTOP
 10
0.0
 20
0.0
 30
0.0
  9
$UCSORGBOTTOM
 10
0.0
 20
0.0
 30
0.0
  9
$UCSORGLEFT
 10
0.0
 20
0.0
 30
0.0
  9
$UCSORGRIGHT
 10
0.0
 20
0.0
 30
0.0
  9
$UCSORGFRONT
 10
0.0
 20
0.0
 30
0.0
  9
$UCSORGBACK
 10
0.0
 20
0.0
 30
0.0
  9
$PUCSBASE
  2

  9
$PUCSNAME
  2

  9
$PUCSORG
 10
0.0
 20
0.0
 30
0.0
  9
$PUCSXDIR
 10
1.0
 20
0.0
 30
0.0
  9
$PUCSYDIR
 10
0.0
 20
1.0
 30
0.0
  9
$PUCSORTHOREF
  2

  9
$PUCSORTHOVIEW
 70
     0
  9
$PUCSORGTOP
 10
0.0
 20
0.0
 30
0.0
  9
$PUCSORGBOTTOM
 10
0.0
 20
0.0
 30
0.0
  9
$PUCSORGLEFT
 10
0.0
 20
0.0
 30
0.0
  9
$PUCSORGRIGHT
 10
0.0
 20
0.0
 30
0.0
  9
$PUCSORGFRONT
 10
0.0
 20
0.0
 30
0.0
  9
$PUCSORGBACK
 10
0.0
 20
0.0
 30
0.0
  9
$USERI1
 70
     0
  9
$USERI2
 70
     0
  9
$USERI3
 70
     0
  9
$USERI4
 70
     0
  9
$USERI5
 70
     0
  9
$USERR1
 40
0.0
  9
$USERR2
 40
0.0
  9
$USERR3
 40
0.0
  9
$USERR4
 40
0.0
  9
$USERR5
 40
0.0
  9
$WORLDVIEW
 70
     1
  9
$SHADEDGE
 70
     3
  9
$SHADEDIF
 70
    70
  9
$TILEMODE
 70
     1
  9
$MAXACTVP
 70
    64
  9
$PINSBASE
 10
0.0
 20
0.0
 30
0.0
  9
$PLIMCHECK
 70
     0
  9
$PEXTMIN
 10
-300.0
 20
-100.0
 30
0.0
  9
$PEXTMAX
 10
300.0
 20
0.0
 30
0.0
  9
$PLIMMIN
 10
-346.6926070039
 20
-117.5097276265
  9
$PLIMMAX
 10
346.6926070039
 20
372.7626459144
  9
$UNITMODE
 70
     0
  9
$VISRETAIN
 70
     1
  9
$PLINEGEN
 70
     0
  9
$PSLTSCALE
 70
     1
  9
$TREEDEPTH
 70
  3020
  9
$CMLSTYLE
  2
Standard
  9
$CMLJUST
 70
     0
  9
$CMLSCALE
 40
20.0
  9
$PROXYGRAPHICS
 70
     1
  9
$MEASUREMENT
 70
     1
  9
$CELWEIGHT
370
    -1
  9
$ENDCAPS
280
     0
  9
$JOINSTYLE
280
     0
  9
$LWDISPLAY
290
     1
  9
$INSUNITS
 70
     4
  9
$HYPERLINKBASE
  1

  9
$STYLESHEET
  1

  9
$XEDIT
290
     1
  9
$CEPSNTYPE
380
     0
  9
$PSTYLEMODE
290
     1
  9
$FINGERPRINTGUID
  2
{bb5e3d4b-3333-4346-83a6-d936a490328e}
  9
$VERSIONGUID
  2
{FAEB1C32-E019-11D5-929B-00C0DF256EC4}
  9
$EXTNAMES
290
     1
  9
$PSVPSCALE
 40
0.0
  9
$OLESTARTUP
290
     0
  0
ENDSEC
  0
SECTION
  2
CLASSES
  0
CLASS
  1
ACDBDICTIONARYWDFLT
  2
AcDbDictionaryWithDefault
  3
ObjectDBX Classes
 90
        0
280
     0
281
     0
  0
CLASS
  1
VISUALSTYLE
  2
AcDbVisualStyle
  3
ObjectDBX Classes
 90
     4095
280
     0
281
     0
  0
CLASS
  1
MATERIAL
  2
AcDbMaterial
  3
ObjectDBX Classes
 90
     1153
280
     0
281
     0
  0
CLASS
  1
SCALE
  2
AcDbScale
  3
ObjectDBX Classes
 90
     1153
280
     0
281
     0
  0
CLASS
  1
TABLESTYLE
  2
AcDbTableStyle
  3
ObjectDBX Classes
 90
     4095
280
     0
281
     0
  0
CLASS
  1
MLEADERSTYLE
  2
AcDbMLeaderStyle
  3
ACDB_MLEADERSTYLE_CLASS
 90
     4095
280
     0
281
     0
  0
CLASS
  1
SUN
  2
AcDbSun
  3
SCENEOE
 90
     1153
280
     0
281
     0
  0
CLASS
  1
ACDBPLACEHOLDER
  2
AcDbPlaceHolder
  3
ObjectDBX Classes
 90
        0
280
     0
281
     0
  0
CLASS
  1
LAYOUT
  2
AcDbLayout
  3
ObjectDBX Classes
 90
        0
280
     0
281
     0
  0
ENDSEC
  0
SECTION
  2
TABLES
  0
TABLE
  2
VPORT
  5
8
330
0
100
AcDbSymbolTable
 70
     1
  0
VPORT
  5
29
330
8
100
AcDbSymbolTableRecord
100
AcDbViewportTableRecord
  2
*Active
 70
     0
 10
0.0
 20
0.0
 11
1.0
 21
1.0
 12
0.0
 22
0.0
 13
0.0
 23
0.0
 14
10.0
 24
10.0
 15
10.0
 25
10.0
 16
0.0
 26
0.0
 36
1.0
 17
0.0
 27
0.0
 37
0.0
 40
32.64
 41
18.75
 42
50.0
 43
0.0
 44
0.0
 50
0.0
 51
0.0
 71
     0
 72
   100
 73
     1
 74
     3
 75
     0
 76
     0
 77
     0
 78
     0
281
     0
 65
     1
110
0.0
120
0.0
130
0.0
111
1.0
121
0.0
131
0.0
112
0.0
122
1.0
132
0.0
 79
     0
146
0.0
  0
ENDTAB
  0
TABLE
  2
LTYPE
  5
5
330
0
100
AcDbSymbolTable
 70
     6
  0
LTYPE
  5
14
330
5
100
AcDbSymbolTableRecord
100
AcDbLinetypeTableRecord
  2
ByBlock
 70
     0
  3

 72
    65
 73
     0
 40
0.0
  0
LTYPE
  5
15
330
5
100
AcDbSymbolTableRecord
100
AcDbLinetypeTableRecord
  2
ByLayer
 70
     0
  3

 72
    65
 73
     0
 40
0.0
  0
LTYPE
  5
16
330
5
100
AcDbSymbolTableRecord
100
AcDbLinetypeTableRecord
  2
Continuous
 70
     0
  3
Solid line
 72
    65
 73
     0
 40
0.0
  0
LTYPE
  5
6E
330
5
100
AcDbSymbolTableRecord
100
AcDbLinetypeTableRecord
  2
HIDDEN
 70
     0
  3
Hidden __ __ __ __ __ __ __ __ __ __ __ __ __ __
 72
    65
 73
     2
 40
1.905
 49
1.27
 74
     0
 49
-0.635
 74
     0
  0
LTYPE
  5
6F
330
5
100
AcDbSymbolTableRecord
100
AcDbLinetypeTableRecord
  2
PHANTOM
 70
     0
  3
Phantom ______  __  __  ______  __  __  ______
 72
    65
 73
     6
 40
12.7
 49
6.35
 74
     0
 49
-1.27
 74
     0
 49
1.27
 74
     0
 49
-1.27
 74
     0
 49
1.27
 74
     0
 49
-1.27
 74
     0
  0
LTYPE
  5
70
330
5
100
AcDbSymbolTableRecord
100
AcDbLinetypeTableRecord
  2
CENTER
 70
     0
  3
Center ____ _ ____ _ ____ _ ____ _ ____ _ ____
 72
    65
 73
     4
 40
10.16
 49
6.35
 74
     0
 49
-1.27
 74
     0
 49
1.27
 74
     0
 49
-1.27
 74
     0
  0
LTYPE
  5
71
330
5
100
AcDbSymbolTableRecord
100
AcDbLinetypeTableRecord
  2
CENTERX2
 70
     0
  3
Center (2x) ________  __  ________  __  _____
 72
    65
 73
     4
 40
20.32
 49
12.7
 74
     0
 49
-2.54
 74
     0
 49
2.54
 74
     0
 49
-2.54
 74
     0
  0
LTYPE
  5
72
330
5
100
AcDbSymbolTableRecord
100
AcDbLinetypeTableRecord
  2
DOT2
 70
     0
  3
Dot (.5x) ........................................
 72
    65
 73
     2
 40
0.635
 49
0.0
 74
     0
 49
-0.635
 74
     0
  0
ENDTAB
  0
TABLE
  2
LAYER
  5
2
330
0
100
AcDbSymbolTable
 70
     1
  0
LAYER
  5
10
330
2
100
AcDbSymbolTableRecord
100
AcDbLayerTableRecord
  2
0
 70
     0
 62
     7
  6
Continuous
370
    -3
390
F
  0
ENDTAB
  0
TABLE
  2
STYLE
  5
3
330
0
100
AcDbSymbolTable
 70
     1
  0
STYLE
  5
11
330
3
100
AcDbSymbolTableRecord
100
AcDbTextStyleTableRecord
  2
Standard
 70
     0
 40
0.0
 41
1.0
 50
0.0
 71
     0
 42
3.5
  3
txt
  4

  0
ENDTAB
  0
TABLE
  2
VIEW
  5
6
330
0
100
AcDbSymbolTable
 70
     0
  0
ENDTAB
  0
TABLE
  2
UCS
  5
7
330
0
100
AcDbSymbolTable
 70
     0
  0
ENDTAB
  0
TABLE
  2
APPID
  5
9
330
0
100
AcDbSymbolTable
 70
     1
  0
APPID
  5
12
330
9
100
AcDbSymbolTableRecord
100
AcDbRegAppTableRecord
  2
ACAD
 70
     0
  0
ENDTAB
  0
TABLE
  2
DIMSTYLE
  5
A
330
0
100
AcDbSymbolTable
 70
     1
100
AcDbDimStyleTable
  0
DIMSTYLE
105
27
330
A
100
AcDbSymbolTableRecord
100
AcDbDimStyleTableRecord
  2
ISO-25
 70
     0
 41
2.5
 42
0.625
 43
3.75
 44
1.25
 73
     0
 74
     0
 77
     1
 78
     8
140
2.5
141
2.5
143
0.0393700787
147
0.625
171
     3
172
     1
178
     0
271
     2
272
     2
274
     3
278
    44
283
     0
284
     8
340
11
  0
ENDTAB
  0
TABLE
  2
BLOCK_RECORD
  5
1
330
0
100
AcDbSymbolTable
 70
     7
  0
BLOCK_RECORD
  5
1F
330
1
100
AcDbSymbolTableRecord
100
AcDbBlockTableRecord
  2
*Model_Space
340
22
  0
BLOCK_RECORD
  5
1B
330
1
100
AcDbSymbolTableRecord
100
AcDbBlockTableRecord
  2
*Paper_Space
340
1E
  0
BLOCK_RECORD
  5
23
330
1
100
AcDbSymbolTableRecord
100
AcDbBlockTableRecord
  2
*Paper_Space0
340
26
  0
BLOCK_RECORD
  5
AE
330
1
100
AcDbSymbolTableRecord
100
AcDbBlockTableRecord
  2
*Paper_Space1
340
AF
  0
BLOCK_RECORD
  5
BE
330
1
100
AcDbSymbolTableRecord
100
AcDbBlockTableRecord
  2
*Paper_Space2
340
BF
  0
BLOCK_RECORD
  5
CB
330
1
100
AcDbSymbolTableRecord
100
AcDbBlockTableRecord
  2
*Paper_Space3
340
CC
  0
BLOCK_RECORD
  5
F7
330
1
100
AcDbSymbolTableRecord
100
AcDbBlockTableRecord
  2
*Paper_Space4
340
F8
  0
BLOCK_RECORD
  5
11A
330
1
100
AcDbSymbolTableRecord
100
AcDbBlockTableRecord
  2
*Paper_Space5
340
11B
  0
BLOCK_RECORD
  5
142
330
1
100
AcDbSymbolTableRecord
100
AcDbBlockTableRecord
  2
*Paper_Space6
340
143
  0
ENDTAB
  0
ENDSEC
  0
SECTION
  2
BLOCKS
  0
BLOCK
  5
20
330
1F
100
AcDbEntity
  8
0
100
AcDbBlockBegin
  2
*Model_Space
 70
     0
 10
0.0
 20
0.0
 30
0.0
  3
*Model_Space
  1

  0
ENDBLK
  5
21
330
1F
100
AcDbEntity
  8
0
100
AcDbBlockEnd
  0
BLOCK
  5
1C
330
1B
100
AcDbEntity
 67
     1
  8
0
100
AcDbBlockBegin
  2
*Paper_Space
 70
     0
 10
0.0
 20
0.0
 30
0.0
  3
*Paper_Space
  1

  0
ENDBLK
  5
1D
330
1B
100
AcDbEntity
 67
     1
  8
0
100
AcDbBlockEnd
  0
BLOCK
  5
24
330
23
100
AcDbEntity
  8
0
100
AcDbBlockBegin
  2
*Paper_Space0
 70
     0
 10
0.0
 20
0.0
 30
0.0
  3
*Paper_Space0
  1

  0
LWPOLYLINE
  5
A7
330
23
100
AcDbEntity
  8
0
  6
Continuous
 62
     7
370
    25
100
AcDbPolyline
 90
       25
 70
   128
 43
0.0
 10
-84.0
 20
16.0
 10
-85.8273666911
 20
15.863117782
 10
-87.6234666314
 20
15.4548132206
 10
-89.3575680531
 20
14.7820725202
 10
-91.0
 20
13.8564064606
 10
-92.5226600061
 20
12.6936534447
 10
-93.8994949366
 20
11.313708499
 10
-95.1069467641
 20
9.7401828641
 10
-96.124355653
 20
8.0
 10
-96.9343134552
 20
6.1229349178
 10
-97.522961568
 20
4.1411047216
 10
-97.8802280592
 20
2.0884190755
 10
-98.0
 20
0.0
 10
-97.8802280592
 20
-2.0884190755
 10
-97.522961568
 20
-4.1411047216
 10
-96.9343134552
 20
-6.1229349178
 10
-96.124355653
 20
-8.0
 10
-95.1069467641
 20
-9.7401828641
 10
-93.8994949366
 20
-11.313708499
 10
-92.5226600061
 20
-12.6936534447
 10
-91.0
 20
-13.8564064606
 10
-89.3575680531
 20
-14.7820725202
 10
-87.6234666314
 20
-15.4548132206
 10
-85.8273666911
 20
-15.863117782
 10
-84.0
 20
-16.0
  0
LINE
  5
AA
330
23
100
AcDbEntity
  8
0
  6
Continuous
 62
     7
370
    25
100
AcDbLine
 10
0.0
 20
16.0
 30
0.0
 11
-84.0
 21
16.0
 31
0.0
  0
LINE
  5
AB
330
23
100
AcDbEntity
  8
0
  6
Continuous
 62
     7
370
    25
100
AcDbLine
 10
-84.0
 20
-16.0
 30
0.0
 11
0.0
 21
-16.0
 31
0.0
  0
LINE
  5
AC
330
23
100
AcDbEntity
  8
0
  6
Continuous
 62
     7
370
    25
100
AcDbLine
 10
0.0
 20
-16.0
 30
0.0
 11
0.0
 21
16.0
 31
0.0
  0
ARC
  5
AD
330
23
100
AcDbEntity
  8
0
  6
Continuous
 62
     7
370
    25
100
AcDbCircle
 10
-84.0
 20
0.0
 30
0.0
 40
16.0
100
AcDbArc
 50
90.0
 51
270.0
  0
VIEWPORT
  5
16B
330
23
100
AcDbEntity
  8
0
100
AcDbViewport
 10
0.0
 20
0.0
 30
0.0
 40
205.6
 41
156.0
 68
     1
 69
     1
 12
0.0
 22
0.0
 13
0.0
 23
0.0
 14
10.0
 24
10.0
 15
10.0
 25
10.0
 16
0.0
 26
0.0
 36
1.0
 17
0.0
 27
0.0
 37
0.0
 42
50.0
 43
0.0
 44
0.0
 45
464.3579766537
 50
0.0
 51
0.0
 72
   100
 90
   557152
  1

281
     0
 71
     1
 74
     0
110
0.0
120
0.0
130
0.0
111
1.0
121
0.0
131
0.0
112
0.0
122
1.0
132
0.0
 79
     0
146
0.0
  0
ENDBLK
  5
25
330
23
100
AcDbEntity
  8
0
100
AcDbBlockEnd
  0
BLOCK
  5
B0
330
AE
100
AcDbEntity
  8
0
100
AcDbBlockBegin
  2
*Paper_Space1
 70
     0
 10
0.0
 20
0.0
 30
0.0
  3
*Paper_Space1
  1

  0
CIRCLE
  5
B4
330
AE
100
AcDbEntity
  8
0
  6
Continuous
 62
     7
370
    25
100
AcDbCircle
 10
-284.0
 20
0.0
 30
0.0
 40
15.00000000000006
  0
CIRCLE
  5
B5
330
AE
100
AcDbEntity
  8
0
  6
Continuous
 62
     7
370
    25
100
AcDbCircle
 10
-284.0
 20
0.0
 30
0.0
 40
16.00000000000006
  0
CIRCLE
  5
B6
330
AE
100
AcDbEntity
  8
0
  6
Continuous
 62
     7
370
    25
100
AcDbCircle
 10
284.0
 20
0.0
 30
0.0
 40
15.00000000000006
  0
CIRCLE
  5
B7
330
AE
100
AcDbEntity
  8
0
  6
Continuous
 62
     7
370
    25
100
AcDbCircle
 10
284.0
 20
0.0
 30
0.0
 40
16.00000000000006
  0
LWPOLYLINE
  5
B8
330
AE
100
AcDbEntity
  8
0
  6
Continuous
 62
     7
370
    25
100
AcDbPolyline
 90
       27
 70
   128
 43
0.0
 10
284.0
 20
-16.0
 10
281.8303397554
 20
-15.8833419856
 10
279.6923180428
 20
-15.5350690788
 10
277.6171120332
 20
-14.960259883
 10
275.6349829032
 20
-14.1672964105
 10
273.7748345588
 20
-13.1677418543
 10
272.0637921517
 20
-11.9761719707
 10
270.5268065329
 20
-10.6099625319
 10
269.1862904139
 20
-9.0890359477
 10
268.0617915382
 20
-7.4355707527
 10
267.1697076317
 20
-5.6736781927
 10
266.5230472863
 20
-3.8290506286
 10
266.1312402662
 20
-1.9285868841
 10
266.0
 20
0.0
 10
266.1312402662
 20
1.9285868841
 10
266.5230472863
 20
3.8290506286
 10
267.1697076317
 20
5.6736781927
 10
268.0617915382
 20
7.4355707527
 10
269.1862904139
 20
9.0890359477
 10
270.5268065329
 20
10.6099625319
 10
272.0637921517
 20
11.9761719707
 10
273.7748345588
 20
13.1677418543
 10
275.6349829032
 20
14.1672964105
 10
277.6171120332
 20
14.960259883
 10
279.6923180428
 20
15.5350690788
 10
281.8303397554
 20
15.8833419856
 10
284.0
 20
16.0
  0
LWPOLYLINE
  5
B9
330
AE
100
AcDbEntity
  8
0
  6
Continuous
 62
     7
370
    25
100
AcDbPolyline
 90
       27
 70
   128
 43
0.0
 10
-284.0
 20
16.0
 10
-281.8303397554
 20
15.8833419856
 10
-279.6923180428
 20
15.5350690788
 10
-277.6171120332
 20
14.960259883
 10
-275.6349829032
 20
14.1672964105
 10
-273.7748345588
 20
13.1677418543
 10
-272.0637921517
 20
11.9761719707
 10
-270.5268065329
 20
10.6099625319
 10
-269.1862904139
 20
9.0890359477
 10
-268.0617915382
 20
7.4355707527
 10
-267.1697076317
 20
5.6736781927
 10
-266.5230472863
 20
3.8290506286
 10
-266.1312402662
 20
1.9285868841
 10
-266.0
 20
0.0
 10
-266.1312402662
 20
-1.9285868841
 10
-266.5230472863
 20
-3.8290506286
 10
-267.1697076317
 20
-5.6736781927
 10
-268.0617915382
 20
-7.4355707527
 10
-269.1862904139
 20
-9.0890359477
 10
-270.5268065329
 20
-10.6099625319
 10
-272.0637921517
 20
-11.9761719707
 10
-273.7748345588
 20
-13.1677418543
 10
-275.6349829032
 20
-14.1672964105
 10
-277.6171120332
 20
-14.960259883
 10
-279.6923180428
 20
-15.5350690788
 10
-281.8303397554
 20
-15.8833419856
 10
-284.0
 20
-16.0
  0
LWPOLYLINE
  5
BA
330
AE
100
AcDbEntity
  8
0
  6
Continuous
 62
     7
370
    25
100
AcDbPolyline
 90
       25
 70
   128
 43
0.0
 10
-284.0
 20
-15.0
 10
-285.8273666911
 20
-14.8716729206
 10
-287.6234666314
 20
-14.4888873943
 10
-289.3575680531
 20
-13.8581929877
 10
-291.0
 20
-12.9903810568
 10
-292.5226600061
 20
-11.9003001044
 10
-293.8994949366
 20
-10.6066017178
 10
-295.1069467641
 20
-9.1314214351
 10
-296.124355653
 20
-7.5
 10
-296.9343134552
 20
-5.7402514855
 10
-297.522961568
 20
-3.8822856765
 10
-297.8802280592
 20
-1.9578928833
 10
-298.0
 20
0.0
 10
-297.8802280592
 20
1.9578928833
 10
-297.522961568
 20
3.8822856765
 10
-296.9343134552
 20
5.7402514855
 10
-296.124355653
 20
7.5
 10
-295.1069467641
 20
9.1314214351
 10
-293.8994949366
 20
10.6066017178
 10
-292.5226600061
 20
11.9003001044
 10
-291.0
 20
12.9903810568
 10
-289.3575680531
 20
13.8581929877
 10
-287.6234666314
 20
14.4888873943
 10
-285.8273666911
 20
14.8716729206
 10
-284.0
 20
15.0
  0
LWPOLYLINE
  5
BB
330
AE
100
AcDbEntity
  8
0
  6
Continuous
 62
     7
370
    25
100
AcDbPolyline
 90
       25
 70
   128
 43
0.0
 10
284.0
 20
15.0
 10
285.8273666911
 20
14.8716729206
 10
287.6234666314
 20
14.4888873943
 10
289.3575680531
 20
13.8581929877
 10
291.0
 20
12.9903810568
 10
292.5226600061
 20
11.9003001044
 10
293.8994949366
 20
10.6066017178
 10
295.1069467641
 20
9.1314214351
 10
296.124355653
 20
7.5
 10
296.9343134552
 20
5.7402514855
 10
297.522961568
 20
3.8822856765
 10
297.8802280592
 20
1.9578928833
 10
298.0
 20
0.0
 10
297.8802280592
 20
-1.9578928833
 10
297.522961568
 20
-3.8822856765
 10
296.9343134552
 20
-5.7402514855
 10
296.124355653
 20
-7.5
 10
295.1069467641
 20
-9.1314214351
 10
293.8994949366
 20
-10.6066017178
 10
292.5226600061
 20
-11.9003001044
 10
291.0
 20
-12.9903810568
 10
289.3575680531
 20
-13.8581929877
 10
287.6234666314
 20
-14.4888873943
 10
285.8273666911
 20
-14.8716729206
 10
284.0
 20
-15.0
  0
LINE
  5
BC
330
AE
100
AcDbEntity
  8
0
  6
Continuous
 62
     7
370
    25
100
AcDbLine
 10
-284.0
 20
-16.0
 30
0.0
 11
284.0
 21
-16.0
 31
0.0
  0
LINE
  5
BD
330
AE
100
AcDbEntity
  8
0
  6
Continuous
 62
     7
370
    25
100
AcDbLine
 10
284.0
 20
16.0
 30
0.0
 11
-284.0
 21
16.0
 31
0.0
  0
VIEWPORT
  5
16D
330
AE
100
AcDbEntity
  8
0
100
AcDbViewport
 10
0.0
 20
0.0
 30
0.0
 40
205.6
 41
156.0
 68
     1
 69
     1
 12
0.0
 22
0.0
 13
0.0
 23
0.0
 14
10.0
 24
10.0
 15
10.0
 25
10.0
 16
0.0
 26
0.0
 36
1.0
 17
0.0
 27
0.0
 37
0.0
 42
50.0
 43
0.0
 44
0.0
 45
464.3579766537
 50
0.0
 51
0.0
 72
   100
 90
   557152
  1

281
     0
 71
     1
 74
     0
110
0.0
120
0.0
130
0.0
111
1.0
121
0.0
131
0.0
112
0.0
122
1.0
132
0.0
 79
     0
146
0.0
  0
ENDBLK
  5
B1
330
AE
100
AcDbEntity
  8
0
100
AcDbBlockEnd
  0
BLOCK
  5
C0
330
BE
100
AcDbEntity
  8
0
100
AcDbBlockBegin
  2
*Paper_Space2
 70
     0
 10
0.0
 20
0.0
 30
0.0
  3
*Paper_Space2
  1

  0
LWPOLYLINE
  5
C5
330
BE
100
AcDbEntity
  8
0
  6
Continuous
 62
     7
370
    25
100
AcDbPolyline
 90
       25
 70
   128
 43
0.0
 10
84.0
 20
-16.0
 10
85.8273666911
 20
-15.863117782
 10
87.6234666314
 20
-15.4548132206
 10
89.3575680531
 20
-14.7820725202
 10
91.0
 20
-13.8564064606
 10
92.5226600061
 20
-12.6936534447
 10
93.8994949366
 20
-11.313708499
 10
95.1069467641
 20
-9.7401828641
 10
96.124355653
 20
-8.0
 10
96.9343134552
 20
-6.1229349178
 10
97.522961568
 20
-4.1411047216
 10
97.8802280592
 20
-2.0884190755
 10
98.0
 20
0.0
 10
97.8802280592
 20
2.0884190755
 10
97.522961568
 20
4.1411047216
 10
96.9343134552
 20
6.1229349178
 10
96.124355653
 20
8.0
 10
95.1069467641
 20
9.7401828641
 10
93.8994949366
 20
11.313708499
 10
92.5226600061
 20
12.6936534447
 10
91.0
 20
13.8564064606
 10
89.3575680531
 20
14.7820725202
 10
87.6234666314
 20
15.4548132206
 10
85.8273666911
 20
15.863117782
 10
84.0
 20
16.0
  0
LINE
  5
C7
330
BE
100
AcDbEntity
  8
0
  6
Continuous
 62
     7
370
    25
100
AcDbLine
 10
0.0
 20
-16.0
 30
0.0
 11
84.0
 21
-16.0
 31
0.0
  0
LINE
  5
C8
330
BE
100
AcDbEntity
  8
0
  6
Continuous
 62
     7
370
    25
100
AcDbLine
 10
84.0
 20
16.0
 30
0.0
 11
0.0
 21
16.0
 31
0.0
  0
LINE
  5
C9
330
BE
100
AcDbEntity
  8
0
  6
Continuous
 62
     7
370
    25
100
AcDbLine
 10
0.0
 20
16.0
 30
0.0
 11
0.0
 21
-16.0
 31
0.0
  0
ARC
  5
CA
330
BE
100
AcDbEntity
  8
0
  6
Continuous
 62
     7
370
    25
100
AcDbCircle
 10
84.0
 20
0.0
 30
0.0
 40
16.0
100
AcDbArc
 50
270.0
 51
90.0
  0
VIEWPORT
  5
16F
330
BE
100
AcDbEntity
  8
0
100
AcDbViewport
 10
0.0
 20
0.0
 30
0.0
 40
205.6
 41
156.0
 68
     1
 69
     1
 12
0.0
 22
0.0
 13
0.0
 23
0.0
 14
10.0
 24
10.0
 15
10.0
 25
10.0
 16
0.0
 26
0.0
 36
1.0
 17
0.0
 27
0.0
 37
0.0
 42
50.0
 43
0.0
 44
0.0
 45
464.3579766537
 50
0.0
 51
0.0
 72
   100
 90
   557152
  1

281
     0
 71
     1
 74
     0
110
0.0
120
0.0
130
0.0
111
1.0
121
0.0
131
0.0
112
0.0
122
1.0
132
0.0
 79
     0
146
0.0
  0
ENDBLK
  5
C1
330
BE
100
AcDbEntity
  8
0
100
AcDbBlockEnd
  0
BLOCK
  5
CD
330
CB
100
AcDbEntity
  8
0
100
AcDbBlockBegin
  2
*Paper_Space3
 70
     0
 10
0.0
 20
0.0
 30
0.0
  3
*Paper_Space3
  1

  0
LINE
  5
E3
330
CB
100
AcDbEntity
  8
0
  6
Continuous
 62
     7
370
    25
100
AcDbLine
 10
-268.0
 20
0.0
 30
0.0
 11
-268.0
 21
66.0
 31
0.0
  0
LINE
  5
E4
330
CB
100
AcDbEntity
  8
0
  6
Continuous
 62
     7
370
    25
100
AcDbLine
 10
-300.0
 20
98.0
 30
0.0
 11
-300.0
 21
0.0
 31
0.0
  0
LINE
  5
E5
330
CB
100
AcDbEntity
  8
0
  6
Continuous
 62
     7
370
    25
100
AcDbLine
 10
300.0
 20
0.0
 30
0.0
 11
300.0
 21
98.0
 31
0.0
  0
LINE
  5
E6
330
CB
100
AcDbEntity
  8
0
  6
Continuous
 62
     7
370
    25
100
AcDbLine
 10
268.0
 20
66.0
 30
0.0
 11
268.0
 21
0.0
 31
0.0
  0
LINE
  5
E7
330
CB
100
AcDbEntity
  8
0
  6
Continuous
 62
     7
370
    25
100
AcDbLine
 10
298.0
 20
100.0
 30
0.0
 11
-298.0
 21
100.0
 31
0.0
  0
LINE
  5
E8
330
CB
100
AcDbEntity
  8
0
  6
Continuous
 62
     7
370
    25
100
AcDbLine
 10
-266.0
 20
68.0
 30
0.0
 11
266.0
 21
68.0
 31
0.0
  0
LINE
  5
E9
330
CB
100
AcDbEntity
  8
0
  6
Continuous
 62
     7
370
    25
100
AcDbLine
 10
-300.0
 20
0.0
 30
0.0
 11
-268.0
 21
0.0
 31
0.0
  0
LINE
  5
EA
330
CB
100
AcDbEntity
  8
0
  6
Continuous
 62
     7
370
    25
100
AcDbLine
 10
268.0
 20
0.0
 30
0.0
 11
300.0
 21
0.0
 31
0.0
  0
LINE
  5
EB
330
CB
100
AcDbEntity
  8
0
  6
Continuous
 62
     8
370
    25
100
AcDbLine
 10
-284.0
 20
84.0
 30
0.0
 11
-300.0
 21
98.0
 31
0.0
  0
LINE
  5
EC
330
CB
100
AcDbEntity
  8
0
  6
Continuous
 62
     8
370
    25
100
AcDbLine
 10
-268.0
 20
66.0
 30
0.0
 11
-284.0
 21
84.0
 31
0.0
  0
LINE
  5
ED
330
CB
100
AcDbEntity
  8
0
  6
Continuous
 62
     8
370
    25
100
AcDbLine
 10
300.0
 20
98.0
 30
0.0
 11
284.0
 21
84.0
 31
0.0
  0
LINE
  5
EE
330
CB
100
AcDbEntity
  8
0
  6
Continuous
 62
     8
370
    25
100
AcDbLine
 10
284.0
 20
84.0
 30
0.0
 11
268.0
 21
66.0
 31
0.0
  0
LINE
  5
EF
330
CB
100
AcDbEntity
  8
0
  6
Continuous
 62
     8
370
    25
100
AcDbLine
 10
-284.0
 20
84.0
 30
0.0
 11
-298.0
 21
100.0
 31
0.0
  0
LINE
  5
F0
330
CB
100
AcDbEntity
  8
0
  6
Continuous
 62
     8
370
    25
100
AcDbLine
 10
284.0
 20
84.0
 30
0.0
 11
298.0
 21
100.0
 31
0.0
  0
LINE
  5
F1
330
CB
100
AcDbEntity
  8
0
  6
Continuous
 62
     8
370
    25
100
AcDbLine
 10
266.0
 20
68.0
 30
0.0
 11
284.0
 21
84.0
 31
0.0
  0
LINE
  5
F2
330
CB
100
AcDbEntity
  8
0
  6
Continuous
 62
     8
370
    25
100
AcDbLine
 10
-284.0
 20
84.0
 30
0.0
 11
-266.0
 21
68.0
 31
0.0
  0
ARC
  5
F3
330
CB
100
AcDbEntity
  8
0
  6
Continuous
 62
     7
370
    25
100
AcDbCircle
 10
-298.0
 20
98.0
 30
0.0
 40
1.999999999999944
100
AcDbArc
 50
88.8612287596
 51
180.0
  0
ARC
  5
F4
330
CB
100
AcDbEntity
  8
0
  6
Continuous
 62
     7
370
    25
100
AcDbCircle
 10
298.0
 20
98.0
 30
0.0
 40
1.999999999999915
100
AcDbArc
 50
358.8612287596
 51
90.0
  0
ARC
  5
F5
330
CB
100
AcDbEntity
  8
0
  6
Continuous
 62
     7
370
    25
100
AcDbCircle
 10
266.0
 20
66.0
 30
0.0
 40
2.000000000000072
100
AcDbArc
 50
2.9770810806
 51
86.8072132132
  0
ARC
  5
F6
330
CB
100
AcDbEntity
  8
0
  6
Continuous
 62
     7
370
    25
100
AcDbCircle
 10
-266.0
 20
66.0
 30
0.0
 40
2.000000000000148
100
AcDbArc
 50
92.9770810806
 51
176.8072132132
  0
VIEWPORT
  5
171
330
CB
100
AcDbEntity
  8
0
100
AcDbViewport
 10
0.0
 20
0.0
 30
0.0
 40
205.6
 41
156.0
 68
     1
 69
     1
 12
0.0
 22
0.0
 13
0.0
 23
0.0
 14
10.0
 24
10.0
 15
10.0
 25
10.0
 16
0.0
 26
0.0
 36
1.0
 17
0.0
 27
0.0
 37
0.0
 42
50.0
 43
0.0
 44
0.0
 45
464.3579766537
 50
0.0
 51
0.0
 72
   100
 90
   557152
  1

281
     0
 71
     1
 74
     0
110
0.0
120
0.0
130
0.0
111
1.0
121
0.0
131
0.0
112
0.0
122
1.0
132
0.0
 79
     0
146
0.0
  0
ENDBLK
  5
CE
330
CB
100
AcDbEntity
  8
0
100
AcDbBlockEnd
  0
BLOCK
  5
F9
330
F7
100
AcDbEntity
  8
0
100
AcDbBlockBegin
  2
*Paper_Space4
 70
     0
 10
0.0
 20
0.0
 30
0.0
  3
*Paper_Space4
  1

  0
SPLINE
  5
103
330
F7
100
AcDbEntity
  8
0
  6
Continuous
 62
     7
370
    25
100
AcDbSpline
210
0.0
220
0.0
230
1.0
 70
     8
 71
     3
 72
    22
 73
    18
 74
     0
 42
0.000000001
 43
0.00000001
 40
0.0
 40
0.0
 40
0.0
 40
0.0
 40
0.0153166618112884
 40
0.1043161975414692
 40
0.1880857219300245
 40
0.2669557599032824
 40
0.34144927891618
 40
0.4122995880115619
 40
0.4805150158593768
 40
0.5473862276239198
 40
0.6142539370629931
 40
0.6823132685915914
 40
0.7530347528916643
 40
0.8276437928474663
 40
0.9070279284518591
 40
0.9917095866958623
 40
1.0
 40
1.0
 40
1.0
 40
1.0
 10
-275.0710046470405
 20
91.5154724364142
 30
0.0
 10
-275.1940454571026
 20
91.45304263723605
 30
0.0
 10
-276.0320315409002
 20
91.02785604346123
 30
0.0
 10
-277.3802904246848
 20
90.04831744226604
 30
0.0
 10
-279.0224615431279
 20
88.60090155995704
 30
0.0
 10
-280.3060238568837
 20
87.02865014553493
 30
0.0
 10
-281.240932012549
 20
85.38650004787988
 30
0.0
 10
-281.8228664416935
 20
83.70203882070767
 30
0.0
 10
-282.0609324086563
 20
82.00975716882446
 30
0.0
 10
-281.9686370858495
 20
80.33813766330455
 30
0.0
 10
-281.5612727023208
 20
78.71038239038327
 30
0.0
 10
-280.851456259297
 20
77.14067448019819
 30
0.0
 10
-279.8435238681687
 20
75.64003690810853
 30
0.0
 10
-278.5398174018865
 20
74.21189261136598
 30
0.0
 10
-276.9208326169327
 20
72.89587174915366
 30
0.0
 10
-275.6591391576699
 20
72.02680989454974
 30
0.0
 10
-274.9052318789015
 20
71.6583174056063
 30
0.0
 10
-274.8380052071719
 20
71.6254585590523
 30
0.0
  0
LWPOLYLINE
  5
104
330
F7
100
AcDbEntity
  8
0
  6
Continuous
 62
     7
370
    25
100
AcDbPolyline
 90
       23
 70
   128
 43
0.0
 10
208.8176757181
 20
-129.7867336769
 10
209.1118610495
 20
-129.6039286276
 10
210.1661505001
 20
-128.6859172611
 10
211.0116249951
 20
-127.4829587065
 10
211.6293980312
 20
-126.0219250702
 10
212.0056695797
 20
-124.3354534293
 10
212.132034356
 20
-122.4612167734
 10
212.0056695797
 20
-120.4410824524
 10
211.6293980312
 20
-118.3201769287
 10
211.0116249951
 20
-116.1458777272
 10
210.1661505001
 20
-113.9667550991
 10
209.1118610495
 20
-111.8314870429
 10
207.8723077273
 20
-109.7877719186
 10
206.4751801065
 20
-107.881262945
 10
204.9516877094
 20
-106.1545483821
 10
203.3358628387
 20
-104.64620018
 10
201.6638003519
 20
-103.389912345
 10
199.972851362
 20
-102.4137482714
 10
198.3007888753
 20
-101.7395138515
 10
196.6849640046
 20
-101.3822703681
 10
195.1614716075
 20
-101.3499980504
 10
193.7643439867
 20
-101.6434178086
 10
192.8189759959
 20
-102.0731700807
  0
LWPOLYLINE
  5
105
330
F7
100
AcDbEntity
  8
0
  6
Continuous
 62
     7
370
    25
100
AcDbPolyline
 90
       20
 70
   128
 43
0.0
 10
-260.2152954766
 20
94.7054641724
 10
-262.9841741459
 20
94.4871316129
 10
-265.7056765334
 20
94.0489949491
 10
-268.3332369788
 20
93.3985508208
 10
-270.8218971944
 20
92.5469285075
 10
-273.129075514
 20
91.508699503
 10
-275.2152954766
 20
90.3016281934
 10
-277.0448612806
 20
88.9463679035
 10
-278.5864685475
 20
87.4661075127
 10
-279.8137399498
 20
85.8861746865
 10
-280.7056765334
 20
84.2336025138
 10
-281.2470170161
 20
82.5366669625
 10
-281.4284989122
 20
80.8244030704
 10
-281.2470170161
 20
79.1261081475
 10
-280.7056765334
 20
77.4708404908
 10
-279.8137399498
 20
75.8869221886
 10
-278.5864685475
 20
74.4014545225
 10
-277.0448612806
 20
73.0398542559
 10
-275.2152954766
 20
71.825418747
 10
-275.2140764662
 20
71.8247149662
  0
LWPOLYLINE
  5
106
330
F7
100
AcDbEntity
  8
0
  6
Continuous
 62
     7
370
    25
100
AcDbPolyline
 90
       17
 70
   128
 43
0.0
 10
-189.504617358
 20
109.3986869842
 10
-189.6309821343
 20
111.4188213053
 10
-190.0072536828
 20
113.5397268289
 10
-190.6250267189
 20
115.7140260304
 10
-191.4705012138
 20
117.8931486586
 10
-192.5247906645
 20
120.0284167148
 10
-193.7643439867
 20
122.0721318391
 10
-195.1614716075
 20
123.9786408127
 10
-196.6849640046
 20
125.7053553755
 10
-198.3007888753
 20
127.2137035777
 10
-199.972851362
 20
128.4699914127
 10
-201.6638003519
 20
129.4461554863
 10
-203.3358628387
 20
130.1203899062
 10
-204.9516877094
 20
130.4776333895
 10
-206.4751801065
 20
130.5099057072
 10
-207.8723077273
 20
130.2164859491
 10
-208.8176757181
 20
129.7867336769
  0
LWPOLYLINE
  5
107
330
F7
100
AcDbEntity
  8
0
  6
Continuous
 62
     7
370
    25
100
AcDbPolyline
 90
        7
 70
   128
 43
0.0
 10
-192.8189759959
 20
102.0731700807
 10
-192.5247906645
 20
102.2559751301
 10
-191.4705012138
 20
103.1739864966
 10
-190.6250267189
 20
104.3769450511
 10
-190.0072536828
 20
105.8379786874
 10
-189.6309821343
 20
107.5244503284
 10
-189.504617358
 20
109.3986869842
  0
LWPOLYLINE
  5
108
330
F7
100
AcDbEntity
  8
0
  6
Continuous
 62
     8
370
    25
100
AcDbPolyline
 90
       19
 70
   128
 43
0.0
 10
141.4213562373
 20
-137.1544395852
 10
141.6059481486
 20
-138.8646491346
 10
141.7873816411
 20
-140.7691363594
 10
141.9625523375
 20
-142.835314955
 10
142.1284630185
 20
-145.0278320329
 10
142.2822749065
 20
-147.309173018
 10
142.4213562373
 20
-149.6403035335
 10
142.5433272909
 20
-151.9813372899
 10
142.6461011087
 20
-154.2922185507
 10
142.7279192022
 20
-156.5334074968
 10
142.7873816411
 20
-158.6665567639
 10
142.8234710066
 20
-160.6551675767
 10
142.8355697997
 20
-162.4652142527
 10
142.8234710066
 20
-164.0657263916
 10
142.7873816411
 20
-165.4293187869
 10
142.7279192022
 20
-166.5326599947
 10
142.6461011087
 20
-167.3568715409
 10
142.5433272909
 20
-167.8878509375
 10
142.4225651992
 20
-168.1157997273
  0
LWPOLYLINE
  5
109
330
F7
100
AcDbEntity
  8
0
  6
Continuous
 62
     8
370
    25
100
AcDbPolyline
 90
       19
 70
   128
 43
0.0
 10
140.4207232757
 20
-168.1161429251
 10
140.2993851837
 20
-167.8878509375
 10
140.1966113659
 20
-167.3568715409
 10
140.1147932724
 20
-166.5326599947
 10
140.0553308335
 20
-165.4293187869
 10
140.019241468
 20
-164.0657263916
 10
140.0071426749
 20
-162.4652142527
 10
140.019241468
 20
-160.6551675767
 10
140.0553308335
 20
-158.6665567639
 10
140.1147932724
 20
-156.5334074968
 10
140.1966113659
 20
-154.2922185507
 10
140.2993851837
 20
-151.9813372899
 10
140.4213562373
 20
-149.6403035335
 10
140.5604375682
 20
-147.309173018
 10
140.7142494561
 20
-145.0278320329
 10
140.8801601372
 20
-142.835314955
 10
141.0553308335
 20
-140.7691363594
 10
141.236764326
 20
-138.8646491346
 10
141.4213562373
 20
-137.1544395852
  0
LWPOLYLINE
  5
10B
330
F7
100
AcDbEntity
  8
0
  6
Continuous
 62
     8
370
    25
100
AcDbPolyline
 90
        8
 70
   128
 43
0.0
 10
141.4213562373
 20
-137.1544395852
 10
141.2508916293
 20
-135.576774515
 10
141.0829127792
 20
-134.2126274137
 10
140.9198691968
 20
-133.0818906179
 10
140.7641384247
 20
-132.2010528162
 10
140.6179913682
 20
-131.5829586073
 10
140.4835591805
 20
-131.2366211966
 10
140.4214375047
 20
-131.1671436004
  0
LWPOLYLINE
  5
10E
330
F7
100
AcDbEntity
  8
0
  6
Continuous
 62
     8
370
    25
100
AcDbPolyline
 90
       11
 70
   128
 43
0.0
 10
-260.2152954766
 20
94.7054641724
 10
-257.317397141
 20
94.7086152662
 10
-254.4617566885
 20
94.5212083502
 10
-251.6900157875
 20
94.1459762394
 10
-249.0425926615
 20
93.5883906629
 10
-246.5580927014
 20
92.856582474
 10
-244.272745511
 20
91.9612230839
 10
-242.2198765987
 20
90.9153688487
 10
-240.4294214157
 20
89.7342706783
 10
-238.9274888305
 20
88.4351516435
 10
-237.8644523069
 20
87.2126522432
  0
LINE
  5
10F
330
F7
100
AcDbEntity
  8
0
  6
Continuous
 62
     7
370
    25
100
AcDbLine
 10
192.8189759959
 20
-102.0731700807
 30
0.0
 11
142.4212749699
 21
-131.1671436004
 31
0.0
  0
LINE
  5
110
330
F7
100
AcDbEntity
  8
0
  6
Continuous
 62
     7
370
    25
100
AcDbLine
 10
142.4212749699
 20
-168.1165599555
 30
0.0
 11
208.8176757181
 21
-129.7867336769
 31
0.0
  0
LINE
  5
111
330
F7
100
AcDbEntity
  8
0
  6
Continuous
 62
     7
370
    25
100
AcDbLine
 10
140.4214375047
 20
-131.1671436004
 30
0.0
 11
-243.2166770218
 21
90.3024258034
 31
0.0
  0
LINE
  5
112
330
F7
100
AcDbEntity
  8
0
  6
Continuous
 62
     7
370
    25
100
AcDbLine
 10
-275.2140764662
 20
71.8247149662
 30
0.0
 11
140.4214375047
 21
-168.1165599555
 31
0.0
  0
LINE
  5
113
330
F7
100
AcDbEntity
  8
0
  6
Continuous
 62
     7
370
    25
100
AcDbLine
 10
-208.8176757181
 20
129.7867336769
 30
0.0
 11
-275.2140764662
 21
91.4569073983
 31
0.0
  0
LINE
  5
114
330
F7
100
AcDbEntity
  8
0
  6
Continuous
 62
     7
370
    25
100
AcDbLine
 10
-228.2126947096
 20
81.6408111823
 30
0.0
 11
-192.8189759959
 21
102.0731700807
 31
0.0
  0
ARC
  5
115
330
F7
100
AcDbEntity
  8
0
  6
Continuous
 62
     7
370
    25
100
AcDbCircle
 10
141.4213562373
 20
-166.3844622308
 30
0.0
 40
1.999999999999946
100
AcDbArc
 50
239.4831008049
 51
301.2145212511
  0
ARC
  5
116
330
F7
100
AcDbEntity
  8
0
  6
Continuous
 62
     7
370
    25
100
AcDbCircle
 10
141.4213562373
 20
-129.4350458756
 30
0.0
 40
1.999999999999829
100
AcDbArc
 50
241.7670874579
 51
298.1723898363
  0
ARC
  5
117
330
F7
100
AcDbEntity
  8
0
  6
Continuous
 62
     8
370
    25
100
AcDbCircle
 10
165.3925946486
 20
-138.080653189
 30
0.0
 40
23.9891255074609
100
AcDbArc
 50
163.2501667605
 51
177.7872755664
  0
ARC
  5
118
330
F7
100
AcDbEntity
  8
0
  6
Continuous
 62
     8
370
    25
100
AcDbCircle
 10
-260.8562212424
 20
57.2166378571
 30
0.0
 40
37.4943046920659
100
AcDbArc
 50
61.9358853851
 51
89.0205411117
  0
ARC
  5
119
330
F7
100
AcDbEntity
  8
0
  6
Continuous
 62
     8
370
    25
100
AcDbCircle
 10
-261.9494806887
 20
66.4628880587
 30
0.0
 40
28.29576830356725
100
AcDbArc
 50
86.4862660255
 51
117.9553746744
  0
VIEWPORT
  5
173
330
F7
100
AcDbEntity
  8
0
100
AcDbViewport
 10
0.0
 20
0.0
 30
0.0
 40
205.6
 41
156.0
 68
     1
 69
     1
 12
0.0
 22
0.0
 13
0.0
 23
0.0
 14
10.0
 24
10.0
 15
10.0
 25
10.0
 16
0.0
 26
0.0
 36
1.0
 17
0.0
 27
0.0
 37
0.0
 42
50.0
 43
0.0
 44
0.0
 45
464.3579766537
 50
0.0
 51
0.0
 72
   100
 90
   557152
  1

281
     0
 71
     1
 74
     0
110
0.0
120
0.0
130
0.0
111
1.0
121
0.0
131
0.0
112
0.0
122
1.0
132
0.0
 79
     0
146
0.0
  0
ENDBLK
  5
FA
330
F7
100
AcDbEntity
  8
0
100
AcDbBlockEnd
  0
BLOCK
  5
11C
330
11A
100
AcDbEntity
  8
0
100
AcDbBlockBegin
  2
*Paper_Space5
 70
     0
 10
0.0
 20
0.0
 30
0.0
  3
*Paper_Space5
  1

  0
SPLINE
  5
11E
330
11A
100
AcDbEntity
  8
0
  6
Continuous
 62
     7
370
    25
100
AcDbSpline
210
0.0
220
0.0
230
1.0
 70
     8
 71
     3
 72
    12
 73
     8
 74
     0
 42
0.000000001
 43
0.00000001
 40
0.0
 40
0.0
 40
0.0
 40
0.0
 40
0.0658779937008038
 40
0.3236146656699054
 40
0.5975422129830175
 40
0.8502346264031742
 40
1.0
 40
1.0
 40
1.0
 40
1.0
 10
214.6343957042196
 20
-123.8067422299168
 30
0.0
 10
214.7042296333325
 20
-123.8348167237547
 30
0.0
 10
215.0472771724683
 20
-123.9727279961966
 30
0.0
 10
215.808881050352
 20
-124.0243205391292
 30
0.0
 10
216.8078666335392
 20
-123.8298515537508
 30
0.0
 10
217.6031761794779
 20
-123.4004127191766
 30
0.0
 10
217.9483598098267
 20
-123.0230213397919
 30
0.0
 10
218.0768119283504
 20
-122.8825838510687
 30
0.0
  0
SPLINE
  5
125
330
11A
100
AcDbEntity
  8
0
  6
Continuous
 62
     7
370
    25
100
AcDbSpline
210
0.0
220
0.0
230
1.0
 70
     8
 71
     3
 72
    22
 73
    18
 74
     0
 42
0.000000001
 43
0.00000001
 40
0.0
 40
0.0
 40
0.0
 40
0.0
 40
0.0378796825530234
 40
0.117322334526422
 40
0.1924748254840855
 40
0.2640158531944193
 40
0.3326894397753878
 40
0.3992553007732608
 40
0.4645341113506722
 40
0.5294975831539739
 40
0.5949562643929863
 40
0.662105769919319
 40
0.7322389129940544
 40
0.806505241119694
 40
0.8857575576110374
 40
0.9704351797545627
 40
0.9999999999999999
 40
0.9999999999999999
 40
0.9999999999999999
 40
0.9999999999999999
 10
-306.1889470689426
 20
36.86207404367209
 30
0.0
 10
-306.4682904879544
 20
36.61716153679524
 30
0.0
 10
-307.3334831148244
 20
35.85860958691321
 30
0.0
 10
-308.5394123447434
 20
34.42682952666564
 30
0.0
 10
-309.7487533746781
 20
32.63289398252697
 30
0.0
 10
-310.6147505467147
 20
30.80123231256572
 30
0.0
 10
-311.1472897989163
 20
28.97085647831378
 30
0.0
 10
-311.3450869588587
 20
27.16785752183376
 30
0.0
 10
-311.2163781341693
 20
25.42251106529798
 30
0.0
 10
-310.774133341199
 20
23.76403850231918
 30
0.0
 10
-310.035232808414
 20
22.21573679847054
 30
0.0
 10
-309.0147131556841
 20
20.79271092003783
 30
0.0
 10
-307.7189065390893
 20
19.50574806055276
 30
0.0
 10
-306.150245315997
 20
18.36172615966215
 30
0.0
 10
-304.3009890836772
 20
17.3966278261675
 30
0.0
 10
-302.7077997142239
 20
16.75570789006661
 30
0.0
 10
-301.7042831388654
 20
16.52130465578917
 30
0.0
 10
-301.4445829211235
 20
16.4606434046688
 30
0.0
  0
LWPOLYLINE
  5
126
330
11A
100
AcDbEntity
  8
0
  6
Continuous
 62
     7
370
    25
100
AcDbPolyline
 90
        3
 70
   128
 43
0.0
 10
218.0682845169
 20
-122.931331064
 10
218.0152701831
 20
-122.986072572
 10
217.9879007596
 20
-123.0131724751
  0
LWPOLYLINE
  5
129
330
11A
100
AcDbEntity
  8
0
  6
Continuous
 62
     7
370
    25
100
AcDbPolyline
 90
       23
 70
   128
 43
0.0
 10
262.3503970948
 20
-79.7140160567
 10
262.8665952738
 20
-79.1672605832
 10
263.9240776578
 20
-77.6794843541
 10
264.6967610527
 20
-75.9813798441
 10
265.1673849882
 20
-74.1108799018
 10
265.3254365032
 20
-72.1097684052
 10
265.1673849882
 20
-70.0227468782
 10
264.6967610527
 20
-67.8964359331
 10
263.9240776578
 20
-65.7783338428
 10
262.8665952738
 20
-63.715755508
 10
261.5479363096
 20
-61.7547755202
 10
259.9975574275
 20
-59.9391989321
 10
258.2500915298
 20
-58.3095827245
 10
256.3445741171
 20
-56.9023298305
 10
254.3235712995
 20
-55.7488759544
 10
252.2322289404
 20
-54.8749873498
 10
250.1172641723
 20
-54.3001852441
 10
248.0259218133
 20
-54.0373097664
 10
246.0049189957
 20
-54.0922331205
 10
244.099401583
 20
-54.4637284095
 10
242.3519356853
 20
-55.1434970425
 10
240.8015568032
 20
-56.1163541115
 10
239.999096018
 20
-56.8138121237
  0
LWPOLYLINE
  5
12A
330
11A
100
AcDbEntity
  8
0
  6
Continuous
 62
     7
370
    25
100
AcDbPolyline
 90
       18
 70
   128
 43
0.0
 10
-237.0240566095
 20
64.4180597753
 10
-237.1821081246
 20
66.5050813023
 10
-237.6527320601
 20
68.6313922473
 10
-238.4254154549
 20
70.7494943376
 10
-239.482897839
 20
72.8120726725
 10
-240.8015568032
 20
74.7730526602
 10
-242.3519356853
 20
76.5886292483
 10
-244.099401583
 20
78.218245456
 10
-246.0049189957
 20
79.62549835
 10
-248.0259218133
 20
80.778952226
 10
-250.1172641723
 20
81.6528408306
 10
-252.2322289404
 20
82.2276429364
 10
-254.3235712995
 20
82.4905184141
 10
-256.3445741171
 20
82.4355950599
 10
-258.2500915298
 20
82.0640997709
 10
-259.9975574275
 20
81.3843311379
 10
-261.5479363096
 20
80.4114740689
 10
-262.3503970948
 20
79.7140160567
  0
LWPOLYLINE
  5
12D
330
11A
100
AcDbEntity
  8
0
  6
Continuous
 62
     8
370
    25
100
AcDbPolyline
 90
       18
 70
   128
 43
0.0
 10
211.9723338863
 20
-92.8119938506
 10
212.9665459537
 20
-94.263691518
 10
213.943746777
 20
-95.9252121585
 10
214.8872161792
 20
-97.7681266933
 10
215.7808111372
 20
-99.7609023437
 10
216.6092419935
 20
-101.8694421658
 10
217.3583340665
 20
-104.0576684588
 10
218.0152701831
 20
-106.288140064
 10
218.5688099843
 20
-108.5226929938
 10
219.0094822506
 20
-110.7230934281
 10
219.3297469572
 20
-112.8516919055
 10
219.5241242864
 20
-114.8720675157
 10
219.5892883881
 20
-116.749651072
 10
219.5241242864
 20
-118.4523165991
 10
219.3297469572
 20
-119.9509310178
 10
219.0094822506
 20
-121.2198526199
 10
218.5688099843
 20
-122.237369805
 10
218.0682845169
 20
-122.931331064
  0
LWPOLYLINE
  5
12E
330
11A
100
AcDbEntity
  8
0
  6
Continuous
 62
     8
370
    25
100
AcDbPolyline
 90
       21
 70
   128
 43
0.0
 10
214.7342252083
 20
-123.8576759175
 10
214.9642304105
 20
-123.892553141
 10
215.4475710155
 20
-123.7574087158
 10
215.8714493496
 20
-123.3274415852
 10
216.2286127371
 20
-122.6100086061
 10
216.5129500135
 20
-121.6173852556
 10
216.7195960889
 20
-120.3665555945
 10
216.845015192
 20
-118.8789216651
 10
216.8870613669
 20
-117.1799372962
 10
216.845015192
 20
-115.2986725817
 10
216.7195960889
 20
-113.2673164822
 10
216.5129500135
 20
-111.1206260638
 10
216.2286127371
 20
-108.8953317949
 10
215.8714493496
 20
-106.6295090772
 10
215.4475710155
 20
-104.3619267658
 10
214.9642304105
 20
-102.1313838226
 10
214.4296976266
 20
-99.9760454558
 10
213.8531186677
 20
-97.9327901025
 10
213.2443589597
 20
-96.0365784282
 10
212.6138345501
 20
-94.3198551404
 10
211.9723338863
 20
-92.8119938506
  0
LWPOLYLINE
  5
131
330
11A
100
AcDbEntity
  8
0
  6
Continuous
 62
     8
370
    25
100
AcDbPolyline
 90
       21
 70
   128
 43
0.0
 10
-290.3771592265
 20
43.7158343299
 10
-292.9679709958
 20
43.0864462993
 10
-295.5144532573
 20
42.2331653497
 10
-297.9730349937
 20
41.1705913548
 10
-300.3016491897
 20
39.9169052503
 10
-302.4604526109
 20
38.4935579528
 10
-304.4125075321
 20
36.9249033294
 10
-306.1244137525
 20
35.2377814955
 10
-307.566880082
 20
33.4610595736
 10
-308.7152255217
 20
31.6251377682
 10
-309.5498015629
 20
29.7614292105
 10
-310.056328378
 20
27.9018224706
 10
-310.2261391529
 20
26.0781359354
 10
-310.056328378
 20
24.3215733872
 10
-309.5498015629
 20
22.6621900981
 10
-308.7152255217
 20
21.1283785764
 10
-307.566880082
 20
19.7463827623
 10
-306.1244137525
 20
18.5398489875
 10
-304.4125075321
 20
17.5294213794
 10
-302.4604526109
 20
16.7323886344
 10
-301.5315366821
 20
16.4522959272
  0
LWPOLYLINE
  5
132
330
11A
100
AcDbEntity
  8
0
  6
Continuous
 62
     8
370
    25
100
AcDbPolyline
 90
        9
 70
   128
 43
0.0
 10
207.4310766315
 20
-88.6011974637
 10
207.6682676323
 20
-88.4163334525
 10
208.1592639169
 20
-88.2737643424
 10
208.705863348
 20
-88.3973637083
 10
209.300095275
 20
-88.7853291933
 10
209.9332944582
 20
-89.4320033869
 10
210.5962274279
 20
-90.3279563232
 10
211.2792271284
 20
-91.4601229909
 10
211.9723338863
 20
-92.8119938506
  0
LWPOLYLINE
  5
134
330
11A
100
AcDbEntity
  8
0
  6
Continuous
 62
     8
370
    25
100
AcDbPolyline
 90
        9
 70
   128
 43
0.0
 10
-290.3771592265
 20
43.7158343299
 10
-287.6589116053
 20
44.1405721658
 10
-284.9803021554
 20
44.359125497
 10
-282.3803910342
 20
44.3683073237
 10
-279.8970908004
 20
44.1679837543
 10
-277.5666135634
 20
43.7610759574
 10
-275.4229429289
 20
43.153517565
 10
-273.497338442
 20
42.3541681467
 10
-272.2390338054
 20
41.6519860568
  0
LINE
  5
135
330
11A
100
AcDbEntity
  8
0
  6
Continuous
 62
     7
370
    25
100
AcDbLine
 10
207.2224041674
 20
-88.6553591684
 30
0.0
 11
-277.2347433741
 21
43.0097128724
 31
0.0
  0
LINE
  5
136
330
11A
100
AcDbEntity
  8
0
  6
Continuous
 62
     7
370
    25
100
AcDbLine
 10
-301.5315366821
 20
16.4522959272
 30
0.0
 11
214.7342252083
 21
-123.8576759175
 31
0.0
  0
LINE
  5
137
330
11A
100
AcDbEntity
  8
0
  6
Continuous
 62
     7
370
    25
100
AcDbLine
 10
239.999096018
 20
-56.8138121237
 30
0.0
 11
207.4310766315
 21
-88.6011974637
 31
0.0
  0
LINE
  5
138
330
11A
100
AcDbEntity
  8
0
  6
Continuous
 62
     7
370
    25
100
AcDbLine
 10
217.9879007596
 20
-123.0131724751
 30
0.0
 11
262.3503970948
 21
-79.7140160567
 31
0.0
  0
LINE
  5
139
330
11A
100
AcDbEntity
  8
0
  6
Continuous
 62
     7
370
    25
100
AcDbLine
 10
-262.3503970948
 20
79.7140160567
 30
0.0
 11
-306.71289343
 21
36.4148596384
 31
0.0
  0
LINE
  5
13A
330
11A
100
AcDbEntity
  8
0
  6
Continuous
 62
     7
370
    25
100
AcDbLine
 10
-259.1718587954
 20
38.1006078847
 30
0.0
 11
-239.999096018
 21
56.8138121237
 31
0.0
  0
LINE
  5
13B
330
11A
100
AcDbEntity
  8
0
  6
Continuous
 62
     7
370
    25
100
AcDbLine
 10
214.6963151254
 20
-123.8466563555
 30
0.0
 11
214.7342252083
 21
-123.8576759175
 31
0.0
  0
LINE
  5
13C
330
11A
100
AcDbEntity
  8
0
  6
Continuous
 62
     7
370
    25
100
AcDbLine
 10
-277.2347433741
 20
43.0097128724
 30
0.0
 11
-277.4918619598
 21
43.0781406288
 31
0.0
  0
LINE
  5
13D
330
11A
100
AcDbEntity
  8
0
  6
Continuous
 62
     7
370
    25
100
AcDbLine
 10
-306.71289343
 20
36.4148596384
 30
0.0
 11
-306.2421243055
 21
36.8596447719
 31
0.0
  0
ARC
  5
13E
330
11A
100
AcDbEntity
  8
0
  6
Continuous
 62
     7
370
    25
100
AcDbCircle
 10
-247.4441849141
 20
64.1106751826
 30
0.0
 40
10.42466110584923
100
AcDbArc
 50
315.5760722011
 51
1.6896849446
  0
ARC
  5
13F
330
11A
100
AcDbEntity
  8
0
  6
Continuous
 62
     8
370
    25
100
AcDbCircle
 10
203.2404087503
 20
-97.997994124
 30
0.0
 40
10.15584144302074
100
AcDbArc
 50
30.7066096404
 51
66.9154438859
  0
ARC
  5
140
330
11A
100
AcDbEntity
  8
0
  6
Continuous
 62
     8
370
    25
100
AcDbCircle
 10
-285.617768264
 20
9.3849289811
 30
0.0
 40
34.65923923577901
100
AcDbArc
 50
76.4407145605
 51
97.8927694096
  0
ARC
  5
141
330
11A
100
AcDbEntity
  8
0
  6
Continuous
 62
     8
370
    25
100
AcDbCircle
 10
-287.228617034
 20
14.6466645886
 30
0.0
 40
29.23918513550029
100
AcDbArc
 50
96.1817264729
 51
130.5623289929
  0
VIEWPORT
  5
175
330
11A
100
AcDbEntity
  8
0
100
AcDbViewport
 10
0.0
 20
0.0
 30
0.0
 40
205.6
 41
156.0
 68
     1
 69
     1
 12
0.0
 22
0.0
 13
0.0
 23
0.0
 14
10.0
 24
10.0
 15
10.0
 25
10.0
 16
0.0
 26
0.0
 36
1.0
 17
0.0
 27
0.0
 37
0.0
 42
50.0
 43
0.0
 44
0.0
 45
464.3579766537
 50
0.0
 51
0.0
 72
   100
 90
   557152
  1

281
     0
 71
     1
 74
     0
110
0.0
120
0.0
130
0.0
111
1.0
121
0.0
131
0.0
112
0.0
122
1.0
132
0.0
 79
     0
146
0.0
  0
ENDBLK
  5
11D
330
11A
100
AcDbEntity
  8
0
100
AcDbBlockEnd
  0
BLOCK
  5
144
330
142
100
AcDbEntity
  8
0
100
AcDbBlockBegin
  2
*Paper_Space6
 70
     0
 10
0.0
 20
0.0
 30
0.0
  3
*Paper_Space6
  1

  0
SPLINE
  5
146
330
142
100
AcDbEntity
  8
0
  6
Continuous
 62
     7
370
    25
100
AcDbSpline
210
0.0
220
0.0
230
1.0
 70
     8
 71
     3
 72
    12
 73
     8
 74
     0
 42
0.000000001
 43
0.00000001
 40
0.0
 40
0.0
 40
0.0
 40
0.0
 40
0.2050382736811845
 40
0.4772031320137032
 40
0.7313089274874283
 40
0.9768239421890116
 40
1.0
 40
1.0
 40
1.0
 40
1.0
 10
238.5302062505328
 20
-76.0886494981447
 30
0.0
 10
238.8648692546671
 20
-76.12723227428104
 30
0.0
 10
239.643759121787
 20
-76.21702927307292
 30
0.0
 10
240.8673904670488
 20
-76.01233144923717
 30
0.0
 10
242.0792465481316
 20
-75.47817063970723
 30
0.0
 10
242.8606733318071
 20
-74.9787155703959
 30
0.0
 10
243.1894844272957
 20
-74.6031713791229
 30
0.0
 10
243.2178461621561
 20
-74.57077866206632
 30
0.0
  0
SPLINE
  5
14D
330
142
100
AcDbEntity
  8
0
  6
Continuous
 62
     7
370
    25
100
AcDbSpline
210
0.0
220
0.0
230
1.0
 70
     8
 71
     3
 72
    25
 73
    21
 74
     0
 42
0.000000001
 43
0.00000001
 40
0.0
 40
0.0
 40
0.0
 40
0.0
 40
0.0057229458000043
 40
0.0742146934982023
 40
0.138776902280783
 40
0.199834391557546
 40
0.2579990161210282
 40
0.3139882213980805
 40
0.3685571645587322
 40
0.422462082959452
 40
0.476459633726769
 40
0.5310465310349038
 40
0.5870061871716907
 40
0.6451382797035382
 40
0.7061974771323731
 40
0.7708178298756788
 40
0.8394257245401165
 40
0.912160768202283
 40
0.988825142977364
 40
1.0
 40
1.0
 40
1.0
 40
1.0
 10
-309.3658321385905
 20
16.24177503555542
 30
0.0
 10
-309.4196218188316
 20
16.19932500203476
 30
0.0
 10
-310.1171619969077
 20
15.64883643603763
 30
0.0
 10
-311.2724783782973
 20
14.41763530504695
 30
0.0
 10
-312.745899369036
 20
12.58827442900482
 30
0.0
 10
-313.8920333813118
 20
10.6750679813329
 30
0.0
 10
-314.7266407360801
 20
8.734727145742468
 30
0.0
 10
-315.2445835476783
 20
6.787401093023511
 30
0.0
 10
-315.4490751870375
 20
4.8607307435093
 30
0.0
 10
-315.3439798416874
 20
2.979933563441277
 30
0.0
 10
-314.9364140854596
 20
1.173169782723672
 30
0.0
 10
-314.237142989927
 20
-0.5339161048070994
 30
0.0
 10
-313.2585475777981
 20
-2.119671022117568
 30
0.0
 10
-312.0098073049035
 20
-3.56749512677269
 30
0.0
 10
-310.4974749217328
 20
-4.861257720827552
 30
0.0
 10
-308.7269830951444
 20
-5.980019357163038
 30
0.0
 10
-306.7084238998936
 20
-6.90868476786384
 30
0.0
 10
-304.4520681595427
 20
-7.590832496864635
 30
0.0
 10
-302.7409834855938
 20
-7.96463581108442
 30
0.0
 10
-301.777147529192
 20
-8.026600104256445
 30
0.0
 10
-301.654528867967
 20
-8.034483166329451
 30
0.0
  0
LWPOLYLINE
  5
150
330
142
100
AcDbEntity
  8
0
  6
Continuous
 62
     7
370
    25
100
AcDbPolyline
 90
       23
 70
   128
 43
0.0
 10
276.2406797141
 20
-45.4697209604
 10
276.6289902745
 20
-45.1123449377
 10
278.0236841227
 20
-43.5253436387
 10
279.1421417495
 20
-41.7137163454
 10
279.9593786596
 20
-39.717931818
 10
280.457139131
 20
-37.5825725849
 10
280.6243040172
 20
-35.3553390428
 10
280.457139131
 20
-33.0859839086
 10
279.9593786596
 20
-30.8252008261
 10
279.1421417495
 20
-28.6234919535
 10
278.0236841227
 20
-26.5300398287
 10
276.6289902745
 20
-24.5916087129
 10
274.9892153608
 20
-22.851499954
 10
273.1409892434
 20
-21.3485847064
 10
271.1255982399
 20
-20.1164356132
 10
268.9880628548
 20
-19.1825768489
 10
266.7761320964
 20
-18.5678692753
 10
264.5392168429
 20
-18.2860444438
 10
262.3272860845
 20
-18.3433978554
 10
260.1897506994
 20
-18.7386483297
 10
258.1743596959
 20
-19.4629666241
 10
256.3261335785
 20
-20.500172665
 10
255.0746692253
 20
-21.4697209606
  0
LWPOLYLINE
  5
151
330
142
100
AcDbEntity
  8
0
  6
Continuous
 62
     7
370
    25
100
AcDbPolyline
 90
       17
 70
   128
 43
0.0
 10
-250.6910449221
 20
31.5841028782
 10
-250.8582098083
 20
33.8534580124
 10
-251.3559702797
 20
36.1142410949
 10
-252.1732071899
 20
38.3159499676
 10
-253.2916648166
 20
40.4094020924
 10
-254.6863586648
 20
42.3478332082
 10
-256.3261335785
 20
44.087941967
 10
-258.1743596959
 20
45.5908572146
 10
-260.1897506994
 20
46.8230063079
 10
-262.3272860845
 20
47.7568650721
 10
-264.5392168429
 20
48.3715726457
 10
-266.7761320964
 20
48.6533974772
 10
-268.9880628548
 20
48.5960440656
 10
-271.1255982399
 20
48.2007935914
 10
-273.1409892434
 20
47.4764752969
 10
-274.9892153608
 20
46.439269256
 10
-276.2406797141
 20
45.4697209604
  0
LWPOLYLINE
  5
153
330
142
100
AcDbEntity
  8
0
  6
Continuous
 62
     8
370
    25
100
AcDbPolyline
 90
       19
 70
   128
 43
0.0
 10
235.9591896666
 20
-44.5763779968
 10
237.2666551425
 20
-45.5213360109
 10
238.5517495216
 20
-46.708233117
 10
239.7924844828
 20
-48.1167611764
 10
240.9676307068
 20
-49.7228198836
 10
242.0570811161
 20
-51.4989291289
 10
243.042194912
 20
-53.4146991906
 10
243.9061165244
 20
-55.4373507117
 10
244.634064015
 20
-57.5322755641
 10
245.2135820003
 20
-59.6636290026
 10
245.634754767
 20
-61.7949429789
 10
245.8903759322
 20
-63.8897501201
 10
245.9760717471
 20
-65.9122076952
 10
245.8903759322
 20
-67.8277108943
 10
245.634754767
 20
-69.6034849266
 10
245.2135820003
 20
-71.209145806
 10
244.634064015
 20
-72.6172202298
 10
243.9061165244
 20
-73.8036156542
 10
243.2000132223
 20
-74.6034322534
  0
LWPOLYLINE
  5
154
330
142
100
AcDbEntity
  8
0
  6
Continuous
 62
     8
370
    25
100
AcDbPolyline
 90
       23
 70
   128
 43
0.0
 10
238.5596441
 20
-76.1152875364
 10
238.805951287
 20
-76.1385501265
 10
239.6786629696
 20
-76.0446641261
 10
240.4877334328
 20
-75.670454611
 10
241.2193192566
 20
-75.0223244097
 10
241.8609028047
 20
-74.1113632096
 10
242.4015064048
 20
-72.9531578095
 10
242.8318801793
 20
-71.5675254247
 10
243.1446603137
 20
-69.9781746097
 10
243.3344950531
 20
-68.2122995976
 10
243.3981362726
 20
-66.3001149992
 10
243.3344950531
 20
-64.2743388234
 10
243.1446603137
 20
-62.1696326621
 10
242.8318801793
 20
-60.0220086213
 10
242.4015064048
 20
-57.8682131437
 10
241.8609028047
 20
-55.7450982671
 10
241.2193192566
 20
-53.6889910757
 10
240.4877334328
 20
-51.7350721336
 10
239.6786629696
 20
-49.9167735357
 10
238.805951287
 20
-48.265206875
 10
237.8845307238
 20
-46.808630915
 10
236.9301670412
 20
-45.5719680742
 10
235.9591896666
 20
-44.5763779968
  0
LWPOLYLINE
  5
157
330
142
100
AcDbEntity
  8
0
  6
Continuous
 62
     8
370
    25
100
AcDbPolyline
 90
       23
 70
   128
 43
0.0
 10
-295.3561592727
 20
22.3630639242
 10
-297.8038719372
 20
21.7981883063
 10
-300.2097035594
 20
20.9848702812
 10
-302.5324896932
 20
19.9370259458
 10
-304.7324868238
 20
18.6725842074
 10
-306.7720523905
 20
17.2131800145
 10
-308.6162888608
 20
15.5837841776
 10
-310.2336408374
 20
13.8122761111
 10
-311.5964349797
 20
11.9289668093
 10
-312.681353502
 20
9.9660802164
 10
-313.4698331475
 20
7.9572018663
 10
-313.948382811
 20
5.9367042245
 10
-314.108814375
 20
3.9391585658
 10
-313.948382811
 20
1.9987434503
 10
-313.4698331475
 20
0.1486599186
 10
-312.681353502
 20
-1.5794365871
 10
-311.5964349797
 20
-3.1559778565
 10
-310.2336408374
 20
-4.5539888314
 10
-308.6162888608
 20
-5.7495491564
 10
-306.7720523905
 20
-6.7222024629
 10
-304.7324868238
 20
-7.4553063831
 10
-302.5324896932
 20
-7.9363173057
 10
-301.986224065
 20
-8.0130552751
  0
LINE
  5
15B
330
142
100
AcDbEntity
  8
0
  6
Continuous
 62
     7
370
    25
100
AcDbLine
 10
232.0062492171
 20
-43.0368147966
 30
0.0
 11
-287.4032188251
 21
22.4026271255
 31
0.0
  0
LINE
  5
15C
330
142
100
AcDbEntity
  8
0
  6
Continuous
 62
     7
370
    25
100
AcDbLine
 10
-301.986224065
 20
-8.0130552751
 30
0.0
 11
238.5892544609
 21
-76.119163862
 31
0.0
  0
LINE
  5
15D
330
142
100
AcDbEntity
  8
0
  6
Continuous
 62
     7
370
    25
100
AcDbLine
 10
255.0746692253
 20
-21.4697209606
 30
0.0
 11
230.7931791776
 21
-42.8839823373
 31
0.0
  0
LINE
  5
15E
330
142
100
AcDbEntity
  8
0
  6
Continuous
 62
     7
370
    25
100
AcDbLine
 10
243.0421949119
 20
-74.7480325247
 30
0.0
 11
276.2406797141
 21
-45.4697209604
 31
0.0
  0
LINE
  5
15F
330
142
100
AcDbEntity
  8
0
  6
Continuous
 62
     7
370
    25
100
AcDbLine
 10
-276.2406797141
 20
45.4697209604
 30
0.0
 11
-309.4391645162
 21
16.1914093961
 31
0.0
  0
LINE
  5
160
330
142
100
AcDbEntity
  8
0
  6
Continuous
 62
     7
370
    25
100
AcDbLine
 10
-258.1901487825
 20
18.7221262528
 30
0.0
 11
-255.0746692253
 21
21.4697209606
 31
0.0
  0
LINE
  5
161
330
142
100
AcDbEntity
  8
0
  6
Continuous
 62
     7
370
    25
100
AcDbLine
 10
243.2000132223
 20
-74.6034322534
 30
0.0
 11
243.042194912
 21
-74.7480325245
 31
0.0
  0
LINE
  5
162
330
142
100
AcDbEntity
  8
0
  6
Continuous
 62
     7
370
    25
100
AcDbLine
 10
-301.986224065
 20
-8.0130552751
 30
0.0
 11
-301.6876112449
 21
-8.0483550561
 31
0.0
  0
ARC
  5
163
330
142
100
AcDbEntity
  8
0
  6
Continuous
 62
     7
370
    25
100
AcDbCircle
 10
-263.983830151
 20
31.3381298235
 30
0.0
 40
13.29506080788179
100
AcDbArc
 50
312.0756000893
 51
1.0600945894
  0
ARC
  5
164
330
142
100
AcDbEntity
  8
0
  6
Continuous
 62
     8
370
    25
100
AcDbCircle
 10
230.5260018144
 20
-52.6819702238
 30
0.0
 40
9.758081552687933
100
AcDbArc
 50
56.1660073682
 51
81.2748613059
  0
ARC
  5
165
330
142
100
AcDbEntity
  8
0
  6
Continuous
 62
     8
370
    25
100
AcDbCircle
 10
-291.2228828145
 20
-9.1381285889
 30
0.0
 40
31.77119928533116
100
AcDbArc
 50
83.0949635301
 51
97.4750861954
  0
ARC
  5
166
330
142
100
AcDbEntity
  8
0
  6
Continuous
 62
     8
370
    25
100
AcDbCircle
 10
232.048135554
 20
-48.2227635078
 30
0.0
 40
5.347192867965719
100
AcDbArc
 50
42.9942679503
 51
98.8197690571
  0
ARC
  5
167
330
142
100
AcDbEntity
  8
0
  6
Continuous
 62
     8
370
    25
100
AcDbCircle
 10
-292.2631323727
 20
-3.8485931713
 30
0.0
 40
26.39351782351353
100
AcDbArc
 50
96.7298926925
 51
130.5994603235
  0
ARC
  5
168
330
142
100
AcDbEntity
  8
0
  6
Continuous
 62
     8
370
    25
100
AcDbCircle
 10
-290.433666297
 20
-3.1983980123
 30
0.0
 40
26.03112124802334
100
AcDbArc
 50
74.838997145
 51
100.9002837093
  0
VIEWPORT
  5
177
330
142
100
AcDbEntity
  8
0
100
AcDbViewport
 10
0.0
 20
0.0
 30
0.0
 40
205.6
 41
156.0
 68
     1
 69
     1
 12
0.0
 22
0.0
 13
0.0
 23
0.0
 14
10.0
 24
10.0
 15
10.0
 25
10.0
 16
0.0
 26
0.0
 36
1.0
 17
0.0
 27
0.0
 37
0.0
 42
50.0
 43
0.0
 44
0.0
 45
464.3579766537
 50
0.0
 51
0.0
 72
   100
 90
   557152
  1

281
     0
 71
     1
 74
     0
110
0.0
120
0.0
130
0.0
111
1.0
121
0.0
131
0.0
112
0.0
122
1.0
132
0.0
 79
     0
146
0.0
  0
ENDBLK
  5
145
330
142
100
AcDbEntity
  8
0
100
AcDbBlockEnd
  0
ENDSEC
  0
SECTION
  2
ENTITIES
  0
LWPOLYLINE
  5
76
330
1F
100
AcDbEntity
  8
0
  6
Continuous
 62
     7
370
    25
100
AcDbPolyline
 90
       25
 70
   128
 43
0.0
 10
284.0
 20
-16.0
 10
285.8273666911
 20
-15.863117782
 10
287.6234666314
 20
-15.4548132206
 10
289.3575680531
 20
-14.7820725202
 10
291.0
 20
-13.8564064606
 10
292.5226600061
 20
-12.6936534447
 10
293.8994949366
 20
-11.313708499
 10
295.1069467641
 20
-9.7401828641
 10
296.124355653
 20
-8.0
 10
296.9343134552
 20
-6.1229349178
 10
297.522961568
 20
-4.1411047216
 10
297.8802280592
 20
-2.0884190755
 10
298.0
 20
0.0
 10
297.8802280592
 20
2.0884190755
 10
297.522961568
 20
4.1411047216
 10
296.9343134552
 20
6.1229349178
 10
296.124355653
 20
8.0
 10
295.1069467641
 20
9.7401828641
 10
293.8994949366
 20
11.313708499
 10
292.5226600061
 20
12.6936534447
 10
291.0
 20
13.8564064606
 10
289.3575680531
 20
14.7820725202
 10
287.6234666314
 20
15.4548132206
 10
285.8273666911
 20
15.863117782
 10
284.0
 20
16.0
  0
LWPOLYLINE
  5
77
330
1F
100
AcDbEntity
  8
0
  6
Continuous
 62
     7
370
    25
100
AcDbPolyline
 90
       25
 70
   128
 43
0.0
 10
-284.0
 20
16.0
 10
-285.8273666911
 20
15.863117782
 10
-287.6234666314
 20
15.4548132206
 10
-289.3575680531
 20
14.7820725202
 10
-291.0
 20
13.8564064606
 10
-292.5226600061
 20
12.6936534447
 10
-293.8994949366
 20
11.313708499
 10
-295.1069467641
 20
9.7401828641
 10
-296.124355653
 20
8.0
 10
-296.9343134552
 20
6.1229349178
 10
-297.522961568
 20
4.1411047216
 10
-297.8802280592
 20
2.0884190755
 10
-298.0
 20
0.0
 10
-297.8802280592
 20
-2.0884190755
 10
-297.522961568
 20
-4.1411047216
 10
-296.9343134552
 20
-6.1229349178
 10
-296.124355653
 20
-8.0
 10
-295.1069467641
 20
-9.7401828641
 10
-293.8994949366
 20
-11.313708499
 10
-292.5226600061
 20
-12.6936534447
 10
-291.0
 20
-13.8564064606
 10
-289.3575680531
 20
-14.7820725202
 10
-287.6234666314
 20
-15.4548132206
 10
-285.8273666911
 20
-15.863117782
 10
-284.0
 20
-16.0
  0
LINE
  5
79
330
1F
100
AcDbEntity
  8
0
  6
Continuous
 62
     7
370
    25
100
AcDbLine
 10
284.0
 20
16.0
 30
0.0
 11
-284.0
 21
16.0
 31
0.0
  0
LINE
  5
7A
330
1F
100
AcDbEntity
  8
0
  6
Continuous
 62
     7
370
    25
100
AcDbLine
 10
-284.0
 20
-16.0
 30
0.0
 11
284.0
 21
-16.0
 31
0.0
  0
ARC
  5
7B
330
1F
100
AcDbEntity
  8
0
  6
Continuous
 62
     7
370
    25
100
AcDbCircle
 10
284.0
 20
0.0
 30
0.0
 40
16.00000000000001
100
AcDbArc
 50
270.0
 51
90.0
  0
ARC
  5
7C
330
1F
100
AcDbEntity
  8
0
  6
Continuous
 62
     7
370
    25
100
AcDbCircle
 10
-284.0
 20
0.0
 30
0.0
 40
16.00000000000001
100
AcDbArc
 50
90.0
 51
270.0
  0
LINE
  5
91
330
1B
100
AcDbEntity
 67
     1
  8
0
  6
Continuous
 62
     7
370
    25
100
AcDbLine
 10
-300.0
 20
0.0
 30
0.0
 11
-300.0
 21
-98.0
 31
0.0
  0
LINE
  5
92
330
1B
100
AcDbEntity
 67
     1
  8
0
  6
Continuous
 62
     7
370
    25
100
AcDbLine
 10
-268.0
 20
-66.0
 30
0.0
 11
-268.0
 21
0.0
 31
0.0
  0
LINE
  5
93
330
1B
100
AcDbEntity
 67
     1
  8
0
  6
Continuous
 62
     7
370
    25
100
AcDbLine
 10
268.0
 20
0.0
 30
0.0
 11
268.0
 21
-66.0
 31
0.0
  0
LINE
  5
94
330
1B
100
AcDbEntity
 67
     1
  8
0
  6
Continuous
 62
     7
370
    25
100
AcDbLine
 10
300.0
 20
-98.0
 30
0.0
 11
300.0
 21
0.0
 31
0.0
  0
LINE
  5
95
330
1B
100
AcDbEntity
 67
     1
  8
0
  6
Continuous
 62
     7
370
    25
100
AcDbLine
 10
266.0
 20
-68.0
 30
0.0
 11
-266.0
 21
-68.0
 31
0.0
  0
LINE
  5
96
330
1B
100
AcDbEntity
 67
     1
  8
0
  6
Continuous
 62
     7
370
    25
100
AcDbLine
 10
-298.0
 20
-100.0
 30
0.0
 11
298.0
 21
-100.0
 31
0.0
  0
LINE
  5
97
330
1B
100
AcDbEntity
 67
     1
  8
0
  6
Continuous
 62
     7
370
    25
100
AcDbLine
 10
-268.0
 20
0.0
 30
0.0
 11
-300.0
 21
0.0
 31
0.0
  0
LINE
  5
98
330
1B
100
AcDbEntity
 67
     1
  8
0
  6
Continuous
 62
     7
370
    25
100
AcDbLine
 10
300.0
 20
0.0
 30
0.0
 11
268.0
 21
0.0
 31
0.0
  0
LINE
  5
99
330
1B
100
AcDbEntity
 67
     1
  8
0
  6
Continuous
 62
     8
370
    25
100
AcDbLine
 10
-300.0
 20
-98.0
 30
0.0
 11
-284.0
 21
-84.0
 31
0.0
  0
LINE
  5
9A
330
1B
100
AcDbEntity
 67
     1
  8
0
  6
Continuous
 62
     8
370
    25
100
AcDbLine
 10
-284.0
 20
-84.0
 30
0.0
 11
-268.0
 21
-66.0
 31
0.0
  0
LINE
  5
9B
330
1B
100
AcDbEntity
 67
     1
  8
0
  6
Continuous
 62
     8
370
    25
100
AcDbLine
 10
284.0
 20
-84.0
 30
0.0
 11
300.0
 21
-98.0
 31
0.0
  0
LINE
  5
9C
330
1B
100
AcDbEntity
 67
     1
  8
0
  6
Continuous
 62
     8
370
    25
100
AcDbLine
 10
268.0
 20
-66.0
 30
0.0
 11
284.0
 21
-84.0
 31
0.0
  0
LINE
  5
9D
330
1B
100
AcDbEntity
 67
     1
  8
0
  6
Continuous
 62
     8
370
    25
100
AcDbLine
 10
-284.0
 20
-84.0
 30
0.0
 11
-298.0
 21
-100.0
 31
0.0
  0
LINE
  5
9E
330
1B
100
AcDbEntity
 67
     1
  8
0
  6
Continuous
 62
     8
370
    25
100
AcDbLine
 10
284.0
 20
-84.0
 30
0.0
 11
298.0
 21
-100.0
 31
0.0
  0
LINE
  5
9F
330
1B
100
AcDbEntity
 67
     1
  8
0
  6
Continuous
 62
     8
370
    25
100
AcDbLine
 10
284.0
 20
-84.0
 30
0.0
 11
266.0
 21
-68.0
 31
0.0
  0
LINE
  5
A0
330
1B
100
AcDbEntity
 67
     1
  8
0
  6
Continuous
 62
     8
370
    25
100
AcDbLine
 10
-266.0
 20
-68.0
 30
0.0
 11
-284.0
 21
-84.0
 31
0.0
  0
ARC
  5
A1
330
1B
100
AcDbEntity
 67
     1
  8
0
  6
Continuous
 62
     7
370
    25
100
AcDbCircle
 10
-298.0
 20
-98.0
 30
0.0
 40
1.999999999999915
100
AcDbArc
 50
178.8612287596
 51
270.0
  0
ARC
  5
A2
330
1B
100
AcDbEntity
 67
     1
  8
0
  6
Continuous
 62
     7
370
    25
100
AcDbCircle
 10
298.0
 20
-98.0
 30
0.0
 40
1.999999999999944
100
AcDbArc
 50
268.8612287596
 51
0.0
  0
ARC
  5
A3
330
1B
100
AcDbEntity
 67
     1
  8
0
  6
Continuous
 62
     7
370
    25
100
AcDbCircle
 10
266.0
 20
-66.0
 30
0.0
 40
2.000000000000026
100
AcDbArc
 50
272.9770810806
 51
356.8072132132
  0
ARC
  5
A4
330
1B
100
AcDbEntity
 67
     1
  8
0
  6
Continuous
 62
     7
370
    25
100
AcDbCircle
 10
-266.0
 20
-66.0
 30
0.0
 40
2.000000000000193
100
AcDbArc
 50
182.9770810806
 51
266.8072132132
  0
VIEWPORT
  5
169
330
1B
100
AcDbEntity
 67
     1
  8
0
100
AcDbViewport
 10
0.0
 20
0.0
 30
0.0
 40
205.6
 41
156.0
 68
     1
 69
     1
 12
0.0
 22
0.0
 13
0.0
 23
0.0
 14
10.0
 24
10.0
 15
10.0
 25
10.0
 16
0.0
 26
0.0
 36
1.0
 17
0.0
 27
0.0
 37
0.0
 42
50.0
 43
0.0
 44
0.0
 45
464.3579766537
 50
0.0
 51
0.0
 72
   100
 90
   557152
  1

281
     0
 71
     1
 74
     0
110
0.0
120
0.0
130
0.0
111
1.0
121
0.0
131
0.0
112
0.0
122
1.0
132
0.0
 79
     0
146
0.0
  0
ENDSEC
  0
SECTION
  2
OBJECTS
  0
DICTIONARY
  5
C
330
0
100
AcDbDictionary
281
     1
  3
ACAD_GROUP
350
D
  3
ACAD_LAYOUT
350
1A
  3
ACAD_MLINESTYLE
350
17
  3
ACAD_PLOTSETTINGS
350
19
  3
ACAD_PLOTSTYLENAME
350
E
  3
ACAD_SCALELIST
350
47
  0
DICTIONARY
  5
D
102
{ACAD_REACTORS
330
C
102
}
330
C
100
AcDbDictionary
281
     1
  0
DICTIONARY
  5
1A
102
{ACAD_REACTORS
330
C
102
}
330
C
100
AcDbDictionary
281
     1
  3
_Back
350
AF
  3
_Bottom
350
CC
  3
_Dimetric
350
143
  3
_Isometric
350
F8
  3
_Left
350
BF
  3
_Right
350
26
  3
_Top
350
1E
  3
_Trimetric
350
11B
  3
Model
350
22
  0
DICTIONARY
  5
17
102
{ACAD_REACTORS
330
C
102
}
330
C
100
AcDbDictionary
281
     1
  3
Standard
350
18
  0
DICTIONARY
  5
19
102
{ACAD_REACTORS
330
C
102
}
330
C
100
AcDbDictionary
281
     1
  0
ACDBDICTIONARYWDFLT
  5
E
102
{ACAD_REACTORS
330
C
102
}
330
C
100
AcDbDictionary
281
     1
  3
Normal
350
F
100
AcDbDictionaryWithDefault
340
F
  0
DICTIONARY
  5
47
102
{ACAD_REACTORS
330
C
102
}
330
C
100
AcDbDictionary
281
     1
  3
A0
350
48
  3
A1
350
49
  3
A2
350
4A
  3
A3
350
4B
  3
A4
350
4C
  3
A5
350
4D
  3
A6
350
4E
  3
A7
350
4F
  3
A8
350
50
  3
A9
350
51
  3
B0
350
52
  3
B1
350
53
  3
B2
350
54
  3
B3
350
55
  3
B4
350
56
  3
B5
350
57
  3
B6
350
58
  3
B7
350
59
  3
B8
350
5A
  3
B9
350
5B
  3
C0
350
5C
  3
C1
350
5D
  3
C2
350
5E
  3
C3
350
5F
  3
C4
350
60
  3
C5
350
61
  3
C6
350
62
  3
C7
350
63
  3
C8
350
64
  3
C9
350
65
  3
D0
350
66
  3
D1
350
67
  3
D2
350
68
  0
LAYOUT
  5
AF
102
{ACAD_REACTORS
330
1A
102
}
330
1A
100
AcDbPlotSettings
  1

  2
none_device
  4
ISO_A4_(210.00_x_297.00_MM)
  6

 40
7.5
 41
20.0
 42
7.5
 43
20.0
 44
210.0
 45
297.0
 46
0.0
 47
0.0
 48
0.0
 49
0.0
140
0.0
141
0.0
142
1.0
143
2.3346303502
 70
   688
 72
     1
 73
     1
 74
     1
  7

 75
     0
147
0.4283333333
148
300.0
149
100.0
100
AcDbLayout
  1
_Back
 70
     1
 71
     3
 10
0.0
 20
0.0
 11
0.0
 21
0.0
 12
0.0
 22
0.0
 32
0.0
 14
0.0
 24
0.0
 34
0.0
 15
0.0
 25
0.0
 35
0.0
146
0.0
 13
0.0
 23
0.0
 33
0.0
 16
1.0
 26
0.0
 36
0.0
 17
0.0
 27
1.0
 37
0.0
 76
     0
330
AE
331
16D
  0
LAYOUT
  5
CC
102
{ACAD_REACTORS
330
1A
102
}
330
1A
100
AcDbPlotSettings
  1

  2
none_device
  4
ISO_A4_(210.00_x_297.00_MM)
  6

 40
7.5
 41
20.0
 42
7.5
 43
20.0
 44
210.0
 45
297.0
 46
0.0
 47
0.0
 48
0.0
 49
0.0
140
0.0
141
0.0
142
1.0
143
2.3346303502
 70
   688
 72
     1
 73
     1
 74
     1
  7

 75
     0
147
0.4283333333
148
300.0
149
100.0
100
AcDbLayout
  1
_Bottom
 70
     1
 71
     5
 10
0.0
 20
0.0
 11
0.0
 21
0.0
 12
0.0
 22
0.0
 32
0.0
 14
0.0
 24
0.0
 34
0.0
 15
0.0
 25
0.0
 35
0.0
146
0.0
 13
0.0
 23
0.0
 33
0.0
 16
1.0
 26
0.0
 36
0.0
 17
0.0
 27
1.0
 37
0.0
 76
     0
330
CB
331
171
  0
LAYOUT
  5
143
102
{ACAD_REACTORS
330
1A
102
}
330
1A
100
AcDbPlotSettings
  1

  2
none_device
  4
ISO_A4_(210.00_x_297.00_MM)
  6

 40
7.5
 41
20.0
 42
7.5
 43
20.0
 44
210.0
 45
297.0
 46
0.0
 47
0.0
 48
0.0
 49
0.0
140
0.0
141
0.0
142
1.0
143
2.3346303502
 70
   688
 72
     1
 73
     1
 74
     1
  7

 75
     0
147
0.4283333333
148
300.0
149
100.0
100
AcDbLayout
  1
_Dimetric
 70
     1
 71
     8
 10
0.0
 20
0.0
 11
0.0
 21
0.0
 12
0.0
 22
0.0
 32
0.0
 14
0.0
 24
0.0
 34
0.0
 15
0.0
 25
0.0
 35
0.0
146
0.0
 13
0.0
 23
0.0
 33
0.0
 16
1.0
 26
0.0
 36
0.0
 17
0.0
 27
1.0
 37
0.0
 76
     0
330
142
331
177
  0
LAYOUT
  5
F8
102
{ACAD_REACTORS
330
1A
102
}
330
1A
100
AcDbPlotSettings
  1

  2
none_device
  4
ISO_A4_(210.00_x_297.00_MM)
  6

 40
7.5
 41
20.0
 42
7.5
 43
20.0
 44
210.0
 45
297.0
 46
0.0
 47
0.0
 48
0.0
 49
0.0
140
0.0
141
0.0
142
1.0
143
2.3346303502
 70
   688
 72
     1
 73
     1
 74
     1
  7

 75
     0
147
0.4283333333
148
300.0
149
100.0
100
AcDbLayout
  1
_Isometric
 70
     1
 71
     6
 10
0.0
 20
0.0
 11
0.0
 21
0.0
 12
0.0
 22
0.0
 32
0.0
 14
0.0
 24
0.0
 34
0.0
 15
0.0
 25
0.0
 35
0.0
146
0.0
 13
0.0
 23
0.0
 33
0.0
 16
1.0
 26
0.0
 36
0.0
 17
0.0
 27
1.0
 37
0.0
 76
     0
330
F7
331
173
  0
LAYOUT
  5
BF
102
{ACAD_REACTORS
330
1A
102
}
330
1A
100
AcDbPlotSettings
  1

  2
none_device
  4
ISO_A4_(210.00_x_297.00_MM)
  6

 40
7.5
 41
20.0
 42
7.5
 43
20.0
 44
210.0
 45
297.0
 46
0.0
 47
0.0
 48
0.0
 49
0.0
140
0.0
141
0.0
142
1.0
143
2.3346303502
 70
   688
 72
     1
 73
     1
 74
     1
  7

 75
     0
147
0.4283333333
148
300.0
149
100.0
100
AcDbLayout
  1
_Left
 70
     1
 71
     4
 10
0.0
 20
0.0
 11
0.0
 21
0.0
 12
0.0
 22
0.0
 32
0.0
 14
0.0
 24
0.0
 34
0.0
 15
0.0
 25
0.0
 35
0.0
146
0.0
 13
0.0
 23
0.0
 33
0.0
 16
1.0
 26
0.0
 36
0.0
 17
0.0
 27
1.0
 37
0.0
 76
     0
330
BE
331
16F
  0
LAYOUT
  5
26
102
{ACAD_REACTORS
330
1A
102
}
330
1A
100
AcDbPlotSettings
  1

  2
none_device
  4
ISO_A4_(210.00_x_297.00_MM)
  6

 40
7.5
 41
20.0
 42
7.5
 43
20.0
 44
210.0
 45
297.0
 46
0.0
 47
0.0
 48
0.0
 49
0.0
140
0.0
141
0.0
142
1.0
143
2.3346303502
 70
   688
 72
     1
 73
     1
 74
     1
  7

 75
     0
147
0.4283333333
148
300.0
149
100.0
100
AcDbLayout
  1
_Right
 70
     1
 71
     2
 10
0.0
 20
0.0
 11
0.0
 21
0.0
 12
0.0
 22
0.0
 32
0.0
 14
0.0
 24
0.0
 34
0.0
 15
0.0
 25
0.0
 35
0.0
146
0.0
 13
0.0
 23
0.0
 33
0.0
 16
1.0
 26
0.0
 36
0.0
 17
0.0
 27
1.0
 37
0.0
 76
     0
330
23
331
16B
  0
LAYOUT
  5
1E
102
{ACAD_REACTORS
330
1A
102
}
330
1A
100
AcDbPlotSettings
  1

  2
none_device
  4
ISO_A4_(210.00_x_297.00_MM)
  6

 40
7.5
 41
20.0
 42
7.5
 43
20.0
 44
210.0
 45
297.0
 46
0.0
 47
0.0
 48
0.0
 49
0.0
140
0.0
141
0.0
142
1.0
143
2.3346303502
 70
   688
 72
     1
 73
     1
 74
     1
  7

 75
     0
147
0.4283333333
148
300.0
149
100.0
100
AcDbLayout
  1
_Top
 70
     1
 71
     1
 10
-346.6926070039
 20
-117.5097276265
 11
346.6926070039
 21
372.7626459144
 12
0.0
 22
0.0
 32
0.0
 14
-300.0
 24
-100.0
 34
0.0
 15
300.0
 25
0.0
 35
0.0
146
0.0
 13
0.0
 23
0.0
 33
0.0
 16
1.0
 26
0.0
 36
0.0
 17
0.0
 27
1.0
 37
0.0
 76
     0
330
1B
331
169
  0
LAYOUT
  5
11B
102
{ACAD_REACTORS
330
1A
102
}
330
1A
100
AcDbPlotSettings
  1

  2
none_device
  4
ISO_A4_(210.00_x_297.00_MM)
  6

 40
7.5
 41
20.0
 42
7.5
 43
20.0
 44
210.0
 45
297.0
 46
0.0
 47
0.0
 48
0.0
 49
0.0
140
0.0
141
0.0
142
1.0
143
2.3346303502
 70
   688
 72
     1
 73
     1
 74
     1
  7

 75
     0
147
0.4283333333
148
300.0
149
100.0
100
AcDbLayout
  1
_Trimetric
 70
     1
 71
     7
 10
0.0
 20
0.0
 11
0.0
 21
0.0
 12
0.0
 22
0.0
 32
0.0
 14
0.0
 24
0.0
 34
0.0
 15
0.0
 25
0.0
 35
0.0
146
0.0
 13
0.0
 23
0.0
 33
0.0
 16
1.0
 26
0.0
 36
0.0
 17
0.0
 27
1.0
 37
0.0
 76
     0
330
11A
331
175
  0
LAYOUT
  5
22
102
{ACAD_REACTORS
330
1A
102
}
330
1A
100
AcDbPlotSettings
  1

  2
none_device
  4
ANSI_A_(11.00_x_8.50_Inches)
  6

 40
6.35
 41
19.05
 42
6.35000508
 43
19.05000254
 44
279.4
 45
215.9
 46
133.34999746
 47
88.89999873
 48
0.0
 49
0.0
140
0.0
141
0.0
142
0.01815
143
1.0
 70
  1696
 72
     0
 73
     0
 74
     0
  7

 75
     0
147
0.0179189148
148
-1300.4909072572
149
0.0
100
AcDbLayout
  1
Model
 70
     1
 71
     0
 10
0.0
 20
0.0
 11
420.0
 21
297.0
 12
0.0
 22
0.0
 32
0.0
 14
-300.0
 24
-16.0
 34
0.0
 15
300.0
 25
16.0
 35
0.0
146
0.0
 13
0.0
 23
0.0
 33
0.0
 16
1.0
 26
0.0
 36
0.0
 17
0.0
 27
1.0
 37
0.0
 76
     0
330
1F
331
29
  0
MLINESTYLE
  5
18
102
{ACAD_REACTORS
330
17
102
}
330
17
100
AcDbMlineStyle
  2
Standard
 70
     0
  3

 62
   256
 51
90.0
 52
90.0
 71
     2
 49
0.5
 62
   256
  6
BYLAYER
 49
-0.5
 62
   256
  6
BYLAYER
  0
ACDBPLACEHOLDER
  5
F
102
{ACAD_REACTORS
330
E
102
}
330
E
  0
SCALE
  5
48
102
{ACAD_REACTORS
330
47
102
}
330
47
100
AcDbScale
 70
     0
300
1:1
140
1.0
141
1.0
290
     1
  0
SCALE
  5
49
102
{ACAD_REACTORS
330
47
102
}
330
47
100
AcDbScale
 70
     0
300
1:2
140
1.0
141
2.0
290
     0
  0
SCALE
  5
4A
102
{ACAD_REACTORS
330
47
102
}
330
47
100
AcDbScale
 70
     0
300
1:4
140
1.0
141
4.0
290
     0
  0
SCALE
  5
4B
102
{ACAD_REACTORS
330
47
102
}
330
47
100
AcDbScale
 70
     0
300
1:5
140
1.0
141
5.0
290
     0
  0
SCALE
  5
4C
102
{ACAD_REACTORS
330
47
102
}
330
47
100
AcDbScale
 70
     0
300
1:8
140
1.0
141
8.0
290
     0
  0
SCALE
  5
4D
102
{ACAD_REACTORS
330
47
102
}
330
47
100
AcDbScale
 70
     0
300
1:10
140
1.0
141
10.0
290
     0
  0
SCALE
  5
4E
102
{ACAD_REACTORS
330
47
102
}
330
47
100
AcDbScale
 70
     0
300
1:16
140
1.0
141
16.0
290
     0
  0
SCALE
  5
4F
102
{ACAD_REACTORS
330
47
102
}
330
47
100
AcDbScale
 70
     0
300
1:20
140
1.0
141
20.0
290
     0
  0
SCALE
  5
50
102
{ACAD_REACTORS
330
47
102
}
330
47
100
AcDbScale
 70
     0
300
1:30
140
1.0
141
30.0
290
     0
  0
SCALE
  5
51
102
{ACAD_REACTORS
330
47
102
}
330
47
100
AcDbScale
 70
     0
300
1:40
140
1.0
141
40.0
290
     0
  0
SCALE
  5
52
102
{ACAD_REACTORS
330
47
102
}
330
47
100
AcDbScale
 70
     0
300
1:50
140
1.0
141
50.0
290
     0
  0
SCALE
  5
53
102
{ACAD_REACTORS
330
47
102
}
330
47
100
AcDbScale
 70
     0
300
1:100
140
1.0
141
100.0
290
     0
  0
SCALE
  5
54
102
{ACAD_REACTORS
330
47
102
}
330
47
100
AcDbScale
 70
     0
300
2:1
140
2.0
141
1.0
290
     0
  0
SCALE
  5
55
102
{ACAD_REACTORS
330
47
102
}
330
47
100
AcDbScale
 70
     0
300
4:1
140
4.0
141
1.0
290
     0
  0
SCALE
  5
56
102
{ACAD_REACTORS
330
47
102
}
330
47
100
AcDbScale
 70
     0
300
8:1
140
8.0
141
1.0
290
     0
  0
SCALE
  5
57
102
{ACAD_REACTORS
330
47
102
}
330
47
100
AcDbScale
 70
     0
300
10:1
140
10.0
141
1.0
290
     0
  0
SCALE
  5
58
102
{ACAD_REACTORS
330
47
102
}
330
47
100
AcDbScale
 70
     0
300
100:1
140
100.0
141
1.0
290
     0
  0
SCALE
  5
59
102
{ACAD_REACTORS
330
47
102
}
330
47
100
AcDbScale
 70
     0
300
1/128" = 1'-0"
140
0.0078125
141
12.0
290
     0
  0
SCALE
  5
5A
102
{ACAD_REACTORS
330
47
102
}
330
47
100
AcDbScale
 70
     0
300
1/64" = 1'-0"
140
0.015625
141
12.0
290
     0
  0
SCALE
  5
5B
102
{ACAD_REACTORS
330
47
102
}
330
47
100
AcDbScale
 70
     0
300
1/32" = 1'-0"
140
0.03125
141
12.0
290
     0
  0
SCALE
  5
5C
102
{ACAD_REACTORS
330
47
102
}
330
47
100
AcDbScale
 70
     0
300
1/16" = 1'-0"
140
0.0625
141
12.0
290
     0
  0
SCALE
  5
5D
102
{ACAD_REACTORS
330
47
102
}
330
47
100
AcDbScale
 70
     0
300
3/32" = 1'-0"
140
0.09375
141
12.0
290
     0
  0
SCALE
  5
5E
102
{ACAD_REACTORS
330
47
102
}
330
47
100
AcDbScale
 70
     0
300
1/8" = 1'-0"
140
0.125
141
12.0
290
     0
  0
SCALE
  5
5F
102
{ACAD_REACTORS
330
47
102
}
330
47
100
AcDbScale
 70
     0
300
3/16" = 1'-0"
140
0.1875
141
12.0
290
     0
  0
SCALE
  5
60
102
{ACAD_REACTORS
330
47
102
}
330
47
100
AcDbScale
 70
     0
300
1/4" = 1'-0"
140
0.25
141
12.0
290
     0
  0
SCALE
  5
61
102
{ACAD_REACTORS
330
47
102
}
330
47
100
AcDbScale
 70
     0
300
3/8" = 1'-0"
140
0.375
141
12.0
290
     0
  0
SCALE
  5
62
102
{ACAD_REACTORS
330
47
102
}
330
47
100
AcDbScale
 70
     0
300
1/2" = 1'-0"
140
0.5
141
12.0
290
     0
  0
SCALE
  5
63
102
{ACAD_REACTORS
330
47
102
}
330
47
100
AcDbScale
 70
     0
300
3/4" = 1'-0"
140
0.75
141
12.0
290
     0
  0
SCALE
  5
64
102
{ACAD_REACTORS
330
47
102
}
330
47
100
AcDbScale
 70
     0
300
1" = 1'-0"
140
1.0
141
12.0
290
     0
  0
SCALE
  5
65
102
{ACAD_REACTORS
330
47
102
}
330
47
100
AcDbScale
 70
     0
300
1-1/2" = 1'-0"
140
1.5
141
12.0
290
     0
  0
SCALE
  5
66
102
{ACAD_REACTORS
330
47
102
}
330
47
100
AcDbScale
 70
     0
300
3" = 1'-0"
140
3.0
141
12.0
290
     0
  0
SCALE
  5
67
102
{ACAD_REACTORS
330
47
102
}
330
47
100
AcDbScale
 70
     0
300
6" = 1'-0"
140
6.0
141
12.0
290
     0
  0
SCALE
  5
68
102
{ACAD_REACTORS
330
47
102
}
330
47
100
AcDbScale
 70
     0
300
1'-0" = 1'-0"
140
12.0
141
12.0
290
     0
  0
ENDSEC
  0
EOF
