  0
SECTION
  2
HEADER
  9
$ACADVER
  1
AC1015
  9
$ACADMAINTVER
 70
     6
  9
$DWGCODEPAGE
  3
ANSI_1252
  9
$INSBASE
 10
0.0
 20
0.0
 30
0.0
  9
$EXTMIN
 10
-132.8703169019
 20
-18.5
 30
0.0
  9
$EXTMAX
 10
-33.2403169019
 20
203.0
 30
0.0
  9
$LIMMIN
 10
0.0
 20
0.0
  9
$LIMMAX
 10
420.0
 20
297.0
  9
$ORTHOMODE
 70
     0
  9
$REGENMODE
 70
     1
  9
$FILLMODE
 70
     1
  9
$QTEXTMODE
 70
     0
  9
$MIRRTEXT
 70
     1
  9
$LTSCALE
 40
1.0
  9
$ATTMODE
 70
     1
  9
$TEXTSIZE
 40
3.5
  9
$TRACEWID
 40
1.0
  9
$TEXTSTYLE
  7
Standard
  9
$CLAYER
  8
0
  9
$CELTYPE
  6
ByLayer
  9
$CECOLOR
 62
   256
  9
$CELTSCALE
 40
1.0
  9
$DISPSILH
 70
     0
  9
$DIMSCALE
 40
1.0
  9
$DIMASZ
 40
3.302
  9
$DIMEXO
 40
1.0
  9
$DIMDLI
 40
3.75
  9
$DIMRND
 40
0.0
  9
$DIMDLE
 40
0.0
  9
$DIMEXE
 40
1.0
  9
$DIMTP
 40
0.0
  9
$DIMTM
 40
0.0
  9
$DIMTXT
 40
3.5
  9
$DIMCEN
 40
2.5
  9
$DIMTSZ
 40
0.0
  9
$DIMTOL
 70
     0
  9
$DIMLIM
 70
     0
  9
$DIMTIH
 70
     1
  9
$DIMTOH
 70
     1
  9
$DIMSE1
 70
     0
  9
$DIMSE2
 70
     0
  9
$DIMTAD
 70
     1
  9
$DIMZIN
 70
     1
  9
$DIMBLK
  1

  9
$DIMASO
 70
     1
  9
$DIMSHO
 70
     1
  9
$DIMPOST
  1

  9
$DIMAPOST
  1

  9
$DIMALT
 70
     0
  9
$DIMALTD
 70
     3
  9
$DIMALTF
 40
0.0393700787
  9
$DIMLFAC
 40
1.0
  9
$DIMTOFL
 70
     1
  9
$DIMTVP
 40
0.0
  9
$DIMTIX
 70
     0
  9
$DIMSOXD
 70
     0
  9
$DIMSAH
 70
     0
  9
$DIMBLK1
  1

  9
$DIMBLK2
  1

  9
$DIMSTYLE
  2
ISO-25
  9
$DIMCLRD
 70
     0
  9
$DIMCLRE
 70
     0
  9
$DIMCLRT
 70
     0
  9
$DIMTFAC
 40
1.0
  9
$DIMGAP
 40
1.524
  9
$DIMJUST
 70
     0
  9
$DIMSD1
 70
     0
  9
$DIMSD2
 70
     0
  9
$DIMTOLJ
 70
     0
  9
$DIMTZIN
 70
     1
  9
$DIMALTZ
 70
     0
  9
$DIMALTTZ
 70
     0
  9
$DIMUPT
 70
     0
  9
$DIMDEC
 70
     2
  9
$DIMTDEC
 70
     2
  9
$DIMALTU
 70
     2
  9
$DIMALTTD
 70
     3
  9
$DIMTXSTY
  7
Standard
  9
$DIMAUNIT
 70
     0
  9
$DIMADEC
 70
     2
  9
$DIMALTRND
 40
0.0
  9
$DIMAZIN
 70
     0
  9
$DIMDSEP
 70
    44
  9
$DIMATFIT
 70
     3
  9
$DIMFRAC
 70
     0
  9
$DIMLDRBLK
  1

  9
$DIMLUNIT
 70
     2
  9
$DIMLWD
 70
    -2
  9
$DIMLWE
 70
    -2
  9
$DIMTMOVE
 70
     0
  9
$LUNITS
 70
     2
  9
$LUPREC
 70
     2
  9
$SKETCHINC
 40
1.0
  9
$FILLETRAD
 40
10.0
  9
$AUNITS
 70
     0
  9
$AUPREC
 70
     2
  9
$MENU
  1
.
  9
$ELEVATION
 40
0.0
  9
$PELEVATION
 40
0.0
  9
$THICKNESS
 40
0.0
  9
$LIMCHECK
 70
     0
  9
$CHAMFERA
 40
0.0
  9
$CHAMFERB
 40
0.0
  9
$CHAMFERC
 40
0.0
  9
$CHAMFERD
 40
0.0
  9
$SKPOLY
 70
     0
  9
$TDCREATE
 40
2458915.604177083
  9
$TDUCREATE
 40
2458915.604177083
  9
$TDUPDATE
 40
2458915.60425588
  9
$TDUUPDATE
 40
2458915.60425588
  9
$TDINDWG
 40
0.0000000116
  9
$TDUSRTIMER
 40
0.0000000116
  9
$USRTIMER
 70
     1
  9
$ANGBASE
 50
0.0
  9
$ANGDIR
 70
     0
  9
$PDMODE
 70
     0
  9
$PDSIZE
 40
-1.0
  9
$PLINEWID
 40
0.0
  9
$SPLFRAME
 70
     0
  9
$SPLINETYPE
 70
     6
  9
$SPLINESEGS
 70
     8
  9
$HANDSEED
  5
324
  9
$SURFTAB1
 70
     6
  9
$SURFTAB2
 70
     6
  9
$SURFTYPE
 70
     6
  9
$SURFU
 70
     6
  9
$SURFV
 70
     6
  9
$UCSBASE
  2

  9
$UCSNAME
  2

  9
$UCSORG
 10
0.0
 20
0.0
 30
0.0
  9
$UCSXDIR
 10
1.0
 20
0.0
 30
0.0
  9
$UCSYDIR
 10
0.0
 20
1.0
 30
0.0
  9
$UCSORTHOREF
  2

  9
$UCSORTHOVIEW
 70
     0
  9
$UCSORGTOP
 10
0.0
 20
0.0
 30
0.0
  9
$UCSORGBOTTOM
 10
0.0
 20
0.0
 30
0.0
  9
$UCSORGLEFT
 10
0.0
 20
0.0
 30
0.0
  9
$UCSORGRIGHT
 10
0.0
 20
0.0
 30
0.0
  9
$UCSORGFRONT
 10
0.0
 20
0.0
 30
0.0
  9
$UCSORGBACK
 10
0.0
 20
0.0
 30
0.0
  9
$PUCSBASE
  2

  9
$PUCSNAME
  2

  9
$PUCSORG
 10
0.0
 20
0.0
 30
0.0
  9
$PUCSXDIR
 10
1.0
 20
0.0
 30
0.0
  9
$PUCSYDIR
 10
0.0
 20
1.0
 30
0.0
  9
$PUCSORTHOREF
  2

  9
$PUCSORTHOVIEW
 70
     0
  9
$PUCSORGTOP
 10
0.0
 20
0.0
 30
0.0
  9
$PUCSORGBOTTOM
 10
0.0
 20
0.0
 30
0.0
  9
$PUCSORGLEFT
 10
0.0
 20
0.0
 30
0.0
  9
$PUCSORGRIGHT
 10
0.0
 20
0.0
 30
0.0
  9
$PUCSORGFRONT
 10
0.0
 20
0.0
 30
0.0
  9
$PUCSORGBACK
 10
0.0
 20
0.0
 30
0.0
  9
$USERI1
 70
     0
  9
$USERI2
 70
     0
  9
$USERI3
 70
     0
  9
$USERI4
 70
     0
  9
$USERI5
 70
     0
  9
$USERR1
 40
0.0
  9
$USERR2
 40
0.0
  9
$USERR3
 40
0.0
  9
$USERR4
 40
0.0
  9
$USERR5
 40
0.0
  9
$WORLDVIEW
 70
     1
  9
$SHADEDGE
 70
     3
  9
$SHADEDIF
 70
    70
  9
$TILEMODE
 70
     0
  9
$MAXACTVP
 70
    64
  9
$PINSBASE
 10
0.0
 20
0.0
 30
0.0
  9
$PLIMCHECK
 70
     0
  9
$PEXTMIN
 10
-132.8703169019
 20
-18.5
 30
0.0
  9
$PEXTMAX
 10
-33.2403169019
 20
203.0
 30
0.0
  9
$PLIMMIN
 10
0.0
 20
0.0
  9
$PLIMMAX
 10
0.0
 20
0.0
  9
$UNITMODE
 70
     0
  9
$VISRETAIN
 70
     1
  9
$PLINEGEN
 70
     0
  9
$PSLTSCALE
 70
     1
  9
$TREEDEPTH
 70
  3020
  9
$CMLSTYLE
  2
Standard
  9
$CMLJUST
 70
     0
  9
$CMLSCALE
 40
20.0
  9
$PROXYGRAPHICS
 70
     1
  9
$MEASUREMENT
 70
     1
  9
$CELWEIGHT
370
    -1
  9
$ENDCAPS
280
     0
  9
$JOINSTYLE
280
     0
  9
$LWDISPLAY
290
     1
  9
$INSUNITS
 70
     4
  9
$HYPERLINKBASE
  1

  9
$STYLESHEET
  1

  9
$XEDIT
290
     1
  9
$CEPSNTYPE
380
     0
  9
$PSTYLEMODE
290
     1
  9
$FINGERPRINTGUID
  2
{dad67c23-e0b0-43ec-bc5a-c030680bb0fe}
  9
$VERSIONGUID
  2
{FAEB1C32-E019-11D5-929B-00C0DF256EC4}
  9
$EXTNAMES
290
     1
  9
$PSVPSCALE
 40
0.0
  9
$OLESTARTUP
290
     0
  0
ENDSEC
  0
SECTION
  2
CLASSES
  0
CLASS
  1
ACDBDICTIONARYWDFLT
  2
AcDbDictionaryWithDefault
  3
ObjectDBX Classes
 90
        0
280
     0
281
     0
  0
CLASS
  1
VISUALSTYLE
  2
AcDbVisualStyle
  3
ObjectDBX Classes
 90
     4095
280
     0
281
     0
  0
CLASS
  1
MATERIAL
  2
AcDbMaterial
  3
ObjectDBX Classes
 90
     1153
280
     0
281
     0
  0
CLASS
  1
SCALE
  2
AcDbScale
  3
ObjectDBX Classes
 90
     1153
280
     0
281
     0
  0
CLASS
  1
TABLESTYLE
  2
AcDbTableStyle
  3
ObjectDBX Classes
 90
     4095
280
     0
281
     0
  0
CLASS
  1
MLEADERSTYLE
  2
AcDbMLeaderStyle
  3
ACDB_MLEADERSTYLE_CLASS
 90
     4095
280
     0
281
     0
  0
CLASS
  1
SUN
  2
AcDbSun
  3
SCENEOE
 90
     1153
280
     0
281
     0
  0
CLASS
  1
ACDBPLACEHOLDER
  2
AcDbPlaceHolder
  3
ObjectDBX Classes
 90
        0
280
     0
281
     0
  0
CLASS
  1
LAYOUT
  2
AcDbLayout
  3
ObjectDBX Classes
 90
        0
280
     0
281
     0
  0
ENDSEC
  0
SECTION
  2
TABLES
  0
TABLE
  2
VPORT
  5
8
330
0
100
AcDbSymbolTable
 70
     1
  0
VPORT
  5
29
330
8
100
AcDbSymbolTableRecord
100
AcDbViewportTableRecord
  2
*Active
 70
     0
 10
0.0
 20
0.0
 11
1.0
 21
1.0
 12
-83.0553169019
 22
92.25
 13
0.0
 23
0.0
 14
10.0
 24
10.0
 15
10.0
 25
10.0
 16
0.0
 26
0.0
 36
1.0
 17
0.0
 27
0.0
 37
0.0
 40
225.93
 41
0.4497968397
 42
50.0
 43
0.0
 44
0.0
 50
0.0
 51
0.0
 71
     0
 72
   100
 73
     1
 74
     3
 75
     0
 76
     0
 77
     0
 78
     0
281
     0
 65
     1
110
0.0
120
0.0
130
0.0
111
1.0
121
0.0
131
0.0
112
0.0
122
1.0
132
0.0
 79
     0
146
0.0
  0
ENDTAB
  0
TABLE
  2
LTYPE
  5
5
330
0
100
AcDbSymbolTable
 70
     6
  0
LTYPE
  5
14
330
5
100
AcDbSymbolTableRecord
100
AcDbLinetypeTableRecord
  2
ByBlock
 70
     0
  3

 72
    65
 73
     0
 40
0.0
  0
LTYPE
  5
15
330
5
100
AcDbSymbolTableRecord
100
AcDbLinetypeTableRecord
  2
ByLayer
 70
     0
  3

 72
    65
 73
     0
 40
0.0
  0
LTYPE
  5
16
330
5
100
AcDbSymbolTableRecord
100
AcDbLinetypeTableRecord
  2
Continuous
 70
     0
  3
Solid line
 72
    65
 73
     0
 40
0.0
  0
LTYPE
  5
6E
330
5
100
AcDbSymbolTableRecord
100
AcDbLinetypeTableRecord
  2
HIDDEN
 70
     0
  3
Hidden __ __ __ __ __ __ __ __ __ __ __ __ __ __
 72
    65
 73
     2
 40
1.905
 49
1.27
 74
     0
 49
-0.635
 74
     0
  0
LTYPE
  5
6F
330
5
100
AcDbSymbolTableRecord
100
AcDbLinetypeTableRecord
  2
PHANTOM
 70
     0
  3
Phantom ______  __  __  ______  __  __  ______
 72
    65
 73
     6
 40
12.7
 49
6.35
 74
     0
 49
-1.27
 74
     0
 49
1.27
 74
     0
 49
-1.27
 74
     0
 49
1.27
 74
     0
 49
-1.27
 74
     0
  0
LTYPE
  5
70
330
5
100
AcDbSymbolTableRecord
100
AcDbLinetypeTableRecord
  2
CENTER
 70
     0
  3
Center ____ _ ____ _ ____ _ ____ _ ____ _ ____
 72
    65
 73
     4
 40
10.16
 49
6.35
 74
     0
 49
-1.27
 74
     0
 49
1.27
 74
     0
 49
-1.27
 74
     0
  0
LTYPE
  5
71
330
5
100
AcDbSymbolTableRecord
100
AcDbLinetypeTableRecord
  2
CENTERX2
 70
     0
  3
Center (2x) ________  __  ________  __  _____
 72
    65
 73
     4
 40
20.32
 49
12.7
 74
     0
 49
-2.54
 74
     0
 49
2.54
 74
     0
 49
-2.54
 74
     0
  0
LTYPE
  5
72
330
5
100
AcDbSymbolTableRecord
100
AcDbLinetypeTableRecord
  2
DOT2
 70
     0
  3
Dot (.5x) ........................................
 72
    65
 73
     2
 40
0.635
 49
0.0
 74
     0
 49
-0.635
 74
     0
  0
ENDTAB
  0
TABLE
  2
LAYER
  5
2
330
0
100
AcDbSymbolTable
 70
     1
  0
LAYER
  5
10
330
2
100
AcDbSymbolTableRecord
100
AcDbLayerTableRecord
  2
0
 70
     0
 62
     7
  6
Continuous
370
    -3
390
F
  0
ENDTAB
  0
TABLE
  2
STYLE
  5
3
330
0
100
AcDbSymbolTable
 70
     1
  0
STYLE
  5
11
330
3
100
AcDbSymbolTableRecord
100
AcDbTextStyleTableRecord
  2
Standard
 70
     0
 40
0.0
 41
1.0
 50
0.0
 71
     0
 42
3.5
  3
txt
  4

  0
ENDTAB
  0
TABLE
  2
VIEW
  5
6
330
0
100
AcDbSymbolTable
 70
     0
  0
ENDTAB
  0
TABLE
  2
UCS
  5
7
330
0
100
AcDbSymbolTable
 70
     0
  0
ENDTAB
  0
TABLE
  2
APPID
  5
9
330
0
100
AcDbSymbolTable
 70
     1
  0
APPID
  5
12
330
9
100
AcDbSymbolTableRecord
100
AcDbRegAppTableRecord
  2
ACAD
 70
     0
  0
ENDTAB
  0
TABLE
  2
DIMSTYLE
  5
A
330
0
100
AcDbSymbolTable
 70
     1
100
AcDbDimStyleTable
  0
DIMSTYLE
105
27
330
A
100
AcDbSymbolTableRecord
100
AcDbDimStyleTableRecord
  2
ISO-25
 70
     0
 41
2.5
 42
0.625
 43
3.75
 44
1.25
 73
     0
 74
     0
 77
     1
 78
     8
140
2.5
141
2.5
143
0.0393700787
147
0.625
171
     3
172
     1
178
     0
271
     2
272
     2
274
     3
278
    44
283
     0
284
     8
340
11
  0
ENDTAB
  0
TABLE
  2
BLOCK_RECORD
  5
1
330
0
100
AcDbSymbolTable
 70
     1
  0
BLOCK_RECORD
  5
1F
330
1
100
AcDbSymbolTableRecord
100
AcDbBlockTableRecord
  2
*Model_Space
340
22
  0
BLOCK_RECORD
  5
23
330
1
100
AcDbSymbolTableRecord
100
AcDbBlockTableRecord
  2
*Paper_Space
340
26
  0
BLOCK_RECORD
  5
1B
330
1
100
AcDbSymbolTableRecord
100
AcDbBlockTableRecord
  2
*Paper_Space0
340
1E
  0
ENDTAB
  0
ENDSEC
  0
SECTION
  2
BLOCKS
  0
BLOCK
  5
20
330
1F
100
AcDbEntity
  8
0
100
AcDbBlockBegin
  2
*Model_Space
 70
     0
 10
0.0
 20
0.0
 30
0.0
  3
*Model_Space
  1

  0
ENDBLK
  5
21
330
1F
100
AcDbEntity
  8
0
100
AcDbBlockEnd
  0
BLOCK
  5
24
330
23
100
AcDbEntity
 67
     1
  8
0
100
AcDbBlockBegin
  2
*Paper_Space
 70
     0
 10
0.0
 20
0.0
 30
0.0
  3
*Paper_Space
  1

  0
ENDBLK
  5
25
330
23
100
AcDbEntity
 67
     1
  8
0
100
AcDbBlockEnd
  0
BLOCK
  5
1C
330
1B
100
AcDbEntity
  8
0
100
AcDbBlockBegin
  2
*Paper_Space0
 70
     0
 10
0.0
 20
0.0
 30
0.0
  3
*Paper_Space0
  1

  0
CIRCLE
  5
187
330
1B
100
AcDbEntity
  8
0
  6
Continuous
 62
     7
370
    25
100
AcDbCircle
 10
0.0
 20
161.5
 30
0.0
 40
41.49999999999999
  0
SPLINE
  5
19C
330
1B
100
AcDbEntity
  8
0
  6
Continuous
 62
     7
370
    25
100
AcDbSpline
210
0.0
220
0.0
230
1.0
 70
     8
 71
     3
 72
     9
 73
     5
 74
     0
 42
0.000000001
 43
0.00000001
 40
0.0
 40
0.0
 40
0.0
 40
0.0
 40
0.4999867049763688
 40
0.9999999999999999
 40
0.9999999999999999
 40
0.9999999999999999
 40
0.9999999999999999
 10
9.179782192526568
 20
-16.36096399490702
 30
0.0
 10
9.315208433332005
 20
-16.28270393819448
 30
0.0
 10
9.586068117114678
 20
-16.12617966278154
 30
0.0
 10
9.856934593110571
 20
-15.96966825531861
 30
0.0
 10
9.992371432284717
 20
-15.89141047076428
 30
0.0
  0
SPLINE
  5
19D
330
1B
100
AcDbEntity
  8
0
  6
Continuous
 62
     7
370
    25
100
AcDbSpline
210
0.0
220
0.0
230
1.0
 70
     8
 71
     3
 72
     9
 73
     5
 74
     0
 42
0.000000001
 43
0.00000001
 40
0.0
 40
0.0
 40
0.0
 40
0.0
 40
0.4999867049763739
 40
0.9999999999999999
 40
0.9999999999999999
 40
0.9999999999999999
 40
0.9999999999999999
 10
9.17978219252657
 20
-14.86096399490702
 30
0.0
 10
9.31520843333201
 20
-14.78270393819449
 30
0.0
 10
9.586068117114683
 20
-14.62617966278154
 30
0.0
 10
9.856934593110575
 20
-14.4696682553186
 30
0.0
 10
9.992371432284717
 20
-14.39141047076428
 30
0.0
  0
SPLINE
  5
19E
330
1B
100
AcDbEntity
  8
0
  6
Continuous
 62
     7
370
    25
100
AcDbSpline
210
0.0
220
0.0
230
1.0
 70
     8
 71
     3
 72
     9
 73
     5
 74
     0
 42
0.000000001
 43
0.00000001
 40
0.0
 40
0.0
 40
0.0
 40
0.0
 40
0.4999867049763722
 40
0.9999999999999999
 40
0.9999999999999999
 40
0.9999999999999999
 40
0.9999999999999999
 10
9.17978219252657
 20
-13.36096399490702
 30
0.0
 10
9.315208433332009
 20
-13.28270393819449
 30
0.0
 10
9.586068117114682
 20
-13.12617966278154
 30
0.0
 10
9.856934593110573
 20
-12.9696682553186
 30
0.0
 10
9.992371432284717
 20
-12.89141047076428
 30
0.0
  0
SPLINE
  5
19F
330
1B
100
AcDbEntity
  8
0
  6
Continuous
 62
     7
370
    25
100
AcDbSpline
210
0.0
220
0.0
230
1.0
 70
     8
 71
     3
 72
     9
 73
     5
 74
     0
 42
0.000000001
 43
0.00000001
 40
0.0
 40
0.0
 40
0.0
 40
0.0
 40
0.4999867049763707
 40
1.0
 40
1.0
 40
1.0
 40
1.0
 10
9.179782192526568
 20
-11.86096399490702
 30
0.0
 10
9.315208433332009
 20
-11.78270393819449
 30
0.0
 10
9.586068117114676
 20
-11.62617966278154
 30
0.0
 10
9.856934593110571
 20
-11.4696682553186
 30
0.0
 10
9.992371432284717
 20
-11.39141047076428
 30
0.0
  0
SPLINE
  5
1A0
330
1B
100
AcDbEntity
  8
0
  6
Continuous
 62
     7
370
    25
100
AcDbSpline
210
0.0
220
0.0
230
1.0
 70
     8
 71
     3
 72
     9
 73
     5
 74
     0
 42
0.000000001
 43
0.00000001
 40
0.0
 40
0.0
 40
0.0
 40
0.0
 40
0.499986704976369
 40
0.9999999999999999
 40
0.9999999999999999
 40
0.9999999999999999
 40
0.9999999999999999
 10
9.179782192526568
 20
-10.36096399490702
 30
0.0
 10
9.315208433332009
 20
-10.28270393819449
 30
0.0
 10
9.586068117114678
 20
-10.12617966278154
 30
0.0
 10
9.856934593110571
 20
-9.9696682553186
 30
0.0
 10
9.992371432284717
 20
-9.891410470764278
 30
0.0
  0
SPLINE
  5
1A1
330
1B
100
AcDbEntity
  8
0
  6
Continuous
 62
     7
370
    25
100
AcDbSpline
210
0.0
220
0.0
230
1.0
 70
     8
 71
     3
 72
     9
 73
     5
 74
     0
 42
0.000000001
 43
0.00000001
 40
0.0
 40
0.0
 40
0.0
 40
0.0
 40
0.5051845566898595
 40
1.0
 40
1.0
 40
1.0
 40
1.0
 10
-9.99237143228474
 20
-16.64141047076427
 30
0.0
 10
-9.856934587256386
 20
-16.71966824422772
 30
0.0
 10
-9.58884079215746
 20
-16.87457751931762
 30
0.0
 10
-9.320753719744076
 20
-17.02949953063631
 30
0.0
 10
-9.188100096162128
 20
-17.10615733434546
 30
0.0
  0
SPLINE
  5
1A2
330
1B
100
AcDbEntity
  8
0
  6
Continuous
 62
     7
370
    25
100
AcDbSpline
210
0.0
220
0.0
230
1.0
 70
     8
 71
     3
 72
     9
 73
     5
 74
     0
 42
0.000000001
 43
0.00000001
 40
0.0
 40
0.0
 40
0.0
 40
0.0
 40
0.5051851619966813
 40
1.0
 40
1.0
 40
1.0
 40
1.0
 10
-9.99237143228474
 20
-15.14141047076427
 30
0.0
 10
-9.856934587255703
 20
-15.21966824422642
 30
0.0
 10
-9.5888411133822
 20
-15.37457733370332
 30
0.0
 10
-9.320754362186182
 20
-15.52949915939372
 30
0.0
 10
-9.188101059822289
 20
-15.60615677747591
 30
0.0
  0
SPLINE
  5
1A3
330
1B
100
AcDbEntity
  8
0
  6
Continuous
 62
     7
370
    25
100
AcDbSpline
210
0.0
220
0.0
230
1.0
 70
     8
 71
     3
 72
     9
 73
     5
 74
     0
 42
0.000000001
 43
0.00000001
 40
0.0
 40
0.0
 40
0.0
 40
0.0
 40
0.5051850215742347
 40
1.0
 40
1.0
 40
1.0
 40
1.0
 10
-9.99237143228474
 20
-13.64141047076428
 30
0.0
 10
-9.85693458725586
 20
-13.71966824422671
 30
0.0
 10
-9.588841038862766
 20
-13.87457737676312
 30
0.0
 10
-9.320754213149021
 20
-14.02949924551657
 30
0.0
 10
-9.188100836267244
 20
-14.10615690666149
 30
0.0
  0
SPLINE
  5
1A4
330
1B
100
AcDbEntity
  8
0
  6
Continuous
 62
     7
370
    25
100
AcDbSpline
210
0.0
220
0.0
230
1.0
 70
     8
 71
     3
 72
     9
 73
     5
 74
     0
 42
0.000000001
 43
0.00000001
 40
0.0
 40
0.0
 40
0.0
 40
0.0
 40
0.5051842704454376
 40
0.9999999999999999
 40
0.9999999999999999
 40
0.9999999999999999
 40
0.9999999999999999
 10
-9.99237143228474
 20
-12.14141047076428
 30
0.0
 10
-9.85693458725671
 20
-12.21966824422832
 30
0.0
 10
-9.58884064025276
 20
-12.37457760709319
 30
0.0
 10
-9.32075341593816
 20
-12.52949970619406
 30
0.0
 10
-9.18809964045467
 20
-12.60615759768478
 30
0.0
  0
SPLINE
  5
1A5
330
1B
100
AcDbEntity
  8
0
  6
Continuous
 62
     7
370
    25
100
AcDbSpline
210
0.0
220
0.0
230
1.0
 70
     8
 71
     3
 72
     9
 73
     5
 74
     0
 42
0.000000001
 43
0.00000001
 40
0.0
 40
0.0
 40
0.0
 40
0.0
 40
0.5051841843777352
 40
1.0
 40
1.0
 40
1.0
 40
1.0
 10
-9.99237143228474
 20
-10.64141047076428
 30
0.0
 10
-9.85693458725681
 20
-10.71966824422851
 30
0.0
 10
-9.588840594578164
 20
-10.8745776334855
 30
0.0
 10
-9.320753324590012
 20
-11.02949975898064
 30
0.0
 10
-9.188099503432877
 20
-11.10615767686546
 30
0.0
  0
SPLINE
  5
1A6
330
1B
100
AcDbEntity
  8
0
  6
Continuous
 62
     7
370
    25
100
AcDbSpline
210
0.0
220
0.0
230
1.0
 70
     8
 71
     3
 72
     9
 73
     5
 74
     0
 42
0.000000001
 43
0.00000001
 40
0.0
 40
0.0
 40
0.0
 40
0.0
 40
0.6298589840038881
 40
1.0
 40
1.0
 40
1.0
 40
1.0
 10
-9.99237143228474
 20
-18.14141047076427
 30
0.0
 10
-9.85693444611675
 20
-18.21966797683655
 30
0.0
 10
-9.641906972336761
 20
-18.34391405105275
 30
0.0
 10
-9.42688489055244
 20
-18.46817034048577
 30
0.0
 10
-9.347296398739195
 20
-18.51416268970041
 30
0.0
  0
SPLINE
  5
1A7
330
1B
100
AcDbEntity
  8
0
  6
Continuous
 62
     7
370
    25
100
AcDbSpline
210
0.0
220
0.0
230
1.0
 70
     8
 71
     3
 72
     9
 73
     5
 74
     0
 42
0.000000001
 43
0.00000001
 40
0.0
 40
0.0
 40
0.0
 40
0.0
 40
0.4999867049763722
 40
0.9999999999999999
 40
0.9999999999999999
 40
0.9999999999999999
 40
0.9999999999999999
 10
9.17978219252657
 20
-17.86096399490702
 30
0.0
 10
9.315208433332009
 20
-17.78270393819448
 30
0.0
 10
9.586068117114682
 20
-17.62617966278154
 30
0.0
 10
9.856934593110573
 20
-17.4696682553186
 30
0.0
 10
9.992371432284717
 20
-17.39141047076428
 30
0.0
  0
SPLINE
  5
1A8
330
1B
100
AcDbEntity
  8
0
  6
Continuous
 62
     7
370
    25
100
AcDbSpline
210
0.0
220
0.0
230
1.0
 70
     8
 71
     3
 72
     9
 73
     5
 74
     0
 42
0.000000001
 43
0.00000001
 40
0.0
 40
0.0
 40
0.0
 40
0.0
 40
0.5055097672268153
 40
0.9999999999999999
 40
0.9999999999999999
 40
0.9999999999999999
 40
0.9999999999999999
 10
9.99188198984438
 20
-17.18580591446546
 30
0.0
 10
9.856440155515054
 20
-17.1075454740819
 30
0.0
 10
9.588508963854121
 20
-16.95273058135907
 30
0.0
 10
9.32058541580193
 20
-16.79790245494286
 30
0.0
 10
9.188099838160186
 20
-16.72134145867149
 30
0.0
  0
SPLINE
  5
1A9
330
1B
100
AcDbEntity
  8
0
  6
Continuous
 62
     7
370
    25
100
AcDbSpline
210
0.0
220
0.0
230
1.0
 70
     8
 71
     3
 72
     9
 73
     5
 74
     0
 42
0.000000001
 43
0.00000001
 40
0.0
 40
0.0
 40
0.0
 40
0.0
 40
0.5055095146550982
 40
1.0
 40
1.0
 40
1.0
 40
1.0
 10
9.99188198984438
 20
-15.68580591446546
 30
0.0
 10
9.856440155515381
 20
-15.60754547408134
 30
0.0
 10
9.58850882998651
 20
-15.45273050400601
 30
0.0
 10
9.320585148070197
 20
-15.29790230023069
 30
0.0
 10
9.188099436564007
 20
-15.22134122660075
 30
0.0
  0
SPLINE
  5
1AA
330
1B
100
AcDbEntity
  8
0
  6
Continuous
 62
     7
370
    25
100
AcDbSpline
210
0.0
220
0.0
230
1.0
 70
     8
 71
     3
 72
     9
 73
     5
 74
     0
 42
0.000000001
 43
0.00000001
 40
0.0
 40
0.0
 40
0.0
 40
0.0
 40
0.5055100901145967
 40
1.0
 40
1.0
 40
1.0
 40
1.0
 10
9.99188198984438
 20
-14.18580591446546
 30
0.0
 10
9.856440155514642
 20
-14.10754547408262
 30
0.0
 10
9.588509134990334
 20
-13.95273068024716
 30
0.0
 10
9.320585758069889
 20
-13.79790265272676
 30
0.0
 10
9.188100351560303
 20
-13.72134175535047
 30
0.0
  0
SPLINE
  5
1AB
330
1B
100
AcDbEntity
  8
0
  6
Continuous
 62
     7
370
    25
100
AcDbSpline
210
0.0
220
0.0
230
1.0
 70
     8
 71
     3
 72
     9
 73
     5
 74
     0
 42
0.000000001
 43
0.00000001
 40
0.0
 40
0.0
 40
0.0
 40
0.0
 40
0.5055106061600397
 40
1.0
 40
1.0
 40
1.0
 40
1.0
 10
9.99188198984438
 20
-12.68580591446546
 30
0.0
 10
9.856440155513978
 20
-12.60754547408377
 30
0.0
 10
9.588509408503056
 20
-12.45273083829171
 30
0.0
 10
9.32058630508819
 20
-12.29790296882824
 30
0.0
 10
9.18810117208485
 20
-12.22134222950771
 30
0.0
  0
SPLINE
  5
1AC
330
1B
100
AcDbEntity
  8
0
  6
Continuous
 62
     7
370
    25
100
AcDbSpline
210
0.0
220
0.0
230
1.0
 70
     8
 71
     3
 72
     9
 73
     5
 74
     0
 42
0.000000001
 43
0.00000001
 40
0.0
 40
0.0
 40
0.0
 40
0.0
 40
0.5055102498438423
 40
0.9999999999999999
 40
0.9999999999999999
 40
0.9999999999999999
 40
0.9999999999999999
 10
9.99188198984438
 20
-11.18580591446545
 30
0.0
 10
9.856440155514436
 20
-11.10754547408298
 30
0.0
 10
9.588509219649566
 20
-10.95273072916603
 30
0.0
 10
9.320585927386146
 20
-10.79790275056831
 30
0.0
 10
9.18810060553379
 20
-10.72134190211435
 30
0.0
  0
SPLINE
  5
1AD
330
1B
100
AcDbEntity
  8
0
  6
Continuous
 62
     7
370
    25
100
AcDbSpline
210
0.0
220
0.0
230
1.0
 70
     8
 71
     3
 72
     9
 73
     5
 74
     0
 42
0.000000001
 43
0.00000001
 40
0.0
 40
0.0
 40
0.0
 40
0.0
 40
0.4999861759511215
 40
1.0
 40
1.0
 40
1.0
 40
1.0
 10
-9.179265085301632
 20
-15.96623611224399
 30
0.0
 10
-9.314695559636409
 20
-16.04449892688876
 30
0.0
 10
-9.585563997303007
 20
-16.20102888393389
 30
0.0
 10
-9.856440162593701
 20
-16.35754546182638
 30
0.0
 10
-9.991881989844398
 20
-16.43580591446546
 30
0.0
  0
SPLINE
  5
1AE
330
1B
100
AcDbEntity
  8
0
  6
Continuous
 62
     7
370
    25
100
AcDbSpline
210
0.0
220
0.0
230
1.0
 70
     8
 71
     3
 72
     9
 73
     5
 74
     0
 42
0.000000001
 43
0.00000001
 40
0.0
 40
0.0
 40
0.0
 40
0.0
 40
0.4999861759511197
 40
1.0
 40
1.0
 40
1.0
 40
1.0
 10
-9.179265085301632
 20
-14.46623611224399
 30
0.0
 10
-9.314695559636409
 20
-14.54449892688876
 30
0.0
 10
-9.585563997303005
 20
-14.70102888393388
 30
0.0
 10
-9.856440162593701
 20
-14.85754546182638
 30
0.0
 10
-9.991881989844398
 20
-14.93580591446546
 30
0.0
  0
SPLINE
  5
1AF
330
1B
100
AcDbEntity
  8
0
  6
Continuous
 62
     7
370
    25
100
AcDbSpline
210
0.0
220
0.0
230
1.0
 70
     8
 71
     3
 72
     9
 73
     5
 74
     0
 42
0.000000001
 43
0.00000001
 40
0.0
 40
0.0
 40
0.0
 40
0.0
 40
0.499986175951122
 40
1.0
 40
1.0
 40
1.0
 40
1.0
 10
-9.179265085301632
 20
-12.96623611224398
 30
0.0
 10
-9.31469555963641
 20
-13.04449892688876
 30
0.0
 10
-9.585563997303007
 20
-13.20102888393387
 30
0.0
 10
-9.856440162593703
 20
-13.35754546182638
 30
0.0
 10
-9.991881989844398
 20
-13.43580591446546
 30
0.0
  0
SPLINE
  5
1B0
330
1B
100
AcDbEntity
  8
0
  6
Continuous
 62
     7
370
    25
100
AcDbSpline
210
0.0
220
0.0
230
1.0
 70
     8
 71
     3
 72
     9
 73
     5
 74
     0
 42
0.000000001
 43
0.00000001
 40
0.0
 40
0.0
 40
0.0
 40
0.0
 40
0.4999861759511229
 40
1.0
 40
1.0
 40
1.0
 40
1.0
 10
-9.179265085301632
 20
-11.46623611224398
 30
0.0
 10
-9.314695559636409
 20
-11.54449892688876
 30
0.0
 10
-9.585563997303009
 20
-11.70102888393387
 30
0.0
 10
-9.856440162593703
 20
-11.85754546182638
 30
0.0
 10
-9.991881989844398
 20
-11.93580591446545
 30
0.0
  0
SPLINE
  5
1B1
330
1B
100
AcDbEntity
  8
0
  6
Continuous
 62
     7
370
    25
100
AcDbSpline
210
0.0
220
0.0
230
1.0
 70
     8
 71
     3
 72
     9
 73
     5
 74
     0
 42
0.000000001
 43
0.00000001
 40
0.0
 40
0.0
 40
0.0
 40
0.0
 40
0.4999861759511181
 40
1.0
 40
1.0
 40
1.0
 40
1.0
 10
-9.179265085301632
 20
-17.46623611224399
 30
0.0
 10
-9.314695559636409
 20
-17.54449892688877
 30
0.0
 10
-9.585563997303007
 20
-17.70102888393388
 30
0.0
 10
-9.856440162593701
 20
-17.85754546182638
 30
0.0
 10
-9.991881989844398
 20
-17.93580591446546
 30
0.0
  0
CIRCLE
  5
1C6
330
1B
100
AcDbEntity
  8
0
  6
Continuous
 62
     7
370
    25
100
AcDbCircle
 10
0.0
 20
161.5
 30
0.0
 40
38.40683927060567
  0
CIRCLE
  5
1C7
330
1B
100
AcDbEntity
  8
0
  6
Continuous
 62
     7
370
    25
100
AcDbCircle
 10
0.0
 20
161.5
 30
0.0
 40
32.71495916640635
  0
CIRCLE
  5
1C8
330
1B
100
AcDbEntity
  8
0
  6
Continuous
 62
     7
370
    25
100
AcDbCircle
 10
10.4120405304
 20
183.5326030176
 30
0.0
 40
1.249742261192836
  0
CIRCLE
  5
1C9
330
1B
100
AcDbEntity
  8
0
  6
Continuous
 62
     7
370
    25
100
AcDbCircle
 10
10.4120405304
 20
183.5326030176
 30
0.0
 40
0.4997422611930631
  0
CIRCLE
  5
1CA
330
1B
100
AcDbEntity
  8
0
  6
Continuous
 62
     7
370
    25
100
AcDbCircle
 10
23.4695668561
 20
168.0593913838
 30
0.0
 40
1.249742261192864
  0
CIRCLE
  5
1CB
330
1B
100
AcDbEntity
  8
0
  6
Continuous
 62
     7
370
    25
100
AcDbCircle
 10
23.4695668561
 20
168.0593913838
 30
0.0
 40
0.4997422611933189
  0
CIRCLE
  5
1CC
330
1B
100
AcDbEntity
  8
0
  6
Continuous
 62
     7
370
    25
100
AcDbCircle
 10
24.3668785981
 20
161.1815488656
 30
0.0
 40
1.249742261192836
  0
CIRCLE
  5
1CD
330
1B
100
AcDbEntity
  8
0
  6
Continuous
 62
     7
370
    25
100
AcDbCircle
 10
24.3668785981
 20
161.1815488656
 30
0.0
 40
0.4997422611933473
  0
CIRCLE
  5
1CE
330
1B
100
AcDbEntity
  8
0
  6
Continuous
 62
     7
370
    25
100
AcDbCircle
 10
16.197581312
 20
179.7067169853
 30
0.0
 40
1.249742261192864
  0
CIRCLE
  5
1CF
330
1B
100
AcDbEntity
  8
0
  6
Continuous
 62
     7
370
    25
100
AcDbCircle
 10
16.197581312
 20
179.7067169853
 30
0.0
 40
0.4997422611931199
  0
CIRCLE
  5
1D0
330
1B
100
AcDbEntity
  8
0
  6
Continuous
 62
     7
370
    25
100
AcDbCircle
 10
20.6708903863
 20
174.4058310223
 30
0.0
 40
1.249742261192836
  0
CIRCLE
  5
1D1
330
1B
100
AcDbEntity
  8
0
  6
Continuous
 62
     7
370
    25
100
AcDbCircle
 10
20.6708903863
 20
174.4058310223
 30
0.0
 40
0.4997422611932052
  0
CIRCLE
  5
1D2
330
1B
100
AcDbEntity
  8
0
  6
Continuous
 62
     7
370
    25
100
AcDbCircle
 10
15.7162426935
 20
142.8762007275
 30
0.0
 40
1.249742261192864
  0
CIRCLE
  5
1D3
330
1B
100
AcDbEntity
  8
0
  6
Continuous
 62
     7
370
    25
100
AcDbCircle
 10
15.7162426935
 20
142.8762007275
 30
0.0
 40
0.4997422611933473
  0
CIRCLE
  5
1D4
330
1B
100
AcDbEntity
  8
0
  6
Continuous
 62
     7
370
    25
100
AcDbCircle
 10
9.8326938489
 20
139.2028182181
 30
0.0
 40
1.249742261192836
  0
CIRCLE
  5
1D5
330
1B
100
AcDbEntity
  8
0
  6
Continuous
 62
     7
370
    25
100
AcDbCircle
 10
9.8326938489
 20
139.2028182181
 30
0.0
 40
0.4997422611932905
  0
CIRCLE
  5
1D6
330
1B
100
AcDbEntity
  8
0
  6
Continuous
 62
     7
370
    25
100
AcDbCircle
 10
3.1525586259
 20
137.3358207702
 30
0.0
 40
1.249742261192864
  0
CIRCLE
  5
1D7
330
1B
100
AcDbEntity
  8
0
  6
Continuous
 62
     7
370
    25
100
AcDbCircle
 10
3.1525586259
 20
137.3358207702
 30
0.0
 40
0.4997422611932336
  0
CIRCLE
  5
1D8
330
1B
100
AcDbEntity
  8
0
  6
Continuous
 62
     7
370
    25
100
AcDbCircle
 10
-3.7829781479
 20
137.4264614136
 30
0.0
 40
1.249742261192864
  0
CIRCLE
  5
1D9
330
1B
100
AcDbEntity
  8
0
  6
Continuous
 62
     7
370
    25
100
AcDbCircle
 10
-3.7829781479
 20
137.4264614136
 30
0.0
 40
0.4997422611931484
  0
CIRCLE
  5
1DA
330
1B
100
AcDbEntity
  8
0
  6
Continuous
 62
     7
370
    25
100
AcDbCircle
 10
-2.75
 20
166.2631397208
 30
0.0
 40
1.999999999999972
  0
CIRCLE
  5
1DB
330
1B
100
AcDbEntity
  8
0
  6
Continuous
 62
     7
370
    25
100
AcDbCircle
 10
-2.75
 20
166.2631397208
 30
0.0
 40
1.249742261192836
  0
CIRCLE
  5
1DC
330
1B
100
AcDbEntity
  8
0
  6
Continuous
 62
     7
370
    25
100
AcDbCircle
 10
-2.75
 20
166.2631397208
 30
0.0
 40
0.4997422611928357
  0
CIRCLE
  5
1DD
330
1B
100
AcDbEntity
  8
0
  6
Continuous
 62
     7
370
    25
100
AcDbCircle
 10
2.75
 20
166.2631397208
 30
0.0
 40
1.999999999999972
  0
CIRCLE
  5
1DE
330
1B
100
AcDbEntity
  8
0
  6
Continuous
 62
     7
370
    25
100
AcDbCircle
 10
2.75
 20
166.2631397208
 30
0.0
 40
1.249742261192836
  0
CIRCLE
  5
1DF
330
1B
100
AcDbEntity
  8
0
  6
Continuous
 62
     7
370
    25
100
AcDbCircle
 10
2.75
 20
166.2631397208
 30
0.0
 40
0.4997422611928357
  0
CIRCLE
  5
1E0
330
1B
100
AcDbEntity
  8
0
  6
Continuous
 62
     7
370
    25
100
AcDbCircle
 10
5.5
 20
161.5
 30
0.0
 40
1.999999999999972
  0
CIRCLE
  5
1E1
330
1B
100
AcDbEntity
  8
0
  6
Continuous
 62
     7
370
    25
100
AcDbCircle
 10
5.5
 20
161.5
 30
0.0
 40
1.249742261192864
  0
CIRCLE
  5
1E2
330
1B
100
AcDbEntity
  8
0
  6
Continuous
 62
     7
370
    25
100
AcDbCircle
 10
5.5
 20
161.5
 30
0.0
 40
0.4997422611928641
  0
CIRCLE
  5
1E3
330
1B
100
AcDbEntity
  8
0
  6
Continuous
 62
     7
370
    25
100
AcDbCircle
 10
2.75
 20
156.7368602792
 30
0.0
 40
1.999999999999972
  0
CIRCLE
  5
1E4
330
1B
100
AcDbEntity
  8
0
  6
Continuous
 62
     7
370
    25
100
AcDbCircle
 10
2.75
 20
156.7368602792
 30
0.0
 40
1.249742261192836
  0
CIRCLE
  5
1E5
330
1B
100
AcDbEntity
  8
0
  6
Continuous
 62
     7
370
    25
100
AcDbCircle
 10
2.75
 20
156.7368602792
 30
0.0
 40
0.499742261192921
  0
CIRCLE
  5
1E6
330
1B
100
AcDbEntity
  8
0
  6
Continuous
 62
     7
370
    25
100
AcDbCircle
 10
-2.75
 20
156.7368602792
 30
0.0
 40
1.999999999999972
  0
CIRCLE
  5
1E7
330
1B
100
AcDbEntity
  8
0
  6
Continuous
 62
     7
370
    25
100
AcDbCircle
 10
-2.75
 20
156.7368602792
 30
0.0
 40
1.249742261192836
  0
CIRCLE
  5
1E8
330
1B
100
AcDbEntity
  8
0
  6
Continuous
 62
     7
370
    25
100
AcDbCircle
 10
-2.75
 20
156.7368602792
 30
0.0
 40
0.4997422611929494
  0
CIRCLE
  5
1E9
330
1B
100
AcDbEntity
  8
0
  6
Continuous
 62
     7
370
    25
100
AcDbCircle
 10
-5.5
 20
161.5
 30
0.0
 40
2.000000000000057
  0
CIRCLE
  5
1EA
330
1B
100
AcDbEntity
  8
0
  6
Continuous
 62
     7
370
    25
100
AcDbCircle
 10
-5.5
 20
161.5
 30
0.0
 40
1.249742261192864
  0
CIRCLE
  5
1EB
330
1B
100
AcDbEntity
  8
0
  6
Continuous
 62
     7
370
    25
100
AcDbCircle
 10
-5.5
 20
161.5
 30
0.0
 40
0.499742261192921
  0
CIRCLE
  5
1EC
330
1B
100
AcDbEntity
  8
0
  6
Continuous
 62
     7
370
    25
100
AcDbCircle
 10
-3.1307876809
 20
177.1262597739
 30
0.0
 40
1.999999999999972
  0
CIRCLE
  5
1ED
330
1B
100
AcDbEntity
  8
0
  6
Continuous
 62
     7
370
    25
100
AcDbCircle
 10
-3.1307876809
 20
177.1262597739
 30
0.0
 40
1.249742261192864
  0
CIRCLE
  5
1EE
330
1B
100
AcDbEntity
  8
0
  6
Continuous
 62
     7
370
    25
100
AcDbCircle
 10
-3.1307876809
 20
177.1262597739
 30
0.0
 40
0.4997422611928641
  0
CIRCLE
  5
1EF
330
1B
100
AcDbEntity
  8
0
  6
Continuous
 62
     7
370
    25
100
AcDbCircle
 10
3.9592377866
 20
176.9371714435
 30
0.0
 40
1.999999999999943
  0
CIRCLE
  5
1F0
330
1B
100
AcDbEntity
  8
0
  6
Continuous
 62
     7
370
    25
100
AcDbCircle
 10
3.9592377866
 20
176.9371714435
 30
0.0
 40
1.249742261192807
  0
CIRCLE
  5
1F1
330
1B
100
AcDbEntity
  8
0
  6
Continuous
 62
     7
370
    25
100
AcDbCircle
 10
3.9592377866
 20
176.9371714435
 30
0.0
 40
0.4997422611928073
  0
CIRCLE
  5
1F2
330
1B
100
AcDbEntity
  8
0
  6
Continuous
 62
     7
370
    25
100
AcDbCircle
 10
10.2650876536
 20
173.6905619841
 30
0.0
 40
1.999999999999972
  0
CIRCLE
  5
1F3
330
1B
100
AcDbEntity
  8
0
  6
Continuous
 62
     7
370
    25
100
AcDbCircle
 10
10.2650876536
 20
173.6905619841
 30
0.0
 40
1.249742261192836
  0
CIRCLE
  5
1F4
330
1B
100
AcDbEntity
  8
0
  6
Continuous
 62
     7
370
    25
100
AcDbCircle
 10
10.2650876536
 20
173.6905619841
 30
0.0
 40
0.4997422611928641
  0
CIRCLE
  5
1F5
330
1B
100
AcDbEntity
  8
0
  6
Continuous
 62
     7
370
    25
100
AcDbCircle
 10
14.5378110178
 20
168.0294622164
 30
0.0
 40
2.000000000000057
  0
CIRCLE
  5
1F6
330
1B
100
AcDbEntity
  8
0
  6
Continuous
 62
     7
370
    25
100
AcDbCircle
 10
14.5378110178
 20
168.0294622164
 30
0.0
 40
1.249742261192864
  0
CIRCLE
  5
1F7
330
1B
100
AcDbEntity
  8
0
  6
Continuous
 62
     7
370
    25
100
AcDbCircle
 10
14.5378110178
 20
168.0294622164
 30
0.0
 40
0.4997422611928641
  0
CIRCLE
  5
1F8
330
1B
100
AcDbEntity
  8
0
  6
Continuous
 62
     7
370
    25
100
AcDbCircle
 10
15.9311426154
 20
161.0751223781
 30
0.0
 40
2.000000000000057
  0
CIRCLE
  5
1F9
330
1B
100
AcDbEntity
  8
0
  6
Continuous
 62
     7
370
    25
100
AcDbCircle
 10
15.9311426154
 20
161.0751223781
 30
0.0
 40
1.249742261192864
  0
CIRCLE
  5
1FA
330
1B
100
AcDbEntity
  8
0
  6
Continuous
 62
     7
370
    25
100
AcDbCircle
 10
15.9311426154
 20
161.0751223781
 30
0.0
 40
0.4997422611928926
  0
CIRCLE
  5
1FB
330
1B
100
AcDbEntity
  8
0
  6
Continuous
 62
     7
370
    25
100
AcDbCircle
 10
14.1691160353
 20
154.2049347636
 30
0.0
 40
2.000000000000057
  0
CIRCLE
  5
1FC
330
1B
100
AcDbEntity
  8
0
  6
Continuous
 62
     7
370
    25
100
AcDbCircle
 10
14.1691160353
 20
154.2049347636
 30
0.0
 40
1.249742261192836
  0
CIRCLE
  5
1FD
330
1B
100
AcDbEntity
  8
0
  6
Continuous
 62
     7
370
    25
100
AcDbCircle
 10
14.1691160353
 20
154.2049347636
 30
0.0
 40
0.499742261192921
  0
CIRCLE
  5
1FE
330
1B
100
AcDbEntity
  8
0
  6
Continuous
 62
     7
370
    25
100
AcDbCircle
 10
9.6007222517
 20
148.7796242873
 30
0.0
 40
1.999999999999972
  0
CIRCLE
  5
1FF
330
1B
100
AcDbEntity
  8
0
  6
Continuous
 62
     7
370
    25
100
AcDbCircle
 10
9.6007222517
 20
148.7796242873
 30
0.0
 40
1.249742261192836
  0
CIRCLE
  5
200
330
1B
100
AcDbEntity
  8
0
  6
Continuous
 62
     7
370
    25
100
AcDbCircle
 10
9.6007222517
 20
148.7796242873
 30
0.0
 40
0.499742261192921
  0
CIRCLE
  5
201
330
1B
100
AcDbEntity
  8
0
  6
Continuous
 62
     7
370
    25
100
AcDbCircle
 10
3.1307876809
 20
145.8737402261
 30
0.0
 40
1.999999999999972
  0
CIRCLE
  5
202
330
1B
100
AcDbEntity
  8
0
  6
Continuous
 62
     7
370
    25
100
AcDbCircle
 10
3.1307876809
 20
145.8737402261
 30
0.0
 40
1.249742261192836
  0
CIRCLE
  5
203
330
1B
100
AcDbEntity
  8
0
  6
Continuous
 62
     7
370
    25
100
AcDbCircle
 10
3.1307876809
 20
145.8737402261
 30
0.0
 40
0.4997422611929494
  0
CIRCLE
  5
204
330
1B
100
AcDbEntity
  8
0
  6
Continuous
 62
     7
370
    25
100
AcDbCircle
 10
-3.9592377866
 20
146.0628285565
 30
0.0
 40
2.000000000000057
  0
CIRCLE
  5
205
330
1B
100
AcDbEntity
  8
0
  6
Continuous
 62
     7
370
    25
100
AcDbCircle
 10
-3.9592377866
 20
146.0628285565
 30
0.0
 40
1.249742261192864
  0
CIRCLE
  5
206
330
1B
100
AcDbEntity
  8
0
  6
Continuous
 62
     7
370
    25
100
AcDbCircle
 10
-3.9592377866
 20
146.0628285565
 30
0.0
 40
0.4997422611929778
  0
CIRCLE
  5
207
330
1B
100
AcDbEntity
  8
0
  6
Continuous
 62
     7
370
    25
100
AcDbCircle
 10
-10.2650876536
 20
149.3094380159
 30
0.0
 40
1.999999999999972
  0
CIRCLE
  5
208
330
1B
100
AcDbEntity
  8
0
  6
Continuous
 62
     7
370
    25
100
AcDbCircle
 10
-10.2650876536
 20
149.3094380159
 30
0.0
 40
1.249742261192864
  0
CIRCLE
  5
209
330
1B
100
AcDbEntity
  8
0
  6
Continuous
 62
     7
370
    25
100
AcDbCircle
 10
-10.2650876536
 20
149.3094380159
 30
0.0
 40
0.4997422611930062
  0
CIRCLE
  5
20A
330
1B
100
AcDbEntity
  8
0
  6
Continuous
 62
     7
370
    25
100
AcDbCircle
 10
-14.5378110178
 20
154.9705377836
 30
0.0
 40
1.999999999999972
  0
CIRCLE
  5
20B
330
1B
100
AcDbEntity
  8
0
  6
Continuous
 62
     7
370
    25
100
AcDbCircle
 10
-14.5378110178
 20
154.9705377836
 30
0.0
 40
1.249742261192864
  0
CIRCLE
  5
20C
330
1B
100
AcDbEntity
  8
0
  6
Continuous
 62
     7
370
    25
100
AcDbCircle
 10
-14.5378110178
 20
154.9705377836
 30
0.0
 40
0.4997422611930347
  0
CIRCLE
  5
20D
330
1B
100
AcDbEntity
  8
0
  6
Continuous
 62
     7
370
    25
100
AcDbCircle
 10
-15.9311426154
 20
161.9248776219
 30
0.0
 40
2.000000000000057
  0
CIRCLE
  5
20E
330
1B
100
AcDbEntity
  8
0
  6
Continuous
 62
     7
370
    25
100
AcDbCircle
 10
-15.9311426154
 20
161.9248776219
 30
0.0
 40
1.249742261192836
  0
CIRCLE
  5
20F
330
1B
100
AcDbEntity
  8
0
  6
Continuous
 62
     7
370
    25
100
AcDbCircle
 10
-15.9311426154
 20
161.9248776219
 30
0.0
 40
0.4997422611930347
  0
CIRCLE
  5
210
330
1B
100
AcDbEntity
  8
0
  6
Continuous
 62
     7
370
    25
100
AcDbCircle
 10
-14.1691160353
 20
168.7950652364
 30
0.0
 40
2.000000000000057
  0
CIRCLE
  5
211
330
1B
100
AcDbEntity
  8
0
  6
Continuous
 62
     7
370
    25
100
AcDbCircle
 10
-14.1691160353
 20
168.7950652364
 30
0.0
 40
1.249742261192864
  0
CIRCLE
  5
212
330
1B
100
AcDbEntity
  8
0
  6
Continuous
 62
     7
370
    25
100
AcDbCircle
 10
-14.1691160353
 20
168.7950652364
 30
0.0
 40
0.4997422611930631
  0
CIRCLE
  5
213
330
1B
100
AcDbEntity
  8
0
  6
Continuous
 62
     7
370
    25
100
AcDbCircle
 10
-9.6007222517
 20
174.2203757127
 30
0.0
 40
1.999999999999972
  0
CIRCLE
  5
214
330
1B
100
AcDbEntity
  8
0
  6
Continuous
 62
     7
370
    25
100
AcDbCircle
 10
-9.6007222517
 20
174.2203757127
 30
0.0
 40
1.249742261192864
  0
CIRCLE
  5
215
330
1B
100
AcDbEntity
  8
0
  6
Continuous
 62
     7
370
    25
100
AcDbCircle
 10
-9.6007222517
 20
174.2203757127
 30
0.0
 40
0.4997422611931484
  0
CIRCLE
  5
216
330
1B
100
AcDbEntity
  8
0
  6
Continuous
 62
     7
370
    25
100
AcDbCircle
 10
-3.1525586259
 20
185.6641792298
 30
0.0
 40
2.000000000000057
  0
CIRCLE
  5
217
330
1B
100
AcDbEntity
  8
0
  6
Continuous
 62
     7
370
    25
100
AcDbCircle
 10
-3.1525586259
 20
185.6641792298
 30
0.0
 40
1.249742261192836
  0
CIRCLE
  5
218
330
1B
100
AcDbEntity
  8
0
  6
Continuous
 62
     7
370
    25
100
AcDbCircle
 10
-3.1525586259
 20
185.6641792298
 30
0.0
 40
0.4997422611928357
  0
CIRCLE
  5
219
330
1B
100
AcDbEntity
  8
0
  6
Continuous
 62
     7
370
    25
100
AcDbCircle
 10
3.7829781479
 20
185.5735385864
 30
0.0
 40
2.000000000000057
  0
CIRCLE
  5
21A
330
1B
100
AcDbEntity
  8
0
  6
Continuous
 62
     7
370
    25
100
AcDbCircle
 10
3.7829781479
 20
185.5735385864
 30
0.0
 40
1.249742261192836
  0
CIRCLE
  5
21B
330
1B
100
AcDbEntity
  8
0
  6
Continuous
 62
     7
370
    25
100
AcDbCircle
 10
3.7829781479
 20
185.5735385864
 30
0.0
 40
0.4997422611928641
  0
CIRCLE
  5
21C
330
1B
100
AcDbEntity
  8
0
  6
Continuous
 62
     7
370
    25
100
AcDbCircle
 10
10.4120405304
 20
183.5326030176
 30
0.0
 40
2.000000000000057
  0
CIRCLE
  5
21D
330
1B
100
AcDbEntity
  8
0
  6
Continuous
 62
     7
370
    25
100
AcDbCircle
 10
-20.3265550231
 20
174.941627306
 30
0.0
 40
1.999999999999943
  0
CIRCLE
  5
21E
330
1B
100
AcDbEntity
  8
0
  6
Continuous
 62
     7
370
    25
100
AcDbCircle
 10
-20.3265550231
 20
174.941627306
 30
0.0
 40
1.249742261192807
  0
CIRCLE
  5
21F
330
1B
100
AcDbEntity
  8
0
  6
Continuous
 62
     7
370
    25
100
AcDbCircle
 10
16.197581312
 20
179.7067169853
 30
0.0
 40
2.000000000000057
  0
CIRCLE
  5
220
330
1B
100
AcDbEntity
  8
0
  6
Continuous
 62
     7
370
    25
100
AcDbCircle
 10
-15.7162426935
 20
180.1237992725
 30
0.0
 40
1.999999999999972
  0
CIRCLE
  5
221
330
1B
100
AcDbEntity
  8
0
  6
Continuous
 62
     7
370
    25
100
AcDbCircle
 10
-15.7162426935
 20
180.1237992725
 30
0.0
 40
1.249742261192836
  0
CIRCLE
  5
222
330
1B
100
AcDbEntity
  8
0
  6
Continuous
 62
     7
370
    25
100
AcDbCircle
 10
20.6708903863
 20
174.4058310223
 30
0.0
 40
2.000000000000028
  0
CIRCLE
  5
223
330
1B
100
AcDbEntity
  8
0
  6
Continuous
 62
     7
370
    25
100
AcDbCircle
 10
-9.8326938489
 20
183.7971817819
 30
0.0
 40
1.999999999999943
  0
CIRCLE
  5
224
330
1B
100
AcDbEntity
  8
0
  6
Continuous
 62
     7
370
    25
100
AcDbCircle
 10
-9.8326938489
 20
183.7971817819
 30
0.0
 40
1.249742261192864
  0
CIRCLE
  5
225
330
1B
100
AcDbEntity
  8
0
  6
Continuous
 62
     7
370
    25
100
AcDbCircle
 10
23.4695668561
 20
168.0593913838
 30
0.0
 40
2.000000000000057
  0
CIRCLE
  5
226
330
1B
100
AcDbEntity
  8
0
  6
Continuous
 62
     7
370
    25
100
AcDbCircle
 10
24.3668785981
 20
161.1815488656
 30
0.0
 40
1.999999999999972
  0
CIRCLE
  5
227
330
1B
100
AcDbEntity
  8
0
  6
Continuous
 62
     7
370
    25
100
AcDbCircle
 10
23.2901307515
 20
154.3295053644
 30
0.0
 40
2.000000000000028
  0
CIRCLE
  5
228
330
1B
100
AcDbEntity
  8
0
  6
Continuous
 62
     7
370
    25
100
AcDbCircle
 10
23.2901307515
 20
154.3295053644
 30
0.0
 40
1.249742261192864
  0
CIRCLE
  5
229
330
1B
100
AcDbEntity
  8
0
  6
Continuous
 62
     7
370
    25
100
AcDbCircle
 10
23.2901307515
 20
154.3295053644
 30
0.0
 40
0.4997422611933473
  0
CIRCLE
  5
22A
330
1B
100
AcDbEntity
  8
0
  6
Continuous
 62
     7
370
    25
100
AcDbCircle
 10
20.3265550231
 20
148.058372694
 30
0.0
 40
2.0
  0
CIRCLE
  5
22B
330
1B
100
AcDbEntity
  8
0
  6
Continuous
 62
     7
370
    25
100
AcDbCircle
 10
20.3265550231
 20
148.058372694
 30
0.0
 40
1.249742261192864
  0
CIRCLE
  5
22C
330
1B
100
AcDbEntity
  8
0
  6
Continuous
 62
     7
370
    25
100
AcDbCircle
 10
20.3265550231
 20
148.058372694
 30
0.0
 40
0.4997422611933757
  0
CIRCLE
  5
22D
330
1B
100
AcDbEntity
  8
0
  6
Continuous
 62
     7
370
    25
100
AcDbCircle
 10
15.7162426935
 20
142.8762007275
 30
0.0
 40
2.000000000000028
  0
CIRCLE
  5
22E
330
1B
100
AcDbEntity
  8
0
  6
Continuous
 62
     7
370
    25
100
AcDbCircle
 10
9.8326938489
 20
139.2028182181
 30
0.0
 40
2.000000000000057
  0
CIRCLE
  5
22F
330
1B
100
AcDbEntity
  8
0
  6
Continuous
 62
     7
370
    25
100
AcDbCircle
 10
3.1525586259
 20
137.3358207702
 30
0.0
 40
2.0
  0
CIRCLE
  5
230
330
1B
100
AcDbEntity
  8
0
  6
Continuous
 62
     7
370
    25
100
AcDbCircle
 10
-3.7829781479
 20
137.4264614136
 30
0.0
 40
2.000000000000057
  0
CIRCLE
  5
231
330
1B
100
AcDbEntity
  8
0
  6
Continuous
 62
     7
370
    25
100
AcDbCircle
 10
-10.4120405304
 20
139.4673969824
 30
0.0
 40
2.000000000000057
  0
CIRCLE
  5
232
330
1B
100
AcDbEntity
  8
0
  6
Continuous
 62
     7
370
    25
100
AcDbCircle
 10
-10.4120405304
 20
139.4673969824
 30
0.0
 40
1.249742261192864
  0
CIRCLE
  5
233
330
1B
100
AcDbEntity
  8
0
  6
Continuous
 62
     7
370
    25
100
AcDbCircle
 10
-10.4120405304
 20
139.4673969824
 30
0.0
 40
0.4997422611930631
  0
CIRCLE
  5
234
330
1B
100
AcDbEntity
  8
0
  6
Continuous
 62
     7
370
    25
100
AcDbCircle
 10
-16.197581312
 20
143.2932830147
 30
0.0
 40
2.000000000000028
  0
CIRCLE
  5
235
330
1B
100
AcDbEntity
  8
0
  6
Continuous
 62
     7
370
    25
100
AcDbCircle
 10
-16.197581312
 20
143.2932830147
 30
0.0
 40
1.249742261192836
  0
CIRCLE
  5
236
330
1B
100
AcDbEntity
  8
0
  6
Continuous
 62
     7
370
    25
100
AcDbCircle
 10
-16.197581312
 20
143.2932830147
 30
0.0
 40
0.4997422611930347
  0
CIRCLE
  5
237
330
1B
100
AcDbEntity
  8
0
  6
Continuous
 62
     7
370
    25
100
AcDbCircle
 10
-20.6708903864
 20
148.5941689777
 30
0.0
 40
2.000000000000028
  0
CIRCLE
  5
238
330
1B
100
AcDbEntity
  8
0
  6
Continuous
 62
     7
370
    25
100
AcDbCircle
 10
-20.6708903864
 20
148.5941689777
 30
0.0
 40
1.249742261192836
  0
CIRCLE
  5
239
330
1B
100
AcDbEntity
  8
0
  6
Continuous
 62
     7
370
    25
100
AcDbCircle
 10
-20.6708903864
 20
148.5941689777
 30
0.0
 40
0.4997422611929494
  0
CIRCLE
  5
23A
330
1B
100
AcDbEntity
  8
0
  6
Continuous
 62
     7
370
    25
100
AcDbCircle
 10
-23.4695668561
 20
154.9406086162
 30
0.0
 40
2.000000000000028
  0
CIRCLE
  5
23B
330
1B
100
AcDbEntity
  8
0
  6
Continuous
 62
     7
370
    25
100
AcDbCircle
 10
-23.4695668561
 20
154.9406086162
 30
0.0
 40
1.249742261192836
  0
CIRCLE
  5
23C
330
1B
100
AcDbEntity
  8
0
  6
Continuous
 62
     7
370
    25
100
AcDbCircle
 10
-23.4695668561
 20
154.9406086162
 30
0.0
 40
0.4997422611929494
  0
CIRCLE
  5
23D
330
1B
100
AcDbEntity
  8
0
  6
Continuous
 62
     7
370
    25
100
AcDbCircle
 10
-24.3668785981
 20
161.8184511344
 30
0.0
 40
2.000000000000057
  0
CIRCLE
  5
23E
330
1B
100
AcDbEntity
  8
0
  6
Continuous
 62
     7
370
    25
100
AcDbCircle
 10
-24.3668785981
 20
161.8184511344
 30
0.0
 40
1.249742261192864
  0
CIRCLE
  5
23F
330
1B
100
AcDbEntity
  8
0
  6
Continuous
 62
     7
370
    25
100
AcDbCircle
 10
-24.3668785981
 20
161.8184511344
 30
0.0
 40
0.499742261192921
  0
CIRCLE
  5
240
330
1B
100
AcDbEntity
  8
0
  6
Continuous
 62
     7
370
    25
100
AcDbCircle
 10
-23.2901307515
 20
168.6704946356
 30
0.0
 40
2.000000000000028
  0
CIRCLE
  5
241
330
1B
100
AcDbEntity
  8
0
  6
Continuous
 62
     7
370
    25
100
AcDbCircle
 10
-23.2901307515
 20
168.6704946356
 30
0.0
 40
1.249742261192836
  0
CIRCLE
  5
242
330
1B
100
AcDbEntity
  8
0
  6
Continuous
 62
     7
370
    25
100
AcDbCircle
 10
-23.2901307515
 20
168.6704946356
 30
0.0
 40
0.499742261192921
  0
CIRCLE
  5
243
330
1B
100
AcDbEntity
  8
0
  6
Continuous
 62
     7
370
    25
100
AcDbCircle
 10
-20.3265550231
 20
174.941627306
 30
0.0
 40
0.4997422611929494
  0
CIRCLE
  5
244
330
1B
100
AcDbEntity
  8
0
  6
Continuous
 62
     7
370
    25
100
AcDbCircle
 10
-15.7162426935
 20
180.1237992725
 30
0.0
 40
0.4997422611930347
  0
CIRCLE
  5
245
330
1B
100
AcDbEntity
  8
0
  6
Continuous
 62
     7
370
    25
100
AcDbCircle
 10
-9.8326938489
 20
183.7971817819
 30
0.0
 40
0.4997422611928357
  0
CIRCLE
  5
246
330
1B
100
AcDbEntity
  8
0
  6
Continuous
 62
     7
370
    25
100
AcDbCircle
 10
0.0
 20
161.5
 30
0.0
 40
32.24999999999986
  0
SPLINE
  5
24A
330
1B
100
AcDbEntity
  8
0
  6
Continuous
 62
     7
370
    25
100
AcDbSpline
210
0.0
220
0.0
230
1.0
 70
     8
 71
     3
 72
    24
 73
    20
 74
     0
 42
0.000000001
 43
0.00000001
 40
0.0
 40
0.0
 40
0.0
 40
0.0
 40
0.0123435729348466
 40
0.0734726043812339
 40
0.135800626317991
 40
0.1981286482547476
 40
0.259257679701135
 40
0.3203867111475226
 40
0.3827147330842791
 40
0.4450427550210355
 40
0.5061717864674233
 40
0.5673008179138108
 40
0.6296288398505674
 40
0.6919568617873241
 40
0.7530858932337116
 40
0.8142149246800989
 40
0.8765429466168555
 40
0.9388709685536124
 40
1.0
 40
1.0
 40
1.0
 40
1.0
 10
-9.961949523699452
 20
-18.14168718195619
 30
0.0
 10
-9.976527549328939
 20
-18.13862191510161
 30
0.0
 10
-10.06330027837492
 20
-18.12037653832795
 30
0.0
 10
-9.85149007422439
 20
-18.08721797002585
 30
0.0
 10
-9.30516315885467
 20
-18.03873435109385
 30
0.0
 10
-8.363182647962606
 20
-17.99034404795263
 30
0.0
 10
-7.116152745907599
 20
-17.94499891409799
 30
0.0
 10
-5.596844639447215
 20
-17.89966036299474
 30
0.0
 10
-3.852018105550346
 20
-17.85124992341658
 30
0.0
 10
-1.957057790036802
 20
-17.80283996481553
 30
0.0
 10
-0.0000037031843997
 20
-17.7574999984786
 30
0.0
 10
1.957072748043509
 20
-17.71216006607111
 30
0.0
 10
3.851964651610433
 20
-17.66375000368092
 30
0.0
 10
5.597041440636541
 20
-17.61533994376985
 30
0.0
 10
7.115434261069149
 20
-17.57000000406782
 30
0.0
 10
8.365887970983406
 20
-17.52466006454069
 30
0.0
 10
9.294845580353782
 20
-17.47625000409464
 30
0.0
 10
9.889658111216738
 20
-17.42783994366134
 30
0.0
 10
9.963458281291807
 20
-17.39751514781132
 30
0.0
 10
9.99999999999999
 20
-17.38250000409677
 30
0.0
  0
SPLINE
  5
24B
330
1B
100
AcDbEntity
  8
0
  6
Continuous
 62
     7
370
    25
100
AcDbSpline
210
0.0
220
0.0
230
1.0
 70
     8
 71
     3
 72
    24
 73
    20
 74
     0
 42
0.000000001
 43
0.00000001
 40
0.0
 40
0.0
 40
0.0
 40
0.0
 40
0.0123435729348464
 40
0.0734726043812337
 40
0.1358006263179908
 40
0.1981286482547474
 40
0.2592576797011348
 40
0.3203867111475224
 40
0.3827147330842789
 40
0.4450427550210354
 40
0.5061717864674232
 40
0.5673008179138107
 40
0.6296288398505673
 40
0.691956861787324
 40
0.7530858932337114
 40
0.8142149246800989
 40
0.8765429466168555
 40
0.9388709685536124
 40
1.0
 40
1.0
 40
1.0
 40
1.0
 10
-9.961949523699454
 20
-16.64168718195619
 30
0.0
 10
-9.976527549328942
 20
-16.63862191510161
 30
0.0
 10
-10.06330027837492
 20
-16.62037653832796
 30
0.0
 10
-9.851490074224387
 20
-16.58721797002584
 30
0.0
 10
-9.30516315885467
 20
-16.53873435109386
 30
0.0
 10
-8.363182647962606
 20
-16.49034404795263
 30
0.0
 10
-7.116152745907599
 20
-16.44499891409799
 30
0.0
 10
-5.596844639447212
 20
-16.39966036299473
 30
0.0
 10
-3.852018105550347
 20
-16.35124992341658
 30
0.0
 10
-1.957057790036801
 20
-16.30283996481553
 30
0.0
 10
-0.0000037031843997
 20
-16.2574999984786
 30
0.0
 10
1.957072748043509
 20
-16.21216006607111
 30
0.0
 10
3.851964651610433
 20
-16.16375000368092
 30
0.0
 10
5.59704144063654
 20
-16.11533994376985
 30
0.0
 10
7.11543426106915
 20
-16.07000000406781
 30
0.0
 10
8.365887970983403
 20
-16.02466006454068
 30
0.0
 10
9.294845580353782
 20
-15.97625000409464
 30
0.0
 10
9.889658111216738
 20
-15.92783994366134
 30
0.0
 10
9.963458281291807
 20
-15.89751514781131
 30
0.0
 10
9.99999999999999
 20
-15.88250000409677
 30
0.0
  0
SPLINE
  5
24C
330
1B
100
AcDbEntity
  8
0
  6
Continuous
 62
     7
370
    25
100
AcDbSpline
210
0.0
220
0.0
230
1.0
 70
     8
 71
     3
 72
    24
 73
    20
 74
     0
 42
0.000000001
 43
0.00000001
 40
0.0
 40
0.0
 40
0.0
 40
0.0
 40
0.0123435729348466
 40
0.0734726043812339
 40
0.135800626317991
 40
0.1981286482547476
 40
0.259257679701135
 40
0.3203867111475226
 40
0.3827147330842791
 40
0.4450427550210355
 40
0.5061717864674233
 40
0.5673008179138108
 40
0.6296288398505674
 40
0.6919568617873241
 40
0.7530858932337116
 40
0.8142149246800989
 40
0.8765429466168555
 40
0.9388709685536124
 40
1.0
 40
1.0
 40
1.0
 40
1.0
 10
-9.961949523699452
 20
-15.1416871819562
 30
0.0
 10
-9.976527549328939
 20
-15.13862191510161
 30
0.0
 10
-10.06330027837492
 20
-15.12037653832794
 30
0.0
 10
-9.85149007422439
 20
-15.08721797002585
 30
0.0
 10
-9.30516315885467
 20
-15.03873435109386
 30
0.0
 10
-8.363182647962606
 20
-14.99034404795263
 30
0.0
 10
-7.116152745907599
 20
-14.94499891409799
 30
0.0
 10
-5.596844639447215
 20
-14.89966036299474
 30
0.0
 10
-3.852018105550346
 20
-14.85124992341658
 30
0.0
 10
-1.957057790036802
 20
-14.80283996481553
 30
0.0
 10
-0.0000037031843997
 20
-14.75749999847861
 30
0.0
 10
1.957072748043509
 20
-14.71216006607111
 30
0.0
 10
3.851964651610433
 20
-14.66375000368093
 30
0.0
 10
5.597041440636541
 20
-14.61533994376985
 30
0.0
 10
7.115434261069149
 20
-14.57000000406781
 30
0.0
 10
8.365887970983406
 20
-14.52466006454069
 30
0.0
 10
9.294845580353782
 20
-14.47625000409464
 30
0.0
 10
9.889658111216738
 20
-14.42783994366134
 30
0.0
 10
9.963458281291807
 20
-14.3975151478113
 30
0.0
 10
9.99999999999999
 20
-14.38250000409677
 30
0.0
  0
SPLINE
  5
24D
330
1B
100
AcDbEntity
  8
0
  6
Continuous
 62
     7
370
    25
100
AcDbSpline
210
0.0
220
0.0
230
1.0
 70
     8
 71
     3
 72
    24
 73
    20
 74
     0
 42
0.000000001
 43
0.00000001
 40
0.0
 40
0.0
 40
0.0
 40
0.0
 40
0.0123435729348475
 40
0.0734726043812347
 40
0.1358006263179918
 40
0.1981286482547483
 40
0.2592576797011357
 40
0.3203867111475232
 40
0.3827147330842796
 40
0.445042755021036
 40
0.5061717864674237
 40
0.5673008179138112
 40
0.6296288398505677
 40
0.6919568617873243
 40
0.7530858932337118
 40
0.814214924680099
 40
0.8765429466168556
 40
0.9388709685536124
 40
1.0
 40
1.0
 40
1.0
 40
1.0
 10
-9.96194952369945
 20
-13.6416871819562
 30
0.0
 10
-9.976527549328939
 20
-13.63862191510162
 30
0.0
 10
-10.06330027837491
 20
-13.62037653832793
 30
0.0
 10
-9.851490074224394
 20
-13.58721797002585
 30
0.0
 10
-9.305163158854665
 20
-13.53873435109385
 30
0.0
 10
-8.363182647962606
 20
-13.49034404795263
 30
0.0
 10
-7.116152745907599
 20
-13.44499891409799
 30
0.0
 10
-5.596844639447213
 20
-13.39966036299474
 30
0.0
 10
-3.852018105550346
 20
-13.35124992341657
 30
0.0
 10
-1.957057790036804
 20
-13.30283996481554
 30
0.0
 10
-0.0000037031843962
 20
-13.25749999847861
 30
0.0
 10
1.957072748043509
 20
-13.21216006607111
 30
0.0
 10
3.85196465161043
 20
-13.16375000368092
 30
0.0
 10
5.597041440636542
 20
-13.11533994376984
 30
0.0
 10
7.115434261069146
 20
-13.07000000406781
 30
0.0
 10
8.365887970983405
 20
-13.02466006454067
 30
0.0
 10
9.294845580353782
 20
-12.97625000409465
 30
0.0
 10
9.88965811121674
 20
-12.92783994366134
 30
0.0
 10
9.963458281291807
 20
-12.89751514781132
 30
0.0
 10
9.99999999999999
 20
-12.88250000409677
 30
0.0
  0
SPLINE
  5
24E
330
1B
100
AcDbEntity
  8
0
  6
Continuous
 62
     7
370
    25
100
AcDbSpline
210
0.0
220
0.0
230
1.0
 70
     8
 71
     3
 72
    24
 73
    20
 74
     0
 42
0.000000001
 43
0.00000001
 40
0.0
 40
0.0
 40
0.0
 40
0.0
 40
0.0123435729348462
 40
0.0734726043812335
 40
0.1358006263179906
 40
0.1981286482547472
 40
0.2592576797011347
 40
0.3203867111475223
 40
0.3827147330842788
 40
0.4450427550210353
 40
0.5061717864674231
 40
0.5673008179138106
 40
0.6296288398505672
 40
0.6919568617873239
 40
0.7530858932337114
 40
0.8142149246800988
 40
0.8765429466168555
 40
0.9388709685536124
 40
1.0
 40
1.0
 40
1.0
 40
1.0
 10
-9.961949523699454
 20
-12.1416871819562
 30
0.0
 10
-9.976527549328942
 20
-12.13862191510162
 30
0.0
 10
-10.06330027837492
 20
-12.12037653832794
 30
0.0
 10
-9.851490074224394
 20
-12.08721797002585
 30
0.0
 10
-9.305163158854665
 20
-12.03873435109384
 30
0.0
 10
-8.363182647962608
 20
-11.99034404795264
 30
0.0
 10
-7.116152745907599
 20
-11.94499891409799
 30
0.0
 10
-5.596844639447212
 20
-11.89966036299474
 30
0.0
 10
-3.852018105550348
 20
-11.85124992341659
 30
0.0
 10
-1.957057790036802
 20
-11.80283996481554
 30
0.0
 10
-0.0000037031843997
 20
-11.7574999984786
 30
0.0
 10
1.957072748043509
 20
-11.71216006607111
 30
0.0
 10
3.851964651610432
 20
-11.66375000368092
 30
0.0
 10
5.597041440636542
 20
-11.61533994376984
 30
0.0
 10
7.115434261069145
 20
-11.57000000406781
 30
0.0
 10
8.365887970983406
 20
-11.52466006454068
 30
0.0
 10
9.29484558035378
 20
-11.47625000409463
 30
0.0
 10
9.889658111216736
 20
-11.42783994366134
 30
0.0
 10
9.963458281291809
 20
-11.39751514781132
 30
0.0
 10
9.99999999999999
 20
-11.38250000409677
 30
0.0
  0
SPLINE
  5
24F
330
1B
100
AcDbEntity
  8
0
  6
Continuous
 62
     7
370
    25
100
AcDbSpline
210
0.0
220
0.0
230
1.0
 70
     8
 71
     3
 72
    24
 73
    20
 74
     0
 42
0.000000001
 43
0.00000001
 40
0.0
 40
0.0
 40
0.0
 40
0.0
 40
0.0123435729348462
 40
0.0734726043812335
 40
0.1358006263179906
 40
0.1981286482547472
 40
0.2592576797011347
 40
0.3203867111475223
 40
0.3827147330842788
 40
0.4450427550210353
 40
0.5061717864674231
 40
0.5673008179138106
 40
0.6296288398505672
 40
0.6919568617873239
 40
0.7530858932337114
 40
0.8142149246800988
 40
0.8765429466168555
 40
0.9388709685536124
 40
1.0
 40
1.0
 40
1.0
 40
1.0
 10
-9.961949523699454
 20
-10.6416871819562
 30
0.0
 10
-9.976527549328942
 20
-10.63862191510162
 30
0.0
 10
-10.06330027837492
 20
-10.62037653832794
 30
0.0
 10
-9.851490074224394
 20
-10.58721797002585
 30
0.0
 10
-9.305163158854665
 20
-10.53873435109384
 30
0.0
 10
-8.363182647962608
 20
-10.49034404795264
 30
0.0
 10
-7.116152745907599
 20
-10.44499891409799
 30
0.0
 10
-5.596844639447212
 20
-10.39966036299474
 30
0.0
 10
-3.852018105550348
 20
-10.35124992341659
 30
0.0
 10
-1.957057790036802
 20
-10.30283996481554
 30
0.0
 10
-0.0000037031843997
 20
-10.25749999847861
 30
0.0
 10
1.957072748043509
 20
-10.2121600660711
 30
0.0
 10
3.851964651610432
 20
-10.16375000368093
 30
0.0
 10
5.597041440636542
 20
-10.11533994376984
 30
0.0
 10
7.115434261069145
 20
-10.07000000406781
 30
0.0
 10
8.365887970983406
 20
-10.02466006454068
 30
0.0
 10
9.29484558035378
 20
-9.976250004094634
 30
0.0
 10
9.889658111216736
 20
-9.927839943661338
 30
0.0
 10
9.963458281291809
 20
-9.897515147811314
 30
0.0
 10
9.99999999999999
 20
-9.88250000409678
 30
0.0
  0
SPLINE
  5
250
330
1B
100
AcDbEntity
  8
0
  6
Continuous
 62
     7
370
    25
100
AcDbSpline
210
0.0
220
0.0
230
1.0
 70
     8
 71
     3
 72
    24
 73
    20
 74
     0
 42
0.000000001
 43
0.00000001
 40
0.0
 40
0.0
 40
0.0
 40
0.0
 40
0.0490008519572215
 40
0.1121078395986284
 40
0.1752148272400356
 40
0.2371078395986285
 40
0.2990008519572218
 40
0.3621078395986287
 40
0.4252148272400356
 40
0.4871078395986286
 40
0.5490008519572217
 40
0.6121078395986282
 40
0.675214827240035
 40
0.7371078395986286
 40
0.7990008519572215
 40
0.8621078395986278
 40
0.9252148272400347
 40
0.9871078395986287
 40
1.0
 40
1.0
 40
1.0
 40
1.0
 10
-9.96074899289156
 20
-17.93552295743636
 30
0.0
 10
-9.929534682112644
 20
-17.92362232516885
 30
0.0
 10
-9.858120231012093
 20
-17.8963951623731
 30
0.0
 10
-9.292113064939404
 20
-17.85123432177467
 30
0.0
 10
-8.366604449495211
 20
-17.80284405046198
 30
0.0
 10
-7.115243982134261
 20
-17.75749890827348
 30
0.0
 10
-5.597093542161766
 20
-17.71216035927053
 30
0.0
 10
-3.851950569043734
 20
-17.66374991960318
 30
0.0
 10
-1.957076434978719
 20
-17.6153399592236
 30
0.0
 10
0.0000046620025093
 20
-17.56999999995766
 30
0.0
 10
1.957057604086707
 20
-17.5246600409474
 30
0.0
 10
3.852017863128143
 20
-17.47625007978575
 30
0.0
 10
5.596845785759073
 20
-17.42783964297923
 30
0.0
 10
7.11614849505667
 20
-17.38250108351305
 30
0.0
 10
8.36319867180745
 20
-17.33715598046428
 30
0.0
 10
9.3051020419965
 20
-17.28876556027858
 30
0.0
 10
9.851716166428831
 20
-17.24028237708067
 30
0.0
 10
10.06335777774669
 20
-17.20702753855063
 30
0.0
 10
9.975836688482234
 20
-17.18868501197307
 30
0.0
 10
9.960748992891538
 20
-17.18552295743636
 30
0.0
  0
SPLINE
  5
251
330
1B
100
AcDbEntity
  8
0
  6
Continuous
 62
     7
370
    25
100
AcDbSpline
210
0.0
220
0.0
230
1.0
 70
     8
 71
     3
 72
    24
 73
    20
 74
     0
 42
0.000000001
 43
0.00000001
 40
0.0
 40
0.0
 40
0.0
 40
0.0
 40
0.0490008519572211
 40
0.112107839598628
 40
0.1752148272400352
 40
0.2371078395986282
 40
0.2990008519572214
 40
0.3621078395986284
 40
0.4252148272400353
 40
0.4871078395986284
 40
0.5490008519572215
 40
0.612107839598628
 40
0.6752148272400349
 40
0.7371078395986285
 40
0.7990008519572214
 40
0.8621078395986277
 40
0.9252148272400347
 40
0.9871078395986287
 40
1.0
 40
1.0
 40
1.0
 40
1.0
 10
-9.960748992891558
 20
-16.43552295743636
 30
0.0
 10
-9.929534682112644
 20
-16.42362232516884
 30
0.0
 10
-9.858120231012093
 20
-16.3963951623731
 30
0.0
 10
-9.292113064939398
 20
-16.35123432177465
 30
0.0
 10
-8.366604449495211
 20
-16.30284405046198
 30
0.0
 10
-7.115243982134261
 20
-16.25749890827348
 30
0.0
 10
-5.597093542161764
 20
-16.21216035927053
 30
0.0
 10
-3.851950569043737
 20
-16.16374991960318
 30
0.0
 10
-1.957076434978717
 20
-16.1153399592236
 30
0.0
 10
0.000004662002508
 20
-16.06999999995766
 30
0.0
 10
1.957057604086707
 20
-16.0246600409474
 30
0.0
 10
3.852017863128144
 20
-15.97625007978574
 30
0.0
 10
5.596845785759072
 20
-15.92783964297922
 30
0.0
 10
7.11614849505667
 20
-15.88250108351305
 30
0.0
 10
8.363198671807448
 20
-15.83715598046428
 30
0.0
 10
9.305102041996502
 20
-15.78876556027858
 30
0.0
 10
9.851716166428828
 20
-15.74028237708067
 30
0.0
 10
10.06335777774669
 20
-15.70702753855063
 30
0.0
 10
9.975836688482234
 20
-15.68868501197307
 30
0.0
 10
9.960748992891538
 20
-15.68552295743636
 30
0.0
  0
SPLINE
  5
252
330
1B
100
AcDbEntity
  8
0
  6
Continuous
 62
     7
370
    25
100
AcDbSpline
210
0.0
220
0.0
230
1.0
 70
     8
 71
     3
 72
    24
 73
    20
 74
     0
 42
0.000000001
 43
0.00000001
 40
0.0
 40
0.0
 40
0.0
 40
0.0
 40
0.0490008519572217
 40
0.1121078395986286
 40
0.1752148272400357
 40
0.2371078395986286
 40
0.2990008519572218
 40
0.3621078395986286
 40
0.4252148272400355
 40
0.4871078395986285
 40
0.5490008519572216
 40
0.612107839598628
 40
0.6752148272400348
 40
0.7371078395986284
 40
0.7990008519572211
 40
0.8621078395986275
 40
0.9252148272400342
 40
0.9871078395986282
 40
1.0
 40
1.0
 40
1.0
 40
1.0
 10
-9.960748992891563
 20
-14.93552295743636
 30
0.0
 10
-9.929534682112644
 20
-14.92362232516883
 30
0.0
 10
-9.858120231012089
 20
-14.89639516237308
 30
0.0
 10
-9.292113064939405
 20
-14.85123432177467
 30
0.0
 10
-8.366604449495206
 20
-14.80284405046196
 30
0.0
 10
-7.115243982134263
 20
-14.75749890827348
 30
0.0
 10
-5.597093542161766
 20
-14.71216035927053
 30
0.0
 10
-3.851950569043734
 20
-14.66374991960318
 30
0.0
 10
-1.957076434978717
 20
-14.61533995922359
 30
0.0
 10
0.0000046620025096
 20
-14.56999999995766
 30
0.0
 10
1.957057604086705
 20
-14.52466004094739
 30
0.0
 10
3.852017863128144
 20
-14.47625007978574
 30
0.0
 10
5.596845785759074
 20
-14.42783964297922
 30
0.0
 10
7.116148495056668
 20
-14.38250108351305
 30
0.0
 10
8.363198671807453
 20
-14.33715598046428
 30
0.0
 10
9.305102041996497
 20
-14.2887655602786
 30
0.0
 10
9.851716166428835
 20
-14.24028237708067
 30
0.0
 10
10.06335777774668
 20
-14.20702753855063
 30
0.0
 10
9.975836688482234
 20
-14.18868501197307
 30
0.0
 10
9.96074899289154
 20
-14.18552295743636
 30
0.0
  0
SPLINE
  5
253
330
1B
100
AcDbEntity
  8
0
  6
Continuous
 62
     7
370
    25
100
AcDbSpline
210
0.0
220
0.0
230
1.0
 70
     8
 71
     3
 72
    24
 73
    20
 74
     0
 42
0.000000001
 43
0.00000001
 40
0.0
 40
0.0
 40
0.0
 40
0.0
 40
0.0611052338820228
 40
0.123408991486781
 40
0.1857127490915394
 40
0.246817982973562
 40
0.3079232168555849
 40
0.3702269744603431
 40
0.4325307320651012
 40
0.4936359659471239
 40
0.5547411998291466
 40
0.6170449574339044
 40
0.6793487150386625
 40
0.7404539489206857
 40
0.8015591828027082
 40
0.8638629404074659
 40
0.926166698012224
 40
0.9872719318942478
 40
1.0
 40
1.0
 40
1.0
 40
1.0
 10
-10.00000000000001
 20
-13.445
 30
0.0
 10
-9.96345828129116
 20
-13.42998485628546
 30
0.0
 10
-9.889658111214725
 20
-13.39966006043546
 30
0.0
 10
-9.294845580362125
 20
-13.35125000000211
 30
0.0
 10
-8.365887970952489
 20
-13.30283993955616
 30
0.0
 10
-7.115434261182231
 20
-13.25750000002877
 30
0.0
 10
-5.597041440210837
 20
-13.21216006032758
 30
0.0
 10
-3.85196465323414
 20
-13.16375000041338
 30
0.0
 10
-1.957072742036993
 20
-13.11533993803478
 30
0.0
 10
0.0000036812481755
 20
-13.07000000558489
 30
0.0
 10
1.95705787263553
 20
-13.02466003940656
 30
0.0
 10
3.852017790534065
 20
-12.97625008020227
 30
0.0
 10
5.596845804793607
 20
-12.92783964287002
 30
0.0
 10
7.116148490001496
 20
-12.88250108354207
 30
0.0
 10
8.363198673191933
 20
-12.83715598045633
 30
0.0
 10
9.305102041621147
 20
-12.78876556028075
 30
0.0
 10
9.851716166531315
 20
-12.74028237708008
 30
0.0
 10
10.06335777774255
 20
-12.70702753855064
 30
0.0
 10
9.975836688481628
 20
-12.68868501197308
 30
0.0
 10
9.96074899289154
 20
-12.68552295743637
 30
0.0
  0
SPLINE
  5
254
330
1B
100
AcDbEntity
  8
0
  6
Continuous
 62
     7
370
    25
100
AcDbSpline
210
0.0
220
0.0
230
1.0
 70
     8
 71
     3
 72
    24
 73
    20
 74
     0
 42
0.000000001
 43
0.00000001
 40
0.0
 40
0.0
 40
0.0
 40
0.0
 40
0.0490008519572218
 40
0.1121078395986286
 40
0.1752148272400358
 40
0.2371078395986287
 40
0.2990008519572219
 40
0.3621078395986288
 40
0.4252148272400357
 40
0.4871078395986287
 40
0.5490008519572218
 40
0.6121078395986284
 40
0.675214827240035
 40
0.7371078395986287
 40
0.7990008519572215
 40
0.8621078395986278
 40
0.9252148272400347
 40
0.9871078395986287
 40
1.0
 40
1.0
 40
1.0
 40
1.0
 10
-9.96074899289156
 20
-11.93552295743637
 30
0.0
 10
-9.929534682112644
 20
-11.92362232516884
 30
0.0
 10
-9.858120231012096
 20
-11.89639516237309
 30
0.0
 10
-9.292113064939398
 20
-11.85123432177467
 30
0.0
 10
-8.366604449495211
 20
-11.80284405046197
 30
0.0
 10
-7.115243982134261
 20
-11.75749890827348
 30
0.0
 10
-5.597093542161766
 20
-11.71216035927053
 30
0.0
 10
-3.851950569043735
 20
-11.66374991960317
 30
0.0
 10
-1.957076434978718
 20
-11.61533995922359
 30
0.0
 10
0.0000046620025093
 20
-11.56999999995766
 30
0.0
 10
1.957057604086707
 20
-11.52466004094739
 30
0.0
 10
3.852017863128141
 20
-11.47625007978574
 30
0.0
 10
5.596845785759078
 20
-11.42783964297922
 30
0.0
 10
7.116148495056668
 20
-11.38250108351305
 30
0.0
 10
8.36319867180745
 20
-11.33715598046428
 30
0.0
 10
9.305102041996502
 20
-11.28876556027859
 30
0.0
 10
9.851716166428831
 20
-11.24028237708066
 30
0.0
 10
10.06335777774669
 20
-11.20702753855063
 30
0.0
 10
9.975836688482234
 20
-11.18868501197307
 30
0.0
 10
9.960748992891538
 20
-11.18552295743637
 30
0.0
  0
SPLINE
  5
255
330
1B
100
AcDbEntity
  8
0
  6
Continuous
 62
     7
370
    25
100
AcDbSpline
210
0.0
220
0.0
230
1.0
 70
     8
 71
     3
 72
    18
 73
    14
 74
     0
 42
0.000000001
 43
0.00000001
 40
0.0
 40
0.0
 40
0.0
 40
0.0
 40
0.0683896392879221
 40
0.1354712831618857
 40
0.2327137747913795
 40
0.331646504642167
 40
0.4288889962716608
 40
0.5261314879011546
 40
0.6250642177519422
 40
0.7223067093814359
 40
0.8195492010109298
 40
0.9184819308617175
 40
1.0
 40
1.0
 40
1.0
 40
1.0
 10
-8.377074312759449
 20
-18.49999999999999
 30
0.0
 10
-8.120034533248791
 20
-18.48505324954391
 30
0.0
 10
-7.610871023738849
 20
-18.45544561475496
 30
0.0
 10
-6.368728787983541
 20
-18.40765216367525
 30
0.0
 10
-4.648742651370635
 20
-18.35265895446704
 30
0.0
 10
-2.404893580976195
 20
-18.28730031455778
 30
0.0
 10
-0.0001505153391246
 20
-18.22624619858282
 30
0.0
 10
2.405500874752625
 20
-18.16521503562256
 30
0.0
 10
4.646593395366499
 20
-18.09978673874508
 30
0.0
 10
6.573611723699075
 20
-18.03874516483828
 30
0.0
 10
8.038107274185837
 20
-17.97773278234989
 30
0.0
 10
8.966063774103176
 20
-17.91572698368588
 30
0.0
 10
9.084536703760998
 20
-17.87815329985951
 30
0.0
 10
9.138056469397759
 20
-17.86117950881454
 30
0.0
  0
SPLINE
  5
256
330
1B
100
AcDbEntity
  8
0
  6
Continuous
 62
     7
370
    25
100
AcDbSpline
210
0.0
220
0.0
230
1.0
 70
     8
 71
     3
 72
    20
 73
    16
 74
     0
 42
0.000000001
 43
0.00000001
 40
0.0
 40
0.0
 40
0.0
 40
0.0
 40
0.0675655070866218
 40
0.1365680734405904
 40
0.1956178714476641
 40
0.2535383044545326
 40
0.3375005763456238
 40
0.4229222538804709
 40
0.506884525771562
 40
0.5908467976626532
 40
0.6762684751975003
 40
0.7602307470885914
 40
0.8441930189796825
 40
0.9296146965145299
 40
1.0
 40
1.0
 40
1.0
 40
1.0
 10
-9.18775256603538
 20
-17.10116480596696
 30
0.0
 10
-9.14880150705053
 20
-17.08497734900146
 30
0.0
 10
-9.07007093410875
 20
-17.05225814201249
 30
0.0
 10
-8.466267368818569
 20
-17.00246837885864
 30
0.0
 10
-7.599781023011306
 20
-16.95545791545995
 30
0.0
 10
-6.373180713883632
 20
-16.90764722572903
 30
0.0
 10
-4.647342745940704
 20
-16.85266050720126
 30
0.0
 10
-2.405264223501982
 20
-16.7872999034519
 30
0.0
 10
-0.0000519787271735
 20
-16.72624630787675
 30
0.0
 10
2.405473945366194
 20
-16.66521500575327
 30
0.0
 10
4.64660052529989
 20
-16.5997867466534
 30
0.0
 10
6.57360982803364
 20
-16.53874516273565
 30
0.0
 10
8.038107792813882
 20
-16.47773278292514
 30
0.0
 10
8.96606366995006
 20
-16.41572698357036
 30
0.0
 10
9.084536671351191
 20
-16.37815329982356
 30
0.0
 10
9.138056469397759
 20
-16.36117950881454
 30
0.0
  0
SPLINE
  5
257
330
1B
100
AcDbEntity
  8
0
  6
Continuous
 62
     7
370
    25
100
AcDbSpline
210
0.0
220
0.0
230
1.0
 70
     8
 71
     3
 72
    21
 73
    17
 74
     0
 42
0.000000001
 43
0.00000001
 40
0.0
 40
0.0
 40
0.0
 40
0.0
 40
0.0000534643442582
 40
0.0677247407165054
 40
0.1367155233696399
 40
0.1957552373292528
 40
0.2536657791524916
 40
0.3376137126450913
 40
0.423020802555941
 40
0.5069687360485406
 40
0.5909166695411404
 40
0.6763237594519902
 40
0.7602716929445898
 40
0.8442196264371895
 40
0.9296267163480396
 40
1.0
 40
1.0
 40
1.0
 40
1.0
 10
-9.187904084217914
 20
-15.60128910983932
 30
0.0
 10
-9.18796982926831
 20
-15.60127607380664
 30
0.0
 10
-9.271250874852871
 20
-15.58476297622619
 30
0.0
 10
-9.012220526321062
 20
-15.55242291660244
 30
0.0
 10
-8.479486884056683
 20
-15.5024377417001
 30
0.0
 10
-7.596584890879181
 20
-15.45546532272149
 30
0.0
 10
-6.374463756488292
 20
-15.40764425218735
 30
0.0
 10
-4.646939293962978
 20
-15.35266144222967
 30
0.0
 10
-2.405371042474793
 20
-15.2872996558914
 30
0.0
 10
-0.0000235805296121
 20
-15.22624637369158
 30
0.0
 10
2.405466184331785
 20
-15.16521498776653
 30
0.0
 10
4.646602580142785
 20
-15.09978675141564
 30
0.0
 10
6.573609281703904
 20
-15.0387451614695
 30
0.0
 10
8.038107942282197
 20
-14.97773278327155
 30
0.0
 10
8.966063639933195
 20
-14.91572698350078
 30
0.0
 10
9.084536662010708
 20
-14.87815329980191
 30
0.0
 10
9.138056469397764
 20
-14.86117950881453
 30
0.0
  0
SPLINE
  5
258
330
1B
100
AcDbEntity
  8
0
  6
Continuous
 62
     7
370
    25
100
AcDbSpline
210
0.0
220
0.0
230
1.0
 70
     8
 71
     3
 72
    21
 73
    17
 74
     0
 42
0.000000001
 43
0.00000001
 40
0.0
 40
0.0
 40
0.0
 40
0.0
 40
0.0000886731256075
 40
0.0677575667472892
 40
0.136745920189166
 40
0.1957835553212561
 40
0.2536920580758726
 40
0.3376370357060042
 40
0.4230411183765196
 40
0.506986096006651
 40
0.5909310736367825
 40
0.676335156307298
 40
0.7602801339374294
 40
0.8442251115675609
 40
0.9296291942380766
 40
1.0
 40
1.0
 40
1.0
 40
1.0
 10
-9.187774270939844
 20
-14.10131486644006
 30
0.0
 10
-9.187883363976775
 20
-14.10129324469471
 30
0.0
 10
-9.271244344892075
 20
-14.08477147619092
 30
0.0
 10
-9.012255380909952
 20
-14.05242283542556
 30
0.0
 10
-8.479478968912705
 20
-14.0024377601346
 30
0.0
 10
-7.596586804553441
 20
-13.95546531826453
 30
0.0
 10
-6.374462988270486
 20
-13.90764425397653
 30
0.0
 10
-4.646939535528606
 20
-13.85266144166707
 30
0.0
 10
-2.405370978517261
 20
-13.78729965604036
 30
0.0
 10
-0.0000235975329464
 20
-13.72624637365197
 30
0.0
 10
2.405466188978682
 20
-13.66521498777736
 30
0.0
 10
4.646602578912455
 20
-13.59978675141278
 30
0.0
 10
6.573609282031015
 20
-13.53874516147026
 30
0.0
 10
8.038107942192703
 20
-13.47773278327133
 30
0.0
 10
8.966063639951164
 20
-13.41572698350083
 30
0.0
 10
9.084536662016292
 20
-13.37815329980192
 30
0.0
 10
9.138056469397757
 20
-13.36117950881453
 30
0.0
  0
SPLINE
  5
259
330
1B
100
AcDbEntity
  8
0
  6
Continuous
 62
     7
370
    25
100
AcDbSpline
210
0.0
220
0.0
230
1.0
 70
     8
 71
     3
 72
    20
 73
    16
 74
     0
 42
0.000000001
 43
0.00000001
 40
0.0
 40
0.0
 40
0.0
 40
0.0
 40
0.0675376351228488
 40
0.1365422640742913
 40
0.1955938271746165
 40
0.2535159915162037
 40
0.3374807731743812
 40
0.422905004100292
 40
0.5068697857584694
 40
0.590834567416647
 40
0.6762587983425579
 40
0.7602235800007353
 40
0.8441883616589126
 40
0.9296125925848238
 40
0.9999999999999999
 40
0.9999999999999999
 40
0.9999999999999999
 40
0.9999999999999999
 10
-9.187663750253533
 20
-12.60114310117438
 30
0.0
 10
-9.148724151164062
 20
-12.58496277111304
 30
0.0
 10
-9.069999140847216
 20
-12.5522506559194
 30
0.0
 10
-8.466262716243856
 20
-12.50246835115999
 30
0.0
 10
-7.599782147881871
 20
-12.45545792215676
 30
0.0
 10
-6.373180262320055
 20
-12.40764722304069
 30
0.0
 10
-4.647342887934601
 20
-12.35266050804662
 30
0.0
 10
-2.405264185907317
 20
-12.28729990322809
 30
0.0
 10
-0.0000519887218486
 20
-12.22624630793624
 30
0.0
 10
2.405473948097675
 20
-12.16521500573701
 30
0.0
 10
4.646600524576692
 20
-12.0997867466577
 30
0.0
 10
6.573609828225923
 20
-12.03874516273451
 30
0.0
 10
8.038107792761272
 20
-11.97773278292545
 30
0.0
 10
8.966063669960628
 20
-11.9157269835703
 30
0.0
 10
9.084536671354478
 20
-11.87815329982353
 30
0.0
 10
9.138056469397757
 20
-11.86117950881453
 30
0.0
  0
SPLINE
  5
25A
330
1B
100
AcDbEntity
  8
0
  6
Continuous
 62
     7
370
    25
100
AcDbSpline
210
0.0
220
0.0
230
1.0
 70
     8
 71
     3
 72
    21
 73
    17
 74
     0
 42
0.000000001
 43
0.00000001
 40
0.0
 40
0.0
 40
0.0
 40
0.0
 40
0.0001941501466048
 40
0.0678559056220114
 40
0.1368369817325799
 40
0.195868389198563
 40
0.2537707833951536
 40
0.3377069059739119
 40
0.4231019796773529
 40
0.5070381022561111
 40
0.5909742248348695
 40
0.6763692985383106
 40
0.7603054211170689
 40
0.8442415436958272
 40
0.9296366173992685
 40
1.0
 40
1.0
 40
1.0
 40
1.0
 10
-9.187385326931542
 20
-11.1013920378641
 30
0.0
 10
-9.187624525551234
 20
-11.10134469124503
 30
0.0
 10
-9.271224972147282
 20
-11.08479694316807
 30
0.0
 10
-9.012359561782167
 20
-11.05242259278835
 30
0.0
 10
-8.479455310432437
 20
-11.00243781523519
 30
0.0
 10
-7.596592524553577
 20
-10.95546530494264
 30
0.0
 10
-6.374460692056322
 20
-10.90764425932442
 30
0.0
 10
-4.646940257571773
 20
-10.85266143998542
 30
0.0
 10
-2.405370787347274
 20
-10.7872996564856
 30
0.0
 10
-0.0000236483561549
 20
-10.7262463735336
 30
0.0
 10
2.405466202868319
 20
-10.6652149878097
 30
0.0
 10
4.646602575234979
 20
-10.59978675140422
 30
0.0
 10
6.573609283008762
 20
-10.53874516147253
 30
0.0
 10
8.038107941925203
 20
-10.47773278327072
 30
0.0
 10
8.966063640004883
 20
-10.41572698350096
 30
0.0
 10
9.084536662033011
 20
-10.37815329980196
 30
0.0
 10
9.138056469397757
 20
-10.36117950881453
 30
0.0
  0
SPLINE
  5
25B
330
1B
100
AcDbEntity
  8
0
  6
Continuous
 62
     7
370
    25
100
AcDbSpline
210
0.0
220
0.0
230
1.0
 70
    24
 71
     3
 72
    10
 73
     6
 74
     0
 42
0.000000001
 43
0.00000001
 40
0.0
 40
0.0
 40
0.0
 40
0.0
 40
0.4643498842764323
 40
0.818689086231982
 40
1.0
 40
1.0
 40
1.0
 40
1.0
 10
-8.37707431275947
 20
-18.49999999999999
 30
0.0
 10
-8.639143697280794
 20
-18.5
 30
0.0
 10
-9.101194732950725
 20
-18.5
 30
0.0
 10
-9.362341112211531
 20
-18.49999999999998
 30
0.0
 10
-9.344986523651464
 20
-18.49999999999999
 30
0.0
 10
-9.339112210891082
 20
-18.49999999999999
 30
0.0
  0
SPLINE
  5
25E
330
1B
100
AcDbEntity
  8
0
  6
Continuous
 62
     7
370
    25
100
AcDbSpline
210
0.0
220
0.0
230
1.0
 70
     8
 71
     3
 72
    21
 73
    17
 74
     0
 42
0.000000001
 43
0.00000001
 40
0.0
 40
0.0
 40
0.0
 40
0.0
 40
0.0699773268334145
 40
0.1554167388449283
 40
0.239396442224076
 40
0.3233761456032237
 40
0.4088155576147373
 40
0.4927952609938848
 40
0.5767749643730322
 40
0.6622143763845455
 40
0.7461940797636935
 40
0.8189691183271359
 40
0.8931357076388914
 40
0.9667780017907389
 40
0.9998261229267423
 40
1.0
 40
1.0
 40
1.0
 40
1.0
 10
-9.136499127753089
 20
-17.46601149894887
 30
0.0
 10
-9.083199570594385
 20
-17.44913903051735
 30
0.0
 10
-8.96482346607121
 20
-17.41166597833672
 30
0.0
 10
-8.037995496681567
 20
-17.34976657600023
 30
0.0
 10
-6.573639204549608
 20
-17.28875506109745
 30
0.0
 10
-4.646594294141861
 20
-17.22771301603067
 30
0.0
 10
-2.405468788304619
 20
-17.16228574914133
 30
0.0
 10
0.0000257694486379
 20
-17.10125099017962
 30
0.0
 10
2.405364814677176
 20
-17.04021026807975
 30
0.0
 10
4.646962264227554
 20
-16.97480109790364
 30
0.0
 10
6.487165500441852
 20
-16.91639557997345
 30
0.0
 10
7.855077428224983
 20
-16.86099823247692
 30
0.0
 10
8.781291675596803
 20
-16.80479059706499
 30
0.0
 10
9.09364549004513
 20
-16.7590025830098
 30
0.0
 10
9.228629718765063
 20
-16.73426323783152
 30
0.0
 10
9.187674759274241
 20
-16.72616524677417
 30
0.0
 10
9.187460409479662
 20
-16.72612286356245
 30
0.0
  0
SPLINE
  5
25F
330
1B
100
AcDbEntity
  8
0
  6
Continuous
 62
     7
370
    25
100
AcDbSpline
210
0.0
220
0.0
230
1.0
 70
     8
 71
     3
 72
    21
 73
    17
 74
     0
 42
0.000000001
 43
0.00000001
 40
0.0
 40
0.0
 40
0.0
 40
0.0
 40
0.0690228444651397
 40
0.1532968731159131
 40
0.2361311033854753
 40
0.3189653336550377
 40
0.4032393623058108
 40
0.486073592575373
 40
0.5689078228449349
 40
0.6531818514957077
 40
0.7360160817652703
 40
0.8077984775070646
 40
0.880953443411403
 40
0.9535912654791058
 40
0.9861886141955792
 40
1.0
 40
1.0
 40
1.0
 40
1.0
 10
-9.136499127753089
 20
-15.96601149894887
 30
0.0
 10
-9.083199573777122
 20
-15.94913903050174
 30
0.0
 10
-8.964823476322668
 20
-15.91166597828641
 30
0.0
 10
-8.037995445273838
 20
-15.84976657625258
 30
0.0
 10
-6.573639392415648
 20
-15.7887550601753
 30
0.0
 10
-4.646593587554583
 20
-15.72771301949903
 30
0.0
 10
-2.405471457045106
 20
-15.6622857360415
 30
0.0
 10
0.0000355345662855
 20
-15.60125103811286
 30
0.0
 10
2.405328083478696
 20
-15.54021008778031
 30
0.0
 10
4.647100996835396
 20
-15.47480177888905
 30
0.0
 10
6.486686448071756
 20
-15.41639322848823
 30
0.0
 10
7.856614814692428
 20
-15.3610057789202
 30
0.0
 10
8.775420742067078
 20
-15.30476177889346
 30
0.0
 10
9.110317659630073
 20
-15.25908442032585
 30
0.0
 10
9.22621263031603
 20
-15.23096430155366
 30
0.0
 10
9.157074772389272
 20
-15.21944089969594
 30
0.0
 10
9.136499127753071
 20
-15.21601149894887
 30
0.0
  0
SPLINE
  5
260
330
1B
100
AcDbEntity
  8
0
  6
Continuous
 62
     7
370
    25
100
AcDbSpline
210
0.0
220
0.0
230
1.0
 70
     8
 71
     3
 72
    21
 73
    17
 74
     0
 42
0.000000001
 43
0.00000001
 40
0.0
 40
0.0
 40
0.0
 40
0.0
 40
0.0699799175207133
 40
0.1554224926539061
 40
0.2394053051136769
 40
0.3233881175734479
 40
0.4088306927066403
 40
0.4928135051664111
 40
0.5767963176261818
 40
0.6622388927593739
 40
0.7462217052191452
 40
0.8189994380462389
 40
0.8931687731393728
 40
0.9668137936622433
 40
0.9998631382995086
 40
1.0
 40
1.0
 40
1.0
 40
1.0
 10
-9.136499127753087
 20
-14.46601149894887
 30
0.0
 10
-9.083199570581971
 20
-14.44913903051742
 30
0.0
 10
-8.964823466031236
 20
-14.41166597833693
 30
0.0
 10
-8.037995496882035
 20
-14.34976657599926
 30
0.0
 10
-6.57363920381702
 20
-14.28875506110105
 30
0.0
 10
-4.646594296897215
 20
-14.22771301601715
 30
0.0
 10
-2.405468777897801
 20
-14.16228574919241
 30
0.0
 10
0.0000257313693339
 20
-14.10125098999271
 30
0.0
 10
2.405364957911335
 20
-14.04021026878283
 30
0.0
 10
4.646961723236532
 20
-13.97480109524812
 30
0.0
 10
6.487167368517696
 20
-13.91639558914308
 30
0.0
 10
7.855071433150741
 20
-13.86099820304945
 30
0.0
 10
8.781314569438491
 20
-13.80479070944186
 30
0.0
 10
9.093580476532523
 20
-13.75900226388399
 30
0.0
 10
9.22864411957716
 20
-13.73427210837748
 30
0.0
 10
9.187765424467614
 20
-13.72618329153211
 30
0.0
 10
9.18759683852954
 20
-13.72614993281622
 30
0.0
  0
SPLINE
  5
261
330
1B
100
AcDbEntity
  8
0
  6
Continuous
 62
     7
370
    25
100
AcDbSpline
210
0.0
220
0.0
230
1.0
 70
     8
 71
     3
 72
    21
 73
    17
 74
     0
 42
0.000000001
 43
0.00000001
 40
0.0
 40
0.0
 40
0.0
 40
0.0
 40
0.0690228444651392
 40
0.1532968731159126
 40
0.2361311033854748
 40
0.3189653336550372
 40
0.4032393623058103
 40
0.4860735925753725
 40
0.5689078228449345
 40
0.6531818514957073
 40
0.7360160817652699
 40
0.8077984775070641
 40
0.8809534434114025
 40
0.9535912654791052
 40
0.9861886141955788
 40
1.0
 40
1.0
 40
1.0
 40
1.0
 10
-9.136499127753085
 20
-12.96601149894887
 30
0.0
 10
-9.083199573777119
 20
-12.94913903050174
 30
0.0
 10
-8.964823476322668
 20
-12.91166597828641
 30
0.0
 10
-8.037995445273832
 20
-12.84976657625257
 30
0.0
 10
-6.573639392415648
 20
-12.78875506017529
 30
0.0
 10
-4.646593587554582
 20
-12.72771301949904
 30
0.0
 10
-2.405471457045107
 20
-12.6622857360415
 30
0.0
 10
0.0000355345662865
 20
-12.60125103811285
 30
0.0
 10
2.405328083478695
 20
-12.54021008778031
 30
0.0
 10
4.647100996835397
 20
-12.47480177888905
 30
0.0
 10
6.486686448071755
 20
-12.41639322848823
 30
0.0
 10
7.856614814692428
 20
-12.3610057789202
 30
0.0
 10
8.775420742067078
 20
-12.30476177889346
 30
0.0
 10
9.110317659630075
 20
-12.25908442032585
 30
0.0
 10
9.226212630316029
 20
-12.23096430155365
 30
0.0
 10
9.157074772389272
 20
-12.21944089969594
 30
0.0
 10
9.13649912775307
 20
-12.21601149894887
 30
0.0
  0
SPLINE
  5
262
330
1B
100
AcDbEntity
  8
0
  6
Continuous
 62
     7
370
    25
100
AcDbSpline
210
0.0
220
0.0
230
1.0
 70
     8
 71
     3
 72
    21
 73
    17
 74
     0
 42
0.000000001
 43
0.00000001
 40
0.0
 40
0.0
 40
0.0
 40
0.0
 40
0.0690228444651394
 40
0.1532968731159128
 40
0.236131103385475
 40
0.3189653336550373
 40
0.4032393623058104
 40
0.4860735925753726
 40
0.5689078228449346
 40
0.6531818514957074
 40
0.73601608176527
 40
0.8077984775070641
 40
0.8809534434114026
 40
0.9535912654791053
 40
0.9861886141955788
 40
1.0
 40
1.0
 40
1.0
 40
1.0
 10
-9.136499127753087
 20
-11.46601149894887
 30
0.0
 10
-9.083199573777117
 20
-11.44913903050174
 30
0.0
 10
-8.964823476322668
 20
-11.41166597828641
 30
0.0
 10
-8.037995445273836
 20
-11.34976657625257
 30
0.0
 10
-6.57363939241565
 20
-11.28875506017529
 30
0.0
 10
-4.64659358755458
 20
-11.22771301949904
 30
0.0
 10
-2.405471457045106
 20
-11.1622857360415
 30
0.0
 10
0.0000355345662855
 20
-11.10125103811285
 30
0.0
 10
2.405328083478696
 20
-11.04021008778031
 30
0.0
 10
4.647100996835396
 20
-10.97480177888904
 30
0.0
 10
6.486686448071755
 20
-10.91639322848823
 30
0.0
 10
7.85661481469243
 20
-10.8610057789202
 30
0.0
 10
8.77542074206708
 20
-10.80476177889346
 30
0.0
 10
9.11031765963007
 20
-10.75908442032584
 30
0.0
 10
9.226212630316033
 20
-10.73096430155367
 30
0.0
 10
9.157074772389272
 20
-10.71944089969594
 30
0.0
 10
9.13649912775307
 20
-10.71601149894887
 30
0.0
  0
SPLINE
  5
263
330
1B
100
AcDbEntity
  8
0
  6
Continuous
 62
     7
370
    25
100
AcDbSpline
210
0.0
220
0.0
230
1.0
 70
     8
 71
     3
 72
    11
 73
     7
 74
     0
 42
0.000000001
 43
0.00000001
 40
0.0
 40
0.0
 40
0.0
 40
0.0
 40
0.2571191141120073
 40
0.4999759568823748
 40
0.7549303236282464
 40
1.0
 40
1.0
 40
1.0
 40
1.0
 10
8.944550708306645
 20
-18.49999985709588
 30
0.0
 10
8.966770231026986
 20
-18.47831703338557
 30
0.0
 10
9.009976770423874
 20
-18.43615412157747
 30
0.0
 10
9.063155177699796
 20
-18.37296708177186
 30
0.0
 10
9.107586949665857
 20
-18.31116663325634
 30
0.0
 10
9.129454524539877
 20
-18.27000141877238
 30
0.0
 10
9.140172168163566
 20
-18.24982569736416
 30
0.0
  0
SPLINE
  5
264
330
1B
100
AcDbEntity
  8
0
  6
Continuous
 62
     7
370
    25
100
AcDbSpline
210
0.0
220
0.0
230
1.0
 70
    24
 71
     3
 72
    38
 73
    34
 74
     0
 42
0.000000001
 43
0.00000001
 40
0.0
 40
0.0
 40
0.0
 40
0.0
 40
0.0624999999999993
 40
0.0624999999999993
 40
0.1249999999999986
 40
0.1249999999999986
 40
0.1562499999999986
 40
0.1562499999999986
 40
0.1874999999999987
 40
0.1874999999999987
 40
0.2499999999999988
 40
0.2499999999999988
 40
0.3124999999999988
 40
0.3124999999999988
 40
0.3749999999999989
 40
0.3749999999999989
 40
0.4374999999999989
 40
0.4374999999999989
 40
0.499999999999999
 40
0.499999999999999
 40
0.5624999999999991
 40
0.5624999999999991
 40
0.6249999999999991
 40
0.6249999999999991
 40
0.7499999999999992
 40
0.7499999999999992
 40
0.8124999999999994
 40
0.8124999999999994
 40
0.8749999999999996
 40
0.8749999999999996
 40
0.9374999999999998
 40
0.9374999999999998
 40
1.0
 40
1.0
 40
1.0
 40
1.0
 10
8.944550715320407
 20
-18.49999999999999
 30
0.0
 10
8.834998569890681
 20
-18.49999999999999
 30
0.0
 10
8.688506012680984
 20
-18.5
 30
0.0
 10
8.330680496659701
 20
-18.5
 30
0.0
 10
8.119216058059527
 20
-18.49999999999999
 30
0.0
 10
7.753527655385693
 20
-18.49999999999999
 30
0.0
 10
7.62351399204019
 20
-18.5
 30
0.0
 10
7.346863740216959
 20
-18.50000000000002
 30
0.0
 10
7.200118782908467
 20
-18.49999999999999
 30
0.0
 10
6.742486198478221
 20
-18.49999999999999
 30
0.0
 10
6.411968706673226
 20
-18.49999999999999
 30
0.0
 10
5.700955143391169
 20
-18.49999999999999
 30
0.0
 10
5.31829851930463
 20
-18.49999999999999
 30
0.0
 10
4.510517674454679
 20
-18.49999999999999
 30
0.0
 10
4.087842834178881
 20
-18.49999999999999
 30
0.0
 10
3.209075832970959
 20
-18.5
 30
0.0
 10
2.754494083360037
 20
-18.49999999999999
 30
0.0
 10
1.83697176093625
 20
-18.5
 30
0.0
 10
1.371838429134647
 20
-18.49999999999999
 30
0.0
 10
0.4288276873020196
 20
-18.49999999999999
 30
0.0
 10
-0.0519791507277231
 20
-18.5
 30
0.0
 10
-1.005261941151053
 20
-18.5
 30
0.0
 10
-1.481167056364518
 20
-18.49999999999999
 30
0.0
 10
-2.881124780371623
 20
-18.49999999999999
 30
0.0
 10
-3.784365138871737
 20
-18.49999999999999
 30
0.0
 10
-5.024064099693802
 20
-18.49999999999999
 30
0.0
 10
-5.419560002686642
 20
-18.49999999999999
 30
0.0
 10
-6.159557275520212
 20
-18.5
 30
0.0
 10
-6.5025554851661
 20
-18.5
 30
0.0
 10
-7.135897157710079
 20
-18.5
 30
0.0
 10
-7.42693883505845
 20
-18.49999999999999
 30
0.0
 10
-7.950897289215954
 20
-18.5
 30
0.0
 10
-8.180313047608847
 20
-18.49999999999999
 30
0.0
 10
-8.37707431275947
 20
-18.49999999999999
 30
0.0
  0
SPLINE
  5
265
330
1B
100
AcDbEntity
  8
0
  6
Continuous
 62
     7
370
    25
100
AcDbSpline
210
0.0
220
0.0
230
1.0
 70
    24
 71
     3
 72
     9
 73
     5
 74
     0
 42
0.000000001
 43
0.00000001
 40
0.0
 40
0.0
 40
0.0
 40
0.0
 40
0.0939414177011819
 40
1.0
 40
1.0
 40
1.0
 40
1.0
 10
9.26477189989597
 20
-18.5
 30
0.0
 10
9.273235581459481
 20
-18.49999999999999
 30
0.0
 10
9.363330895865236
 20
-18.5
 30
0.0
 10
9.143620886147875
 20
-18.5
 30
0.0
 10
8.944550746226502
 20
-18.5
 30
0.0
  0
LINE
  5
273
330
1B
100
AcDbEntity
  8
0
  6
Continuous
 62
     7
370
    25
100
AcDbLine
 10
-10.0
 20
-17.945
 30
0.0
 11
-10.0
 21
-18.1325000041
 31
0.0
  0
LINE
  5
274
330
1B
100
AcDbEntity
  8
0
  6
Continuous
 62
     7
370
    25
100
AcDbLine
 10
-10.0
 20
-16.445
 30
0.0
 11
-10.0
 21
-16.6325000041
 31
0.0
  0
LINE
  5
275
330
1B
100
AcDbEntity
  8
0
  6
Continuous
 62
     7
370
    25
100
AcDbLine
 10
-10.0
 20
-14.945
 30
0.0
 11
-10.0
 21
-15.1325000041
 31
0.0
  0
LINE
  5
276
330
1B
100
AcDbEntity
  8
0
  6
Continuous
 62
     7
370
    25
100
AcDbLine
 10
-10.0
 20
-13.445
 30
0.0
 11
-10.0
 21
-13.6325000041
 31
0.0
  0
LINE
  5
277
330
1B
100
AcDbEntity
  8
0
  6
Continuous
 62
     7
370
    25
100
AcDbLine
 10
-10.0
 20
-11.945
 30
0.0
 11
-10.0
 21
-12.1325000041
 31
0.0
  0
LINE
  5
278
330
1B
100
AcDbEntity
  8
0
  6
Continuous
 62
     7
370
    25
100
AcDbLine
 10
-10.0
 20
-8.5
 30
0.0
 11
-10.0
 21
-10.6325000041
 31
0.0
  0
LINE
  5
279
330
1B
100
AcDbEntity
  8
0
  6
Continuous
 62
     7
370
    25
100
AcDbLine
 10
10.0
 20
-9.8825000041
 30
0.0
 11
10.0
 21
-8.5
 31
0.0
  0
LINE
  5
27A
330
1B
100
AcDbEntity
  8
0
  6
Continuous
 62
     7
370
    25
100
AcDbLine
 10
10.0
 20
-11.3825000041
 30
0.0
 11
10.0
 21
-11.195
 31
0.0
  0
LINE
  5
27B
330
1B
100
AcDbEntity
  8
0
  6
Continuous
 62
     7
370
    25
100
AcDbLine
 10
10.0
 20
-12.8825000041
 30
0.0
 11
10.0
 21
-12.695
 31
0.0
  0
LINE
  5
27C
330
1B
100
AcDbEntity
  8
0
  6
Continuous
 62
     7
370
    25
100
AcDbLine
 10
10.0
 20
-14.3825000041
 30
0.0
 11
10.0
 21
-14.195
 31
0.0
  0
LINE
  5
27D
330
1B
100
AcDbEntity
  8
0
  6
Continuous
 62
     7
370
    25
100
AcDbLine
 10
10.0
 20
-15.8825000041
 30
0.0
 11
10.0
 21
-15.695
 31
0.0
  0
LINE
  5
27E
330
1B
100
AcDbEntity
  8
0
  6
Continuous
 62
     7
370
    25
100
AcDbLine
 10
10.0
 20
-17.3825000041
 30
0.0
 11
10.0
 21
-17.195
 31
0.0
  0
LINE
  5
27F
330
1B
100
AcDbEntity
  8
0
  6
Continuous
 62
     7
370
    25
100
AcDbLine
 10
-9.1880995034
 20
-11.1013870534
 30
0.0
 11
-9.1880995034
 21
-11.4713412652
 31
0.0
  0
LINE
  5
280
330
1B
100
AcDbEntity
  8
0
  6
Continuous
 62
     7
370
    25
100
AcDbLine
 10
-9.1880996405
 20
-12.6011186452
 30
0.0
 11
-9.1880996405
 21
-12.9713413444
 31
0.0
  0
LINE
  5
281
330
1B
100
AcDbEntity
  8
0
  6
Continuous
 62
     7
370
    25
100
AcDbLine
 10
-9.1881008363
 20
-14.1013125872
 30
0.0
 11
-9.1881008363
 21
-14.4713420354
 31
0.0
  0
LINE
  5
282
330
1B
100
AcDbEntity
  8
0
  6
Continuous
 62
     7
370
    25
100
AcDbLine
 10
-9.1881010598
 20
-15.6012877351
 30
0.0
 11
-9.1881010598
 21
-15.9713421646
 31
0.0
  0
LINE
  5
283
330
1B
100
AcDbEntity
  8
0
  6
Continuous
 62
     7
370
    25
100
AcDbLine
 10
-9.1881000962
 20
-17.1011396774
 30
0.0
 11
-9.1881000962
 21
-17.4713416078
 31
0.0
  0
LINE
  5
284
330
1B
100
AcDbEntity
  8
0
  6
Continuous
 62
     7
370
    25
100
AcDbLine
 10
9.1881010225
 20
-18.2262936921
 30
0.0
 11
9.1881010225
 21
-17.8561567991
 31
0.0
  0
LINE
  5
285
330
1B
100
AcDbEntity
  8
0
  6
Continuous
 62
     7
370
    25
100
AcDbLine
 10
9.1880998382
 20
-16.7261228636
 30
0.0
 11
9.1880998382
 21
-16.3561574834
 31
0.0
  0
LINE
  5
286
330
1B
100
AcDbEntity
  8
0
  6
Continuous
 62
     7
370
    25
100
AcDbLine
 10
9.1880994366
 20
-15.2263923201
 30
0.0
 11
9.1880994366
 21
-14.8561577155
 31
0.0
  0
LINE
  5
287
330
1B
100
AcDbEntity
  8
0
  6
Continuous
 62
     7
370
    25
100
AcDbLine
 10
9.1881003516
 20
-13.7261499328
 30
0.0
 11
9.1881003516
 21
-13.3561571868
 31
0.0
  0
LINE
  5
288
330
1B
100
AcDbEntity
  8
0
  6
Continuous
 62
     7
370
    25
100
AcDbLine
 10
9.1881011721
 20
-12.2262633555
 30
0.0
 11
9.1881011721
 21
-11.8561567126
 31
0.0
  0
LINE
  5
289
330
1B
100
AcDbEntity
  8
0
  6
Continuous
 62
     7
370
    25
100
AcDbLine
 10
9.1881006055
 20
-10.7263320506
 30
0.0
 11
9.1881006055
 21
-10.35615704
 31
0.0
  0
LINE
  5
28A
330
1B
100
AcDbEntity
  8
0
  6
Continuous
 62
     7
370
    25
100
AcDbLine
 10
9.2904667875
 20
-18.5
 30
0.0
 11
9.2373943917
 21
-18.2498278968
 31
0.0
  0
LINE
  5
28B
330
1B
100
AcDbEntity
  8
0
  6
Continuous
 62
     7
370
    25
100
AcDbLine
 10
13.4630901001
 20
11.5
 30
0.0
 11
13.4630901001
 21
111.5
 31
0.0
  0
LINE
  5
28C
330
1B
100
AcDbEntity
  8
0
  6
Continuous
 62
     7
370
    25
100
AcDbLine
 10
-13.4630901001
 20
111.5
 30
0.0
 11
-13.4630901001
 21
11.5
 31
0.0
  0
LINE
  5
28D
330
1B
100
AcDbEntity
  8
0
  6
Continuous
 62
     7
370
    25
100
AcDbLine
 10
-14.0
 20
11.5
 30
0.0
 11
14.0
 21
11.5
 31
0.0
  0
LINE
  5
28E
330
1B
100
AcDbEntity
  8
0
  6
Continuous
 62
     7
370
    25
100
AcDbLine
 10
14.5
 20
7.2995169646
 30
0.0
 11
-14.5
 21
7.2995169646
 31
0.0
  0
LINE
  5
28F
330
1B
100
AcDbEntity
  8
0
  6
Continuous
 62
     7
370
    25
100
AcDbLine
 10
11.499999932
 20
-8.5
 30
0.0
 11
-11.5
 21
-8.5
 31
0.0
  0
LINE
  5
290
330
1B
100
AcDbEntity
  8
0
  6
Continuous
 62
     7
370
    25
100
AcDbLine
 10
9.1401724264
 20
-18.249826766
 30
0.0
 11
9.1632089388
 21
-18.2498266915
 31
0.0
  0
LINE
  5
291
330
1B
100
AcDbEntity
  8
0
  6
Continuous
 62
     7
370
    25
100
AcDbLine
 10
9.1401721909
 20
-18.2498267663
 30
0.0
 11
9.1880123703
 21
-18.2262936921
 31
0.0
  0
LINE
  5
292
330
1B
100
AcDbEntity
  8
0
  6
Continuous
 62
     7
370
    25
100
AcDbLine
 10
-0.653379199
 20
111.5
 30
0.0
 11
-0.653379199
 21
11.5
 31
0.0
  0
LINE
  5
293
330
1B
100
AcDbEntity
  8
0
  6
Continuous
 62
     7
370
    25
100
AcDbLine
 10
-1.0353079038
 20
11.5
 30
0.0
 11
-1.0353079038
 21
111.5
 31
0.0
  0
LINE
  5
294
330
1B
100
AcDbEntity
  8
0
  6
Continuous
 62
     7
370
    25
100
AcDbLine
 10
8.751719029
 20
11.5
 30
0.0
 11
8.751719029
 21
111.5
 31
0.0
  0
LINE
  5
295
330
1B
100
AcDbEntity
  8
0
  6
Continuous
 62
     7
370
    25
100
AcDbLine
 10
-9.9627875056
 20
111.5
 30
0.0
 11
-9.9627875056
 21
11.5
 31
0.0
  0
LINE
  5
296
330
1B
100
AcDbEntity
  8
0
  6
Continuous
 62
     7
370
    25
100
AcDbLine
 10
9.038769781
 20
111.5
 30
0.0
 11
9.038769781
 21
11.5
 31
0.0
  0
LINE
  5
297
330
1B
100
AcDbEntity
  8
0
  6
Continuous
 62
     7
370
    25
100
AcDbLine
 10
13.4121076487
 20
11.5
 30
0.0
 11
13.4121076487
 21
111.5
 31
0.0
  0
LINE
  5
298
330
1B
100
AcDbEntity
  8
0
  6
Continuous
 62
     7
370
    25
100
AcDbLine
 10
-10.2158655078
 20
11.5
 30
0.0
 11
-10.2158655078
 21
111.5
 31
0.0
  0
LINE
  5
299
330
1B
100
AcDbEntity
  8
0
  6
Continuous
 62
     7
370
    25
100
AcDbLine
 10
-13.4361300105
 20
111.5
 30
0.0
 11
-13.4361300105
 21
11.5
 31
0.0
  0
LINE
  5
29A
330
1B
100
AcDbEntity
  8
0
  6
Continuous
 62
     7
370
    25
100
AcDbLine
 10
14.0
 20
111.5
 30
0.0
 11
-14.0
 21
111.5
 31
0.0
  0
LINE
  5
29B
330
1B
100
AcDbEntity
  8
0
  6
Continuous
 62
     8
370
    25
100
AcDbLine
 10
11.2046974264
 20
-2.6338943027
 30
0.0
 11
-11.2046974264
 21
-2.6338943027
 31
0.0
  0
LINE
  5
29C
330
1B
100
AcDbEntity
  8
0
  6
Continuous
 62
     8
370
    25
100
AcDbLine
 10
12.3790926731
 20
-4.4298721506
 30
0.0
 11
-12.3790926731
 21
-4.4298721506
 31
0.0
  0
LINE
  5
29D
330
1B
100
AcDbEntity
  8
0
  6
Continuous
 62
     8
370
    25
100
AcDbLine
 10
14.4103809874
 20
115.7200926882
 30
0.0
 11
-14.4103809874
 21
115.7200926882
 31
0.0
  0
LINE
  5
29E
330
1B
100
AcDbEntity
  8
0
  6
Continuous
 62
     8
370
    25
100
AcDbLine
 10
13.4398254877
 20
116.2123955552
 30
0.0
 11
-13.4398254877
 21
116.2123955552
 31
0.0
  0
ARC
  5
29F
330
1B
100
AcDbEntity
  8
0
  6
Continuous
 62
     7
370
    25
100
AcDbCircle
 10
14.0
 20
9.37
 30
0.0
 40
2.130000000000004
100
AcDbArc
 50
283.5764023209
 51
90.0
  0
ARC
  5
2A0
330
1B
100
AcDbEntity
  8
0
  6
Continuous
 62
     7
370
    25
100
AcDbCircle
 10
-14.0
 20
9.37
 30
0.0
 40
2.130000000000004
100
AcDbArc
 50
90.0
 51
256.4235976791
  0
ARC
  5
2A1
330
1B
100
AcDbEntity
  8
0
  6
Continuous
 62
     7
370
    25
100
AcDbCircle
 10
27.2033724367
 20
-2.4279867612
 30
0.0
 40
16.00000000000003
100
AcDbArc
 50
142.5572083566
 51
180.7373724231
  0
ARC
  5
2A2
330
1B
100
AcDbEntity
  8
0
  6
Continuous
 62
     7
370
    25
100
AcDbCircle
 10
-27.2033724367
 20
-2.4279867612
 30
0.0
 40
16.00000000000008
100
AcDbArc
 50
359.2626275769
 51
37.4427916434
  0
ARC
  5
2A3
330
1B
100
AcDbEntity
  8
0
  6
Continuous
 62
     7
370
    25
100
AcDbCircle
 10
11.5
 20
-6.37
 30
0.0
 40
2.129999999999995
100
AcDbArc
 50
270.0
 51
65.6242115116
  0
ARC
  5
2A4
330
1B
100
AcDbEntity
  8
0
  6
Continuous
 62
     7
370
    25
100
AcDbCircle
 10
-11.5
 20
-6.37
 30
0.0
 40
2.129999999999995
100
AcDbArc
 50
114.3757884884
 51
270.0
  0
ARC
  5
2A5
330
1B
100
AcDbEntity
  8
0
  6
Continuous
 62
     7
370
    25
100
AcDbCircle
 10
13.2045318027
 20
-2.60815586
 30
0.0
 40
2.000000000000011
100
AcDbArc
 50
180.7373724231
 51
245.6242115116
  0
ARC
  5
2A6
330
1B
100
AcDbEntity
  8
0
  6
Continuous
 62
     7
370
    25
100
AcDbCircle
 10
-13.2045318027
 20
-2.60815586
 30
0.0
 40
2.000000000000012
100
AcDbArc
 50
294.3757884884
 51
359.2626275769
  0
ARC
  5
2A7
330
1B
100
AcDbEntity
  8
0
  6
Continuous
 62
     7
370
    25
100
AcDbCircle
 10
14.0
 20
113.63
 30
0.0
 40
2.13000000000001
100
AcDbArc
 50
270.0
 51
78.8915240476
  0
ARC
  5
2A8
330
1B
100
AcDbEntity
  8
0
  6
Continuous
 62
     7
370
    25
100
AcDbCircle
 10
-14.0
 20
113.63
 30
0.0
 40
2.130000000000002
100
AcDbArc
 50
101.1084759524
 51
270.0
  0
ARC
  5
2A9
330
1B
100
AcDbEntity
  8
0
  6
Continuous
 62
     7
370
    25
100
AcDbCircle
 10
14.795715248
 20
117.6826210339
 30
0.0
 40
2.000000000000055
100
AcDbArc
 50
227.3167432887
 51
258.8915240476
  0
ARC
  5
2AA
330
1B
100
AcDbEntity
  8
0
  6
Continuous
 62
     7
370
    25
100
AcDbCircle
 10
-14.795715248
 20
117.6826210339
 30
0.0
 40
1.99999999999989
100
AcDbArc
 50
281.1084759524
 51
312.6832567113
  0
ARC
  5
2AB
330
1B
100
AcDbEntity
  8
0
  6
Continuous
 62
     7
370
    25
100
AcDbCircle
 10
25.6428333299
 20
129.4444248631
 30
0.0
 40
17.99999999999906
100
AcDbArc
 50
207.46498233
 51
227.3167432887
  0
ARC
  5
2AC
330
1B
100
AcDbEntity
  8
0
  6
Continuous
 62
     7
370
    25
100
AcDbCircle
 10
-25.6428333299
 20
129.4444248631
 30
0.0
 40
17.99999999999955
100
AcDbArc
 50
312.6832567113
 51
332.53501767
  0
VIEWPORT
  5
320
330
1B
100
AcDbEntity
  8
0
100
AcDbViewport
 10
0.0
 20
0.0
 30
0.0
 40
205.6
 41
156.0
 68
     1
 69
     1
 12
-83.0553169019
 22
92.25
 13
0.0
 23
0.0
 14
10.0
 24
10.0
 15
10.0
 25
10.0
 16
0.0
 26
0.0
 36
1.0
 17
0.0
 27
0.0
 37
0.0
 42
50.0
 43
0.0
 44
0.0
 45
225.93
 50
0.0
 51
0.0
 72
   100
 90
   557152
  1

281
     0
 71
     1
 74
     0
110
0.0
120
0.0
130
0.0
111
1.0
121
0.0
131
0.0
112
0.0
122
1.0
132
0.0
 79
     0
146
0.0
  0
ENDBLK
  5
1D
330
1B
100
AcDbEntity
  8
0
100
AcDbBlockEnd
  0
ENDSEC
  0
SECTION
  2
ENTITIES
  0
SPLINE
  5
A2
330
1F
100
AcDbEntity
  8
0
  6
Continuous
 62
     7
370
    25
100
AcDbSpline
210
0.0
220
0.0
230
1.0
 70
     8
 71
     3
 72
     9
 73
     5
 74
     0
 42
0.000000001
 43
0.00000001
 40
0.0
 40
0.0
 40
0.0
 40
0.0
 40
0.505510615818427
 40
1.0
 40
1.0
 40
1.0
 40
1.0
 10
-39.37843491205801
 20
-16.81080591446546
 30
0.0
 10
-39.51387674638842
 20
-16.73254547408379
 30
0.0
 10
-39.78180748828023
 20
-16.57773084124969
 30
0.0
 10
-40.04973058657614
 20
-16.42290297474444
 30
0.0
 10
-40.1822157144605
 20
-16.34634223838211
 30
0.0
  0
SPLINE
  5
A3
330
1F
100
AcDbEntity
  8
0
  6
Continuous
 62
     7
370
    25
100
AcDbSpline
210
0.0
220
0.0
230
1.0
 70
     8
 71
     3
 72
     9
 73
     5
 74
     0
 42
0.000000001
 43
0.00000001
 40
0.0
 40
0.0
 40
0.0
 40
0.0
 40
0.5055106158533327
 40
1.0
 40
1.0
 40
1.0
 40
1.0
 10
-39.37843491205801
 20
-15.31080591446546
 30
0.0
 10
-39.51387674638843
 20
-15.2325454740838
 30
0.0
 10
-39.78180748826173
 20
-15.07773084126039
 30
0.0
 10
-40.04973058653913
 20
-14.92290297476581
 30
0.0
 10
-40.18221571440499
 20
-14.84634223841418
 30
0.0
  0
SPLINE
  5
A4
330
1F
100
AcDbEntity
  8
0
  6
Continuous
 62
     7
370
    25
100
AcDbSpline
210
0.0
220
0.0
230
1.0
 70
     8
 71
     3
 72
     9
 73
     5
 74
     0
 42
0.000000001
 43
0.00000001
 40
0.0
 40
0.0
 40
0.0
 40
0.0
 40
0.5055106158536383
 40
1.0
 40
1.0
 40
1.0
 40
1.0
 10
-39.37843491205801
 20
-13.81080591446546
 30
0.0
 10
-39.51387674638842
 20
-13.7325454740838
 30
0.0
 10
-39.78180748826156
 20
-13.57773084126049
 30
0.0
 10
-40.0497305865388
 20
-13.422902974766
 30
0.0
 10
-40.1822157144045
 20
-13.34634223841445
 30
0.0
  0
SPLINE
  5
A5
330
1F
100
AcDbEntity
  8
0
  6
Continuous
 62
     7
370
    25
100
AcDbSpline
210
0.0
220
0.0
230
1.0
 70
     8
 71
     3
 72
     9
 73
     5
 74
     0
 42
0.000000001
 43
0.00000001
 40
0.0
 40
0.0
 40
0.0
 40
0.0
 40
0.5055106158414899
 40
1.0
 40
1.0
 40
1.0
 40
1.0
 10
-39.37843491205801
 20
-12.31080591446546
 30
0.0
 10
-39.51387674638842
 20
-12.2325454740838
 30
0.0
 10
-39.78180748826802
 20
-12.07773084125677
 30
0.0
 10
-40.04973058655169
 20
-11.92290297475856
 30
0.0
 10
-40.18221571442382
 20
-11.84634223840329
 30
0.0
  0
SPLINE
  5
A6
330
1F
100
AcDbEntity
  8
0
  6
Continuous
 62
     7
370
    25
100
AcDbSpline
210
0.0
220
0.0
230
1.0
 70
     8
 71
     3
 72
     9
 73
     5
 74
     0
 42
0.000000001
 43
0.00000001
 40
0.0
 40
0.0
 40
0.0
 40
0.0
 40
0.4999861759511323
 40
0.9999999999999999
 40
0.9999999999999999
 40
0.9999999999999999
 40
0.9999999999999999
 10
-58.54958198720402
 20
-15.59123611224397
 30
0.0
 10
-58.6850124615388
 20
-15.66949892688876
 30
0.0
 10
-58.95588089920538
 20
-15.82602888393388
 30
0.0
 10
-59.22675706449608
 20
-15.98254546182638
 30
0.0
 10
-59.36219889174678
 20
-16.06080591446546
 30
0.0
  0
SPLINE
  5
A7
330
1F
100
AcDbEntity
  8
0
  6
Continuous
 62
     7
370
    25
100
AcDbSpline
210
0.0
220
0.0
230
1.0
 70
     8
 71
     3
 72
     9
 73
     5
 74
     0
 42
0.000000001
 43
0.00000001
 40
0.0
 40
0.0
 40
0.0
 40
0.0
 40
0.4999861759511191
 40
1.0
 40
1.0
 40
1.0
 40
1.0
 10
-58.54958198720402
 20
-14.09123611224397
 30
0.0
 10
-58.6850124615388
 20
-14.16949892688876
 30
0.0
 10
-58.95588089920537
 20
-14.32602888393389
 30
0.0
 10
-59.22675706449608
 20
-14.48254546182638
 30
0.0
 10
-59.36219889174678
 20
-14.56080591446546
 30
0.0
  0
SPLINE
  5
A8
330
1F
100
AcDbEntity
  8
0
  6
Continuous
 62
     7
370
    25
100
AcDbSpline
210
0.0
220
0.0
230
1.0
 70
     8
 71
     3
 72
     9
 73
     5
 74
     0
 42
0.000000001
 43
0.00000001
 40
0.0
 40
0.0
 40
0.0
 40
0.0
 40
0.4999861759511246
 40
1.0
 40
1.0
 40
1.0
 40
1.0
 10
-58.54958198720402
 20
-12.59123611224397
 30
0.0
 10
-58.68501246153881
 20
-12.66949892688876
 30
0.0
 10
-58.95588089920538
 20
-12.82602888393389
 30
0.0
 10
-59.22675706449608
 20
-12.98254546182639
 30
0.0
 10
-59.36219889174678
 20
-13.06080591446546
 30
0.0
  0
SPLINE
  5
A9
330
1F
100
AcDbEntity
  8
0
  6
Continuous
 62
     7
370
    25
100
AcDbSpline
210
0.0
220
0.0
230
1.0
 70
     8
 71
     3
 72
     9
 73
     5
 74
     0
 42
0.000000001
 43
0.00000001
 40
0.0
 40
0.0
 40
0.0
 40
0.0
 40
0.4999861759511246
 40
1.0
 40
1.0
 40
1.0
 40
1.0
 10
-58.54958198720402
 20
-11.09123611224397
 30
0.0
 10
-58.68501246153881
 20
-11.16949892688876
 30
0.0
 10
-58.95588089920538
 20
-11.32602888393387
 30
0.0
 10
-59.22675706449608
 20
-11.48254546182638
 30
0.0
 10
-59.36219889174678
 20
-11.56080591446545
 30
0.0
  0
SPLINE
  5
AA
330
1F
100
AcDbEntity
  8
0
  6
Continuous
 62
     7
370
    25
100
AcDbSpline
210
0.0
220
0.0
230
1.0
 70
     8
 71
     3
 72
     9
 73
     5
 74
     0
 42
0.000000001
 43
0.00000001
 40
0.0
 40
0.0
 40
0.0
 40
0.0
 40
0.4999861759511246
 40
1.0
 40
1.0
 40
1.0
 40
1.0
 10
-58.54958198720402
 20
-17.09123611224397
 30
0.0
 10
-58.68501246153881
 20
-17.16949892688876
 30
0.0
 10
-58.95588089920538
 20
-17.32602888393388
 30
0.0
 10
-59.22675706449608
 20
-17.48254546182638
 30
0.0
 10
-59.36219889174678
 20
-17.56080591446546
 30
0.0
  0
SPLINE
  5
AB
330
1F
100
AcDbEntity
  8
0
  6
Continuous
 62
     7
370
    25
100
AcDbSpline
210
0.0
220
0.0
230
1.0
 70
     8
 71
     3
 72
     9
 73
     5
 74
     0
 42
0.000000001
 43
0.00000001
 40
0.0
 40
0.0
 40
0.0
 40
0.0
 40
0.4179117492579756
 40
0.9999999999999999
 40
0.9999999999999999
 40
0.9999999999999999
 40
0.9999999999999999
 10
-39.49939758288813
 20
-18.24091042169892
 30
0.0
 10
-39.59451825387696
 20
-18.18594800613767
 30
0.0
 10
-39.82212772204269
 20
-18.05443120705545
 30
0.0
 10
-40.04973069690261
 20
-17.92290316584647
 30
0.0
 10
-40.1822157144025
 20
-17.84634223841561
 30
0.0
  0
SPLINE
  5
AC
330
1F
100
AcDbEntity
  8
0
  6
Continuous
 62
     7
370
    25
100
AcDbSpline
210
0.0
220
0.0
230
1.0
 70
     8
 71
     3
 72
     9
 73
     5
 74
     0
 42
0.000000001
 43
0.00000001
 40
0.0
 40
0.0
 40
0.0
 40
0.0
 40
0.4999974068217178
 40
1.0
 40
1.0
 40
1.0
 40
1.0
 10
-40.24243867486795
 20
-16.00273572609701
 30
0.0
 10
-40.1077341913408
 20
-15.92455017533798
 30
0.0
 10
-39.83832382702826
 20
-15.76817826281945
 30
0.0
 10
-39.56885252764918
 20
-15.61180884264515
 30
0.0
 10
-39.43411617917251
 20
-15.53362372706422
 30
0.0
  0
SPLINE
  5
AD
330
1F
100
AcDbEntity
  8
0
  6
Continuous
 62
     7
370
    25
100
AcDbSpline
210
0.0
220
0.0
230
1.0
 70
     8
 71
     3
 72
     9
 73
     5
 74
     0
 42
0.000000001
 43
0.00000001
 40
0.0
 40
0.0
 40
0.0
 40
0.0
 40
0.4999974068217183
 40
1.0
 40
1.0
 40
1.0
 40
1.0
 10
-40.24243867486795
 20
-14.502735726097
 30
0.0
 10
-40.10773419134077
 20
-14.42455017533798
 30
0.0
 10
-39.83832382702825
 20
-14.26817826281945
 30
0.0
 10
-39.56885252764917
 20
-14.11180884264515
 30
0.0
 10
-39.43411617917251
 20
-14.03362372706422
 30
0.0
  0
SPLINE
  5
AE
330
1F
100
AcDbEntity
  8
0
  6
Continuous
 62
     7
370
    25
100
AcDbSpline
210
0.0
220
0.0
230
1.0
 70
     8
 71
     3
 72
     9
 73
     5
 74
     0
 42
0.000000001
 43
0.00000001
 40
0.0
 40
0.0
 40
0.0
 40
0.0
 40
0.4999974068217086
 40
1.0
 40
1.0
 40
1.0
 40
1.0
 10
-40.24243867486795
 20
-13.002735726097
 30
0.0
 10
-40.10773419134079
 20
-12.92455017533799
 30
0.0
 10
-39.83832382702825
 20
-12.76817826281945
 30
0.0
 10
-39.56885252764917
 20
-12.61180884264515
 30
0.0
 10
-39.43411617917251
 20
-12.53362372706422
 30
0.0
  0
SPLINE
  5
AF
330
1F
100
AcDbEntity
  8
0
  6
Continuous
 62
     7
370
    25
100
AcDbSpline
210
0.0
220
0.0
230
1.0
 70
     8
 71
     3
 72
     9
 73
     5
 74
     0
 42
0.000000001
 43
0.00000001
 40
0.0
 40
0.0
 40
0.0
 40
0.0
 40
0.4999974068217116
 40
1.0
 40
1.0
 40
1.0
 40
1.0
 10
-40.24243867486795
 20
-11.502735726097
 30
0.0
 10
-40.1077341913408
 20
-11.42455017533799
 30
0.0
 10
-39.83832382702827
 20
-11.26817826281945
 30
0.0
 10
-39.56885252764918
 20
-11.11180884264516
 30
0.0
 10
-39.43411617917251
 20
-11.03362372706422
 30
0.0
  0
SPLINE
  5
B0
330
1F
100
AcDbEntity
  8
0
  6
Continuous
 62
     7
370
    25
100
AcDbSpline
210
0.0
220
0.0
230
1.0
 70
     8
 71
     3
 72
     9
 73
     5
 74
     0
 42
0.000000001
 43
0.00000001
 40
0.0
 40
0.0
 40
0.0
 40
0.0
 40
0.4999974068217126
 40
1.0
 40
1.0
 40
1.0
 40
1.0
 10
-40.24243867486795
 20
-10.002735726097
 30
0.0
 10
-40.10773419134079
 20
-9.924550175337984
 30
0.0
 10
-39.83832382702825
 20
-9.768178262819449
 30
0.0
 10
-39.56885252764917
 20
-9.61180884264516
 30
0.0
 10
-39.43411617917251
 20
-9.533623727064219
 30
0.0
  0
SPLINE
  5
B1
330
1F
100
AcDbEntity
  8
0
  6
Continuous
 62
     7
370
    25
100
AcDbSpline
210
0.0
220
0.0
230
1.0
 70
     8
 71
     3
 72
     9
 73
     5
 74
     0
 42
0.000000001
 43
0.00000001
 40
0.0
 40
0.0
 40
0.0
 40
0.0
 40
0.5051852421946162
 40
1.0
 40
1.0
 40
1.0
 40
1.0
 10
-59.36268833418713
 20
-16.26641047076428
 30
0.0
 10
-59.22725148915799
 20
-16.34466824422626
 30
0.0
 10
-58.95915805784404
 20
-16.49957730911106
 30
0.0
 10
-58.69107134920647
 20
-16.65449911020736
 30
0.0
 10
-58.55841808940115
 20
-16.7311567036956
 30
0.0
  0
SPLINE
  5
B2
330
1F
100
AcDbEntity
  8
0
  6
Continuous
 62
     7
370
    25
100
AcDbSpline
210
0.0
220
0.0
230
1.0
 70
     8
 71
     3
 72
     9
 73
     5
 74
     0
 42
0.000000001
 43
0.00000001
 40
0.0
 40
0.0
 40
0.0
 40
0.0
 40
0.505185242188664
 40
1.0
 40
1.0
 40
1.0
 40
1.0
 10
-59.36268833418713
 20
-14.76641047076428
 30
0.0
 10
-59.22725148915801
 20
-14.84466824422626
 30
0.0
 10
-58.95915805784088
 20
-14.99957730911287
 30
0.0
 10
-58.69107134920016
 20
-15.15449911021101
 30
0.0
 10
-58.55841808939168
 20
-15.23115670370107
 30
0.0
  0
SPLINE
  5
B3
330
1F
100
AcDbEntity
  8
0
  6
Continuous
 62
     7
370
    25
100
AcDbSpline
210
0.0
220
0.0
230
1.0
 70
     8
 71
     3
 72
     9
 73
     5
 74
     0
 42
0.000000001
 43
0.00000001
 40
0.0
 40
0.0
 40
0.0
 40
0.0
 40
0.5051852421953937
 40
0.9999999999999999
 40
0.9999999999999999
 40
0.9999999999999999
 40
0.9999999999999999
 10
-59.36268833418713
 20
-13.26641047076428
 30
0.0
 10
-59.22725148915799
 20
-13.34466824422625
 30
0.0
 10
-58.95915805784443
 20
-13.4995773091108
 30
0.0
 10
-58.69107134920731
 20
-13.65449911020687
 30
0.0
 10
-58.55841808940239
 20
-13.73115670369488
 30
0.0
  0
SPLINE
  5
B4
330
1F
100
AcDbEntity
  8
0
  6
Continuous
 62
     7
370
    25
100
AcDbSpline
210
0.0
220
0.0
230
1.0
 70
     8
 71
     3
 72
     9
 73
     5
 74
     0
 42
0.000000001
 43
0.00000001
 40
0.0
 40
0.0
 40
0.0
 40
0.0
 40
0.5051852421721038
 40
1.0
 40
1.0
 40
1.0
 40
1.0
 10
-59.36268833418713
 20
-11.76641047076428
 30
0.0
 10
-59.22725148915799
 20
-11.84466824422625
 30
0.0
 10
-58.95915805783208
 20
-11.99957730911797
 30
0.0
 10
-58.69107134918259
 20
-12.15449911022115
 30
0.0
 10
-58.55841808936531
 20
-12.2311567037163
 30
0.0
  0
SPLINE
  5
B5
330
1F
100
AcDbEntity
  8
0
  6
Continuous
 62
     7
370
    25
100
AcDbSpline
210
0.0
220
0.0
230
1.0
 70
     8
 71
     3
 72
     9
 73
     5
 74
     0
 42
0.000000001
 43
0.00000001
 40
0.0
 40
0.0
 40
0.0
 40
0.0
 40
0.5051852421937737
 40
0.9999999999999999
 40
0.9999999999999999
 40
0.9999999999999999
 40
0.9999999999999999
 10
-59.36268833418713
 20
-10.26641047076428
 30
0.0
 10
-59.22725148915799
 20
-10.34466824422625
 30
0.0
 10
-58.95915805784358
 20
-10.49957730911132
 30
0.0
 10
-58.69107134920558
 20
-10.65449911020787
 30
0.0
 10
-58.55841808939982
 20
-10.73115670369637
 30
0.0
  0
SPLINE
  5
B6
330
1F
100
AcDbEntity
  8
0
  6
Continuous
 62
     7
370
    25
100
AcDbSpline
210
0.0
220
0.0
230
1.0
 70
     8
 71
     3
 72
     9
 73
     5
 74
     0
 42
0.000000001
 43
0.00000001
 40
0.0
 40
0.0
 40
0.0
 40
0.0
 40
0.505185242194027
 40
1.0
 40
1.0
 40
1.0
 40
1.0
 10
-59.36268833418713
 20
-17.76641047076428
 30
0.0
 10
-59.22725148915801
 20
-17.84466824422626
 30
0.0
 10
-58.95915805784374
 20
-17.99957730911122
 30
0.0
 10
-58.69107134920587
 20
-18.15449911020771
 30
0.0
 10
-58.55841808940023
 20
-18.23115670369613
 30
0.0
  0
SPLINE
  5
B7
330
1F
100
AcDbEntity
  8
0
  6
Continuous
 62
     7
370
    25
100
AcDbSpline
210
0.0
220
0.0
230
1.0
 70
     8
 71
     3
 72
     9
 73
     5
 74
     0
 42
0.000000001
 43
0.00000001
 40
0.0
 40
0.0
 40
0.0
 40
0.0
 40
0.4999974068217083
 40
1.0
 40
1.0
 40
1.0
 40
1.0
 10
-40.24243867486795
 20
-17.50273572609701
 30
0.0
 10
-40.1077341913408
 20
-17.42455017533799
 30
0.0
 10
-39.83832382702827
 20
-17.26817826281945
 30
0.0
 10
-39.56885252764917
 20
-17.11180884264515
 30
0.0
 10
-39.43411617917251
 20
-17.03362372706422
 30
0.0
  0
SPLINE
  5
DC
330
1F
100
AcDbEntity
  8
0
  6
Continuous
 62
     7
370
    25
100
AcDbSpline
210
0.0
220
0.0
230
1.0
 70
     8
 71
     3
 72
    24
 73
    20
 74
     0
 42
0.000000001
 43
0.00000001
 40
0.0
 40
0.0
 40
0.0
 40
0.0
 40
0.0123435729348462
 40
0.0734726043812337
 40
0.1358006263179903
 40
0.1981286482547469
 40
0.2592576797011345
 40
0.3203867111475219
 40
0.3827147330842786
 40
0.4450427550210355
 40
0.5061717864674231
 40
0.5673008179138102
 40
0.6296288398505668
 40
0.6919568617873234
 40
0.7530858932337113
 40
0.8142149246800987
 40
0.8765429466168556
 40
0.9388709685536125
 40
1.0
 40
1.0
 40
1.0
 40
1.0
 10
-59.33226642560184
 20
-17.7666871819562
 30
0.0
 10
-59.34684445123133
 20
-17.76362191510161
 30
0.0
 10
-59.43361718027734
 20
-17.74537653832795
 30
0.0
 10
-59.22180697612676
 20
-17.71221797002585
 30
0.0
 10
-58.67548006075707
 20
-17.66373435109386
 30
0.0
 10
-57.73349954986496
 20
-17.61534404795263
 30
0.0
 10
-56.48646964780999
 20
-17.56999891409799
 30
0.0
 10
-54.9671615413496
 20
-17.52466036299474
 30
0.0
 10
-53.22233500745273
 20
-17.47624992341658
 30
0.0
 10
-51.32737469193922
 20
-17.42783996481555
 30
0.0
 10
-49.37032060508677
 20
-17.3824999984786
 30
0.0
 10
-47.41324415385889
 20
-17.33716006607112
 30
0.0
 10
-45.51835225029196
 20
-17.28875000368092
 30
0.0
 10
-43.77327546126585
 20
-17.24033994376983
 30
0.0
 10
-42.25488264083325
 20
-17.19500000406782
 30
0.0
 10
-41.004428930919
 20
-17.14966006454069
 30
0.0
 10
-40.0754713215486
 20
-17.10125000409464
 30
0.0
 10
-39.48065879068567
 20
-17.05283994366133
 30
0.0
 10
-39.40685862061058
 20
-17.02251514781131
 30
0.0
 10
-39.3703169019024
 20
-17.00750000409679
 30
0.0
  0
SPLINE
  5
DD
330
1F
100
AcDbEntity
  8
0
  6
Continuous
 62
     7
370
    25
100
AcDbSpline
210
0.0
220
0.0
230
1.0
 70
     8
 71
     3
 72
    24
 73
    20
 74
     0
 42
0.000000001
 43
0.00000001
 40
0.0
 40
0.0
 40
0.0
 40
0.0
 40
0.0123435729348465
 40
0.073472604381234
 40
0.1358006263179905
 40
0.1981286482547472
 40
0.2592576797011347
 40
0.3203867111475222
 40
0.3827147330842788
 40
0.4450427550210357
 40
0.5061717864674232
 40
0.5673008179138103
 40
0.629628839850567
 40
0.6919568617873234
 40
0.7530858932337113
 40
0.8142149246800988
 40
0.8765429466168557
 40
0.9388709685536125
 40
1.0
 40
1.0
 40
1.0
 40
1.0
 10
-59.33226642560184
 20
-16.2666871819562
 30
0.0
 10
-59.34684445123133
 20
-16.26362191510161
 30
0.0
 10
-59.43361718027729
 20
-16.24537653832793
 30
0.0
 10
-59.22180697612679
 20
-16.21221797002586
 30
0.0
 10
-58.67548006075707
 20
-16.16373435109385
 30
0.0
 10
-57.73349954986496
 20
-16.11534404795263
 30
0.0
 10
-56.48646964781
 20
-16.06999891409799
 30
0.0
 10
-54.96716154134959
 20
-16.02466036299474
 30
0.0
 10
-53.22233500745272
 20
-15.97624992341658
 30
0.0
 10
-51.32737469193922
 20
-15.92783996481555
 30
0.0
 10
-49.37032060508677
 20
-15.8824999984786
 30
0.0
 10
-47.4132441538589
 20
-15.83716006607112
 30
0.0
 10
-45.51835225029197
 20
-15.78875000368092
 30
0.0
 10
-43.77327546126585
 20
-15.74033994376983
 30
0.0
 10
-42.25488264083324
 20
-15.69500000406782
 30
0.0
 10
-41.00442893091901
 20
-15.64966006454069
 30
0.0
 10
-40.0754713215486
 20
-15.60125000409464
 30
0.0
 10
-39.48065879068564
 20
-15.55283994366133
 30
0.0
 10
-39.40685862061057
 20
-15.5225151478113
 30
0.0
 10
-39.3703169019024
 20
-15.50750000409679
 30
0.0
  0
SPLINE
  5
DE
330
1F
100
AcDbEntity
  8
0
  6
Continuous
 62
     7
370
    25
100
AcDbSpline
210
0.0
220
0.0
230
1.0
 70
     8
 71
     3
 72
    24
 73
    20
 74
     0
 42
0.000000001
 43
0.00000001
 40
0.0
 40
0.0
 40
0.0
 40
0.0
 40
0.012343572934846
 40
0.0734726043812335
 40
0.1358006263179901
 40
0.1981286482547467
 40
0.2592576797011343
 40
0.3203867111475218
 40
0.3827147330842784
 40
0.4450427550210354
 40
0.5061717864674229
 40
0.56730081791381
 40
0.6296288398505667
 40
0.6919568617873232
 40
0.7530858932337113
 40
0.8142149246800987
 40
0.8765429466168556
 40
0.9388709685536125
 40
1.0
 40
1.0
 40
1.0
 40
1.0
 10
-59.33226642560184
 20
-14.7666871819562
 30
0.0
 10
-59.34684445123133
 20
-14.76362191510161
 30
0.0
 10
-59.43361718027734
 20
-14.74537653832794
 30
0.0
 10
-59.22180697612676
 20
-14.71221797002585
 30
0.0
 10
-58.67548006075707
 20
-14.66373435109385
 30
0.0
 10
-57.73349954986497
 20
-14.61534404795263
 30
0.0
 10
-56.48646964781
 20
-14.56999891409799
 30
0.0
 10
-54.9671615413496
 20
-14.52466036299474
 30
0.0
 10
-53.22233500745271
 20
-14.47624992341658
 30
0.0
 10
-51.32737469193921
 20
-14.42783996481555
 30
0.0
 10
-49.37032060508679
 20
-14.3824999984786
 30
0.0
 10
-47.41324415385888
 20
-14.33716006607112
 30
0.0
 10
-45.51835225029198
 20
-14.28875000368093
 30
0.0
 10
-43.77327546126585
 20
-14.24033994376983
 30
0.0
 10
-42.25488264083325
 20
-14.19500000406781
 30
0.0
 10
-41.004428930919
 20
-14.14966006454069
 30
0.0
 10
-40.0754713215486
 20
-14.10125000409464
 30
0.0
 10
-39.48065879068567
 20
-14.05283994366133
 30
0.0
 10
-39.40685862061058
 20
-14.02251514781132
 30
0.0
 10
-39.3703169019024
 20
-14.00750000409678
 30
0.0
  0
SPLINE
  5
DF
330
1F
100
AcDbEntity
  8
0
  6
Continuous
 62
     7
370
    25
100
AcDbSpline
210
0.0
220
0.0
230
1.0
 70
     8
 71
     3
 72
    24
 73
    20
 74
     0
 42
0.000000001
 43
0.00000001
 40
0.0
 40
0.0
 40
0.0
 40
0.0
 40
0.0123435729348458
 40
0.0734726043812334
 40
0.13580062631799
 40
0.1981286482547467
 40
0.2592576797011343
 40
0.3203867111475217
 40
0.3827147330842784
 40
0.4450427550210353
 40
0.5061717864674229
 40
0.56730081791381
 40
0.6296288398505667
 40
0.6919568617873232
 40
0.7530858932337112
 40
0.8142149246800987
 40
0.8765429466168556
 40
0.9388709685536124
 40
1.0
 40
1.0
 40
1.0
 40
1.0
 10
-59.33226642560184
 20
-13.2666871819562
 30
0.0
 10
-59.34684445123133
 20
-13.26362191510161
 30
0.0
 10
-59.43361718027731
 20
-13.24537653832794
 30
0.0
 10
-59.22180697612677
 20
-13.21221797002586
 30
0.0
 10
-58.67548006075707
 20
-13.16373435109386
 30
0.0
 10
-57.73349954986498
 20
-13.11534404795264
 30
0.0
 10
-56.48646964781
 20
-13.06999891409799
 30
0.0
 10
-54.9671615413496
 20
-13.02466036299474
 30
0.0
 10
-53.22233500745273
 20
-12.97624992341659
 30
0.0
 10
-51.32737469193921
 20
-12.92783996481554
 30
0.0
 10
-49.37032060508678
 20
-12.8824999984786
 30
0.0
 10
-47.41324415385888
 20
-12.83716006607112
 30
0.0
 10
-45.51835225029197
 20
-12.78875000368093
 30
0.0
 10
-43.77327546126584
 20
-12.74033994376984
 30
0.0
 10
-42.25488264083325
 20
-12.69500000406781
 30
0.0
 10
-41.00442893091899
 20
-12.64966006454068
 30
0.0
 10
-40.0754713215486
 20
-12.60125000409464
 30
0.0
 10
-39.48065879068566
 20
-12.55283994366134
 30
0.0
 10
-39.40685862061058
 20
-12.52251514781132
 30
0.0
 10
-39.3703169019024
 20
-12.50750000409678
 30
0.0
  0
SPLINE
  5
E0
330
1F
100
AcDbEntity
  8
0
  6
Continuous
 62
     7
370
    25
100
AcDbSpline
210
0.0
220
0.0
230
1.0
 70
     8
 71
     3
 72
    24
 73
    20
 74
     0
 42
0.000000001
 43
0.00000001
 40
0.0
 40
0.0
 40
0.0
 40
0.0
 40
0.0123435729348458
 40
0.0734726043812334
 40
0.13580062631799
 40
0.1981286482547467
 40
0.2592576797011343
 40
0.3203867111475217
 40
0.3827147330842784
 40
0.4450427550210353
 40
0.5061717864674229
 40
0.56730081791381
 40
0.6296288398505667
 40
0.6919568617873232
 40
0.7530858932337112
 40
0.8142149246800987
 40
0.8765429466168556
 40
0.9388709685536124
 40
1.0
 40
1.0
 40
1.0
 40
1.0
 10
-59.33226642560184
 20
-11.7666871819562
 30
0.0
 10
-59.34684445123133
 20
-11.76362191510161
 30
0.0
 10
-59.43361718027731
 20
-11.74537653832794
 30
0.0
 10
-59.22180697612677
 20
-11.71221797002586
 30
0.0
 10
-58.67548006075707
 20
-11.66373435109386
 30
0.0
 10
-57.73349954986498
 20
-11.61534404795264
 30
0.0
 10
-56.48646964781
 20
-11.56999891409799
 30
0.0
 10
-54.9671615413496
 20
-11.52466036299474
 30
0.0
 10
-53.22233500745273
 20
-11.47624992341657
 30
0.0
 10
-51.32737469193921
 20
-11.42783996481554
 30
0.0
 10
-49.37032060508678
 20
-11.3824999984786
 30
0.0
 10
-47.41324415385888
 20
-11.33716006607112
 30
0.0
 10
-45.51835225029197
 20
-11.28875000368093
 30
0.0
 10
-43.77327546126584
 20
-11.24033994376983
 30
0.0
 10
-42.25488264083325
 20
-11.19500000406781
 30
0.0
 10
-41.00442893091899
 20
-11.14966006454068
 30
0.0
 10
-40.0754713215486
 20
-11.10125000409463
 30
0.0
 10
-39.48065879068566
 20
-11.05283994366134
 30
0.0
 10
-39.40685862061058
 20
-11.02251514781132
 30
0.0
 10
-39.3703169019024
 20
-11.00750000409678
 30
0.0
  0
SPLINE
  5
E1
330
1F
100
AcDbEntity
  8
0
  6
Continuous
 62
     7
370
    25
100
AcDbSpline
210
0.0
220
0.0
230
1.0
 70
     8
 71
     3
 72
    24
 73
    20
 74
     0
 42
0.000000001
 43
0.00000001
 40
0.0
 40
0.0
 40
0.0
 40
0.0
 40
0.0123435729348458
 40
0.0734726043812334
 40
0.13580062631799
 40
0.1981286482547467
 40
0.2592576797011343
 40
0.3203867111475217
 40
0.3827147330842784
 40
0.4450427550210353
 40
0.5061717864674229
 40
0.56730081791381
 40
0.6296288398505667
 40
0.6919568617873232
 40
0.7530858932337112
 40
0.8142149246800987
 40
0.8765429466168556
 40
0.9388709685536124
 40
1.0
 40
1.0
 40
1.0
 40
1.0
 10
-59.33226642560184
 20
-10.2666871819562
 30
0.0
 10
-59.34684445123133
 20
-10.26362191510162
 30
0.0
 10
-59.43361718027731
 20
-10.24537653832794
 30
0.0
 10
-59.22180697612677
 20
-10.21221797002586
 30
0.0
 10
-58.67548006075707
 20
-10.16373435109386
 30
0.0
 10
-57.73349954986498
 20
-10.11534404795264
 30
0.0
 10
-56.48646964781
 20
-10.06999891409799
 30
0.0
 10
-54.9671615413496
 20
-10.02466036299474
 30
0.0
 10
-53.22233500745273
 20
-9.976249923416585
 30
0.0
 10
-51.32737469193921
 20
-9.92783996481554
 30
0.0
 10
-49.37032060508678
 20
-9.882499998478595
 30
0.0
 10
-47.41324415385888
 20
-9.83716006607112
 30
0.0
 10
-45.51835225029197
 20
-9.78875000368093
 30
0.0
 10
-43.77327546126584
 20
-9.740339943769827
 30
0.0
 10
-42.25488264083325
 20
-9.695000004067825
 30
0.0
 10
-41.00442893091899
 20
-9.649660064540683
 30
0.0
 10
-40.0754713215486
 20
-9.601250004094647
 30
0.0
 10
-39.48065879068566
 20
-9.552839943661336
 30
0.0
 10
-39.40685862061058
 20
-9.522515147811314
 30
0.0
 10
-39.3703169019024
 20
-9.50750000409678
 30
0.0
  0
SPLINE
  5
E2
330
1F
100
AcDbEntity
  8
0
  6
Continuous
 62
     7
370
    25
100
AcDbSpline
210
0.0
220
0.0
230
1.0
 70
     8
 71
     3
 72
    24
 73
    20
 74
     0
 42
0.000000001
 43
0.00000001
 40
0.0
 40
0.0
 40
0.0
 40
0.0
 40
0.0490017532276889
 40
0.1121099015930812
 40
0.1752180499584738
 40
0.2371122007124604
 40
0.2990063514664463
 40
0.3621144998318384
 40
0.4252226481972311
 40
0.4871167989512182
 40
0.5490109497052043
 40
0.6121190980705974
 40
0.6752272464359903
 40
0.7371213971899758
 40
0.7990155479439619
 40
0.8621236963093545
 40
0.925231844674747
 40
0.9871259954287338
 40
1.0
 40
1.0
 40
1.0
 40
1.0
 10
-59.33106589479395
 20
-17.56052295743638
 30
0.0
 10
-59.29985158400273
 20
-17.54862232516893
 30
0.0
 10
-59.22843713287403
 20
-17.52139516237339
 30
0.0
 10
-58.66242996705928
 20
-17.47623432177305
 30
0.0
 10
-57.73692135059552
 20
-17.42784405046795
 30
0.0
 10
-56.48556088696527
 20
-17.38249890825168
 30
0.0
 10
-54.96741043303697
 20
-17.33716035935265
 30
0.0
 10
-53.22226751300173
 20
-17.28874991929003
 30
0.0
 10
-51.32739318130398
 20
-17.24033996038204
 30
0.0
 10
-49.37031280807575
 20
-17.19499999572695
 30
0.0
 10
-47.4132571584009
 20
-17.14966005687776
 30
0.0
 10
-45.51830719810278
 20
-17.10125001903029
 30
0.0
 10
-43.77344093216225
 20
-17.05283986773322
 30
0.0
 10
-42.2542786403221
 20
-17.00750026269972
 30
0.0
 10
-41.0067031559112
 20
-16.96215907116266
 30
0.0
 10
-40.06679787536406
 20
-16.91375377293183
 30
0.0
 10
-39.51274465206701
 20
-16.86532598226816
 30
0.0
 10
-39.32122869547914
 20
-16.83192593126352
 30
0.0
 10
-39.3883681435917
 20
-16.81373922508636
 30
0.0
 10
-39.39992859413583
 20
-16.81060773498282
 30
0.0
  0
SPLINE
  5
E3
330
1F
100
AcDbEntity
  8
0
  6
Continuous
 62
     7
370
    25
100
AcDbSpline
210
0.0
220
0.0
230
1.0
 70
     8
 71
     3
 72
    24
 73
    20
 74
     0
 42
0.000000001
 43
0.00000001
 40
0.0
 40
0.0
 40
0.0
 40
0.0
 40
0.049001753227689
 40
0.1121099015930814
 40
0.175218049958474
 40
0.2371122007124606
 40
0.2990063514664465
 40
0.3621144998318387
 40
0.4252226481972314
 40
0.4871167989512186
 40
0.5490109497052047
 40
0.6121190980705978
 40
0.6752272464359907
 40
0.7371213971899763
 40
0.7990155479439623
 40
0.8621236963093549
 40
0.9252318446747474
 40
0.9871259954287342
 40
1.0
 40
1.0
 40
1.0
 40
1.0
 10
-59.33106589479395
 20
-16.06052295743637
 30
0.0
 10
-59.29985158400272
 20
-16.04862232516893
 30
0.0
 10
-59.22843713287403
 20
-16.02139516237339
 30
0.0
 10
-58.66242996705926
 20
-15.97623432177305
 30
0.0
 10
-57.73692135059549
 20
-15.92784405046795
 30
0.0
 10
-56.48556088696525
 20
-15.88249890825166
 30
0.0
 10
-54.96741043303698
 20
-15.83716035935265
 30
0.0
 10
-53.22226751300174
 20
-15.78874991929002
 30
0.0
 10
-51.32739318130397
 20
-15.74033996038203
 30
0.0
 10
-49.37031280807575
 20
-15.69499999572695
 30
0.0
 10
-47.4132571584009
 20
-15.64966005687776
 30
0.0
 10
-45.51830719810278
 20
-15.60125001903029
 30
0.0
 10
-43.77344093216225
 20
-15.55283986773322
 30
0.0
 10
-42.25427864032209
 20
-15.50750026269972
 30
0.0
 10
-41.0067031559112
 20
-15.46215907116268
 30
0.0
 10
-40.06679787536406
 20
-15.41375377293182
 30
0.0
 10
-39.51274465206702
 20
-15.36532598226817
 30
0.0
 10
-39.32122869547911
 20
-15.33192593126351
 30
0.0
 10
-39.3883681435917
 20
-15.31373922508636
 30
0.0
 10
-39.39992859413583
 20
-15.31060773498282
 30
0.0
  0
SPLINE
  5
E4
330
1F
100
AcDbEntity
  8
0
  6
Continuous
 62
     7
370
    25
100
AcDbSpline
210
0.0
220
0.0
230
1.0
 70
     8
 71
     3
 72
    24
 73
    20
 74
     0
 42
0.000000001
 43
0.00000001
 40
0.0
 40
0.0
 40
0.0
 40
0.0
 40
0.0490017532276896
 40
0.1121099015930819
 40
0.1752180499584744
 40
0.2371122007124609
 40
0.2990063514664467
 40
0.3621144998318388
 40
0.4252226481972314
 40
0.4871167989512185
 40
0.5490109497052045
 40
0.6121190980705975
 40
0.6752272464359903
 40
0.7371213971899758
 40
0.7990155479439617
 40
0.8621236963093541
 40
0.9252318446747466
 40
0.9871259954287334
 40
1.0
 40
1.0
 40
1.0
 40
1.0
 10
-59.33106589479395
 20
-14.56052295743637
 30
0.0
 10
-59.29985158400273
 20
-14.54862232516893
 30
0.0
 10
-59.22843713287403
 20
-14.52139516237338
 30
0.0
 10
-58.66242996705926
 20
-14.47623432177304
 30
0.0
 10
-57.7369213505955
 20
-14.42784405046794
 30
0.0
 10
-56.48556088696525
 20
-14.38249890825168
 30
0.0
 10
-54.96741043303698
 20
-14.33716035935265
 30
0.0
 10
-53.22226751300174
 20
-14.28874991929002
 30
0.0
 10
-51.32739318130397
 20
-14.24033996038204
 30
0.0
 10
-49.37031280807575
 20
-14.19499999572695
 30
0.0
 10
-47.4132571584009
 20
-14.14966005687776
 30
0.0
 10
-45.51830719810279
 20
-14.10125001903029
 30
0.0
 10
-43.77344093216225
 20
-14.05283986773322
 30
0.0
 10
-42.25427864032209
 20
-14.00750026269971
 30
0.0
 10
-41.00670315591121
 20
-13.96215907116268
 30
0.0
 10
-40.06679787536406
 20
-13.91375377293182
 30
0.0
 10
-39.51274465206703
 20
-13.86532598226817
 30
0.0
 10
-39.32122869547911
 20
-13.83192593126352
 30
0.0
 10
-39.3883681435917
 20
-13.81373922508636
 30
0.0
 10
-39.39992859413583
 20
-13.81060773498281
 30
0.0
  0
SPLINE
  5
E5
330
1F
100
AcDbEntity
  8
0
  6
Continuous
 62
     7
370
    25
100
AcDbSpline
210
0.0
220
0.0
230
1.0
 70
     8
 71
     3
 72
    24
 73
    20
 74
     0
 42
0.000000001
 43
0.00000001
 40
0.0
 40
0.0
 40
0.0
 40
0.0
 40
0.0490017532276893
 40
0.1121099015930817
 40
0.1752180499584741
 40
0.2371122007124607
 40
0.2990063514664465
 40
0.3621144998318386
 40
0.4252226481972312
 40
0.4871167989512183
 40
0.5490109497052043
 40
0.6121190980705973
 40
0.6752272464359901
 40
0.7371213971899756
 40
0.7990155479439617
 40
0.8621236963093541
 40
0.9252318446747466
 40
0.9871259954287334
 40
1.0
 40
1.0
 40
1.0
 40
1.0
 10
-59.33106589479395
 20
-13.06052295743637
 30
0.0
 10
-59.29985158400272
 20
-13.04862232516893
 30
0.0
 10
-59.22843713287402
 20
-13.02139516237338
 30
0.0
 10
-58.66242996705926
 20
-12.97623432177304
 30
0.0
 10
-57.73692135059554
 20
-12.92784405046796
 30
0.0
 10
-56.48556088696523
 20
-12.88249890825166
 30
0.0
 10
-54.96741043303698
 20
-12.83716035935264
 30
0.0
 10
-53.22226751300173
 20
-12.78874991929002
 30
0.0
 10
-51.32739318130398
 20
-12.74033996038204
 30
0.0
 10
-49.37031280807576
 20
-12.69499999572696
 30
0.0
 10
-47.41325715840089
 20
-12.64966005687776
 30
0.0
 10
-45.51830719810279
 20
-12.60125001903029
 30
0.0
 10
-43.77344093216225
 20
-12.55283986773322
 30
0.0
 10
-42.25427864032209
 20
-12.50750026269971
 30
0.0
 10
-41.00670315591121
 20
-12.46215907116267
 30
0.0
 10
-40.06679787536405
 20
-12.41375377293182
 30
0.0
 10
-39.51274465206703
 20
-12.36532598226817
 30
0.0
 10
-39.32122869547911
 20
-12.3319259312635
 30
0.0
 10
-39.3883681435917
 20
-12.31373922508636
 30
0.0
 10
-39.39992859413583
 20
-12.31060773498281
 30
0.0
  0
SPLINE
  5
E6
330
1F
100
AcDbEntity
  8
0
  6
Continuous
 62
     7
370
    25
100
AcDbSpline
210
0.0
220
0.0
230
1.0
 70
     8
 71
     3
 72
    23
 73
    19
 74
     0
 42
0.000000001
 43
0.00000001
 40
0.0
 40
0.0
 40
0.0
 40
0.0
 40
0.0496408294935092
 40
0.1135720284059469
 40
0.1775032273183847
 40
0.2402045957765262
 40
0.3029059642346668
 40
0.3668371631471042
 40
0.4307683620595422
 40
0.4934697305176842
 40
0.556171098975825
 40
0.6201022978882634
 40
0.6840334968007016
 40
0.7467348652588419
 40
0.8094362337169827
 40
0.8733674326294205
 40
0.9372986315418583
 40
1.0
 40
1.0
 40
1.0
 40
1.0
 10
-59.33106589479395
 20
-11.56052295743637
 30
0.0
 10
-59.29985158393534
 20
-11.54862232516897
 30
0.0
 10
-59.22843713265242
 20
-11.52139516237349
 30
0.0
 10
-58.66242996825078
 20
-11.47623432177253
 30
0.0
 10
-57.7369213462009
 20
-11.42784405046986
 30
0.0
 10
-56.48556090301122
 20
-11.38249890824469
 30
0.0
 10
-54.96741037261828
 20
-11.33716035937893
 30
0.0
 10
-53.22226774342707
 20
-11.28874991918979
 30
0.0
 10
-51.32739232888673
 20
-11.24033996075284
 30
0.0
 10
-49.37031592114806
 20
-11.19499999437276
 30
0.0
 10
-47.41324543640863
 20
-11.14966006197682
 30
0.0
 10
-45.51835190359334
 20
-11.10124999958347
 30
0.0
 10
-43.77327555217168
 20
-11.05283993967324
 30
0.0
 10
-42.25488261669148
 20
-11.00749999997099
 30
0.0
 10
-41.0044289375272
 20
-10.9621600604439
 30
0.0
 10
-40.07547131977082
 20
-10.91374999999786
 30
0.0
 10
-39.48065879112014
 20
-10.86533993956454
 30
0.0
 10
-39.40685862075447
 20
-10.83501514371453
 30
0.0
 10
-39.3703169019024
 20
-10.82
 30
0.0
  0
SPLINE
  5
E8
330
1F
100
AcDbEntity
  8
0
  6
Continuous
 62
     7
370
    25
100
AcDbSpline
210
0.0
220
0.0
230
1.0
 70
     8
 71
     3
 72
    14
 73
    10
 74
     0
 42
0.000000001
 43
0.00000001
 40
0.0
 40
0.0
 40
0.0
 40
0.0
 40
0.1448076941593617
 40
0.2894311504713683
 40
0.434008211933761
 40
0.5781123194538176
 40
0.7224472035050603
 40
0.8670720951660693
 40
1.0
 40
1.0
 40
1.0
 40
1.0
 10
-50.30757663008473
 20
-18.24982676602133
 30
0.0
 10
-49.5174067389328
 20
-18.24982685572489
 30
0.0
 10
-47.93807228442336
 20
-18.24982703501787
 30
0.0
 10
-45.61258967953545
 20
-18.24982490162863
 30
0.0
 10
-43.50973700487162
 20
-18.24982840246739
 30
0.0
 10
-41.74977614101507
 20
-18.24982896052679
 30
0.0
 10
-40.44090380407437
 20
-18.24982651532314
 30
0.0
 10
-39.62050468855169
 20
-18.24982876198074
 30
0.0
 10
-39.54210068904997
 20
-18.24982978714393
 30
0.0
 10
-39.50455079037852
 20
-18.24983027812364
 30
0.0
  0
SPLINE
  5
E9
330
1F
100
AcDbEntity
  8
0
  6
Continuous
 62
     7
370
    25
100
AcDbSpline
210
0.0
220
0.0
230
1.0
 70
     8
 71
     3
 72
    15
 73
    11
 74
     0
 42
0.000000001
 43
0.00000001
 40
0.0
 40
0.0
 40
0.0
 40
0.0
 40
0.0596700052493545
 40
0.2112994827876042
 40
0.3655645359277869
 40
0.5171940134660364
 40
0.6688234910042855
 40
0.823088544144469
 40
0.9747180216827188
 40
1.0
 40
1.0
 40
1.0
 40
1.0
 10
-50.30757660592313
 20
-18.24982676628922
 30
0.0
 10
-49.99535199578605
 20
-18.241983668574
 30
0.0
 10
-48.8897228214658
 20
-18.21421020879718
 30
0.0
 10
-46.96418812053353
 20
-18.16513010039073
 30
0.0
 10
-44.72250781086058
 20
-18.09980968484172
 30
0.0
 10
-42.80207110130986
 20
-18.03873739172618
 30
0.0
 10
-41.31177509341045
 20
-17.97774119892112
 30
0.0
 10
-40.42895707284922
 20
-17.91218983693765
 30
0.0
 10
-40.07867724138607
 20
-17.86833163469325
 30
0.0
 10
-40.2144192234422
 20
-17.84442756971468
 30
0.0
 10
-40.23381777414933
 20
-17.84101149894887
 30
0.0
  0
SPLINE
  5
EA
330
1F
100
AcDbEntity
  8
0
  6
Continuous
 62
     7
370
    25
100
AcDbSpline
210
0.0
220
0.0
230
1.0
 70
     8
 71
     3
 72
    21
 73
    17
 74
     0
 42
0.000000001
 43
0.00000001
 40
0.0
 40
0.0
 40
0.0
 40
0.0
 40
0.0817057604890045
 40
0.1648317046545501
 40
0.2465374651435553
 40
0.3173419527897828
 40
0.3895003117593782
 40
0.4611485720618281
 40
0.493301839595521
 40
0.5750076000845259
 40
0.6581335442500714
 40
0.7398393047390762
 40
0.8215450652280808
 40
0.9046710093936267
 40
0.9863767698826316
 40
1.0
 40
1.0
 40
1.0
 40
1.0
 10
-58.55841808940239
 20
-17.10125000204839
 30
0.0
 10
-58.49811867968955
 20
-17.08102057546101
 30
0.0
 10
-58.37647175500339
 20
-17.04021010079405
 30
0.0
 10
-57.41179060141405
 20
-16.97480279855008
 30
0.0
 10
-56.00773806884922
 20
-16.91638944622871
 30
0.0
 10
-54.28154383204638
 20
-16.86101797122192
 30
0.0
 10
-52.3814598489217
 20
-16.804715202482
 30
0.0
 10
-50.69300669852502
 20
-16.75921669071231
 30
0.0
 10
-48.8887487357894
 20
-16.71433442838306
 30
0.0
 10
-46.96454589476402
 20
-16.6650844754854
 30
0.0
 10
-44.72241308404033
 20
-16.59982176481237
 30
0.0
 10
-42.80209629061975
 20
-16.5387341794773
 30
0.0
 10
-41.31176818732594
 20
-16.47774207961466
 30
0.0
 10
-40.42895898472006
 20
-16.41218959312768
 30
0.0
 10
-40.07867718116256
 20
-16.3683316423732
 30
0.0
 10
-40.21441921591194
 20
-16.34442757067496
 30
0.0
 10
-40.23381777414932
 20
-16.34101149894887
 30
0.0
  0
SPLINE
  5
EB
330
1F
100
AcDbEntity
  8
0
  6
Continuous
 62
     7
370
    25
100
AcDbSpline
210
0.0
220
0.0
230
1.0
 70
     8
 71
     3
 72
    21
 73
    17
 74
     0
 42
0.000000001
 43
0.00000001
 40
0.0
 40
0.0
 40
0.0
 40
0.0
 40
0.0690228444651411
 40
0.1532968731159137
 40
0.236131103385476
 40
0.3079134991272699
 40
0.3810684650316081
 40
0.4537062870993107
 40
0.4863036358157841
 40
0.5691378660853462
 40
0.6534118947361187
 40
0.7362461250056808
 40
0.8190803552752425
 40
0.9033543839260154
 40
0.9861886141955775
 40
1.0
 40
1.0
 40
1.0
 40
1.0
 10
-58.50681602965548
 20
-15.59101149894887
 30
0.0
 10
-58.45351301558072
 20
-15.57413797016496
 30
0.0
 10
-58.33512923339045
 20
-15.53666256298569
 30
0.0
 10
-57.40836823490956
 20
-15.47478370287873
 30
0.0
 10
-56.00851373700257
 20
-15.41639377420004
 30
0.0
 10
-54.28134413589498
 20
-15.36101685698354
 30
0.0
 10
-52.38151462747254
 20
-15.30471550812818
 30
0.0
 10
-50.69300096839318
 20
-15.25921665874007
 30
0.0
 10
-48.88875165263158
 20
-15.21433444465807
 30
0.0
 10
-46.96454482343017
 20
-15.16508446950772
 30
0.0
 10
-44.7224133676942
 20
-15.09982176639506
 30
0.0
 10
-42.80209621519185
 20
-15.03873417905642
 30
0.0
 10
-41.3117682080058
 20
-14.97774207973006
 30
0.0
 10
-40.42895897899508
 20
-14.91218959309573
 30
0.0
 10
-40.0786771813429
 20
-14.86833164237421
 30
0.0
 10
-40.21441921593448
 20
-14.84442757067508
 30
0.0
 10
-40.23381777414933
 20
-14.84101149894887
 30
0.0
  0
SPLINE
  5
EC
330
1F
100
AcDbEntity
  8
0
  6
Continuous
 62
     7
370
    25
100
AcDbSpline
210
0.0
220
0.0
230
1.0
 70
     8
 71
     3
 72
    21
 73
    17
 74
     0
 42
0.000000001
 43
0.00000001
 40
0.0
 40
0.0
 40
0.0
 40
0.0
 40
0.0817057604890045
 40
0.16483170465455
 40
0.2465374651435551
 40
0.3173419527897826
 40
0.3895003117593779
 40
0.4611485720618277
 40
0.4933018395955205
 40
0.5750076000845253
 40
0.6581335442500709
 40
0.7398393047390756
 40
0.8215450652280801
 40
0.9046710093936259
 40
0.9863767698826308
 40
1.0
 40
1.0
 40
1.0
 40
1.0
 10
-58.55841808940239
 20
-14.10125000204838
 30
0.0
 10
-58.49811867968953
 20
-14.08102057546101
 30
0.0
 10
-58.37647175500337
 20
-14.04021010079404
 30
0.0
 10
-57.41179060141406
 20
-13.97480279855008
 30
0.0
 10
-56.00773806884921
 20
-13.91638944622871
 30
0.0
 10
-54.28154383204637
 20
-13.86101797122191
 30
0.0
 10
-52.38145984892169
 20
-13.804715202482
 30
0.0
 10
-50.69300669852504
 20
-13.75921669071231
 30
0.0
 10
-48.88874873578937
 20
-13.71433442838306
 30
0.0
 10
-46.96454589476403
 20
-13.66508447548541
 30
0.0
 10
-44.72241308404032
 20
-13.59982176481236
 30
0.0
 10
-42.80209629061975
 20
-13.53873417947728
 30
0.0
 10
-41.31176818732592
 20
-13.47774207961466
 30
0.0
 10
-40.42895898472005
 20
-13.41218959312768
 30
0.0
 10
-40.07867718116258
 20
-13.36833164237319
 30
0.0
 10
-40.21441921591193
 20
-13.34442757067496
 30
0.0
 10
-40.23381777414932
 20
-13.34101149894887
 30
0.0
  0
SPLINE
  5
ED
330
1F
100
AcDbEntity
  8
0
  6
Continuous
 62
     7
370
    25
100
AcDbSpline
210
0.0
220
0.0
230
1.0
 70
     8
 71
     3
 72
    21
 73
    17
 74
     0
 42
0.000000001
 43
0.00000001
 40
0.0
 40
0.0
 40
0.0
 40
0.0
 40
0.0690228444651393
 40
0.153296873115912
 40
0.2361311033854745
 40
0.3079134991272686
 40
0.3810684650316069
 40
0.4537062870993096
 40
0.4863036358157831
 40
0.5691378660853453
 40
0.653411894736118
 40
0.7362461250056802
 40
0.819080355275242
 40
0.9033543839260151
 40
0.9861886141955774
 40
0.9999999999999999
 40
0.9999999999999999
 40
0.9999999999999999
 40
0.9999999999999999
 10
-58.50681602965548
 20
-12.59101149894887
 30
0.0
 10
-58.45351301558072
 20
-12.57413797016496
 30
0.0
 10
-58.33512923339043
 20
-12.53666256298569
 30
0.0
 10
-57.40836823490958
 20
-12.47478370287874
 30
0.0
 10
-56.00851373700255
 20
-12.41639377420003
 30
0.0
 10
-54.28134413589496
 20
-12.36101685698354
 30
0.0
 10
-52.38151462747253
 20
-12.30471550812817
 30
0.0
 10
-50.69300096839317
 20
-12.25921665874007
 30
0.0
 10
-48.88875165263159
 20
-12.21433444465807
 30
0.0
 10
-46.96454482343016
 20
-12.16508446950772
 30
0.0
 10
-44.72241336769421
 20
-12.09982176639507
 30
0.0
 10
-42.80209621519185
 20
-12.03873417905642
 30
0.0
 10
-41.31176820800579
 20
-11.97774207973005
 30
0.0
 10
-40.42895897899508
 20
-11.91218959309574
 30
0.0
 10
-40.0786771813429
 20
-11.8683316423742
 30
0.0
 10
-40.21441921593448
 20
-11.84442757067509
 30
0.0
 10
-40.23381777414933
 20
-11.84101149894887
 30
0.0
  0
SPLINE
  5
EE
330
1F
100
AcDbEntity
  8
0
  6
Continuous
 62
     7
370
    25
100
AcDbSpline
210
0.0
220
0.0
230
1.0
 70
     8
 71
     3
 72
    20
 73
    16
 74
     0
 42
0.000000001
 43
0.00000001
 40
0.0
 40
0.0
 40
0.0
 40
0.0
 40
0.0699894964022074
 40
0.1554437669521813
 40
0.2394380750157858
 40
0.3122257696905475
 40
0.386405257114472
 40
0.4600603581997269
 40
0.4931142266456355
 40
0.5771085347092397
 40
0.6625628052592136
 40
0.7465571133228177
 40
0.8305514213864216
 40
0.9160056919363958
 40
1.0
 40
1.0
 40
1.0
 40
1.0
 10
-58.50681602965548
 20
-11.09101149894887
 30
0.0
 10
-58.45351302202092
 20
-11.07413797015548
 30
0.0
 10
-58.33512925413406
 20
-11.03666256295513
 30
0.0
 10
-57.40836813088688
 20
-10.97478370303195
 30
0.0
 10
-56.00851409573772
 20
-10.91639377367164
 30
0.0
 10
-54.28134298472916
 20
-10.86101685867916
 30
0.0
 10
-52.38151902348651
 20
-10.80471550165304
 30
0.0
 10
-50.69298848467935
 20
-10.75921667712798
 30
0.0
 10
-48.88878241214869
 20
-10.71433439935078
 30
0.0
 10
-46.96420478365624
 20
-10.66508497037003
 30
0.0
 10
-44.72366287298794
 20
-10.59981992593358
 30
0.0
 10
-42.79753308661387
 20
-10.5387409003264
 30
0.0
 10
-41.32892984673818
 20
-10.47771680145766
 30
0.0
 10
-40.36414066646039
 20
-10.41228506736751
 30
0.0
 10
-40.24250803772603
 20
-10.37147782594319
 30
0.0
 10
-40.1822157144024
 20
-10.35125000204838
 30
0.0
  0
SPLINE
  5
EF
330
1F
100
AcDbEntity
  8
0
  6
Continuous
 62
     7
370
    25
100
AcDbSpline
210
0.0
220
0.0
230
1.0
 70
     8
 71
     3
 72
    19
 73
    15
 74
     0
 42
0.000000001
 43
0.00000001
 40
0.0
 40
0.0
 40
0.0
 40
0.0
 40
0.0859868090127879
 40
0.1734682135330033
 40
0.2594550225457912
 40
0.345441831558579
 40
0.4329232360787946
 40
0.5189100450915825
 40
0.6048968541043706
 40
0.6923782586245857
 40
0.7783650676373737
 40
0.8643518766501613
 40
0.9518332811703769
 40
1.0
 40
1.0
 40
1.0
 40
1.0
 10
-58.55841808940239
 20
-18.22625000204839
 30
0.0
 10
-58.49812462959583
 20
-18.20602197554332
 30
0.0
 10
-58.37648970814159
 20
-18.16521432537677
 30
0.0
 10
-57.4117178526939
 20
-18.09978567992817
 30
0.0
 10
-55.94304963067026
 20
-18.0387499961514
 30
0.0
 10
-54.01716315721161
 20
-17.9777143479615
 30
0.0
 10
-51.77570296880906
 20
-17.9122855945153
 30
0.0
 10
-49.37037155049175
 20
-17.85125030871193
 30
0.0
 10
-46.9647103408694
 20
-17.79021317226669
 30
0.0
 10
-44.72425099103819
 20
-17.72479003508062
 30
0.0
 10
-42.79474225174656
 20
-17.66373406034877
 30
0.0
 10
-41.33960208697447
 20
-17.60277429000181
 30
0.0
 10
-40.47185709816406
 20
-17.54663831532465
 30
0.0
 10
-40.35856630043887
 20
-17.51462568788939
 30
0.0
 10
-40.31833834987636
 20
-17.50325845930861
 30
0.0
  0
SPLINE
  5
F0
330
1F
100
AcDbEntity
  8
0
  6
Continuous
 62
     7
370
    25
100
AcDbSpline
210
0.0
220
0.0
230
1.0
 70
     8
 71
     3
 72
    19
 73
    15
 74
     0
 42
0.000000001
 43
0.00000001
 40
0.0
 40
0.0
 40
0.0
 40
0.0
 40
0.0859868090127879
 40
0.1734682135330033
 40
0.2594550225457912
 40
0.345441831558579
 40
0.4329232360787946
 40
0.5189100450915825
 40
0.6048968541043706
 40
0.6923782586245857
 40
0.7783650676373737
 40
0.8643518766501613
 40
0.9518332811703769
 40
0.9999999999999999
 40
0.9999999999999999
 40
0.9999999999999999
 40
0.9999999999999999
 10
-58.55841808940239
 20
-16.72625000204839
 30
0.0
 10
-58.49812462959583
 20
-16.70602197554332
 30
0.0
 10
-58.37648970814159
 20
-16.66521432537675
 30
0.0
 10
-57.4117178526939
 20
-16.59978567992817
 30
0.0
 10
-55.94304963067026
 20
-16.5387499961514
 30
0.0
 10
-54.01716315721161
 20
-16.4777143479615
 30
0.0
 10
-51.77570296880906
 20
-16.4122855945153
 30
0.0
 10
-49.37037155049175
 20
-16.35125030871193
 30
0.0
 10
-46.9647103408694
 20
-16.29021317226669
 30
0.0
 10
-44.72425099103819
 20
-16.22479003508062
 30
0.0
 10
-42.79474225174656
 20
-16.16373406034877
 30
0.0
 10
-41.33960208697446
 20
-16.1027742900018
 30
0.0
 10
-40.47185709816407
 20
-16.04663831532464
 30
0.0
 10
-40.35856630043887
 20
-16.01462568788939
 30
0.0
 10
-40.31833834987636
 20
-16.00325845930861
 30
0.0
  0
SPLINE
  5
F1
330
1F
100
AcDbEntity
  8
0
  6
Continuous
 62
     7
370
    25
100
AcDbSpline
210
0.0
220
0.0
230
1.0
 70
     8
 71
     3
 72
    20
 73
    16
 74
     0
 42
0.000000001
 43
0.00000001
 40
0.0
 40
0.0
 40
0.0
 40
0.0
 40
0.0000005015799035
 40
0.0859872674634361
 40
0.173468628104737
 40
0.2594553939882695
 40
0.345442159871802
 40
0.4329235205131032
 40
0.5189102863966356
 40
0.6048970522801683
 40
0.6923784129214691
 40
0.7783651788050017
 40
0.864351944688534
 40
0.951833305329835
 40
0.9999999999999999
 40
0.9999999999999999
 40
0.9999999999999999
 40
0.9999999999999999
 10
-58.55841628410759
 20
-15.22625036024178
 30
0.0
 10
-58.55841688587573
 20
-15.22625024084398
 30
0.0
 10
-58.66157970774049
 20
-15.20578153686801
 30
0.0
 10
-58.29920634671858
 20
-15.16532806346475
 30
0.0
 10
-57.43217959218481
 20
-15.09975556634248
 30
0.0
 10
-55.93760980580984
 20
-15.03875800195327
 30
0.0
 10
-54.01864982379154
 20
-14.97771216003112
 30
0.0
 10
-51.77530935517025
 20
-14.91228617379732
 30
0.0
 10
-49.37047619409105
 20
-14.85125015470772
 30
0.0
 10
-46.9646817423471
 20
-14.7902132143552
 30
0.0
 10
-44.72425856342035
 20
-14.72479002393633
 30
0.0
 10
-42.7947402365421
 20
-14.66373406331455
 30
0.0
 10
-41.33960264546547
 20
-14.60277428917987
 30
0.0
 10
-40.47185702818855
 20
-14.54663831542763
 30
0.0
 10
-40.35856628210252
 20
-14.51462568791638
 30
0.0
 10
-40.31833834987636
 20
-14.50325845930861
 30
0.0
  0
SPLINE
  5
F2
330
1F
100
AcDbEntity
  8
0
  6
Continuous
 62
     7
370
    25
100
AcDbSpline
210
0.0
220
0.0
230
1.0
 70
     8
 71
     3
 72
    19
 73
    15
 74
     0
 42
0.000000001
 43
0.00000001
 40
0.0
 40
0.0
 40
0.0
 40
0.0
 40
0.0859868090127879
 40
0.1734682135330033
 40
0.2594550225457912
 40
0.345441831558579
 40
0.4329232360787946
 40
0.5189100450915825
 40
0.6048968541043706
 40
0.6923782586245857
 40
0.7783650676373737
 40
0.8643518766501613
 40
0.9518332811703769
 40
0.9999999999999999
 40
0.9999999999999999
 40
0.9999999999999999
 40
0.9999999999999999
 10
-58.55841808940239
 20
-13.72625000204838
 30
0.0
 10
-58.49812462959583
 20
-13.70602197554333
 30
0.0
 10
-58.37648970814159
 20
-13.66521432537676
 30
0.0
 10
-57.4117178526939
 20
-13.59978567992817
 30
0.0
 10
-55.94304963067026
 20
-13.53874999615141
 30
0.0
 10
-54.01716315721161
 20
-13.47771434796149
 30
0.0
 10
-51.77570296880906
 20
-13.41228559451529
 30
0.0
 10
-49.37037155049175
 20
-13.35125030871193
 30
0.0
 10
-46.9647103408694
 20
-13.29021317226668
 30
0.0
 10
-44.72425099103819
 20
-13.22479003508062
 30
0.0
 10
-42.79474225174656
 20
-13.16373406034876
 30
0.0
 10
-41.33960208697446
 20
-13.10277429000181
 30
0.0
 10
-40.47185709816407
 20
-13.04663831532464
 30
0.0
 10
-40.35856630043887
 20
-13.0146256878894
 30
0.0
 10
-40.31833834987636
 20
-13.00325845930861
 30
0.0
  0
SPLINE
  5
F3
330
1F
100
AcDbEntity
  8
0
  6
Continuous
 62
     7
370
    25
100
AcDbSpline
210
0.0
220
0.0
230
1.0
 70
     8
 71
     3
 72
    19
 73
    15
 74
     0
 42
0.000000001
 43
0.00000001
 40
0.0
 40
0.0
 40
0.0
 40
0.0
 40
0.0859863825609303
 40
0.1734678278974139
 40
0.2594546770291352
 40
0.3454415261608567
 40
0.4329229714973404
 40
0.5189098206290617
 40
0.6048966697607833
 40
0.6923781150972665
 40
0.778364964228988
 40
0.8643518133607093
 40
0.9518332586971929
 40
1.0
 40
1.0
 40
1.0
 40
1.0
 10
-58.55841641011459
 20
-12.2262496688564
 30
0.0
 10
-58.49812316858589
 20
-12.20602175149905
 30
0.0
 10
-58.37648835463775
 20
-12.16521420985864
 30
0.0
 10
-57.41171775170849
 20
-12.09978567936149
 30
0.0
 10
-55.94304965751761
 20
-12.03874999630207
 30
0.0
 10
-54.01716314987441
 20
-11.97771434792032
 30
0.0
 10
-51.77570297075167
 20
-11.9122855945262
 30
0.0
 10
-49.37037154997527
 20
-11.85125030870902
 30
0.0
 10
-46.96471034101053
 20
-11.79021317226747
 30
0.0
 10
-44.72425099100082
 20
-11.72479003508041
 30
0.0
 10
-42.79474225175651
 20
-11.66373406034882
 30
0.0
 10
-41.33960208697172
 20
-11.6027742900018
 30
0.0
 10
-40.47185709816441
 20
-11.54663831532464
 30
0.0
 10
-40.35856630043896
 20
-11.51462568788939
 30
0.0
 10
-40.31833834987636
 20
-11.50325845930861
 30
0.0
  0
SPLINE
  5
F4
330
1F
100
AcDbEntity
  8
0
  6
Continuous
 62
     7
370
    25
100
AcDbSpline
210
0.0
220
0.0
230
1.0
 70
     8
 71
     3
 72
    19
 73
    15
 74
     0
 42
0.000000001
 43
0.00000001
 40
0.0
 40
0.0
 40
0.0
 40
0.0
 40
0.0859868090127878
 40
0.1734682135330031
 40
0.2594550225457909
 40
0.3454418315585786
 40
0.4329232360787941
 40
0.5189100450915819
 40
0.6048968541043699
 40
0.6923782586245849
 40
0.7783650676373728
 40
0.8643518766501603
 40
0.9518332811703757
 40
1.0
 40
1.0
 40
1.0
 40
1.0
 10
-58.55841808940239
 20
-10.72625000204838
 30
0.0
 10
-58.49812462959583
 20
-10.70602197554332
 30
0.0
 10
-58.3764897081416
 20
-10.66521432537676
 30
0.0
 10
-57.41171785269392
 20
-10.59978567992817
 30
0.0
 10
-55.94304963067029
 20
-10.53874999615141
 30
0.0
 10
-54.01716315721158
 20
-10.47771434796149
 30
0.0
 10
-51.77570296880906
 20
-10.41228559451531
 30
0.0
 10
-49.37037155049175
 20
-10.35125030871192
 30
0.0
 10
-46.96471034086938
 20
-10.29021317226668
 30
0.0
 10
-44.72425099103818
 20
-10.22479003508062
 30
0.0
 10
-42.79474225174657
 20
-10.16373406034876
 30
0.0
 10
-41.33960208697447
 20
-10.10277429000181
 30
0.0
 10
-40.47185709816406
 20
-10.04663831532464
 30
0.0
 10
-40.35856630043886
 20
-10.0146256878894
 30
0.0
 10
-40.31833834987635
 20
-10.00325845930861
 30
0.0
  0
SPLINE
  5
F6
330
1F
100
AcDbEntity
  8
0
  6
Continuous
 62
     7
370
    25
100
AcDbSpline
210
0.0
220
0.0
230
1.0
 70
     8
 71
     3
 72
    11
 73
     7
 74
     0
 42
0.000000001
 43
0.00000001
 40
0.0
 40
0.0
 40
0.0
 40
0.0
 40
0.2571191141120073
 40
0.4999759568823748
 40
0.7549303236282464
 40
1.0
 40
1.0
 40
1.0
 40
1.0
 10
-51.47179639460981
 20
-18.49999985709588
 30
0.0
 10
-51.37306124298228
 20
-18.47831703338557
 30
0.0
 10
-51.18106773023476
 20
-18.43615412157747
 30
0.0
 10
-50.8885813954592
 20
-18.37296708177186
 30
0.0
 10
-50.59935143267843
 20
-18.31116663325634
 30
0.0
 10
-50.40354476572983
 20
-18.27000141877238
 30
0.0
 10
-50.30757682746565
 20
-18.24982569736416
 30
0.0
  0
SPLINE
  5
F7
330
1F
100
AcDbEntity
  8
0
  6
Continuous
 62
     7
370
    25
100
AcDbSpline
210
0.0
220
0.0
230
1.0
 70
    24
 71
     3
 72
    17
 73
    13
 74
     0
 42
0.000000001
 43
0.00000001
 40
0.0
 40
0.0
 40
0.0
 40
0.0
 40
0.0610322608752629
 40
0.1851240133404406
 40
0.3092157658056182
 40
0.4333075182707963
 40
0.5573992707359737
 40
0.6840870769177173
 40
0.7451193377929805
 40
0.8692110902581583
 40
0.993302842723336
 40
1.0
 40
1.0
 40
1.0
 40
1.0
 10
-51.47179636475707
 20
-18.49999999999999
 30
0.0
 10
-51.71400609012591
 20
-18.49999999999999
 30
0.0
 10
-52.44868043755029
 20
-18.49999999999999
 30
0.0
 10
-53.62168948521574
 20
-18.49999999999999
 30
0.0
 10
-54.92094190484639
 20
-18.49999999999999
 30
0.0
 10
-56.06347978405165
 20
-18.49999999999999
 30
0.0
 10
-57.03169350365429
 20
-18.50000000000002
 30
0.0
 10
-57.65525264345791
 20
-18.49999999999999
 30
0.0
 10
-58.13599983235301
 20
-18.50000000000002
 30
0.0
 10
-58.43988914253862
 20
-18.5
 30
0.0
 10
-58.59531909446733
 20
-18.49999999999999
 30
0.0
 10
-58.55414721039627
 20
-18.5
 30
0.0
 10
-58.55203896908172
 20
-18.5
 30
0.0
  0
SPLINE
  5
F8
330
1F
100
AcDbEntity
  8
0
  6
Continuous
 62
     7
370
    25
100
AcDbSpline
210
0.0
220
0.0
230
1.0
 70
    24
 71
     3
 72
    15
 73
    11
 74
     0
 42
0.000000001
 43
0.00000001
 40
0.0
 40
0.0
 40
0.0
 40
0.0
 40
0.0945172066683232
 40
0.223811566170029
 40
0.3527278957148567
 40
0.4821020084861465
 40
0.6115128226928955
 40
0.7404829725644069
 40
0.8700687212533038
 40
1.0
 40
1.0
 40
1.0
 40
1.0
 10
-39.48232272634527
 20
-18.5
 30
0.0
 10
-39.48859390035923
 20
-18.49999999999999
 30
0.0
 10
-39.50344369678533
 20
-18.5
 30
0.0
 10
-40.14100078670295
 20
-18.49999999999999
 30
0.0
 10
-41.26560160527747
 20
-18.5
 30
0.0
 10
-42.83614743195409
 20
-18.49999999999999
 30
0.0
 10
-44.75764710839838
 20
-18.5
 30
0.0
 10
-46.92372998021482
 20
-18.49999999999999
 30
0.0
 10
-49.22278986585822
 20
-18.49999999999999
 30
0.0
 10
-50.72146240826436
 20
-18.5
 30
0.0
 10
-51.47179637201831
 20
-18.5
 30
0.0
  0
LINE
  5
117
330
1F
100
AcDbEntity
  8
0
  6
Continuous
 62
     7
370
    25
100
AcDbLine
 10
-132.8703169019
 20
201.25
 30
0.0
 11
-132.8703169019
 21
121.75
 31
0.0
  0
LINE
  5
118
330
1F
100
AcDbEntity
  8
0
  6
Continuous
 62
     7
370
    25
100
AcDbLine
 10
-129.3703169019
 20
124.1887532036
 30
0.0
 11
-124.7860038115
 21
128.0175204168
 31
0.0
  0
LINE
  5
119
330
1F
100
AcDbEntity
  8
0
  6
Continuous
 62
     7
370
    25
100
AcDbLine
 10
-124.7860038115
 20
194.9824795832
 30
0.0
 11
-129.3703169019
 21
198.8112467964
 31
0.0
  0
LINE
  5
11A
330
1F
100
AcDbEntity
  8
0
  6
Continuous
 62
     7
370
    25
100
AcDbLine
 10
-124.1449793114
 20
128.25
 30
0.0
 11
-123.2569237766
 21
128.25
 31
0.0
  0
LINE
  5
11B
330
1F
100
AcDbEntity
  8
0
  6
Continuous
 62
     7
370
    25
100
AcDbLine
 10
-123.2569237766
 20
194.75
 30
0.0
 11
-124.1449793114
 21
194.75
 31
0.0
  0
LINE
  5
11C
330
1F
100
AcDbEntity
  8
0
  6
Continuous
 62
     7
370
    25
100
AcDbLine
 10
-121.9115781886
 20
128.7701198532
 30
0.0
 11
-120.8899656939
 21
129.6988584848
 31
0.0
  0
LINE
  5
11D
330
1F
100
AcDbEntity
  8
0
  6
Continuous
 62
     7
370
    25
100
AcDbLine
 10
-120.8899656939
 20
193.3011415152
 30
0.0
 11
-121.9115781886
 21
194.2298801468
 31
0.0
  0
LINE
  5
11E
330
1F
100
AcDbEntity
  8
0
  6
Continuous
 62
     7
370
    25
100
AcDbLine
 10
-119.6376619766
 20
130.471529238
 30
0.0
 11
-110.6258094446
 21
133.94447636
 31
0.0
  0
LINE
  5
11F
330
1F
100
AcDbEntity
  8
0
  6
Continuous
 62
     7
370
    25
100
AcDbLine
 10
-110.6258094446
 20
189.05552364
 30
0.0
 11
-119.6376619766
 21
192.528470762
 31
0.0
  0
LINE
  5
120
330
1F
100
AcDbEntity
  8
0
  6
Continuous
 62
     7
370
    25
100
AcDbLine
 10
-107.6261753046
 20
136.4766705728
 30
0.0
 11
-103.4361118055
 21
143.5235955485
 31
0.0
  0
LINE
  5
121
330
1F
100
AcDbEntity
  8
0
  6
Continuous
 62
     7
370
    25
100
AcDbLine
 10
-103.4361118055
 20
179.4764044515
 30
0.0
 11
-107.6261753046
 21
186.5233294272
 31
0.0
  0
LINE
  5
122
330
1F
100
AcDbEntity
  8
0
  6
Continuous
 62
     7
370
    25
100
AcDbLine
 10
-102.5885619338
 20
144.5270512481
 30
0.0
 11
-98.5750200617
 21
147.9385618393
 31
0.0
  0
LINE
  5
123
330
1F
100
AcDbEntity
  8
0
  6
Continuous
 62
     7
370
    25
100
AcDbLine
 10
-98.5750200617
 20
175.0614381607
 30
0.0
 11
-102.5885619338
 21
178.4729487519
 31
0.0
  0
LINE
  5
124
330
1F
100
AcDbEntity
  8
0
  6
Continuous
 62
     7
370
    25
100
AcDbLine
 10
-59.3703169019
 20
-17.57
 30
0.0
 11
-59.3703169019
 21
-17.7575000041
 31
0.0
  0
LINE
  5
125
330
1F
100
AcDbEntity
  8
0
  6
Continuous
 62
     7
370
    25
100
AcDbLine
 10
-59.3703169019
 20
-16.07
 30
0.0
 11
-59.3703169019
 21
-16.2575000041
 31
0.0
  0
LINE
  5
126
330
1F
100
AcDbEntity
  8
0
  6
Continuous
 62
     7
370
    25
100
AcDbLine
 10
-59.3703169019
 20
-14.57
 30
0.0
 11
-59.3703169019
 21
-14.7575000041
 31
0.0
  0
LINE
  5
127
330
1F
100
AcDbEntity
  8
0
  6
Continuous
 62
     7
370
    25
100
AcDbLine
 10
-59.3703169019
 20
-13.07
 30
0.0
 11
-59.3703169019
 21
-13.2575000041
 31
0.0
  0
LINE
  5
128
330
1F
100
AcDbEntity
  8
0
  6
Continuous
 62
     7
370
    25
100
AcDbLine
 10
-59.3703169019
 20
-11.57
 30
0.0
 11
-59.3703169019
 21
-11.7575000041
 31
0.0
  0
LINE
  5
129
330
1F
100
AcDbEntity
  8
0
  6
Continuous
 62
     7
370
    25
100
AcDbLine
 10
-59.3703169019
 20
-8.5
 30
0.0
 11
-59.3703169019
 21
-10.2575000041
 31
0.0
  0
LINE
  5
12A
330
1F
100
AcDbEntity
  8
0
  6
Continuous
 62
     7
370
    25
100
AcDbLine
 10
-39.3703169019
 20
-8.5
 30
0.0
 11
-39.3703169019
 21
-11.0075000041
 31
0.0
  0
LINE
  5
12B
330
1F
100
AcDbEntity
  8
0
  6
Continuous
 62
     7
370
    25
100
AcDbLine
 10
-39.3703169019
 20
-12.5075000041
 30
0.0
 11
-39.3703169019
 21
-12.32
 31
0.0
  0
LINE
  5
12C
330
1F
100
AcDbEntity
  8
0
  6
Continuous
 62
     7
370
    25
100
AcDbLine
 10
-39.3703169019
 20
-14.0075000041
 30
0.0
 11
-39.3703169019
 21
-13.82
 31
0.0
  0
LINE
  5
12D
330
1F
100
AcDbEntity
  8
0
  6
Continuous
 62
     7
370
    25
100
AcDbLine
 10
-39.3703169019
 20
-15.5075000041
 30
0.0
 11
-39.3703169019
 21
-15.32
 31
0.0
  0
LINE
  5
12E
330
1F
100
AcDbEntity
  8
0
  6
Continuous
 62
     7
370
    25
100
AcDbLine
 10
-39.3703169019
 20
-17.0075000041
 30
0.0
 11
-39.3703169019
 21
-16.82
 31
0.0
  0
LINE
  5
12F
330
1F
100
AcDbEntity
  8
0
  6
Continuous
 62
     7
370
    25
100
AcDbLine
 10
-58.5584180894
 20
-10.7262498324
 30
0.0
 11
-58.5584180894
 21
-11.0963422384
 31
0.0
  0
LINE
  5
130
330
1F
100
AcDbEntity
  8
0
  6
Continuous
 62
     7
370
    25
100
AcDbLine
 10
-58.5584180894
 20
-12.2262493591
 30
0.0
 11
-58.5584180894
 21
-12.5963422384
 31
0.0
  0
LINE
  5
131
330
1F
100
AcDbEntity
  8
0
  6
Continuous
 62
     7
370
    25
100
AcDbLine
 10
-58.5584180894
 20
-13.7262500114
 30
0.0
 11
-58.5584180894
 21
-14.0963422384
 31
0.0
  0
LINE
  5
132
330
1F
100
AcDbEntity
  8
0
  6
Continuous
 62
     7
370
    25
100
AcDbLine
 10
-58.5584180894
 20
-15.2262503476
 30
0.0
 11
-58.5584180894
 21
-15.5963422384
 31
0.0
  0
LINE
  5
133
330
1F
100
AcDbEntity
  8
0
  6
Continuous
 62
     7
370
    25
100
AcDbLine
 10
-58.5584180894
 20
-16.7262501195
 30
0.0
 11
-58.5584180894
 21
-17.0963422384
 31
0.0
  0
LINE
  5
134
330
1F
100
AcDbEntity
  8
0
  6
Continuous
 62
     7
370
    25
100
AcDbLine
 10
-58.5584180894
 20
-18.2262498465
 30
0.0
 11
-58.5584180894
 21
-18.5
 31
0.0
  0
LINE
  5
135
330
1F
100
AcDbEntity
  8
0
  6
Continuous
 62
     7
370
    25
100
AcDbLine
 10
-40.1822157144
 20
-17.8512500363
 30
0.0
 11
-40.1822157144
 21
-17.4762500351
 31
0.0
  0
LINE
  5
136
330
1F
100
AcDbEntity
  8
0
  6
Continuous
 62
     7
370
    25
100
AcDbLine
 10
-40.1822157145
 20
-16.3512491679
 30
0.0
 11
-40.1822157145
 21
-15.9762491972
 31
0.0
  0
LINE
  5
137
330
1F
100
AcDbEntity
  8
0
  6
Continuous
 62
     7
370
    25
100
AcDbLine
 10
-40.1822157144
 20
-14.8512498262
 30
0.0
 11
-40.1822157144
 21
-14.4762498323
 31
0.0
  0
LINE
  5
138
330
1F
100
AcDbEntity
  8
0
  6
Continuous
 62
     7
370
    25
100
AcDbLine
 10
-40.1822157144
 20
-13.3512501605
 30
0.0
 11
-40.1822157144
 21
-12.9762501549
 31
0.0
  0
LINE
  5
139
330
1F
100
AcDbEntity
  8
0
  6
Continuous
 62
     7
370
    25
100
AcDbLine
 10
-40.1822157144
 20
-11.8512505086
 30
0.0
 11
-40.1822157144
 21
-11.4762504908
 31
0.0
  0
LINE
  5
13A
330
1F
100
AcDbEntity
  8
0
  6
Continuous
 62
     7
370
    25
100
AcDbLine
 10
-39.4308938122
 20
-18.5
 30
0.0
 11
-39.4839614646
 21
-18.2498306412
 31
0.0
  0
LINE
  5
13B
330
1F
100
AcDbEntity
  8
0
  6
Continuous
 62
     7
370
    25
100
AcDbLine
 10
-35.9072268018
 20
11.5
 30
0.0
 11
-35.9072268018
 21
111.5
 31
0.0
  0
LINE
  5
13C
330
1F
100
AcDbEntity
  8
0
  6
Continuous
 62
     7
370
    25
100
AcDbLine
 10
-62.833407002
 20
111.5
 30
0.0
 11
-62.833407002
 21
11.5
 31
0.0
  0
LINE
  5
13D
330
1F
100
AcDbEntity
  8
0
  6
Continuous
 62
     7
370
    25
100
AcDbLine
 10
-79.3703169019
 20
168.5
 30
0.0
 11
-90.6703169019
 21
168.5
 31
0.0
  0
LINE
  5
13E
330
1F
100
AcDbEntity
  8
0
  6
Continuous
 62
     7
370
    25
100
AcDbLine
 10
-90.6703169019
 20
154.5
 30
0.0
 11
-79.3703169019
 21
154.5
 31
0.0
  0
LINE
  5
13F
330
1F
100
AcDbEntity
  8
0
  6
Continuous
 62
     7
370
    25
100
AcDbLine
 10
-129.3703169019
 20
121.75
 30
0.0
 11
-129.3703169019
 21
201.25
 31
0.0
  0
LINE
  5
140
330
1F
100
AcDbEntity
  8
0
  6
Continuous
 62
     7
370
    25
100
AcDbLine
 10
-97.8703169019
 20
173.5375595252
 30
0.0
 11
-97.8703169019
 21
149.462443541
 31
0.0
  0
LINE
  5
141
330
1F
100
AcDbEntity
  8
0
  6
Continuous
 62
     7
370
    25
100
AcDbLine
 10
-35.3703169019
 20
11.5
 30
0.0
 11
-63.3703169019
 21
11.5
 31
0.0
  0
LINE
  5
142
330
1F
100
AcDbEntity
  8
0
  6
Continuous
 62
     7
370
    25
100
AcDbLine
 10
-34.8703169019
 20
7.2995169646
 30
0.0
 11
-63.8703169019
 21
7.2995169646
 31
0.0
  0
LINE
  5
143
330
1F
100
AcDbEntity
  8
0
  6
Continuous
 62
     7
370
    25
100
AcDbLine
 10
-37.8703169019
 20
-8.5
 30
0.0
 11
-60.8703169019
 21
-8.5
 31
0.0
  0
LINE
  5
144
330
1F
100
AcDbEntity
  8
0
  6
Continuous
 62
     7
370
    25
100
AcDbLine
 10
-39.3703169019
 20
-10.82
 30
0.0
 11
-40.1822157144
 21
-10.351250002
 31
0.0
  0
LINE
  5
145
330
1F
100
AcDbEntity
  8
0
  6
Continuous
 62
     7
370
    25
100
AcDbLine
 10
-40.1822157144
 20
-10.351250002
 30
0.0
 11
-40.1822157144
 21
-9.976250002
 31
0.0
  0
LINE
  5
146
330
1F
100
AcDbEntity
  8
0
  6
Continuous
 62
     7
370
    25
100
AcDbLine
 10
-50.0236961009
 20
111.5
 30
0.0
 11
-50.0236961009
 21
11.5
 31
0.0
  0
LINE
  5
147
330
1F
100
AcDbEntity
  8
0
  6
Continuous
 62
     7
370
    25
100
AcDbLine
 10
-50.4056248057
 20
11.5
 30
0.0
 11
-50.4056248057
 21
111.5
 31
0.0
  0
LINE
  5
148
330
1F
100
AcDbEntity
  8
0
  6
Continuous
 62
     7
370
    25
100
AcDbLine
 10
-40.6185978729
 20
11.5
 30
0.0
 11
-40.6185978729
 21
111.5
 31
0.0
  0
LINE
  5
149
330
1F
100
AcDbEntity
  8
0
  6
Continuous
 62
     7
370
    25
100
AcDbLine
 10
-59.3331044075
 20
111.5
 30
0.0
 11
-59.3331044075
 21
11.5
 31
0.0
  0
LINE
  5
14A
330
1F
100
AcDbEntity
  8
0
  6
Continuous
 62
     7
370
    25
100
AcDbLine
 10
-40.3315471209
 20
111.5
 30
0.0
 11
-40.3315471209
 21
11.5
 31
0.0
  0
LINE
  5
14B
330
1F
100
AcDbEntity
  8
0
  6
Continuous
 62
     7
370
    25
100
AcDbLine
 10
-35.9582092532
 20
11.5
 30
0.0
 11
-35.9582092532
 21
111.5
 31
0.0
  0
LINE
  5
14C
330
1F
100
AcDbEntity
  8
0
  6
Continuous
 62
     7
370
    25
100
AcDbLine
 10
-59.5861824097
 20
11.5
 30
0.0
 11
-59.5861824097
 21
111.5
 31
0.0
  0
LINE
  5
14D
330
1F
100
AcDbEntity
  8
0
  6
Continuous
 62
     7
370
    25
100
AcDbLine
 10
-62.8064469124
 20
111.5
 30
0.0
 11
-62.8064469124
 21
11.5
 31
0.0
  0
LINE
  5
14E
330
1F
100
AcDbEntity
  8
0
  6
Continuous
 62
     7
370
    25
100
AcDbLine
 10
-90.6703169019
 20
154.5
 30
0.0
 11
-90.6703169019
 21
168.5
 31
0.0
  0
LINE
  5
14F
330
1F
100
AcDbEntity
  8
0
  6
Continuous
 62
     7
370
    25
100
AcDbLine
 10
-35.3703169019
 20
111.5
 30
0.0
 11
-63.3703169019
 21
111.5
 31
0.0
  0
LINE
  5
150
330
1F
100
AcDbEntity
  8
0
  6
Continuous
 62
     7
370
    25
100
AcDbLine
 10
-41.8703169019
 20
131.5
 30
0.0
 11
-56.8703169019
 21
131.5
 31
0.0
  0
LINE
  5
151
330
1F
100
AcDbEntity
  8
0
  6
Continuous
 62
     8
370
    25
100
AcDbLine
 10
-124.7860038115
 20
128.0175204168
 30
0.0
 11
-124.7860038115
 21
194.9824795832
 31
0.0
  0
LINE
  5
152
330
1F
100
AcDbEntity
  8
0
  6
Continuous
 62
     8
370
    25
100
AcDbLine
 10
-124.1449793114
 20
128.25
 30
0.0
 11
-124.1449793114
 21
194.75
 31
0.0
  0
LINE
  5
153
330
1F
100
AcDbEntity
  8
0
  6
Continuous
 62
     8
370
    25
100
AcDbLine
 10
-123.2569237766
 20
128.25
 30
0.0
 11
-123.2569237766
 21
194.75
 31
0.0
  0
LINE
  5
154
330
1F
100
AcDbEntity
  8
0
  6
Continuous
 62
     8
370
    25
100
AcDbLine
 10
-121.9115781886
 20
128.7701198532
 30
0.0
 11
-121.9115781886
 21
194.2298801468
 31
0.0
  0
LINE
  5
155
330
1F
100
AcDbEntity
  8
0
  6
Continuous
 62
     8
370
    25
100
AcDbLine
 10
-120.8899656939
 20
129.6988584848
 30
0.0
 11
-120.8899656939
 21
193.3011415152
 31
0.0
  0
LINE
  5
156
330
1F
100
AcDbEntity
  8
0
  6
Continuous
 62
     8
370
    25
100
AcDbLine
 10
-119.6376619766
 20
130.471529238
 30
0.0
 11
-119.6376619766
 21
192.528470762
 31
0.0
  0
LINE
  5
157
330
1F
100
AcDbEntity
  8
0
  6
Continuous
 62
     8
370
    25
100
AcDbLine
 10
-110.6258094446
 20
133.94447636
 30
0.0
 11
-110.6258094446
 21
189.05552364
 31
0.0
  0
LINE
  5
158
330
1F
100
AcDbEntity
  8
0
  6
Continuous
 62
     8
370
    25
100
AcDbLine
 10
-107.6261753046
 20
136.4766705728
 30
0.0
 11
-107.6261753046
 21
186.5233294272
 31
0.0
  0
LINE
  5
159
330
1F
100
AcDbEntity
  8
0
  6
Continuous
 62
     8
370
    25
100
AcDbLine
 10
-103.4361118055
 20
143.5235955485
 30
0.0
 11
-103.4361118055
 21
179.4764044515
 31
0.0
  0
LINE
  5
15A
330
1F
100
AcDbEntity
  8
0
  6
Continuous
 62
     8
370
    25
100
AcDbLine
 10
-102.5885619338
 20
144.5270512481
 30
0.0
 11
-102.5885619338
 21
178.4729487519
 31
0.0
  0
LINE
  5
15B
330
1F
100
AcDbEntity
  8
0
  6
Continuous
 62
     8
370
    25
100
AcDbLine
 10
-98.5750200617
 20
147.9385618393
 30
0.0
 11
-98.5750200617
 21
175.0614381607
 31
0.0
  0
LINE
  5
15C
330
1F
100
AcDbEntity
  8
0
  6
Continuous
 62
     8
370
    25
100
AcDbLine
 10
-38.1656194755
 20
-2.6338943027
 30
0.0
 11
-60.5750143283
 21
-2.6338943027
 31
0.0
  0
LINE
  5
15D
330
1F
100
AcDbEntity
  8
0
  6
Continuous
 62
     8
370
    25
100
AcDbLine
 10
-36.9912242288
 20
-4.4298721506
 30
0.0
 11
-61.749409575
 21
-4.4298721506
 31
0.0
  0
LINE
  5
15E
330
1F
100
AcDbEntity
  8
0
  6
Continuous
 62
     8
370
    25
100
AcDbLine
 10
-79.3703169019
 20
168.5
 30
0.0
 11
-79.3703169019
 21
154.5
 31
0.0
  0
LINE
  5
15F
330
1F
100
AcDbEntity
  8
0
  6
Continuous
 62
     8
370
    25
100
AcDbLine
 10
-34.9599359145
 20
115.7200926882
 30
0.0
 11
-63.7806978894
 21
115.7200926882
 31
0.0
  0
LINE
  5
160
330
1F
100
AcDbEntity
  8
0
  6
Continuous
 62
     8
370
    25
100
AcDbLine
 10
-35.9304914142
 20
116.2123955552
 30
0.0
 11
-62.8101423896
 21
116.2123955552
 31
0.0
  0
LINE
  5
161
330
1F
100
AcDbEntity
  8
0
  6
Continuous
 62
     8
370
    25
100
AcDbLine
 10
-41.3256710681
 20
125.6623887908
 30
0.0
 11
-57.4149627357
 21
125.6623887908
 31
0.0
  0
LINE
  5
162
330
1F
100
AcDbEntity
  8
0
  6
Continuous
 62
     8
370
    25
100
AcDbLine
 10
-40.5809706549
 20
127.674569006
 30
0.0
 11
-58.1596631489
 21
127.674569006
 31
0.0
  0
ARC
  5
163
330
1F
100
AcDbEntity
  8
0
  6
Continuous
 62
     7
370
    25
100
AcDbCircle
 10
-131.1203169019
 20
121.75
 30
0.0
 40
1.75
100
AcDbArc
 50
180.0
 51
0.0
  0
ARC
  5
164
330
1F
100
AcDbEntity
  8
0
  6
Continuous
 62
     7
370
    25
100
AcDbCircle
 10
-131.1203169019
 20
201.25
 30
0.0
 40
1.75
100
AcDbArc
 50
360.0
 51
180.0
  0
ARC
  5
165
330
1F
100
AcDbEntity
  8
0
  6
Continuous
 62
     7
370
    25
100
AcDbCircle
 10
-124.1449793114
 20
127.25
 30
0.0
 40
1.000000000000043
100
AcDbArc
 50
90.0
 51
129.8682563835
  0
ARC
  5
166
330
1F
100
AcDbEntity
  8
0
  6
Continuous
 62
     7
370
    25
100
AcDbCircle
 10
-124.1449793114
 20
195.75
 30
0.0
 40
0.9999999999999845
100
AcDbArc
 50
230.1317436165
 51
270.0
  0
ARC
  5
167
330
1F
100
AcDbEntity
  8
0
  6
Continuous
 62
     7
370
    25
100
AcDbCircle
 10
-123.2569237766
 20
130.25
 30
0.0
 40
1.999999999999972
100
AcDbArc
 50
270.0
 51
312.2736890061
  0
ARC
  5
168
330
1F
100
AcDbEntity
  8
0
  6
Continuous
 62
     7
370
    25
100
AcDbCircle
 10
-123.2569237766
 20
192.75
 30
0.0
 40
2.000000000000147
100
AcDbArc
 50
47.7263109939
 51
90.0
  0
ARC
  5
169
330
1F
100
AcDbEntity
  8
0
  6
Continuous
 62
     7
370
    25
100
AcDbCircle
 10
-118.1992745179
 20
126.7390981912
 30
0.0
 40
3.99999999999982
100
AcDbArc
 50
111.0754401735
 51
132.2736890061
  0
ARC
  5
16A
330
1F
100
AcDbEntity
  8
0
  6
Continuous
 62
     7
370
    25
100
AcDbCircle
 10
-118.1992745179
 20
196.2609018088
 30
0.0
 40
4.000000000000341
100
AcDbArc
 50
227.7263109939
 51
248.9245598265
  0
ARC
  5
16B
330
1F
100
AcDbEntity
  8
0
  6
Continuous
 62
     7
370
    25
100
AcDbCircle
 10
-112.7833906327
 20
139.5431229301
 30
0.0
 40
5.999999999999915
100
AcDbArc
 50
291.0754401735
 51
329.2645122981
  0
ARC
  5
16C
330
1F
100
AcDbEntity
  8
0
  6
Continuous
 62
     7
370
    25
100
AcDbCircle
 10
-112.7833906327
 20
183.4568770699
 30
0.0
 40
5.99999999999991
100
AcDbArc
 50
30.7354877019
 51
68.9245598265
  0
ARC
  5
16D
330
1F
100
AcDbEntity
  8
0
  6
Continuous
 62
     7
370
    25
100
AcDbCircle
 10
-99.9979682534
 20
141.479293977
 30
0.0
 40
4.000000000000516
100
AcDbArc
 50
130.3645365731
 51
149.2645122981
  0
ARC
  5
16E
330
1F
100
AcDbEntity
  8
0
  6
Continuous
 62
     7
370
    25
100
AcDbCircle
 10
-99.9979682534
 20
181.520706023
 30
0.0
 40
4.000000000000039
100
AcDbArc
 50
210.7354877019
 51
229.6354634269
  0
ARC
  5
16F
330
1F
100
AcDbEntity
  8
0
  6
Continuous
 62
     7
370
    25
100
AcDbCircle
 10
-99.8703169019
 20
173.5375595252
 30
0.0
 40
1.999999999999858
100
AcDbArc
 50
0.0
 51
49.6354634269
  0
ARC
  5
170
330
1F
100
AcDbEntity
  8
0
  6
Continuous
 62
     7
370
    25
100
AcDbCircle
 10
-99.8703169019
 20
149.4624404748
 30
0.0
 40
2.000000000000004
100
AcDbArc
 50
310.3645365731
 51
0.0
  0
ARC
  5
171
330
1F
100
AcDbEntity
  8
0
  6
Continuous
 62
     7
370
    25
100
AcDbCircle
 10
-35.3703169019
 20
9.37
 30
0.0
 40
2.130000000000004
100
AcDbArc
 50
283.5764023209
 51
90.0
  0
ARC
  5
172
330
1F
100
AcDbEntity
  8
0
  6
Continuous
 62
     7
370
    25
100
AcDbCircle
 10
-63.3703169019
 20
9.37
 30
0.0
 40
2.130000000000004
100
AcDbArc
 50
90.0
 51
256.4235976791
  0
ARC
  5
173
330
1F
100
AcDbEntity
  8
0
  6
Continuous
 62
     7
370
    25
100
AcDbCircle
 10
-22.1669444652
 20
-2.4279867612
 30
0.0
 40
16.00000000000017
100
AcDbArc
 50
142.5572083566
 51
180.7373724231
  0
ARC
  5
174
330
1F
100
AcDbEntity
  8
0
  6
Continuous
 62
     7
370
    25
100
AcDbCircle
 10
-76.5736893386
 20
-2.4279867612
 30
0.0
 40
16.00000000000011
100
AcDbArc
 50
359.2626275769
 51
37.4427916434
  0
ARC
  5
175
330
1F
100
AcDbEntity
  8
0
  6
Continuous
 62
     7
370
    25
100
AcDbCircle
 10
-37.8703169019
 20
-6.37
 30
0.0
 40
2.13
100
AcDbArc
 50
270.0
 51
65.6242115116
  0
ARC
  5
176
330
1F
100
AcDbEntity
  8
0
  6
Continuous
 62
     7
370
    25
100
AcDbCircle
 10
-60.8703169019
 20
-6.37
 30
0.0
 40
2.129999999999996
100
AcDbArc
 50
114.3757884884
 51
270.0
  0
ARC
  5
177
330
1F
100
AcDbEntity
  8
0
  6
Continuous
 62
     7
370
    25
100
AcDbCircle
 10
-36.1657850992
 20
-2.60815586
 30
0.0
 40
1.999999999999972
100
AcDbArc
 50
180.7373724231
 51
245.6242115116
  0
ARC
  5
178
330
1F
100
AcDbEntity
  8
0
  6
Continuous
 62
     7
370
    25
100
AcDbCircle
 10
-62.5748487046
 20
-2.60815586
 30
0.0
 40
2.000000000000001
100
AcDbArc
 50
294.3757884884
 51
359.2626275769
  0
ARC
  5
179
330
1F
100
AcDbEntity
  8
0
  6
Continuous
 62
     7
370
    25
100
AcDbCircle
 10
-98.9322262185
 20
163.2029221784
 30
0.0
 40
12.00000000000029
100
AcDbArc
 50
275.0768843732
 51
313.510890832
  0
ARC
  5
17A
330
1F
100
AcDbEntity
  8
0
  6
Continuous
 62
     7
370
    25
100
AcDbCircle
 10
-98.9322262185
 20
159.7970778216
 30
0.0
 40
12.00000000000009
100
AcDbArc
 50
46.489109168
 51
84.9231156268
  0
ARC
  5
17B
330
1F
100
AcDbEntity
  8
0
  6
Continuous
 62
     7
370
    25
100
AcDbCircle
 10
-79.3703169019
 20
131.5
 30
0.0
 40
22.99999999999997
100
AcDbArc
 50
0.0
 51
90.0
  0
ARC
  5
17C
330
1F
100
AcDbEntity
  8
0
  6
Continuous
 62
     7
370
    25
100
AcDbCircle
 10
-79.3703169019
 20
131.5
 30
0.0
 40
37.00000000000003
100
AcDbArc
 50
0.0
 51
90.0
  0
ARC
  5
17D
330
1F
100
AcDbEntity
  8
0
  6
Continuous
 62
     7
370
    25
100
AcDbCircle
 10
-35.3703169019
 20
113.63
 30
0.0
 40
2.13000000000001
100
AcDbArc
 50
270.0
 51
78.8915240476
  0
ARC
  5
17E
330
1F
100
AcDbEntity
  8
0
  6
Continuous
 62
     7
370
    25
100
AcDbCircle
 10
-63.3703169019
 20
113.63
 30
0.0
 40
2.13000000000001
100
AcDbArc
 50
101.1084759524
 51
270.0
  0
ARC
  5
17F
330
1F
100
AcDbEntity
  8
0
  6
Continuous
 62
     7
370
    25
100
AcDbCircle
 10
-34.5746016539
 20
117.6826210339
 30
0.0
 40
1.999999999999869
100
AcDbArc
 50
227.3167432887
 51
258.8915240476
  0
ARC
  5
180
330
1F
100
AcDbEntity
  8
0
  6
Continuous
 62
     7
370
    25
100
AcDbCircle
 10
-64.1660321499
 20
117.6826210339
 30
0.0
 40
1.999999999999865
100
AcDbArc
 50
281.1084759524
 51
312.6832567113
  0
ARC
  5
181
330
1F
100
AcDbEntity
  8
0
  6
Continuous
 62
     7
370
    25
100
AcDbCircle
 10
-23.727483572
 20
129.4444248631
 30
0.0
 40
17.99999999999986
100
AcDbArc
 50
192.1289811605
 51
227.3167432887
  0
ARC
  5
182
330
1F
100
AcDbEntity
  8
0
  6
Continuous
 62
     7
370
    25
100
AcDbCircle
 10
-75.0131502318
 20
129.4444248631
 30
0.0
 40
17.99999999999992
100
AcDbArc
 50
312.6832567113
 51
347.8710188395
  0
ARC
  5
183
330
1F
100
AcDbEntity
  8
0
  6
Continuous
 62
     7
370
    25
100
AcDbCircle
 10
-41.8703169019
 20
129.37
 30
0.0
 40
2.129999999999995
100
AcDbArc
 50
307.2523673309
 51
90.0
  0
ARC
  5
184
330
1F
100
AcDbEntity
  8
0
  6
Continuous
 62
     7
370
    25
100
AcDbCircle
 10
-56.8703169019
 20
129.37
 30
0.0
 40
2.13
100
AcDbArc
 50
90.0
 51
232.7476326691
  0
ARC
  5
185
330
1F
100
AcDbEntity
  8
0
  6
Continuous
 62
     7
370
    25
100
AcDbCircle
 10
-39.3703169019
 20
126.082615021
 30
0.0
 40
1.999999999999979
100
AcDbArc
 50
127.2523673309
 51
192.1289811605
  0
ARC
  5
186
330
1F
100
AcDbEntity
  8
0
  6
Continuous
 62
     7
370
    25
100
AcDbCircle
 10
-59.3703169019
 20
126.082615021
 30
0.0
 40
2.000000000000047
100
AcDbArc
 50
347.8710188395
 51
52.7476326691
  0
LINE
  5
2EC
330
23
100
AcDbEntity
 67
     1
  8
0
  6
Continuous
 62
     7
370
    25
100
AcDbLine
 10
-132.8703169019
 20
39.75
 30
0.0
 11
-132.8703169019
 21
-39.75
 31
0.0
  0
LINE
  5
2ED
330
23
100
AcDbEntity
 67
     1
  8
0
  6
Continuous
 62
     7
370
    25
100
AcDbLine
 10
-129.3703169019
 20
-37.3112467964
 30
0.0
 11
-124.7860038115
 21
-33.4824795832
 31
0.0
  0
LINE
  5
2EE
330
23
100
AcDbEntity
 67
     1
  8
0
  6
Continuous
 62
     7
370
    25
100
AcDbLine
 10
-124.7860038115
 20
33.4824795832
 30
0.0
 11
-129.3703169019
 21
37.3112467964
 31
0.0
  0
LINE
  5
2EF
330
23
100
AcDbEntity
 67
     1
  8
0
  6
Continuous
 62
     7
370
    25
100
AcDbLine
 10
-124.1449793114
 20
-33.25
 30
0.0
 11
-123.2569237766
 21
-33.25
 31
0.0
  0
LINE
  5
2F0
330
23
100
AcDbEntity
 67
     1
  8
0
  6
Continuous
 62
     7
370
    25
100
AcDbLine
 10
-123.2569237766
 20
33.25
 30
0.0
 11
-124.1449793114
 21
33.25
 31
0.0
  0
LINE
  5
2F1
330
23
100
AcDbEntity
 67
     1
  8
0
  6
Continuous
 62
     7
370
    25
100
AcDbLine
 10
-121.9115781886
 20
-32.7298801468
 30
0.0
 11
-120.8899656939
 21
-31.8011415152
 31
0.0
  0
LINE
  5
2F2
330
23
100
AcDbEntity
 67
     1
  8
0
  6
Continuous
 62
     7
370
    25
100
AcDbLine
 10
-120.8899656939
 20
31.8011415152
 30
0.0
 11
-121.9115781886
 21
32.7298801468
 31
0.0
  0
LINE
  5
2F3
330
23
100
AcDbEntity
 67
     1
  8
0
  6
Continuous
 62
     7
370
    25
100
AcDbLine
 10
-119.6376619766
 20
-31.028470762
 30
0.0
 11
-110.6258094446
 21
-27.55552364
 31
0.0
  0
LINE
  5
2F4
330
23
100
AcDbEntity
 67
     1
  8
0
  6
Continuous
 62
     7
370
    25
100
AcDbLine
 10
-110.6258094446
 20
27.55552364
 30
0.0
 11
-119.6376619766
 21
31.028470762
 31
0.0
  0
LINE
  5
2F5
330
23
100
AcDbEntity
 67
     1
  8
0
  6
Continuous
 62
     7
370
    25
100
AcDbLine
 10
-107.6261753046
 20
-25.0233294272
 30
0.0
 11
-103.4361118055
 21
-17.9764044515
 31
0.0
  0
LINE
  5
2F6
330
23
100
AcDbEntity
 67
     1
  8
0
  6
Continuous
 62
     7
370
    25
100
AcDbLine
 10
-103.4361118055
 20
17.9764044515
 30
0.0
 11
-107.6261753046
 21
25.0233294272
 31
0.0
  0
LINE
  5
2F7
330
23
100
AcDbEntity
 67
     1
  8
0
  6
Continuous
 62
     7
370
    25
100
AcDbLine
 10
-102.5885619338
 20
-16.9729487519
 30
0.0
 11
-98.5750200617
 21
-13.5614381607
 31
0.0
  0
LINE
  5
2F8
330
23
100
AcDbEntity
 67
     1
  8
0
  6
Continuous
 62
     7
370
    25
100
AcDbLine
 10
-98.5750200617
 20
13.5614381607
 30
0.0
 11
-102.5885619338
 21
16.9729487519
 31
0.0
  0
LINE
  5
2F9
330
23
100
AcDbEntity
 67
     1
  8
0
  6
Continuous
 62
     7
370
    25
100
AcDbLine
 10
-90.6703169019
 20
-7.0
 30
0.0
 11
-49.3703169019
 21
-7.0
 31
0.0
  0
LINE
  5
2FA
330
23
100
AcDbEntity
 67
     1
  8
0
  6
Continuous
 62
     7
370
    25
100
AcDbLine
 10
-49.3703169019
 20
7.0
 30
0.0
 11
-90.6703169019
 21
7.0
 31
0.0
  0
LINE
  5
2FB
330
23
100
AcDbEntity
 67
     1
  8
0
  6
Continuous
 62
     7
370
    25
100
AcDbLine
 10
-129.3703169019
 20
-39.75
 30
0.0
 11
-129.3703169019
 21
39.75
 31
0.0
  0
LINE
  5
2FC
330
23
100
AcDbEntity
 67
     1
  8
0
  6
Continuous
 62
     7
370
    25
100
AcDbLine
 10
-97.8703169019
 20
12.0375595252
 30
0.0
 11
-97.8703169019
 21
-12.0375595252
 31
0.0
  0
LINE
  5
2FD
330
23
100
AcDbEntity
 67
     1
  8
0
  6
Continuous
 62
     7
370
    25
100
AcDbLine
 10
-90.6703169019
 20
-7.0
 30
0.0
 11
-90.6703169019
 21
7.0
 31
0.0
  0
LINE
  5
2FE
330
23
100
AcDbEntity
 67
     1
  8
0
  6
Continuous
 62
     8
370
    25
100
AcDbLine
 10
-124.7860038115
 20
-33.4824795832
 30
0.0
 11
-124.7860038115
 21
33.4824795832
 31
0.0
  0
LINE
  5
2FF
330
23
100
AcDbEntity
 67
     1
  8
0
  6
Continuous
 62
     8
370
    25
100
AcDbLine
 10
-124.1449793114
 20
-33.25
 30
0.0
 11
-124.1449793114
 21
33.25
 31
0.0
  0
LINE
  5
300
330
23
100
AcDbEntity
 67
     1
  8
0
  6
Continuous
 62
     8
370
    25
100
AcDbLine
 10
-123.2569237766
 20
-33.25
 30
0.0
 11
-123.2569237766
 21
33.25
 31
0.0
  0
LINE
  5
301
330
23
100
AcDbEntity
 67
     1
  8
0
  6
Continuous
 62
     8
370
    25
100
AcDbLine
 10
-121.9115781886
 20
-32.7298801468
 30
0.0
 11
-121.9115781886
 21
32.7298801468
 31
0.0
  0
LINE
  5
302
330
23
100
AcDbEntity
 67
     1
  8
0
  6
Continuous
 62
     8
370
    25
100
AcDbLine
 10
-120.8899656939
 20
-31.8011415152
 30
0.0
 11
-120.8899656939
 21
31.8011415152
 31
0.0
  0
LINE
  5
303
330
23
100
AcDbEntity
 67
     1
  8
0
  6
Continuous
 62
     8
370
    25
100
AcDbLine
 10
-119.6376619766
 20
-31.028470762
 30
0.0
 11
-119.6376619766
 21
31.028470762
 31
0.0
  0
LINE
  5
304
330
23
100
AcDbEntity
 67
     1
  8
0
  6
Continuous
 62
     8
370
    25
100
AcDbLine
 10
-110.6258094446
 20
-27.55552364
 30
0.0
 11
-110.6258094446
 21
27.55552364
 31
0.0
  0
LINE
  5
305
330
23
100
AcDbEntity
 67
     1
  8
0
  6
Continuous
 62
     8
370
    25
100
AcDbLine
 10
-107.6261753046
 20
-25.0233294272
 30
0.0
 11
-107.6261753046
 21
25.0233294272
 31
0.0
  0
LINE
  5
306
330
23
100
AcDbEntity
 67
     1
  8
0
  6
Continuous
 62
     8
370
    25
100
AcDbLine
 10
-103.4361118055
 20
-17.9764044515
 30
0.0
 11
-103.4361118055
 21
17.9764044515
 31
0.0
  0
LINE
  5
307
330
23
100
AcDbEntity
 67
     1
  8
0
  6
Continuous
 62
     8
370
    25
100
AcDbLine
 10
-102.5885619338
 20
-16.9729487519
 30
0.0
 11
-102.5885619338
 21
16.9729487519
 31
0.0
  0
LINE
  5
308
330
23
100
AcDbEntity
 67
     1
  8
0
  6
Continuous
 62
     8
370
    25
100
AcDbLine
 10
-98.5750200617
 20
-13.5614381607
 30
0.0
 11
-98.5750200617
 21
13.5614381607
 31
0.0
  0
LINE
  5
309
330
23
100
AcDbEntity
 67
     1
  8
0
  6
Continuous
 62
     8
370
    25
100
AcDbLine
 10
-79.3703169019
 20
7.0
 30
0.0
 11
-79.3703169019
 21
-7.0
 31
0.0
  0
ARC
  5
30A
330
23
100
AcDbEntity
 67
     1
  8
0
  6
Continuous
 62
     7
370
    25
100
AcDbCircle
 10
-131.1203169019
 20
-39.75
 30
0.0
 40
1.75
100
AcDbArc
 50
180.0
 51
0.0
  0
ARC
  5
30B
330
23
100
AcDbEntity
 67
     1
  8
0
  6
Continuous
 62
     7
370
    25
100
AcDbCircle
 10
-131.1203169019
 20
39.75
 30
0.0
 40
1.75
100
AcDbArc
 50
0.0
 51
180.0
  0
ARC
  5
30C
330
23
100
AcDbEntity
 67
     1
  8
0
  6
Continuous
 62
     7
370
    25
100
AcDbCircle
 10
-124.1449793114
 20
-34.25
 30
0.0
 40
1.000000000000114
100
AcDbArc
 50
90.0
 51
129.8682563835
  0
ARC
  5
30D
330
23
100
AcDbEntity
 67
     1
  8
0
  6
Continuous
 62
     7
370
    25
100
AcDbCircle
 10
-124.1449793114
 20
34.25
 30
0.0
 40
1.000000000000021
100
AcDbArc
 50
230.1317436165
 51
270.0
  0
ARC
  5
30E
330
23
100
AcDbEntity
 67
     1
  8
0
  6
Continuous
 62
     7
370
    25
100
AcDbCircle
 10
-123.2569237766
 20
-31.25
 30
0.0
 40
2.000000000000068
100
AcDbArc
 50
270.0
 51
312.2736890061
  0
ARC
  5
30F
330
23
100
AcDbEntity
 67
     1
  8
0
  6
Continuous
 62
     7
370
    25
100
AcDbCircle
 10
-123.2569237766
 20
31.25
 30
0.0
 40
1.999999999999955
100
AcDbArc
 50
47.7263109939
 51
90.0
  0
ARC
  5
310
330
23
100
AcDbEntity
 67
     1
  8
0
  6
Continuous
 62
     7
370
    25
100
AcDbCircle
 10
-118.1992745179
 20
-34.7609018088
 30
0.0
 40
3.999999999999996
100
AcDbArc
 50
111.0754401735
 51
132.2736890061
  0
ARC
  5
311
330
23
100
AcDbEntity
 67
     1
  8
0
  6
Continuous
 62
     7
370
    25
100
AcDbCircle
 10
-118.1992745179
 20
34.7609018088
 30
0.0
 40
3.999999999999669
100
AcDbArc
 50
227.7263109939
 51
248.9245598265
  0
ARC
  5
312
330
23
100
AcDbEntity
 67
     1
  8
0
  6
Continuous
 62
     7
370
    25
100
AcDbCircle
 10
-112.7833906327
 20
-21.9568770699
 30
0.0
 40
5.999999999999995
100
AcDbArc
 50
291.0754401735
 51
329.2645122981
  0
ARC
  5
313
330
23
100
AcDbEntity
 67
     1
  8
0
  6
Continuous
 62
     7
370
    25
100
AcDbCircle
 10
-112.7833906327
 20
21.9568770699
 30
0.0
 40
5.999999999999904
100
AcDbArc
 50
30.7354877019
 51
68.9245598265
  0
ARC
  5
314
330
23
100
AcDbEntity
 67
     1
  8
0
  6
Continuous
 62
     7
370
    25
100
AcDbCircle
 10
-99.9979682534
 20
-20.020706023
 30
0.0
 40
4.000000000000465
100
AcDbArc
 50
130.3645365731
 51
149.2645122981
  0
ARC
  5
315
330
23
100
AcDbEntity
 67
     1
  8
0
  6
Continuous
 62
     7
370
    25
100
AcDbCircle
 10
-99.9979682534
 20
20.020706023
 30
0.0
 40
4.000000000000578
100
AcDbArc
 50
210.7354877019
 51
229.6354634269
  0
ARC
  5
316
330
23
100
AcDbEntity
 67
     1
  8
0
  6
Continuous
 62
     7
370
    25
100
AcDbCircle
 10
-99.8703169019
 20
12.0375595252
 30
0.0
 40
1.999999999999914
100
AcDbArc
 50
0.0
 51
49.6354634269
  0
ARC
  5
317
330
23
100
AcDbEntity
 67
     1
  8
0
  6
Continuous
 62
     7
370
    25
100
AcDbCircle
 10
-99.8703169019
 20
-12.0375595252
 30
0.0
 40
1.999999999999945
100
AcDbArc
 50
310.3645365731
 51
0.0
  0
ARC
  5
318
330
23
100
AcDbEntity
 67
     1
  8
0
  6
Continuous
 62
     7
370
    25
100
AcDbCircle
 10
-98.9322262185
 20
1.7029221784
 30
0.0
 40
12.00000000000009
100
AcDbArc
 50
275.0768843732
 51
313.510890832
  0
ARC
  5
319
330
23
100
AcDbEntity
 67
     1
  8
0
  6
Continuous
 62
     7
370
    25
100
AcDbCircle
 10
-98.9322262185
 20
-1.7029221784
 30
0.0
 40
11.99999999999993
100
AcDbArc
 50
46.489109168
 51
84.9231156268
  0
ARC
  5
31A
330
23
100
AcDbEntity
 67
     1
  8
0
  6
Continuous
 62
     7
370
    25
100
AcDbCircle
 10
-49.3703169019
 20
0.0
 30
0.0
 40
9.630000000000004
100
AcDbArc
 50
226.6267285808
 51
133.3732714192
  0
ARC
  5
31B
330
23
100
AcDbEntity
 67
     1
  8
0
  6
Continuous
 62
     7
370
    25
100
AcDbCircle
 10
-49.3703169019
 20
0.0
 30
0.0
 40
16.13000000000015
100
AcDbArc
 50
205.7200234153
 51
154.2799765847
  0
ARC
  5
31C
330
23
100
AcDbEntity
 67
     1
  8
0
  6
Continuous
 62
     7
370
    25
100
AcDbCircle
 10
-49.3703169019
 20
0.0
 30
0.0
 40
7.000000000000002
100
AcDbArc
 50
270.0
 51
90.0
  0
ARC
  5
31D
330
23
100
AcDbEntity
 67
     1
  8
0
  6
Continuous
 62
     8
370
    25
100
AcDbCircle
 10
-49.3703169019
 20
0.0
 30
0.0
 40
7.500000000000003
100
AcDbArc
 50
248.9605302187
 51
111.0394697813
  0
ARC
  5
31E
330
23
100
AcDbEntity
 67
     1
  8
0
  6
Continuous
 62
     8
370
    25
100
AcDbCircle
 10
-49.3703169019
 20
0.0
 30
0.0
 40
13.4398254877268
100
AcDbArc
 50
211.3886203753
 51
148.6113796247
  0
ARC
  5
31F
330
23
100
AcDbEntity
 67
     1
  8
0
  6
Continuous
 62
     8
370
    25
100
AcDbCircle
 10
-49.3703169019
 20
0.0
 30
0.0
 40
14.41038098744843
100
AcDbArc
 50
209.062338187
 51
150.9376618131
  0
VIEWPORT
  5
322
330
23
100
AcDbEntity
 67
     1
  8
0
100
AcDbViewport
 10
0.0
 20
0.0
 30
0.0
 40
205.6
 41
156.0
 68
     1
 69
     1
 12
-83.0553169019
 22
92.25
 13
0.0
 23
0.0
 14
10.0
 24
10.0
 15
10.0
 25
10.0
 16
0.0
 26
0.0
 36
1.0
 17
0.0
 27
0.0
 37
0.0
 42
50.0
 43
0.0
 44
0.0
 45
225.93
 50
0.0
 51
0.0
 72
   100
 90
   557152
  1

281
     0
 71
     1
 74
     0
110
0.0
120
0.0
130
0.0
111
1.0
121
0.0
131
0.0
112
0.0
122
1.0
132
0.0
 79
     0
146
0.0
  0
ENDSEC
  0
SECTION
  2
OBJECTS
  0
DICTIONARY
  5
C
330
0
100
AcDbDictionary
281
     1
  3
ACAD_GROUP
350
D
  3
ACAD_LAYOUT
350
1A
  3
ACAD_MLINESTYLE
350
17
  3
ACAD_PLOTSETTINGS
350
19
  3
ACAD_PLOTSTYLENAME
350
E
  3
ACAD_SCALELIST
350
47
  0
DICTIONARY
  5
D
102
{ACAD_REACTORS
330
C
102
}
330
C
100
AcDbDictionary
281
     1
  0
DICTIONARY
  5
1A
102
{ACAD_REACTORS
330
C
102
}
330
C
100
AcDbDictionary
281
     1
  3
_Left
350
1E
  3
_Top
350
26
  3
Model
350
22
  0
DICTIONARY
  5
17
102
{ACAD_REACTORS
330
C
102
}
330
C
100
AcDbDictionary
281
     1
  3
Standard
350
18
  0
DICTIONARY
  5
19
102
{ACAD_REACTORS
330
C
102
}
330
C
100
AcDbDictionary
281
     1
  0
ACDBDICTIONARYWDFLT
  5
E
102
{ACAD_REACTORS
330
C
102
}
330
C
100
AcDbDictionary
281
     1
  3
Normal
350
F
100
AcDbDictionaryWithDefault
340
F
  0
DICTIONARY
  5
47
102
{ACAD_REACTORS
330
C
102
}
330
C
100
AcDbDictionary
281
     1
  3
A0
350
48
  3
A1
350
49
  3
A2
350
4A
  3
A3
350
4B
  3
A4
350
4C
  3
A5
350
4D
  3
A6
350
4E
  3
A7
350
4F
  3
A8
350
50
  3
A9
350
51
  3
B0
350
52
  3
B1
350
53
  3
B2
350
54
  3
B3
350
55
  3
B4
350
56
  3
B5
350
57
  3
B6
350
58
  3
B7
350
59
  3
B8
350
5A
  3
B9
350
5B
  3
C0
350
5C
  3
C1
350
5D
  3
C2
350
5E
  3
C3
350
5F
  3
C4
350
60
  3
C5
350
61
  3
C6
350
62
  3
C7
350
63
  3
C8
350
64
  3
C9
350
65
  3
D0
350
66
  3
D1
350
67
  3
D2
350
68
  0
LAYOUT
  5
1E
102
{ACAD_REACTORS
330
1A
102
}
330
1A
100
AcDbPlotSettings
  1

  2
none_device
  4
ISO_A4_(210.00_x_297.00_MM)
  6

 40
7.5
 41
20.0
 42
7.5
 43
20.0
 44
210.0
 45
297.0
 46
0.0
 47
0.0
 48
0.0
 49
0.0
140
0.0
141
0.0
142
1.0
143
1.1359700651
 70
   688
 72
     1
 73
     1
 74
     1
  7

 75
     0
147
0.8803048872
148
41.5
149
18.5141626897
100
AcDbLayout
  1
_Left
 70
     1
 71
     1
 10
-64.2194013015
 20
-27.0339381778
 11
273.1637080259
 21
211.5197754881
 12
0.0
 22
0.0
 32
0.0
 14
1.0000000000E+20
 24
1.0000000000E+20
 34
1.0000000000E+20
 15
-1.0000000000E+20
 25
-1.0000000000E+20
 35
-1.0000000000E+20
146
0.0
 13
0.0
 23
0.0
 33
0.0
 16
1.0
 26
0.0
 36
0.0
 17
0.0
 27
1.0
 37
0.0
 76
     0
330
1B
331
320
  0
LAYOUT
  5
26
102
{ACAD_REACTORS
330
1A
102
}
330
1A
100
AcDbPlotSettings
  1

  2
none_device
  4
ANSI_A_(11.00_x_8.50_Inches)
  6

 40
6.35
 41
19.05
 42
6.35000508
 43
19.05000254
 44
279.4
 45
215.9
 46
213.4959409811
 47
-0.1185441594
 48
0.0
 49
0.0
140
0.0
141
0.0
142
0.0379909707
143
1.0
 70
  1696
 72
     0
 73
     0
 74
     1
  7

 75
     0
147
0.0316027084
148
3374.9060493083
149
469.9
100
AcDbLayout
  1
_Top
 70
     1
 71
     2
 10
0.0
 20
0.0
 11
0.0
 21
0.0
 12
0.0
 22
0.0
 32
0.0
 14
-132.8703169019
 24
-18.5
 34
0.0
 15
-33.2403169019
 25
203.0
 35
0.0
146
0.0
 13
0.0
 23
0.0
 33
0.0
 16
1.0
 26
0.0
 36
0.0
 17
0.0
 27
1.0
 37
0.0
 76
     0
330
23
331
322
  0
LAYOUT
  5
22
102
{ACAD_REACTORS
330
1A
102
}
330
1A
100
AcDbPlotSettings
  1

  2
none_device
  4
Letter_(8.50_x_11.00_Inches)
  6

 40
6.35
 41
6.35
 42
6.35000508
 43
6.35000508
 44
215.9
 45
279.4
 46
0.0
 47
0.0
 48
0.0
 49
0.0
140
0.0
141
0.0
142
1.0
143
1.0
 70
  1712
 72
     1
 73
     0
 74
     0
  7

 75
     0
147
1.0
148
0.0
149
0.0
100
AcDbLayout
  1
Model
 70
     1
 71
     0
 10
0.0
 20
0.0
 11
420.0
 21
297.0
 12
0.0
 22
0.0
 32
0.0
 14
-132.8703169019
 24
-18.5
 34
0.0
 15
-33.2403169019
 25
203.0
 35
0.0
146
0.0
 13
0.0
 23
0.0
 33
0.0
 16
1.0
 26
0.0
 36
0.0
 17
0.0
 27
1.0
 37
0.0
 76
     0
330
1F
331
29
  0
MLINESTYLE
  5
18
102
{ACAD_REACTORS
330
17
102
}
330
17
100
AcDbMlineStyle
  2
Standard
 70
     0
  3

 62
   256
 51
90.0
 52
90.0
 71
     2
 49
0.5
 62
   256
  6
BYLAYER
 49
-0.5
 62
   256
  6
BYLAYER
  0
ACDBPLACEHOLDER
  5
F
102
{ACAD_REACTORS
330
E
102
}
330
E
  0
SCALE
  5
48
102
{ACAD_REACTORS
330
47
102
}
330
47
100
AcDbScale
 70
     0
300
1:1
140
1.0
141
1.0
290
     1
  0
SCALE
  5
49
102
{ACAD_REACTORS
330
47
102
}
330
47
100
AcDbScale
 70
     0
300
1:2
140
1.0
141
2.0
290
     0
  0
SCALE
  5
4A
102
{ACAD_REACTORS
330
47
102
}
330
47
100
AcDbScale
 70
     0
300
1:4
140
1.0
141
4.0
290
     0
  0
SCALE
  5
4B
102
{ACAD_REACTORS
330
47
102
}
330
47
100
AcDbScale
 70
     0
300
1:5
140
1.0
141
5.0
290
     0
  0
SCALE
  5
4C
102
{ACAD_REACTORS
330
47
102
}
330
47
100
AcDbScale
 70
     0
300
1:8
140
1.0
141
8.0
290
     0
  0
SCALE
  5
4D
102
{ACAD_REACTORS
330
47
102
}
330
47
100
AcDbScale
 70
     0
300
1:10
140
1.0
141
10.0
290
     0
  0
SCALE
  5
4E
102
{ACAD_REACTORS
330
47
102
}
330
47
100
AcDbScale
 70
     0
300
1:16
140
1.0
141
16.0
290
     0
  0
SCALE
  5
4F
102
{ACAD_REACTORS
330
47
102
}
330
47
100
AcDbScale
 70
     0
300
1:20
140
1.0
141
20.0
290
     0
  0
SCALE
  5
50
102
{ACAD_REACTORS
330
47
102
}
330
47
100
AcDbScale
 70
     0
300
1:30
140
1.0
141
30.0
290
     0
  0
SCALE
  5
51
102
{ACAD_REACTORS
330
47
102
}
330
47
100
AcDbScale
 70
     0
300
1:40
140
1.0
141
40.0
290
     0
  0
SCALE
  5
52
102
{ACAD_REACTORS
330
47
102
}
330
47
100
AcDbScale
 70
     0
300
1:50
140
1.0
141
50.0
290
     0
  0
SCALE
  5
53
102
{ACAD_REACTORS
330
47
102
}
330
47
100
AcDbScale
 70
     0
300
1:100
140
1.0
141
100.0
290
     0
  0
SCALE
  5
54
102
{ACAD_REACTORS
330
47
102
}
330
47
100
AcDbScale
 70
     0
300
2:1
140
2.0
141
1.0
290
     0
  0
SCALE
  5
55
102
{ACAD_REACTORS
330
47
102
}
330
47
100
AcDbScale
 70
     0
300
4:1
140
4.0
141
1.0
290
     0
  0
SCALE
  5
56
102
{ACAD_REACTORS
330
47
102
}
330
47
100
AcDbScale
 70
     0
300
8:1
140
8.0
141
1.0
290
     0
  0
SCALE
  5
57
102
{ACAD_REACTORS
330
47
102
}
330
47
100
AcDbScale
 70
     0
300
10:1
140
10.0
141
1.0
290
     0
  0
SCALE
  5
58
102
{ACAD_REACTORS
330
47
102
}
330
47
100
AcDbScale
 70
     0
300
100:1
140
100.0
141
1.0
290
     0
  0
SCALE
  5
59
102
{ACAD_REACTORS
330
47
102
}
330
47
100
AcDbScale
 70
     0
300
1/128" = 1'-0"
140
0.0078125
141
12.0
290
     0
  0
SCALE
  5
5A
102
{ACAD_REACTORS
330
47
102
}
330
47
100
AcDbScale
 70
     0
300
1/64" = 1'-0"
140
0.015625
141
12.0
290
     0
  0
SCALE
  5
5B
102
{ACAD_REACTORS
330
47
102
}
330
47
100
AcDbScale
 70
     0
300
1/32" = 1'-0"
140
0.03125
141
12.0
290
     0
  0
SCALE
  5
5C
102
{ACAD_REACTORS
330
47
102
}
330
47
100
AcDbScale
 70
     0
300
1/16" = 1'-0"
140
0.0625
141
12.0
290
     0
  0
SCALE
  5
5D
102
{ACAD_REACTORS
330
47
102
}
330
47
100
AcDbScale
 70
     0
300
3/32" = 1'-0"
140
0.09375
141
12.0
290
     0
  0
SCALE
  5
5E
102
{ACAD_REACTORS
330
47
102
}
330
47
100
AcDbScale
 70
     0
300
1/8" = 1'-0"
140
0.125
141
12.0
290
     0
  0
SCALE
  5
5F
102
{ACAD_REACTORS
330
47
102
}
330
47
100
AcDbScale
 70
     0
300
3/16" = 1'-0"
140
0.1875
141
12.0
290
     0
  0
SCALE
  5
60
102
{ACAD_REACTORS
330
47
102
}
330
47
100
AcDbScale
 70
     0
300
1/4" = 1'-0"
140
0.25
141
12.0
290
     0
  0
SCALE
  5
61
102
{ACAD_REACTORS
330
47
102
}
330
47
100
AcDbScale
 70
     0
300
3/8" = 1'-0"
140
0.375
141
12.0
290
     0
  0
SCALE
  5
62
102
{ACAD_REACTORS
330
47
102
}
330
47
100
AcDbScale
 70
     0
300
1/2" = 1'-0"
140
0.5
141
12.0
290
     0
  0
SCALE
  5
63
102
{ACAD_REACTORS
330
47
102
}
330
47
100
AcDbScale
 70
     0
300
3/4" = 1'-0"
140
0.75
141
12.0
290
     0
  0
SCALE
  5
64
102
{ACAD_REACTORS
330
47
102
}
330
47
100
AcDbScale
 70
     0
300
1" = 1'-0"
140
1.0
141
12.0
290
     0
  0
SCALE
  5
65
102
{ACAD_REACTORS
330
47
102
}
330
47
100
AcDbScale
 70
     0
300
1-1/2" = 1'-0"
140
1.5
141
12.0
290
     0
  0
SCALE
  5
66
102
{ACAD_REACTORS
330
47
102
}
330
47
100
AcDbScale
 70
     0
300
3" = 1'-0"
140
3.0
141
12.0
290
     0
  0
SCALE
  5
67
102
{ACAD_REACTORS
330
47
102
}
330
47
100
AcDbScale
 70
     0
300
6" = 1'-0"
140
6.0
141
12.0
290
     0
  0
SCALE
  5
68
102
{ACAD_REACTORS
330
47
102
}
330
47
100
AcDbScale
 70
     0
300
1'-0" = 1'-0"
140
12.0
141
12.0
290
     0
  0
ENDSEC
  0
EOF
