  0
SECTION
  2
HEADER
  9
$ACADVER
  1
AC1015
  9
$ACADMAINTVER
 70
     6
  9
$DWGCODEPAGE
  3
ANSI_1252
  9
$INSBASE
 10
0.0
 20
0.0
 30
0.0
  9
$EXTMIN
 10
-70.0
 20
-100.0
 30
0.0
  9
$EXTMAX
 10
70.0
 20
114.8954715367
 30
0.0
  9
$LIMMIN
 10
0.0
 20
0.0
  9
$LIMMAX
 10
420.0
 20
297.0
  9
$ORTHOMODE
 70
     0
  9
$REGENMODE
 70
     1
  9
$FILLMODE
 70
     1
  9
$QTEXTMODE
 70
     0
  9
$MIRRTEXT
 70
     1
  9
$LTSCALE
 40
1.0
  9
$ATTMODE
 70
     1
  9
$TEXTSIZE
 40
3.5
  9
$TRACEWID
 40
1.0
  9
$TEXTSTYLE
  7
Standard
  9
$CLAYER
  8
0
  9
$CELTYPE
  6
ByLayer
  9
$CECOLOR
 62
   256
  9
$CELTSCALE
 40
1.0
  9
$DISPSILH
 70
     0
  9
$DIMSCALE
 40
1.0
  9
$DIMASZ
 40
3.302
  9
$DIMEXO
 40
1.0
  9
$DIMDLI
 40
3.75
  9
$DIMRND
 40
0.0
  9
$DIMDLE
 40
0.0
  9
$DIMEXE
 40
1.0
  9
$DIMTP
 40
0.0
  9
$DIMTM
 40
0.0
  9
$DIMTXT
 40
3.5
  9
$DIMCEN
 40
2.5
  9
$DIMTSZ
 40
0.0
  9
$DIMTOL
 70
     0
  9
$DIMLIM
 70
     0
  9
$DIMTIH
 70
     1
  9
$DIMTOH
 70
     1
  9
$DIMSE1
 70
     0
  9
$DIMSE2
 70
     0
  9
$DIMTAD
 70
     1
  9
$DIMZIN
 70
     1
  9
$DIMBLK
  1

  9
$DIMASO
 70
     1
  9
$DIMSHO
 70
     1
  9
$DIMPOST
  1

  9
$DIMAPOST
  1

  9
$DIMALT
 70
     0
  9
$DIMALTD
 70
     3
  9
$DIMALTF
 40
0.0393700787
  9
$DIMLFAC
 40
1.0
  9
$DIMTOFL
 70
     1
  9
$DIMTVP
 40
0.0
  9
$DIMTIX
 70
     0
  9
$DIMSOXD
 70
     0
  9
$DIMSAH
 70
     0
  9
$DIMBLK1
  1

  9
$DIMBLK2
  1

  9
$DIMSTYLE
  2
ISO-25
  9
$DIMCLRD
 70
     0
  9
$DIMCLRE
 70
     0
  9
$DIMCLRT
 70
     0
  9
$DIMTFAC
 40
1.0
  9
$DIMGAP
 40
1.524
  9
$DIMJUST
 70
     0
  9
$DIMSD1
 70
     0
  9
$DIMSD2
 70
     0
  9
$DIMTOLJ
 70
     0
  9
$DIMTZIN
 70
     1
  9
$DIMALTZ
 70
     0
  9
$DIMALTTZ
 70
     0
  9
$DIMUPT
 70
     0
  9
$DIMDEC
 70
     2
  9
$DIMTDEC
 70
     2
  9
$DIMALTU
 70
     2
  9
$DIMALTTD
 70
     3
  9
$DIMTXSTY
  7
Standard
  9
$DIMAUNIT
 70
     0
  9
$DIMADEC
 70
     2
  9
$DIMALTRND
 40
0.0
  9
$DIMAZIN
 70
     0
  9
$DIMDSEP
 70
    44
  9
$DIMATFIT
 70
     3
  9
$DIMFRAC
 70
     0
  9
$DIMLDRBLK
  1

  9
$DIMLUNIT
 70
     2
  9
$DIMLWD
 70
    -2
  9
$DIMLWE
 70
    -2
  9
$DIMTMOVE
 70
     0
  9
$LUNITS
 70
     2
  9
$LUPREC
 70
     2
  9
$SKETCHINC
 40
1.0
  9
$FILLETRAD
 40
10.0
  9
$AUNITS
 70
     0
  9
$AUPREC
 70
     2
  9
$MENU
  1
.
  9
$ELEVATION
 40
0.0
  9
$PELEVATION
 40
0.0
  9
$THICKNESS
 40
0.0
  9
$LIMCHECK
 70
     0
  9
$CHAMFERA
 40
0.0
  9
$CHAMFERB
 40
0.0
  9
$CHAMFERC
 40
0.0
  9
$CHAMFERD
 40
0.0
  9
$SKPOLY
 70
     0
  9
$TDCREATE
 40
2460122.384072651
  9
$TDUCREATE
 40
2460122.342405984
  9
$TDUPDATE
 40
2460122.384231458
  9
$TDUUPDATE
 40
2460122.342564791
  9
$TDINDWG
 40
0.0000000116
  9
$TDUSRTIMER
 40
0.0000000116
  9
$USRTIMER
 70
     1
  9
$ANGBASE
 50
0.0
  9
$ANGDIR
 70
     0
  9
$PDMODE
 70
     0
  9
$PDSIZE
 40
-1.0
  9
$PLINEWID
 40
0.0
  9
$SPLFRAME
 70
     0
  9
$SPLINETYPE
 70
     6
  9
$SPLINESEGS
 70
     8
  9
$HANDSEED
  5
583
  9
$SURFTAB1
 70
     6
  9
$SURFTAB2
 70
     6
  9
$SURFTYPE
 70
     6
  9
$SURFU
 70
     6
  9
$SURFV
 70
     6
  9
$UCSBASE
  2

  9
$UCSNAME
  2

  9
$UCSORG
 10
0.0
 20
0.0
 30
0.0
  9
$UCSXDIR
 10
1.0
 20
0.0
 30
0.0
  9
$UCSYDIR
 10
0.0
 20
1.0
 30
0.0
  9
$UCSORTHOREF
  2

  9
$UCSORTHOVIEW
 70
     0
  9
$UCSORGTOP
 10
0.0
 20
0.0
 30
0.0
  9
$UCSORGBOTTOM
 10
0.0
 20
0.0
 30
0.0
  9
$UCSORGLEFT
 10
0.0
 20
0.0
 30
0.0
  9
$UCSORGRIGHT
 10
0.0
 20
0.0
 30
0.0
  9
$UCSORGFRONT
 10
0.0
 20
0.0
 30
0.0
  9
$UCSORGBACK
 10
0.0
 20
0.0
 30
0.0
  9
$PUCSBASE
  2

  9
$PUCSNAME
  2

  9
$PUCSORG
 10
0.0
 20
0.0
 30
0.0
  9
$PUCSXDIR
 10
1.0
 20
0.0
 30
0.0
  9
$PUCSYDIR
 10
0.0
 20
1.0
 30
0.0
  9
$PUCSORTHOREF
  2

  9
$PUCSORTHOVIEW
 70
     0
  9
$PUCSORGTOP
 10
0.0
 20
0.0
 30
0.0
  9
$PUCSORGBOTTOM
 10
0.0
 20
0.0
 30
0.0
  9
$PUCSORGLEFT
 10
0.0
 20
0.0
 30
0.0
  9
$PUCSORGRIGHT
 10
0.0
 20
0.0
 30
0.0
  9
$PUCSORGFRONT
 10
0.0
 20
0.0
 30
0.0
  9
$PUCSORGBACK
 10
0.0
 20
0.0
 30
0.0
  9
$USERI1
 70
     0
  9
$USERI2
 70
     0
  9
$USERI3
 70
     0
  9
$USERI4
 70
     0
  9
$USERI5
 70
     0
  9
$USERR1
 40
0.0
  9
$USERR2
 40
0.0
  9
$USERR3
 40
0.0
  9
$USERR4
 40
0.0
  9
$USERR5
 40
0.0
  9
$WORLDVIEW
 70
     1
  9
$SHADEDGE
 70
     3
  9
$SHADEDIF
 70
    70
  9
$TILEMODE
 70
     0
  9
$MAXACTVP
 70
    64
  9
$PINSBASE
 10
0.0
 20
0.0
 30
0.0
  9
$PLIMCHECK
 70
     0
  9
$PEXTMIN
 10
-70.0
 20
-100.0
 30
0.0
  9
$PEXTMAX
 10
70.0
 20
114.8954715367
 30
0.0
  9
$PLIMMIN
 10
0.0
 20
0.0
  9
$PLIMMAX
 10
0.0
 20
0.0
  9
$UNITMODE
 70
     0
  9
$VISRETAIN
 70
     1
  9
$PLINEGEN
 70
     0
  9
$PSLTSCALE
 70
     1
  9
$TREEDEPTH
 70
  3020
  9
$CMLSTYLE
  2
Standard
  9
$CMLJUST
 70
     0
  9
$CMLSCALE
 40
20.0
  9
$PROXYGRAPHICS
 70
     1
  9
$MEASUREMENT
 70
     1
  9
$CELWEIGHT
370
    -1
  9
$ENDCAPS
280
     0
  9
$JOINSTYLE
280
     0
  9
$LWDISPLAY
290
     1
  9
$INSUNITS
 70
     4
  9
$HYPERLINKBASE
  1

  9
$STYLESHEET
  1

  9
$XEDIT
290
     1
  9
$CEPSNTYPE
380
     0
  9
$PSTYLEMODE
290
     1
  9
$FINGERPRINTGUID
  2
{6e625016-c50b-464c-bf65-a459ccf3eb5b}
  9
$VERSIONGUID
  2
{FAEB1C32-E019-11D5-929B-00C0DF256EC4}
  9
$EXTNAMES
290
     1
  9
$PSVPSCALE
 40
0.0
  9
$OLESTARTUP
290
     0
  0
ENDSEC
  0
SECTION
  2
CLASSES
  0
CLASS
  1
ACDBDICTIONARYWDFLT
  2
AcDbDictionaryWithDefault
  3
ObjectDBX Classes
 90
        0
280
     0
281
     0
  0
CLASS
  1
VISUALSTYLE
  2
AcDbVisualStyle
  3
ObjectDBX Classes
 90
     4095
280
     0
281
     0
  0
CLASS
  1
MATERIAL
  2
AcDbMaterial
  3
ObjectDBX Classes
 90
     1153
280
     0
281
     0
  0
CLASS
  1
SCALE
  2
AcDbScale
  3
ObjectDBX Classes
 90
     1153
280
     0
281
     0
  0
CLASS
  1
TABLESTYLE
  2
AcDbTableStyle
  3
ObjectDBX Classes
 90
     4095
280
     0
281
     0
  0
CLASS
  1
MLEADERSTYLE
  2
AcDbMLeaderStyle
  3
ACDB_MLEADERSTYLE_CLASS
 90
     4095
280
     0
281
     0
  0
CLASS
  1
SUN
  2
AcDbSun
  3
SCENEOE
 90
     1153
280
     0
281
     0
  0
CLASS
  1
ACDBPLACEHOLDER
  2
AcDbPlaceHolder
  3
ObjectDBX Classes
 90
        0
280
     0
281
     0
  0
CLASS
  1
LAYOUT
  2
AcDbLayout
  3
ObjectDBX Classes
 90
        0
280
     0
281
     0
  0
ENDSEC
  0
SECTION
  2
TABLES
  0
TABLE
  2
VPORT
  5
8
330
0
100
AcDbSymbolTable
 70
     1
  0
VPORT
  5
29
330
8
100
AcDbSymbolTableRecord
100
AcDbViewportTableRecord
  2
*Active
 70
     0
 10
0.0
 20
0.0
 11
1.0
 21
1.0
 12
0.0
 22
7.4477357684
 13
0.0
 23
0.0
 14
10.0
 24
10.0
 15
10.0
 25
10.0
 16
0.0
 26
0.0
 36
1.0
 17
0.0
 27
0.0
 37
0.0
 40
219.1933809675
 41
0.6514795263
 42
50.0
 43
0.0
 44
0.0
 50
0.0
 51
0.0
 71
     0
 72
   100
 73
     1
 74
     3
 75
     0
 76
     0
 77
     0
 78
     0
281
     0
 65
     1
110
0.0
120
0.0
130
0.0
111
1.0
121
0.0
131
0.0
112
0.0
122
1.0
132
0.0
 79
     0
146
0.0
  0
ENDTAB
  0
TABLE
  2
LTYPE
  5
5
330
0
100
AcDbSymbolTable
 70
     6
  0
LTYPE
  5
14
330
5
100
AcDbSymbolTableRecord
100
AcDbLinetypeTableRecord
  2
ByBlock
 70
     0
  3

 72
    65
 73
     0
 40
0.0
  0
LTYPE
  5
15
330
5
100
AcDbSymbolTableRecord
100
AcDbLinetypeTableRecord
  2
ByLayer
 70
     0
  3

 72
    65
 73
     0
 40
0.0
  0
LTYPE
  5
16
330
5
100
AcDbSymbolTableRecord
100
AcDbLinetypeTableRecord
  2
Continuous
 70
     0
  3
Solid line
 72
    65
 73
     0
 40
0.0
  0
LTYPE
  5
6E
330
5
100
AcDbSymbolTableRecord
100
AcDbLinetypeTableRecord
  2
HIDDEN
 70
     0
  3
Hidden __ __ __ __ __ __ __ __ __ __ __ __ __ __
 72
    65
 73
     2
 40
1.905
 49
1.27
 74
     0
 49
-0.635
 74
     0
  0
LTYPE
  5
6F
330
5
100
AcDbSymbolTableRecord
100
AcDbLinetypeTableRecord
  2
PHANTOM
 70
     0
  3
Phantom ______  __  __  ______  __  __  ______
 72
    65
 73
     6
 40
12.7
 49
6.35
 74
     0
 49
-1.27
 74
     0
 49
1.27
 74
     0
 49
-1.27
 74
     0
 49
1.27
 74
     0
 49
-1.27
 74
     0
  0
LTYPE
  5
70
330
5
100
AcDbSymbolTableRecord
100
AcDbLinetypeTableRecord
  2
CENTER
 70
     0
  3
Center ____ _ ____ _ ____ _ ____ _ ____ _ ____
 72
    65
 73
     4
 40
10.16
 49
6.35
 74
     0
 49
-1.27
 74
     0
 49
1.27
 74
     0
 49
-1.27
 74
     0
  0
LTYPE
  5
71
330
5
100
AcDbSymbolTableRecord
100
AcDbLinetypeTableRecord
  2
CENTERX2
 70
     0
  3
Center (2x) ________  __  ________  __  _____
 72
    65
 73
     4
 40
20.32
 49
12.7
 74
     0
 49
-2.54
 74
     0
 49
2.54
 74
     0
 49
-2.54
 74
     0
  0
LTYPE
  5
72
330
5
100
AcDbSymbolTableRecord
100
AcDbLinetypeTableRecord
  2
DOT2
 70
     0
  3
Dot (.5x) ........................................
 72
    65
 73
     2
 40
0.635
 49
0.0
 74
     0
 49
-0.635
 74
     0
  0
ENDTAB
  0
TABLE
  2
LAYER
  5
2
330
0
100
AcDbSymbolTable
 70
     1
  0
LAYER
  5
10
330
2
100
AcDbSymbolTableRecord
100
AcDbLayerTableRecord
  2
0
 70
     0
 62
     7
  6
Continuous
370
    -3
390
F
  0
ENDTAB
  0
TABLE
  2
STYLE
  5
3
330
0
100
AcDbSymbolTable
 70
     1
  0
STYLE
  5
11
330
3
100
AcDbSymbolTableRecord
100
AcDbTextStyleTableRecord
  2
Standard
 70
     0
 40
0.0
 41
1.0
 50
0.0
 71
     0
 42
3.5
  3
txt
  4

  0
ENDTAB
  0
TABLE
  2
VIEW
  5
6
330
0
100
AcDbSymbolTable
 70
     0
  0
ENDTAB
  0
TABLE
  2
UCS
  5
7
330
0
100
AcDbSymbolTable
 70
     0
  0
ENDTAB
  0
TABLE
  2
APPID
  5
9
330
0
100
AcDbSymbolTable
 70
     1
  0
APPID
  5
12
330
9
100
AcDbSymbolTableRecord
100
AcDbRegAppTableRecord
  2
ACAD
 70
     0
  0
ENDTAB
  0
TABLE
  2
DIMSTYLE
  5
A
330
0
100
AcDbSymbolTable
 70
     1
100
AcDbDimStyleTable
  0
DIMSTYLE
105
27
330
A
100
AcDbSymbolTableRecord
100
AcDbDimStyleTableRecord
  2
ISO-25
 70
     0
 41
2.5
 42
0.625
 43
3.75
 44
1.25
 73
     0
 74
     0
 77
     1
 78
     8
140
2.5
141
2.5
143
0.0393700787
147
0.625
171
     3
172
     1
178
     0
271
     2
272
     2
274
     3
278
    44
283
     0
284
     8
340
11
  0
ENDTAB
  0
TABLE
  2
BLOCK_RECORD
  5
1
330
0
100
AcDbSymbolTable
 70
     1
  0
BLOCK_RECORD
  5
1F
330
1
100
AcDbSymbolTableRecord
100
AcDbBlockTableRecord
  2
*Model_Space
340
22
  0
BLOCK_RECORD
  5
23
330
1
100
AcDbSymbolTableRecord
100
AcDbBlockTableRecord
  2
*Paper_Space
340
26
  0
BLOCK_RECORD
  5
1B
330
1
100
AcDbSymbolTableRecord
100
AcDbBlockTableRecord
  2
*Paper_Space0
340
1E
  0
ENDTAB
  0
ENDSEC
  0
SECTION
  2
BLOCKS
  0
BLOCK
  5
20
330
1F
100
AcDbEntity
  8
0
100
AcDbBlockBegin
  2
*Model_Space
 70
     0
 10
0.0
 20
0.0
 30
0.0
  3
*Model_Space
  1

  0
ENDBLK
  5
21
330
1F
100
AcDbEntity
  8
0
100
AcDbBlockEnd
  0
BLOCK
  5
24
330
23
100
AcDbEntity
 67
     1
  8
0
100
AcDbBlockBegin
  2
*Paper_Space
 70
     0
 10
0.0
 20
0.0
 30
0.0
  3
*Paper_Space
  1

  0
ENDBLK
  5
25
330
23
100
AcDbEntity
 67
     1
  8
0
100
AcDbBlockEnd
  0
BLOCK
  5
1C
330
1B
100
AcDbEntity
  8
0
100
AcDbBlockBegin
  2
*Paper_Space0
 70
     0
 10
0.0
 20
0.0
 30
0.0
  3
*Paper_Space0
  1

  0
SPLINE
  5
2AA
330
1B
100
AcDbEntity
  8
0
  6
Continuous
 62
     7
370
    25
100
AcDbSpline
210
0.0
220
0.0
230
1.0
 70
     8
 71
     3
 72
     9
 73
     5
 74
     0
 42
0.000000001
 43
0.00000001
 40
0.0
 40
0.0
 40
0.0
 40
0.0
 40
0.500000038846541
 40
1.0
 40
1.0
 40
1.0
 40
1.0
 10
-33.84985987747628
 20
-60.84585362693495
 30
0.0
 10
-33.76641009273291
 20
-60.89043187770795
 30
0.0
 10
-33.5995105362131
 20
-60.97958837232713
 30
0.0
 10
-33.4107809735274
 20
-60.99320783617505
 30
0.0
 10
-33.31641619951604
 20
-61.00001756756997
 30
0.0
  0
SPLINE
  5
2AB
330
1B
100
AcDbEntity
  8
0
  6
Continuous
 62
     7
370
    25
100
AcDbSpline
210
0.0
220
0.0
230
1.0
 70
     8
 71
     3
 72
    12
 73
     8
 74
     0
 42
0.000000001
 43
0.00000001
 40
0.0
 40
0.0
 40
0.0
 40
0.0
 40
0.1250724359649686
 40
0.2497942646863734
 40
0.3750590897211018
 40
0.5004511619891471
 40
1.0
 40
1.0
 40
1.0
 40
1.0
 10
-33.79015896479588
 20
-19.11614885219616
 30
0.0
 10
-34.19148622595902
 20
-19.34642470249776
 30
0.0
 10
-34.99301573425868
 20
-19.80633088612104
 30
0.0
 10
-36.32269615325796
 20
-20.23405789751213
 30
0.0
 10
-37.70137649571159
 20
-20.40745873766017
 30
0.0
 10
-40.46697433345003
 20
-20.55751710751589
 30
0.0
 10
-42.77201540905601
 20
-20.66449045629482
 30
0.0
 10
-44.614558555051
 20
-20.75
 30
0.0
  0
SPLINE
  5
2AC
330
1B
100
AcDbEntity
  8
0
  6
Continuous
 62
     7
370
    25
100
AcDbSpline
210
0.0
220
0.0
230
1.0
 70
     8
 71
     3
 72
    12
 73
     8
 74
     0
 42
0.000000001
 43
0.00000001
 40
0.0
 40
0.0
 40
0.0
 40
0.0
 40
0.4995489011000463
 40
0.624940826848488
 40
0.750205911713369
 40
0.8749277976901657
 40
1.0
 40
1.0
 40
1.0
 40
1.0
 10
-44.614558555051
 20
-59.25
 30
0.0
 10
-42.77209520985569
 20
-59.33549805627876
 30
0.0
 10
-40.46715456470798
 20
-59.44245700637784
 30
0.0
 10
-37.70168023829876
 20
-59.59253464561506
 30
0.0
 10
-36.32305262898831
 20
-59.7658601126846
 30
0.0
 10
-34.9934106770035
 20
-60.19350713520619
 30
0.0
 10
-34.19189047740002
 20
-60.65334605607354
 30
0.0
 10
-33.79056834344625
 20
-60.8835879602561
 30
0.0
  0
SPLINE
  5
2AD
330
1B
100
AcDbEntity
  8
0
  6
Continuous
 62
     7
370
    25
100
AcDbSpline
210
0.0
220
0.0
230
1.0
 70
     8
 71
     3
 72
     9
 73
     5
 74
     0
 42
0.000000001
 43
0.00000001
 40
0.0
 40
0.0
 40
0.0
 40
0.0
 40
0.4999999869841488
 40
1.0
 40
1.0
 40
1.0
 40
1.0
 10
-33.31641145679914
 20
-19.0000084113593
 30
0.0
 10
-33.41077633778342
 20
-19.00681839358896
 30
0.0
 10
-33.59950610466493
 20
-19.02043835840283
 30
0.0
 10
-33.76640581395964
 20
-19.10959509882506
 30
0.0
 10
-33.84985567077936
 20
-19.15417347019663
 30
0.0
  0
SPLINE
  5
2BC
330
1B
100
AcDbEntity
  8
0
  6
Continuous
 62
     7
370
    25
100
AcDbSpline
210
0.0
220
0.0
230
1.0
 70
     8
 71
     3
 72
    12
 73
     8
 74
     0
 42
0.000000001
 43
0.00000001
 40
0.0
 40
0.0
 40
0.0
 40
0.0
 40
0.499755571696002
 40
0.6252005901080764
 40
0.7505097932286413
 40
0.8751771648444819
 40
1.0
 40
1.0
 40
1.0
 40
1.0
 10
-44.614558555051
 20
20.74986560800777
 30
0.0
 10
-42.77209645638317
 20
20.66116337371283
 30
0.0
 10
-40.46715288681037
 20
20.55019574800552
 30
0.0
 10
-37.70169732194177
 20
20.39569559706765
 30
0.0
 10
-36.32357475638874
 20
20.22180364946153
 30
0.0
 10
-34.99451809653588
 20
19.79804672671755
 30
0.0
 10
-34.19205160674036
 20
19.34287206122698
 30
0.0
 10
-33.79056834344993
 20
19.11514291316641
 30
0.0
  0
SPLINE
  5
2BE
330
1B
100
AcDbEntity
  8
0
  6
Continuous
 62
     7
370
    25
100
AcDbSpline
210
0.0
220
0.0
230
1.0
 70
     8
 71
     3
 72
     9
 73
     5
 74
     0
 42
0.000000001
 43
0.00000001
 40
0.0
 40
0.0
 40
0.0
 40
0.0
 40
0.5000002095029226
 40
1.0
 40
1.0
 40
1.0
 40
1.0
 10
-33.84914576435938
 20
19.15139546434805
 30
0.0
 10
-33.76628107110132
 20
19.10760750959163
 30
0.0
 10
-33.60055175402672
 20
19.0200316367736
 30
0.0
 10
-33.41358331615641
 20
19.00666969668895
 30
0.0
 10
-33.32009913639169
 20
18.99998872944599
 30
0.0
  0
SPLINE
  5
2C1
330
1B
100
AcDbEntity
  8
0
  6
Continuous
 62
     7
370
    25
100
AcDbSpline
210
0.0
220
0.0
230
1.0
 70
     8
 71
     3
 72
    12
 73
     8
 74
     0
 42
0.000000001
 43
0.00000001
 40
0.0
 40
0.0
 40
0.0
 40
0.0
 40
0.1248230078357685
 40
0.2494902961064622
 40
0.3747992452830188
 40
0.5002444265303978
 40
1.0
 40
1.0
 40
1.0
 40
1.0
 10
-33.79015896479913
 20
60.88511718893626
 30
0.0
 10
-34.191647385583
 20
60.65735457414429
 30
0.0
 10
-34.99412336113772
 20
60.20211348364599
 30
0.0
 10
-36.32321848533073
 20
59.77827782466963
 30
0.0
 10
-37.70139362960863
 20
59.6043116225311
 30
0.0
 10
-40.46697264200527
 20
59.44983016441485
 30
0.0
 10
-42.77201664959773
 20
59.33884812493098
 30
0.0
 10
-44.614558555051
 20
59.2501343919922
 30
0.0
  0
SPLINE
  5
2C4
330
1B
100
AcDbEntity
  8
0
  6
Continuous
 62
     7
370
    25
100
AcDbSpline
210
0.0
220
0.0
230
1.0
 70
     8
 71
     3
 72
     9
 73
     5
 74
     0
 42
0.000000001
 43
0.00000001
 40
0.0
 40
0.0
 40
0.0
 40
0.0
 40
0.4999997968395237
 40
1.0
 40
1.0
 40
1.0
 40
1.0
 10
-33.32009460170109
 20
61.00000298065048
 30
0.0
 10
-33.41357888796711
 20
60.99332193180205
 30
0.0
 10
-33.60054753646841
 20
60.97995982867586
 30
0.0
 10
-33.76627695939295
 20
60.89238368340568
 30
0.0
 10
-33.84914170452488
 20
60.84859559297855
 30
0.0
  0
SPLINE
  5
2CE
330
1B
100
AcDbEntity
  8
0
  6
Continuous
 62
     7
370
    25
100
AcDbSpline
210
0.0
220
0.0
230
1.0
 70
     8
 71
     3
 72
     8
 73
     4
 74
     0
 42
0.000000001
 43
0.00000001
 40
0.0
 40
0.0
 40
0.0
 40
0.0
 40
1.0
 40
1.0
 40
1.0
 40
1.0
 10
-33.31695683639485
 20
-35.61044212048807
 30
0.0
 10
-33.3167759792019
 20
-37.05193618093404
 30
0.0
 10
-33.31659512200896
 20
-38.52594398700933
 30
0.0
 10
-33.316414264816
 20
-40.00000000000009
 30
0.0
  0
SPLINE
  5
2CF
330
1B
100
AcDbEntity
  8
0
  6
Continuous
 62
     7
370
    25
100
AcDbSpline
210
0.0
220
0.0
230
1.0
 70
     8
 71
     3
 72
     8
 73
     4
 74
     0
 42
0.000000001
 43
0.00000001
 40
0.0
 40
0.0
 40
0.0
 40
0.0
 40
1.0
 40
1.0
 40
1.0
 40
1.0
 10
-33.8498583124271
 20
-40.0
 30
0.0
 10
-33.8495879723425
 20
-38.53683356476002
 30
0.0
 10
-33.84931764141581
 20
-37.07384071567702
 30
0.0
 10
-33.84904731964853
 20
-35.64285029105621
 30
0.0
  0
SPLINE
  5
2D1
330
1B
100
AcDbEntity
  8
0
  6
Continuous
 62
     7
370
    25
100
AcDbSpline
210
0.0
220
0.0
230
1.0
 70
    24
 71
     3
 72
    14
 73
    10
 74
     0
 42
0.000000001
 43
0.00000001
 40
0.0
 40
0.0
 40
0.0
 40
0.0
 40
0.5000000000000056
 40
0.6250000000000054
 40
0.6250000000000054
 40
0.6875000000000054
 40
0.6875000000000054
 40
0.7500000000000053
 40
1.0
 40
1.0
 40
1.0
 40
1.0
 10
-44.614558555051
 20
-40.0
 30
0.0
 10
-42.76786078903967
 20
-40.0
 30
0.0
 10
-40.49999752878883
 20
-40.0
 30
0.0
 10
-38.20645081333483
 20
-40.00000000000001
 30
0.0
 10
-37.51570099679719
 20
-40.0
 30
0.0
 10
-37.28554777607319
 20
-40.0
 30
0.0
 10
-36.82982631940877
 20
-40.0
 30
0.0
 10
-35.69962541191457
 20
-40.0
 30
0.0
 10
-34.6296464106879
 20
-40.0
 30
0.0
 10
-33.8498583124271
 20
-40.0
 30
0.0
  0
SPLINE
  5
2D4
330
1B
100
AcDbEntity
  8
0
  6
Continuous
 62
     7
370
    25
100
AcDbSpline
210
0.0
220
0.0
230
1.0
 70
     8
 71
     3
 72
    12
 73
     8
 74
     0
 42
0.000000001
 43
0.00000001
 40
0.0
 40
0.0
 40
0.0
 40
0.0
 40
0.1248848844827349
 40
0.2504501000109341
 40
0.5006139947618168
 40
0.7504711792750777
 40
1.0
 40
1.0
 40
1.0
 40
1.0
 10
-47.61468534784503
 20
-20.85479298745316
 30
0.0
 10
-47.62963868402518
 20
-20.85845798204276
 30
0.0
 10
-47.65962681715535
 20
-20.86580793688563
 30
0.0
 10
-47.97558785192446
 20
-20.94131410588476
 30
0.0
 10
-48.71355953471269
 20
-21.10143536080791
 30
0.0
 10
-50.03995066032932
 20
-21.32321814642404
 30
0.0
 10
-51.08991938721402
 20
-21.38784852173067
 30
0.0
 10
-51.614558555051
 20
-21.42014246101635
 30
0.0
  0
SPLINE
  5
2D5
330
1B
100
AcDbEntity
  8
0
  6
Continuous
 62
     7
370
    25
100
AcDbSpline
210
0.0
220
0.0
230
1.0
 70
     8
 71
     3
 72
    13
 73
     9
 74
     0
 42
0.000000001
 43
0.00000001
 40
0.0
 40
0.0
 40
0.0
 40
0.0
 40
0.1250615553767709
 40
0.2508169653940511
 40
0.5004475666820446
 40
0.7501063607672414
 40
0.9998609573381847
 40
1.0
 40
1.0
 40
1.0
 40
1.0
 10
-51.614558555051
 20
-21.42014246101635
 30
0.0
 10
-51.87603569072895
 20
-21.42621369702265
 30
0.0
 10
-52.4004406646883
 20
-21.43838985289008
 30
0.0
 10
-53.40342947196744
 20
-21.40863872801016
 30
0.0
 10
-54.53001958118374
 20
-21.30654848645953
 30
0.0
 10
-55.35727620035563
 20
-21.18084397060696
 30
0.0
 10
-55.7162757857396
 20
-21.11691466840298
 30
0.0
 10
-55.61444523234649
 20
-21.13414764244813
 30
0.0
 10
-55.6143885730764
 20
-21.13415723100184
 30
0.0
  0
SPLINE
  5
32C
330
1B
100
AcDbEntity
  8
0
  6
Continuous
 62
     7
370
    25
100
AcDbSpline
210
0.0
220
0.0
230
1.0
 70
     8
 71
     3
 72
     8
 73
     4
 74
     0
 42
0.000000001
 43
0.00000001
 40
0.0
 40
0.0
 40
0.0
 40
0.0
 40
1.0
 40
1.0
 40
1.0
 40
1.0
 10
-21.995756401534
 20
72.9289321881345
 30
0.0
 10
-21.99575640153398
 20
73.26199239864768
 30
0.0
 10
-22.01516218720471
 20
73.59670267093485
 30
0.0
 10
-22.05339685469395
 20
73.9231125887269
 30
0.0
  0
SPLINE
  5
32D
330
1B
100
AcDbEntity
  8
0
  6
Continuous
 62
     7
370
    25
100
AcDbSpline
210
0.0
220
0.0
230
1.0
 70
     8
 71
     3
 72
     8
 73
     4
 74
     0
 42
0.000000001
 43
0.00000001
 40
0.0
 40
0.0
 40
0.0
 40
0.0
 40
1.0
 40
1.0
 40
1.0
 40
1.0
 10
-22.05339685469395
 20
73.9231125887269
 30
0.0
 10
-22.12661571687095
 20
74.5481830902748
 30
0.0
 10
-22.12661571687095
 20
75.15921352538858
 30
0.0
 10
-22.05339685469395
 20
75.6908795416933
 30
0.0
  0
SPLINE
  5
32E
330
1B
100
AcDbEntity
  8
0
  6
Continuous
 62
     7
370
    25
100
AcDbSpline
210
0.0
220
0.0
230
1.0
 70
     8
 71
     3
 72
     8
 73
     4
 74
     0
 42
0.000000001
 43
0.00000001
 40
0.0
 40
0.0
 40
0.0
 40
0.0
 40
1.0
 40
1.0
 40
1.0
 40
1.0
 10
-22.05339685469395
 20
75.6908795416933
 30
0.0
 10
-22.01516218720471
 20
75.96851392092746
 30
0.0
 10
-21.99575640153398
 20
76.22895696067
 30
0.0
 10
-21.995756401534
 20
76.46446609406729
 30
0.0
  0
SPLINE
  5
331
330
1B
100
AcDbEntity
  8
0
  6
Continuous
 62
     7
370
    25
100
AcDbSpline
210
0.0
220
0.0
230
1.0
 70
     8
 71
     3
 72
     8
 73
     4
 74
     0
 42
0.000000001
 43
0.00000001
 40
0.0
 40
0.0
 40
0.0
 40
0.0
 40
1.0
 40
1.0
 40
1.0
 40
1.0
 10
-21.995756401534
 20
-76.46446609406729
 30
0.0
 10
-21.99575640153398
 20
-76.22895696067
 30
0.0
 10
-22.01516218720471
 20
-75.96851392092746
 30
0.0
 10
-22.05339685469395
 20
-75.6908795416933
 30
0.0
  0
SPLINE
  5
332
330
1B
100
AcDbEntity
  8
0
  6
Continuous
 62
     7
370
    25
100
AcDbSpline
210
0.0
220
0.0
230
1.0
 70
     8
 71
     3
 72
     8
 73
     4
 74
     0
 42
0.000000001
 43
0.00000001
 40
0.0
 40
0.0
 40
0.0
 40
0.0
 40
1.0
 40
1.0
 40
1.0
 40
1.0
 10
-22.05339685469395
 20
-75.6908795416933
 30
0.0
 10
-22.12661571687095
 20
-75.15921352538868
 30
0.0
 10
-22.12661571687095
 20
-74.54818309027492
 30
0.0
 10
-22.05339685469395
 20
-73.9231125887269
 30
0.0
  0
SPLINE
  5
333
330
1B
100
AcDbEntity
  8
0
  6
Continuous
 62
     7
370
    25
100
AcDbSpline
210
0.0
220
0.0
230
1.0
 70
     8
 71
     3
 72
     8
 73
     4
 74
     0
 42
0.000000001
 43
0.00000001
 40
0.0
 40
0.0
 40
0.0
 40
0.0
 40
1.0
 40
1.0
 40
1.0
 40
1.0
 10
-22.05339685469395
 20
-73.9231125887269
 30
0.0
 10
-22.01516218720471
 20
-73.59670267093485
 30
0.0
 10
-21.99575640153398
 20
-73.26199239864768
 30
0.0
 10
-21.995756401534
 20
-72.9289321881345
 30
0.0
  0
SPLINE
  5
341
330
1B
100
AcDbEntity
  8
0
  6
Continuous
 62
     7
370
    25
100
AcDbSpline
210
0.0
220
0.0
230
1.0
 70
     8
 71
     3
 72
     8
 73
     4
 74
     0
 42
0.000000001
 43
0.00000001
 40
0.0
 40
0.0
 40
0.0
 40
0.0
 40
1.0
 40
1.0
 40
1.0
 40
1.0
 10
-21.995756401534
 20
98.5355339059328
 30
0.0
 10
-21.99575640153398
 20
98.77104303932995
 30
0.0
 10
-22.01516218720471
 20
98.98395180612155
 30
0.0
 10
-22.05339685469395
 20
99.16793075952201
 30
0.0
  0
SPLINE
  5
345
330
1B
100
AcDbEntity
  8
0
  6
Continuous
 62
     7
370
    25
100
AcDbSpline
210
0.0
220
0.0
230
1.0
 70
     8
 71
     3
 72
     8
 73
     4
 74
     0
 42
0.000000001
 43
0.00000001
 40
0.0
 40
0.0
 40
0.0
 40
0.0
 40
1.0
 40
1.0
 40
1.0
 40
1.0
 10
-22.05339685469395
 20
-99.16793075952201
 30
0.0
 10
-22.01516218720471
 20
-98.98395180612155
 30
0.0
 10
-21.99575640153398
 20
-98.77104303932995
 30
0.0
 10
-21.995756401534
 20
-98.5355339059328
 30
0.0
  0
SPLINE
  5
355
330
1B
100
AcDbEntity
  8
0
  6
Continuous
 62
     7
370
    25
100
AcDbSpline
210
0.0
220
0.0
230
1.0
 70
    24
 71
     3
 72
     8
 73
     4
 74
     0
 42
0.000000001
 43
0.00000001
 40
0.0
 40
0.0
 40
0.0
 40
0.0
 40
1.0
 40
1.0
 40
1.0
 40
1.0
 10
-21.995756401534
 20
-100.0
 30
0.0
 10
-21.99575640153398
 20
-100.0
 30
0.0
 10
-22.01516218720471
 20
-99.96638819325754
 30
0.0
 10
-22.05339685469395
 20
-99.9001638065556
 30
0.0
  0
SPLINE
  5
356
330
1B
100
AcDbEntity
  8
0
  6
Continuous
 62
     7
370
    25
100
AcDbSpline
210
0.0
220
0.0
230
1.0
 70
     8
 71
     3
 72
     8
 73
     4
 74
     0
 42
0.000000001
 43
0.00000001
 40
0.0
 40
0.0
 40
0.0
 40
0.0
 40
1.0
 40
1.0
 40
1.0
 40
1.0
 10
-22.05339685469395
 20
-99.9001638065556
 30
0.0
 10
-22.12661571687095
 20
-99.77334501719272
 30
0.0
 10
-22.12661571687095
 20
-99.52024792394592
 30
0.0
 10
-22.05339685469395
 20
-99.16793075952201
 30
0.0
  0
SPLINE
  5
358
330
1B
100
AcDbEntity
  8
0
  6
Continuous
 62
     7
370
    25
100
AcDbSpline
210
0.0
220
0.0
230
1.0
 70
     8
 71
     3
 72
     8
 73
     4
 74
     0
 42
0.000000001
 43
0.00000001
 40
0.0
 40
0.0
 40
0.0
 40
0.0
 40
1.0
 40
1.0
 40
1.0
 40
1.0
 10
-22.05339685469395
 20
99.16793075952201
 30
0.0
 10
-22.12661571687095
 20
99.52024792394592
 30
0.0
 10
-22.12661571687095
 20
99.77334501719272
 30
0.0
 10
-22.05339685469395
 20
99.9001638065556
 30
0.0
  0
SPLINE
  5
359
330
1B
100
AcDbEntity
  8
0
  6
Continuous
 62
     7
370
    25
100
AcDbSpline
210
0.0
220
0.0
230
1.0
 70
    24
 71
     3
 72
     8
 73
     4
 74
     0
 42
0.000000001
 43
0.00000001
 40
0.0
 40
0.0
 40
0.0
 40
0.0
 40
1.0
 40
1.0
 40
1.0
 40
1.0
 10
-22.05339685469395
 20
99.9001638065556
 30
0.0
 10
-22.01516218720471
 20
99.96638819325754
 30
0.0
 10
-21.99575640153398
 20
100.0
 30
0.0
 10
-21.995756401534
 20
100.0
 30
0.0
  0
SPLINE
  5
366
330
1B
100
AcDbEntity
  8
0
  6
Continuous
 62
     7
370
    25
100
AcDbSpline
210
0.0
220
0.0
230
1.0
 70
     8
 71
     3
 72
    14
 73
    10
 74
     0
 42
0.000000001
 43
0.00000001
 40
0.0
 40
0.0
 40
0.0
 40
0.0
 40
0.500000000000005
 40
0.6250000000000048
 40
0.6250000000000048
 40
0.6875000000000048
 40
0.6875000000000048
 40
0.7500000000000047
 40
1.0
 40
1.0
 40
1.0
 40
1.0
 10
-44.614558555051
 20
57.584547844361
 30
0.0
 10
-42.76786078903967
 20
57.64345663413097
 30
0.0
 10
-40.49999752878884
 20
57.74368040094073
 30
0.0
 10
-38.20645081333483
 20
57.88077442103543
 30
0.0
 10
-37.51570099679718
 20
57.92416937519273
 30
0.0
 10
-37.28554777607319
 20
57.94201733893807
 30
0.0
 10
-36.82982631940877
 20
57.99997984484904
 30
0.0
 10
-35.69962541191457
 20
58.18887671105413
 30
0.0
 10
-34.62964641068792
 20
58.59307456685683
 30
0.0
 10
-33.8498583124271
 20
59.0423163199376
 30
0.0
  0
SPLINE
  5
369
330
1B
100
AcDbEntity
  8
0
  6
Continuous
 62
     7
370
    25
100
AcDbSpline
210
0.0
220
0.0
230
1.0
 70
     8
 71
     3
 72
     8
 73
     4
 74
     0
 42
0.000000001
 43
0.00000001
 40
0.0
 40
0.0
 40
0.0
 40
0.0
 40
1.0
 40
1.0
 40
1.0
 40
1.0
 10
-33.8498583124271
 20
59.04231631993765
 30
0.0
 10
-33.8495879723425
 20
59.63780066666264
 30
0.0
 10
-33.84931764141581
 20
60.09174197457013
 30
0.0
 10
-33.84904731964853
 20
60.39532612802375
 30
0.0
  0
SPLINE
  5
36B
330
1B
100
AcDbEntity
  8
0
  6
Continuous
 62
     7
370
    25
100
AcDbSpline
210
0.0
220
0.0
230
1.0
 70
     8
 71
     3
 72
     8
 73
     4
 74
     0
 42
0.000000001
 43
0.00000001
 40
0.0
 40
0.0
 40
0.0
 40
0.0
 40
1.0
 40
1.0
 40
1.0
 40
1.0
 10
-33.31695683639485
 20
60.54539639086479
 30
0.0
 10
-33.3167759792019
 20
60.2403452980794
 30
0.0
 10
-33.31659512200896
 20
59.78290242219752
 30
0.0
 10
-33.316414264816
 20
59.18314310293928
 30
0.0
  0
SPLINE
  5
37A
330
1B
100
AcDbEntity
  8
0
  6
Continuous
 62
     7
370
    25
100
AcDbSpline
210
0.0
220
0.0
230
1.0
 70
     8
 71
     3
 72
     8
 73
     4
 74
     0
 42
0.000000001
 43
0.00000001
 40
0.0
 40
0.0
 40
0.0
 40
0.0
 40
1.0
 40
1.0
 40
1.0
 40
1.0
 10
-82.614558555051
 20
43.9160259482265
 30
0.0
 10
-82.28151334916579
 20
43.80717399840165
 30
0.0
 10
-81.9481662270428
 20
43.70015620548595
 30
0.0
 10
-81.614558555051
 20
43.59480532659455
 30
0.0
  0
SPLINE
  5
37E
330
1B
100
AcDbEntity
  8
0
  6
Continuous
 62
     7
370
    25
100
AcDbSpline
210
0.0
220
0.0
230
1.0
 70
     8
 71
     3
 72
     8
 73
     4
 74
     0
 42
0.000000001
 43
0.00000001
 40
0.0
 40
0.0
 40
0.0
 40
0.0
 40
1.0
 40
1.0
 40
1.0
 40
1.0
 10
-90.614558555051
 20
52.8788710035942
 30
0.0
 10
-90.9478909410945
 20
52.8805282653799
 30
0.0
 10
-91.28122431769751
 20
52.8822881675033
 30
0.0
 10
-91.614558555051
 20
52.8841415417461
 30
0.0
  0
SPLINE
  5
380
330
1B
100
AcDbEntity
  8
0
  6
Continuous
 62
     7
370
    25
100
AcDbSpline
210
0.0
220
0.0
230
1.0
 70
     8
 71
     3
 72
     8
 73
     4
 74
     0
 42
0.000000001
 43
0.00000001
 40
0.0
 40
0.0
 40
0.0
 40
0.0
 40
1.0
 40
1.0
 40
1.0
 40
1.0
 10
-91.614558555051
 20
43.5948053265945
 30
0.0
 10
-91.28095088305909
 20
43.7001562054859
 30
0.0
 10
-90.9476037609361
 20
43.80717399840176
 30
0.0
 10
-90.614558555051
 20
43.9160259482265
 30
0.0
  0
LWPOLYLINE
  5
385
330
1B
100
AcDbEntity
  8
0
  6
Continuous
 62
     7
370
    25
100
AcDbPolyline
 90
        3
 70
   128
 43
0.0
 10
-82.6145585551
 20
52.8892106643
 10
-82.0545594852
 20
52.8918561679
 10
-81.6145585551
 20
52.8939905012
  0
SPLINE
  5
390
330
1B
100
AcDbEntity
  8
0
  6
Continuous
 62
     7
370
    25
100
AcDbSpline
210
0.0
220
0.0
230
1.0
 70
     8
 71
     3
 72
     8
 73
     4
 74
     0
 42
0.000000001
 43
0.00000001
 40
0.0
 40
0.0
 40
0.0
 40
0.0
 40
1.0
 40
1.0
 40
1.0
 40
1.0
 10
-82.614558555051
 20
52.8892106642806
 30
0.0
 10
-82.61482707358002
 20
52.88576409501632
 30
0.0
 10
-82.61509673657913
 20
52.88231754107319
 30
0.0
 10
-82.61536754395878
 20
52.8788710035942
 30
0.0
  0
SPLINE
  5
3AA
330
1B
100
AcDbEntity
  8
0
  6
Continuous
 62
     8
370
    25
100
AcDbSpline
210
0.0
220
0.0
230
1.0
 70
     8
 71
     3
 72
    42
 73
    38
 74
     0
 42
0.000000001
 43
0.00000001
 40
0.0
 40
0.0
 40
0.0
 40
0.0
 40
0.0679812891251599
 40
0.1295674602878261
 40
0.1847569599859969
 40
0.2335483978944336
 40
0.2502541204385127
 40
0.2669598383169053
 40
0.2836655537163122
 40
0.3003712688234365
 40
0.3170769858249802
 40
0.3337827069076453
 40
0.350488434258132
 40
0.353790480931422
 40
0.3647550219015269
 40
0.382933003873551
 40
0.3933278462376499
 40
0.4051476068424318
 40
0.4183922708977263
 40
0.4330618218264938
 40
0.449156241265818
 40
0.466675509067503
 40
0.4945194014855099
 40
0.5334859972180228
 40
0.5835723322022065
 40
0.619274599217137
 40
0.6580246892444209
 40
0.6998223881290976
 40
0.7386922335864938
 40
0.7775620776509298
 40
0.8164319236600944
 40
0.8553017749516753
 40
0.8941716348633592
 40
0.9330415067328306
 40
0.9595095755339916
 40
0.9909419679241053
 40
1.0
 40
1.0
 40
1.0
 40
1.0
 10
-33.316414264816
 20
-40.0
 30
0.0
 10
-33.31644997983226
 20
-40.7477309621119
 30
0.0
 10
-33.31651805009119
 20
-42.17285253580027
 30
0.0
 10
-33.31716407520032
 20
-44.18273101548336
 30
0.0
 10
-33.31815244509109
 20
-45.94987584232128
 30
0.0
 10
-33.31945690640637
 20
-47.20701600005475
 30
0.0
 10
-33.32039188961991
 20
-48.04630758642219
 30
0.0
 10
-33.32070590684756
 20
-48.55249053334329
 30
0.0
 10
-33.32083351887631
 20
-49.05277951014076
 30
0.0
 10
-33.32076674141301
 20
-49.546838503933
 30
0.0
 10
-33.32046789670799
 20
-50.03432600182857
 30
0.0
 10
-33.3200956800971
 20
-50.51490374655285
 30
0.0
 10
-33.31933185262461
 20
-50.86165724736362
 30
0.0
 10
-33.3192645094346
 20
-51.15137340937174
 30
0.0
 10
-33.31951317183873
 20
-51.45275662407747
 30
0.0
 10
-33.3197953633215
 20
-51.81464846978167
 30
0.0
 10
-33.32013870924622
 20
-52.17871032355714
 30
0.0
 10
-33.32044763126933
 20
-52.49437273186299
 30
0.0
 10
-33.32080482290191
 20
-52.84297914580591
 30
0.0
 10
-33.32121496227808
 20
-53.22261139302221
 30
0.0
 10
-33.32165052856036
 20
-53.6310539644772
 30
0.0
 10
-33.32232946884623
 20
-54.13937327867201
 30
0.0
 10
-33.32251024942737
 20
-54.81481054035801
 30
0.0
 10
-33.32185305352595
 20
-55.70385677613941
 30
0.0
 10
-33.32055491009674
 20
-56.5815025631924
 30
0.0
 10
-33.31952769342413
 20
-57.38413731560359
 30
0.0
 10
-33.31931498474305
 20
-58.07163932514184
 30
0.0
 10
-33.31971177673818
 20
-58.70649502409335
 30
0.0
 10
-33.3201558960899
 20
-59.26774554555985
 30
0.0
 10
-33.32009987807206
 20
-59.74346238680768
 30
0.0
 10
-33.3197028305877
 20
-60.14556875691871
 30
0.0
 10
-33.31890521133165
 20
-60.47272097254145
 30
0.0
 10
-33.31779695953418
 20
-60.72313140124368
 30
0.0
 10
-33.31626069233209
 20
-60.87938955008297
 30
0.0
 10
-33.31518286075504
 20
-60.96582680894032
 30
0.0
 10
-33.31489724219145
 20
-61.00433094108763
 30
0.0
 10
-33.31493118148142
 20
-60.99555006905126
 30
0.0
 10
-33.31493877397227
 20
-60.9935857176865
 30
0.0
  0
SPLINE
  5
3AB
330
1B
100
AcDbEntity
  8
0
  6
Continuous
 62
     8
370
    25
100
AcDbSpline
210
0.0
220
0.0
230
1.0
 70
     8
 71
     3
 72
    36
 73
    32
 74
     0
 42
0.000000001
 43
0.00000001
 40
0.0
 40
0.0
 40
0.0
 40
0.0
 40
0.0312202557702062
 40
0.0789853089609468
 40
0.1324794796351884
 40
0.1917019581467894
 40
0.3262603696231436
 40
0.4608187573410001
 40
0.4801197135372918
 40
0.4994206694655557
 40
0.5187216267213172
 40
0.5380225869001004
 40
0.5573235515974269
 40
0.5766245224088195
 40
0.5959255009297993
 40
0.6096999615173586
 40
0.6243127696714376
 40
0.6436864486725066
 40
0.6678207961789088
 40
0.6967155596706545
 40
0.730370436624879
 40
0.7528616748501036
 40
0.775352906390041
 40
0.7978441354358865
 40
0.820335366178838
 40
0.8428266028100913
 40
0.8653178495208399
 40
0.8839940004041237
 40
0.9126673616929278
 40
0.9513366220196965
 40
1.0
 40
1.0
 40
1.0
 40
1.0
 10
-33.31493893390646
 20
-19.00655459883312
 30
0.0
 10
-33.31493376392896
 20
-19.00765770353896
 30
0.0
 10
-33.3149206842068
 20
-19.01044848996454
 30
0.0
 10
-33.31545299335458
 20
-19.11234733886969
 30
0.0
 10
-33.3163669955026
 20
-19.32886873897962
 30
0.0
 10
-33.31845900079728
 20
-19.84476446019104
 30
0.0
 10
-33.32058026177884
 20
-20.92830579659977
 30
0.0
 10
-33.32026096172672
 20
-22.3383766579866
 30
0.0
 10
-33.3198325217182
 20
-23.32287679774631
 30
0.0
 10
-33.31989493748758
 20
-23.66360454702781
 30
0.0
 10
-33.32010514986147
 20
-24.01557196656901
 30
0.0
 10
-33.3204691552107
 20
-24.37854937170596
 30
0.0
 10
-33.32102085278201
 20
-24.75228363764796
 30
0.0
 10
-33.32161864915695
 20
-25.13651738165121
 30
0.0
 10
-33.32268274079845
 20
-25.49333901006579
 30
0.0
 10
-33.32265676812666
 20
-25.82524573075781
 30
0.0
 10
-33.32236483311667
 20
-26.16358310052337
 30
0.0
 10
-33.32192059262866
 20
-26.58375643493257
 30
0.0
 10
-33.32126555501566
 20
-27.12024224079525
 30
0.0
 10
-33.32042650315643
 20
-27.78084542045566
 30
0.0
 10
-33.31948968911416
 20
-28.44905235949959
 30
0.0
 10
-33.31876896608028
 20
-29.08247739905238
 30
0.0
 10
-33.31847669229001
 20
-29.63619863884607
 30
0.0
 10
-33.31844309102586
 20
-30.19960793425824
 30
0.0
 10
-33.31871192673042
 20
-30.77218317663609
 30
0.0
 10
-33.31917560198143
 20
-31.3533835918991
 30
0.0
 10
-33.32016164777234
 20
-31.90936220971584
 30
0.0
 10
-33.32043120533532
 20
-32.52642487816353
 30
0.0
 10
-33.31983665929033
 20
-33.29611566833481
 30
0.0
 10
-33.31871022514112
 20
-34.34955260310594
 30
0.0
 10
-33.31758425050326
 20
-35.15925873401216
 30
0.0
 10
-33.31695683639485
 20
-35.61044212048805
 30
0.0
  0
SPLINE
  5
3AC
330
1B
100
AcDbEntity
  8
0
  6
Continuous
 62
     8
370
    25
100
AcDbSpline
210
0.0
220
0.0
230
1.0
 70
     8
 71
     3
 72
    16
 73
    12
 74
     0
 42
0.000000001
 43
0.00000001
 40
0.0
 40
0.0
 40
0.0
 40
0.0
 40
0.0672649588161572
 40
0.1836915313394468
 40
0.300534205243952
 40
0.4167925668816328
 40
0.5337614127524132
 40
0.6499544034196805
 40
0.7669177566055072
 40
0.8831288604476595
 40
1.0
 40
1.0
 40
1.0
 40
1.0
 10
-33.84943553831514
 20
-60.76078588086023
 30
0.0
 10
-33.84935387963829
 20
-60.77159750712575
 30
0.0
 10
-33.84913088080411
 20
-60.80112260042745
 30
0.0
 10
-33.84982535863821
 20
-60.07708114896397
 30
0.0
 10
-33.84820187852677
 20
-58.68116634401112
 30
0.0
 10
-33.8462362167382
 20
-56.62614309812582
 30
0.0
 10
-33.84963515563364
 20
-54.02693140372127
 30
0.0
 10
-33.84521511136651
 20
-50.94976160874147
 30
0.0
 10
-33.85101565797354
 20
-47.51400910222766
 30
0.0
 10
-33.84833095229805
 20
-43.82029806942686
 30
0.0
 10
-33.84934591357764
 20
-41.27583446990462
 30
0.0
 10
-33.84985483128676
 20
-40.00000000008485
 30
0.0
  0
SPLINE
  5
3AD
330
1B
100
AcDbEntity
  8
0
  6
Continuous
 62
     8
370
    25
100
AcDbSpline
210
0.0
220
0.0
230
1.0
 70
     8
 71
     3
 72
    15
 73
    11
 74
     0
 42
0.000000001
 43
0.00000001
 40
0.0
 40
0.0
 40
0.0
 40
0.0
 40
0.1346393714580242
 40
0.2695165487020893
 40
0.4039316762004108
 40
0.5390129914159664
 40
0.6732613058886333
 40
0.8083897515374292
 40
0.9426001753326706
 40
1.0
 40
1.0
 40
1.0
 40
1.0
 10
-33.8490473196485
 20
-35.64285029105626
 30
0.0
 10
-33.84960527190302
 20
-34.41216112789266
 30
0.0
 10
-33.8507221618911
 20
-31.94860910600635
 30
0.0
 10
-33.84483219685247
 20
-28.56515448322364
 30
0.0
 10
-33.85041415537345
 20
-25.54930132606393
 30
0.0
 10
-33.84528660391275
 20
-23.02881816548955
 30
0.0
 10
-33.8495708334703
 20
-21.06041837289585
 30
0.0
 10
-33.84898123171268
 20
-19.77258158921968
 30
0.0
 10
-33.84952675454935
 20
-19.15160787780148
 30
0.0
 10
-33.84945007819946
 20
-19.21949423811813
 30
0.0
 10
-33.84942710860845
 20
-19.23983065128364
 30
0.0
  0
SPLINE
  5
3AE
330
1B
100
AcDbEntity
  8
0
  6
Continuous
 62
     8
370
    25
100
AcDbSpline
210
0.0
220
0.0
230
1.0
 70
    24
 71
     3
 72
    22
 73
    18
 74
     0
 42
0.000000001
 43
0.00000001
 40
0.0
 40
0.0
 40
0.0
 40
0.0
 40
0.125
 40
0.125
 40
0.2499999999999999
 40
0.2499999999999999
 40
0.3749999999999999
 40
0.3749999999999999
 40
0.4999999999999999
 40
0.4999999999999999
 40
0.6249999999999999
 40
0.6249999999999999
 40
0.7499999999999998
 40
0.7499999999999998
 40
0.8749999999999999
 40
0.8749999999999999
 40
1.0
 40
1.0
 40
1.0
 40
1.0
 10
-44.614558555051
 20
-40.00000000000004
 30
0.0
 10
-44.614558555051
 20
-38.74009044621662
 30
0.0
 10
-44.61455855505098
 20
-37.48021204617969
 30
0.0
 10
-44.614558555051
 20
-35.00881055619933
 30
0.0
 10
-44.614558555051
 20
-33.7973485765279
 30
0.0
 10
-44.61455855505098
 20
-31.46933927741602
 30
0.0
 10
-44.614558555051
 20
-30.35284952259311
 30
0.0
 10
-44.614558555051
 20
-28.25769650615197
 30
0.0
 10
-44.614558555051
 20
-27.27908505132079
 30
0.0
 10
-44.614558555051
 20
-25.49730387299686
 30
0.0
 10
-44.614558555051
 20
-24.69417820755493
 30
0.0
 10
-44.61455855505101
 20
-23.29424171879679
 30
0.0
 10
-44.61455855505102
 20
-22.697465511669
 30
0.0
 10
-44.61455855505098
 20
-21.73317248664622
 30
0.0
 10
-44.614558555051
 20
-21.36567951279652
 30
0.0
 10
-44.61455855505098
 20
-20.87408719167896
 30
0.0
 10
-44.614558555051
 20
-20.74999999999996
 30
0.0
 10
-44.614558555051
 20
-20.75
 30
0.0
  0
SPLINE
  5
3AF
330
1B
100
AcDbEntity
  8
0
  6
Continuous
 62
     8
370
    25
100
AcDbSpline
210
0.0
220
0.0
230
1.0
 70
    24
 71
     3
 72
    22
 73
    18
 74
     0
 42
0.000000001
 43
0.00000001
 40
0.0
 40
0.0
 40
0.0
 40
0.0
 40
0.1249999999999999
 40
0.1249999999999999
 40
0.2499999999999998
 40
0.2499999999999998
 40
0.3749999999999998
 40
0.3749999999999998
 40
0.4999999999999999
 40
0.4999999999999999
 40
0.6249999999999999
 40
0.6249999999999999
 40
0.7499999999999999
 40
0.7499999999999999
 40
0.875
 40
0.875
 40
1.0
 40
1.0
 40
1.0
 40
1.0
 10
-44.614558555051
 20
-59.25
 30
0.0
 10
-44.614558555051
 20
-59.24999999999999
 30
0.0
 10
-44.614558555051
 20
-59.12591280832094
 30
0.0
 10
-44.614558555051
 20
-58.63432048720331
 30
0.0
 10
-44.61455855505101
 20
-58.26682751335358
 30
0.0
 10
-44.614558555051
 20
-57.30253448833075
 30
0.0
 10
-44.61455855505101
 20
-56.70575828120293
 30
0.0
 10
-44.614558555051
 20
-55.3058217924448
 30
0.0
 10
-44.614558555051
 20
-54.50269612700286
 30
0.0
 10
-44.614558555051
 20
-52.72091494867895
 30
0.0
 10
-44.614558555051
 20
-51.74230349384779
 30
0.0
 10
-44.614558555051
 20
-49.6471504774067
 30
0.0
 10
-44.614558555051
 20
-48.53066072258383
 30
0.0
 10
-44.61455855505098
 20
-46.20265142347202
 30
0.0
 10
-44.614558555051
 20
-44.99118944380061
 30
0.0
 10
-44.614558555051
 20
-42.51978795382031
 30
0.0
 10
-44.614558555051
 20
-41.25990955378343
 30
0.0
 10
-44.614558555051
 20
-40.00000000000004
 30
0.0
  0
SPLINE
  5
3B1
330
1B
100
AcDbEntity
  8
0
  6
Continuous
 62
     8
370
    25
100
AcDbSpline
210
0.0
220
0.0
230
1.0
 70
    24
 71
     3
 72
    21
 73
    17
 74
     0
 42
0.000000001
 43
0.00000001
 40
0.0
 40
0.0
 40
0.0
 40
0.0
 40
0.0624655450716528
 40
0.134583580066141
 40
0.2067016150606296
 40
0.2788196500551175
 40
0.3509376850496057
 40
0.4230557200440939
 40
0.4951737550385821
 40
0.5672917900330705
 40
0.6394098250275587
 40
0.7115278600220469
 40
0.783645895016535
 40
0.8557639300110234
 40
0.9278819650055115
 40
1.0
 40
1.0
 40
1.0
 40
1.0
 10
-44.614558555051
 20
20.79292832352206
 30
0.0
 10
-44.614558555051
 20
20.82923225572507
 30
0.0
 10
-44.614558555051
 20
20.90744998616759
 30
0.0
 10
-44.61455855505098
 20
21.92379019734075
 30
0.0
 10
-44.61455855505099
 20
23.60995758557491
 30
0.0
 10
-44.614558555051
 20
25.94535542229739
 30
0.0
 10
-44.61455855505099
 20
28.81567630588351
 30
0.0
 10
-44.614558555051
 20
32.11719041593772
 30
0.0
 10
-44.61455855505099
 20
35.72128178332234
 30
0.0
 10
-44.614558555051
 20
39.48983473011504
 30
0.0
 10
-44.61455855505099
 20
43.27821638488409
 30
0.0
 10
-44.61455855505099
 20
46.93969181351839
 30
0.0
 10
-44.614558555051
 20
50.33796027045884
 30
0.0
 10
-44.614558555051
 20
53.32594694920645
 30
0.0
 10
-44.61455855505099
 20
55.85034251747364
 30
0.0
 10
-44.614558555051
 20
57.00647940206522
 30
0.0
 10
-44.614558555051
 20
57.584547844361
 30
0.0
  0
SPLINE
  5
3B3
330
1B
100
AcDbEntity
  8
0
  6
Continuous
 62
     8
370
    25
100
AcDbSpline
210
0.0
220
0.0
230
1.0
 70
     8
 71
     3
 72
    22
 73
    18
 74
     0
 42
0.000000001
 43
0.00000001
 40
0.0
 40
0.0
 40
0.0
 40
0.0
 40
0.0581303566712596
 40
0.1256031242748146
 40
0.192696849903494
 40
0.2601032357369083
 40
0.3272678368512212
 40
0.3945761420315922
 40
0.4618602542052774
 40
0.5290323485032676
 40
0.5964445117186115
 40
0.6635195570591854
 40
0.7310045149555889
 40
0.7980418446365793
 40
0.8655236335386557
 40
0.932571413582131
 40
0.9999999999999999
 40
0.9999999999999999
 40
0.9999999999999999
 40
0.9999999999999999
 10
-33.84909142168548
 20
19.19138611944968
 30
0.0
 10
-33.84789957015236
 20
19.22507429887665
 30
0.0
 10
-33.84532431885851
 20
19.29786484807432
 30
0.0
 10
-33.8503048966458
 20
20.25431286529185
 30
0.0
 10
-33.84531294844695
 20
21.8514371209024
 30
0.0
 10
-33.84957653246727
 20
24.07054435521822
 30
0.0
 10
-33.84893477373789
 20
26.82140952187127
 30
0.0
 10
-33.84984456223246
 20
30.01107315968705
 30
0.0
 10
-33.84899757999924
 20
33.53469297625713
 30
0.0
 10
-33.8498305340382
 20
37.27563957013682
 30
0.0
 10
-33.84820049768323
 20
41.10456835662819
 30
0.0
 10
-33.8462365885408
 20
44.90248859338499
 30
0.0
 10
-33.84963505650727
 20
48.5292249668488
 30
0.0
 10
-33.84521513805419
 20
51.87968736907942
 30
0.0
 10
-33.85101565088942
 20
54.81410207602949
 30
0.0
 10
-33.84833095407598
 20
57.30281583760632
 30
0.0
 10
-33.84934591417225
 20
58.46139135819153
 30
0.0
 10
-33.84985483128805
 20
59.0423195291937
 30
0.0
  0
SPLINE
  5
3B4
330
1B
100
AcDbEntity
  8
0
  6
Continuous
 62
     8
370
    25
100
AcDbSpline
210
0.0
220
0.0
230
1.0
 70
     8
 71
     3
 72
    65
 73
    61
 74
     0
 42
0.000000001
 43
0.00000001
 40
0.0
 40
0.0
 40
0.0
 40
0.0
 40
0.039227770619913
 40
0.0747653149532717
 40
0.1066117365698115
 40
0.1347662331985704
 40
0.1444060651155046
 40
0.1540458943401609
 40
0.1636857221343486
 40
0.173325549759878
 40
0.182965378478559
 40
0.1926052095522016
 40
0.2022450442426146
 40
0.2041504512152798
 40
0.2104774063123078
 40
0.2209667879280966
 40
0.2269650038880196
 40
0.2337854512172167
 40
0.2414281213812063
 40
0.2498930048144163
 40
0.2591800909207572
 40
0.2692893680739674
 40
0.2853563440880844
 40
0.3078415393404929
 40
0.3367432434551769
 40
0.3573447969962005
 40
0.3797050602918195
 40
0.4038239097664099
 40
0.426253276461386
 40
0.4486826423525714
 40
0.4711120093659385
 40
0.4935413794274589
 40
0.5159707544631039
 40
0.5384001363988434
 40
0.5536732098103686
 40
0.5718108853301245
 40
0.5928128916368265
 40
0.6166789122541981
 40
0.6434085862435103
 40
0.6730015085639468
 40
0.740200268305181
 40
0.8073990161477966
 40
0.818577499819176
 40
0.829755983487469
 40
0.8409344684283935
 40
0.852112955917666
 40
0.8632914472310022
 40
0.8744699436441168
 40
0.881455782322849
 40
0.888809697477709
 40
0.8985353062140896
 40
0.9106325075372902
 40
0.925101175582956
 40
0.9419411597095612
 40
0.9531146013895602
 40
0.9642880396955577
 40
0.9754614767451714
 40
0.986634914656019
 40
0.9978083555457177
 40
1.0
 40
1.0
 40
1.0
 40
1.0
 10
-33.316414264816
 20
59.1831431029393
 30
0.0
 10
-33.31644997982978
 20
58.85798712768962
 30
0.0
 10
-33.31651805008237
 20
58.23826317921367
 30
0.0
 10
-33.31716407517845
 20
57.12240466682698
 30
0.0
 10
-33.31815244503915
 20
55.99895877295815
 30
0.0
 10
-33.31945690640283
 20
55.09538746431667
 30
0.0
 10
-33.32039188971037
 20
54.44767478276932
 30
0.0
 10
-33.32070590699033
 20
54.04278544017272
 30
0.0
 10
-33.32083351904951
 20
53.62824256771042
 30
0.0
 10
-33.32076674157921
 20
53.20431517170849
 30
0.0
 10
-33.32046789687183
 20
52.7712986480519
 30
0.0
 10
-33.32009568011038
 20
52.32949310362294
 30
0.0
 10
-33.3193318527816
 20
51.9996228723121
 30
0.0
 10
-33.31926450919278
 20
51.71832403402335
 30
0.0
 10
-33.31951317153934
 20
51.42140715577612
 30
0.0
 10
-33.31979536300763
 20
51.05412285621559
 30
0.0
 10
-33.32013870895256
 20
50.67370313913262
 30
0.0
 10
-33.32044763100139
 20
50.33628038851869
 30
0.0
 10
-33.320804822676
 20
49.95394275486267
 30
0.0
 10
-33.32121496211096
 20
49.52543696118032
 30
0.0
 10
-33.3216505284668
 20
49.04948141234814
 30
0.0
 10
-33.32232946889867
 20
48.43596623090669
 30
0.0
 10
-33.32251024958663
 20
47.58063925323208
 30
0.0
 10
-33.32185305368571
 20
46.37023775183265
 30
0.0
 10
-33.32055491005529
 20
45.04855145713889
 30
0.0
 10
-33.31952769352682
 20
43.70801839974316
 30
0.0
 10
-33.3193149840551
 20
42.44328947830017
 30
0.0
 10
-33.31971177932492
 20
41.13426876292209
 30
0.0
 10
-33.32015588720296
 20
39.81962790606994
 30
0.0
 10
-33.32009991135429
 20
38.53784321204044
 30
0.0
 10
-33.31970270641938
 20
37.2615126644807
 30
0.0
 10
-33.31890567480567
 20
35.99538211122179
 30
0.0
 10
-33.31779522987939
 20
34.74419108712957
 30
0.0
 10
-33.31626627705208
 20
33.64351962650662
 30
0.0
 10
-33.31516822369953
 20
32.6384188457397
 30
0.0
 10
-33.31485227588409
 20
31.67534907606969
 30
0.0
 10
-33.31491694052129
 20
30.58535428481508
 30
0.0
 10
-33.31544418969821
 20
29.38382644007238
 30
0.0
 10
-33.31637735084748
 20
28.09094497556513
 30
0.0
 10
-33.3184672601683
 20
26.20162013299897
 30
0.0
 10
-33.32060416785988
 20
23.94896814259141
 30
0.0
 10
-33.32024877430292
 20
22.33728409210964
 30
0.0
 10
-33.31982439921223
 20
21.50584623710076
 30
0.0
 10
-33.3199474846036
 20
21.21155045266149
 30
0.0
 10
-33.32025957934584
 20
20.93466516145907
 30
0.0
 10
-33.32082866615885
 20
20.67542240149062
 30
0.0
 10
-33.32147580361394
 20
20.43406942908716
 30
0.0
 10
-33.32267712385591
 20
20.23873518618992
 30
0.0
 10
-33.32267929939241
 20
20.0801915987395
 30
0.0
 10
-33.32238346194688
 20
19.9391594326732
 30
0.0
 10
-33.32194001678879
 20
19.78050432048335
 30
0.0
 10
-33.32128040217359
 20
19.6029169984618
 30
0.0
 10
-33.32043522713901
 20
19.41953276270273
 30
0.0
 10
-33.31949137226852
 20
19.27383757243666
 30
0.0
 10
-33.31876666691041
 20
19.16753076276247
 30
0.0
 10
-33.31847422218838
 20
19.09598075340092
 30
0.0
 10
-33.31844045202322
 20
19.04330567110472
 30
0.0
 10
-33.31871263970583
 20
19.01172269713694
 30
0.0
 10
-33.31904777459134
 20
18.99813603921947
 30
0.0
 10
-33.31937808267438
 20
19.00105284500194
 30
0.0
 10
-33.31943224752704
 20
19.00153115105482
 30
0.0
  0
SPLINE
  5
3B5
330
1B
100
AcDbEntity
  8
0
  6
Continuous
 62
     8
370
    25
100
AcDbSpline
210
0.0
220
0.0
230
1.0
 70
     8
 71
     3
 72
    12
 73
     8
 74
     0
 42
0.000000001
 43
0.00000001
 40
0.0
 40
0.0
 40
0.0
 40
0.0
 40
0.1214606381218681
 40
0.2432862410532097
 40
0.4303242160843636
 40
0.6825660090904507
 40
1.0
 40
1.0
 40
1.0
 40
1.0
 10
-33.31941111953758
 20
60.99860091720069
 30
0.0
 10
-33.31966253610128
 20
60.99788630960487
 30
0.0
 10
-33.32016612468495
 20
60.99645494716098
 30
0.0
 10
-33.32043568940765
 20
60.97130901060618
 30
0.0
 10
-33.31983472430571
 20
60.91382919364951
 30
0.0
 10
-33.31871093144485
 20
60.78946541727207
 30
0.0
 10
-33.3175845032383
 20
60.63273147307054
 30
0.0
 10
-33.31695683639485
 20
60.5453963908648
 30
0.0
  0
SPLINE
  5
3B6
330
1B
100
AcDbEntity
  8
0
  6
Continuous
 62
     8
370
    25
100
AcDbSpline
210
0.0
220
0.0
230
1.0
 70
     8
 71
     3
 72
     9
 73
     5
 74
     0
 42
0.000000001
 43
0.00000001
 40
0.0
 40
0.0
 40
0.0
 40
0.0
 40
0.9122874604954193
 40
1.0
 40
1.0
 40
1.0
 40
1.0
 10
-33.8490473196485
 20
60.3953261280238
 30
0.0
 10
-33.84966108231121
 20
60.65028280422323
 30
0.0
 10
-33.85033385563025
 20
60.92975247495723
 30
0.0
 10
-33.84929213044123
 20
60.82655381812902
 30
0.0
 10
-33.84920075807943
 20
60.81750200186516
 30
0.0
  0
SPLINE
  5
3B7
330
1B
100
AcDbEntity
  8
0
  6
Continuous
 62
     8
370
    25
100
AcDbSpline
210
0.0
220
0.0
230
1.0
 70
    24
 71
     3
 72
    10
 73
     6
 74
     0
 42
0.000000001
 43
0.00000001
 40
0.0
 40
0.0
 40
0.0
 40
0.0
 40
0.4775274360371525
 40
0.9550548720743092
 40
1.0
 40
1.0
 40
1.0
 40
1.0
 10
-44.614558555051
 20
57.584547844361
 30
0.0
 10
-44.614558555051
 20
58.01734640733356
 30
0.0
 10
-44.61455855505099
 20
58.88294353327867
 30
0.0
 10
-44.61455855505099
 20
59.33587240281542
 30
0.0
 10
-44.614558555051
 20
59.22718137725418
 30
0.0
 10
-44.614558555051
 20
59.21783135127162
 30
0.0
  0
LINE
  5
3B9
330
1B
100
AcDbEntity
  8
0
  6
Continuous
 62
     7
370
    25
100
AcDbLine
 10
-33.3332460924
 20
-61.0
 30
0.0
 11
-31.6145585551
 21
-61.0
 31
0.0
  0
LINE
  5
3BA
330
1B
100
AcDbEntity
  8
0
  6
Continuous
 62
     7
370
    25
100
AcDbLine
 10
-31.6145585551
 20
-19.0
 30
0.0
 11
-33.3333276477
 21
-19.0
 31
0.0
  0
LINE
  5
3BB
330
1B
100
AcDbEntity
  8
0
  6
Continuous
 62
     7
370
    25
100
AcDbLine
 10
-65.4360984753
 20
-58.522895804
 30
0.0
 11
-44.6009216605
 21
-59.2504762109
 31
0.0
  0
LINE
  5
3BC
330
1B
100
AcDbEntity
  8
0
  6
Continuous
 62
     7
370
    25
100
AcDbLine
 10
-55.6143897834
 20
-21.1341225708
 30
0.0
 11
-65.4360984753
 21
-21.477104196
 31
0.0
  0
LINE
  5
3BD
330
1B
100
AcDbEntity
  8
0
  6
Continuous
 62
     7
370
    25
100
AcDbLine
 10
-44.6009216605
 20
-20.7495237891
 30
0.0
 11
-47.6146862634
 21
-20.8547667682
 31
0.0
  0
LINE
  5
3BE
330
1B
100
AcDbEntity
  8
0
  6
Continuous
 62
     7
370
    25
100
AcDbLine
 10
-65.4360984753
 20
-21.477104196
 30
0.0
 11
-66.6145585551
 21
-23.5182569288
 31
0.0
  0
LINE
  5
3BF
330
1B
100
AcDbEntity
  8
0
  6
Continuous
 62
     7
370
    25
100
AcDbLine
 10
-66.6145585551
 20
-56.4817430712
 30
0.0
 11
-65.4360984753
 21
-58.522895804
 31
0.0
  0
LINE
  5
3C0
330
1B
100
AcDbEntity
  8
0
  6
Continuous
 62
     7
370
    25
100
AcDbLine
 10
-81.6145585551
 20
-47.5
 30
0.0
 11
-74.1145585551
 21
-47.5
 31
0.0
  0
LINE
  5
3C1
330
1B
100
AcDbEntity
  8
0
  6
Continuous
 62
     7
370
    25
100
AcDbLine
 10
-74.1145585551
 20
-47.5
 30
0.0
 11
-72.6145585551
 21
-46.0
 31
0.0
  0
LINE
  5
3C2
330
1B
100
AcDbEntity
  8
0
  6
Continuous
 62
     7
370
    25
100
AcDbLine
 10
-72.6145585551
 20
-46.0
 30
0.0
 11
-66.6145585551
 21
-46.0
 31
0.0
  0
LINE
  5
3C3
330
1B
100
AcDbEntity
  8
0
  6
Continuous
 62
     7
370
    25
100
AcDbLine
 10
-74.1145585551
 20
-32.5
 30
0.0
 11
-81.6145585551
 21
-32.5
 31
0.0
  0
LINE
  5
3C4
330
1B
100
AcDbEntity
  8
0
  6
Continuous
 62
     7
370
    25
100
AcDbLine
 10
-72.6145585551
 20
-34.0
 30
0.0
 11
-74.1145585551
 21
-32.5
 31
0.0
  0
LINE
  5
3C5
330
1B
100
AcDbEntity
  8
0
  6
Continuous
 62
     7
370
    25
100
AcDbLine
 10
-66.6145585551
 20
-34.0
 30
0.0
 11
-72.6145585551
 21
-34.0
 31
0.0
  0
LINE
  5
3C6
330
1B
100
AcDbEntity
  8
0
  6
Continuous
 62
     7
370
    25
100
AcDbLine
 10
-65.4360984753
 20
21.477104196
 30
0.0
 11
-44.6009216605
 21
20.7495237891
 31
0.0
  0
LINE
  5
3C7
330
1B
100
AcDbEntity
  8
0
  6
Continuous
 62
     7
370
    25
100
AcDbLine
 10
-33.333246092
 20
19.0
 30
0.0
 11
-31.6145585551
 21
19.0
 31
0.0
  0
LINE
  5
3C8
330
1B
100
AcDbEntity
  8
0
  6
Continuous
 62
     7
370
    25
100
AcDbLine
 10
-66.6145585551
 20
23.5182569288
 30
0.0
 11
-65.4360984753
 21
21.477104196
 31
0.0
  0
LINE
  5
3C9
330
1B
100
AcDbEntity
  8
0
  6
Continuous
 62
     7
370
    25
100
AcDbLine
 10
-31.6145585551
 20
61.0
 30
0.0
 11
-33.3333276475
 21
61.0
 31
0.0
  0
LINE
  5
3CA
330
1B
100
AcDbEntity
  8
0
  6
Continuous
 62
     7
370
    25
100
AcDbLine
 10
-44.6009216605
 20
59.2504762109
 30
0.0
 11
-65.4360984753
 21
58.522895804
 31
0.0
  0
LINE
  5
3CB
330
1B
100
AcDbEntity
  8
0
  6
Continuous
 62
     7
370
    25
100
AcDbLine
 10
-65.4360984753
 20
58.522895804
 30
0.0
 11
-66.6145585551
 21
56.4817430712
 31
0.0
  0
LINE
  5
3CC
330
1B
100
AcDbEntity
  8
0
  6
Continuous
 62
     7
370
    25
100
AcDbLine
 10
-74.1145585551
 20
32.5
 30
0.0
 11
-72.6145585551
 21
34.0
 31
0.0
  0
LINE
  5
3CD
330
1B
100
AcDbEntity
  8
0
  6
Continuous
 62
     7
370
    25
100
AcDbLine
 10
-74.1145585551
 20
47.5
 30
0.0
 11
-81.6145585551
 21
47.5
 31
0.0
  0
LINE
  5
3CE
330
1B
100
AcDbEntity
  8
0
  6
Continuous
 62
     7
370
    25
100
AcDbLine
 10
-81.6145585551
 20
32.5
 30
0.0
 11
-74.1145585551
 21
32.5
 31
0.0
  0
LINE
  5
3CF
330
1B
100
AcDbEntity
  8
0
  6
Continuous
 62
     7
370
    25
100
AcDbLine
 10
-72.6145585551
 20
46.0
 30
0.0
 11
-74.1145585551
 21
47.5
 31
0.0
  0
LINE
  5
3D0
330
1B
100
AcDbEntity
  8
0
  6
Continuous
 62
     7
370
    25
100
AcDbLine
 10
-72.6145585551
 20
34.0
 30
0.0
 11
-66.6145585551
 21
34.0
 31
0.0
  0
LINE
  5
3D1
330
1B
100
AcDbEntity
  8
0
  6
Continuous
 62
     7
370
    25
100
AcDbLine
 10
-66.6145585551
 20
46.0
 30
0.0
 11
-72.6145585551
 21
46.0
 31
0.0
  0
LINE
  5
3D2
330
1B
100
AcDbEntity
  8
0
  6
Continuous
 62
     7
370
    25
100
AcDbLine
 10
-33.3164142648
 20
-40.0
 30
0.0
 11
-31.6145585551
 21
-40.0
 31
0.0
  0
LINE
  5
3D3
330
1B
100
AcDbEntity
  8
0
  6
Continuous
 62
     7
370
    25
100
AcDbLine
 10
-31.6145585551
 20
-61.0
 30
0.0
 11
-31.6145585551
 21
-19.0
 31
0.0
  0
LINE
  5
3D4
330
1B
100
AcDbEntity
  8
0
  6
Continuous
 62
     7
370
    25
100
AcDbLine
 10
-65.4360984753
 20
-21.477104196
 30
0.0
 11
-65.4360984753
 21
-58.522895804
 31
0.0
  0
LINE
  5
3D5
330
1B
100
AcDbEntity
  8
0
  6
Continuous
 62
     7
370
    25
100
AcDbLine
 10
-66.6145585551
 20
-40.0
 30
0.0
 11
-44.6145585551
 21
-40.0
 31
0.0
  0
LINE
  5
3D6
330
1B
100
AcDbEntity
  8
0
  6
Continuous
 62
     7
370
    25
100
AcDbLine
 10
-66.6145585551
 20
-56.4817430712
 30
0.0
 11
-66.6145585551
 21
-23.5182569288
 31
0.0
  0
LINE
  5
3D7
330
1B
100
AcDbEntity
  8
0
  6
Continuous
 62
     7
370
    25
100
AcDbLine
 10
-47.7145585551
 20
-17.8023516187
 30
0.0
 11
-47.7145585551
 21
-20.8787833026
 31
0.0
  0
LINE
  5
3D8
330
1B
100
AcDbEntity
  8
0
  6
Continuous
 62
     7
370
    25
100
AcDbLine
 10
-55.5145585551
 20
-17.8023516187
 30
0.0
 11
-55.5145585551
 21
-21.1510511415
 31
0.0
  0
LINE
  5
3D9
330
1B
100
AcDbEntity
  8
0
  6
Continuous
 62
     7
370
    25
100
AcDbLine
 10
-47.7145585551
 20
-17.8023516187
 30
0.0
 11
-55.5145585551
 21
-17.8023516187
 31
0.0
  0
LINE
  5
3DA
330
1B
100
AcDbEntity
  8
0
  6
Continuous
 62
     7
370
    25
100
AcDbLine
 10
-55.2380957017
 20
-17.3551032044
 30
0.0
 11
-47.9910214084
 21
-17.3551032044
 31
0.0
  0
LINE
  5
3DB
330
1B
100
AcDbEntity
  8
0
  6
Continuous
 62
     7
370
    25
100
AcDbLine
 10
-51.6145585551
 20
-17.3551032044
 30
0.0
 11
-51.6145585551
 21
-16.5
 31
0.0
  0
LINE
  5
3DC
330
1B
100
AcDbEntity
  8
0
  6
Continuous
 62
     7
370
    25
100
AcDbLine
 10
-90.6145585551
 20
-23.3829906421
 30
0.0
 11
-82.6145585551
 21
-23.3829906421
 31
0.0
  0
LINE
  5
3DD
330
1B
100
AcDbEntity
  8
0
  6
Continuous
 62
     7
370
    25
100
AcDbLine
 10
-90.6145585551
 20
-36.5857864376
 30
0.0
 11
-82.6145585551
 21
-36.5857864376
 31
0.0
  0
LINE
  5
3DE
330
1B
100
AcDbEntity
  8
0
  6
Continuous
 62
     7
370
    25
100
AcDbLine
 10
-81.6145585551
 20
-22.3829906421
 30
0.0
 11
-82.6145585551
 21
-21.9687770797
 31
0.0
  0
LINE
  5
3DF
330
1B
100
AcDbEntity
  8
0
  6
Continuous
 62
     7
370
    25
100
AcDbLine
 10
-81.6145585551
 20
-16.6048160491
 30
0.0
 11
-82.6145585551
 21
-15.6048160491
 31
0.0
  0
LINE
  5
3E0
330
1B
100
AcDbEntity
  8
0
  6
Continuous
 62
     7
370
    25
100
AcDbLine
 10
-81.6145585551
 20
-57.0312229203
 30
0.0
 11
-82.6145585551
 21
-56.6170093579
 31
0.0
  0
LINE
  5
3E1
330
1B
100
AcDbEntity
  8
0
  6
Continuous
 62
     7
370
    25
100
AcDbLine
 10
-82.6145585551
 20
-64.3951839509
 30
0.0
 11
-82.6145585551
 21
-15.6048160491
 31
0.0
  0
LINE
  5
3E2
330
1B
100
AcDbEntity
  8
0
  6
Continuous
 62
     7
370
    25
100
AcDbLine
 10
-81.6145585551
 20
-44.1213203436
 30
0.0
 11
-82.6145585551
 21
-43.4142135624
 31
0.0
  0
LINE
  5
3E3
330
1B
100
AcDbEntity
  8
0
  6
Continuous
 62
     7
370
    25
100
AcDbLine
 10
-90.6145585551
 20
-15.6048160491
 30
0.0
 11
-90.6145585551
 21
-64.3951839509
 31
0.0
  0
LINE
  5
3E4
330
1B
100
AcDbEntity
  8
0
  6
Continuous
 62
     7
370
    25
100
AcDbLine
 10
-90.6145585551
 20
-64.3951839509
 30
0.0
 11
-91.6145585551
 21
-63.3951839509
 31
0.0
  0
LINE
  5
3E5
330
1B
100
AcDbEntity
  8
0
  6
Continuous
 62
     7
370
    25
100
AcDbLine
 10
-90.6145585551
 20
-58.0312229203
 30
0.0
 11
-91.6145585551
 21
-57.6170093579
 31
0.0
  0
LINE
  5
3E6
330
1B
100
AcDbEntity
  8
0
  6
Continuous
 62
     7
370
    25
100
AcDbLine
 10
-90.6145585551
 20
-56.6170093579
 30
0.0
 11
-82.6145585551
 21
-56.6170093579
 31
0.0
  0
LINE
  5
3E7
330
1B
100
AcDbEntity
  8
0
  6
Continuous
 62
     7
370
    25
100
AcDbLine
 10
-90.6145585551
 20
-58.0312229203
 30
0.0
 11
-82.6145585551
 21
-58.0312229203
 31
0.0
  0
LINE
  5
3E8
330
1B
100
AcDbEntity
  8
0
  6
Continuous
 62
     7
370
    25
100
AcDbLine
 10
-90.6145585551
 20
-21.9687770797
 30
0.0
 11
-82.6145585551
 21
-21.9687770797
 31
0.0
  0
LINE
  5
3E9
330
1B
100
AcDbEntity
  8
0
  6
Continuous
 62
     7
370
    25
100
AcDbLine
 10
-81.6145585551
 20
-16.6048160491
 30
0.0
 11
-81.6145585551
 21
-63.3951839509
 31
0.0
  0
LINE
  5
3EA
330
1B
100
AcDbEntity
  8
0
  6
Continuous
 62
     7
370
    25
100
AcDbLine
 10
-81.6145585551
 20
-35.8786796564
 30
0.0
 11
-82.6145585551
 21
-36.5857864376
 31
0.0
  0
LINE
  5
3EB
330
1B
100
AcDbEntity
  8
0
  6
Continuous
 62
     7
370
    25
100
AcDbLine
 10
-81.6145585551
 20
-22.9687770797
 30
0.0
 11
-82.6145585551
 21
-23.3829906421
 31
0.0
  0
LINE
  5
3EC
330
1B
100
AcDbEntity
  8
0
  6
Continuous
 62
     7
370
    25
100
AcDbLine
 10
-90.6145585551
 20
-23.3829906421
 30
0.0
 11
-91.6145585551
 21
-22.9687770797
 31
0.0
  0
LINE
  5
3ED
330
1B
100
AcDbEntity
  8
0
  6
Continuous
 62
     7
370
    25
100
AcDbLine
 10
-90.6145585551
 20
-21.9687770797
 30
0.0
 11
-91.6145585551
 21
-22.3829906421
 31
0.0
  0
LINE
  5
3EE
330
1B
100
AcDbEntity
  8
0
  6
Continuous
 62
     7
370
    25
100
AcDbLine
 10
-90.6145585551
 20
-15.6048160491
 30
0.0
 11
-82.6145585551
 21
-15.6048160491
 31
0.0
  0
LINE
  5
3EF
330
1B
100
AcDbEntity
  8
0
  6
Continuous
 62
     7
370
    25
100
AcDbLine
 10
-81.6145585551
 20
-57.6170093579
 30
0.0
 11
-82.6145585551
 21
-58.0312229203
 31
0.0
  0
LINE
  5
3F0
330
1B
100
AcDbEntity
  8
0
  6
Continuous
 62
     7
370
    25
100
AcDbLine
 10
-82.6145585551
 20
-43.4142135624
 30
0.0
 11
-90.6145585551
 21
-43.4142135624
 31
0.0
  0
LINE
  5
3F1
330
1B
100
AcDbEntity
  8
0
  6
Continuous
 62
     7
370
    25
100
AcDbLine
 10
-90.6145585551
 20
-15.6048160491
 30
0.0
 11
-91.6145585551
 21
-16.6048160491
 31
0.0
  0
LINE
  5
3F2
330
1B
100
AcDbEntity
  8
0
  6
Continuous
 62
     7
370
    25
100
AcDbLine
 10
-90.6145585551
 20
-36.5857864376
 30
0.0
 11
-91.6145585551
 21
-35.8786796564
 31
0.0
  0
LINE
  5
3F3
330
1B
100
AcDbEntity
  8
0
  6
Continuous
 62
     7
370
    25
100
AcDbLine
 10
-90.6145585551
 20
-56.6170093579
 30
0.0
 11
-91.6145585551
 21
-57.0312229203
 31
0.0
  0
LINE
  5
3F4
330
1B
100
AcDbEntity
  8
0
  6
Continuous
 62
     7
370
    25
100
AcDbLine
 10
-91.6145585551
 20
-63.3951839509
 30
0.0
 11
-91.6145585551
 21
-16.6048160491
 31
0.0
  0
LINE
  5
3F5
330
1B
100
AcDbEntity
  8
0
  6
Continuous
 62
     7
370
    25
100
AcDbLine
 10
-90.6145585551
 20
-43.4142135624
 30
0.0
 11
-91.6145585551
 21
-44.1213203436
 31
0.0
  0
LINE
  5
3F6
330
1B
100
AcDbEntity
  8
0
  6
Continuous
 62
     7
370
    25
100
AcDbLine
 10
-90.6145585551
 20
-64.3951839509
 30
0.0
 11
-82.6145585551
 21
-64.3951839509
 31
0.0
  0
LINE
  5
3F7
330
1B
100
AcDbEntity
  8
0
  6
Continuous
 62
     7
370
    25
100
AcDbLine
 10
-81.6145585551
 20
-63.3951839509
 30
0.0
 11
-82.6145585551
 21
-64.3951839509
 31
0.0
  0
LINE
  5
3F8
330
1B
100
AcDbEntity
  8
0
  6
Continuous
 62
     7
370
    25
100
AcDbLine
 10
-81.6145585551
 20
-38.0
 30
0.0
 11
-91.6145585551
 21
-38.0
 31
0.0
  0
LINE
  5
3F9
330
1B
100
AcDbEntity
  8
0
  6
Continuous
 62
     7
370
    25
100
AcDbLine
 10
-91.6145585551
 20
-42.0
 30
0.0
 11
-81.6145585551
 21
-42.0
 31
0.0
  0
LINE
  5
3FA
330
1B
100
AcDbEntity
  8
0
  6
Continuous
 62
     7
370
    25
100
AcDbLine
 10
-74.1145585551
 20
-34.6966991411
 30
0.0
 11
-81.6145585551
 21
-34.6966991411
 31
0.0
  0
LINE
  5
3FB
330
1B
100
AcDbEntity
  8
0
  6
Continuous
 62
     7
370
    25
100
AcDbLine
 10
-74.1145585551
 20
-47.5
 30
0.0
 11
-74.1145585551
 21
-32.5
 31
0.0
  0
LINE
  5
3FC
330
1B
100
AcDbEntity
  8
0
  6
Continuous
 62
     7
370
    25
100
AcDbLine
 10
-72.6145585551
 20
-35.7573593129
 30
0.0
 11
-74.1145585551
 21
-34.6966991411
 31
0.0
  0
LINE
  5
3FD
330
1B
100
AcDbEntity
  8
0
  6
Continuous
 62
     7
370
    25
100
AcDbLine
 10
-72.6145585551
 20
-34.0
 30
0.0
 11
-72.6145585551
 21
-46.0
 31
0.0
  0
LINE
  5
3FE
330
1B
100
AcDbEntity
  8
0
  6
Continuous
 62
     7
370
    25
100
AcDbLine
 10
-20.6145585551
 20
72.9289321881
 30
0.0
 11
-21.9957564015
 21
72.9289321881
 31
0.0
  0
LINE
  5
3FF
330
1B
100
AcDbEntity
  8
0
  6
Continuous
 62
     7
370
    25
100
AcDbLine
 10
-21.9957564015
 20
76.4644660941
 30
0.0
 11
-20.6145585551
 21
76.4644660941
 31
0.0
  0
LINE
  5
400
330
1B
100
AcDbEntity
  8
0
  6
Continuous
 62
     7
370
    25
100
AcDbLine
 10
-20.6145585551
 20
-76.4644660941
 30
0.0
 11
-21.9957564015
 21
-76.4644660941
 31
0.0
  0
LINE
  5
401
330
1B
100
AcDbEntity
  8
0
  6
Continuous
 62
     7
370
    25
100
AcDbLine
 10
-21.9957564015
 20
-72.9289321881
 30
0.0
 11
-20.6145585551
 21
-72.9289321881
 31
0.0
  0
LINE
  5
402
330
1B
100
AcDbEntity
  8
0
  6
Continuous
 62
     7
370
    25
100
AcDbLine
 10
-20.6145585551
 20
100.0
 30
0.0
 11
-20.6145585551
 21
-100.0
 31
0.0
  0
LINE
  5
403
330
1B
100
AcDbEntity
  8
0
  6
Continuous
 62
     7
370
    25
100
AcDbLine
 10
-21.9957564015
 20
72.9289321881
 30
0.0
 11
-21.9957564015
 21
-72.9289321881
 31
0.0
  0
LINE
  5
404
330
1B
100
AcDbEntity
  8
0
  6
Continuous
 62
     7
370
    25
100
AcDbLine
 10
-25.944685574
 20
71.1313505534
 30
0.0
 11
-25.944685574
 21
-71.1313505534
 31
0.0
  0
LINE
  5
405
330
1B
100
AcDbEntity
  8
0
  6
Continuous
 62
     7
370
    25
100
AcDbLine
 10
-22.0533968547
 20
73.9231125887
 30
0.0
 11
-25.944685574
 21
71.1313505534
 31
0.0
  0
LINE
  5
406
330
1B
100
AcDbEntity
  8
0
  6
Continuous
 62
     7
370
    25
100
AcDbLine
 10
-25.944685574
 20
-71.1313505534
 30
0.0
 11
-22.0533968547
 21
-73.9231125887
 31
0.0
  0
LINE
  5
407
330
1B
100
AcDbEntity
  8
0
  6
Continuous
 62
     7
370
    25
100
AcDbLine
 10
-25.944685574
 20
72.8991175063
 30
0.0
 11
-22.0533968547
 21
75.6908795417
 31
0.0
  0
LINE
  5
408
330
1B
100
AcDbEntity
  8
0
  6
Continuous
 62
     7
370
    25
100
AcDbLine
 10
-22.0533968547
 20
-75.6908795417
 30
0.0
 11
-25.944685574
 21
-72.8991175063
 31
0.0
  0
LINE
  5
409
330
1B
100
AcDbEntity
  8
0
  6
Continuous
 62
     7
370
    25
100
AcDbLine
 10
-25.944685574
 20
92.4280209908
 30
0.0
 11
-25.944685574
 21
72.8991175063
 31
0.0
  0
LINE
  5
40A
330
1B
100
AcDbEntity
  8
0
  6
Continuous
 62
     7
370
    25
100
AcDbLine
 10
-22.0533968547
 20
99.1679307595
 30
0.0
 11
-25.944685574
 21
92.4280209908
 31
0.0
  0
LINE
  5
40B
330
1B
100
AcDbEntity
  8
0
  6
Continuous
 62
     7
370
    25
100
AcDbLine
 10
-21.9957564015
 20
98.5355339059
 30
0.0
 11
-21.9957564015
 21
76.4644660941
 31
0.0
  0
LINE
  5
40C
330
1B
100
AcDbEntity
  8
0
  6
Continuous
 62
     7
370
    25
100
AcDbLine
 10
-25.944685574
 20
-72.8991175063
 30
0.0
 11
-25.944685574
 21
-92.4280209908
 31
0.0
  0
LINE
  5
40D
330
1B
100
AcDbEntity
  8
0
  6
Continuous
 62
     7
370
    25
100
AcDbLine
 10
-21.9957564015
 20
-76.4644660941
 30
0.0
 11
-21.9957564015
 21
-98.5355339059
 31
0.0
  0
LINE
  5
40E
330
1B
100
AcDbEntity
  8
0
  6
Continuous
 62
     7
370
    25
100
AcDbLine
 10
-25.944685574
 20
-92.4280209908
 30
0.0
 11
-22.0533968547
 21
-99.1679307595
 31
0.0
  0
LINE
  5
40F
330
1B
100
AcDbEntity
  8
0
  6
Continuous
 62
     7
370
    25
100
AcDbLine
 10
-20.6145585551
 20
98.5355339059
 30
0.0
 11
-21.9957564015
 21
98.5355339059
 31
0.0
  0
LINE
  5
410
330
1B
100
AcDbEntity
  8
0
  6
Continuous
 62
     7
370
    25
100
AcDbLine
 10
-21.9957564015
 20
-98.5355339059
 30
0.0
 11
-20.6145585551
 21
-98.5355339059
 31
0.0
  0
LINE
  5
411
330
1B
100
AcDbEntity
  8
0
  6
Continuous
 62
     7
370
    25
100
AcDbLine
 10
-26.6145585551
 20
-71.1313505534
 30
0.0
 11
-25.944685574
 21
-71.1313505534
 31
0.0
  0
LINE
  5
412
330
1B
100
AcDbEntity
  8
0
  6
Continuous
 62
     7
370
    25
100
AcDbLine
 10
-26.6145585551
 20
71.1313505534
 30
0.0
 11
-25.944685574
 21
71.1313505534
 31
0.0
  0
LINE
  5
413
330
1B
100
AcDbEntity
  8
0
  6
Continuous
 62
     7
370
    25
100
AcDbLine
 10
-26.6145585551
 20
-90.6602540378
 30
0.0
 11
-26.6145585551
 21
90.6602540378
 31
0.0
  0
LINE
  5
414
330
1B
100
AcDbEntity
  8
0
  6
Continuous
 62
     7
370
    25
100
AcDbLine
 10
-20.6145585551
 20
-100.0
 30
0.0
 11
-21.9957564015
 21
-100.0
 31
0.0
  0
LINE
  5
415
330
1B
100
AcDbEntity
  8
0
  6
Continuous
 62
     7
370
    25
100
AcDbLine
 10
-21.9957564015
 20
100.0
 30
0.0
 11
-20.6145585551
 21
100.0
 31
0.0
  0
LINE
  5
416
330
1B
100
AcDbEntity
  8
0
  6
Continuous
 62
     7
370
    25
100
AcDbLine
 10
-22.0533968547
 20
-99.9001638066
 30
0.0
 11
-25.944685574
 21
-93.1602540378
 31
0.0
  0
LINE
  5
417
330
1B
100
AcDbEntity
  8
0
  6
Continuous
 62
     7
370
    25
100
AcDbLine
 10
-25.944685574
 20
93.1602540378
 30
0.0
 11
-22.0533968547
 21
99.9001638066
 31
0.0
  0
LINE
  5
418
330
1B
100
AcDbEntity
  8
0
  6
Continuous
 62
     7
370
    25
100
AcDbLine
 10
-44.6145585551
 20
20.7821686524
 30
0.0
 11
-44.6145585551
 21
20.7929283235
 31
0.0
  0
LINE
  5
419
330
1B
100
AcDbEntity
  8
0
  6
Continuous
 62
     7
370
    25
100
AcDbLine
 10
-65.4360984753
 20
58.522895804
 30
0.0
 11
-65.4360984753
 21
21.477104196
 31
0.0
  0
LINE
  5
41A
330
1B
100
AcDbEntity
  8
0
  6
Continuous
 62
     7
370
    25
100
AcDbLine
 10
-65.4360984753
 20
56.9203505185
 30
0.0
 11
-44.6145585551
 21
57.5845478444
 31
0.0
  0
LINE
  5
41B
330
1B
100
AcDbEntity
  8
0
  6
Continuous
 62
     7
370
    25
100
AcDbLine
 10
-33.8494483369
 20
19.1578177305
 30
0.0
 11
-33.8490914217
 21
19.1913861194
 31
0.0
  0
LINE
  5
41C
330
1B
100
AcDbEntity
  8
0
  6
Continuous
 62
     7
370
    25
100
AcDbLine
 10
-33.3164142648
 20
59.1831431029
 30
0.0
 11
-31.6145585551
 21
59.1831431029
 31
0.0
  0
LINE
  5
41D
330
1B
100
AcDbEntity
  8
0
  6
Continuous
 62
     7
370
    25
100
AcDbLine
 10
-31.6145585551
 20
19.0
 30
0.0
 11
-31.6145585551
 21
61.0
 31
0.0
  0
LINE
  5
41E
330
1B
100
AcDbEntity
  8
0
  6
Continuous
 62
     7
370
    25
100
AcDbLine
 10
-66.6145585551
 20
55.0557921867
 30
0.0
 11
-65.4360984753
 21
56.9203505185
 31
0.0
  0
LINE
  5
41F
330
1B
100
AcDbEntity
  8
0
  6
Continuous
 62
     7
370
    25
100
AcDbLine
 10
-66.6145585551
 20
23.5182569288
 30
0.0
 11
-66.6145585551
 21
56.4817430712
 31
0.0
  0
LINE
  5
420
330
1B
100
AcDbEntity
  8
0
  6
Continuous
 62
     7
370
    25
100
AcDbLine
 10
-33.8492007581
 20
60.8175020019
 30
0.0
 11
-33.8490885924
 21
60.8070941425
 31
0.0
  0
LINE
  5
421
330
1B
100
AcDbEntity
  8
0
  6
Continuous
 62
     7
370
    25
100
AcDbLine
 10
-44.6145585551
 20
59.2178313513
 30
0.0
 11
-44.6145585551
 21
59.2070716765
 31
0.0
  0
LINE
  5
422
330
1B
100
AcDbEntity
  8
0
  6
Continuous
 62
     7
370
    25
100
AcDbLine
 10
15.6854414449
 20
19.0
 30
0.0
 11
-20.6145585551
 21
19.0
 31
0.0
  0
LINE
  5
423
330
1B
100
AcDbEntity
  8
0
  6
Continuous
 62
     7
370
    25
100
AcDbLine
 10
-26.6145585551
 20
19.0
 30
0.0
 11
-31.3145585551
 21
19.0
 31
0.0
  0
LINE
  5
424
330
1B
100
AcDbEntity
  8
0
  6
Continuous
 62
     7
370
    25
100
AcDbLine
 10
15.6854414449
 20
61.0
 30
0.0
 11
-20.6145585551
 21
61.0
 31
0.0
  0
LINE
  5
425
330
1B
100
AcDbEntity
  8
0
  6
Continuous
 62
     7
370
    25
100
AcDbLine
 10
-26.6145585551
 20
61.0
 30
0.0
 11
-31.3145585551
 21
61.0
 31
0.0
  0
LINE
  5
426
330
1B
100
AcDbEntity
  8
0
  6
Continuous
 62
     7
370
    25
100
AcDbLine
 10
15.6854414449
 20
19.0
 30
0.0
 11
15.6854414449
 21
61.0
 31
0.0
  0
LINE
  5
427
330
1B
100
AcDbEntity
  8
0
  6
Continuous
 62
     7
370
    25
100
AcDbLine
 10
-31.3145585551
 20
61.0
 30
0.0
 11
-31.3145585551
 21
19.0
 31
0.0
  0
LINE
  5
428
330
1B
100
AcDbEntity
  8
0
  6
Continuous
 62
     7
370
    25
100
AcDbLine
 10
-82.6145585551
 20
31.0
 30
0.0
 11
-82.6145585551
 21
52.8892106643
 31
0.0
  0
LINE
  5
429
330
1B
100
AcDbEntity
  8
0
  6
Continuous
 62
     7
370
    25
100
AcDbLine
 10
-81.6145585551
 20
52.8939905012
 30
0.0
 11
-81.6145585551
 21
32.0
 31
0.0
  0
LINE
  5
42A
330
1B
100
AcDbEntity
  8
0
  6
Continuous
 62
     7
370
    25
100
AcDbLine
 10
-82.6145585551
 20
36.2720779386
 30
0.0
 11
-81.6145585551
 21
36.686291501
 31
0.0
  0
LINE
  5
42B
330
1B
100
AcDbEntity
  8
0
  6
Continuous
 62
     7
370
    25
100
AcDbLine
 10
-91.6145585551
 20
32.0
 30
0.0
 11
-91.6145585551
 21
114.0901235852
 31
0.0
  0
LINE
  5
42C
330
1B
100
AcDbEntity
  8
0
  6
Continuous
 62
     7
370
    25
100
AcDbLine
 10
-90.6145585551
 20
113.9129675303
 30
0.0
 11
-90.6145585551
 21
31.0
 31
0.0
  0
LINE
  5
42D
330
1B
100
AcDbEntity
  8
0
  6
Continuous
 62
     7
370
    25
100
AcDbLine
 10
-91.6145585551
 20
36.686291501
 30
0.0
 11
-90.6145585551
 21
36.2720779386
 31
0.0
  0
LINE
  5
42E
330
1B
100
AcDbEntity
  8
0
  6
Continuous
 62
     7
370
    25
100
AcDbLine
 10
-91.6145585551
 20
32.0
 30
0.0
 11
-90.6145585551
 21
31.0
 31
0.0
  0
LINE
  5
42F
330
1B
100
AcDbEntity
  8
0
  6
Continuous
 62
     7
370
    25
100
AcDbLine
 10
-82.6145585551
 20
31.0
 30
0.0
 11
-81.6145585551
 21
32.0
 31
0.0
  0
LINE
  5
430
330
1B
100
AcDbEntity
  8
0
  6
Continuous
 62
     7
370
    25
100
AcDbLine
 10
-82.6145585551
 20
36.2720779386
 30
0.0
 11
-90.6145585551
 21
36.2720779386
 31
0.0
  0
LINE
  5
431
330
1B
100
AcDbEntity
  8
0
  6
Continuous
 62
     7
370
    25
100
AcDbLine
 10
-82.6145585551
 20
31.0
 30
0.0
 11
-90.6145585551
 21
31.0
 31
0.0
  0
LINE
  5
432
330
1B
100
AcDbEntity
  8
0
  6
Continuous
 62
     7
370
    25
100
AcDbLine
 10
-82.6145585551
 20
43.9160259482
 30
0.0
 11
-90.6145585551
 21
43.9160259482
 31
0.0
  0
LINE
  5
433
330
1B
100
AcDbEntity
  8
0
  6
Continuous
 62
     7
370
    25
100
AcDbLine
 10
-82.615367544
 20
52.8788710036
 30
0.0
 11
-90.6145585551
 21
52.8788710036
 31
0.0
  0
LINE
  5
434
330
1B
100
AcDbEntity
  8
0
  6
Continuous
 62
     7
370
    25
100
AcDbLine
 10
-74.1145585551
 20
32.5
 30
0.0
 11
-74.1145585551
 21
47.5
 31
0.0
  0
LINE
  5
435
330
1B
100
AcDbEntity
  8
0
  6
Continuous
 62
     7
370
    25
100
AcDbLine
 10
-66.6145585551
 20
40.0
 30
0.0
 11
-81.6145585551
 21
40.0
 31
0.0
  0
LINE
  5
436
330
1B
100
AcDbEntity
  8
0
  6
Continuous
 62
     7
370
    25
100
AcDbLine
 10
-72.6145585551
 20
46.0
 30
0.0
 11
-72.6145585551
 21
34.0
 31
0.0
  0
LINE
  5
437
330
1B
100
AcDbEntity
  8
0
  6
Continuous
 62
     7
370
    25
100
AcDbLine
 10
-90.6145585551
 20
113.9129675303
 30
0.0
 11
-91.6145585551
 21
114.0901235852
 31
0.0
  0
LINE
  5
438
330
1B
100
AcDbEntity
  8
0
  6
Continuous
 62
     7
370
    25
100
AcDbLine
 10
-80.203152304
 20
112.8186846383
 30
0.0
 11
-90.6145585551
 21
113.9129675303
 31
0.0
  0
LINE
  5
439
330
1B
100
AcDbEntity
  8
0
  6
Continuous
 62
     7
370
    25
100
AcDbLine
 10
-90.6145585551
 20
113.9129675303
 30
0.0
 11
-90.6200366597
 21
114.8954715367
 31
0.0
  0
LINE
  5
43A
330
1B
100
AcDbEntity
  8
0
  6
Continuous
 62
     7
370
    25
100
AcDbLine
 10
-90.6200366597
 20
114.8954715367
 30
0.0
 11
-80.1617303793
 21
113.796259253
 31
0.0
  0
LINE
  5
43B
330
1B
100
AcDbEntity
  8
0
  6
Continuous
 62
     7
370
    25
100
AcDbLine
 10
-80.203152304
 20
112.8186846383
 30
0.0
 11
-80.1617303793
 21
113.796259253
 31
0.0
  0
LINE
  5
43C
330
1B
100
AcDbEntity
  8
0
  6
Continuous
 62
     7
370
    25
100
AcDbLine
 10
-90.6200366597
 20
114.8954715367
 30
0.0
 11
-91.6145585551
 21
114.0901235852
 31
0.0
  0
LINE
  5
43D
330
1B
100
AcDbEntity
  8
0
  6
Continuous
 62
     7
370
    25
100
AcDbLine
 10
-82.615367544
 20
52.8788710036
 30
0.0
 11
-80.203152304
 21
112.8186846383
 31
0.0
  0
LINE
  5
43E
330
1B
100
AcDbEntity
  8
0
  6
Continuous
 62
     7
370
    25
100
AcDbLine
 10
-79.2102859204
 20
112.621323196
 30
0.0
 11
-80.1617303793
 21
113.796259253
 31
0.0
  0
LINE
  5
43F
330
1B
100
AcDbEntity
  8
0
  6
Continuous
 62
     7
370
    25
100
AcDbLine
 10
-80.203152304
 20
112.8186846383
 30
0.0
 11
-79.2102859204
 21
112.621323196
 31
0.0
  0
LINE
  5
440
330
1B
100
AcDbEntity
  8
0
  6
Continuous
 62
     7
370
    25
100
AcDbLine
 10
-79.2102859204
 20
112.621323196
 30
0.0
 11
-81.6145585551
 21
52.8788710036
 31
0.0
  0
LINE
  5
441
330
1B
100
AcDbEntity
  8
0
  6
Continuous
 62
     7
370
    25
100
AcDbLine
 10
3.1854414449
 20
-61.0
 30
0.0
 11
-20.6145585551
 21
-61.0
 31
0.0
  0
LINE
  5
442
330
1B
100
AcDbEntity
  8
0
  6
Continuous
 62
     7
370
    25
100
AcDbLine
 10
-26.6145585551
 20
-61.0
 30
0.0
 11
-31.3145585551
 21
-61.0
 31
0.0
  0
LINE
  5
443
330
1B
100
AcDbEntity
  8
0
  6
Continuous
 62
     7
370
    25
100
AcDbLine
 10
-31.3145585551
 20
-19.0
 30
0.0
 11
-31.3145585551
 21
-61.0
 31
0.0
  0
LINE
  5
444
330
1B
100
AcDbEntity
  8
0
  6
Continuous
 62
     7
370
    25
100
AcDbLine
 10
3.1854414449
 20
-19.0
 30
0.0
 11
-20.6145585551
 21
-19.0
 31
0.0
  0
LINE
  5
445
330
1B
100
AcDbEntity
  8
0
  6
Continuous
 62
     7
370
    25
100
AcDbLine
 10
-26.6145585551
 20
-19.0
 30
0.0
 11
-31.3145585551
 21
-19.0
 31
0.0
  0
LINE
  5
446
330
1B
100
AcDbEntity
  8
0
  6
Continuous
 62
     7
370
    25
100
AcDbLine
 10
3.1854414449
 20
-61.0
 30
0.0
 11
3.1854414449
 21
-19.0
 31
0.0
  0
LINE
  5
447
330
1B
100
AcDbEntity
  8
0
  6
Continuous
 62
     8
370
    25
100
AcDbLine
 10
-66.6145585551
 20
-35.7573593129
 30
0.0
 11
-72.6145585551
 21
-35.7573593129
 31
0.0
  0
ARC
  5
448
330
1B
100
AcDbEntity
  8
0
  6
Continuous
 62
     7
370
    25
100
AcDbCircle
 10
-51.6145585551
 20
-24.605
 30
0.0
 40
8.10500000000001
100
AcDbArc
 50
63.4438719881
 51
116.5561280119
  0
ARC
  5
449
330
1B
100
AcDbEntity
  8
0
  6
Continuous
 62
     7
370
    25
100
AcDbCircle
 10
-33.3299663845
 20
-39.7810888066
 30
0.0
 40
4.170666976524707
100
AcDbArc
 50
89.8212771686
 51
97.1495687092
  0
ARC
  5
44A
330
1B
100
AcDbEntity
  8
0
  6
Continuous
 62
     7
370
    25
100
AcDbCircle
 10
-48.2145585551
 20
-17.8023516187
 30
0.0
 40
0.5000000000000071
100
AcDbArc
 50
0.0
 51
63.4438719881
  0
ARC
  5
44B
330
1B
100
AcDbEntity
  8
0
  6
Continuous
 62
     7
370
    25
100
AcDbCircle
 10
-55.0145585551
 20
-17.8023516187
 30
0.0
 40
0.5000000000000213
100
AcDbArc
 50
116.5561280119
 51
180.0
  0
ARC
  5
44C
330
1B
100
AcDbEntity
  8
0
  6
Continuous
 62
     7
370
    25
100
AcDbCircle
 10
-21.195256524
 20
72.0152340298
 30
0.0
 40
4.83097570898765
100
AcDbArc
 50
169.4576824175
 51
190.5423175825
  0
ARC
  5
44D
330
1B
100
AcDbEntity
  8
0
  6
Continuous
 62
     7
370
    25
100
AcDbCircle
 10
-21.195256524
 20
-72.0152340298
 30
0.0
 40
4.830975708987847
100
AcDbArc
 50
169.4576824175
 51
190.5423175825
  0
ARC
  5
44E
330
1B
100
AcDbEntity
  8
0
  6
Continuous
 62
     7
370
    25
100
AcDbCircle
 10
-23.8205060513
 20
-71.0833830459
 30
0.0
 40
2.794464219751455
100
AcDbArc
 50
180.9835412082
 51
220.5236007592
  0
ARC
  5
44F
330
1B
100
AcDbEntity
  8
0
  6
Continuous
 62
     7
370
    25
100
AcDbCircle
 10
-23.8205060513
 20
71.0833830459
 30
0.0
 40
2.794464219751077
100
AcDbArc
 50
139.4763992408
 51
179.0164587918
  0
ARC
  5
450
330
1B
100
AcDbEntity
  8
0
  6
Continuous
 62
     7
370
    25
100
AcDbCircle
 10
-23.8205060513
 20
90.6122865303
 30
0.0
 40
2.794464219751302
100
AcDbArc
 50
139.4763992408
 51
179.0164587918
  0
ARC
  5
451
330
1B
100
AcDbEntity
  8
0
  6
Continuous
 62
     7
370
    25
100
AcDbCircle
 10
-23.8205060513
 20
-90.6122865303
 30
0.0
 40
2.79446421975165
100
AcDbArc
 50
180.9835412082
 51
220.5236007591
  0
ARC
  5
452
330
1B
100
AcDbEntity
  8
0
  6
Continuous
 62
     7
370
    25
100
AcDbCircle
 10
-25.1659368604
 20
-92.7941375143
 30
0.0
 40
0.860517790407565
100
AcDbArc
 50
154.8201706754
 51
205.1798293246
  0
ARC
  5
453
330
1B
100
AcDbEntity
  8
0
  6
Continuous
 62
     7
370
    25
100
AcDbCircle
 10
-25.1659368604
 20
92.7941375143
 30
0.0
 40
0.8605177904075043
100
AcDbArc
 50
154.8201706754
 51
205.1798293246
  0
ARC
  5
454
330
1B
100
AcDbEntity
  8
0
  6
Continuous
 62
     7
370
    25
100
AcDbCircle
 10
-21.6145585551
 20
90.6602540378
 30
0.0
 40
5.000000000000167
100
AcDbArc
 50
150.0
 51
180.0
  0
ARC
  5
455
330
1B
100
AcDbEntity
  8
0
  6
Continuous
 62
     7
370
    25
100
AcDbCircle
 10
-21.6145585551
 20
-90.6602540378
 30
0.0
 40
4.999999999999952
100
AcDbArc
 50
180.0
 51
210.0
  0
ARC
  5
456
330
1B
100
AcDbEntity
  8
0
  6
Continuous
 62
     7
370
    25
100
AcDbCircle
 10
-33.3175108299
 20
59.5290330853
 30
0.0
 40
1.016363456570228
100
AcDbArc
 50
89.9687695473
 51
121.5322730791
  0
VIEWPORT
  5
57F
330
1B
100
AcDbEntity
  8
0
100
AcDbViewport
 10
0.0
 20
0.0
 30
0.0
 40
205.6
 41
156.0
 68
     1
 69
     1
 12
0.0
 22
7.4477357684
 13
0.0
 23
0.0
 14
10.0
 24
10.0
 15
10.0
 25
10.0
 16
0.0
 26
0.0
 36
1.0
 17
0.0
 27
0.0
 37
0.0
 42
50.0
 43
0.0
 44
0.0
 45
219.1933809675
 50
0.0
 51
0.0
 72
   100
 90
   557152
  1

281
     0
 71
     1
 74
     0
110
0.0
120
0.0
130
0.0
111
1.0
121
0.0
131
0.0
112
0.0
122
1.0
132
0.0
 79
     0
146
0.0
  0
ENDBLK
  5
1D
330
1B
100
AcDbEntity
  8
0
100
AcDbBlockEnd
  0
ENDSEC
  0
SECTION
  2
ENTITIES
  0
SPLINE
  5
87
330
1F
100
AcDbEntity
  8
0
  6
Continuous
 62
     7
370
    25
100
AcDbSpline
210
0.0
220
0.0
230
1.0
 70
     8
 71
     3
 72
    31
 73
    27
 74
     0
 42
0.000000001
 43
0.00000001
 40
0.0
 40
0.0
 40
0.0
 40
0.0
 40
0.0156173649469376
 40
0.031192153769683
 40
0.0467636561236687
 40
0.0623711035681263
 40
0.0936995292221714
 40
0.1250686384591668
 40
0.1563164836617979
 40
0.1876256378124751
 40
0.2500494726479762
 40
0.3126865807284372
 40
0.3749617621630112
 40
0.4375970080564492
 40
0.4999420357708053
 40
0.5624607324313831
 40
0.6250399506923443
 40
0.6873713820688844
 40
0.7500285353067989
 40
0.8123406306511755
 40
0.8436872712314393
 40
0.8749881793823377
 40
0.9062683004348346
 40
0.9375224327587381
 40
0.9687512128764544
 40
1.0
 40
1.0
 40
1.0
 40
1.0
 10
3.999999999999994
 20
-21.42014246101636
 30
0.0
 10
3.999081176337149
 20
-21.42228130575015
 30
0.0
 10
3.997246033912286
 20
-21.42655316429048
 30
0.0
 10
3.982329926787965
 20
-21.43032840662827
 30
0.0
 10
3.958499489306107
 20
-21.43217554786827
 30
0.0
 10
3.913698948667593
 20
-21.43187458685739
 30
0.0
 10
3.83402281913135
 20
-21.42654203874116
 30
0.0
 10
3.701051371271995
 20
-21.41270844167991
 30
0.0
 10
3.532672156958218
 20
-21.39251798359549
 30
0.0
 10
3.26336179157401
 20
-21.35865693092899
 30
0.0
 10
2.846057500092663
 20
-21.30652197812494
 30
0.0
 10
2.237491602926303
 20
-21.24045508203859
 30
0.0
 10
1.541946699451533
 20
-21.18266313076855
 30
0.0
 10
0.7871212153054125
 20
-21.14341096443388
 30
0.0
 10
0.0001341177905554
 20
-21.12949967600685
 30
0.0
 10
-0.7866688853770267
 20
-21.143387113817
 30
0.0
 10
-1.542172294528461
 20
-21.1826780859487
 30
0.0
 10
-2.237790315677537
 20
-21.24048082417459
 30
0.0
 10
-2.846169174515599
 20
-21.30653886354869
 30
0.0
 10
-3.263305958846466
 20
-21.35864895570084
 30
0.0
 10
-3.532634331442589
 20
-21.39251451970523
 30
0.0
 10
-3.700964535236307
 20
-21.41269523985755
 30
0.0
 10
-3.833938611988934
 20
-21.42654530292995
 30
0.0
 10
-3.928885739407387
 20
-21.43283384200779
 30
0.0
 10
-3.988936953245418
 20
-21.43178479786102
 30
0.0
 10
-3.996311530568819
 20
-21.42402406836304
 30
0.0
 10
-4.000000000000018
 20
-21.42014246101637
 30
0.0
  0
SPLINE
  5
8A
330
1F
100
AcDbEntity
  8
0
  6
Continuous
 62
     7
370
    25
100
AcDbSpline
210
0.0
220
0.0
230
1.0
 70
    24
 71
     3
 72
    14
 73
    10
 74
     0
 42
0.000000001
 43
0.00000001
 40
0.0
 40
0.0
 40
0.0
 40
0.0
 40
0.4999999999999983
 40
0.6249999999999983
 40
0.6249999999999983
 40
0.6874999999999983
 40
0.6874999999999983
 40
0.7499999999999983
 40
1.0
 40
1.0
 40
1.0
 40
1.0
 10
-19.25
 20
-40.0
 30
0.0
 10
-19.31448810700783
 20
-39.99999999999999
 30
0.0
 10
-19.42420417865011
 20
-39.99999999999999
 30
0.0
 10
-19.57428252642342
 20
-39.99999999999999
 30
0.0
 10
-19.62178746512995
 20
-39.99999999999999
 30
0.0
 10
-19.64132582944493
 20
-40.0
 30
0.0
 10
-19.70477802899319
 20
-39.99999999999998
 30
0.0
 10
-19.91156552825856
 20
-40.00000000000001
 30
0.0
 10
-20.35404541418277
 20
-40.0
 30
0.0
 10
-20.845835355178
 20
-40.0
 30
0.0
  0
SPLINE
  5
8B
330
1F
100
AcDbEntity
  8
0
  6
Continuous
 62
     7
370
    25
100
AcDbSpline
210
0.0
220
0.0
230
1.0
 70
     8
 71
     3
 72
     8
 73
     4
 74
     0
 42
0.000000001
 43
0.00000001
 40
0.0
 40
0.0
 40
0.0
 40
0.0
 40
1.0
 40
1.0
 40
1.0
 40
1.0
 10
20.84583535517798
 20
-40.0
 30
0.0
 10
20.84600585089925
 20
-38.53683356476002
 30
0.0
 10
20.69130492606472
 20
-37.07384071567702
 30
0.0
 10
20.38626063749923
 20
-35.64285029105621
 30
0.0
  0
SPLINE
  5
8C
330
1F
100
AcDbEntity
  8
0
  6
Continuous
 62
     7
370
    25
100
AcDbSpline
210
0.0
220
0.0
230
1.0
 70
    24
 71
     3
 72
    14
 73
    10
 74
     0
 42
0.000000001
 43
0.00000001
 40
0.0
 40
0.0
 40
0.0
 40
0.0
 40
0.5000000000000056
 40
0.6250000000000054
 40
0.6250000000000054
 40
0.6875000000000054
 40
0.6875000000000054
 40
0.7500000000000053
 40
1.0
 40
1.0
 40
1.0
 40
1.0
 10
19.25
 20
-40.0
 30
0.0
 10
19.31448810700783
 20
-40.0
 30
0.0
 10
19.42420417865011
 20
-40.0
 30
0.0
 10
19.57428252642342
 20
-40.00000000000001
 30
0.0
 10
19.62178746512995
 20
-40.0
 30
0.0
 10
19.64132582944493
 20
-40.0
 30
0.0
 10
19.70477802899319
 20
-40.0
 30
0.0
 10
19.91156552825856
 20
-40.0
 30
0.0
 10
20.35404541418276
 20
-40.0
 30
0.0
 10
20.84583535517795
 20
-40.0
 30
0.0
  0
SPLINE
  5
8D
330
1F
100
AcDbEntity
  8
0
  6
Continuous
 62
     7
370
    25
100
AcDbSpline
210
0.0
220
0.0
230
1.0
 70
     8
 71
     3
 72
     8
 73
     4
 74
     0
 42
0.000000001
 43
0.00000001
 40
0.0
 40
0.0
 40
0.0
 40
0.0
 40
1.0
 40
1.0
 40
1.0
 40
1.0
 10
-20.84583535517799
 20
-40.0
 30
0.0
 10
-20.84600585040026
 20
-41.46317949695325
 30
0.0
 10
-20.69130215708394
 20
-42.92618540434895
 30
0.0
 10
-20.38625246214049
 20
-44.3571880311408
 30
0.0
  0
SPLINE
  5
8F
330
1F
100
AcDbEntity
  8
0
  6
Continuous
 62
     7
370
    25
100
AcDbSpline
210
0.0
220
0.0
230
1.0
 70
     8
 71
     3
 72
     8
 73
     4
 74
     0
 42
0.000000001
 43
0.00000001
 40
0.0
 40
0.0
 40
0.0
 40
0.0
 40
1.0
 40
1.0
 40
1.0
 40
1.0
 10
20.53610921334455
 20
-35.61044212048807
 30
0.0
 10
20.84422607937623
 20
-37.05193618093404
 30
0.0
 10
21.00000000000001
 20
-38.52594398700933
 30
0.0
 10
21.0
 20
-40.00000000000009
 30
0.0
  0
SPLINE
  5
90
330
1F
100
AcDbEntity
  8
0
  6
Continuous
 62
     7
370
    25
100
AcDbSpline
210
0.0
220
0.0
230
1.0
 70
     8
 71
     3
 72
    17
 73
    13
 74
     0
 42
0.000000001
 43
0.00000001
 40
0.0
 40
0.0
 40
0.0
 40
0.0
 40
0.2052201467646414
 40
0.3911348778225598
 40
0.5577395035023335
 40
0.7050298267263081
 40
0.7554606272660475
 40
0.8058914137211338
 40
0.8563221926927227
 40
0.9067529707819763
 40
0.9571837545900539
 40
0.9999999999999999
 40
0.9999999999999999
 40
0.9999999999999999
 40
0.9999999999999999
 10
21.0
 20
-40.0
 30
0.0
 10
20.97709704399026
 20
-40.74773098844489
 30
0.0
 10
20.93344565282874
 20
-42.17285261232205
 30
0.0
 10
20.60712769488613
 20
-44.18273075436834
 30
0.0
 10
20.16438953126482
 20
-45.94987666926912
 30
0.0
 10
19.73518115571625
 20
-47.20701403984338
 30
0.0
 10
19.39996131929837
 20
-48.04630983693819
 30
0.0
 10
19.18216554114522
 20
-48.55248184794806
 30
0.0
 10
18.95126818690552
 20
-49.05281200120127
 30
0.0
 10
18.70698028915342
 20
-49.54671722508073
 30
0.0
 10
18.46397186361581
 20
-50.01021447550961
 30
0.0
 10
18.29630614306512
 20
-50.30553988024129
 30
0.0
 10
18.21931906156626
 20
-50.4411444685142
 30
0.0
  0
SPLINE
  5
91
330
1F
100
AcDbEntity
  8
0
  6
Continuous
 62
     7
370
    25
100
AcDbSpline
210
0.0
220
0.0
230
1.0
 70
     8
 71
     3
 72
    22
 73
    18
 74
     0
 42
0.000000001
 43
0.00000001
 40
0.0
 40
0.0
 40
0.0
 40
0.0
 40
0.0469369432177041
 40
0.1056836137754294
 40
0.1644302822278778
 40
0.2231769536195287
 40
0.2819236329948582
 40
0.3406703253983424
 40
0.3994170358744532
 40
0.4394200484890849
 40
0.4869259847451755
 40
0.5419341340020498
 40
0.6044436673497566
 40
0.6744536394229594
 40
0.7519629893447975
 40
0.9279690020903589
 40
0.9999999999999999
 40
0.9999999999999999
 40
0.9999999999999999
 40
0.9999999999999999
 10
10.43549180406957
 20
-58.21366639712156
 30
0.0
 10
10.13850911544921
 20
-58.3823037530512
 30
0.0
 10
9.469820410763738
 20
-58.76200903359143
 30
0.0
 10
8.383801241173904
 20
-59.26625952929915
 30
0.0
 10
7.19357173890226
 20
-59.74385559209146
 30
0.0
 10
5.975187067894457
 20
-60.14548195208183
 30
0.0
 10
4.734892243705577
 20
-60.47267498653058
 30
0.0
 10
3.476871661475746
 20
-60.72340215025092
 30
0.0
 10
2.34103603170612
 20
-60.87849162410902
 30
0.0
 10
1.280685807887265
 20
-60.96818336647049
 30
0.0
 10
0.2443874461378703
 20
-61.00851476393611
 30
0.0
 10
-0.9565764534377215
 20
-60.99136678770513
 30
0.0
 10
-2.317461941297701
 20
-60.88810059317777
 30
0.0
 10
-3.831843139370215
 20
-60.67005743185751
 30
0.0
 10
-6.123309251664
 20
-60.14273582361011
 30
0.0
 10
-8.403503400513605
 20
-59.39522956457726
 30
0.0
 10
-9.934782099717953
 20
-58.43616338728459
 30
0.0
 10
-10.37947191633083
 20
-58.15764650938285
 30
0.0
  0
SPLINE
  5
92
330
1F
100
AcDbEntity
  8
0
  6
Continuous
 62
     7
370
    25
100
AcDbSpline
210
0.0
220
0.0
230
1.0
 70
     8
 71
     3
 72
    16
 73
    12
 74
     0
 42
0.000000001
 43
0.00000001
 40
0.0
 40
0.0
 40
0.0
 40
0.0
 40
0.013411377707769
 40
0.1115798754233889
 40
0.2097483807057104
 40
0.3079169121598724
 40
0.4060854883910112
 40
0.489080914436503
 40
0.615735969409061
 40
0.786044920244968
 40
0.9999999999999999
 40
0.9999999999999999
 40
0.9999999999999999
 40
0.9999999999999999
 10
-18.21915872338673
 20
-50.44098413033472
 30
0.0
 10
-18.23393799038047
 20
-50.41593678682054
 30
0.0
 10
-18.35689842039318
 20
-50.20754809403333
 30
0.0
 10
-18.57196610565133
 20
-49.8065576566749
 30
0.0
 10
-18.8628763459796
 20
-49.23802201131528
 30
0.0
 10
-19.13471254836527
 20
-48.65999182198934
 30
0.0
 10
-19.37614438288612
 20
-48.10437781190887
 30
0.0
 10
-19.62490859691433
 20
-47.48487538496784
 30
0.0
 10
-19.9063016865725
 20
-46.71035591195726
 30
0.0
 10
-20.24103099055755
 20
-45.65330956448966
 30
0.0
 10
-20.4305681924422
 20
-44.84156772461172
 30
0.0
 10
-20.5361009613652
 20
-44.38959648539765
 30
0.0
  0
SPLINE
  5
94
330
1F
100
AcDbEntity
  8
0
  6
Continuous
 62
     7
370
    25
100
AcDbSpline
210
0.0
220
0.0
230
1.0
 70
     8
 71
     3
 72
     8
 73
     4
 74
     0
 42
0.000000001
 43
0.00000001
 40
0.0
 40
0.0
 40
0.0
 40
0.0
 40
1.0
 40
1.0
 40
1.0
 40
1.0
 10
-20.5361009613652
 20
-44.38959648539764
 30
0.0
 10
-20.84422328793537
 20
-42.9480901355668
 30
0.0
 10
-20.99999999999812
 20
-41.47406917232959
 30
0.0
 10
-21.0
 20
-40.00000000002673
 30
0.0
  0
SPLINE
  5
95
330
1F
100
AcDbEntity
  8
0
  6
Continuous
 62
     7
370
    25
100
AcDbSpline
210
0.0
220
0.0
230
1.0
 70
     8
 71
     3
 72
    18
 73
    14
 74
     0
 42
0.000000001
 43
0.00000001
 40
0.0
 40
0.0
 40
0.0
 40
0.0
 40
0.1659160199198033
 40
0.3192616150255383
 40
0.4600351476879866
 40
0.5882351164715783
 40
0.703860156808308
 40
0.7540733898005598
 40
0.8042866086536878
 40
0.8544998199789468
 40
0.9047130303875935
 40
0.9549262464908809
 40
1.0
 40
1.0
 40
1.0
 40
1.0
 10
-21.0
 20
-40.00000000002676
 30
0.0
 10
-20.9850133275942
 20
-39.39551891367298
 30
0.0
 10
-20.95617542973206
 20
-38.23235451294193
 30
0.0
 10
-20.73701291258839
 20
-36.56842581167169
 30
0.0
 10
-20.42881545610854
 20
-35.06045109833537
 30
0.0
 10
-20.05072488830838
 20
-33.71050434178607
 30
0.0
 10
-19.69725483343279
 20
-32.69888523744048
 30
0.0
 10
-19.40581129956424
 20
-31.96788040039266
 30
0.0
 10
-19.18934158323362
 20
-31.4636723626114
 30
0.0
 10
-18.95985438083203
 20
-30.96524898201247
 30
0.0
 10
-18.71712070866592
 20
-30.47316547127428
 30
0.0
 10
-18.47142884721592
 20
-30.00352391963731
 30
0.0
 10
-18.30041190478703
 20
-29.70151764590552
 30
0.0
 10
-18.21951547644769
 20
-29.55865911660434
 30
0.0
  0
SPLINE
  5
96
330
1F
100
AcDbEntity
  8
0
  6
Continuous
 62
     7
370
    25
100
AcDbSpline
210
0.0
220
0.0
230
1.0
 70
     8
 71
     3
 72
    13
 73
     9
 74
     0
 42
0.000000001
 43
0.00000001
 40
0.0
 40
0.0
 40
0.0
 40
0.0
 40
0.1450086398892604
 40
0.3281162815191944
 40
0.5112239165875815
 40
0.6943315607964428
 40
0.8774392298477971
 40
1.0
 40
1.0
 40
1.0
 40
1.0
 10
-10.43539452287139
 20
-21.78643088407661
 30
0.0
 10
-10.14112353100775
 20
-21.6191830438131
 30
0.0
 10
-9.475265940156627
 20
-21.24074532119678
 30
0.0
 10
-8.392240836712332
 20
-20.7375861617396
 30
0.0
 10
-7.20248629376222
 20
-20.25885871409207
 30
0.0
 10
-5.983953546822026
 20
-19.85908912396483
 30
0.0
 10
-4.882134539923012
 20
-19.55966555888221
 30
0.0
 10
-4.181090507084122
 20
-19.42723386929799
 30
0.0
 10
-3.9
 20
-19.3741340795052
 30
0.0
  0
SPLINE
  5
97
330
1F
100
AcDbEntity
  8
0
  6
Continuous
 62
     7
370
    25
100
AcDbSpline
210
0.0
220
0.0
230
1.0
 70
     8
 71
     3
 72
    10
 73
     6
 74
     0
 42
0.000000001
 43
0.00000001
 40
0.0
 40
0.0
 40
0.0
 40
0.0
 40
0.2222840534049213
 40
0.773150377238562
 40
1.0
 40
1.0
 40
1.0
 40
1.0
 10
3.900000000000005
 20
-19.37060426347276
 30
0.0
 10
4.405050948653649
 20
-19.47781658999376
 30
0.0
 10
6.161723663114838
 20
-19.85072346039051
 30
0.0
 10
8.396324742908062
 20
-20.60399868641463
 30
0.0
 10
9.931521393804587
 20
-21.56282884313766
 30
0.0
 10
10.3793182824311
 20
-21.84250712451685
 30
0.0
  0
SPLINE
  5
98
330
1F
100
AcDbEntity
  8
0
  6
Continuous
 62
     7
370
    25
100
AcDbSpline
210
0.0
220
0.0
230
1.0
 70
     8
 71
     3
 72
    16
 73
    12
 74
     0
 42
0.000000001
 43
0.00000001
 40
0.0
 40
0.0
 40
0.0
 40
0.0
 40
0.0140426280883532
 40
0.1127547579661898
 40
0.2114668952924826
 40
0.3101790584620415
 40
0.4088912658696658
 40
0.4908593356381477
 40
0.6167043287154552
 40
0.7864204896186733
 40
1.0
 40
1.0
 40
1.0
 40
1.0
 10
18.2191201223888
 20
-29.55905447066321
 30
0.0
 10
18.23459393201772
 20
-29.58528157274391
 30
0.0
 10
18.35884030873193
 20
-29.79587110973503
 30
0.0
 10
18.57557298487838
 20
-30.20020232702866
 30
0.0
 10
18.86783346169981
 20
-30.77202385097463
 30
0.0
 10
19.14081910990201
 20
-31.35342650161727
 30
0.0
 10
19.38186707501334
 20
-31.90935301900551
 30
0.0
 10
19.62914637775527
 20
-32.52642851209163
 30
0.0
 10
19.90841389203932
 20
-33.29611410023458
 30
0.0
 10
20.24174843165885
 20
-34.34955317551037
 30
0.0
 10
20.43077826047694
 20
-35.15925893883531
 30
0.0
 10
20.53610921334455
 20
-35.61044212048805
 30
0.0
  0
SPLINE
  5
130
330
1F
100
AcDbEntity
  8
0
  6
Continuous
 62
     7
370
    25
100
AcDbSpline
210
0.0
220
0.0
230
1.0
 70
     8
 71
     3
 72
     8
 73
     4
 74
     0
 42
0.000000001
 43
0.00000001
 40
0.0
 40
0.0
 40
0.0
 40
0.0
 40
1.0
 40
1.0
 40
1.0
 40
1.0
 10
-43.9231125887269
 20
99.9001638065556
 30
0.0
 10
-44.54818309027491
 20
99.77334501719272
 30
0.0
 10
-45.15921352538869
 20
99.52024792394592
 30
0.0
 10
-45.69087954169331
 20
99.16793075952201
 30
0.0
  0
SPLINE
  5
133
330
1F
100
AcDbEntity
  8
0
  6
Continuous
 62
     7
370
    25
100
AcDbSpline
210
0.0
220
0.0
230
1.0
 70
     8
 71
     3
 72
     8
 73
     4
 74
     0
 42
0.000000001
 43
0.00000001
 40
0.0
 40
0.0
 40
0.0
 40
0.0
 40
1.0
 40
1.0
 40
1.0
 40
1.0
 10
-69.9001638065557
 20
-73.9231125887269
 30
0.0
 10
-69.77334501719272
 20
-74.54818309027492
 30
0.0
 10
-69.52024792394593
 20
-75.15921352538868
 30
0.0
 10
-69.16793075952201
 20
-75.6908795416933
 30
0.0
  0
SPLINE
  5
136
330
1F
100
AcDbEntity
  8
0
  6
Continuous
 62
     7
370
    25
100
AcDbSpline
210
0.0
220
0.0
230
1.0
 70
     8
 71
     3
 72
     8
 73
     4
 74
     0
 42
0.000000001
 43
0.00000001
 40
0.0
 40
0.0
 40
0.0
 40
0.0
 40
1.0
 40
1.0
 40
1.0
 40
1.0
 10
69.16793075952201
 20
-75.6908795416933
 30
0.0
 10
69.52024792394593
 20
-75.15921352538868
 30
0.0
 10
69.77334501719272
 20
-74.54818309027492
 30
0.0
 10
69.9001638065556
 20
-73.9231125887269
 30
0.0
  0
SPLINE
  5
139
330
1F
100
AcDbEntity
  8
0
  6
Continuous
 62
     7
370
    25
100
AcDbSpline
210
0.0
220
0.0
230
1.0
 70
     8
 71
     3
 72
     8
 73
     4
 74
     0
 42
0.000000001
 43
0.00000001
 40
0.0
 40
0.0
 40
0.0
 40
0.0
 40
1.0
 40
1.0
 40
1.0
 40
1.0
 10
45.69087954169331
 20
99.16793075952201
 30
0.0
 10
45.15921352538869
 20
99.52024792394592
 30
0.0
 10
44.54818309027491
 20
99.77334501719272
 30
0.0
 10
43.9231125887269
 20
99.9001638065556
 30
0.0
  0
SPLINE
  5
13C
330
1F
100
AcDbEntity
  8
0
  6
Continuous
 62
     7
370
    25
100
AcDbSpline
210
0.0
220
0.0
230
1.0
 70
     8
 71
     3
 72
     8
 73
     4
 74
     0
 42
0.000000001
 43
0.00000001
 40
0.0
 40
0.0
 40
0.0
 40
0.0
 40
1.0
 40
1.0
 40
1.0
 40
1.0
 10
69.9001638065557
 20
73.9231125887269
 30
0.0
 10
69.77334501719272
 20
74.5481830902748
 30
0.0
 10
69.52024792394593
 20
75.15921352538858
 30
0.0
 10
69.16793075952201
 20
75.6908795416933
 30
0.0
  0
SPLINE
  5
13F
330
1F
100
AcDbEntity
  8
0
  6
Continuous
 62
     7
370
    25
100
AcDbSpline
210
0.0
220
0.0
230
1.0
 70
     8
 71
     3
 72
     8
 73
     4
 74
     0
 42
0.000000001
 43
0.00000001
 40
0.0
 40
0.0
 40
0.0
 40
0.0
 40
1.0
 40
1.0
 40
1.0
 40
1.0
 10
43.9231125887269
 20
-99.9001638065556
 30
0.0
 10
44.54818309027491
 20
-99.77334501719272
 30
0.0
 10
45.15921352538869
 20
-99.52024792394592
 30
0.0
 10
45.69087954169331
 20
-99.16793075952201
 30
0.0
  0
SPLINE
  5
142
330
1F
100
AcDbEntity
  8
0
  6
Continuous
 62
     7
370
    25
100
AcDbSpline
210
0.0
220
0.0
230
1.0
 70
     8
 71
     3
 72
     8
 73
     4
 74
     0
 42
0.000000001
 43
0.00000001
 40
0.0
 40
0.0
 40
0.0
 40
0.0
 40
1.0
 40
1.0
 40
1.0
 40
1.0
 10
-45.69087954169331
 20
-99.16793075952201
 30
0.0
 10
-45.15921352538864
 20
-99.52024792394582
 30
0.0
 10
-44.54818309027487
 20
-99.77334501719263
 30
0.0
 10
-43.92311258872695
 20
-99.9001638065556
 30
0.0
  0
SPLINE
  5
144
330
1F
100
AcDbEntity
  8
0
  6
Continuous
 62
     7
370
    25
100
AcDbSpline
210
0.0
220
0.0
230
1.0
 70
     8
 71
     3
 72
     8
 73
     4
 74
     0
 42
0.000000001
 43
0.00000001
 40
0.0
 40
0.0
 40
0.0
 40
0.0
 40
1.0
 40
1.0
 40
1.0
 40
1.0
 10
-69.9001638065557
 20
73.9231125887269
 30
0.0
 10
-69.77334501719272
 20
74.54818309027492
 30
0.0
 10
-69.52024792394593
 20
75.15921352538858
 30
0.0
 10
-69.16793075952201
 20
75.6908795416933
 30
0.0
  0
SPLINE
  5
146
330
1F
100
AcDbEntity
  8
0
  6
Continuous
 62
     7
370
    25
100
AcDbSpline
210
0.0
220
0.0
230
1.0
 70
     8
 71
     3
 72
     8
 73
     4
 74
     0
 42
0.000000001
 43
0.00000001
 40
0.0
 40
0.0
 40
0.0
 40
0.0
 40
1.0
 40
1.0
 40
1.0
 40
1.0
 10
-46.4644660940673
 20
-98.5355339059327
 30
0.0
 10
-46.22895696067003
 20
-98.77104303932995
 30
0.0
 10
-45.96851392092737
 20
-98.98395180612147
 30
0.0
 10
-45.69087954169331
 20
-99.16793075952201
 30
0.0
  0
SPLINE
  5
148
330
1F
100
AcDbEntity
  8
0
  6
Continuous
 62
     7
370
    25
100
AcDbSpline
210
0.0
220
0.0
230
1.0
 70
     8
 71
     3
 72
     8
 73
     4
 74
     0
 42
0.000000001
 43
0.00000001
 40
0.0
 40
0.0
 40
0.0
 40
0.0
 40
1.0
 40
1.0
 40
1.0
 40
1.0
 10
-69.16793075952201
 20
-75.6908795416933
 30
0.0
 10
-68.98395180612157
 20
-75.96851392092735
 30
0.0
 10
-68.77104303932998
 20
-76.22895696067
 30
0.0
 10
-68.5355339059327
 20
-76.46446609406719
 30
0.0
  0
SPLINE
  5
149
330
1F
100
AcDbEntity
  8
0
  6
Continuous
 62
     7
370
    25
100
AcDbSpline
210
0.0
220
0.0
230
1.0
 70
     8
 71
     3
 72
     8
 73
     4
 74
     0
 42
0.000000001
 43
0.00000001
 40
0.0
 40
0.0
 40
0.0
 40
0.0
 40
1.0
 40
1.0
 40
1.0
 40
1.0
 10
-45.69087954169331
 20
99.16793075952201
 30
0.0
 10
-45.96851392092737
 20
98.98395180612155
 30
0.0
 10
-46.22895696067003
 20
98.77104303932995
 30
0.0
 10
-46.4644660940673
 20
98.5355339059327
 30
0.0
  0
SPLINE
  5
14A
330
1F
100
AcDbEntity
  8
0
  6
Continuous
 62
     7
370
    25
100
AcDbSpline
210
0.0
220
0.0
230
1.0
 70
     8
 71
     3
 72
     8
 73
     4
 74
     0
 42
0.000000001
 43
0.00000001
 40
0.0
 40
0.0
 40
0.0
 40
0.0
 40
1.0
 40
1.0
 40
1.0
 40
1.0
 10
-68.5355339059327
 20
76.46446609406729
 30
0.0
 10
-68.77104303932998
 20
76.22895696067
 30
0.0
 10
-68.98395180612157
 20
75.96851392092735
 30
0.0
 10
-69.16793075952201
 20
75.6908795416933
 30
0.0
  0
SPLINE
  5
14C
330
1F
100
AcDbEntity
  8
0
  6
Continuous
 62
     7
370
    25
100
AcDbSpline
210
0.0
220
0.0
230
1.0
 70
     8
 71
     3
 72
     8
 73
     4
 74
     0
 42
0.000000001
 43
0.00000001
 40
0.0
 40
0.0
 40
0.0
 40
0.0
 40
1.0
 40
1.0
 40
1.0
 40
1.0
 10
42.92893218813455
 20
-100.0
 30
0.0
 10
43.26199239864769
 20
-100.0
 30
0.0
 10
43.59670267093486
 20
-99.96638819325754
 30
0.0
 10
43.9231125887269
 20
-99.9001638065556
 30
0.0
  0
SPLINE
  5
14E
330
1F
100
AcDbEntity
  8
0
  6
Continuous
 62
     7
370
    25
100
AcDbSpline
210
0.0
220
0.0
230
1.0
 70
     8
 71
     3
 72
     8
 73
     4
 74
     0
 42
0.000000001
 43
0.00000001
 40
0.0
 40
0.0
 40
0.0
 40
0.0
 40
1.0
 40
1.0
 40
1.0
 40
1.0
 10
-43.92311258872695
 20
-99.9001638065556
 30
0.0
 10
-43.59670267093486
 20
-99.96638819325754
 30
0.0
 10
-43.26199239864764
 20
-99.99999999999991
 30
0.0
 10
-42.9289321881345
 20
-100.0
 30
0.0
  0
SPLINE
  5
14F
330
1F
100
AcDbEntity
  8
0
  6
Continuous
 62
     7
370
    25
100
AcDbSpline
210
0.0
220
0.0
230
1.0
 70
     8
 71
     3
 72
     8
 73
     4
 74
     0
 42
0.000000001
 43
0.00000001
 40
0.0
 40
0.0
 40
0.0
 40
0.0
 40
1.0
 40
1.0
 40
1.0
 40
1.0
 10
-70.0
 20
-72.9289321881345
 30
0.0
 10
-70.0
 20
-73.26199239864768
 30
0.0
 10
-69.96638819325754
 20
-73.59670267093485
 30
0.0
 10
-69.9001638065557
 20
-73.9231125887269
 30
0.0
  0
SPLINE
  5
151
330
1F
100
AcDbEntity
  8
0
  6
Continuous
 62
     7
370
    25
100
AcDbSpline
210
0.0
220
0.0
230
1.0
 70
     8
 71
     3
 72
     8
 73
     4
 74
     0
 42
0.000000001
 43
0.00000001
 40
0.0
 40
0.0
 40
0.0
 40
0.0
 40
1.0
 40
1.0
 40
1.0
 40
1.0
 10
-69.9001638065557
 20
73.9231125887269
 30
0.0
 10
-69.96638819325754
 20
73.59670267093485
 30
0.0
 10
-70.0
 20
73.26199239864768
 30
0.0
 10
-70.0
 20
72.9289321881345
 30
0.0
  0
SPLINE
  5
152
330
1F
100
AcDbEntity
  8
0
  6
Continuous
 62
     7
370
    25
100
AcDbSpline
210
0.0
220
0.0
230
1.0
 70
     8
 71
     3
 72
     8
 73
     4
 74
     0
 42
0.000000001
 43
0.00000001
 40
0.0
 40
0.0
 40
0.0
 40
0.0
 40
1.0
 40
1.0
 40
1.0
 40
1.0
 10
-42.92893218813455
 20
100.0
 30
0.0
 10
-43.26199239864769
 20
100.0
 30
0.0
 10
-43.59670267093486
 20
99.96638819325754
 30
0.0
 10
-43.9231125887269
 20
99.9001638065556
 30
0.0
  0
SPLINE
  5
155
330
1F
100
AcDbEntity
  8
0
  6
Continuous
 62
     7
370
    25
100
AcDbSpline
210
0.0
220
0.0
230
1.0
 70
     8
 71
     3
 72
     8
 73
     4
 74
     0
 42
0.000000001
 43
0.00000001
 40
0.0
 40
0.0
 40
0.0
 40
0.0
 40
1.0
 40
1.0
 40
1.0
 40
1.0
 10
43.9231125887269
 20
99.9001638065556
 30
0.0
 10
43.59670267093486
 20
99.96638819325754
 30
0.0
 10
43.26199239864769
 20
100.0
 30
0.0
 10
42.92893218813455
 20
100.0
 30
0.0
  0
SPLINE
  5
156
330
1F
100
AcDbEntity
  8
0
  6
Continuous
 62
     7
370
    25
100
AcDbSpline
210
0.0
220
0.0
230
1.0
 70
     8
 71
     3
 72
     8
 73
     4
 74
     0
 42
0.000000001
 43
0.00000001
 40
0.0
 40
0.0
 40
0.0
 40
0.0
 40
1.0
 40
1.0
 40
1.0
 40
1.0
 10
46.4644660940672
 20
98.5355339059328
 30
0.0
 10
46.22895696067003
 20
98.77104303932995
 30
0.0
 10
45.96851392092737
 20
98.98395180612155
 30
0.0
 10
45.69087954169331
 20
99.16793075952201
 30
0.0
  0
SPLINE
  5
158
330
1F
100
AcDbEntity
  8
0
  6
Continuous
 62
     7
370
    25
100
AcDbSpline
210
0.0
220
0.0
230
1.0
 70
     8
 71
     3
 72
     8
 73
     4
 74
     0
 42
0.000000001
 43
0.00000001
 40
0.0
 40
0.0
 40
0.0
 40
0.0
 40
1.0
 40
1.0
 40
1.0
 40
1.0
 10
69.16793075952201
 20
75.6908795416933
 30
0.0
 10
68.98395180612157
 20
75.96851392092746
 30
0.0
 10
68.77104303932998
 20
76.22895696067
 30
0.0
 10
68.5355339059327
 20
76.46446609406729
 30
0.0
  0
SPLINE
  5
159
330
1F
100
AcDbEntity
  8
0
  6
Continuous
 62
     7
370
    25
100
AcDbSpline
210
0.0
220
0.0
230
1.0
 70
     8
 71
     3
 72
     8
 73
     4
 74
     0
 42
0.000000001
 43
0.00000001
 40
0.0
 40
0.0
 40
0.0
 40
0.0
 40
1.0
 40
1.0
 40
1.0
 40
1.0
 10
70.0
 20
72.9289321881345
 30
0.0
 10
70.0
 20
73.26199239864768
 30
0.0
 10
69.96638819325754
 20
73.59670267093485
 30
0.0
 10
69.9001638065557
 20
73.9231125887269
 30
0.0
  0
SPLINE
  5
15B
330
1F
100
AcDbEntity
  8
0
  6
Continuous
 62
     7
370
    25
100
AcDbSpline
210
0.0
220
0.0
230
1.0
 70
     8
 71
     3
 72
     8
 73
     4
 74
     0
 42
0.000000001
 43
0.00000001
 40
0.0
 40
0.0
 40
0.0
 40
0.0
 40
1.0
 40
1.0
 40
1.0
 40
1.0
 10
69.9001638065556
 20
-73.9231125887269
 30
0.0
 10
69.96638819325754
 20
-73.59670267093485
 30
0.0
 10
70.0
 20
-73.26199239864768
 30
0.0
 10
70.0
 20
-72.9289321881345
 30
0.0
  0
SPLINE
  5
15C
330
1F
100
AcDbEntity
  8
0
  6
Continuous
 62
     7
370
    25
100
AcDbSpline
210
0.0
220
0.0
230
1.0
 70
     8
 71
     3
 72
     8
 73
     4
 74
     0
 42
0.000000001
 43
0.00000001
 40
0.0
 40
0.0
 40
0.0
 40
0.0
 40
1.0
 40
1.0
 40
1.0
 40
1.0
 10
68.5355339059327
 20
-76.46446609406729
 30
0.0
 10
68.77104303932998
 20
-76.22895696067
 30
0.0
 10
68.98395180612157
 20
-75.96851392092746
 30
0.0
 10
69.16793075952201
 20
-75.6908795416933
 30
0.0
  0
SPLINE
  5
15E
330
1F
100
AcDbEntity
  8
0
  6
Continuous
 62
     7
370
    25
100
AcDbSpline
210
0.0
220
0.0
230
1.0
 70
     8
 71
     3
 72
     8
 73
     4
 74
     0
 42
0.000000001
 43
0.00000001
 40
0.0
 40
0.0
 40
0.0
 40
0.0
 40
1.0
 40
1.0
 40
1.0
 40
1.0
 10
45.69087954169331
 20
-99.16793075952201
 30
0.0
 10
45.96851392092737
 20
-98.98395180612155
 30
0.0
 10
46.22895696067003
 20
-98.77104303932995
 30
0.0
 10
46.4644660940672
 20
-98.5355339059328
 30
0.0
  0
SPLINE
  5
167
330
1F
100
AcDbEntity
  8
0
  6
Continuous
 62
     7
370
    25
100
AcDbSpline
210
0.0
220
0.0
230
1.0
 70
     8
 71
     3
 72
    38
 73
    34
 74
     0
 42
0.000000001
 43
0.00000001
 40
0.0
 40
0.0
 40
0.0
 40
0.0
 40
0.0625
 40
0.0625
 40
0.125
 40
0.125
 40
0.1875
 40
0.1875
 40
0.25
 40
0.25
 40
0.3125
 40
0.3125
 40
0.375
 40
0.375
 40
0.4375
 40
0.4375
 40
0.5
 40
0.5
 40
0.5625
 40
0.5625
 40
0.625
 40
0.625
 40
0.6875
 40
0.6875
 40
0.75
 40
0.75
 40
0.8125
 40
0.8125
 40
0.875
 40
0.875
 40
0.9375
 40
0.9375
 40
1.0
 40
1.0
 40
1.0
 40
1.0
 10
-7.832380041173898
 20
22.415452155639
 30
0.0
 10
-6.681474076079255
 20
21.90282408069161
 30
0.0
 10
-5.480108359352093
 20
21.50356022220832
 30
0.0
 10
-3.022507547533904
 20
20.9470653124298
 30
0.0
 10
-1.766333221465924
 20
20.78984802156784
 30
0.0
 10
0.7526122510214138
 20
20.72350013920246
 30
0.0
 10
2.015321111550083
 20
20.81437118828118
 30
0.0
 10
4.498809582839775
 20
21.2407200452399
 30
0.0
 10
5.719527784454337
 20
21.57618731080425
 30
0.0
 10
8.072120185351103
 20
22.47884855961338
 30
0.0
 10
9.203936212150161
 20
23.04602022277996
 30
0.0
 10
11.33522373603655
 20
24.39030509786598
 30
0.0
 10
12.33464253283992
 20
25.16738506969282
 30
0.0
 10
14.16272099541279
 20
26.90163345718983
 30
0.0
 10
14.99133545833988
 20
27.8587589901511
 30
0.0
 10
16.44595282948078
 20
29.9163246971053
 30
0.0
 10
17.07191976941361
 20
31.01671399373148
 30
0.0
 10
18.09717591930841
 20
33.31852592392075
 30
0.0
 10
18.49643977779169
 20
34.51989164064793
 30
0.0
 10
19.0529346875702
 20
36.97749245246611
 30
0.0
 10
19.21015197843217
 20
38.2336667785341
 30
0.0
 10
19.27649986079754
 20
40.75261225102144
 30
0.0
 10
19.18562881171883
 20
42.01532111155013
 30
0.0
 10
18.7592799547601
 20
44.49880958283981
 30
0.0
 10
18.42381268919574
 20
45.71952778445438
 30
0.0
 10
17.52115144038662
 20
48.07212018535114
 30
0.0
 10
16.95397977722004
 20
49.20393621215018
 30
0.0
 10
15.60969490213401
 20
51.33522373603655
 30
0.0
 10
14.83261493030716
 20
52.33464253283994
 30
0.0
 10
13.09836654281014
 20
54.16272099541281
 30
0.0
 10
12.14124100984888
 20
54.99133545833988
 30
0.0
 10
10.08367530289467
 20
56.4459528294808
 30
0.0
 10
8.983286006268504
 20
57.07191976941363
 30
0.0
 10
7.832380041173861
 20
57.58454784436103
 30
0.0
  0
SPLINE
  5
16A
330
1F
100
AcDbEntity
  8
0
  6
Continuous
 62
     7
370
    25
100
AcDbSpline
210
0.0
220
0.0
230
1.0
 70
     8
 71
     3
 72
    51
 73
    47
 74
     0
 42
0.000000001
 43
0.00000001
 40
0.0
 40
0.0
 40
0.0
 40
0.0
 40
0.0078203453906414
 40
0.0156405888417485
 40
0.0234606722935686
 40
0.031280547055229
 40
0.0391001803838815
 40
0.046919562063848
 40
0.0547387109858706
 40
0.0625576817267174
 40
0.0703765740888634
 40
0.0781955049219342
 40
0.0860145514740532
 40
0.0938337507325632
 40
0.1016531059362416
 40
0.1094725930868117
 40
0.1172921674586802
 40
0.12511177010665
 40
0.145709705222583
 40
0.1967875847561654
 40
0.2173854199162769
 40
0.2500680345329176
 40
0.2705296869570487
 40
0.3126570311519281
 40
0.3750347002343665
 40
0.4374812449791021
 40
0.4999271286849761
 40
0.5149031026877338
 40
0.5298783845837264
 40
0.5524311891182472
 40
0.5749818596218688
 40
0.6249431250201279
 40
0.6873597576583689
 40
0.7457961704935319
 40
0.7893346394002574
 40
0.8067135127811657
 40
0.8347777001721428
 40
0.8628389471582413
 40
0.8999782604180983
 40
0.9371221446177118
 40
0.9417652043224314
 40
0.9487430547516154
 40
0.9580555920688417
 40
0.9697026656069188
 40
0.9836841205840133
 40
0.9999999999999999
 40
0.9999999999999999
 40
0.9999999999999999
 40
0.9999999999999999
 10
-4.314477688195292
 20
19.60466574760516
 30
0.0
 10
-4.158528406021588
 20
19.57268520854316
 30
0.0
 10
-3.84663187449964
 20
19.50872454729091
 30
0.0
 10
-3.376171370953132
 20
19.42634396559071
 30
0.0
 10
-2.904111461877001
 20
19.35395268552753
 30
0.0
 10
-2.430493717567721
 20
19.29256967697115
 30
0.0
 10
-1.955620375700387
 20
19.24198399058676
 30
0.0
 10
-1.479723806616088
 20
19.20231436008989
 30
0.0
 10
-1.003055136835707
 20
19.17359102227562
 30
0.0
 10
-0.5258602349170023
 20
19.15586888255422
 30
0.0
 10
-0.0483875709260551
 20
19.1491930132766
 30
0.0
 10
0.4291132926981115
 20
19.15352064058157
 30
0.0
 10
0.9063948522750641
 20
19.16881168954639
 30
0.0
 10
1.383209754287216
 20
19.19502495457233
 30
0.0
 10
1.859310162584106
 20
19.23212131900123
 30
0.0
 10
2.334450167595873
 20
19.28005478208462
 30
0.0
 10
2.808376619862321
 20
19.33880513028813
 30
0.0
 10
3.538234849652309
 20
19.4460873961997
 30
0.0
 10
5.128502439407622
 20
19.74882264436651
 30
0.0
 10
6.935387330232516
 20
20.29315743450663
 30
0.0
 10
8.893655068628473
 20
21.11810530636082
 30
0.0
 10
10.23017799948938
 20
21.8074801841035
 30
0.0
 10
11.87944703513971
 20
22.82930280805416
 30
0.0
 10
13.9161714608131
 20
24.3640991781013
 30
0.0
 10
16.29856682197243
 20
26.81565052765565
 30
0.0
 10
18.42603034660798
 20
30.00316864702731
 30
0.0
 10
19.55562397698138
 20
32.63641157437254
 30
0.0
 10
20.09697745314707
 20
34.43788285494232
 30
0.0
 10
20.3604618087123
 20
35.47399668894997
 30
0.0
 10
20.59649277376495
 20
36.67495915492203
 30
0.0
 10
20.84147616710455
 20
38.59563854935534
 30
0.0
 10
20.90068172126055
 20
41.35180415267187
 30
0.0
 10
20.39932073510206
 20
44.81264874404067
 30
0.0
 10
19.33879777425702
 20
48.00402605873293
 30
0.0
 10
18.23203176249698
 20
50.17462365284123
 30
0.0
 10
17.26954899774178
 20
51.70962814444638
 30
0.0
 10
16.39087293283004
 20
52.92296971864975
 30
0.0
 10
15.15373473243451
 20
54.36564993235653
 30
0.0
 10
13.6486259247939
 20
55.81203723241978
 30
0.0
 10
12.37415464193916
 20
56.79608366137693
 30
0.0
 10
11.55290983266323
 20
57.35364536705045
 30
0.0
 10
11.19624542335406
 20
57.58686329121407
 30
0.0
 10
10.71299345691807
 20
57.88679485281202
 30
0.0
 10
10.09711507776992
 20
58.24273722378277
 30
0.0
 10
9.343336575054863
 20
58.64456022263666
 30
0.0
 10
8.783288556222029
 20
58.90309098037795
 30
0.0
 10
8.481688559869696
 20
59.04231631993765
 30
0.0
  0
SPLINE
  5
16B
330
1F
100
AcDbEntity
  8
0
  6
Continuous
 62
     7
370
    25
100
AcDbSpline
210
0.0
220
0.0
230
1.0
 70
     8
 71
     3
 72
     8
 73
     4
 74
     0
 42
0.000000001
 43
0.00000001
 40
0.0
 40
0.0
 40
0.0
 40
0.0
 40
1.0
 40
1.0
 40
1.0
 40
1.0
 10
-8.481688559869689
 20
20.95768368006236
 30
0.0
 10
-7.145168326837843
 20
20.36219401927984
 30
0.0
 10
-5.745791937476653
 20
19.90824992720576
 30
0.0
 10
-4.314477688195292
 20
19.60466574760516
 30
0.0
  0
SPLINE
  5
16C
330
1F
100
AcDbEntity
  8
0
  6
Continuous
 62
     7
370
    25
100
AcDbSpline
210
0.0
220
0.0
230
1.0
 70
    24
 71
     3
 72
    14
 73
    10
 74
     0
 42
0.000000001
 43
0.00000001
 40
0.0
 40
0.0
 40
0.0
 40
0.0
 40
0.5000000000000046
 40
0.6250000000000042
 40
0.6250000000000042
 40
0.6875000000000041
 40
0.6875000000000041
 40
0.750000000000004
 40
1.0
 40
1.0
 40
1.0
 40
1.0
 10
-7.83238004117382
 20
22.415452155639
 30
0.0
 10
-7.858618761289201
 20
22.35654336586903
 30
0.0
 10
-7.903259694781497
 20
22.25631959905922
 30
0.0
 10
-7.964323105467849
 20
22.11922557896457
 30
0.0
 10
-7.983651766963026
 20
22.07583062480725
 30
0.0
 10
-7.991601475778499
 20
22.05798266106193
 30
0.0
 10
-8.017418709093327
 20
22.00002015515095
 30
0.0
 10
-8.101555762704255
 20
21.81112328894586
 30
0.0
 10
-8.28159060047743
 20
21.40692543314319
 30
0.0
 10
-8.48168855986968
 20
20.9576836800624
 30
0.0
  0
SPLINE
  5
16D
330
1F
100
AcDbEntity
  8
0
  6
Continuous
 62
     7
370
    25
100
AcDbSpline
210
0.0
220
0.0
230
1.0
 70
    24
 71
     3
 72
    14
 73
    10
 74
     0
 42
0.000000001
 43
0.00000001
 40
0.0
 40
0.0
 40
0.0
 40
0.0
 40
0.500000000000005
 40
0.6250000000000048
 40
0.6250000000000048
 40
0.6875000000000048
 40
0.6875000000000048
 40
0.7500000000000047
 40
1.0
 40
1.0
 40
1.0
 40
1.0
 10
7.83238004117382
 20
57.584547844361
 30
0.0
 10
7.858618761289207
 20
57.64345663413097
 30
0.0
 10
7.903259694781505
 20
57.74368040094073
 30
0.0
 10
7.964323105467849
 20
57.88077442103543
 30
0.0
 10
7.983651766963027
 20
57.92416937519273
 30
0.0
 10
7.991601475778499
 20
57.94201733893807
 30
0.0
 10
8.017418709093326
 20
57.99997984484904
 30
0.0
 10
8.101555762704258
 20
58.18887671105413
 30
0.0
 10
8.281590600477433
 20
58.59307456685683
 30
0.0
 10
8.48168855986968
 20
59.0423163199376
 30
0.0
  0
SPLINE
  5
16E
330
1F
100
AcDbEntity
  8
0
  6
Continuous
 62
     7
370
    25
100
AcDbSpline
210
0.0
220
0.0
230
1.0
 70
     8
 71
     3
 72
     9
 73
     5
 74
     0
 42
0.000000001
 43
0.00000001
 40
0.0
 40
0.0
 40
0.0
 40
0.0
 40
0.1259628824867677
 40
1.0
 40
1.0
 40
1.0
 40
1.0
 10
6.173328371652873
 20
60.05710709305095
 30
0.0
 10
6.276115790383604
 20
60.03036993508549
 30
0.0
 10
7.092129338990107
 20
59.81810773976552
 30
0.0
 10
7.867079438862431
 20
59.47928593581492
 30
0.0
 10
8.544414590371431
 20
59.1831431029393
 30
0.0
  0
SPLINE
  5
16F
330
1F
100
AcDbEntity
  8
0
  6
Continuous
 62
     7
370
    25
100
AcDbSpline
210
0.0
220
0.0
230
1.0
 70
     8
 71
     3
 72
    53
 73
    49
 74
     0
 42
0.000000001
 43
0.00000001
 40
0.0
 40
0.0
 40
0.0
 40
0.0
 40
0.0075685784061037
 40
0.0149998195838476
 40
0.022293723243526
 40
0.0294502891016183
 40
0.0364695168808381
 40
0.0433514063101872
 40
0.0500959571250157
 40
0.0567031690670878
 40
0.0631730418846539
 40
0.0695055753325327
 40
0.0757007691721993
 40
0.0817586231718865
 40
0.0876791371066958
 40
0.0934623107587216
 40
0.0991081439171914
 40
0.1046166363786234
 40
0.1099877879470035
 40
0.1152215984339861
 40
0.1203180676591218
 40
0.1252771954501167
 40
0.1566198214887618
 40
0.1879624527910739
 40
0.2053583803462647
 40
0.2502313393554599
 40
0.274860779287765
 40
0.312899996798548
 40
0.3422242249642641
 40
0.375223373914145
 40
0.4376739722394414
 40
0.5001245960892962
 40
0.550647479505795
 40
0.6250326275966446
 40
0.6874778804207469
 40
0.7499231221879152
 40
0.7810767265458433
 40
0.8122303522231038
 40
0.8313338289394934
 40
0.874899906742047
 40
0.9060394587273672
 40
0.9371790179177172
 40
0.9425181247250427
 40
0.9499097589612605
 40
0.9593538570312095
 40
0.9708503350842044
 40
0.9843990900511275
 40
0.9999999999999999
 40
0.9999999999999999
 40
0.9999999999999999
 40
0.9999999999999999
 10
8.544414590371435
 20
59.18314310293932
 30
0.0
 10
8.68576129588797
 20
59.11909991877467
 30
0.0
 10
8.96588987060279
 20
58.99217565948837
 30
0.0
 10
9.376842617512745
 20
58.79197295878711
 30
0.0
 10
9.776167270020697
 20
58.58746024835044
 30
0.0
 10
10.16356023049216
 20
58.37838593321133
 30
0.0
 10
10.53919945972675
 20
58.16552476140215
 30
0.0
 10
10.90315806615582
 20
57.94936394062724
 30
0.0
 10
11.25555550257947
 20
57.73044510886959
 30
0.0
 10
11.59651671955658
 20
57.50927517258255
 30
0.0
 10
11.92618134027464
 20
57.2863494189158
 30
0.0
 10
12.24469986443763
 20
57.06214548416614
 30
0.0
 10
12.55223328597114
 20
56.83712495453695
 30
0.0
 10
12.8489518657478
 20
56.61173303703652
 30
0.0
 10
13.13503416955161
 20
56.38639877661927
 30
0.0
 10
13.41066607202942
 20
56.16153518661647
 30
0.0
 10
13.67603984626684
 20
55.93753940343995
 30
0.0
 10
13.93135315804292
 20
55.71479301116059
 30
0.0
 10
14.17680855153685
 20
55.49366185425182
 30
0.0
 10
14.41261133381487
 20
55.27449781355136
 30
0.0
 10
14.63897336739081
 20
55.05763363602259
 30
0.0
 10
15.24314442028672
 20
54.4615088269818
 30
0.0
 10
16.17867486610631
 20
53.43476515182343
 30
0.0
 10
17.16993626766731
 20
52.12281512329772
 30
0.0
 10
18.21508636009808
 20
50.51258829054508
 30
0.0
 10
19.04777323608326
 20
48.93039287239704
 30
0.0
 10
19.87139082508823
 20
46.88377564944536
 30
0.0
 10
20.41350077510264
 20
45.07267545391318
 30
0.0
 10
20.80675621274571
 20
43.05053826983651
 30
0.0
 10
21.06475326999867
 20
40.50191129053422
 30
0.0
 10
20.93785100088489
 20
37.24770507040641
 30
0.0
 10
20.13984879969057
 20
33.71946743993433
 30
0.0
 10
18.68258386015857
 20
30.15213520018204
 30
0.0
 10
16.58814634949362
 20
26.89222591658191
 30
0.0
 10
13.72365621365311
 20
23.94946294295606
 30
0.0
 10
11.0957788754064
 20
22.09022116519861
 30
0.0
 10
8.822892034450277
 20
20.91120768224918
 30
0.0
 10
7.274950723899106
 20
20.27977485926922
 30
0.0
 10
5.444670968868941
 20
19.68600045811862
 30
0.0
 10
3.5625070615404
 20
19.2613900911722
 30
0.0
 10
1.403630766049169
 20
19.01775048275225
 30
0.0
 10
0.0153354667427279
 20
18.9883544167673
 30
0.0
 10
-0.8836345469240715
 20
19.0173692227478
 30
0.0
 10
-1.337715915584984
 20
19.04052057599944
 30
0.0
 10
-1.917019354192073
 20
19.08429429674349
 30
0.0
 10
-2.620184482181024
 20
19.15970270926418
 30
0.0
 10
-3.445660495342233
 20
19.27642419601211
 30
0.0
 10
-4.032022092877932
 20
19.39248152167141
 30
0.0
 10
-4.345843006670821
 20
19.45459543933557
 30
0.0
  0
SPLINE
  5
171
330
1F
100
AcDbEntity
  8
0
  6
Continuous
 62
     7
370
    25
100
AcDbSpline
210
0.0
220
0.0
230
1.0
 70
     8
 71
     3
 72
     8
 73
     4
 74
     0
 42
0.000000001
 43
0.00000001
 40
0.0
 40
0.0
 40
0.0
 40
0.0
 40
1.0
 40
1.0
 40
1.0
 40
1.0
 10
-4.34584300667082
 20
19.45459543933557
 30
0.0
 10
-5.78800241121206
 20
19.7596465442785
 30
0.0
 10
-7.19787745339782
 20
20.21709222357337
 30
0.0
 10
-8.544414590347015
 20
20.81685689704981
 30
0.0
  0
SPLINE
  5
172
330
1F
100
AcDbEntity
  8
0
  6
Continuous
 62
     7
370
    25
100
AcDbSpline
210
0.0
220
0.0
230
1.0
 70
     8
 71
     3
 72
    58
 73
    54
 74
     0
 42
0.000000001
 43
0.00000001
 40
0.0
 40
0.0
 40
0.0
 40
0.0
 40
0.0356227992306945
 40
0.0685466754487472
 40
0.0987712770474337
 40
0.1262962816615067
 40
0.1511213963118914
 40
0.1619023643920781
 40
0.1726833294365385
 40
0.1834642928647356
 40
0.1942452560961315
 40
0.2050262205501897
 40
0.2158071876463724
 40
0.2265881588041417
 40
0.2288108846621046
 40
0.2360217297562202
 40
0.2478844722242118
 40
0.2546502113871487
 40
0.2623348712366433
 40
0.2709384422520749
 40
0.2804609137714739
 40
0.2909022739922574
 40
0.3022625099716739
 40
0.3204157939881151
 40
0.3456189278681973
 40
0.3778700783460695
 40
0.4011309146355624
 40
0.4263009774719772
 40
0.4533801372744041
 40
0.4785680830326406
 40
0.5037560278882819
 40
0.5289439740012695
 40
0.554131923531545
 40
0.5793198786390475
 40
0.6045078414837167
 40
0.6216610222452461
 40
0.6420295499403095
 40
0.6656131202304961
 40
0.6924113781569884
 40
0.722423918915417
 40
0.7556502882591788
 40
0.8311433682930771
 40
0.9066364349974327
 40
0.9174651049766529
 40
0.9282937748054978
 40
0.9391224453791261
 40
0.9499511175926957
 40
0.9607797923413633
 40
0.9716084705202868
 40
0.982437153024621
 40
0.9901652189237412
 40
0.9983636350000203
 40
1.0
 40
1.0
 40
1.0
 40
1.0
 10
-8.544414590347051
 20
20.81685689704985
 30
0.0
 10
-9.090500249039337
 20
21.07649643540957
 30
0.0
 10
-10.14129797470886
 20
21.57610420217572
 30
0.0
 10
-11.57209652638639
 20
22.45331985570817
 30
0.0
 10
-12.82420768891858
 20
23.34841284569853
 30
0.0
 10
-13.9035233899941
 20
24.24305496509799
 30
0.0
 10
-14.68380430361389
 20
24.97754581874637
 30
0.0
 10
-15.2329775123071
 20
25.54120740588652
 30
0.0
 10
-15.60550237847856
 20
25.94408771240857
 30
0.0
 10
-15.96737080083701
 20
26.35656128809981
 30
0.0
 10
-16.31834139553519
 20
26.77834761956236
 30
0.0
 10
-16.65817362533555
 20
27.2091593138609
 30
0.0
 10
-16.9866338049411
 20
27.64869924775305
 30
0.0
 10
-17.21965823685851
 20
27.97813929236992
 30
0.0
 10
-17.4132444328237
 20
28.26117918102213
 30
0.0
 10
-17.6137783094305
 20
28.56169159595035
 30
0.0
 10
-17.84862503493652
 20
28.93187655110274
 30
0.0
 10
-18.07918068435929
 20
29.3141048700036
 30
0.0
 10
-18.2752900069889
 20
29.65248335598364
 30
0.0
 10
-18.48733272613715
 20
30.03558803498388
 30
0.0
 10
-18.71265752748441
 20
30.46466891261722
 30
0.0
 10
-18.9482778336202
 20
30.9410031864544
 30
0.0
 10
-19.23266836028468
 20
31.55631406027909
 30
0.0
 10
-19.59182911285378
 20
32.4125276165618
 30
0.0
 10
-20.02542540569902
 20
33.62039913783197
 30
0.0
 10
-20.3976521562692
 20
34.93962114106421
 30
0.0
 10
-20.68005396923143
 20
36.27949115849142
 30
0.0
 10
-20.87038349372961
 20
37.54700350852303
 30
0.0
 10
-20.9829311004445
 20
38.85674276539472
 30
0.0
 10
-21.01235131012503
 20
40.17112659176269
 30
0.0
 10
-20.96276683142342
 20
41.45279531210142
 30
0.0
 10
-20.83507902542472
 20
42.72904596635677
 30
0.0
 10
-20.62976222656649
 20
43.99513398943677
 30
0.0
 10
-20.34758876121225
 20
45.24632103664913
 30
0.0
 10
-20.02764920039628
 20
46.3470516329817
 30
0.0
 10
-19.67865104303978
 20
47.35223810555694
 30
0.0
 10
-19.29435765318147
 20
48.31539218436784
 30
0.0
 10
-18.79059896063243
 20
49.40544536277936
 30
0.0
 10
-18.14357408141644
 20
50.60702812122098
 30
0.0
 10
-17.3278576258289
 20
51.8999890815168
 30
0.0
 10
-15.92232016578261
 20
53.79011630492033
 30
0.0
 10
-13.73149130555763
 20
56.04430705970936
 30
0.0
 10
-11.47708119079665
 20
57.64049466661492
 30
0.0
 10
-10.04001517731982
 20
58.44720091880716
 30
0.0
 10
-9.552499585956724
 20
58.70430486109625
 30
0.0
 10
-9.058423262415454
 20
58.94851593794981
 30
0.0
 10
-8.558102377102626
 20
59.17967499918267
 30
0.0
 10
-8.051897407393415
 20
59.39765297737204
 30
0.0
 10
-7.540117238319483
 20
59.60217028407528
 30
0.0
 10
-7.072588730156696
 20
59.77530543293458
 30
0.0
 10
-6.643199570277709
 20
59.9223107026222
 30
0.0
 10
-6.360275606756552
 20
60.01587744080979
 30
0.0
 10
-6.200284974641244
 20
60.06317287654802
 30
0.0
 10
-6.173664852781074
 20
60.07104215143078
 30
0.0
  0
LWPOLYLINE
  5
174
330
1F
100
AcDbEntity
  8
0
  6
Continuous
 62
     7
370
    25
100
AcDbPolyline
 90
        3
 70
   128
 43
0.0
 10
8.0269238969
 20
59.4053727806
 10
9.6227569563
 20
58.6655444218
 10
11.1323635874
 20
57.8064730073
  0
LWPOLYLINE
  5
175
330
1F
100
AcDbEntity
  8
0
  6
Continuous
 62
     7
370
    25
100
AcDbPolyline
 90
        3
 70
   128
 43
0.0
 10
11.9056471997
 20
22.7009952669
 10
11.3534571666
 20
22.3336758105
 10
9.7020106969
 20
21.3755271635
  0
LWPOLYLINE
  5
176
330
1F
100
AcDbEntity
  8
0
  6
Continuous
 62
     7
370
    25
100
AcDbPolyline
 90
        3
 70
   128
 43
0.0
 10
-4.0523089532
 20
19.3946901953
 10
-5.9163836937
 20
19.8506475541
 10
-7.4851030877
 20
20.3792652593
  0
LWPOLYLINE
  5
177
330
1F
100
AcDbEntity
  8
0
  6
Continuous
 62
     7
370
    25
100
AcDbPolyline
 90
        3
 70
   128
 43
0.0
 10
-8.0269261527
 20
20.5946281525
 10
-9.6227569563
 20
21.3344555782
 10
-11.2206703682
 20
22.2490406883
  0
LWPOLYLINE
  5
178
330
1F
100
AcDbEntity
  8
0
  6
Continuous
 62
     7
370
    25
100
AcDbPolyline
 90
        3
 70
   128
 43
0.0
 10
-16.1177333872
 20
53.4617484177
 10
-15.8707410614
 20
53.7520754129
 10
-14.9337600461
 20
54.7642409519
  0
LWPOLYLINE
  5
17D
330
1F
100
AcDbEntity
  8
0
  6
Continuous
 62
     7
370
    25
100
AcDbPolyline
 90
        3
 70
   128
 43
0.0
 10
-6.0
 20
52.8788710036
 10
-5.4402498192
 20
52.8959738281
 10
-5.0004449167
 20
52.9093682501
  0
SPLINE
  5
18D
330
1F
100
AcDbEntity
  8
0
  6
Continuous
 62
     7
370
    25
100
AcDbSpline
210
0.0
220
0.0
230
1.0
 70
     8
 71
     3
 72
     8
 73
     4
 74
     0
 42
0.000000001
 43
0.00000001
 40
0.0
 40
0.0
 40
0.0
 40
0.0
 40
1.0
 40
1.0
 40
1.0
 40
1.0
 10
8.0
 20
43.5948053265945
 30
0.0
 10
8.33360767199187
 20
43.7001562054859
 30
0.0
 10
8.666954794114831
 20
43.80717399840176
 30
0.0
 10
9.0
 20
43.9160259482265
 30
0.0
  0
SPLINE
  5
18F
330
1F
100
AcDbEntity
  8
0
  6
Continuous
 62
     7
370
    25
100
AcDbSpline
210
0.0
220
0.0
230
1.0
 70
     8
 71
     3
 72
     8
 73
     4
 74
     0
 42
0.000000001
 43
0.00000001
 40
0.0
 40
0.0
 40
0.0
 40
0.0
 40
1.0
 40
1.0
 40
1.0
 40
1.0
 10
-8.0
 20
42.784843542883
 30
0.0
 10
-8.333608630982859
 20
42.89037046790011
 30
0.0
 10
-8.666955803419581
 20
42.9975673402639
 30
0.0
 10
-9.0
 20
43.1066017177982
 30
0.0
  0
SPLINE
  5
192
330
1F
100
AcDbEntity
  8
0
  6
Continuous
 62
     7
370
    25
100
AcDbSpline
210
0.0
220
0.0
230
1.0
 70
     8
 71
     3
 72
     8
 73
     4
 74
     0
 42
0.000000001
 43
0.00000001
 40
0.0
 40
0.0
 40
0.0
 40
0.0
 40
1.0
 40
1.0
 40
1.0
 40
1.0
 10
6.0
 20
52.8788710035942
 30
0.0
 10
5.66661047069416
 20
52.8805282653799
 30
0.0
 10
5.33322242893223
 20
52.8822881675033
 30
0.0
 10
4.99983578318162
 20
52.8841415417461
 30
0.0
  0
LWPOLYLINE
  5
19C
330
1F
100
AcDbEntity
  8
0
  6
Continuous
 62
     7
370
    25
100
AcDbPolyline
 90
        3
 70
   128
 43
0.0
 10
6.676827306
 20
-20.0897017319
 10
7.8049115689
 20
-20.5042734067
 10
8.396435535
 20
-20.751626814
  0
LWPOLYLINE
  5
19E
330
1F
100
AcDbEntity
  8
0
  6
Continuous
 62
     7
370
    25
100
AcDbPolyline
 90
        3
 70
   128
 43
0.0
 10
20.5361092133
 20
-35.6104421205
 10
20.7862502795
 20
-37.0113883963
 10
20.9564486082
 20
-38.648237546
  0
LWPOLYLINE
  5
19F
330
1F
100
AcDbEntity
  8
0
  6
Continuous
 62
     7
370
    25
100
AcDbPolyline
 90
        3
 70
   128
 43
0.0
 10
20.9869413174
 20
-39.2595311348
 10
20.9762141228
 20
-40.9992202323
 10
20.8198959494
 20
-42.7444366735
  0
LWPOLYLINE
  5
1A1
330
1F
100
AcDbEntity
  8
0
  6
Continuous
 62
     7
370
    25
100
AcDbPolyline
 90
        3
 70
   128
 43
0.0
 10
-4.0782799717
 20
-60.6001852533
 10
-5.9163836937
 20
-60.1493524459
 10
-6.6819455037
 20
-59.9085811721
  0
LWPOLYLINE
  5
1A3
330
1F
100
AcDbEntity
  8
0
  6
Continuous
 62
     7
370
    25
100
AcDbPolyline
 90
        3
 70
   128
 43
0.0
 10
-20.427395451
 20
-44.8704738054
 10
-20.7862502795
 20
-42.9886116037
 10
-20.9564481618
 20
-41.3517693746
  0
LWPOLYLINE
  5
1A4
330
1F
100
AcDbEntity
  8
0
  6
Continuous
 62
     7
370
    25
100
AcDbPolyline
 90
        3
 70
   128
 43
0.0
 10
-20.9869414427
 20
-40.7404653125
 10
-20.9762141228
 20
-39.0007797677
 10
-20.8165979355
 20
-37.2306588527
  0
SPLINE
  5
1A5
330
1F
100
AcDbEntity
  8
0
  6
Continuous
 62
     8
370
    25
100
AcDbSpline
210
0.0
220
0.0
230
1.0
 70
     8
 71
     3
 72
    10
 73
     6
 74
     0
 42
0.000000001
 43
0.00000001
 40
0.0
 40
0.0
 40
0.0
 40
0.0
 40
0.3973122478779448
 40
0.7946244957558941
 40
1.0
 40
1.0
 40
1.0
 40
1.0
 10
19.25
 20
-40.0
 30
0.0
 10
19.17213893752546
 20
-38.7435380451961
 30
0.0
 10
19.01641681257638
 20
-36.23061413558826
 30
0.0
 10
18.13433629788107
 20
-33.13816573973917
 30
0.0
 10
17.18772404261606
 20
-31.47856080080109
 30
0.0
 10
16.86515075559606
 20
-30.91302383745595
 30
0.0
  0
SPLINE
  5
1A6
330
1F
100
AcDbEntity
  8
0
  6
Continuous
 62
     8
370
    25
100
AcDbSpline
210
0.0
220
0.0
230
1.0
 70
     8
 71
     3
 72
     9
 73
     5
 74
     0
 42
0.000000001
 43
0.00000001
 40
0.0
 40
0.0
 40
0.0
 40
0.0
 40
0.3499994041054498
 40
1.0
 40
1.0
 40
1.0
 40
1.0
 10
9.086976162544028
 20
-23.13484924440393
 30
0.0
 10
8.522072383876743
 20
-22.8077308293054
 30
0.0
 10
6.908058839736292
 20
-21.8731051949144
 30
0.0
 10
5.084993534656529
 20
-21.44317515702107
 30
0.0
 10
3.900000000000002
 20
-21.16372037619744
 30
0.0
  0
SPLINE
  5
1A7
330
1F
100
AcDbEntity
  8
0
  6
Continuous
 62
     8
370
    25
100
AcDbSpline
210
0.0
220
0.0
230
1.0
 70
     8
 71
     3
 72
     9
 73
     5
 74
     0
 42
0.000000001
 43
0.00000001
 40
0.0
 40
0.0
 40
0.0
 40
0.0
 40
0.6500005958945385
 40
1.0
 40
1.0
 40
1.0
 40
1.0
 10
-3.9
 20
-21.16372037619744
 30
0.0
 10
-5.084993534656514
 20
-21.44317515702107
 30
0.0
 10
-6.908058839736289
 20
-21.87310519491441
 30
0.0
 10
-8.522072383876756
 20
-22.8077308293054
 30
0.0
 10
-9.086976162544063
 20
-23.13484924440394
 30
0.0
  0
SPLINE
  5
1A8
330
1F
100
AcDbEntity
  8
0
  6
Continuous
 62
     8
370
    25
100
AcDbSpline
210
0.0
220
0.0
230
1.0
 70
     8
 71
     3
 72
    10
 73
     6
 74
     0
 42
0.000000001
 43
0.00000001
 40
0.0
 40
0.0
 40
0.0
 40
0.0
 40
0.2053755042441014
 40
0.6026877521220507
 40
1.0
 40
1.0
 40
1.0
 40
1.0
 10
-16.86515075559607
 20
-30.91302383745596
 30
0.0
 10
-17.18772404261606
 20
-31.47856080080109
 30
0.0
 10
-18.13433629788105
 20
-33.13816573973914
 30
0.0
 10
-19.01641681257639
 20
-36.23061413558825
 30
0.0
 10
-19.17213893752546
 20
-38.74353804519609
 30
0.0
 10
-19.25
 20
-40.0
 30
0.0
  0
SPLINE
  5
1A9
330
1F
100
AcDbEntity
  8
0
  6
Continuous
 62
     8
370
    25
100
AcDbSpline
210
0.0
220
0.0
230
1.0
 70
     8
 71
     3
 72
    10
 73
     6
 74
     0
 42
0.000000001
 43
0.00000001
 40
0.0
 40
0.0
 40
0.0
 40
0.0
 40
0.3973122478779405
 40
0.7946244957558896
 40
1.0
 40
1.0
 40
1.0
 40
1.0
 10
-19.25
 20
-40.0
 30
0.0
 10
-19.17213893752546
 20
-41.25646195480388
 30
0.0
 10
-19.01641681257639
 20
-43.7693858644117
 30
0.0
 10
-18.13433629788107
 20
-46.86183426026081
 30
0.0
 10
-17.18772404261606
 20
-48.5214391991989
 30
0.0
 10
-16.86515075559606
 20
-49.08697616254405
 30
0.0
  0
SPLINE
  5
1AA
330
1F
100
AcDbEntity
  8
0
  6
Continuous
 62
     8
370
    25
100
AcDbSpline
210
0.0
220
0.0
230
1.0
 70
     8
 71
     3
 72
    13
 73
     9
 74
     0
 42
0.000000001
 43
0.00000001
 40
0.0
 40
0.0
 40
0.0
 40
0.0
 40
0.1026877521220472
 40
0.3013438760610216
 40
0.4999999999999961
 40
0.6986561239389705
 40
0.8973122478779452
 40
1.0
 40
1.0
 40
1.0
 40
1.0
 10
-9.086976162544047
 20
-56.86515075559608
 30
0.0
 10
-8.52143919919894
 20
-57.188805530278
 30
0.0
 10
-6.861834260260902
 20
-58.13859148130736
 30
0.0
 10
-3.769385864411808
 20
-58.97957848944154
 30
0.0
 10
-0.0000000000000667
 20
-59.38521075527924
 30
0.0
 10
3.769385864411686
 20
-58.97957848944156
 30
0.0
 10
6.861834260260824
 20
-58.13859148130737
 30
0.0
 10
8.52143919919891
 20
-57.18880553027801
 30
0.0
 10
9.086976162544062
 20
-56.86515075559606
 30
0.0
  0
SPLINE
  5
1AB
330
1F
100
AcDbEntity
  8
0
  6
Continuous
 62
     8
370
    25
100
AcDbSpline
210
0.0
220
0.0
230
1.0
 70
     8
 71
     3
 72
    10
 73
     6
 74
     0
 42
0.000000001
 43
0.00000001
 40
0.0
 40
0.0
 40
0.0
 40
0.0
 40
0.2053755042440959
 40
0.6026877521220455
 40
1.0
 40
1.0
 40
1.0
 40
1.0
 10
16.86515075559608
 20
-49.08697616254403
 30
0.0
 10
17.18772404261606
 20
-48.52143919919892
 30
0.0
 10
18.13433629788105
 20
-46.86183426026086
 30
0.0
 10
19.01641681257638
 20
-43.76938586441178
 30
0.0
 10
19.17213893752546
 20
-41.25646195480393
 30
0.0
 10
19.25
 20
-40.00000000000001
 30
0.0
  0
SPLINE
  5
1AC
330
1F
100
AcDbEntity
  8
0
  6
Continuous
 62
     8
370
    25
100
AcDbSpline
210
0.0
220
0.0
230
1.0
 70
     8
 71
     3
 72
     9
 73
     5
 74
     0
 42
0.000000001
 43
0.00000001
 40
0.0
 40
0.0
 40
0.0
 40
0.0
 40
0.5969825066911081
 40
1.0
 40
1.0
 40
1.0
 40
1.0
 10
20.38626063749925
 20
-35.64285029105626
 30
0.0
 10
20.07280092105196
 20
-34.40265832610075
 30
0.0
 10
19.54772738383108
 20
-32.32522397743028
 30
0.0
 10
18.48236903523618
 20
-30.47203228104165
 30
0.0
 10
18.05301098410976
 20
-29.72516360894225
 30
0.0
  0
SPLINE
  5
1AD
330
1F
100
AcDbEntity
  8
0
  6
Continuous
 62
     8
370
    25
100
AcDbSpline
210
0.0
220
0.0
230
1.0
 70
     8
 71
     3
 72
    10
 73
     6
 74
     0
 42
0.000000001
 43
0.00000001
 40
0.0
 40
0.0
 40
0.0
 40
0.0
 40
0.2219719666347522
 40
0.7815196623220243
 40
1.0
 40
1.0
 40
1.0
 40
1.0
 10
10.27035551961697
 20
-21.95146988733098
 30
0.0
 10
9.840270377450713
 20
-21.68484609288075
 30
0.0
 10
8.326025132110486
 20
-20.74611612186315
 30
0.0
 10
6.14622522404409
 20
-19.94500284994339
 30
0.0
 10
4.392475587471663
 20
-19.68010156805355
 30
0.0
 10
3.900000000000002
 20
-19.60571386088022
 30
0.0
  0
SPLINE
  5
1AE
330
1F
100
AcDbEntity
  8
0
  6
Continuous
 62
     8
370
    25
100
AcDbSpline
210
0.0
220
0.0
230
1.0
 70
     8
 71
     3
 72
    10
 73
     6
 74
     0
 42
0.000000001
 43
0.00000001
 40
0.0
 40
0.0
 40
0.0
 40
0.0
 40
0.3022534928935707
 40
0.86086047804555
 40
1.0
 40
1.0
 40
1.0
 40
1.0
 10
-3.9
 20
-19.60906987405348
 30
0.0
 10
-4.57870144797662
 20
-19.72853982358067
 30
0.0
 10
-6.511738672334163
 20
-20.06880705052807
 30
0.0
 10
-8.684060606889553
 20
-20.89581757192119
 30
0.0
 10
-10.01759874891968
 20
-21.76498013988008
 30
0.0
 10
-10.28352320386187
 20
-21.93830220308613
 30
0.0
  0
SPLINE
  5
1AF
330
1F
100
AcDbEntity
  8
0
  6
Continuous
 62
     8
370
    25
100
AcDbSpline
210
0.0
220
0.0
230
1.0
 70
     8
 71
     3
 72
    10
 73
     6
 74
     0
 42
0.000000001
 43
0.00000001
 40
0.0
 40
0.0
 40
0.0
 40
0.0
 40
0.2924732492831472
 40
0.6472031036843086
 40
1.0
 40
1.0
 40
1.0
 40
1.0
 10
-18.07309627597158
 20
-29.70507831708046
 30
0.0
 10
-18.56921944124101
 20
-30.63319460585466
 30
0.0
 10
-19.66707181973736
 20
-32.68698839433582
 30
0.0
 10
-20.63443177499893
 20
-36.19112652260554
 30
0.0
 10
-20.77550675421359
 20
-38.73269001957904
 30
0.0
 10
-20.84585153589755
 20
-40.00000000130485
 30
0.0
  0
SPLINE
  5
1B0
330
1F
100
AcDbEntity
  8
0
  6
Continuous
 62
     8
370
    25
100
AcDbSpline
210
0.0
220
0.0
230
1.0
 70
     8
 71
     3
 72
     9
 73
     5
 74
     0
 42
0.000000001
 43
0.00000001
 40
0.0
 40
0.0
 40
0.0
 40
0.0
 40
0.5999557659096003
 40
1.0
 40
1.0
 40
1.0
 40
1.0
 10
-20.3862524621405
 20
-44.3571880311409
 30
0.0
 10
-20.0709483875559
 20
-45.60356676301834
 30
0.0
 10
-19.54540285153365
 20
-47.68101780640951
 30
0.0
 10
-18.47979219678172
 20
-49.53403668676432
 30
0.0
 10
-18.05350079856291
 20
-50.2753262055109
 30
0.0
  0
SPLINE
  5
1B1
330
1F
100
AcDbEntity
  8
0
  6
Continuous
 62
     8
370
    25
100
AcDbSpline
210
0.0
220
0.0
230
1.0
 70
     8
 71
     3
 72
    14
 73
    10
 74
     0
 42
0.000000001
 43
0.00000001
 40
0.0
 40
0.0
 40
0.0
 40
0.0
 40
0.0711257813906086
 40
0.2478100746080117
 40
0.4248723980816647
 40
0.6018710790377918
 40
0.7785750839464456
 40
0.9559106180577143
 40
1.0
 40
1.0
 40
1.0
 40
1.0
 10
-10.26963775425203
 20
-58.04781234730407
 30
0.0
 10
-9.835675569605907
 20
-58.31880697503438
 30
0.0
 10
-8.323703409136792
 20
-59.26298217568939
 30
0.0
 10
-5.390757741637968
 20
-60.2319688875315
 30
0.0
 10
-1.630860897477707
 20
-60.90420154954426
 30
0.0
 10
2.213168062726639
 20
-60.8520738945379
 30
0.0
 10
5.950747107244363
 20
-60.0677230623147
 30
0.0
 10
8.685967103772333
 20
-59.10658633535061
 30
0.0
 10
10.01833980525197
 20
-58.23529962308742
 30
0.0
 10
10.28363736061291
 20
-58.0618119536649
 30
0.0
  0
SPLINE
  5
1B2
330
1F
100
AcDbEntity
  8
0
  6
Continuous
 62
     8
370
    25
100
AcDbSpline
210
0.0
220
0.0
230
1.0
 70
     8
 71
     3
 72
    10
 73
     6
 74
     0
 42
0.000000001
 43
0.00000001
 40
0.0
 40
0.0
 40
0.0
 40
0.0
 40
0.2926823313509958
 40
0.6453396845824804
 40
1.0
 40
1.0
 40
1.0
 40
1.0
 10
18.07227269358982
 20
-50.29409810053777
 30
0.0
 10
18.5691224745558
 20
-49.3655338015357
 30
0.0
 10
19.66463404661903
 20
-47.31812838055757
 30
0.0
 10
20.6330682276183
 20
-43.81471777029736
 30
0.0
 10
20.77478155489084
 20
-41.27397086192114
 30
0.0
 10
20.84583886842485
 20
-40.00000000008485
 30
0.0
  0
SPLINE
  5
1BB
330
1F
100
AcDbEntity
  8
0
  6
Continuous
 62
     8
370
    25
100
AcDbSpline
210
0.0
220
0.0
230
1.0
 70
     8
 71
     3
 72
    20
 73
    16
 74
     0
 42
0.000000001
 43
0.00000001
 40
0.0
 40
0.0
 40
0.0
 40
0.0
 40
0.0172785997747876
 40
0.0991720497935553
 40
0.1810654998123229
 40
0.2629589498310906
 40
0.3448523998498583
 40
0.4267458498686261
 40
0.5086392998873936
 40
0.5905327499061613
 40
0.672426199924929
 40
0.7543196499436966
 40
0.8362130999624645
 40
0.9181065499812322
 40
1.0
 40
1.0
 40
1.0
 40
1.0
 10
-6.128086709655535
 20
58.18346501241854
 30
0.0
 10
-6.385286604407907
 20
58.11695842050554
 30
0.0
 10
-7.861508121298325
 20
57.73523796104911
 30
0.0
 10
-10.32444218895706
 20
56.34883786035032
 30
0.0
 10
-13.3371231157089
 20
54.06568530469136
 30
0.0
 10
-15.81915593296569
 20
51.18136534023608
 30
0.0
 10
-17.69811801589047
 20
47.88360227259491
 30
0.0
 10
-18.89565906963861
 20
44.27850581642738
 30
0.0
 10
-19.3673691016408
 20
40.51022218235322
 30
0.0
 10
-19.09482004148731
 20
36.72176836549297
 30
0.0
 10
-18.0880770318467
 20
33.06031227250494
 30
0.0
 10
-16.38776421987285
 20
29.66203863507058
 30
0.0
 10
-14.05189012672394
 20
26.67405334265234
 30
0.0
 10
-11.19761969258318
 20
24.14965740956163
 30
0.0
 10
-8.954126591643606
 20
22.99352057361318
 30
0.0
 10
-7.83238004117382
 20
22.41545215563895
 30
0.0
  0
SPLINE
  5
1BC
330
1F
100
AcDbEntity
  8
0
  6
Continuous
 62
     8
370
    25
100
AcDbSpline
210
0.0
220
0.0
230
1.0
 70
     8
 71
     3
 72
    21
 73
    17
 74
     0
 42
0.000000001
 43
0.00000001
 40
0.0
 40
0.0
 40
0.0
 40
0.0
 40
0.0164526172854588
 40
0.0923344149881932
 40
0.1677482753322811
 40
0.2436565485100639
 40
0.3190491238027801
 40
0.3949216489663861
 40
0.4703692218812947
 40
0.5461914906704527
 40
0.621778071078136
 40
0.6974711581087645
 40
0.7731941170170041
 40
0.8487415479946938
 40
0.9245773925085771
 40
0.9999999999999999
 40
0.9999999999999999
 40
0.9999999999999999
 40
0.9999999999999999
 10
-6.168446432873259
 20
59.85492606059684
 30
0.0
 10
-6.437566818525468
 20
59.79054713692585
 30
0.0
 10
-7.947908482678551
 20
59.42924351260924
 30
0.0
 10
-10.48655515472617
 20
58.11480255755105
 30
0.0
 10
-13.63221246891248
 20
55.9411871651476
 30
0.0
 10
-16.29881048490198
 20
53.18119969299421
 30
0.0
 10
-18.42910937581663
 20
49.99071627636464
 30
0.0
 10
-19.93995253292928
 20
46.46922704976621
 30
0.0
 10
-20.78608082164619
 20
42.72576276815262
 30
0.0
 10
-20.93745500256121
 20
38.89507445315348
 30
0.0
 10
-20.38559164321841
 20
35.09717600317548
 30
0.0
 10
-19.1520422725334
 20
31.46545712831452
 30
0.0
 10
-17.27659512110192
 20
28.11786564495327
 30
0.0
 10
-14.81675920443425
 20
25.17833780426477
 30
0.0
 10
-11.88412572260599
 20
22.69364362135421
 30
0.0
 10
-9.613771138131712
 20
21.53527225213119
 30
0.0
 10
-8.48169514223861
 20
20.95766889871895
 30
0.0
  0
SPLINE
  5
1BD
330
1F
100
AcDbEntity
  8
0
  6
Continuous
 62
     8
370
    25
100
AcDbSpline
210
0.0
220
0.0
230
1.0
 70
     8
 71
     3
 72
     9
 73
     5
 74
     0
 42
0.000000001
 43
0.00000001
 40
0.0
 40
0.0
 40
0.0
 40
0.0
 40
0.8891681188342725
 40
1.0
 40
1.0
 40
1.0
 40
1.0
 10
8.481688559869692
 20
59.0423163199377
 30
0.0
 10
7.809543935293648
 20
59.33675197090547
 30
0.0
 10
7.05361869422985
 20
59.66788805724401
 30
0.0
 10
6.257720723334976
 20
59.87591109066658
 30
0.0
 10
6.169509854004711
 20
59.89896667478661
 30
0.0
  0
LINE
  5
1BE
330
1F
100
AcDbEntity
  8
0
  6
Continuous
 62
     7
370
    25
100
AcDbLine
 10
-3.9
 20
-17.8023516187
 30
0.0
 11
-3.9
 21
-21.429589277
 31
0.0
  0
LINE
  5
1BF
330
1F
100
AcDbEntity
  8
0
  6
Continuous
 62
     7
370
    25
100
AcDbLine
 10
3.9
 20
-21.4295732892
 30
0.0
 11
3.9
 21
-17.8023516187
 31
0.0
  0
LINE
  5
1C0
330
1F
100
AcDbEntity
  8
0
  6
Continuous
 62
     7
370
    25
100
AcDbLine
 10
16.4817430712
 20
-40.0
 30
0.0
 11
19.25
 21
-40.0
 31
0.0
  0
LINE
  5
1C1
330
1F
100
AcDbEntity
  8
0
  6
Continuous
 62
     7
370
    25
100
AcDbLine
 10
-16.4817430712
 20
-40.0
 30
0.0
 11
-19.25
 21
-40.0
 31
0.0
  0
LINE
  5
1C2
330
1F
100
AcDbEntity
  8
0
  6
Continuous
 62
     7
370
    25
100
AcDbLine
 10
-4.0
 20
-21.420142461
 30
0.0
 11
-3.9
 21
-21.3815954201
 31
0.0
  0
LINE
  5
1C3
330
1F
100
AcDbEntity
  8
0
  6
Continuous
 62
     7
370
    25
100
AcDbLine
 10
3.9
 20
-21.3815949268
 30
0.0
 11
4.0
 21
-21.420142461
 31
0.0
  0
LINE
  5
1C4
330
1F
100
AcDbEntity
  8
0
  6
Continuous
 62
     7
370
    25
100
AcDbLine
 10
20.3862606375
 20
-35.6428502911
 30
0.0
 11
20.5361092133
 21
-35.6104421205
 31
0.0
  0
LINE
  5
1C5
330
1F
100
AcDbEntity
  8
0
  6
Continuous
 62
     7
370
    25
100
AcDbLine
 10
-20.3862524621
 20
-44.3571880311
 30
0.0
 11
-20.5361009614
 21
-44.3895964854
 31
0.0
  0
LINE
  5
1C6
330
1F
100
AcDbEntity
  8
0
  6
Continuous
 62
     7
370
    25
100
AcDbLine
 10
0.0
 20
-17.3551032044
 30
0.0
 11
0.0
 21
-21.1341572785
 31
0.0
  0
LINE
  5
1C7
330
1F
100
AcDbEntity
  8
0
  6
Continuous
 62
     7
370
    25
100
AcDbLine
 10
-3.6235371466
 20
-17.3551032044
 30
0.0
 11
3.6235371466
 21
-17.3551032044
 31
0.0
  0
LINE
  5
1C8
330
1F
100
AcDbEntity
  8
0
  6
Continuous
 62
     7
370
    25
100
AcDbLine
 10
10.6066017178
 20
-38.0
 30
0.0
 11
9.6066017178
 21
-38.0
 31
0.0
  0
LINE
  5
1C9
330
1F
100
AcDbEntity
  8
0
  6
Continuous
 62
     7
370
    25
100
AcDbLine
 10
11.1923881554
 20
-36.5857864376
 30
0.0
 11
10.4852813742
 21
-35.8786796564
 31
0.0
  0
LINE
  5
1CA
330
1F
100
AcDbEntity
  8
0
  6
Continuous
 62
     7
370
    25
100
AcDbLine
 10
-4.1213203436
 20
-29.5147186258
 30
0.0
 11
-17.0312229203
 21
-16.6048160491
 31
0.0
  0
LINE
  5
1CB
330
1F
100
AcDbEntity
  8
0
  6
Continuous
 62
     7
370
    25
100
AcDbLine
 10
-17.0312229203
 20
-16.6048160491
 30
0.0
 11
-16.6170093579
 21
-15.6048160491
 31
0.0
  0
LINE
  5
1CC
330
1F
100
AcDbEntity
  8
0
  6
Continuous
 62
     7
370
    25
100
AcDbLine
 10
-16.6170093579
 20
-15.6048160491
 30
0.0
 11
-3.4142135624
 21
-28.8076118446
 31
0.0
  0
LINE
  5
1CD
330
1F
100
AcDbEntity
  8
0
  6
Continuous
 62
     7
370
    25
100
AcDbLine
 10
-4.1213203436
 20
-29.5147186258
 30
0.0
 11
-3.4142135624
 21
-28.8076118446
 31
0.0
  0
LINE
  5
1CE
330
1F
100
AcDbEntity
  8
0
  6
Continuous
 62
     7
370
    25
100
AcDbLine
 10
10.6066017178
 20
-38.0
 30
0.0
 11
10.6066017178
 21
-42.0
 31
0.0
  0
LINE
  5
1CF
330
1F
100
AcDbEntity
  8
0
  6
Continuous
 62
     7
370
    25
100
AcDbLine
 10
10.6066017178
 20
-42.0
 30
0.0
 11
9.6066017178
 21
-42.0
 31
0.0
  0
LINE
  5
1D0
330
1F
100
AcDbEntity
  8
0
  6
Continuous
 62
     7
370
    25
100
AcDbLine
 10
9.6066017178
 20
-42.0
 30
0.0
 11
9.6066017178
 21
-38.0
 31
0.0
  0
LINE
  5
1D1
330
1F
100
AcDbEntity
  8
0
  6
Continuous
 62
     7
370
    25
100
AcDbLine
 10
-17.0312229203
 20
-16.6048160491
 30
0.0
 11
-17.6170093579
 21
-16.6048160491
 31
0.0
  0
LINE
  5
1D2
330
1F
100
AcDbEntity
  8
0
  6
Continuous
 62
     7
370
    25
100
AcDbLine
 10
-17.6170093579
 20
-16.6048160491
 30
0.0
 11
-18.0312229203
 21
-15.6048160491
 31
0.0
  0
LINE
  5
1D3
330
1F
100
AcDbEntity
  8
0
  6
Continuous
 62
     7
370
    25
100
AcDbLine
 10
-18.0312229203
 20
-15.6048160491
 30
0.0
 11
-16.6170093579
 21
-15.6048160491
 31
0.0
  0
LINE
  5
1D4
330
1F
100
AcDbEntity
  8
0
  6
Continuous
 62
     7
370
    25
100
AcDbLine
 10
11.1923881554
 20
-43.4142135624
 30
0.0
 11
10.4852813742
 21
-44.1213203436
 31
0.0
  0
LINE
  5
1D5
330
1F
100
AcDbEntity
  8
0
  6
Continuous
 62
     7
370
    25
100
AcDbLine
 10
-17.6170093579
 20
-16.6048160491
 30
0.0
 11
-23.3951839509
 21
-22.3829906421
 31
0.0
  0
LINE
  5
1D6
330
1F
100
AcDbEntity
  8
0
  6
Continuous
 62
     7
370
    25
100
AcDbLine
 10
-23.3951839509
 20
-22.3829906421
 30
0.0
 11
-24.3951839509
 21
-21.9687770797
 31
0.0
  0
LINE
  5
1D7
330
1F
100
AcDbEntity
  8
0
  6
Continuous
 62
     7
370
    25
100
AcDbLine
 10
-24.3951839509
 20
-21.9687770797
 30
0.0
 11
-18.0312229203
 21
-15.6048160491
 31
0.0
  0
LINE
  5
1D8
330
1F
100
AcDbEntity
  8
0
  6
Continuous
 62
     7
370
    25
100
AcDbLine
 10
11.1923881554
 20
-43.4142135624
 30
0.0
 11
24.3951839509
 21
-56.6170093579
 31
0.0
  0
LINE
  5
1D9
330
1F
100
AcDbEntity
  8
0
  6
Continuous
 62
     7
370
    25
100
AcDbLine
 10
24.3951839509
 20
-56.6170093579
 30
0.0
 11
23.3951839509
 21
-57.0312229203
 31
0.0
  0
LINE
  5
1DA
330
1F
100
AcDbEntity
  8
0
  6
Continuous
 62
     7
370
    25
100
AcDbLine
 10
23.3951839509
 20
-57.0312229203
 30
0.0
 11
10.4852813742
 21
-44.1213203436
 31
0.0
  0
LINE
  5
1DB
330
1F
100
AcDbEntity
  8
0
  6
Continuous
 62
     7
370
    25
100
AcDbLine
 10
-23.3951839509
 20
-22.3829906421
 30
0.0
 11
-23.3951839509
 21
-22.9687770797
 31
0.0
  0
LINE
  5
1DC
330
1F
100
AcDbEntity
  8
0
  6
Continuous
 62
     7
370
    25
100
AcDbLine
 10
-23.3951839509
 20
-22.9687770797
 30
0.0
 11
-24.3951839509
 21
-23.3829906421
 31
0.0
  0
LINE
  5
1DD
330
1F
100
AcDbEntity
  8
0
  6
Continuous
 62
     7
370
    25
100
AcDbLine
 10
-24.3951839509
 20
-23.3829906421
 30
0.0
 11
-24.3951839509
 21
-21.9687770797
 31
0.0
  0
LINE
  5
1DE
330
1F
100
AcDbEntity
  8
0
  6
Continuous
 62
     7
370
    25
100
AcDbLine
 10
24.3951839509
 20
-56.6170093579
 30
0.0
 11
24.3951839509
 21
-58.0312229203
 31
0.0
  0
LINE
  5
1DF
330
1F
100
AcDbEntity
  8
0
  6
Continuous
 62
     7
370
    25
100
AcDbLine
 10
24.3951839509
 20
-58.0312229203
 30
0.0
 11
23.3951839509
 21
-57.6170093579
 31
0.0
  0
LINE
  5
1E0
330
1F
100
AcDbEntity
  8
0
  6
Continuous
 62
     7
370
    25
100
AcDbLine
 10
23.3951839509
 20
-57.6170093579
 30
0.0
 11
23.3951839509
 21
-57.0312229203
 31
0.0
  0
LINE
  5
1E1
330
1F
100
AcDbEntity
  8
0
  6
Continuous
 62
     7
370
    25
100
AcDbLine
 10
-23.3951839509
 20
-22.9687770797
 30
0.0
 11
-10.4852813742
 21
-35.8786796564
 31
0.0
  0
LINE
  5
1E2
330
1F
100
AcDbEntity
  8
0
  6
Continuous
 62
     7
370
    25
100
AcDbLine
 10
-10.4852813742
 20
-35.8786796564
 30
0.0
 11
-11.1923881554
 21
-36.5857864376
 31
0.0
  0
LINE
  5
1E3
330
1F
100
AcDbEntity
  8
0
  6
Continuous
 62
     7
370
    25
100
AcDbLine
 10
-11.1923881554
 20
-36.5857864376
 30
0.0
 11
-24.3951839509
 21
-23.3829906421
 31
0.0
  0
LINE
  5
1E4
330
1F
100
AcDbEntity
  8
0
  6
Continuous
 62
     7
370
    25
100
AcDbLine
 10
24.3951839509
 20
-58.0312229203
 30
0.0
 11
18.0312229203
 21
-64.3951839509
 31
0.0
  0
LINE
  5
1E5
330
1F
100
AcDbEntity
  8
0
  6
Continuous
 62
     7
370
    25
100
AcDbLine
 10
18.0312229203
 20
-64.3951839509
 30
0.0
 11
17.6170093579
 21
-63.3951839509
 31
0.0
  0
LINE
  5
1E6
330
1F
100
AcDbEntity
  8
0
  6
Continuous
 62
     7
370
    25
100
AcDbLine
 10
17.6170093579
 20
-63.3951839509
 30
0.0
 11
23.3951839509
 21
-57.6170093579
 31
0.0
  0
LINE
  5
1E7
330
1F
100
AcDbEntity
  8
0
  6
Continuous
 62
     7
370
    25
100
AcDbLine
 10
-9.6066017178
 20
-38.0
 30
0.0
 11
-10.6066017178
 21
-38.0
 31
0.0
  0
LINE
  5
1E8
330
1F
100
AcDbEntity
  8
0
  6
Continuous
 62
     7
370
    25
100
AcDbLine
 10
18.0312229203
 20
-64.3951839509
 30
0.0
 11
16.6170093579
 21
-64.3951839509
 31
0.0
  0
LINE
  5
1E9
330
1F
100
AcDbEntity
  8
0
  6
Continuous
 62
     7
370
    25
100
AcDbLine
 10
16.6170093579
 20
-64.3951839509
 30
0.0
 11
17.0312229203
 21
-63.3951839509
 31
0.0
  0
LINE
  5
1EA
330
1F
100
AcDbEntity
  8
0
  6
Continuous
 62
     7
370
    25
100
AcDbLine
 10
17.0312229203
 20
-63.3951839509
 30
0.0
 11
17.6170093579
 21
-63.3951839509
 31
0.0
  0
LINE
  5
1EB
330
1F
100
AcDbEntity
  8
0
  6
Continuous
 62
     7
370
    25
100
AcDbLine
 10
-9.6066017178
 20
-38.0
 30
0.0
 11
-9.6066017178
 21
-42.0
 31
0.0
  0
LINE
  5
1EC
330
1F
100
AcDbEntity
  8
0
  6
Continuous
 62
     7
370
    25
100
AcDbLine
 10
-9.6066017178
 20
-42.0
 30
0.0
 11
-10.6066017178
 21
-42.0
 31
0.0
  0
LINE
  5
1ED
330
1F
100
AcDbEntity
  8
0
  6
Continuous
 62
     7
370
    25
100
AcDbLine
 10
-10.6066017178
 20
-42.0
 30
0.0
 11
-10.6066017178
 21
-38.0
 31
0.0
  0
LINE
  5
1EE
330
1F
100
AcDbEntity
  8
0
  6
Continuous
 62
     7
370
    25
100
AcDbLine
 10
16.6170093579
 20
-64.3951839509
 30
0.0
 11
3.4142135624
 21
-51.1923881554
 31
0.0
  0
LINE
  5
1EF
330
1F
100
AcDbEntity
  8
0
  6
Continuous
 62
     7
370
    25
100
AcDbLine
 10
3.4142135624
 20
-51.1923881554
 30
0.0
 11
4.1213203436
 21
-50.4852813742
 31
0.0
  0
LINE
  5
1F0
330
1F
100
AcDbEntity
  8
0
  6
Continuous
 62
     7
370
    25
100
AcDbLine
 10
4.1213203436
 20
-50.4852813742
 30
0.0
 11
17.0312229203
 21
-63.3951839509
 31
0.0
  0
LINE
  5
1F1
330
1F
100
AcDbEntity
  8
0
  6
Continuous
 62
     7
370
    25
100
AcDbLine
 10
-10.4852813742
 20
-44.1213203436
 30
0.0
 11
-11.1923881554
 21
-43.4142135624
 31
0.0
  0
LINE
  5
1F2
330
1F
100
AcDbEntity
  8
0
  6
Continuous
 62
     7
370
    25
100
AcDbLine
 10
2.0
 20
-50.6066017178
 30
0.0
 11
2.0
 21
-49.6066017178
 31
0.0
  0
LINE
  5
1F3
330
1F
100
AcDbEntity
  8
0
  6
Continuous
 62
     7
370
    25
100
AcDbLine
 10
-10.4852813742
 20
-44.1213203436
 30
0.0
 11
-23.3951839509
 21
-57.0312229203
 31
0.0
  0
LINE
  5
1F4
330
1F
100
AcDbEntity
  8
0
  6
Continuous
 62
     7
370
    25
100
AcDbLine
 10
-23.3951839509
 20
-57.0312229203
 30
0.0
 11
-24.3951839509
 21
-56.6170093579
 31
0.0
  0
LINE
  5
1F5
330
1F
100
AcDbEntity
  8
0
  6
Continuous
 62
     7
370
    25
100
AcDbLine
 10
-24.3951839509
 20
-56.6170093579
 30
0.0
 11
-11.1923881554
 21
-43.4142135624
 31
0.0
  0
LINE
  5
1F6
330
1F
100
AcDbEntity
  8
0
  6
Continuous
 62
     7
370
    25
100
AcDbLine
 10
2.0
 20
-50.6066017178
 30
0.0
 11
-2.0
 21
-50.6066017178
 31
0.0
  0
LINE
  5
1F7
330
1F
100
AcDbEntity
  8
0
  6
Continuous
 62
     7
370
    25
100
AcDbLine
 10
-2.0
 20
-50.6066017178
 30
0.0
 11
-2.0
 21
-49.6066017178
 31
0.0
  0
LINE
  5
1F8
330
1F
100
AcDbEntity
  8
0
  6
Continuous
 62
     7
370
    25
100
AcDbLine
 10
-2.0
 20
-49.6066017178
 30
0.0
 11
2.0
 21
-49.6066017178
 31
0.0
  0
LINE
  5
1F9
330
1F
100
AcDbEntity
  8
0
  6
Continuous
 62
     7
370
    25
100
AcDbLine
 10
-23.3951839509
 20
-57.0312229203
 30
0.0
 11
-23.3951839509
 21
-57.6170093579
 31
0.0
  0
LINE
  5
1FA
330
1F
100
AcDbEntity
  8
0
  6
Continuous
 62
     7
370
    25
100
AcDbLine
 10
-23.3951839509
 20
-57.6170093579
 30
0.0
 11
-24.3951839509
 21
-58.0312229203
 31
0.0
  0
LINE
  5
1FB
330
1F
100
AcDbEntity
  8
0
  6
Continuous
 62
     7
370
    25
100
AcDbLine
 10
-24.3951839509
 20
-58.0312229203
 30
0.0
 11
-24.3951839509
 21
-56.6170093579
 31
0.0
  0
LINE
  5
1FC
330
1F
100
AcDbEntity
  8
0
  6
Continuous
 62
     7
370
    25
100
AcDbLine
 10
-3.4142135624
 20
-51.1923881554
 30
0.0
 11
-4.1213203436
 21
-50.4852813742
 31
0.0
  0
LINE
  5
1FD
330
1F
100
AcDbEntity
  8
0
  6
Continuous
 62
     7
370
    25
100
AcDbLine
 10
-23.3951839509
 20
-57.6170093579
 30
0.0
 11
-17.6170093579
 21
-63.3951839509
 31
0.0
  0
LINE
  5
1FE
330
1F
100
AcDbEntity
  8
0
  6
Continuous
 62
     7
370
    25
100
AcDbLine
 10
-17.6170093579
 20
-63.3951839509
 30
0.0
 11
-18.0312229203
 21
-64.3951839509
 31
0.0
  0
LINE
  5
1FF
330
1F
100
AcDbEntity
  8
0
  6
Continuous
 62
     7
370
    25
100
AcDbLine
 10
-18.0312229203
 20
-64.3951839509
 30
0.0
 11
-24.3951839509
 21
-58.0312229203
 31
0.0
  0
LINE
  5
200
330
1F
100
AcDbEntity
  8
0
  6
Continuous
 62
     7
370
    25
100
AcDbLine
 10
-3.4142135624
 20
-51.1923881554
 30
0.0
 11
-16.6170093579
 21
-64.3951839509
 31
0.0
  0
LINE
  5
201
330
1F
100
AcDbEntity
  8
0
  6
Continuous
 62
     7
370
    25
100
AcDbLine
 10
-16.6170093579
 20
-64.3951839509
 30
0.0
 11
-17.0312229203
 21
-63.3951839509
 31
0.0
  0
LINE
  5
202
330
1F
100
AcDbEntity
  8
0
  6
Continuous
 62
     7
370
    25
100
AcDbLine
 10
-17.0312229203
 20
-63.3951839509
 30
0.0
 11
-4.1213203436
 21
-50.4852813742
 31
0.0
  0
LINE
  5
203
330
1F
100
AcDbEntity
  8
0
  6
Continuous
 62
     7
370
    25
100
AcDbLine
 10
-17.6170093579
 20
-63.3951839509
 30
0.0
 11
-17.0312229203
 21
-63.3951839509
 31
0.0
  0
LINE
  5
204
330
1F
100
AcDbEntity
  8
0
  6
Continuous
 62
     7
370
    25
100
AcDbLine
 10
-16.6170093579
 20
-64.3951839509
 30
0.0
 11
-18.0312229203
 21
-64.3951839509
 31
0.0
  0
LINE
  5
205
330
1F
100
AcDbEntity
  8
0
  6
Continuous
 62
     7
370
    25
100
AcDbLine
 10
2.0
 20
-30.3933982822
 30
0.0
 11
-2.0
 21
-30.3933982822
 31
0.0
  0
LINE
  5
206
330
1F
100
AcDbEntity
  8
0
  6
Continuous
 62
     7
370
    25
100
AcDbLine
 10
-2.0
 20
-30.3933982822
 30
0.0
 11
-2.0
 21
-29.3933982822
 31
0.0
  0
LINE
  5
207
330
1F
100
AcDbEntity
  8
0
  6
Continuous
 62
     7
370
    25
100
AcDbLine
 10
-2.0
 20
-29.3933982822
 30
0.0
 11
2.0
 21
-29.3933982822
 31
0.0
  0
LINE
  5
208
330
1F
100
AcDbEntity
  8
0
  6
Continuous
 62
     7
370
    25
100
AcDbLine
 10
2.0
 20
-30.3933982822
 30
0.0
 11
2.0
 21
-29.3933982822
 31
0.0
  0
LINE
  5
209
330
1F
100
AcDbEntity
  8
0
  6
Continuous
 62
     7
370
    25
100
AcDbLine
 10
17.0312229203
 20
-16.6048160491
 30
0.0
 11
4.1213203436
 21
-29.5147186258
 31
0.0
  0
LINE
  5
20A
330
1F
100
AcDbEntity
  8
0
  6
Continuous
 62
     7
370
    25
100
AcDbLine
 10
17.6170093579
 20
-16.6048160491
 30
0.0
 11
17.0312229203
 21
-16.6048160491
 31
0.0
  0
LINE
  5
20B
330
1F
100
AcDbEntity
  8
0
  6
Continuous
 62
     7
370
    25
100
AcDbLine
 10
23.3951839509
 20
-22.3829906421
 30
0.0
 11
17.6170093579
 21
-16.6048160491
 31
0.0
  0
LINE
  5
20C
330
1F
100
AcDbEntity
  8
0
  6
Continuous
 62
     7
370
    25
100
AcDbLine
 10
23.3951839509
 20
-22.9687770797
 30
0.0
 11
23.3951839509
 21
-22.3829906421
 31
0.0
  0
LINE
  5
20D
330
1F
100
AcDbEntity
  8
0
  6
Continuous
 62
     7
370
    25
100
AcDbLine
 10
10.4852813742
 20
-35.8786796564
 30
0.0
 11
23.3951839509
 21
-22.9687770797
 31
0.0
  0
LINE
  5
20E
330
1F
100
AcDbEntity
  8
0
  6
Continuous
 62
     7
370
    25
100
AcDbLine
 10
4.1213203436
 20
-29.5147186258
 30
0.0
 11
3.4142135624
 21
-28.8076118446
 31
0.0
  0
LINE
  5
20F
330
1F
100
AcDbEntity
  8
0
  6
Continuous
 62
     7
370
    25
100
AcDbLine
 10
3.4142135624
 20
-28.8076118446
 30
0.0
 11
16.6170093579
 21
-15.6048160491
 31
0.0
  0
LINE
  5
210
330
1F
100
AcDbEntity
  8
0
  6
Continuous
 62
     7
370
    25
100
AcDbLine
 10
17.0312229203
 20
-16.6048160491
 30
0.0
 11
16.6170093579
 21
-15.6048160491
 31
0.0
  0
LINE
  5
211
330
1F
100
AcDbEntity
  8
0
  6
Continuous
 62
     7
370
    25
100
AcDbLine
 10
24.3951839509
 20
-21.9687770797
 30
0.0
 11
24.3951839509
 21
-23.3829906421
 31
0.0
  0
LINE
  5
212
330
1F
100
AcDbEntity
  8
0
  6
Continuous
 62
     7
370
    25
100
AcDbLine
 10
24.3951839509
 20
-23.3829906421
 30
0.0
 11
23.3951839509
 21
-22.9687770797
 31
0.0
  0
LINE
  5
213
330
1F
100
AcDbEntity
  8
0
  6
Continuous
 62
     7
370
    25
100
AcDbLine
 10
24.3951839509
 20
-21.9687770797
 30
0.0
 11
23.3951839509
 21
-22.3829906421
 31
0.0
  0
LINE
  5
214
330
1F
100
AcDbEntity
  8
0
  6
Continuous
 62
     7
370
    25
100
AcDbLine
 10
16.6170093579
 20
-15.6048160491
 30
0.0
 11
18.0312229203
 21
-15.6048160491
 31
0.0
  0
LINE
  5
215
330
1F
100
AcDbEntity
  8
0
  6
Continuous
 62
     7
370
    25
100
AcDbLine
 10
18.0312229203
 20
-15.6048160491
 30
0.0
 11
17.6170093579
 21
-16.6048160491
 31
0.0
  0
LINE
  5
216
330
1F
100
AcDbEntity
  8
0
  6
Continuous
 62
     7
370
    25
100
AcDbLine
 10
24.3951839509
 20
-23.3829906421
 30
0.0
 11
11.1923881554
 21
-36.5857864376
 31
0.0
  0
LINE
  5
217
330
1F
100
AcDbEntity
  8
0
  6
Continuous
 62
     7
370
    25
100
AcDbLine
 10
18.0312229203
 20
-15.6048160491
 30
0.0
 11
24.3951839509
 21
-21.9687770797
 31
0.0
  0
LINE
  5
218
330
1F
100
AcDbEntity
  8
0
  6
Continuous
 62
     7
370
    25
100
AcDbLine
 10
62.4280209908
 20
-72.8991175063
 30
0.0
 11
42.8991175063
 21
-92.4280209908
 31
0.0
  0
LINE
  5
219
330
1F
100
AcDbEntity
  8
0
  6
Continuous
 62
     7
370
    25
100
AcDbLine
 10
42.8991175063
 20
-92.4280209908
 30
0.0
 11
41.1313505534
 21
-90.6602540378
 31
0.0
  0
LINE
  5
21A
330
1F
100
AcDbEntity
  8
0
  6
Continuous
 62
     7
370
    25
100
AcDbLine
 10
41.1313505534
 20
-90.6602540378
 30
0.0
 11
60.6602540378
 21
-71.1313505534
 31
0.0
  0
LINE
  5
21B
330
1F
100
AcDbEntity
  8
0
  6
Continuous
 62
     7
370
    25
100
AcDbLine
 10
62.4280209908
 20
-72.8991175063
 30
0.0
 11
60.6602540378
 21
-71.1313505534
 31
0.0
  0
LINE
  5
21C
330
1F
100
AcDbEntity
  8
0
  6
Continuous
 62
     7
370
    25
100
AcDbLine
 10
-42.8991175063
 20
-92.4280209908
 30
0.0
 11
-62.4280209908
 21
-72.8991175063
 31
0.0
  0
LINE
  5
21D
330
1F
100
AcDbEntity
  8
0
  6
Continuous
 62
     7
370
    25
100
AcDbLine
 10
-62.4280209908
 20
-72.8991175063
 30
0.0
 11
-60.6602540378
 21
-71.1313505534
 31
0.0
  0
LINE
  5
21E
330
1F
100
AcDbEntity
  8
0
  6
Continuous
 62
     7
370
    25
100
AcDbLine
 10
-60.6602540378
 20
-71.1313505534
 30
0.0
 11
-41.1313505534
 21
-90.6602540378
 31
0.0
  0
LINE
  5
21F
330
1F
100
AcDbEntity
  8
0
  6
Continuous
 62
     7
370
    25
100
AcDbLine
 10
-42.8991175063
 20
-92.4280209908
 30
0.0
 11
-41.1313505534
 21
-90.6602540378
 31
0.0
  0
LINE
  5
220
330
1F
100
AcDbEntity
  8
0
  6
Continuous
 62
     7
370
    25
100
AcDbLine
 10
-63.1602540378
 20
-71.1313505534
 30
0.0
 11
-60.6602540378
 21
-71.1313505534
 31
0.0
  0
LINE
  5
221
330
1F
100
AcDbEntity
  8
0
  6
Continuous
 62
     7
370
    25
100
AcDbLine
 10
60.6602540378
 20
71.1313505534
 30
0.0
 11
41.1313505534
 21
90.6602540378
 31
0.0
  0
LINE
  5
222
330
1F
100
AcDbEntity
  8
0
  6
Continuous
 62
     7
370
    25
100
AcDbLine
 10
41.1313505534
 20
90.6602540378
 30
0.0
 11
42.8991175063
 21
92.4280209908
 31
0.0
  0
LINE
  5
223
330
1F
100
AcDbEntity
  8
0
  6
Continuous
 62
     7
370
    25
100
AcDbLine
 10
42.8991175063
 20
92.4280209908
 30
0.0
 11
62.4280209908
 21
72.8991175063
 31
0.0
  0
LINE
  5
224
330
1F
100
AcDbEntity
  8
0
  6
Continuous
 62
     7
370
    25
100
AcDbLine
 10
60.6602540378
 20
71.1313505534
 30
0.0
 11
62.4280209908
 21
72.8991175063
 31
0.0
  0
LINE
  5
225
330
1F
100
AcDbEntity
  8
0
  6
Continuous
 62
     7
370
    25
100
AcDbLine
 10
41.1313505534
 20
-93.1602540378
 30
0.0
 11
41.1313505534
 21
-90.6602540378
 31
0.0
  0
LINE
  5
226
330
1F
100
AcDbEntity
  8
0
  6
Continuous
 62
     7
370
    25
100
AcDbLine
 10
41.1313505534
 20
90.6602540378
 30
0.0
 11
41.1313505534
 21
93.1602540378
 31
0.0
  0
LINE
  5
227
330
1F
100
AcDbEntity
  8
0
  6
Continuous
 62
     7
370
    25
100
AcDbLine
 10
60.6602540378
 20
71.1313505534
 30
0.0
 11
63.1602540378
 21
71.1313505534
 31
0.0
  0
LINE
  5
228
330
1F
100
AcDbEntity
  8
0
  6
Continuous
 62
     7
370
    25
100
AcDbLine
 10
60.6602540378
 20
-71.1313505534
 30
0.0
 11
63.1602540378
 21
-71.1313505534
 31
0.0
  0
LINE
  5
229
330
1F
100
AcDbEntity
  8
0
  6
Continuous
 62
     7
370
    25
100
AcDbLine
 10
-41.1313505534
 20
90.6602540378
 30
0.0
 11
-60.6602540378
 21
71.1313505534
 31
0.0
  0
LINE
  5
22A
330
1F
100
AcDbEntity
  8
0
  6
Continuous
 62
     7
370
    25
100
AcDbLine
 10
-60.6602540378
 20
71.1313505534
 30
0.0
 11
-62.4280209908
 21
72.8991175063
 31
0.0
  0
LINE
  5
22B
330
1F
100
AcDbEntity
  8
0
  6
Continuous
 62
     7
370
    25
100
AcDbLine
 10
-62.4280209908
 20
72.8991175063
 30
0.0
 11
-42.8991175063
 21
92.4280209908
 31
0.0
  0
LINE
  5
22C
330
1F
100
AcDbEntity
  8
0
  6
Continuous
 62
     7
370
    25
100
AcDbLine
 10
-41.1313505534
 20
90.6602540378
 30
0.0
 11
-42.8991175063
 21
92.4280209908
 31
0.0
  0
LINE
  5
22D
330
1F
100
AcDbEntity
  8
0
  6
Continuous
 62
     7
370
    25
100
AcDbLine
 10
60.6602540378
 20
-71.1313505534
 30
0.0
 11
60.6602540378
 21
71.1313505534
 31
0.0
  0
LINE
  5
22E
330
1F
100
AcDbEntity
  8
0
  6
Continuous
 62
     7
370
    25
100
AcDbLine
 10
63.1602540378
 20
71.1313505534
 30
0.0
 11
63.1602540378
 21
-71.1313505534
 31
0.0
  0
LINE
  5
22F
330
1F
100
AcDbEntity
  8
0
  6
Continuous
 62
     7
370
    25
100
AcDbLine
 10
41.1313505534
 20
-93.1602540378
 30
0.0
 11
-41.1313505534
 21
-93.1602540378
 31
0.0
  0
LINE
  5
230
330
1F
100
AcDbEntity
  8
0
  6
Continuous
 62
     7
370
    25
100
AcDbLine
 10
-41.1313505534
 20
-93.1602540378
 30
0.0
 11
-41.1313505534
 21
-90.6602540378
 31
0.0
  0
LINE
  5
231
330
1F
100
AcDbEntity
  8
0
  6
Continuous
 62
     7
370
    25
100
AcDbLine
 10
-41.1313505534
 20
-90.6602540378
 30
0.0
 11
41.1313505534
 21
-90.6602540378
 31
0.0
  0
LINE
  5
232
330
1F
100
AcDbEntity
  8
0
  6
Continuous
 62
     7
370
    25
100
AcDbLine
 10
-41.1313505534
 20
90.6602540378
 30
0.0
 11
-41.1313505534
 21
93.1602540378
 31
0.0
  0
LINE
  5
233
330
1F
100
AcDbEntity
  8
0
  6
Continuous
 62
     7
370
    25
100
AcDbLine
 10
-63.1602540378
 20
-71.1313505534
 30
0.0
 11
-63.1602540378
 21
71.1313505534
 31
0.0
  0
LINE
  5
234
330
1F
100
AcDbEntity
  8
0
  6
Continuous
 62
     7
370
    25
100
AcDbLine
 10
-63.1602540378
 20
71.1313505534
 30
0.0
 11
-60.6602540378
 21
71.1313505534
 31
0.0
  0
LINE
  5
235
330
1F
100
AcDbEntity
  8
0
  6
Continuous
 62
     7
370
    25
100
AcDbLine
 10
-60.6602540378
 20
71.1313505534
 30
0.0
 11
-60.6602540378
 21
-71.1313505534
 31
0.0
  0
LINE
  5
236
330
1F
100
AcDbEntity
  8
0
  6
Continuous
 62
     7
370
    25
100
AcDbLine
 10
-43.9231125887
 20
99.9001638066
 30
0.0
 11
-41.1313505534
 21
93.1602540378
 31
0.0
  0
LINE
  5
237
330
1F
100
AcDbEntity
  8
0
  6
Continuous
 62
     7
370
    25
100
AcDbLine
 10
-42.8991175063
 20
92.4280209908
 30
0.0
 11
-45.6908795417
 21
99.1679307595
 31
0.0
  0
LINE
  5
238
330
1F
100
AcDbEntity
  8
0
  6
Continuous
 62
     7
370
    25
100
AcDbLine
 10
-69.9001638066
 20
-73.9231125887
 30
0.0
 11
-63.1602540378
 21
-71.1313505534
 31
0.0
  0
LINE
  5
239
330
1F
100
AcDbEntity
  8
0
  6
Continuous
 62
     7
370
    25
100
AcDbLine
 10
-62.4280209908
 20
-72.8991175063
 30
0.0
 11
-69.1679307595
 21
-75.6908795417
 31
0.0
  0
LINE
  5
23A
330
1F
100
AcDbEntity
  8
0
  6
Continuous
 62
     7
370
    25
100
AcDbLine
 10
69.1679307595
 20
-75.6908795417
 30
0.0
 11
62.4280209908
 21
-72.8991175063
 31
0.0
  0
LINE
  5
23B
330
1F
100
AcDbEntity
  8
0
  6
Continuous
 62
     7
370
    25
100
AcDbLine
 10
63.1602540378
 20
-71.1313505534
 30
0.0
 11
69.9001638066
 21
-73.9231125887
 31
0.0
  0
LINE
  5
23C
330
1F
100
AcDbEntity
  8
0
  6
Continuous
 62
     7
370
    25
100
AcDbLine
 10
45.6908795417
 20
99.1679307595
 30
0.0
 11
42.8991175063
 21
92.4280209908
 31
0.0
  0
LINE
  5
23D
330
1F
100
AcDbEntity
  8
0
  6
Continuous
 62
     7
370
    25
100
AcDbLine
 10
41.1313505534
 20
93.1602540378
 30
0.0
 11
43.9231125887
 21
99.9001638066
 31
0.0
  0
LINE
  5
23E
330
1F
100
AcDbEntity
  8
0
  6
Continuous
 62
     7
370
    25
100
AcDbLine
 10
69.9001638066
 20
73.9231125887
 30
0.0
 11
63.1602540378
 21
71.1313505534
 31
0.0
  0
LINE
  5
23F
330
1F
100
AcDbEntity
  8
0
  6
Continuous
 62
     7
370
    25
100
AcDbLine
 10
62.4280209908
 20
72.8991175063
 30
0.0
 11
69.1679307595
 21
75.6908795417
 31
0.0
  0
LINE
  5
240
330
1F
100
AcDbEntity
  8
0
  6
Continuous
 62
     7
370
    25
100
AcDbLine
 10
43.9231125887
 20
-99.9001638066
 30
0.0
 11
41.1313505534
 21
-93.1602540378
 31
0.0
  0
LINE
  5
241
330
1F
100
AcDbEntity
  8
0
  6
Continuous
 62
     7
370
    25
100
AcDbLine
 10
42.8991175063
 20
-92.4280209908
 30
0.0
 11
45.6908795417
 21
-99.1679307595
 31
0.0
  0
LINE
  5
242
330
1F
100
AcDbEntity
  8
0
  6
Continuous
 62
     7
370
    25
100
AcDbLine
 10
-45.6908795417
 20
-99.1679307595
 30
0.0
 11
-42.8991175063
 21
-92.4280209908
 31
0.0
  0
LINE
  5
243
330
1F
100
AcDbEntity
  8
0
  6
Continuous
 62
     7
370
    25
100
AcDbLine
 10
-41.1313505534
 20
-93.1602540378
 30
0.0
 11
-43.9231125887
 21
-99.9001638066
 31
0.0
  0
LINE
  5
244
330
1F
100
AcDbEntity
  8
0
  6
Continuous
 62
     7
370
    25
100
AcDbLine
 10
-63.1602540378
 20
71.1313505534
 30
0.0
 11
-69.9001638066
 21
73.9231125887
 31
0.0
  0
LINE
  5
245
330
1F
100
AcDbEntity
  8
0
  6
Continuous
 62
     7
370
    25
100
AcDbLine
 10
-69.1679307595
 20
75.6908795417
 30
0.0
 11
-62.4280209908
 21
72.8991175063
 31
0.0
  0
LINE
  5
246
330
1F
100
AcDbEntity
  8
0
  6
Continuous
 62
     7
370
    25
100
AcDbLine
 10
-46.4644660941
 20
-98.5355339059
 30
0.0
 11
-68.5355339059
 21
-76.4644660941
 31
0.0
  0
LINE
  5
247
330
1F
100
AcDbEntity
  8
0
  6
Continuous
 62
     7
370
    25
100
AcDbLine
 10
-68.5355339059
 20
76.4644660941
 30
0.0
 11
-46.4644660941
 21
98.5355339059
 31
0.0
  0
LINE
  5
248
330
1F
100
AcDbEntity
  8
0
  6
Continuous
 62
     7
370
    25
100
AcDbLine
 10
42.9289321881
 20
-100.0
 30
0.0
 11
-42.9289321881
 21
-100.0
 31
0.0
  0
LINE
  5
249
330
1F
100
AcDbEntity
  8
0
  6
Continuous
 62
     7
370
    25
100
AcDbLine
 10
-70.0
 20
-72.9289321881
 30
0.0
 11
-70.0
 21
72.9289321881
 31
0.0
  0
LINE
  5
24A
330
1F
100
AcDbEntity
  8
0
  6
Continuous
 62
     7
370
    25
100
AcDbLine
 10
-42.9289321881
 20
100.0
 30
0.0
 11
-7.1378043934
 21
100.0
 31
0.0
  0
LINE
  5
24B
330
1F
100
AcDbEntity
  8
0
  6
Continuous
 62
     7
370
    25
100
AcDbLine
 10
7.1378043934
 20
100.0
 30
0.0
 11
42.9289321881
 21
100.0
 31
0.0
  0
LINE
  5
24C
330
1F
100
AcDbEntity
  8
0
  6
Continuous
 62
     7
370
    25
100
AcDbLine
 10
46.4644660941
 20
98.5355339059
 30
0.0
 11
68.5355339059
 21
76.4644660941
 31
0.0
  0
LINE
  5
24D
330
1F
100
AcDbEntity
  8
0
  6
Continuous
 62
     7
370
    25
100
AcDbLine
 10
70.0
 20
72.9289321881
 30
0.0
 11
70.0
 21
-72.9289321881
 31
0.0
  0
LINE
  5
24E
330
1F
100
AcDbEntity
  8
0
  6
Continuous
 62
     7
370
    25
100
AcDbLine
 10
68.5355339059
 20
-76.4644660941
 30
0.0
 11
46.4644660941
 21
-98.5355339059
 31
0.0
  0
LINE
  5
24F
330
1F
100
AcDbEntity
  8
0
  6
Continuous
 62
     7
370
    25
100
AcDbLine
 10
6.111238716
 20
57.485720755
 30
0.0
 11
7.5365381506
 21
56.9203505185
 31
0.0
  0
LINE
  5
250
330
1F
100
AcDbEntity
  8
0
  6
Continuous
 62
     7
370
    25
100
AcDbLine
 10
6.7060402844
 20
55.0557921867
 30
0.0
 11
7.8323800412
 21
57.5845478444
 31
0.0
  0
LINE
  5
251
330
1F
100
AcDbEntity
  8
0
  6
Continuous
 62
     7
370
    25
100
AcDbLine
 10
6.7060402844
 20
55.0557921867
 30
0.0
 11
6.0591275368
 21
55.3275838982
 31
0.0
  0
LINE
  5
252
330
1F
100
AcDbEntity
  8
0
  6
Continuous
 62
     7
370
    25
100
AcDbLine
 10
-6.7060402844
 20
24.9442078133
 30
0.0
 11
-7.8323800412
 21
22.4154521556
 31
0.0
  0
LINE
  5
253
330
1F
100
AcDbEntity
  8
0
  6
Continuous
 62
     7
370
    25
100
AcDbLine
 10
-4.3144776882
 20
19.6046657476
 30
0.0
 11
-4.3458430067
 21
19.4545954393
 31
0.0
  0
LINE
  5
254
330
1F
100
AcDbEntity
  8
0
  6
Continuous
 62
     7
370
    25
100
AcDbLine
 10
6.1736882158
 20
60.0720097104
 30
0.0
 11
7.4851092978
 21
59.6207323716
 31
0.0
  0
LINE
  5
255
330
1F
100
AcDbEntity
  8
0
  6
Continuous
 62
     7
370
    25
100
AcDbLine
 10
-6.0
 20
52.8788710036
 30
0.0
 11
-7.4731897327
 21
113.8896772847
 31
0.0
  0
LINE
  5
256
330
1F
100
AcDbEntity
  8
0
  6
Continuous
 62
     7
370
    25
100
AcDbLine
 10
-7.4731897327
 20
113.8896772847
 30
0.0
 11
-6.4777383028
 21
114.0901235852
 31
0.0
  0
LINE
  5
257
330
1F
100
AcDbEntity
  8
0
  6
Continuous
 62
     7
370
    25
100
AcDbLine
 10
-6.4777383028
 20
114.0901235852
 30
0.0
 11
-5.0004449167
 21
52.9093682501
 31
0.0
  0
LINE
  5
258
330
1F
100
AcDbEntity
  8
0
  6
Continuous
 62
     7
370
    25
100
AcDbLine
 10
3.313708499
 20
32.0
 30
0.0
 11
8.0
 21
36.686291501
 31
0.0
  0
LINE
  5
259
330
1F
100
AcDbEntity
  8
0
  6
Continuous
 62
     7
370
    25
100
AcDbLine
 10
-3.313708499
 20
32.0
 30
0.0
 11
3.313708499
 21
32.0
 31
0.0
  0
LINE
  5
25A
330
1F
100
AcDbEntity
  8
0
  6
Continuous
 62
     7
370
    25
100
AcDbLine
 10
-8.0
 20
36.686291501
 30
0.0
 11
-3.313708499
 21
32.0
 31
0.0
  0
LINE
  5
25B
330
1F
100
AcDbEntity
  8
0
  6
Continuous
 62
     7
370
    25
100
AcDbLine
 10
-8.0
 20
42.7848435429
 30
0.0
 11
-8.0
 21
36.686291501
 31
0.0
  0
LINE
  5
25C
330
1F
100
AcDbEntity
  8
0
  6
Continuous
 62
     7
370
    25
100
AcDbLine
 10
6.4777383028
 20
114.0901235852
 30
0.0
 11
-6.4777383028
 21
114.0901235852
 31
0.0
  0
LINE
  5
25D
330
1F
100
AcDbEntity
  8
0
  6
Continuous
 62
     7
370
    25
100
AcDbLine
 10
4.9998357832
 20
52.8841415417
 30
0.0
 11
6.4777383028
 21
114.0901235852
 31
0.0
  0
LINE
  5
25E
330
1F
100
AcDbEntity
  8
0
  6
Continuous
 62
     7
370
    25
100
AcDbLine
 10
8.0
 20
36.686291501
 30
0.0
 11
8.0
 21
43.5948053266
 31
0.0
  0
LINE
  5
25F
330
1F
100
AcDbEntity
  8
0
  6
Continuous
 62
     7
370
    25
100
AcDbLine
 10
7.4737521077
 20
113.9129675303
 30
0.0
 11
6.4777383028
 21
114.0901235852
 31
0.0
  0
LINE
  5
260
330
1F
100
AcDbEntity
  8
0
  6
Continuous
 62
     7
370
    25
100
AcDbLine
 10
6.4974728314
 20
114.8954715367
 30
0.0
 11
6.4777383028
 21
114.0901235852
 31
0.0
  0
LINE
  5
261
330
1F
100
AcDbEntity
  8
0
  6
Continuous
 62
     7
370
    25
100
AcDbLine
 10
7.4737521077
 20
113.9129675303
 30
0.0
 11
6.4974728314
 21
114.8954715367
 31
0.0
  0
LINE
  5
262
330
1F
100
AcDbEntity
  8
0
  6
Continuous
 62
     7
370
    25
100
AcDbLine
 10
8.0
 20
36.686291501
 30
0.0
 11
9.0
 21
36.2720779386
 31
0.0
  0
LINE
  5
263
330
1F
100
AcDbEntity
  8
0
  6
Continuous
 62
     7
370
    25
100
AcDbLine
 10
9.0
 20
36.2720779386
 30
0.0
 11
3.7279220614
 21
31.0
 31
0.0
  0
LINE
  5
264
330
1F
100
AcDbEntity
  8
0
  6
Continuous
 62
     7
370
    25
100
AcDbLine
 10
3.313708499
 20
32.0
 30
0.0
 11
3.7279220614
 21
31.0
 31
0.0
  0
LINE
  5
265
330
1F
100
AcDbEntity
  8
0
  6
Continuous
 62
     7
370
    25
100
AcDbLine
 10
9.0
 20
43.9160259482
 30
0.0
 11
9.0
 21
36.2720779386
 31
0.0
  0
LINE
  5
266
330
1F
100
AcDbEntity
  8
0
  6
Continuous
 62
     7
370
    25
100
AcDbLine
 10
7.4737521077
 20
113.9129675303
 30
0.0
 11
6.0
 21
52.8788710036
 31
0.0
  0
LINE
  5
267
330
1F
100
AcDbEntity
  8
0
  6
Continuous
 62
     7
370
    25
100
AcDbLine
 10
-8.0
 20
36.686291501
 30
0.0
 11
-9.0
 21
36.2720779386
 31
0.0
  0
LINE
  5
268
330
1F
100
AcDbEntity
  8
0
  6
Continuous
 62
     7
370
    25
100
AcDbLine
 10
-9.0
 20
36.2720779386
 30
0.0
 11
-9.0
 21
43.1066017178
 31
0.0
  0
LINE
  5
269
330
1F
100
AcDbEntity
  8
0
  6
Continuous
 62
     7
370
    25
100
AcDbLine
 10
-3.313708499
 20
32.0
 30
0.0
 11
-3.7279220614
 21
31.0
 31
0.0
  0
LINE
  5
26A
330
1F
100
AcDbEntity
  8
0
  6
Continuous
 62
     7
370
    25
100
AcDbLine
 10
-3.7279220614
 20
31.0
 30
0.0
 11
-9.0
 21
36.2720779386
 31
0.0
  0
LINE
  5
26B
330
1F
100
AcDbEntity
  8
0
  6
Continuous
 62
     7
370
    25
100
AcDbLine
 10
-6.5206422422
 20
114.8954715367
 30
0.0
 11
-6.4777383028
 21
114.0901235852
 31
0.0
  0
LINE
  5
26C
330
1F
100
AcDbEntity
  8
0
  6
Continuous
 62
     7
370
    25
100
AcDbLine
 10
-6.5206422422
 20
114.8954715367
 30
0.0
 11
-7.4731897327
 21
113.8896772847
 31
0.0
  0
LINE
  5
26D
330
1F
100
AcDbEntity
  8
0
  6
Continuous
 62
     7
370
    25
100
AcDbLine
 10
-6.5206422422
 20
114.8954715367
 30
0.0
 11
6.4974728314
 21
114.8954715367
 31
0.0
  0
LINE
  5
26E
330
1F
100
AcDbEntity
  8
0
  6
Continuous
 62
     7
370
    25
100
AcDbLine
 10
3.7279220614
 20
31.0
 30
0.0
 11
-3.7279220614
 21
31.0
 31
0.0
  0
LINE
  5
26F
330
1F
100
AcDbEntity
  8
0
  6
Continuous
 62
     7
370
    25
100
AcDbLine
 10
10.2668351311
 20
-21.6808270822
 30
0.0
 11
10.4418233514
 21
-21.7800020555
 31
0.0
  0
LINE
  5
270
330
1F
100
AcDbEntity
  8
0
  6
Continuous
 62
     7
370
    25
100
AcDbLine
 10
0.1008292289
 20
-60.9997579383
 30
0.0
 11
0.0
 21
-61.0
 31
0.0
  0
LINE
  5
271
330
1F
100
AcDbEntity
  8
0
  6
Continuous
 62
     7
370
    25
100
AcDbLine
 10
-10.2710587444
 20
-58.3168051873
 30
0.0
 11
-10.4418233514
 21
-58.2199979445
 31
0.0
  0
LINE
  5
272
330
1F
100
AcDbEntity
  8
0
  6
Continuous
 62
     8
370
    25
100
AcDbLine
 10
3.9
 20
-17.8023516187
 30
0.0
 11
-3.9
 21
-17.8023516187
 31
0.0
  0
LINE
  5
273
330
1F
100
AcDbEntity
  8
0
  6
Continuous
 62
     8
370
    25
100
AcDbLine
 10
41.1313505534
 20
90.6602540378
 30
0.0
 11
6.9122833964
 21
90.6602540378
 31
0.0
  0
LINE
  5
274
330
1F
100
AcDbEntity
  8
0
  6
Continuous
 62
     8
370
    25
100
AcDbLine
 10
-6.9122833964
 20
90.6602540378
 30
0.0
 11
-41.1313505534
 21
90.6602540378
 31
0.0
  0
LINE
  5
275
330
1F
100
AcDbEntity
  8
0
  6
Continuous
 62
     8
370
    25
100
AcDbLine
 10
-41.1313505534
 20
93.1602540378
 30
0.0
 11
-6.9726493309
 21
93.1602540378
 31
0.0
  0
LINE
  5
276
330
1F
100
AcDbEntity
  8
0
  6
Continuous
 62
     8
370
    25
100
AcDbLine
 10
6.9726493309
 20
93.1602540378
 30
0.0
 11
41.1313505534
 21
93.1602540378
 31
0.0
  0
LINE
  5
277
330
1F
100
AcDbEntity
  8
0
  6
Continuous
 62
     8
370
    25
100
AcDbLine
 10
7.8323800412
 20
57.5845478444
 30
0.0
 11
6.1273079719
 21
58.1512143006
 31
0.0
  0
ARC
  5
278
330
1F
100
AcDbEntity
  8
0
  6
Continuous
 62
     7
370
    25
100
AcDbCircle
 10
3.4
 20
-17.8023516187
 30
0.0
 40
0.5000000000000102
100
AcDbArc
 50
0.0
 51
63.4438719881
  0
ARC
  5
279
330
1F
100
AcDbEntity
  8
0
  6
Continuous
 62
     7
370
    25
100
AcDbCircle
 10
-3.4
 20
-17.8023516187
 30
0.0
 40
0.5000000000000018
100
AcDbArc
 50
116.5561280119
 51
180.0
  0
ARC
  5
27A
330
1F
100
AcDbEntity
  8
0
  6
Continuous
 62
     7
370
    25
100
AcDbCircle
 10
0.0
 20
-40.0
 30
0.0
 40
18.52289580398126
100
AcDbArc
 50
152.2732935913
 51
207.7267064087
  0
ARC
  5
27B
330
1F
100
AcDbEntity
  8
0
  6
Continuous
 62
     7
370
    25
100
AcDbCircle
 10
0.0
 20
-40.0
 30
0.0
 40
18.52289580398118
100
AcDbArc
 50
62.2732935913
 51
117.7267064087
  0
ARC
  5
27C
330
1F
100
AcDbEntity
  8
0
  6
Continuous
 62
     7
370
    25
100
AcDbCircle
 10
0.0
 20
-40.0
 30
0.0
 40
18.52289580398127
100
AcDbArc
 50
332.2732935913
 51
27.7267064087
  0
ARC
  5
27D
330
1F
100
AcDbEntity
  8
0
  6
Continuous
 62
     7
370
    25
100
AcDbCircle
 10
0.0
 20
-40.0
 30
0.0
 40
16.48174307118126
100
AcDbArc
 50
334.4936611228
 51
25.5063388772
  0
ARC
  5
27E
330
1F
100
AcDbEntity
  8
0
  6
Continuous
 62
     7
370
    25
100
AcDbCircle
 10
0.0
 20
-40.0
 30
0.0
 40
16.48174307118142
100
AcDbArc
 50
64.4936611228
 51
115.5063388772
  0
ARC
  5
27F
330
1F
100
AcDbEntity
  8
0
  6
Continuous
 62
     7
370
    25
100
AcDbCircle
 10
0.0
 20
-40.0
 30
0.0
 40
16.48174307118122
100
AcDbArc
 50
154.4936611228
 51
205.5063388772
  0
ARC
  5
280
330
1F
100
AcDbEntity
  8
0
  6
Continuous
 62
     7
370
    25
100
AcDbCircle
 10
0.0
 20
-40.0
 30
0.0
 40
18.52289580398112
100
AcDbArc
 50
242.2732935913
 51
297.7267064087
  0
ARC
  5
281
330
1F
100
AcDbEntity
  8
0
  6
Continuous
 62
     7
370
    25
100
AcDbCircle
 10
0.0
 20
-40.0
 30
0.0
 40
16.48174307118138
100
AcDbArc
 50
244.4936611228
 51
295.5063388772
  0
ARC
  5
282
330
1F
100
AcDbEntity
  8
0
  6
Continuous
 62
     7
370
    25
100
AcDbCircle
 10
0.0
 20
-24.605
 30
0.0
 40
8.105000000000018
100
AcDbArc
 50
63.4438719881
 51
116.5561280119
  0
ARC
  5
283
330
1F
100
AcDbEntity
  8
0
  6
Continuous
 62
     7
370
    25
100
AcDbCircle
 10
12.6066017178
 20
-38.0
 30
0.0
 40
2.000000000000123
100
AcDbArc
 50
135.0
 51
180.0
  0
ARC
  5
284
330
1F
100
AcDbEntity
  8
0
  6
Continuous
 62
     7
370
    25
100
AcDbCircle
 10
12.6066017178
 20
-38.0
 30
0.0
 40
3.000000000000069
100
AcDbArc
 50
135.0
 51
180.0
  0
ARC
  5
285
330
1F
100
AcDbEntity
  8
0
  6
Continuous
 62
     7
370
    25
100
AcDbCircle
 10
12.6066017178
 20
-42.0
 30
0.0
 40
1.999999999999902
100
AcDbArc
 50
180.0
 51
225.0
  0
ARC
  5
286
330
1F
100
AcDbEntity
  8
0
  6
Continuous
 62
     7
370
    25
100
AcDbCircle
 10
12.6066017178
 20
-42.0
 30
0.0
 40
2.999999999999972
100
AcDbArc
 50
180.0
 51
225.0
  0
ARC
  5
287
330
1F
100
AcDbEntity
  8
0
  6
Continuous
 62
     7
370
    25
100
AcDbCircle
 10
-12.6066017178
 20
-38.0
 30
0.0
 40
3.000000000000014
100
AcDbArc
 50
0.0
 51
45.0
  0
ARC
  5
288
330
1F
100
AcDbEntity
  8
0
  6
Continuous
 62
     7
370
    25
100
AcDbCircle
 10
-12.6066017178
 20
-38.0
 30
0.0
 40
1.999999999999901
100
AcDbArc
 50
0.0
 51
45.0
  0
ARC
  5
289
330
1F
100
AcDbEntity
  8
0
  6
Continuous
 62
     7
370
    25
100
AcDbCircle
 10
-12.6066017178
 20
-42.0
 30
0.0
 40
3.000000000000031
100
AcDbArc
 50
315.0
 51
0.0
  0
ARC
  5
28A
330
1F
100
AcDbEntity
  8
0
  6
Continuous
 62
     7
370
    25
100
AcDbCircle
 10
-12.6066017178
 20
-42.0
 30
0.0
 40
1.999999999999936
100
AcDbArc
 50
315.0
 51
0.0
  0
ARC
  5
28B
330
1F
100
AcDbEntity
  8
0
  6
Continuous
 62
     7
370
    25
100
AcDbCircle
 10
2.0
 20
-52.6066017178
 30
0.0
 40
1.999999999999858
100
AcDbArc
 50
45.0
 51
90.0
  0
ARC
  5
28C
330
1F
100
AcDbEntity
  8
0
  6
Continuous
 62
     7
370
    25
100
AcDbCircle
 10
2.0
 20
-52.6066017178
 30
0.0
 40
2.999999999999838
100
AcDbArc
 50
45.0
 51
90.0
  0
ARC
  5
28D
330
1F
100
AcDbEntity
  8
0
  6
Continuous
 62
     7
370
    25
100
AcDbCircle
 10
-2.0
 20
-52.6066017178
 30
0.0
 40
2.000000000000072
100
AcDbArc
 50
90.0
 51
135.0
  0
ARC
  5
28E
330
1F
100
AcDbEntity
  8
0
  6
Continuous
 62
     7
370
    25
100
AcDbCircle
 10
-2.0
 20
-52.6066017178
 30
0.0
 40
3.000000000000158
100
AcDbArc
 50
90.0
 51
135.0
  0
ARC
  5
28F
330
1F
100
AcDbEntity
  8
0
  6
Continuous
 62
     7
370
    25
100
AcDbCircle
 10
-2.0
 20
-27.3933982822
 30
0.0
 40
3.000000000000153
100
AcDbArc
 50
225.0
 51
270.0
  0
ARC
  5
290
330
1F
100
AcDbEntity
  8
0
  6
Continuous
 62
     7
370
    25
100
AcDbCircle
 10
2.0
 20
-27.3933982822
 30
0.0
 40
3.000000000000264
100
AcDbArc
 50
270.0
 51
315.0
  0
ARC
  5
291
330
1F
100
AcDbEntity
  8
0
  6
Continuous
 62
     7
370
    25
100
AcDbCircle
 10
-2.0
 20
-27.3933982822
 30
0.0
 40
1.999999999999951
100
AcDbArc
 50
225.0
 51
270.0
  0
ARC
  5
292
330
1F
100
AcDbEntity
  8
0
  6
Continuous
 62
     7
370
    25
100
AcDbCircle
 10
2.0
 20
-27.3933982822
 30
0.0
 40
1.999999999999791
100
AcDbArc
 50
270.0
 51
315.0
  0
ARC
  5
293
330
1F
100
AcDbEntity
  8
0
  6
Continuous
 62
     7
370
    25
100
AcDbCircle
 10
-53.101455321
 20
-68.0003936096
 30
0.0
 40
10.5348148065743
100
AcDbArc
 50
197.2895628643
 51
207.7104371357
  0
ARC
  5
294
330
1F
100
AcDbEntity
  8
0
  6
Continuous
 62
     7
370
    25
100
AcDbCircle
 10
38.0003936096
 20
-83.101455321
 30
0.0
 40
10.53481480657701
100
AcDbArc
 50
287.2895628643
 51
297.7104371357
  0
ARC
  5
295
330
1F
100
AcDbEntity
  8
0
  6
Continuous
 62
     7
370
    25
100
AcDbCircle
 10
38.0003936096
 20
83.101455321
 30
0.0
 40
10.53481480658697
100
AcDbArc
 50
62.2895628643
 51
72.7104371357
  0
ARC
  5
296
330
1F
100
AcDbEntity
  8
0
  6
Continuous
 62
     7
370
    25
100
AcDbCircle
 10
53.101455321
 20
68.0003936096
 30
0.0
 40
10.53481480657324
100
AcDbArc
 50
17.2895628643
 51
27.7104371357
  0
ARC
  5
297
330
1F
100
AcDbEntity
  8
0
  6
Continuous
 62
     7
370
    25
100
AcDbCircle
 10
53.101455321
 20
-68.0003936096
 30
0.0
 40
10.53481480658715
100
AcDbArc
 50
332.2895628643
 51
342.7104371357
  0
ARC
  5
298
330
1F
100
AcDbEntity
  8
0
  6
Continuous
 62
     7
370
    25
100
AcDbCircle
 10
-38.0003936096
 20
-83.101455321
 30
0.0
 40
10.53481480658806
100
AcDbArc
 50
242.2895628643
 51
252.7104371357
  0
ARC
  5
299
330
1F
100
AcDbEntity
  8
0
  6
Continuous
 62
     7
370
    25
100
AcDbCircle
 10
-53.101455321
 20
68.0003936096
 30
0.0
 40
10.53481480657986
100
AcDbArc
 50
152.2895628643
 51
162.7104371357
  0
ARC
  5
29A
330
1F
100
AcDbEntity
  8
0
  6
Continuous
 62
     7
370
    25
100
AcDbCircle
 10
0.0
 20
40.0
 30
0.0
 40
21.25000000000001
100
AcDbArc
 50
106.9071375156
 51
73.0928624844
  0
ARC
  5
29B
330
1F
100
AcDbEntity
  8
0
  6
Continuous
 62
     7
370
    25
100
AcDbCircle
 10
0.0
 20
-40.0
 30
0.0
 40
21.24999999999989
100
AcDbArc
 50
330.0002659957
 51
29.9997340043
  0
ARC
  5
29C
330
1F
100
AcDbEntity
  8
0
  6
Continuous
 62
     7
370
    25
100
AcDbCircle
 10
0.0
 20
-40.0
 30
0.0
 40
21.25000000000006
100
AcDbArc
 50
60.0002659957
 51
79.4245940336
  0
ARC
  5
29D
330
1F
100
AcDbEntity
  8
0
  6
Continuous
 62
     7
370
    25
100
AcDbCircle
 10
0.0
 20
-40.0
 30
0.0
 40
21.25000000000001
100
AcDbArc
 50
100.5754059664
 51
119.9997340043
  0
ARC
  5
29E
330
1F
100
AcDbEntity
  8
0
  6
Continuous
 62
     7
370
    25
100
AcDbCircle
 10
0.0
 20
-40.0
 30
0.0
 40
21.24999999999989
100
AcDbArc
 50
150.0002659957
 51
209.9997340043
  0
ARC
  5
29F
330
1F
100
AcDbEntity
  8
0
  6
Continuous
 62
     7
370
    25
100
AcDbCircle
 10
0.0
 20
-40.0
 30
0.0
 40
21.25000000000002
100
AcDbArc
 50
240.0002659957
 51
299.9997340043
  0
ARC
  5
2A0
330
1F
100
AcDbEntity
  8
0
  6
Continuous
 62
     7
370
    25
100
AcDbCircle
 10
-38.0003936096
 20
83.101455321
 30
0.0
 40
10.53481480657838
100
AcDbArc
 50
107.2895628643
 51
117.7104371357
  0
ARC
  5
2A1
330
1F
100
AcDbEntity
  8
0
  6
Continuous
 62
     7
370
    25
100
AcDbCircle
 10
0.0
 20
40.0
 30
0.0
 40
18.52289580398137
100
AcDbArc
 50
109.2644603268
 51
65.9912039849
  0
ARC
  5
2A2
330
1F
100
AcDbEntity
  8
0
  6
Continuous
 62
     7
370
    25
100
AcDbCircle
 10
0.0
 20
40.0
 30
0.0
 40
16.4817430711815
100
AcDbArc
 50
111.5693192067
 51
65.9912039849
  0
ARC
  5
2A3
330
1F
100
AcDbEntity
  8
0
  6
Continuous
 62
     7
370
    25
100
AcDbCircle
 10
0.0
 20
40.0
 30
0.0
 40
20.99999999999968
100
AcDbArc
 50
107.0966926937
 51
124.5418976151
  0
ARC
  5
2A4
330
1F
100
AcDbEntity
  8
0
  6
Continuous
 62
     7
370
    25
100
AcDbCircle
 10
-21.5393213481
 20
52.3026834991
 30
0.0
 40
16.55000000000065
100
AcDbArc
 50
324.8936396961
 51
2.1008015433
  0
ARC
  5
2A5
330
1F
100
AcDbEntity
  8
0
  6
Continuous
 62
     7
370
    25
100
AcDbCircle
 10
21.5484323041
 20
53.0996715593
 30
0.0
 40
16.54999999999923
100
AcDbArc
 50
180.7461818399
 51
215.0514764951
  0
ARC
  5
2A6
330
1F
100
AcDbEntity
  8
0
  6
Continuous
 62
     7
370
    25
100
AcDbCircle
 10
-21.5393213481
 20
52.3026834991
 30
0.0
 40
15.54999999999966
100
AcDbArc
 50
323.7444405191
 51
2.1235158407
  0
ARC
  5
2A7
330
1F
100
AcDbEntity
  8
0
  6
Continuous
 62
     7
370
    25
100
AcDbCircle
 10
21.5484323041
 20
53.0996715593
 30
0.0
 40
15.55000000000025
100
AcDbArc
 50
180.8135926119
 51
216.1987556698
  0
SPLINE
  5
457
330
23
100
AcDbEntity
 67
     1
  8
0
  6
Continuous
 62
     7
370
    25
100
AcDbSpline
210
0.0
220
0.0
230
1.0
 70
     8
 71
     3
 72
     9
 73
     5
 74
     0
 42
0.000000001
 43
0.00000001
 40
0.0
 40
0.0
 40
0.0
 40
0.0
 40
0.3304295978140421
 40
1.0
 40
1.0
 40
1.0
 40
1.0
 10
20.98010311288395
 20
33.45704075731364
 30
0.0
 10
20.97568902152885
 20
33.50330483848818
 30
0.0
 10
20.96233037755658
 20
33.64331675473478
 30
0.0
 10
20.89256467206594
 20
33.76702717257917
 30
0.0
 10
20.84585162058179
 20
33.84986000680983
 30
0.0
  0
SPLINE
  5
458
330
23
100
AcDbEntity
 67
     1
  8
0
  6
Continuous
 62
     7
370
    25
100
AcDbSpline
210
0.0
220
0.0
230
1.0
 70
     8
 71
     3
 72
     9
 73
     5
 74
     0
 42
0.000000001
 43
0.00000001
 40
0.0
 40
0.0
 40
0.0
 40
0.0
 40
0.5000000447597768
 40
1.0
 40
1.0
 40
1.0
 40
1.0
 10
-20.84583886860552
 20
33.84985482118603
 30
0.0
 10
-20.89041726589649
 20
33.76640496127762
 30
0.0
 10
-20.97957405249716
 20
33.59950525640159
 30
0.0
 10
-20.99319395321626
 20
33.41077545375878
 30
0.0
 10
-21.00000390296618
 20
33.31641056088488
 30
0.0
  0
SPLINE
  5
45A
330
23
100
AcDbEntity
 67
     1
  8
0
  6
Continuous
 62
     7
370
    25
100
AcDbSpline
210
0.0
220
0.0
230
1.0
 70
     8
 71
     3
 72
    12
 73
     8
 74
     0
 42
0.000000001
 43
0.00000001
 40
0.0
 40
0.0
 40
0.0
 40
0.0
 40
0.1248161840288293
 40
0.2494819491239461
 40
0.3747920840609085
 40
0.5002387235640643
 40
1.0
 40
1.0
 40
1.0
 40
1.0
 10
20.88571177242056
 20
33.79015896479915
 30
0.0
 10
20.65799701530682
 20
34.19165176468786
 30
0.0
 10
20.20284192551573
 20
34.99415351600189
 30
0.0
 10
19.77908247025802
 20
36.32323282880898
 30
0.0
 10
19.60510268410062
 20
37.70139426373573
 30
0.0
 10
19.45052903441452
 20
40.46697262554856
 30
0.0
 10
19.33946455211214
 20
42.77201668607787
 30
0.0
 10
19.25068492212496
 20
44.61455855505099
 30
0.0
  0
SPLINE
  5
45C
330
23
100
AcDbEntity
 67
     1
  8
0
  6
Continuous
 62
     7
370
    25
100
AcDbSpline
210
0.0
220
0.0
230
1.0
 70
     8
 71
     3
 72
     9
 73
     5
 74
     0
 42
0.000000001
 43
0.00000001
 40
0.0
 40
0.0
 40
0.0
 40
0.0
 40
0.4999998360533615
 40
1.0
 40
1.0
 40
1.0
 40
1.0
 10
21.00001301178854
 20
33.32010009466463
 30
0.0
 10
20.99333206612559
 20
33.41358423880528
 30
0.0
 10
20.97997017041838
 20
33.60055258839224
 30
0.0
 10
20.89239439972961
 20
33.76628185437032
 30
0.0
 10
20.84860650002746
 20
33.84914651453011
 30
0.0
  0
SPLINE
  5
45D
330
23
100
AcDbEntity
 67
     1
  8
0
  6
Continuous
 62
     7
370
    25
100
AcDbSpline
210
0.0
220
0.0
230
1.0
 70
     8
 71
     3
 72
     9
 73
     5
 74
     0
 42
0.000000001
 43
0.00000001
 40
0.0
 40
0.0
 40
0.0
 40
0.0
 40
0.5000002047960843
 40
1.0
 40
1.0
 40
1.0
 40
1.0
 10
-20.84858623344529
 20
33.84913962288287
 30
0.0
 10
-20.89237419201851
 20
33.76627496661187
 30
0.0
 10
-20.97995007329455
 20
33.60054572195126
 30
0.0
 10
-20.9933121410789
 20
33.41357734728427
 30
0.0
 10
-20.99999317223458
 20
33.32009319824116
 30
0.0
  0
SPLINE
  5
45F
330
23
100
AcDbEntity
 67
     1
  8
0
  6
Continuous
 62
     7
370
    25
100
AcDbSpline
210
0.0
220
0.0
230
1.0
 70
     8
 71
     3
 72
    12
 73
     8
 74
     0
 42
0.000000001
 43
0.00000001
 40
0.0
 40
0.0
 40
0.0
 40
0.0
 40
0.4997612730118128
 40
0.6252077492635012
 40
0.750518138007927
 40
0.8751839871208907
 40
1.0
 40
1.0
 40
1.0
 40
1.0
 10
-19.25068492212496
 20
44.614558555051
 30
0.0
 10
-19.33945304547889
 20
42.77209649304144
 30
0.0
 10
-19.45050310398783
 20
40.46715287075891
 30
0.0
 10
-19.60509542402333
 20
37.70169795469084
 30
0.0
 10
-19.77900097181624
 20
36.32358909463963
 30
0.0
 10
-20.2026817086435
 20
34.99454824624656
 30
0.0
 10
-20.65777038260333
 20
34.19205598509195
 30
0.0
 10
-20.88545167909739
 20
33.79056834344992
 30
0.0
  0
SPLINE
  5
467
330
23
100
AcDbEntity
 67
     1
  8
0
  6
Continuous
 62
     7
370
    25
100
AcDbSpline
210
0.0
220
0.0
230
1.0
 70
     8
 71
     3
 72
     9
 73
     5
 74
     0
 42
0.000000001
 43
0.00000001
 40
0.0
 40
0.0
 40
0.0
 40
0.0
 40
0.9226853701760401
 40
1.0
 40
1.0
 40
1.0
 40
1.0
 10
-19.25
 20
44.614558555051
 30
0.0
 10
-19.31404481637547
 20
42.5613124248875
 30
0.0
 10
-19.3834561438394
 20
40.33601852023638
 30
0.0
 10
-19.58882741265605
 20
38.12031576671026
 30
0.0
 10
-19.60470561628109
 20
37.94900952852146
 30
0.0
  0
SPLINE
  5
496
330
23
100
AcDbEntity
 67
     1
  8
0
  6
Continuous
 62
     7
370
    25
100
AcDbSpline
210
0.0
220
0.0
230
1.0
 70
     8
 71
     3
 72
     8
 73
     4
 74
     0
 42
0.000000001
 43
0.00000001
 40
0.0
 40
0.0
 40
0.0
 40
0.0
 40
1.0
 40
1.0
 40
1.0
 40
1.0
 10
42.92893218813455
 20
21.995756401534
 30
0.0
 10
43.26199239864769
 20
21.99575640153398
 30
0.0
 10
43.59670267093486
 20
22.01516218720471
 30
0.0
 10
43.9231125887269
 20
22.05339685469395
 30
0.0
  0
SPLINE
  5
497
330
23
100
AcDbEntity
 67
     1
  8
0
  6
Continuous
 62
     7
370
    25
100
AcDbSpline
210
0.0
220
0.0
230
1.0
 70
     8
 71
     3
 72
     8
 73
     4
 74
     0
 42
0.000000001
 43
0.00000001
 40
0.0
 40
0.0
 40
0.0
 40
0.0
 40
1.0
 40
1.0
 40
1.0
 40
1.0
 10
43.9231125887269
 20
22.05339685469395
 30
0.0
 10
44.54818309027491
 20
22.12661571687095
 30
0.0
 10
45.15921352538869
 20
22.12661571687095
 30
0.0
 10
45.69087954169331
 20
22.05339685469395
 30
0.0
  0
SPLINE
  5
498
330
23
100
AcDbEntity
 67
     1
  8
0
  6
Continuous
 62
     7
370
    25
100
AcDbSpline
210
0.0
220
0.0
230
1.0
 70
     8
 71
     3
 72
     8
 73
     4
 74
     0
 42
0.000000001
 43
0.00000001
 40
0.0
 40
0.0
 40
0.0
 40
0.0
 40
1.0
 40
1.0
 40
1.0
 40
1.0
 10
45.69087954169331
 20
22.05339685469395
 30
0.0
 10
45.96851392092737
 20
22.01516218720471
 30
0.0
 10
46.22895696067003
 20
21.99575640153398
 30
0.0
 10
46.4644660940673
 20
21.995756401534
 30
0.0
  0
SPLINE
  5
49D
330
23
100
AcDbEntity
 67
     1
  8
0
  6
Continuous
 62
     7
370
    25
100
AcDbSpline
210
0.0
220
0.0
230
1.0
 70
     8
 71
     3
 72
     8
 73
     4
 74
     0
 42
0.000000001
 43
0.00000001
 40
0.0
 40
0.0
 40
0.0
 40
0.0
 40
1.0
 40
1.0
 40
1.0
 40
1.0
 10
-43.9231125887269
 20
22.05339685469395
 30
0.0
 10
-43.59670267093486
 20
22.01516218720471
 30
0.0
 10
-43.26199239864769
 20
21.99575640153398
 30
0.0
 10
-42.92893218813455
 20
21.995756401534
 30
0.0
  0
SPLINE
  5
4A2
330
23
100
AcDbEntity
 67
     1
  8
0
  6
Continuous
 62
     7
370
    25
100
AcDbSpline
210
0.0
220
0.0
230
1.0
 70
     8
 71
     3
 72
     8
 73
     4
 74
     0
 42
0.000000001
 43
0.00000001
 40
0.0
 40
0.0
 40
0.0
 40
0.0
 40
1.0
 40
1.0
 40
1.0
 40
1.0
 10
-46.4644660940672
 20
21.995756401534
 30
0.0
 10
-46.22895696067003
 20
21.99575640153398
 30
0.0
 10
-45.96851392092737
 20
22.01516218720471
 30
0.0
 10
-45.69087954169331
 20
22.05339685469395
 30
0.0
  0
SPLINE
  5
4A3
330
23
100
AcDbEntity
 67
     1
  8
0
  6
Continuous
 62
     7
370
    25
100
AcDbSpline
210
0.0
220
0.0
230
1.0
 70
     8
 71
     3
 72
     8
 73
     4
 74
     0
 42
0.000000001
 43
0.00000001
 40
0.0
 40
0.0
 40
0.0
 40
0.0
 40
1.0
 40
1.0
 40
1.0
 40
1.0
 10
-45.69087954169331
 20
22.05339685469395
 30
0.0
 10
-45.15921352538869
 20
22.12661571687095
 30
0.0
 10
-44.54818309027491
 20
22.12661571687095
 30
0.0
 10
-43.9231125887269
 20
22.05339685469395
 30
0.0
  0
SPLINE
  5
4AB
330
23
100
AcDbEntity
 67
     1
  8
0
  6
Continuous
 62
     7
370
    25
100
AcDbSpline
210
0.0
220
0.0
230
1.0
 70
     8
 71
     3
 72
     8
 73
     4
 74
     0
 42
0.000000001
 43
0.00000001
 40
0.0
 40
0.0
 40
0.0
 40
0.0
 40
1.0
 40
1.0
 40
1.0
 40
1.0
 10
68.5355339059327
 20
21.995756401534
 30
0.0
 10
68.77104303932998
 20
21.99575640153398
 30
0.0
 10
68.98395180612157
 20
22.01516218720471
 30
0.0
 10
69.16793075952201
 20
22.05339685469395
 30
0.0
  0
SPLINE
  5
4AF
330
23
100
AcDbEntity
 67
     1
  8
0
  6
Continuous
 62
     7
370
    25
100
AcDbSpline
210
0.0
220
0.0
230
1.0
 70
     8
 71
     3
 72
     8
 73
     4
 74
     0
 42
0.000000001
 43
0.00000001
 40
0.0
 40
0.0
 40
0.0
 40
0.0
 40
1.0
 40
1.0
 40
1.0
 40
1.0
 10
-69.16793075952201
 20
22.05339685469395
 30
0.0
 10
-68.98395180612157
 20
22.01516218720471
 30
0.0
 10
-68.77104303932998
 20
21.99575640153398
 30
0.0
 10
-68.5355339059327
 20
21.995756401534
 30
0.0
  0
SPLINE
  5
4BF
330
23
100
AcDbEntity
 67
     1
  8
0
  6
Continuous
 62
     7
370
    25
100
AcDbSpline
210
0.0
220
0.0
230
1.0
 70
    24
 71
     3
 72
     8
 73
     4
 74
     0
 42
0.000000001
 43
0.00000001
 40
0.0
 40
0.0
 40
0.0
 40
0.0
 40
1.0
 40
1.0
 40
1.0
 40
1.0
 10
-70.0
 20
21.995756401534
 30
0.0
 10
-70.0
 20
21.99575640153398
 30
0.0
 10
-69.96638819325754
 20
22.01516218720471
 30
0.0
 10
-69.9001638065557
 20
22.05339685469395
 30
0.0
  0
SPLINE
  5
4C0
330
23
100
AcDbEntity
 67
     1
  8
0
  6
Continuous
 62
     7
370
    25
100
AcDbSpline
210
0.0
220
0.0
230
1.0
 70
     8
 71
     3
 72
     8
 73
     4
 74
     0
 42
0.000000001
 43
0.00000001
 40
0.0
 40
0.0
 40
0.0
 40
0.0
 40
1.0
 40
1.0
 40
1.0
 40
1.0
 10
-69.9001638065557
 20
22.05339685469395
 30
0.0
 10
-69.77334501719272
 20
22.12661571687095
 30
0.0
 10
-69.52024792394593
 20
22.12661571687095
 30
0.0
 10
-69.16793075952201
 20
22.05339685469395
 30
0.0
  0
SPLINE
  5
4C2
330
23
100
AcDbEntity
 67
     1
  8
0
  6
Continuous
 62
     7
370
    25
100
AcDbSpline
210
0.0
220
0.0
230
1.0
 70
     8
 71
     3
 72
     8
 73
     4
 74
     0
 42
0.000000001
 43
0.00000001
 40
0.0
 40
0.0
 40
0.0
 40
0.0
 40
1.0
 40
1.0
 40
1.0
 40
1.0
 10
69.9001638065557
 20
22.05339685469395
 30
0.0
 10
69.77334501719272
 20
22.12661571687095
 30
0.0
 10
69.52024792394593
 20
22.12661571687095
 30
0.0
 10
69.16793075952201
 20
22.05339685469395
 30
0.0
  0
SPLINE
  5
4C3
330
23
100
AcDbEntity
 67
     1
  8
0
  6
Continuous
 62
     7
370
    25
100
AcDbSpline
210
0.0
220
0.0
230
1.0
 70
    24
 71
     3
 72
     8
 73
     4
 74
     0
 42
0.000000001
 43
0.00000001
 40
0.0
 40
0.0
 40
0.0
 40
0.0
 40
1.0
 40
1.0
 40
1.0
 40
1.0
 10
69.9001638065557
 20
22.05339685469395
 30
0.0
 10
69.96638819325754
 20
22.01516218720471
 30
0.0
 10
70.0
 20
21.99575640153398
 30
0.0
 10
70.0
 20
21.995756401534
 30
0.0
  0
SPLINE
  5
4CE
330
23
100
AcDbEntity
 67
     1
  8
0
  6
Continuous
 62
     7
370
    25
100
AcDbSpline
210
0.0
220
0.0
230
1.0
 70
     8
 71
     3
 72
     8
 73
     4
 74
     0
 42
0.000000001
 43
0.00000001
 40
0.0
 40
0.0
 40
0.0
 40
0.0
 40
1.0
 40
1.0
 40
1.0
 40
1.0
 10
-8.481688559869696
 20
33.8498583124271
 30
0.0
 10
-7.145180258703154
 20
33.8495879723425
 30
0.0
 10
-5.745816924329979
 20
33.84931764141581
 30
0.0
 10
-4.314516021264962
 20
33.84904731964853
 30
0.0
  0
SPLINE
  5
4CF
330
23
100
AcDbEntity
 67
     1
  8
0
  6
Continuous
 62
     7
370
    25
100
AcDbSpline
210
0.0
220
0.0
230
1.0
 70
     8
 71
     3
 72
    14
 73
    10
 74
     0
 42
0.000000001
 43
0.00000001
 40
0.0
 40
0.0
 40
0.0
 40
0.0
 40
0.500000000000005
 40
0.6250000000000048
 40
0.6250000000000048
 40
0.6875000000000048
 40
0.6875000000000048
 40
0.7500000000000047
 40
1.0
 40
1.0
 40
1.0
 40
1.0
 10
-7.83238004117382
 20
44.614558555051
 30
0.0
 10
-7.858618761289207
 20
42.76786078903967
 30
0.0
 10
-7.903259694781505
 20
40.49999752878884
 30
0.0
 10
-7.964323105467849
 20
38.20645081333483
 30
0.0
 10
-7.983651766963027
 20
37.51570099679718
 30
0.0
 10
-7.991601475778499
 20
37.28554777607319
 30
0.0
 10
-8.017418709093326
 20
36.82982631940877
 30
0.0
 10
-8.101555762704258
 20
35.69962541191457
 30
0.0
 10
-8.281590600477433
 20
34.62964641068792
 30
0.0
 10
-8.48168855986968
 20
33.8498583124271
 30
0.0
  0
SPLINE
  5
4D2
330
23
100
AcDbEntity
 67
     1
  8
0
  6
Continuous
 62
     7
370
    25
100
AcDbSpline
210
0.0
220
0.0
230
1.0
 70
     8
 71
     3
 72
     8
 73
     4
 74
     0
 42
0.000000001
 43
0.00000001
 40
0.0
 40
0.0
 40
0.0
 40
0.0
 40
1.0
 40
1.0
 40
1.0
 40
1.0
 10
-4.345881630030951
 20
33.31695683639485
 30
0.0
 10
-5.788027586661082
 20
33.3167759792019
 30
0.0
 10
-7.197889474231051
 20
33.31659512200896
 30
0.0
 10
-8.544414590371513
 20
33.316414264816
 30
0.0
  0
SPLINE
  5
4F1
330
23
100
AcDbEntity
 67
     1
  8
0
  6
Continuous
 62
     7
370
    25
100
AcDbSpline
210
0.0
220
0.0
230
1.0
 70
    24
 71
     3
 72
     8
 73
     4
 74
     0
 42
0.000000001
 43
0.00000001
 40
0.0
 40
0.0
 40
0.0
 40
0.0
 40
1.0
 40
1.0
 40
1.0
 40
1.0
 10
8.0
 20
91.614558555051
 30
0.0
 10
8.333608630982859
 20
91.2809499240681
 30
0.0
 10
8.666955803419581
 20
90.9476027516314
 30
0.0
 10
9.0
 20
90.614558555051
 30
0.0
  0
SPLINE
  5
4F4
330
23
100
AcDbEntity
 67
     1
  8
0
  6
Continuous
 62
     7
370
    25
100
AcDbSpline
210
0.0
220
0.0
230
1.0
 70
    24
 71
     3
 72
     8
 73
     4
 74
     0
 42
0.000000001
 43
0.00000001
 40
0.0
 40
0.0
 40
0.0
 40
0.0
 40
1.0
 40
1.0
 40
1.0
 40
1.0
 10
-9.0
 20
82.614558555051
 30
0.0
 10
-8.66695479411484
 20
82.28151334916579
 30
0.0
 10
-8.33360767199186
 20
81.9481662270428
 30
0.0
 10
-8.0
 20
81.614558555051
 30
0.0
  0
SPLINE
  5
4FB
330
23
100
AcDbEntity
 67
     1
  8
0
  6
Continuous
 62
     7
370
    25
100
AcDbSpline
210
0.0
220
0.0
230
1.0
 70
    24
 71
     3
 72
     8
 73
     4
 74
     0
 42
0.000000001
 43
0.00000001
 40
0.0
 40
0.0
 40
0.0
 40
0.0
 40
1.0
 40
1.0
 40
1.0
 40
1.0
 10
-8.0
 20
91.614558555051
 30
0.0
 10
-8.33360767199187
 20
91.28095088305909
 30
0.0
 10
-8.666954794114831
 20
90.9476037609361
 30
0.0
 10
-9.0
 20
90.614558555051
 30
0.0
  0
SPLINE
  5
4FD
330
23
100
AcDbEntity
 67
     1
  8
0
  6
Continuous
 62
     7
370
    25
100
AcDbSpline
210
0.0
220
0.0
230
1.0
 70
    24
 71
     3
 72
     8
 73
     4
 74
     0
 42
0.000000001
 43
0.00000001
 40
0.0
 40
0.0
 40
0.0
 40
0.0
 40
1.0
 40
1.0
 40
1.0
 40
1.0
 10
8.0
 20
81.614558555051
 30
0.0
 10
8.333608630982859
 20
81.9481671860338
 30
0.0
 10
8.666955803419581
 20
82.2815143584706
 30
0.0
 10
9.0
 20
82.614558555051
 30
0.0
  0
SPLINE
  5
507
330
23
100
AcDbEntity
 67
     1
  8
0
  6
Continuous
 62
     8
370
    25
100
AcDbSpline
210
0.0
220
0.0
230
1.0
 70
    24
 71
     3
 72
    18
 73
    14
 74
     0
 42
0.000000001
 43
0.00000001
 40
0.0
 40
0.0
 40
0.0
 40
0.0
 40
0.0986792479215102
 40
0.1973584958430211
 40
0.296037743764532
 40
0.394716991686043
 40
0.493396239607554
 40
0.5920754875290649
 40
0.6907547354505759
 40
0.7894339833720867
 40
0.8881132312935976
 40
0.9867924792151085
 40
1.0
 40
1.0
 40
1.0
 40
1.0
 10
-7.83238004117382
 20
44.614558555051
 30
0.0
 10
-6.652334134167139
 20
44.61455855505099
 30
0.0
 10
-4.292242320153769
 20
44.61455855505098
 30
0.0
 10
-0.5064983988687941
 20
44.61455855505099
 30
0.0
 10
3.277073004295655
 20
44.614558555051
 30
0.0
 10
6.940598464856053
 20
44.614558555051
 30
0.0
 10
10.33547704569673
 20
44.61455855505098
 30
0.0
 10
13.33497319691734
 20
44.61455855505101
 30
0.0
 10
15.81672075139227
 20
44.614558555051
 30
0.0
 10
17.71000866097569
 20
44.61455855505099
 30
0.0
 10
18.85053167087114
 20
44.61455855505104
 30
0.0
 10
19.33808375741328
 20
44.61455855505092
 30
0.0
 10
19.22090400079157
 20
44.61455855505101
 30
0.0
 10
19.20707167647795
 20
44.614558555051
 30
0.0
  0
SPLINE
  5
508
330
23
100
AcDbEntity
 67
     1
  8
0
  6
Continuous
 62
     8
370
    25
100
AcDbSpline
210
0.0
220
0.0
230
1.0
 70
     8
 71
     3
 72
    17
 73
    13
 74
     0
 42
0.000000001
 43
0.00000001
 40
0.0
 40
0.0
 40
0.0
 40
0.0
 40
0.1029063212513263
 40
0.2059944000254034
 40
0.3087293292038683
 40
0.4119734328274403
 40
0.5145808650145408
 40
0.6178609909355822
 40
0.7204394628698161
 40
0.8236709503585624
 40
0.9263242515717087
 40
0.9999999999999999
 40
0.9999999999999999
 40
0.9999999999999999
 40
0.9999999999999999
 10
-4.31451602126499
 20
33.8490473196485
 30
0.0
 10
-3.055467572754291
 20
33.84960526912702
 30
0.0
 10
-0.5351468907968296
 20
33.85072215355817
 30
0.0
 10
3.299162073602164
 20
33.84483223020877
 30
0.0
 10
7.016965199643161
 20
33.85041403049716
 30
0.0
 10
10.4964052499773
 20
33.84528707151462
 30
0.0
 10
13.629837200782
 20
33.84956909576297
 30
0.0
 10
16.29840392631626
 20
33.848987746763
 30
0.0
 10
18.43307397542344
 20
33.84963223333183
 30
0.0
 10
19.92441538941632
 20
33.84924706716387
 30
0.0
 10
20.75625096414027
 20
33.84963080600208
 30
0.0
 10
20.77090032908806
 20
33.84886721459236
 30
0.0
 10
20.77702128833285
 20
33.84854816240714
 30
0.0
  0
SPLINE
  5
509
330
23
100
AcDbEntity
 67
     1
  8
0
  6
Continuous
 62
     8
370
    25
100
AcDbSpline
210
0.0
220
0.0
230
1.0
 70
     8
 71
     3
 72
    44
 73
    40
 74
     0
 42
0.000000001
 43
0.00000001
 40
0.0
 40
0.0
 40
0.0
 40
0.0
 40
0.0045773436319011
 40
0.0388965348588885
 40
0.0732157277990408
 40
0.1075349253953316
 40
0.1418541305907308
 40
0.1761733463282087
 40
0.1995449748624105
 40
0.2272975922746447
 40
0.2594307838963796
 40
0.2959440660875399
 40
0.3368368872922668
 40
0.3821086285884479
 40
0.4849697974867649
 40
0.5878309482232538
 40
0.6025852760527256
 40
0.6173396036773076
 40
0.6320939323166752
 40
0.6468482631905027
 40
0.6616025975184637
 40
0.6763569365202318
 40
0.6911112814154781
 40
0.7016409603125346
 40
0.712811502835666
 40
0.7276214224530841
 40
0.7460705644876926
 40
0.7681587359043033
 40
0.793885705443763
 40
0.8110787967445738
 40
0.828271882934919
 40
0.8454649672186939
 40
0.8626580527997962
 40
0.8798511428821233
 40
0.897044240669569
 40
0.911320945846296
 40
0.933239868980021
 40
0.9628000076154638
 40
1.0
 40
1.0
 40
1.0
 40
1.0
 10
20.99547765136348
 20
33.32002459006959
 30
0.0
 10
20.99693608110151
 20
33.32004077639922
 30
0.0
 10
21.00932926538187
 20
33.32017832170621
 30
0.0
 10
20.9579882546642
 20
33.32007830398961
 30
0.0
 10
20.83635952210461
 20
33.31970436083949
 30
0.0
 10
20.62941881728914
 20
33.31890206561945
 30
0.0
 10
20.3476819013063
 20
33.31779428223339
 30
0.0
 10
20.02763305277019
 20
33.31626640224549
 30
0.0
 10
19.67865540846987
 20
33.31516901712968
 30
0.0
 10
19.29435618549679
 20
33.3148524111544
 30
0.0
 10
18.79059943947981
 20
33.31491570928064
 30
0.0
 10
18.1435739290212
 20
33.3154407399016
 30
0.0
 10
17.32785767216984
 20
33.3163707519007
 30
0.0
 10
15.92232013607799
 20
33.31845640417172
 30
0.0
 10
13.73149129345124
 20
33.32058122165109
 30
0.0
 10
11.47708124604739
 20
33.3202609307696
 30
0.0
 10
10.04001515210294
 20
33.31983252407427
 30
0.0
 10
9.55249968513365
 20
33.31989493686073
 30
0.0
 10
9.058422890924563
 20
33.32010515003544
 30
0.0
 10
8.558103763889632
 20
33.32046915516857
 30
0.0
 10
8.051892231734348
 20
33.32102085280336
 30
0.0
 10
7.540136554178159
 20
33.32161864913586
 30
0.0
 10
7.072525366336265
 20
33.32268274081571
 30
0.0
 10
6.643366152330097
 20
33.32265676797654
 30
0.0
 10
6.210772785876268
 20
33.32236483295551
 30
0.0
 10
5.680531860095645
 20
33.32192059246185
 30
0.0
 10
5.01442850246979
 20
33.32126555487709
 30
0.0
 10
4.209766559331751
 20
33.32042650307002
 30
0.0
 10
3.413337899627424
 20
33.31948968911662
 30
0.0
 10
2.672448160314473
 20
33.31876896616822
 30
0.0
 10
2.034226060709682
 20
33.31847669242534
 30
0.0
 10
1.394105118030834
 20
33.31844309117838
 30
0.0
 10
0.7526798227890948
 20
33.31871192686449
 30
0.0
 10
0.1105503045366176
 20
33.31917560207448
 30
0.0
 10
-0.4953671712759223
 20
33.32016164776993
 30
0.0
 10
-1.159664629972873
 20
33.32043120531009
 30
0.0
 10
-1.976387953870681
 20
33.31983665926811
 30
0.0
 10
-3.074312299345022
 20
33.31871022512454
 30
0.0
 10
-3.890876692860263
 20
33.3175842504961
 30
0.0
 10
-4.34588163003092
 20
33.31695683639485
 30
0.0
  0
SPLINE
  5
50A
330
23
100
AcDbEntity
 67
     1
  8
0
  6
Continuous
 62
     8
370
    25
100
AcDbSpline
210
0.0
220
0.0
230
1.0
 70
     8
 71
     3
 72
    34
 73
    30
 74
     0
 42
0.000000001
 43
0.00000001
 40
0.0
 40
0.0
 40
0.0
 40
0.0
 40
0.0927188925341827
 40
0.1767155536215405
 40
0.2519878644564399
 40
0.318533928788497
 40
0.3413186684111993
 40
0.3641034016704242
 40
0.3868881315485888
 40
0.409672861028112
 40
0.4324575930914122
 40
0.4552423307209074
 40
0.4780270768990136
 40
0.4825307033233701
 40
0.4974851159866314
 40
0.5222778541773319
 40
0.5364552578940398
 40
0.5525760904817032
 40
0.5706403317681922
 40
0.5906479591442882
 40
0.6125989475650376
 40
0.6364932695505687
 40
0.6744692288992755
 40
0.7276153131470476
 40
0.795927479643296
 40
0.8446213819125661
 40
0.8974721765608377
 40
0.9544795715043447
 40
0.9999999999999999
 40
0.9999999999999999
 40
0.9999999999999999
 40
0.9999999999999999
 10
-8.54441459037144
 20
33.316414264816
 30
0.0
 10
-9.218135466422197
 20
33.31644997982977
 30
0.0
 10
-10.50219909513525
 20
33.31651805008235
 30
0.0
 10
-12.20541797326383
 20
33.31716407517845
 30
0.0
 10
-13.63953398023011
 20
33.31815244503917
 30
0.0
 10
-14.61327711191689
 20
33.31945690640284
 30
0.0
 10
-15.24355946031731
 20
33.32039188971036
 30
0.0
 10
-15.61734072444507
 20
33.32070590699033
 30
0.0
 10
-15.98036998964899
 20
33.32083351904951
 30
0.0
 10
-16.33239923771077
 20
33.3207667415792
 30
0.0
 10
-16.67318618373564
 20
33.32046789687183
 30
0.0
 10
-17.00249420512791
 20
33.32009568011036
 30
0.0
 10
-17.23516077057932
 20
33.31933185278161
 30
0.0
 10
-17.42702226530709
 20
33.31926450919278
 30
0.0
 10
-17.62469934707536
 20
33.31951317153919
 30
0.0
 10
-17.85727333059593
 20
33.31979536300839
 30
0.0
 10
-18.08637213359745
 20
33.32013870895099
 30
0.0
 10
-18.28163890472817
 20
33.32044763100862
 30
0.0
 10
-18.49296416848615
 20
33.3208048226441
 30
0.0
 10
-18.7176899095943
 20
33.32121496224926
 30
0.0
 10
-18.95281971410306
 20
33.32165052787527
 30
0.0
 10
-19.23601582705319
 20
33.32232947192403
 30
0.0
 10
-19.59444573385878
 20
33.32251022744057
 30
0.0
 10
-20.02859898388513
 20
33.32185318629487
 30
0.0
 10
-20.40052489830398
 20
33.32055434525745
 30
0.0
 10
-20.68251978538714
 20
33.31952918039431
 30
0.0
 10
-20.87015846992251
 20
33.319308630906
 30
0.0
 10
-20.9832319588347
 20
33.31971705546694
 30
0.0
 10
-20.99155496191293
 20
33.31993078623363
 30
0.0
 10
-20.99525021900298
 20
33.32002567868094
 30
0.0
  0
SPLINE
  5
50B
330
23
100
AcDbEntity
 67
     1
  8
0
  6
Continuous
 62
     8
370
    25
100
AcDbSpline
210
0.0
220
0.0
230
1.0
 70
     8
 71
     3
 72
    14
 73
    10
 74
     0
 42
0.000000001
 43
0.00000001
 40
0.0
 40
0.0
 40
0.0
 40
0.0
 40
0.0459547135846129
 40
0.2045267878136038
 40
0.3640679360685656
 40
0.5225508467294856
 40
0.6820845031668704
 40
0.8405921195234376
 40
1.0
 40
1.0
 40
1.0
 40
1.0
 10
-20.77660415293063
 20
33.84851081785928
 30
0.0
 10
-20.79762902722369
 20
33.84839544431136
 30
0.0
 10
-20.89120267109869
 20
33.84788196094232
 30
0.0
 10
-20.35312468892475
 20
33.8461795616306
 30
0.0
 10
-19.16281467539701
 20
33.84965025957248
 30
0.0
 10
-17.27594093181025
 20
33.84521104644663
 30
0.0
 10
-14.8246544133297
 20
33.85101673696818
 30
0.0
 10
-11.88886605328913
 20
33.84833068149119
 30
0.0
 10
-9.619557398740179
 20
33.84934582313929
 30
0.0
 10
-8.48168998940579
 20
33.84985483128805
 30
0.0
  0
SPLINE
  5
50C
330
23
100
AcDbEntity
 67
     1
  8
0
  6
Continuous
 62
     8
370
    25
100
AcDbSpline
210
0.0
220
0.0
230
1.0
 70
    24
 71
     3
 72
    13
 73
     9
 74
     0
 42
0.000000001
 43
0.00000001
 40
0.0
 40
0.0
 40
0.0
 40
0.0
 40
0.147507264900391
 40
0.3180058119203126
 40
0.4885043589402339
 40
0.659002905960156
 40
0.8295014529800774
 40
1.0
 40
1.0
 40
1.0
 40
1.0
 10
-19.2067996029992
 20
44.614558555051
 30
0.0
 10
-19.17053087801412
 20
44.614558555051
 30
0.0
 10
-19.09234038791189
 20
44.61455855505098
 30
0.0
 10
-18.07592379172927
 20
44.61455855505101
 30
0.0
 10
-16.39101955204719
 20
44.614558555051
 30
0.0
 10
-14.05102203814414
 20
44.61455855505098
 30
0.0
 10
-11.19783671472816
 20
44.614558555051
 30
0.0
 10
-8.954198932358604
 20
44.614558555051
 30
0.0
 10
-7.83238004117382
 20
44.614558555051
 30
0.0
  0
LINE
  5
50F
330
23
100
AcDbEntity
 67
     1
  8
0
  6
Continuous
 62
     7
370
    25
100
AcDbLine
 10
19.2504762109
 20
44.6009216605
 30
0.0
 11
18.522895804
 21
65.4360984753
 31
0.0
  0
LINE
  5
510
330
23
100
AcDbEntity
 67
     1
  8
0
  6
Continuous
 62
     7
370
    25
100
AcDbLine
 10
21.0
 20
31.6145585551
 30
0.0
 11
21.0
 21
33.3333276475
 31
0.0
  0
LINE
  5
511
330
23
100
AcDbEntity
 67
     1
  8
0
  6
Continuous
 62
     7
370
    25
100
AcDbLine
 10
-21.0
 20
33.333246092
 30
0.0
 11
-21.0
 21
31.6145585551
 31
0.0
  0
LINE
  5
512
330
23
100
AcDbEntity
 67
     1
  8
0
  6
Continuous
 62
     7
370
    25
100
AcDbLine
 10
18.522895804
 20
65.4360984753
 30
0.0
 11
16.4817430712
 21
66.6145585551
 31
0.0
  0
LINE
  5
513
330
23
100
AcDbEntity
 67
     1
  8
0
  6
Continuous
 62
     7
370
    25
100
AcDbLine
 10
-18.522895804
 20
65.4360984753
 30
0.0
 11
-19.2504762109
 21
44.6009216605
 31
0.0
  0
LINE
  5
514
330
23
100
AcDbEntity
 67
     1
  8
0
  6
Continuous
 62
     7
370
    25
100
AcDbLine
 10
-16.4817430712
 20
66.6145585551
 30
0.0
 11
-18.522895804
 21
65.4360984753
 31
0.0
  0
LINE
  5
515
330
23
100
AcDbEntity
 67
     1
  8
0
  6
Continuous
 62
     7
370
    25
100
AcDbLine
 10
21.0
 20
-15.6854414449
 30
0.0
 11
21.0
 21
20.6145585551
 31
0.0
  0
LINE
  5
516
330
23
100
AcDbEntity
 67
     1
  8
0
  6
Continuous
 62
     7
370
    25
100
AcDbLine
 10
21.0
 20
26.6145585551
 30
0.0
 11
21.0
 21
31.3145585551
 31
0.0
  0
LINE
  5
517
330
23
100
AcDbEntity
 67
     1
  8
0
  6
Continuous
 62
     7
370
    25
100
AcDbLine
 10
-21.0
 20
31.3145585551
 30
0.0
 11
-21.0
 21
26.6145585551
 31
0.0
  0
LINE
  5
518
330
23
100
AcDbEntity
 67
     1
  8
0
  6
Continuous
 62
     7
370
    25
100
AcDbLine
 10
-21.0
 20
20.6145585551
 30
0.0
 11
-21.0
 21
-15.6854414449
 31
0.0
  0
LINE
  5
519
330
23
100
AcDbEntity
 67
     1
  8
0
  6
Continuous
 62
     7
370
    25
100
AcDbLine
 10
-20.6578763954
 20
34.2263607714
 30
0.0
 11
-20.8458353552
 21
33.8498583124
 31
0.0
  0
LINE
  5
51A
330
23
100
AcDbEntity
 67
     1
  8
0
  6
Continuous
 62
     7
370
    25
100
AcDbLine
 10
7.4528866435
 20
82.6145585551
 30
0.0
 11
24.3951839509
 21
82.6145585551
 31
0.0
  0
LINE
  5
51B
330
23
100
AcDbEntity
 67
     1
  8
0
  6
Continuous
 62
     7
370
    25
100
AcDbLine
 10
16.6170093579
 20
82.6145585551
 30
0.0
 11
17.0312229203
 21
81.6145585551
 31
0.0
  0
LINE
  5
51C
330
23
100
AcDbEntity
 67
     1
  8
0
  6
Continuous
 62
     7
370
    25
100
AcDbLine
 10
23.3951839509
 20
81.6145585551
 30
0.0
 11
7.5
 21
81.6145585551
 31
0.0
  0
LINE
  5
51D
330
23
100
AcDbEntity
 67
     1
  8
0
  6
Continuous
 62
     7
370
    25
100
AcDbLine
 10
17.6170093579
 20
91.6145585551
 30
0.0
 11
18.0312229203
 21
90.6145585551
 31
0.0
  0
LINE
  5
51E
330
23
100
AcDbEntity
 67
     1
  8
0
  6
Continuous
 62
     7
370
    25
100
AcDbLine
 10
24.3951839509
 20
90.6145585551
 30
0.0
 11
7.4731897327
 21
90.6145585551
 31
0.0
  0
LINE
  5
51F
330
23
100
AcDbEntity
 67
     1
  8
0
  6
Continuous
 62
     7
370
    25
100
AcDbLine
 10
17.0312229203
 20
91.6145585551
 30
0.0
 11
16.6170093579
 21
90.6145585551
 31
0.0
  0
LINE
  5
520
330
23
100
AcDbEntity
 67
     1
  8
0
  6
Continuous
 62
     7
370
    25
100
AcDbLine
 10
-17.0312229203
 20
81.6145585551
 30
0.0
 11
-16.6170093579
 21
82.6145585551
 31
0.0
  0
LINE
  5
521
330
23
100
AcDbEntity
 67
     1
  8
0
  6
Continuous
 62
     7
370
    25
100
AcDbLine
 10
-7.4737521077
 20
90.6145585551
 30
0.0
 11
-24.3951839509
 21
90.6145585551
 31
0.0
  0
LINE
  5
522
330
23
100
AcDbEntity
 67
     1
  8
0
  6
Continuous
 62
     7
370
    25
100
AcDbLine
 10
-18.0312229203
 20
90.6145585551
 30
0.0
 11
-18.0312229203
 21
82.6145585551
 31
0.0
  0
LINE
  5
523
330
23
100
AcDbEntity
 67
     1
  8
0
  6
Continuous
 62
     7
370
    25
100
AcDbLine
 10
-24.3951839509
 20
82.6145585551
 30
0.0
 11
-7.4534490185
 21
82.6145585551
 31
0.0
  0
LINE
  5
524
330
23
100
AcDbEntity
 67
     1
  8
0
  6
Continuous
 62
     7
370
    25
100
AcDbLine
 10
-24.3951839509
 20
90.6145585551
 30
0.0
 11
-24.3951839509
 21
82.6145585551
 31
0.0
  0
LINE
  5
525
330
23
100
AcDbEntity
 67
     1
  8
0
  6
Continuous
 62
     7
370
    25
100
AcDbLine
 10
18.0312229203
 20
82.6145585551
 30
0.0
 11
17.6170093579
 21
81.6145585551
 31
0.0
  0
LINE
  5
526
330
23
100
AcDbEntity
 67
     1
  8
0
  6
Continuous
 62
     7
370
    25
100
AcDbLine
 10
18.0312229203
 20
90.6145585551
 30
0.0
 11
18.0312229203
 21
82.6145585551
 31
0.0
  0
LINE
  5
527
330
23
100
AcDbEntity
 67
     1
  8
0
  6
Continuous
 62
     7
370
    25
100
AcDbLine
 10
16.6170093579
 20
90.6145585551
 30
0.0
 11
16.6170093579
 21
82.6145585551
 31
0.0
  0
LINE
  5
528
330
23
100
AcDbEntity
 67
     1
  8
0
  6
Continuous
 62
     7
370
    25
100
AcDbLine
 10
-7.5
 20
81.6145585551
 30
0.0
 11
-23.3951839509
 21
81.6145585551
 31
0.0
  0
LINE
  5
529
330
23
100
AcDbEntity
 67
     1
  8
0
  6
Continuous
 62
     7
370
    25
100
AcDbLine
 10
-23.3951839509
 20
81.6145585551
 30
0.0
 11
-24.3951839509
 21
82.6145585551
 31
0.0
  0
LINE
  5
52A
330
23
100
AcDbEntity
 67
     1
  8
0
  6
Continuous
 62
     7
370
    25
100
AcDbLine
 10
-17.6170093579
 20
81.6145585551
 30
0.0
 11
-18.0312229203
 21
82.6145585551
 31
0.0
  0
LINE
  5
52B
330
23
100
AcDbEntity
 67
     1
  8
0
  6
Continuous
 62
     7
370
    25
100
AcDbLine
 10
-17.0312229203
 20
91.6145585551
 30
0.0
 11
-16.6170093579
 21
90.6145585551
 31
0.0
  0
LINE
  5
52C
330
23
100
AcDbEntity
 67
     1
  8
0
  6
Continuous
 62
     7
370
    25
100
AcDbLine
 10
-18.0312229203
 20
90.6145585551
 30
0.0
 11
-17.6170093579
 21
91.6145585551
 31
0.0
  0
LINE
  5
52D
330
23
100
AcDbEntity
 67
     1
  8
0
  6
Continuous
 62
     7
370
    25
100
AcDbLine
 10
-16.6170093579
 20
90.6145585551
 30
0.0
 11
-16.6170093579
 21
82.6145585551
 31
0.0
  0
LINE
  5
52E
330
23
100
AcDbEntity
 67
     1
  8
0
  6
Continuous
 62
     7
370
    25
100
AcDbLine
 10
-24.3951839509
 20
90.6145585551
 30
0.0
 11
-23.3951839509
 21
91.6145585551
 31
0.0
  0
LINE
  5
52F
330
23
100
AcDbEntity
 67
     1
  8
0
  6
Continuous
 62
     7
370
    25
100
AcDbLine
 10
23.3951839509
 20
91.6145585551
 30
0.0
 11
24.3951839509
 21
90.6145585551
 31
0.0
  0
LINE
  5
530
330
23
100
AcDbEntity
 67
     1
  8
0
  6
Continuous
 62
     7
370
    25
100
AcDbLine
 10
24.3951839509
 20
90.6145585551
 30
0.0
 11
24.3951839509
 21
82.6145585551
 31
0.0
  0
LINE
  5
531
330
23
100
AcDbEntity
 67
     1
  8
0
  6
Continuous
 62
     7
370
    25
100
AcDbLine
 10
24.3951839509
 20
82.6145585551
 30
0.0
 11
23.3951839509
 21
81.6145585551
 31
0.0
  0
LINE
  5
532
330
23
100
AcDbEntity
 67
     1
  8
0
  6
Continuous
 62
     7
370
    25
100
AcDbLine
 10
70.0
 20
20.6145585551
 30
0.0
 11
-70.0
 21
20.6145585551
 31
0.0
  0
LINE
  5
533
330
23
100
AcDbEntity
 67
     1
  8
0
  6
Continuous
 62
     7
370
    25
100
AcDbLine
 10
42.9289321881
 20
20.6145585551
 30
0.0
 11
42.9289321881
 21
21.9957564015
 31
0.0
  0
LINE
  5
534
330
23
100
AcDbEntity
 67
     1
  8
0
  6
Continuous
 62
     7
370
    25
100
AcDbLine
 10
46.4644660941
 20
21.9957564015
 30
0.0
 11
46.4644660941
 21
20.6145585551
 31
0.0
  0
LINE
  5
535
330
23
100
AcDbEntity
 67
     1
  8
0
  6
Continuous
 62
     7
370
    25
100
AcDbLine
 10
41.1313505534
 20
25.944685574
 30
0.0
 11
-41.1313505534
 21
25.944685574
 31
0.0
  0
LINE
  5
536
330
23
100
AcDbEntity
 67
     1
  8
0
  6
Continuous
 62
     7
370
    25
100
AcDbLine
 10
43.9231125887
 20
22.0533968547
 30
0.0
 11
41.1313505534
 21
25.944685574
 31
0.0
  0
LINE
  5
537
330
23
100
AcDbEntity
 67
     1
  8
0
  6
Continuous
 62
     7
370
    25
100
AcDbLine
 10
42.9289321881
 20
21.9957564015
 30
0.0
 11
-42.9289321881
 21
21.9957564015
 31
0.0
  0
LINE
  5
538
330
23
100
AcDbEntity
 67
     1
  8
0
  6
Continuous
 62
     7
370
    25
100
AcDbLine
 10
-41.1313505534
 20
25.944685574
 30
0.0
 11
-43.9231125887
 21
22.0533968547
 31
0.0
  0
LINE
  5
539
330
23
100
AcDbEntity
 67
     1
  8
0
  6
Continuous
 62
     7
370
    25
100
AcDbLine
 10
-42.9289321881
 20
21.9957564015
 30
0.0
 11
-42.9289321881
 21
20.6145585551
 31
0.0
  0
LINE
  5
53A
330
23
100
AcDbEntity
 67
     1
  8
0
  6
Continuous
 62
     7
370
    25
100
AcDbLine
 10
-46.4644660941
 20
20.6145585551
 30
0.0
 11
-46.4644660941
 21
21.9957564015
 31
0.0
  0
LINE
  5
53B
330
23
100
AcDbEntity
 67
     1
  8
0
  6
Continuous
 62
     7
370
    25
100
AcDbLine
 10
42.8991175063
 20
25.944685574
 30
0.0
 11
45.6908795417
 21
22.0533968547
 31
0.0
  0
LINE
  5
53C
330
23
100
AcDbEntity
 67
     1
  8
0
  6
Continuous
 62
     7
370
    25
100
AcDbLine
 10
-45.6908795417
 20
22.0533968547
 30
0.0
 11
-42.8991175063
 21
25.944685574
 31
0.0
  0
LINE
  5
53D
330
23
100
AcDbEntity
 67
     1
  8
0
  6
Continuous
 62
     7
370
    25
100
AcDbLine
 10
62.4280209908
 20
25.944685574
 30
0.0
 11
42.8991175063
 21
25.944685574
 31
0.0
  0
LINE
  5
53E
330
23
100
AcDbEntity
 67
     1
  8
0
  6
Continuous
 62
     7
370
    25
100
AcDbLine
 10
69.1679307595
 20
22.0533968547
 30
0.0
 11
62.4280209908
 21
25.944685574
 31
0.0
  0
LINE
  5
53F
330
23
100
AcDbEntity
 67
     1
  8
0
  6
Continuous
 62
     7
370
    25
100
AcDbLine
 10
68.5355339059
 20
21.9957564015
 30
0.0
 11
46.4644660941
 21
21.9957564015
 31
0.0
  0
LINE
  5
540
330
23
100
AcDbEntity
 67
     1
  8
0
  6
Continuous
 62
     7
370
    25
100
AcDbLine
 10
-42.8991175063
 20
25.944685574
 30
0.0
 11
-62.4280209908
 21
25.944685574
 31
0.0
  0
LINE
  5
541
330
23
100
AcDbEntity
 67
     1
  8
0
  6
Continuous
 62
     7
370
    25
100
AcDbLine
 10
-46.4644660941
 20
21.9957564015
 30
0.0
 11
-68.5355339059
 21
21.9957564015
 31
0.0
  0
LINE
  5
542
330
23
100
AcDbEntity
 67
     1
  8
0
  6
Continuous
 62
     7
370
    25
100
AcDbLine
 10
-62.4280209908
 20
25.944685574
 30
0.0
 11
-69.1679307595
 21
22.0533968547
 31
0.0
  0
LINE
  5
543
330
23
100
AcDbEntity
 67
     1
  8
0
  6
Continuous
 62
     7
370
    25
100
AcDbLine
 10
-68.5355339059
 20
21.9957564015
 30
0.0
 11
-68.5355339059
 21
20.6145585551
 31
0.0
  0
LINE
  5
544
330
23
100
AcDbEntity
 67
     1
  8
0
  6
Continuous
 62
     7
370
    25
100
AcDbLine
 10
68.5355339059
 20
20.6145585551
 30
0.0
 11
68.5355339059
 21
21.9957564015
 31
0.0
  0
LINE
  5
545
330
23
100
AcDbEntity
 67
     1
  8
0
  6
Continuous
 62
     7
370
    25
100
AcDbLine
 10
-60.6602540378
 20
26.6145585551
 30
0.0
 11
60.6602540378
 21
26.6145585551
 31
0.0
  0
LINE
  5
546
330
23
100
AcDbEntity
 67
     1
  8
0
  6
Continuous
 62
     7
370
    25
100
AcDbLine
 10
41.1313505534
 20
26.6145585551
 30
0.0
 11
41.1313505534
 21
25.944685574
 31
0.0
  0
LINE
  5
547
330
23
100
AcDbEntity
 67
     1
  8
0
  6
Continuous
 62
     7
370
    25
100
AcDbLine
 10
-41.1313505534
 20
26.6145585551
 30
0.0
 11
-41.1313505534
 21
25.944685574
 31
0.0
  0
LINE
  5
548
330
23
100
AcDbEntity
 67
     1
  8
0
  6
Continuous
 62
     7
370
    25
100
AcDbLine
 10
-70.0
 20
20.6145585551
 30
0.0
 11
-70.0
 21
21.9957564015
 31
0.0
  0
LINE
  5
549
330
23
100
AcDbEntity
 67
     1
  8
0
  6
Continuous
 62
     7
370
    25
100
AcDbLine
 10
70.0
 20
21.9957564015
 30
0.0
 11
70.0
 21
20.6145585551
 31
0.0
  0
LINE
  5
54A
330
23
100
AcDbEntity
 67
     1
  8
0
  6
Continuous
 62
     7
370
    25
100
AcDbLine
 10
63.1602540378
 20
25.944685574
 30
0.0
 11
69.9001638066
 21
22.0533968547
 31
0.0
  0
LINE
  5
54B
330
23
100
AcDbEntity
 67
     1
  8
0
  6
Continuous
 62
     7
370
    25
100
AcDbLine
 10
-69.9001638066
 20
22.0533968547
 30
0.0
 11
-63.1602540378
 21
25.944685574
 31
0.0
  0
LINE
  5
54C
330
23
100
AcDbEntity
 67
     1
  8
0
  6
Continuous
 62
     7
370
    25
100
AcDbLine
 10
-7.5365381506
 20
65.4360984753
 30
0.0
 11
-7.8323800412
 21
44.6145585551
 31
0.0
  0
LINE
  5
54D
330
23
100
AcDbEntity
 67
     1
  8
0
  6
Continuous
 62
     7
370
    25
100
AcDbLine
 10
18.522895804
 20
65.4360984753
 30
0.0
 11
-18.522895804
 21
65.4360984753
 31
0.0
  0
LINE
  5
54E
330
23
100
AcDbEntity
 67
     1
  8
0
  6
Continuous
 62
     7
370
    25
100
AcDbLine
 10
-21.0
 20
31.6145585551
 30
0.0
 11
21.0
 21
31.6145585551
 31
0.0
  0
LINE
  5
54F
330
23
100
AcDbEntity
 67
     1
  8
0
  6
Continuous
 62
     7
370
    25
100
AcDbLine
 10
-8.5444145904
 20
33.3164142648
 30
0.0
 11
-8.5444145904
 21
31.6145585551
 31
0.0
  0
LINE
  5
550
330
23
100
AcDbEntity
 67
     1
  8
0
  6
Continuous
 62
     7
370
    25
100
AcDbLine
 10
-6.7060402844
 20
66.6145585551
 30
0.0
 11
-7.5365381506
 21
65.4360984753
 31
0.0
  0
LINE
  5
551
330
23
100
AcDbEntity
 67
     1
  8
0
  6
Continuous
 62
     7
370
    25
100
AcDbLine
 10
-16.4817430712
 20
66.6145585551
 30
0.0
 11
16.4817430712
 21
66.6145585551
 31
0.0
  0
LINE
  5
552
330
23
100
AcDbEntity
 67
     1
  8
0
  6
Continuous
 62
     7
370
    25
100
AcDbLine
 10
21.0
 20
31.3145585551
 30
0.0
 11
-21.0
 21
31.3145585551
 31
0.0
  0
LINE
  5
553
330
23
100
AcDbEntity
 67
     1
  8
0
  6
Continuous
 62
     7
370
    25
100
AcDbLine
 10
-21.0
 20
-15.6854414449
 30
0.0
 11
21.0
 21
-15.6854414449
 31
0.0
  0
LINE
  5
554
330
23
100
AcDbEntity
 67
     1
  8
0
  6
Continuous
 62
     7
370
    25
100
AcDbLine
 10
6.5206422422
 20
90.6200366597
 30
0.0
 11
-6.4974728314
 21
90.6200366597
 31
0.0
  0
LINE
  5
555
330
23
100
AcDbEntity
 67
     1
  8
0
  6
Continuous
 62
     7
370
    25
100
AcDbLine
 10
6.4941002515
 20
80.1617303793
 30
0.0
 11
6.5206422422
 21
90.6200366597
 31
0.0
  0
LINE
  5
556
330
23
100
AcDbEntity
 67
     1
  8
0
  6
Continuous
 62
     7
370
    25
100
AcDbLine
 10
-6.4709308408
 20
80.1617303793
 30
0.0
 11
6.4941002515
 21
80.1617303793
 31
0.0
  0
LINE
  5
557
330
23
100
AcDbEntity
 67
     1
  8
0
  6
Continuous
 62
     7
370
    25
100
AcDbLine
 10
-6.4974728314
 20
90.6200366597
 30
0.0
 11
-6.4709308408
 21
80.1617303793
 31
0.0
  0
LINE
  5
558
330
23
100
AcDbEntity
 67
     1
  8
0
  6
Continuous
 62
     7
370
    25
100
AcDbLine
 10
6.5206422422
 20
90.6200366597
 30
0.0
 11
6.4777383028
 21
91.6145585551
 31
0.0
  0
LINE
  5
559
330
23
100
AcDbEntity
 67
     1
  8
0
  6
Continuous
 62
     7
370
    25
100
AcDbLine
 10
7.4731897327
 20
90.6145585551
 30
0.0
 11
6.4777383028
 21
91.6145585551
 31
0.0
  0
LINE
  5
55A
330
23
100
AcDbEntity
 67
     1
  8
0
  6
Continuous
 62
     7
370
    25
100
AcDbLine
 10
6.5206422422
 20
90.6200366597
 30
0.0
 11
7.4731897327
 21
90.6145585551
 31
0.0
  0
LINE
  5
55B
330
23
100
AcDbEntity
 67
     1
  8
0
  6
Continuous
 62
     7
370
    25
100
AcDbLine
 10
-6.4974728314
 20
90.6200366597
 30
0.0
 11
-6.4777383028
 21
91.6145585551
 31
0.0
  0
LINE
  5
55C
330
23
100
AcDbEntity
 67
     1
  8
0
  6
Continuous
 62
     7
370
    25
100
AcDbLine
 10
-23.3951839509
 20
91.6145585551
 30
0.0
 11
23.3951839509
 21
91.6145585551
 31
0.0
  0
LINE
  5
55D
330
23
100
AcDbEntity
 67
     1
  8
0
  6
Continuous
 62
     7
370
    25
100
AcDbLine
 10
-7.4737521077
 20
90.6145585551
 30
0.0
 11
-6.4777383028
 21
91.6145585551
 31
0.0
  0
LINE
  5
55E
330
23
100
AcDbEntity
 67
     1
  8
0
  6
Continuous
 62
     7
370
    25
100
AcDbLine
 10
-7.4737521077
 20
90.6145585551
 30
0.0
 11
-6.4974728314
 21
90.6200366597
 31
0.0
  0
LINE
  5
55F
330
23
100
AcDbEntity
 67
     1
  8
0
  6
Continuous
 62
     7
370
    25
100
AcDbLine
 10
-7.447329144
 20
80.203152304
 30
0.0
 11
-7.4737521077
 21
90.6145585551
 31
0.0
  0
LINE
  5
560
330
23
100
AcDbEntity
 67
     1
  8
0
  6
Continuous
 62
     7
370
    25
100
AcDbLine
 10
-7.447329144
 20
80.203152304
 30
0.0
 11
-6.4709308408
 21
80.1617303793
 31
0.0
  0
LINE
  5
561
330
23
100
AcDbEntity
 67
     1
  8
0
  6
Continuous
 62
     7
370
    25
100
AcDbLine
 10
7.4731897327
 20
90.6145585551
 30
0.0
 11
7.4467691377
 21
80.2040856478
 31
0.0
  0
LINE
  5
562
330
23
100
AcDbEntity
 67
     1
  8
0
  6
Continuous
 62
     7
370
    25
100
AcDbLine
 10
6.4941002515
 20
80.1617303793
 30
0.0
 11
7.4467691377
 21
80.2040856478
 31
0.0
  0
LINE
  5
563
330
23
100
AcDbEntity
 67
     1
  8
0
  6
Continuous
 62
     7
370
    25
100
AcDbLine
 10
6.4413001961
 20
79.2102859204
 30
0.0
 11
-6.4413001961
 21
79.2102859204
 31
0.0
  0
LINE
  5
564
330
23
100
AcDbEntity
 67
     1
  8
0
  6
Continuous
 62
     7
370
    25
100
AcDbLine
 10
-6.4413001961
 20
79.2102859204
 30
0.0
 11
-6.4709308408
 21
80.1617303793
 31
0.0
  0
LINE
  5
565
330
23
100
AcDbEntity
 67
     1
  8
0
  6
Continuous
 62
     7
370
    25
100
AcDbLine
 10
6.4413001961
 20
79.2102859204
 30
0.0
 11
6.4941002515
 21
80.1617303793
 31
0.0
  0
LINE
  5
566
330
23
100
AcDbEntity
 67
     1
  8
0
  6
Continuous
 62
     7
370
    25
100
AcDbLine
 10
-7.447329144
 20
80.203152304
 30
0.0
 11
-6.4413001961
 21
79.2102859204
 31
0.0
  0
LINE
  5
567
330
23
100
AcDbEntity
 67
     1
  8
0
  6
Continuous
 62
     7
370
    25
100
AcDbLine
 10
6.4413001961
 20
79.2102859204
 30
0.0
 11
7.4467691377
 21
80.2040856478
 31
0.0
  0
LINE
  5
568
330
23
100
AcDbEntity
 67
     1
  8
0
  6
Continuous
 62
     7
370
    25
100
AcDbLine
 10
-9.0
 20
82.6145585551
 30
0.0
 11
-9.0
 21
90.6145585551
 31
0.0
  0
LINE
  5
569
330
23
100
AcDbEntity
 67
     1
  8
0
  6
Continuous
 62
     7
370
    25
100
AcDbLine
 10
9.0
 20
82.6145585551
 30
0.0
 11
9.0
 21
90.6145585551
 31
0.0
  0
LINE
  5
56A
330
23
100
AcDbEntity
 67
     1
  8
0
  6
Continuous
 62
     7
370
    25
100
AcDbLine
 10
-7.5
 20
74.1145585551
 30
0.0
 11
7.5
 21
74.1145585551
 31
0.0
  0
LINE
  5
56B
330
23
100
AcDbEntity
 67
     1
  8
0
  6
Continuous
 62
     7
370
    25
100
AcDbLine
 10
6.0
 20
72.6145585551
 30
0.0
 11
7.5
 21
74.1145585551
 31
0.0
  0
LINE
  5
56C
330
23
100
AcDbEntity
 67
     1
  8
0
  6
Continuous
 62
     7
370
    25
100
AcDbLine
 10
6.0
 20
72.6145585551
 30
0.0
 11
-6.0
 21
72.6145585551
 31
0.0
  0
LINE
  5
56D
330
23
100
AcDbEntity
 67
     1
  8
0
  6
Continuous
 62
     7
370
    25
100
AcDbLine
 10
-6.0
 20
72.6145585551
 30
0.0
 11
-7.5
 21
74.1145585551
 31
0.0
  0
LINE
  5
56E
330
23
100
AcDbEntity
 67
     1
  8
0
  6
Continuous
 62
     7
370
    25
100
AcDbLine
 10
7.5
 20
74.1145585551
 30
0.0
 11
7.5
 21
81.6145585551
 31
0.0
  0
LINE
  5
56F
330
23
100
AcDbEntity
 67
     1
  8
0
  6
Continuous
 62
     7
370
    25
100
AcDbLine
 10
-7.5
 20
74.1145585551
 30
0.0
 11
-7.5
 21
81.6145585551
 31
0.0
  0
LINE
  5
570
330
23
100
AcDbEntity
 67
     1
  8
0
  6
Continuous
 62
     7
370
    25
100
AcDbLine
 10
-6.0
 20
72.6145585551
 30
0.0
 11
-6.0
 21
66.6145585551
 31
0.0
  0
LINE
  5
571
330
23
100
AcDbEntity
 67
     1
  8
0
  6
Continuous
 62
     7
370
    25
100
AcDbLine
 10
6.0
 20
72.6145585551
 30
0.0
 11
6.0
 21
66.6145585551
 31
0.0
  0
LINE
  5
572
330
23
100
AcDbEntity
 67
     1
  8
0
  6
Continuous
 62
     8
370
    25
100
AcDbLine
 10
0.0
 20
-15.6854414449
 30
0.0
 11
0.0
 21
20.6145585551
 31
0.0
  0
LINE
  5
573
330
23
100
AcDbEntity
 67
     1
  8
0
  6
Continuous
 62
     8
370
    25
100
AcDbLine
 10
0.0
 20
26.6145585551
 30
0.0
 11
0.0
 21
31.3145585551
 31
0.0
  0
ARC
  5
574
330
23
100
AcDbEntity
 67
     1
  8
0
  6
Continuous
 62
     7
370
    25
100
AcDbCircle
 10
42.0152340298
 20
21.195256524
 30
0.0
 40
4.830975708987868
100
AcDbArc
 50
79.4576824175
 51
100.5423175825
  0
ARC
  5
575
330
23
100
AcDbEntity
 67
     1
  8
0
  6
Continuous
 62
     7
370
    25
100
AcDbCircle
 10
-42.0152340298
 20
21.195256524
 30
0.0
 40
4.830975708987969
100
AcDbArc
 50
79.4576824175
 51
100.5423175825
  0
ARC
  5
576
330
23
100
AcDbEntity
 67
     1
  8
0
  6
Continuous
 62
     7
370
    25
100
AcDbCircle
 10
-41.0833830459
 20
23.8205060513
 30
0.0
 40
2.794464219751775
100
AcDbArc
 50
90.9835412082
 51
130.5236007591
  0
ARC
  5
577
330
23
100
AcDbEntity
 67
     1
  8
0
  6
Continuous
 62
     7
370
    25
100
AcDbCircle
 10
41.0833830459
 20
23.8205060513
 30
0.0
 40
2.794464219751534
100
AcDbArc
 50
49.4763992409
 51
89.0164587918
  0
ARC
  5
578
330
23
100
AcDbEntity
 67
     1
  8
0
  6
Continuous
 62
     7
370
    25
100
AcDbCircle
 10
-60.6122865303
 20
23.8205060513
 30
0.0
 40
2.794464219751133
100
AcDbArc
 50
90.9835412082
 51
130.5236007592
  0
ARC
  5
579
330
23
100
AcDbEntity
 67
     1
  8
0
  6
Continuous
 62
     7
370
    25
100
AcDbCircle
 10
60.6122865303
 20
23.8205060513
 30
0.0
 40
2.794464219751188
100
AcDbArc
 50
49.4763992408
 51
89.0164587918
  0
ARC
  5
57A
330
23
100
AcDbEntity
 67
     1
  8
0
  6
Continuous
 62
     7
370
    25
100
AcDbCircle
 10
62.7941375143
 20
25.1659368604
 30
0.0
 40
0.8605177904074595
100
AcDbArc
 50
64.8201706754
 51
115.1798293246
  0
ARC
  5
57B
330
23
100
AcDbEntity
 67
     1
  8
0
  6
Continuous
 62
     7
370
    25
100
AcDbCircle
 10
-62.7941375143
 20
25.1659368604
 30
0.0
 40
0.8605177904075592
100
AcDbArc
 50
64.8201706754
 51
115.1798293246
  0
ARC
  5
57C
330
23
100
AcDbEntity
 67
     1
  8
0
  6
Continuous
 62
     7
370
    25
100
AcDbCircle
 10
60.6602540378
 20
21.6145585551
 30
0.0
 40
4.99999999999995
100
AcDbArc
 50
60.0
 51
90.0
  0
ARC
  5
57D
330
23
100
AcDbEntity
 67
     1
  8
0
  6
Continuous
 62
     7
370
    25
100
AcDbCircle
 10
-60.6602540378
 20
21.6145585551
 30
0.0
 40
5.000000000000039
100
AcDbArc
 50
90.0
 51
120.0
  0
ARC
  5
57E
330
23
100
AcDbEntity
 67
     1
  8
0
  6
Continuous
 62
     7
370
    25
100
AcDbCircle
 10
-0.1349388206
 20
33.3357003725
 30
0.0
 40
4.210984524333035
100
AcDbArc
 50
172.9978473841
 51
180.2550303981
  0
VIEWPORT
  5
581
330
23
100
AcDbEntity
 67
     1
  8
0
100
AcDbViewport
 10
0.0
 20
0.0
 30
0.0
 40
205.6
 41
156.0
 68
     1
 69
     1
 12
0.0
 22
7.4477357684
 13
0.0
 23
0.0
 14
10.0
 24
10.0
 15
10.0
 25
10.0
 16
0.0
 26
0.0
 36
1.0
 17
0.0
 27
0.0
 37
0.0
 42
50.0
 43
0.0
 44
0.0
 45
219.1933809675
 50
0.0
 51
0.0
 72
   100
 90
   557152
  1

281
     0
 71
     1
 74
     0
110
0.0
120
0.0
130
0.0
111
1.0
121
0.0
131
0.0
112
0.0
122
1.0
132
0.0
 79
     0
146
0.0
  0
ENDSEC
  0
SECTION
  2
OBJECTS
  0
DICTIONARY
  5
C
330
0
100
AcDbDictionary
281
     1
  3
ACAD_GROUP
350
D
  3
ACAD_LAYOUT
350
1A
  3
ACAD_MLINESTYLE
350
17
  3
ACAD_PLOTSETTINGS
350
19
  3
ACAD_PLOTSTYLENAME
350
E
  3
ACAD_SCALELIST
350
47
  0
DICTIONARY
  5
D
102
{ACAD_REACTORS
330
C
102
}
330
C
100
AcDbDictionary
281
     1
  0
DICTIONARY
  5
1A
102
{ACAD_REACTORS
330
C
102
}
330
C
100
AcDbDictionary
281
     1
  3
_Left
350
1E
  3
_Top
350
26
  3
Model
350
22
  0
DICTIONARY
  5
17
102
{ACAD_REACTORS
330
C
102
}
330
C
100
AcDbDictionary
281
     1
  3
Standard
350
18
  0
DICTIONARY
  5
19
102
{ACAD_REACTORS
330
C
102
}
330
C
100
AcDbDictionary
281
     1
  0
ACDBDICTIONARYWDFLT
  5
E
102
{ACAD_REACTORS
330
C
102
}
330
C
100
AcDbDictionary
281
     1
  3
Normal
350
F
100
AcDbDictionaryWithDefault
340
F
  0
DICTIONARY
  5
47
102
{ACAD_REACTORS
330
C
102
}
330
C
100
AcDbDictionary
281
     1
  3
A0
350
48
  3
A1
350
49
  3
A2
350
4A
  3
A3
350
4B
  3
A4
350
4C
  3
A5
350
4D
  3
A6
350
4E
  3
A7
350
4F
  3
A8
350
50
  3
A9
350
51
  3
B0
350
52
  3
B1
350
53
  3
B2
350
54
  3
B3
350
55
  3
B4
350
56
  3
B5
350
57
  3
B6
350
58
  3
B7
350
59
  3
B8
350
5A
  3
B9
350
5B
  3
C0
350
5C
  3
C1
350
5D
  3
C2
350
5E
  3
C3
350
5F
  3
C4
350
60
  3
C5
350
61
  3
C6
350
62
  3
C7
350
63
  3
C8
350
64
  3
C9
350
65
  3
D0
350
66
  3
D1
350
67
  3
D2
350
68
  0
LAYOUT
  5
1E
102
{ACAD_REACTORS
330
1A
102
}
330
1A
100
AcDbPlotSettings
  1

  2
none_device
  4
ISO_A4_(210.00_x_297.00_MM)
  6

 40
7.5
 41
20.0
 42
7.5
 43
20.0
 44
210.0
 45
297.0
 46
0.0
 47
0.0
 48
0.0
 49
0.0
140
0.0
141
0.0
142
1.0
143
1.1020280592
 70
   688
 72
     1
 73
     1
 74
     1
  7

 75
     0
147
0.9074179116
148
91.6145585551
149
100.0
100
AcDbLayout
  1
_Left
 70
     1
 71
     1
 10
-113.6551197383
 20
-108.2652104437
 11
213.647213833
 21
123.1606819805
 12
0.0
 22
0.0
 32
0.0
 14
1.0000000000E+20
 24
1.0000000000E+20
 34
1.0000000000E+20
 15
-1.0000000000E+20
 25
-1.0000000000E+20
 35
-1.0000000000E+20
146
0.0
 13
0.0
 23
0.0
 33
0.0
 16
1.0
 26
0.0
 36
0.0
 17
0.0
 27
1.0
 37
0.0
 76
     0
330
1B
331
57F
  0
LAYOUT
  5
26
102
{ACAD_REACTORS
330
1A
102
}
330
1A
100
AcDbPlotSettings
  1

  2
none_device
  4
ANSI_A_(11.00_x_8.50_Inches)
  6

 40
6.35
 41
19.05
 42
6.35000508
 43
19.05000254
 44
279.4
 45
215.9
 46
133.34999746
 47
81.4922740372
 48
0.0
 49
0.0
140
0.0
141
0.0
142
0.039158573
143
1.0
 70
   672
 72
     0
 73
     0
 74
     1
  7

 75
     0
147
0.0325739758
148
1778.0
149
2540.0
100
AcDbLayout
  1
_Top
 70
     1
 71
     2
 10
0.0
 20
0.0
 11
0.0
 21
0.0
 12
0.0
 22
0.0
 32
0.0
 14
-70.0
 24
-100.0
 34
0.0
 15
70.0
 25
114.8954715367
 35
0.0
146
0.0
 13
0.0
 23
0.0
 33
0.0
 16
1.0
 26
0.0
 36
0.0
 17
0.0
 27
1.0
 37
0.0
 76
     0
330
23
331
581
  0
LAYOUT
  5
22
102
{ACAD_REACTORS
330
1A
102
}
330
1A
100
AcDbPlotSettings
  1

  2
none_device
  4
Letter_(8.50_x_11.00_Inches)
  6

 40
6.35
 41
6.35
 42
6.35000508
 43
6.35000508
 44
215.9
 45
279.4
 46
0.0
 47
0.0
 48
0.0
 49
0.0
140
0.0
141
0.0
142
1.0
143
1.0
 70
  1712
 72
     1
 73
     0
 74
     0
  7

 75
     0
147
1.0
148
0.0
149
0.0
100
AcDbLayout
  1
Model
 70
     1
 71
     0
 10
0.0
 20
0.0
 11
420.0
 21
297.0
 12
0.0
 22
0.0
 32
0.0
 14
-70.0
 24
-100.0
 34
0.0
 15
70.0
 25
114.8954715367
 35
0.0
146
0.0
 13
0.0
 23
0.0
 33
0.0
 16
1.0
 26
0.0
 36
0.0
 17
0.0
 27
1.0
 37
0.0
 76
     0
330
1F
331
29
  0
MLINESTYLE
  5
18
102
{ACAD_REACTORS
330
17
102
}
330
17
100
AcDbMlineStyle
  2
Standard
 70
     0
  3

 62
   256
 51
90.0
 52
90.0
 71
     2
 49
0.5
 62
   256
  6
BYLAYER
 49
-0.5
 62
   256
  6
BYLAYER
  0
ACDBPLACEHOLDER
  5
F
102
{ACAD_REACTORS
330
E
102
}
330
E
  0
SCALE
  5
48
102
{ACAD_REACTORS
330
47
102
}
330
47
100
AcDbScale
 70
     0
300
1:1
140
1.0
141
1.0
290
     1
  0
SCALE
  5
49
102
{ACAD_REACTORS
330
47
102
}
330
47
100
AcDbScale
 70
     0
300
1:2
140
1.0
141
2.0
290
     0
  0
SCALE
  5
4A
102
{ACAD_REACTORS
330
47
102
}
330
47
100
AcDbScale
 70
     0
300
1:4
140
1.0
141
4.0
290
     0
  0
SCALE
  5
4B
102
{ACAD_REACTORS
330
47
102
}
330
47
100
AcDbScale
 70
     0
300
1:5
140
1.0
141
5.0
290
     0
  0
SCALE
  5
4C
102
{ACAD_REACTORS
330
47
102
}
330
47
100
AcDbScale
 70
     0
300
1:8
140
1.0
141
8.0
290
     0
  0
SCALE
  5
4D
102
{ACAD_REACTORS
330
47
102
}
330
47
100
AcDbScale
 70
     0
300
1:10
140
1.0
141
10.0
290
     0
  0
SCALE
  5
4E
102
{ACAD_REACTORS
330
47
102
}
330
47
100
AcDbScale
 70
     0
300
1:16
140
1.0
141
16.0
290
     0
  0
SCALE
  5
4F
102
{ACAD_REACTORS
330
47
102
}
330
47
100
AcDbScale
 70
     0
300
1:20
140
1.0
141
20.0
290
     0
  0
SCALE
  5
50
102
{ACAD_REACTORS
330
47
102
}
330
47
100
AcDbScale
 70
     0
300
1:30
140
1.0
141
30.0
290
     0
  0
SCALE
  5
51
102
{ACAD_REACTORS
330
47
102
}
330
47
100
AcDbScale
 70
     0
300
1:40
140
1.0
141
40.0
290
     0
  0
SCALE
  5
52
102
{ACAD_REACTORS
330
47
102
}
330
47
100
AcDbScale
 70
     0
300
1:50
140
1.0
141
50.0
290
     0
  0
SCALE
  5
53
102
{ACAD_REACTORS
330
47
102
}
330
47
100
AcDbScale
 70
     0
300
1:100
140
1.0
141
100.0
290
     0
  0
SCALE
  5
54
102
{ACAD_REACTORS
330
47
102
}
330
47
100
AcDbScale
 70
     0
300
2:1
140
2.0
141
1.0
290
     0
  0
SCALE
  5
55
102
{ACAD_REACTORS
330
47
102
}
330
47
100
AcDbScale
 70
     0
300
4:1
140
4.0
141
1.0
290
     0
  0
SCALE
  5
56
102
{ACAD_REACTORS
330
47
102
}
330
47
100
AcDbScale
 70
     0
300
8:1
140
8.0
141
1.0
290
     0
  0
SCALE
  5
57
102
{ACAD_REACTORS
330
47
102
}
330
47
100
AcDbScale
 70
     0
300
10:1
140
10.0
141
1.0
290
     0
  0
SCALE
  5
58
102
{ACAD_REACTORS
330
47
102
}
330
47
100
AcDbScale
 70
     0
300
100:1
140
100.0
141
1.0
290
     0
  0
SCALE
  5
59
102
{ACAD_REACTORS
330
47
102
}
330
47
100
AcDbScale
 70
     0
300
1/128" = 1'-0"
140
0.0078125
141
12.0
290
     0
  0
SCALE
  5
5A
102
{ACAD_REACTORS
330
47
102
}
330
47
100
AcDbScale
 70
     0
300
1/64" = 1'-0"
140
0.015625
141
12.0
290
     0
  0
SCALE
  5
5B
102
{ACAD_REACTORS
330
47
102
}
330
47
100
AcDbScale
 70
     0
300
1/32" = 1'-0"
140
0.03125
141
12.0
290
     0
  0
SCALE
  5
5C
102
{ACAD_REACTORS
330
47
102
}
330
47
100
AcDbScale
 70
     0
300
1/16" = 1'-0"
140
0.0625
141
12.0
290
     0
  0
SCALE
  5
5D
102
{ACAD_REACTORS
330
47
102
}
330
47
100
AcDbScale
 70
     0
300
3/32" = 1'-0"
140
0.09375
141
12.0
290
     0
  0
SCALE
  5
5E
102
{ACAD_REACTORS
330
47
102
}
330
47
100
AcDbScale
 70
     0
300
1/8" = 1'-0"
140
0.125
141
12.0
290
     0
  0
SCALE
  5
5F
102
{ACAD_REACTORS
330
47
102
}
330
47
100
AcDbScale
 70
     0
300
3/16" = 1'-0"
140
0.1875
141
12.0
290
     0
  0
SCALE
  5
60
102
{ACAD_REACTORS
330
47
102
}
330
47
100
AcDbScale
 70
     0
300
1/4" = 1'-0"
140
0.25
141
12.0
290
     0
  0
SCALE
  5
61
102
{ACAD_REACTORS
330
47
102
}
330
47
100
AcDbScale
 70
     0
300
3/8" = 1'-0"
140
0.375
141
12.0
290
     0
  0
SCALE
  5
62
102
{ACAD_REACTORS
330
47
102
}
330
47
100
AcDbScale
 70
     0
300
1/2" = 1'-0"
140
0.5
141
12.0
290
     0
  0
SCALE
  5
63
102
{ACAD_REACTORS
330
47
102
}
330
47
100
AcDbScale
 70
     0
300
3/4" = 1'-0"
140
0.75
141
12.0
290
     0
  0
SCALE
  5
64
102
{ACAD_REACTORS
330
47
102
}
330
47
100
AcDbScale
 70
     0
300
1" = 1'-0"
140
1.0
141
12.0
290
     0
  0
SCALE
  5
65
102
{ACAD_REACTORS
330
47
102
}
330
47
100
AcDbScale
 70
     0
300
1-1/2" = 1'-0"
140
1.5
141
12.0
290
     0
  0
SCALE
  5
66
102
{ACAD_REACTORS
330
47
102
}
330
47
100
AcDbScale
 70
     0
300
3" = 1'-0"
140
3.0
141
12.0
290
     0
  0
SCALE
  5
67
102
{ACAD_REACTORS
330
47
102
}
330
47
100
AcDbScale
 70
     0
300
6" = 1'-0"
140
6.0
141
12.0
290
     0
  0
SCALE
  5
68
102
{ACAD_REACTORS
330
47
102
}
330
47
100
AcDbScale
 70
     0
300
1'-0" = 1'-0"
140
12.0
141
12.0
290
     0
  0
ENDSEC
  0
EOF
