  0
SECTION
  2
HEADER
  9
$ACADVER
  1
AC1015
  9
$ACADMAINTVER
 70
     6
  9
$DWGCODEPAGE
  3
ANSI_1252
  9
$INSBASE
 10
0.0
 20
0.0
 30
0.0
  9
$EXTMIN
 10
-365.5
 20
0.0
 30
0.0
  9
$EXTMAX
 10
70.0
 20
910.5
 30
0.0
  9
$LIMMIN
 10
0.0
 20
0.0
  9
$LIMMAX
 10
420.0
 20
297.0
  9
$ORTHOMODE
 70
     0
  9
$REGENMODE
 70
     1
  9
$FILLMODE
 70
     1
  9
$QTEXTMODE
 70
     0
  9
$MIRRTEXT
 70
     1
  9
$LTSCALE
 40
1.0
  9
$ATTMODE
 70
     1
  9
$TEXTSIZE
 40
3.5
  9
$TRACEWID
 40
1.0
  9
$TEXTSTYLE
  7
Standard
  9
$CLAYER
  8
0
  9
$CELTYPE
  6
ByLayer
  9
$CECOLOR
 62
   256
  9
$CELTSCALE
 40
1.0
  9
$DISPSILH
 70
     0
  9
$DIMSCALE
 40
1.0
  9
$DIMASZ
 40
3.302
  9
$DIMEXO
 40
1.0
  9
$DIMDLI
 40
3.75
  9
$DIMRND
 40
0.0
  9
$DIMDLE
 40
0.0
  9
$DIMEXE
 40
1.0
  9
$DIMTP
 40
0.0
  9
$DIMTM
 40
0.0
  9
$DIMTXT
 40
3.5
  9
$DIMCEN
 40
2.5
  9
$DIMTSZ
 40
0.0
  9
$DIMTOL
 70
     0
  9
$DIMLIM
 70
     0
  9
$DIMTIH
 70
     1
  9
$DIMTOH
 70
     1
  9
$DIMSE1
 70
     0
  9
$DIMSE2
 70
     0
  9
$DIMTAD
 70
     1
  9
$DIMZIN
 70
     1
  9
$DIMBLK
  1

  9
$DIMASO
 70
     1
  9
$DIMSHO
 70
     1
  9
$DIMPOST
  1

  9
$DIMAPOST
  1

  9
$DIMALT
 70
     0
  9
$DIMALTD
 70
     3
  9
$DIMALTF
 40
0.0393700787
  9
$DIMLFAC
 40
1.0
  9
$DIMTOFL
 70
     1
  9
$DIMTVP
 40
0.0
  9
$DIMTIX
 70
     0
  9
$DIMSOXD
 70
     0
  9
$DIMSAH
 70
     0
  9
$DIMBLK1
  1

  9
$DIMBLK2
  1

  9
$DIMSTYLE
  2
ISO-25
  9
$DIMCLRD
 70
     0
  9
$DIMCLRE
 70
     0
  9
$DIMCLRT
 70
     0
  9
$DIMTFAC
 40
1.0
  9
$DIMGAP
 40
1.524
  9
$DIMJUST
 70
     0
  9
$DIMSD1
 70
     0
  9
$DIMSD2
 70
     0
  9
$DIMTOLJ
 70
     0
  9
$DIMTZIN
 70
     1
  9
$DIMALTZ
 70
     0
  9
$DIMALTTZ
 70
     0
  9
$DIMUPT
 70
     0
  9
$DIMDEC
 70
     2
  9
$DIMTDEC
 70
     2
  9
$DIMALTU
 70
     2
  9
$DIMALTTD
 70
     3
  9
$DIMTXSTY
  7
Standard
  9
$DIMAUNIT
 70
     0
  9
$DIMADEC
 70
     2
  9
$DIMALTRND
 40
0.0
  9
$DIMAZIN
 70
     0
  9
$DIMDSEP
 70
    44
  9
$DIMATFIT
 70
     3
  9
$DIMFRAC
 70
     0
  9
$DIMLDRBLK
  1

  9
$DIMLUNIT
 70
     2
  9
$DIMLWD
 70
    -2
  9
$DIMLWE
 70
    -2
  9
$DIMTMOVE
 70
     0
  9
$LUNITS
 70
     2
  9
$LUPREC
 70
     2
  9
$SKETCHINC
 40
1.0
  9
$FILLETRAD
 40
10.0
  9
$AUNITS
 70
     0
  9
$AUPREC
 70
     2
  9
$MENU
  1
.
  9
$ELEVATION
 40
0.0
  9
$PELEVATION
 40
0.0
  9
$THICKNESS
 40
0.0
  9
$LIMCHECK
 70
     0
  9
$CHAMFERA
 40
0.0
  9
$CHAMFERB
 40
0.0
  9
$CHAMFERC
 40
0.0
  9
$CHAMFERD
 40
0.0
  9
$SKPOLY
 70
     0
  9
$TDCREATE
 40
2459891.580139687
  9
$TDUCREATE
 40
2459891.580139687
  9
$TDUPDATE
 40
2459891.58018103
  9
$TDUUPDATE
 40
2459891.58018103
  9
$TDINDWG
 40
0.0000000116
  9
$TDUSRTIMER
 40
0.0000000116
  9
$USRTIMER
 70
     1
  9
$ANGBASE
 50
0.0
  9
$ANGDIR
 70
     0
  9
$PDMODE
 70
     0
  9
$PDSIZE
 40
-1.0
  9
$PLINEWID
 40
0.0
  9
$SPLFRAME
 70
     0
  9
$SPLINETYPE
 70
     6
  9
$SPLINESEGS
 70
     8
  9
$HANDSEED
  5
330
  9
$SURFTAB1
 70
     6
  9
$SURFTAB2
 70
     6
  9
$SURFTYPE
 70
     6
  9
$SURFU
 70
     6
  9
$SURFV
 70
     6
  9
$UCSBASE
  2

  9
$UCSNAME
  2

  9
$UCSORG
 10
0.0
 20
0.0
 30
0.0
  9
$UCSXDIR
 10
1.0
 20
0.0
 30
0.0
  9
$UCSYDIR
 10
0.0
 20
1.0
 30
0.0
  9
$UCSORTHOREF
  2

  9
$UCSORTHOVIEW
 70
     0
  9
$UCSORGTOP
 10
0.0
 20
0.0
 30
0.0
  9
$UCSORGBOTTOM
 10
0.0
 20
0.0
 30
0.0
  9
$UCSORGLEFT
 10
0.0
 20
0.0
 30
0.0
  9
$UCSORGRIGHT
 10
0.0
 20
0.0
 30
0.0
  9
$UCSORGFRONT
 10
0.0
 20
0.0
 30
0.0
  9
$UCSORGBACK
 10
0.0
 20
0.0
 30
0.0
  9
$PUCSBASE
  2

  9
$PUCSNAME
  2

  9
$PUCSORG
 10
0.0
 20
0.0
 30
0.0
  9
$PUCSXDIR
 10
1.0
 20
0.0
 30
0.0
  9
$PUCSYDIR
 10
0.0
 20
1.0
 30
0.0
  9
$PUCSORTHOREF
  2

  9
$PUCSORTHOVIEW
 70
     0
  9
$PUCSORGTOP
 10
0.0
 20
0.0
 30
0.0
  9
$PUCSORGBOTTOM
 10
0.0
 20
0.0
 30
0.0
  9
$PUCSORGLEFT
 10
0.0
 20
0.0
 30
0.0
  9
$PUCSORGRIGHT
 10
0.0
 20
0.0
 30
0.0
  9
$PUCSORGFRONT
 10
0.0
 20
0.0
 30
0.0
  9
$PUCSORGBACK
 10
0.0
 20
0.0
 30
0.0
  9
$USERI1
 70
     0
  9
$USERI2
 70
     0
  9
$USERI3
 70
     0
  9
$USERI4
 70
     0
  9
$USERI5
 70
     0
  9
$USERR1
 40
0.0
  9
$USERR2
 40
0.0
  9
$USERR3
 40
0.0
  9
$USERR4
 40
0.0
  9
$USERR5
 40
0.0
  9
$WORLDVIEW
 70
     1
  9
$SHADEDGE
 70
     3
  9
$SHADEDIF
 70
    70
  9
$TILEMODE
 70
     1
  9
$MAXACTVP
 70
    64
  9
$PINSBASE
 10
0.0
 20
0.0
 30
0.0
  9
$PLIMCHECK
 70
     0
  9
$PEXTMIN
 10
-32.5
 20
-365.5
 30
0.0
  9
$PEXTMAX
 10
40.0
 20
70.0
 30
0.0
  9
$PLIMMIN
 10
-77.1666666667
 20
-382.25
  9
$PLIMMAX
 10
586.1333333333
 20
86.75
  9
$UNITMODE
 70
     0
  9
$VISRETAIN
 70
     1
  9
$PLINEGEN
 70
     0
  9
$PSLTSCALE
 70
     1
  9
$TREEDEPTH
 70
  3020
  9
$CMLSTYLE
  2
Standard
  9
$CMLJUST
 70
     0
  9
$CMLSCALE
 40
20.0
  9
$PROXYGRAPHICS
 70
     1
  9
$MEASUREMENT
 70
     1
  9
$CELWEIGHT
370
    -1
  9
$ENDCAPS
280
     0
  9
$JOINSTYLE
280
     0
  9
$LWDISPLAY
290
     1
  9
$INSUNITS
 70
     4
  9
$HYPERLINKBASE
  1

  9
$STYLESHEET
  1

  9
$XEDIT
290
     1
  9
$CEPSNTYPE
380
     0
  9
$PSTYLEMODE
290
     1
  9
$FINGERPRINTGUID
  2
{9d48a7bb-ef97-4715-8ca6-59648b546c7c}
  9
$VERSIONGUID
  2
{FAEB1C32-E019-11D5-929B-00C0DF256EC4}
  9
$EXTNAMES
290
     1
  9
$PSVPSCALE
 40
0.0
  9
$OLESTARTUP
290
     0
  0
ENDSEC
  0
SECTION
  2
CLASSES
  0
CLASS
  1
ACDBDICTIONARYWDFLT
  2
AcDbDictionaryWithDefault
  3
ObjectDBX Classes
 90
        0
280
     0
281
     0
  0
CLASS
  1
VISUALSTYLE
  2
AcDbVisualStyle
  3
ObjectDBX Classes
 90
     4095
280
     0
281
     0
  0
CLASS
  1
MATERIAL
  2
AcDbMaterial
  3
ObjectDBX Classes
 90
     1153
280
     0
281
     0
  0
CLASS
  1
SCALE
  2
AcDbScale
  3
ObjectDBX Classes
 90
     1153
280
     0
281
     0
  0
CLASS
  1
TABLESTYLE
  2
AcDbTableStyle
  3
ObjectDBX Classes
 90
     4095
280
     0
281
     0
  0
CLASS
  1
MLEADERSTYLE
  2
AcDbMLeaderStyle
  3
ACDB_MLEADERSTYLE_CLASS
 90
     4095
280
     0
281
     0
  0
CLASS
  1
SUN
  2
AcDbSun
  3
SCENEOE
 90
     1153
280
     0
281
     0
  0
CLASS
  1
ACDBPLACEHOLDER
  2
AcDbPlaceHolder
  3
ObjectDBX Classes
 90
        0
280
     0
281
     0
  0
CLASS
  1
LAYOUT
  2
AcDbLayout
  3
ObjectDBX Classes
 90
        0
280
     0
281
     0
  0
ENDSEC
  0
SECTION
  2
TABLES
  0
TABLE
  2
VPORT
  5
8
330
0
100
AcDbSymbolTable
 70
     1
  0
VPORT
  5
29
330
8
100
AcDbSymbolTableRecord
100
AcDbViewportTableRecord
  2
*Active
 70
     0
 10
0.0
 20
0.0
 11
1.0
 21
1.0
 12
-147.75
 22
455.25
 13
0.0
 23
0.0
 14
10.0
 24
10.0
 15
10.0
 25
10.0
 16
0.0
 26
0.0
 36
1.0
 17
0.0
 27
0.0
 37
0.0
 40
928.71
 41
0.4783086216
 42
50.0
 43
0.0
 44
0.0
 50
0.0
 51
0.0
 71
     0
 72
   100
 73
     1
 74
     3
 75
     0
 76
     0
 77
     0
 78
     0
281
     0
 65
     1
110
0.0
120
0.0
130
0.0
111
1.0
121
0.0
131
0.0
112
0.0
122
1.0
132
0.0
 79
     0
146
0.0
  0
ENDTAB
  0
TABLE
  2
LTYPE
  5
5
330
0
100
AcDbSymbolTable
 70
     6
  0
LTYPE
  5
14
330
5
100
AcDbSymbolTableRecord
100
AcDbLinetypeTableRecord
  2
ByBlock
 70
     0
  3

 72
    65
 73
     0
 40
0.0
  0
LTYPE
  5
15
330
5
100
AcDbSymbolTableRecord
100
AcDbLinetypeTableRecord
  2
ByLayer
 70
     0
  3

 72
    65
 73
     0
 40
0.0
  0
LTYPE
  5
16
330
5
100
AcDbSymbolTableRecord
100
AcDbLinetypeTableRecord
  2
Continuous
 70
     0
  3
Solid line
 72
    65
 73
     0
 40
0.0
  0
LTYPE
  5
6E
330
5
100
AcDbSymbolTableRecord
100
AcDbLinetypeTableRecord
  2
HIDDEN
 70
     0
  3
Hidden __ __ __ __ __ __ __ __ __ __ __ __ __ __
 72
    65
 73
     2
 40
1.905
 49
1.27
 74
     0
 49
-0.635
 74
     0
  0
LTYPE
  5
6F
330
5
100
AcDbSymbolTableRecord
100
AcDbLinetypeTableRecord
  2
PHANTOM
 70
     0
  3
Phantom ______  __  __  ______  __  __  ______
 72
    65
 73
     6
 40
12.7
 49
6.35
 74
     0
 49
-1.27
 74
     0
 49
1.27
 74
     0
 49
-1.27
 74
     0
 49
1.27
 74
     0
 49
-1.27
 74
     0
  0
LTYPE
  5
70
330
5
100
AcDbSymbolTableRecord
100
AcDbLinetypeTableRecord
  2
CENTER
 70
     0
  3
Center ____ _ ____ _ ____ _ ____ _ ____ _ ____
 72
    65
 73
     4
 40
10.16
 49
6.35
 74
     0
 49
-1.27
 74
     0
 49
1.27
 74
     0
 49
-1.27
 74
     0
  0
LTYPE
  5
71
330
5
100
AcDbSymbolTableRecord
100
AcDbLinetypeTableRecord
  2
CENTERX2
 70
     0
  3
Center (2x) ________  __  ________  __  _____
 72
    65
 73
     4
 40
20.32
 49
12.7
 74
     0
 49
-2.54
 74
     0
 49
2.54
 74
     0
 49
-2.54
 74
     0
  0
LTYPE
  5
72
330
5
100
AcDbSymbolTableRecord
100
AcDbLinetypeTableRecord
  2
DOT2
 70
     0
  3
Dot (.5x) ........................................
 72
    65
 73
     2
 40
0.635
 49
0.0
 74
     0
 49
-0.635
 74
     0
  0
ENDTAB
  0
TABLE
  2
LAYER
  5
2
330
0
100
AcDbSymbolTable
 70
     1
  0
LAYER
  5
10
330
2
100
AcDbSymbolTableRecord
100
AcDbLayerTableRecord
  2
0
 70
     0
 62
     7
  6
Continuous
370
    -3
390
F
  0
ENDTAB
  0
TABLE
  2
STYLE
  5
3
330
0
100
AcDbSymbolTable
 70
     1
  0
STYLE
  5
11
330
3
100
AcDbSymbolTableRecord
100
AcDbTextStyleTableRecord
  2
Standard
 70
     0
 40
0.0
 41
1.0
 50
0.0
 71
     0
 42
3.5
  3
txt
  4

  0
ENDTAB
  0
TABLE
  2
VIEW
  5
6
330
0
100
AcDbSymbolTable
 70
     0
  0
ENDTAB
  0
TABLE
  2
UCS
  5
7
330
0
100
AcDbSymbolTable
 70
     0
  0
ENDTAB
  0
TABLE
  2
APPID
  5
9
330
0
100
AcDbSymbolTable
 70
     1
  0
APPID
  5
12
330
9
100
AcDbSymbolTableRecord
100
AcDbRegAppTableRecord
  2
ACAD
 70
     0
  0
ENDTAB
  0
TABLE
  2
DIMSTYLE
  5
A
330
0
100
AcDbSymbolTable
 70
     1
100
AcDbDimStyleTable
  0
DIMSTYLE
105
27
330
A
100
AcDbSymbolTableRecord
100
AcDbDimStyleTableRecord
  2
ISO-25
 70
     0
 41
2.5
 42
0.625
 43
3.75
 44
1.25
 73
     0
 74
     0
 77
     1
 78
     8
140
2.5
141
2.5
143
0.0393700787
147
0.625
171
     3
172
     1
178
     0
271
     2
272
     2
274
     3
278
    44
283
     0
284
     8
340
11
  0
ENDTAB
  0
TABLE
  2
BLOCK_RECORD
  5
1
330
0
100
AcDbSymbolTable
 70
     2
  0
BLOCK_RECORD
  5
1F
330
1
100
AcDbSymbolTableRecord
100
AcDbBlockTableRecord
  2
*Model_Space
340
22
  0
BLOCK_RECORD
  5
1B
330
1
100
AcDbSymbolTableRecord
100
AcDbBlockTableRecord
  2
*Paper_Space
340
1E
  0
BLOCK_RECORD
  5
23
330
1
100
AcDbSymbolTableRecord
100
AcDbBlockTableRecord
  2
*Paper_Space0
340
26
  0
BLOCK_RECORD
  5
2D3
330
1
100
AcDbSymbolTableRecord
100
AcDbBlockTableRecord
  2
*Paper_Space1
340
2D4
  0
ENDTAB
  0
ENDSEC
  0
SECTION
  2
BLOCKS
  0
BLOCK
  5
20
330
1F
100
AcDbEntity
  8
0
100
AcDbBlockBegin
  2
*Model_Space
 70
     0
 10
0.0
 20
0.0
 30
0.0
  3
*Model_Space
  1

  0
ENDBLK
  5
21
330
1F
100
AcDbEntity
  8
0
100
AcDbBlockEnd
  0
BLOCK
  5
1C
330
1B
100
AcDbEntity
 67
     1
  8
0
100
AcDbBlockBegin
  2
*Paper_Space
 70
     0
 10
0.0
 20
0.0
 30
0.0
  3
*Paper_Space
  1

  0
ENDBLK
  5
1D
330
1B
100
AcDbEntity
 67
     1
  8
0
100
AcDbBlockEnd
  0
BLOCK
  5
24
330
23
100
AcDbEntity
  8
0
100
AcDbBlockBegin
  2
*Paper_Space0
 70
     0
 10
0.0
 20
0.0
 30
0.0
  3
*Paper_Space0
  1

  0
SPLINE
  5
1DC
330
23
100
AcDbEntity
  8
0
  6
Continuous
 62
     7
370
    25
100
AcDbSpline
210
0.0
220
0.0
230
1.0
 70
     8
 71
     3
 72
     9
 73
     5
 74
     0
 42
0.000000001
 43
0.00000001
 40
0.0
 40
0.0
 40
0.0
 40
0.0
 40
0.5046825047950863
 40
1.0
 40
1.0
 40
1.0
 40
1.0
 10
-10.30450430627264
 20
832.71011299748
 30
0.0
 10
-10.16916117313675
 20
832.6319151275105
 30
0.0
 10
-9.900986366500979
 20
832.4769704460002
 30
0.0
 10
-9.632825010944815
 20
832.3220109554484
 30
0.0
 10
-9.499999999999982
 20
832.2452568087302
 30
0.0
  0
SPLINE
  5
1DD
330
23
100
AcDbEntity
  8
0
  6
Continuous
 62
     7
370
    25
100
AcDbSpline
210
0.0
220
0.0
230
1.0
 70
     8
 71
     3
 72
     9
 73
     5
 74
     0
 42
0.000000001
 43
0.00000001
 40
0.0
 40
0.0
 40
0.0
 40
0.0
 40
0.5043597659500678
 40
1.0
 40
1.0
 40
1.0
 40
1.0
 10
-10.30450430627264
 20
834.21011299748
 30
0.0
 10
-10.16924547810996
 20
834.1319669996957
 30
0.0
 10
-9.901066219386024
 20
833.9770260169686
 30
0.0
 10
-9.632909338970988
 20
833.8220628925429
 30
0.0
 10
-9.499999999999984
 20
833.7452569332834
 30
0.0
  0
SPLINE
  5
1DE
330
23
100
AcDbEntity
  8
0
  6
Continuous
 62
     7
370
    25
100
AcDbSpline
210
0.0
220
0.0
230
1.0
 70
     8
 71
     3
 72
     9
 73
     5
 74
     0
 42
0.000000001
 43
0.00000001
 40
0.0
 40
0.0
 40
0.0
 40
0.0
 40
0.5040419568729623
 40
1.0
 40
1.0
 40
1.0
 40
1.0
 10
-10.30450430627264
 20
835.71011299748
 30
0.0
 10
-10.16932821352006
 20
835.6320192258592
 30
0.0
 10
-9.901144006016391
 20
835.4770841642911
 30
0.0
 10
-9.632992096369323
 20
835.322115207876
 30
0.0
 10
-9.499999999999982
 20
835.2452571075067
 30
0.0
  0
SPLINE
  5
1DF
330
23
100
AcDbEntity
  8
0
  6
Continuous
 62
     7
370
    25
100
AcDbSpline
210
0.0
220
0.0
230
1.0
 70
     8
 71
     3
 72
     9
 73
     5
 74
     0
 42
0.000000001
 43
0.00000001
 40
0.0
 40
0.0
 40
0.0
 40
0.0
 40
0.5037294372193145
 40
1.0
 40
1.0
 40
1.0
 40
1.0
 10
-10.30450430627264
 20
837.21011299748
 30
0.0
 10
-10.1694094292974
 20
837.1320718328988
 30
0.0
 10
-9.901220066132558
 20
836.9771450829118
 30
0.0
 10
-9.6330733311016
 20
836.8221679301272
 30
0.0
 10
-9.499999999999982
 20
836.7452573312968
 30
0.0
  0
SPLINE
  5
1E0
330
23
100
AcDbEntity
  8
0
  6
Continuous
 62
     7
370
    25
100
AcDbSpline
210
0.0
220
0.0
230
1.0
 70
     8
 71
     3
 72
     9
 73
     5
 74
     0
 42
0.000000001
 43
0.00000001
 40
0.0
 40
0.0
 40
0.0
 40
0.0
 40
0.5034225524188518
 40
1.0
 40
1.0
 40
1.0
 40
1.0
 10
-10.30450430627264
 20
838.71011299748
 30
0.0
 10
-10.16948917318398
 20
838.6321248465124
 30
0.0
 10
-9.901294726113749
 20
838.4772089600611
 30
0.0
 10
-9.633153089499913
 20
838.3222210869756
 30
0.0
 10
-9.499999999999982
 20
838.2452576045526
 30
0.0
  0
SPLINE
  5
1E1
330
23
100
AcDbEntity
  8
0
  6
Continuous
 62
     7
370
    25
100
AcDbSpline
210
0.0
220
0.0
230
1.0
 70
     8
 71
     3
 72
     9
 73
     5
 74
     0
 42
0.000000001
 43
0.00000001
 40
0.0
 40
0.0
 40
0.0
 40
0.0
 40
0.0509870446339566
 40
1.0
 40
1.0
 40
1.0
 40
1.0
 10
-9.92118791641312
 20
839.9886907359322
 30
0.0
 10
-9.914028460036835
 20
839.9845551456077
 30
0.0
 10
-9.773611292741018
 20
839.9034445349743
 30
0.0
 10
-9.633226749894485
 20
839.8222821151137
 30
0.0
 10
-9.499999999999982
 20
839.7452579271769
 30
0.0
  0
SPLINE
  5
1E2
330
23
100
AcDbEntity
  8
0
  6
Continuous
 62
     7
370
    25
100
AcDbSpline
210
0.0
220
0.0
230
1.0
 70
     8
 71
     3
 72
     9
 73
     5
 74
     0
 42
0.000000001
 43
0.00000001
 40
0.0
 40
0.0
 40
0.0
 40
0.0
 40
0.500189289329661
 40
1.0
 40
1.0
 40
1.0
 40
1.0
 10
9.438806878499332
 20
832.973748270344
 30
0.0
 10
9.573866185450063
 20
833.051994675945
 30
0.0
 10
9.843882576908058
 20
833.2084282647285
 30
0.0
 10
10.11275949613705
 20
833.3647205589224
 30
0.0
 10
10.24714706021974
 20
833.4428371215557
 30
0.0
  0
SPLINE
  5
1E3
330
23
100
AcDbEntity
  8
0
  6
Continuous
 62
     7
370
    25
100
AcDbSpline
210
0.0
220
0.0
230
1.0
 70
     8
 71
     3
 72
     9
 73
     5
 74
     0
 42
0.000000001
 43
0.00000001
 40
0.0
 40
0.0
 40
0.0
 40
0.0
 40
0.5003764751173729
 40
0.9999999999999999
 40
0.9999999999999999
 40
0.9999999999999999
 40
0.9999999999999999
 10
9.438806878499332
 20
834.473748270344
 30
0.0
 10
9.574215421299995
 20
834.5520597524641
 30
0.0
 10
9.84482874853306
 20
834.7085648761347
 30
0.0
 10
10.11310829003876
 20
834.8647855818878
 30
0.0
 10
10.24714706021974
 20
834.9428371215557
 30
0.0
  0
SPLINE
  5
1E4
330
23
100
AcDbEntity
  8
0
  6
Continuous
 62
     7
370
    25
100
AcDbSpline
210
0.0
220
0.0
230
1.0
 70
     8
 71
     3
 72
     9
 73
     5
 74
     0
 42
0.000000001
 43
0.00000001
 40
0.0
 40
0.0
 40
0.0
 40
0.0
 40
0.5005589891197093
 40
0.9999999999999999
 40
0.9999999999999999
 40
0.9999999999999999
 40
0.9999999999999999
 10
9.438806878499332
 20
835.973748270344
 30
0.0
 10
9.574563138140233
 20
836.0521251890475
 30
0.0
 10
9.845772451311582
 20
836.2087039747792
 30
0.0
 10
10.11345527844228
 20
836.3648509289291
 30
0.0
 10
10.24714706021974
 20
836.4428371215557
 30
0.0
  0
SPLINE
  5
1E5
330
23
100
AcDbEntity
  8
0
  6
Continuous
 62
     7
370
    25
100
AcDbSpline
210
0.0
220
0.0
230
1.0
 70
     8
 71
     3
 72
     9
 73
     5
 74
     0
 42
0.000000001
 43
0.00000001
 40
0.0
 40
0.0
 40
0.0
 40
0.0
 40
0.5007366232705854
 40
1.0
 40
1.0
 40
1.0
 40
1.0
 10
9.438806878499332
 20
837.473748270344
 30
0.0
 10
9.574909358427606
 20
837.5521910020334
 30
0.0
 10
9.846713883208155
 20
837.7088456744581
 30
0.0
 10
10.11380049602539
 20
837.8649166161816
 30
0.0
 10
10.24714706021974
 20
837.9428371215557
 30
0.0
  0
SPLINE
  5
1E6
330
23
100
AcDbEntity
  8
0
  6
Continuous
 62
     7
370
    25
100
AcDbSpline
210
0.0
220
0.0
230
1.0
 70
     8
 71
     3
 72
     9
 73
     5
 74
     0
 42
0.000000001
 43
0.00000001
 40
0.0
 40
0.0
 40
0.0
 40
0.0
 40
0.5009091824961585
 40
1.0
 40
1.0
 40
1.0
 40
1.0
 10
9.438806878499332
 20
838.973748270344
 30
0.0
 10
9.575254102635974
 20
839.0522572067042
 30
0.0
 10
9.847653229872357
 20
839.2089900818511
 30
0.0
 10
10.1141439759184
 20
839.3649826588008
 30
0.0
 10
10.24714706021974
 20
839.4428371215556
 30
0.0
  0
SPLINE
  5
1E7
330
23
100
AcDbEntity
  8
0
  6
Continuous
 62
     7
370
    25
100
AcDbSpline
210
0.0
220
0.0
230
1.0
 70
     8
 71
     3
 72
     9
 73
     5
 74
     0
 42
0.000000001
 43
0.00000001
 40
0.0
 40
0.0
 40
0.0
 40
0.0
 40
0.4999976520335655
 40
0.9999999999999999
 40
0.9999999999999999
 40
0.9999999999999999
 40
0.9999999999999999
 10
9.438806878499332
 20
831.473748270344
 30
0.0
 10
9.573515406241238
 20
831.5519299421642
 30
0.0
 10
9.842933726895403
 20
831.70829402008
 30
0.0
 10
10.11240886063258
 20
831.8646558429756
 30
0.0
 10
10.24714706021974
 20
831.9428371215557
 30
0.0
  0
SPLINE
  5
1E8
330
23
100
AcDbEntity
  8
0
  6
Continuous
 62
     7
370
    25
100
AcDbSpline
210
0.0
220
0.0
230
1.0
 70
     8
 71
     3
 72
     9
 73
     5
 74
     0
 42
0.000000001
 43
0.00000001
 40
0.0
 40
0.0
 40
0.0
 40
0.0
 40
0.5050098008863445
 40
0.9999999999999999
 40
0.9999999999999999
 40
0.9999999999999999
 40
0.9999999999999999
 10
-10.30450430627264
 20
831.21011299748
 30
0.0
 10
-10.16907524664507
 20
831.1318635812961
 30
0.0
 10
-9.900904095531036
 20
830.9769172494695
 30
0.0
 10
-9.632739062898219
 20
830.8219593670352
 30
0.0
 10
-9.499999999999982
 20
830.745256733955
 30
0.0
  0
SPLINE
  5
1E9
330
23
100
AcDbEntity
  8
0
  6
Continuous
 62
     7
370
    25
100
AcDbSpline
210
0.0
220
0.0
230
1.0
 70
     8
 71
     3
 72
     9
 73
     5
 74
     0
 42
0.000000001
 43
0.00000001
 40
0.0
 40
0.0
 40
0.0
 40
0.0
 40
0.4996597889727337
 40
0.9999999999999999
 40
0.9999999999999999
 40
0.9999999999999999
 40
0.9999999999999999
 10
-9.491958381492164
 20
833.3843900031959
 30
0.0
 10
-9.62729012835517
 20
833.306189814184
 30
0.0
 10
-9.898137912887204
 20
833.1496829454354
 30
0.0
 10
-10.16898685570137
 20
832.9931881351341
 30
0.0
 10
-10.30450347290552
 20
832.9148874887234
 30
0.0
  0
SPLINE
  5
1EA
330
23
100
AcDbEntity
  8
0
  6
Continuous
 62
     7
370
    25
100
AcDbSpline
210
0.0
220
0.0
230
1.0
 70
     8
 71
     3
 72
     9
 73
     5
 74
     0
 42
0.000000001
 43
0.00000001
 40
0.0
 40
0.0
 40
0.0
 40
0.0
 40
0.4993279115183742
 40
1.0
 40
1.0
 40
1.0
 40
1.0
 10
-9.491958381492166
 20
834.884390003196
 30
0.0
 10
-9.627200778133425
 20
834.80624080953
 30
0.0
 10
-9.898049640216879
 20
834.6497320467244
 30
0.0
 10
-10.16889750618864
 20
834.4932391261165
 30
0.0
 10
-10.30450347290552
 20
834.4148874887234
 30
0.0
  0
SPLINE
  5
1EB
330
23
100
AcDbEntity
  8
0
  6
Continuous
 62
     7
370
    25
100
AcDbSpline
210
0.0
220
0.0
230
1.0
 70
     8
 71
     3
 72
     9
 73
     5
 74
     0
 42
0.000000001
 43
0.00000001
 40
0.0
 40
0.0
 40
0.0
 40
0.0
 40
0.4989927118456289
 40
1.0
 40
1.0
 40
1.0
 40
1.0
 10
-9.491958381492164
 20
836.3843900031959
 30
0.0
 10
-9.627109644565307
 20
836.3062915748512
 30
0.0
 10
-9.89795781501905
 20
836.1497794124674
 30
0.0
 10
-10.1688063719147
 20
835.9932898833375
 30
0.0
 10
-10.30450347290552
 20
835.9148874887234
 30
0.0
  0
SPLINE
  5
1EC
330
23
100
AcDbEntity
  8
0
  6
Continuous
 62
     7
370
    25
100
AcDbSpline
210
0.0
220
0.0
230
1.0
 70
     8
 71
     3
 72
     9
 73
     5
 74
     0
 42
0.000000001
 43
0.00000001
 40
0.0
 40
0.0
 40
0.0
 40
0.0
 40
0.4986545989436087
 40
1.0
 40
1.0
 40
1.0
 40
1.0
 10
-9.491958381492164
 20
837.8843900031959
 30
0.0
 10
-9.62701667304491
 20
837.8063421429567
 30
0.0
 10
-9.897862047456103
 20
837.6498252665361
 30
0.0
 10
-10.16871339529604
 20
837.4933404378969
 30
0.0
 10
-10.30450347290552
 20
837.4148874887234
 30
0.0
  0
SPLINE
  5
1ED
330
23
100
AcDbEntity
  8
0
  6
Continuous
 62
     7
370
    25
100
AcDbSpline
210
0.0
220
0.0
230
1.0
 70
     8
 71
     3
 72
     9
 73
     5
 74
     0
 42
0.000000001
 43
0.00000001
 40
0.0
 40
0.0
 40
0.0
 40
0.0
 40
0.498313986888332
 40
0.9999999999999999
 40
0.9999999999999999
 40
0.9999999999999999
 40
0.9999999999999999
 10
-9.491958381492166
 20
839.384390003196
 30
0.0
 10
-9.626921808601697
 20
839.3063925468861
 30
0.0
 10
-9.897761942855807
 20
839.1498698355795
 30
0.0
 10
-10.1686185177312
 20
838.9933908214549
 30
0.0
 10
-10.30450347290552
 20
838.9148874887234
 30
0.0
  0
SPLINE
  5
1EE
330
23
100
AcDbEntity
  8
0
  6
Continuous
 62
     7
370
    25
100
AcDbSpline
210
0.0
220
0.0
230
1.0
 70
     8
 71
     3
 72
     9
 73
     5
 74
     0
 42
0.000000001
 43
0.00000001
 40
0.0
 40
0.0
 40
0.0
 40
0.0
 40
0.5001980430162515
 40
1.0
 40
1.0
 40
1.0
 40
1.0
 10
10.24670434089136
 20
832.1822530512411
 30
0.0
 10
10.11161763603894
 20
832.2604986978446
 30
0.0
 10
9.8415511958789
 20
832.4169280315775
 30
0.0
 10
9.572745784697585
 20
832.5732242422769
 30
0.0
 10
9.438396314141341
 20
832.6513413942534
 30
0.0
  0
SPLINE
  5
1EF
330
23
100
AcDbEntity
  8
0
  6
Continuous
 62
     7
370
    25
100
AcDbSpline
210
0.0
220
0.0
230
1.0
 70
     8
 71
     3
 72
     9
 73
     5
 74
     0
 42
0.000000001
 43
0.00000001
 40
0.0
 40
0.0
 40
0.0
 40
0.0
 40
0.5003977240021593
 40
1.0
 40
1.0
 40
1.0
 40
1.0
 10
10.24670434089136
 20
833.6822530512411
 30
0.0
 10
10.11126188735088
 20
833.7605628794795
 30
0.0
 10
9.840592283865837
 20
833.9170580521838
 30
0.0
 10
9.57239052386459
 20
834.0732883712622
 30
0.0
 10
9.43839631414134
 20
834.1513413942534
 30
0.0
  0
SPLINE
  5
1F0
330
23
100
AcDbEntity
  8
0
  6
Continuous
 62
     7
370
    25
100
AcDbSpline
210
0.0
220
0.0
230
1.0
 70
     8
 71
     3
 72
     9
 73
     5
 74
     0
 42
0.000000001
 43
0.00000001
 40
0.0
 40
0.0
 40
0.0
 40
0.0
 40
0.500601132103843
 40
1.0
 40
1.0
 40
1.0
 40
1.0
 10
10.24670434089136
 20
835.1822530512411
 30
0.0
 10
10.11090418076483
 20
835.2606268101038
 30
0.0
 10
9.83963000374528
 20
835.4171861021963
 30
0.0
 10
9.572033636831303
 20
835.5733522145434
 30
0.0
 10
9.43839631414134
 20
835.6513413942533
 30
0.0
  0
SPLINE
  5
1F1
330
23
100
AcDbEntity
  8
0
  6
Continuous
 62
     7
370
    25
100
AcDbSpline
210
0.0
220
0.0
230
1.0
 70
     8
 71
     3
 72
     9
 73
     5
 74
     0
 42
0.000000001
 43
0.00000001
 40
0.0
 40
0.0
 40
0.0
 40
0.0
 40
0.500808007640517
 40
1.0
 40
1.0
 40
1.0
 40
1.0
 10
10.24670434089136
 20
836.6822530512411
 30
0.0
 10
10.11054447585539
 20
836.7606905097983
 30
0.0
 10
9.838664108611514
 20
836.917312323668
 30
0.0
 10
9.571675092854953
 20
837.0734157925887
 30
0.0
 10
9.43839631414134
 20
837.1513413942534
 30
0.0
  0
SPLINE
  5
1F2
330
23
100
AcDbEntity
  8
0
  6
Continuous
 62
     7
370
    25
100
AcDbSpline
210
0.0
220
0.0
230
1.0
 70
     8
 71
     3
 72
     9
 73
     5
 74
     0
 42
0.000000001
 43
0.00000001
 40
0.0
 40
0.0
 40
0.0
 40
0.0
 40
0.501018083657476
 40
1.0
 40
1.0
 40
1.0
 40
1.0
 10
10.24670434089136
 20
838.1822530512411
 30
0.0
 10
10.11018273149691
 20
838.2607539992142
 30
0.0
 10
9.837694344655
 20
838.4174368626353
 30
0.0
 10
9.571314859912489
 20
838.573479126433
 30
0.0
 10
9.43839631414134
 20
838.6513413942533
 30
0.0
  0
SPLINE
  5
1F3
330
23
100
AcDbEntity
  8
0
  6
Continuous
 62
     7
370
    25
100
AcDbSpline
210
0.0
220
0.0
230
1.0
 70
     8
 71
     3
 72
     9
 73
     5
 74
     0
 42
0.000000001
 43
0.00000001
 40
0.0
 40
0.0
 40
0.0
 40
0.0
 40
0.6482402580633507
 40
0.9999999999999999
 40
0.9999999999999999
 40
0.9999999999999999
 40
0.9999999999999999
 10
10.24670434089136
 20
839.6822530512411
 30
0.0
 10
10.10963884536094
 20
839.760835971412
 30
0.0
 10
9.898196415142376
 20
839.882060963525
 30
0.0
 10
9.692422374286506
 20
840.0026981553202
 30
0.0
 10
9.620039350777786
 20
840.045133462774
 30
0.0
  0
SPLINE
  5
1F4
330
23
100
AcDbEntity
  8
0
  6
Continuous
 62
     7
370
    25
100
AcDbSpline
210
0.0
220
0.0
230
1.0
 70
     8
 71
     3
 72
     9
 73
     5
 74
     0
 42
0.000000001
 43
0.00000001
 40
0.0
 40
0.0
 40
0.0
 40
0.0
 40
0.500002340453893
 40
1.0
 40
1.0
 40
1.0
 40
1.0
 10
10.24670434089136
 20
830.6822530512411
 30
0.0
 10
10.11197146639652
 20
830.7604342457679
 30
0.0
 10
9.842506978745252
 20
830.9167959029068
 30
0.0
 10
9.573099448652044
 20
831.0731598077797
 30
0.0
 10
9.438396314141341
 20
831.1513413942534
 30
0.0
  0
SPLINE
  5
1F5
330
23
100
AcDbEntity
  8
0
  6
Continuous
 62
     7
370
    25
100
AcDbSpline
210
0.0
220
0.0
230
1.0
 70
     8
 71
     3
 72
     9
 73
     5
 74
     0
 42
0.000000001
 43
0.00000001
 40
0.0
 40
0.0
 40
0.0
 40
0.0
 40
0.4999879419577511
 40
0.9999999999999999
 40
0.9999999999999999
 40
0.9999999999999999
 40
0.9999999999999999
 10
-9.491958381492164
 20
831.8843900031959
 30
0.0
 10
-9.627377749243102
 20
831.8061385563778
 30
0.0
 10
-9.898223016472325
 20
831.6496318884133
 30
0.0
 10
-10.16907447680222
 20
831.493136879969
 30
0.0
 10
-10.30450347290552
 20
831.4148874887234
 30
0.0
  0
SPLINE
  5
225
330
23
100
AcDbEntity
  8
0
  6
Continuous
 62
     7
370
    25
100
AcDbSpline
210
0.0
220
0.0
230
1.0
 70
     8
 71
     3
 72
    17
 73
    13
 74
     0
 42
0.000000001
 43
0.00000001
 40
0.0
 40
0.0
 40
0.0
 40
0.0
 40
0.0425620861856846
 40
0.1515023467187974
 40
0.259281119159493
 40
0.3670633477583872
 40
0.4760020946119987
 40
0.5828133167809677
 40
0.6919880362152316
 40
0.7991219944240221
 40
0.9075968059475994
 40
1.0
 40
1.0
 40
1.0
 40
1.0
 10
-10.18290318017296
 20
831.2186321195296
 30
0.0
 10
-10.21495589418875
 20
831.2285746657241
 30
0.0
 10
-10.32904948844804
 20
831.2639657664854
 30
0.0
 10
-9.374463009272379
 20
831.3292571215846
 30
0.0
 10
-7.432462272391268
 20
831.406277320657
 30
0.0
 10
-4.636169186525525
 20
831.4833247442225
 30
0.0
 10
-1.371080018879083
 20
831.5647429732004
 30
0.0
 10
2.052899284559395
 20
831.6383033326155
 30
0.0
 10
5.25119961394447
 20
831.72076438976
 30
0.0
 10
7.875145500826318
 20
831.7954280215359
 30
0.0
 10
9.676134276998981
 20
831.8713371588145
 30
0.0
 10
10.01973877264907
 20
831.9200012803536
 30
0.0
 10
10.17779566293826
 20
831.9423866094642
 30
0.0
  0
SPLINE
  5
227
330
23
100
AcDbEntity
  8
0
  6
Continuous
 62
     7
370
    25
100
AcDbSpline
210
0.0
220
0.0
230
1.0
 70
     8
 71
     3
 72
    18
 73
    14
 74
     0
 42
0.000000001
 43
0.00000001
 40
0.0
 40
0.0
 40
0.0
 40
0.0
 40
0.0323850278194677
 40
0.1357034773616141
 40
0.239015971331892
 40
0.341060119749079
 40
0.4450430422101345
 40
0.5467744807568923
 40
0.6505364975311657
 40
0.7531875253161733
 40
0.8558484215721611
 40
0.959606113216811
 40
1.0
 40
1.0
 40
1.0
 40
1.0
 10
-10.18730247815398
 20
832.709378317004
 30
0.0
 10
-10.23377921099521
 20
832.7174055119754
 30
0.0
 10
-10.42853137542505
 20
832.7510419898299
 30
0.0
 10
-9.649619003808406
 20
832.8125660656129
 30
0.0
 10
-7.902457069396943
 20
832.8921393052959
 30
0.0
 10
-5.237573850683807
 20
832.9668915526694
 30
0.0
 10
-2.04932162813835
 20
833.0493283622618
 30
0.0
 10
1.37757573550835
 20
833.1228886339861
 30
0.0
 10
4.641275988624178
 20
833.2043185565846
 30
0.0
 10
7.436709978545705
 20
833.2813420698773
 30
0.0
 10
9.37695294281432
 20
833.358386453237
 30
0.0
 10
10.3299112054186
 20
833.4236290433499
 30
0.0
 10
10.21520179376419
 20
833.458986502429
 30
0.0
 10
10.18305813610973
 20
833.4688943037485
 30
0.0
  0
SPLINE
  5
228
330
23
100
AcDbEntity
  8
0
  6
Continuous
 62
     7
370
    25
100
AcDbSpline
210
0.0
220
0.0
230
1.0
 70
     8
 71
     3
 72
    18
 73
    14
 74
     0
 42
0.000000001
 43
0.00000001
 40
0.0
 40
0.0
 40
0.0
 40
0.0
 40
0.0126463415964694
 40
0.1190519320027412
 40
0.2265918527885005
 40
0.3320348220001485
 40
0.4398106807911019
 40
0.5455681139865877
 40
0.652655990702187
 40
0.7597327565402889
 40
0.8654994856130074
 40
0.9732730918271505
 40
1.0
 40
1.0
 40
1.0
 40
1.0
 10
-10.24739407821633
 20
834.2096607858476
 30
0.0
 10
-10.27096103288558
 20
834.2127337397765
 30
0.0
 10
-10.49281898788329
 20
834.2416623512158
 30
0.0
 10
-9.869686695058498
 20
834.2958280248206
 30
0.0
 10
-8.343554254728437
 20
834.3773670857737
 30
0.0
 10
-5.818207263953962
 20
834.4509024945485
 30
0.0
 10
-2.717428464565762
 20
834.533353433635
 30
0.0
 10
0.6947505210379845
 20
834.6080877215319
 30
0.0
 10
4.019979634592764
 20
834.6876541815043
 30
0.0
 10
6.940316557733725
 20
834.7672255543865
 30
0.0
 10
9.043840178715516
 20
834.841851855356
 30
0.0
 10
10.13999826625388
 20
834.9043442910606
 30
0.0
 10
10.14490658004119
 20
834.9361958862586
 30
0.0
 10
10.14588192242166
 20
834.9425251903797
 30
0.0
  0
SPLINE
  5
229
330
23
100
AcDbEntity
  8
0
  6
Continuous
 62
     7
370
    25
100
AcDbSpline
210
0.0
220
0.0
230
1.0
 70
     8
 71
     3
 72
    17
 73
    13
 74
     0
 42
0.000000001
 43
0.00000001
 40
0.0
 40
0.0
 40
0.0
 40
0.0
 40
0.0862640660651443
 40
0.1953906620991719
 40
0.3021541269788412
 40
0.4110519166411469
 40
0.5187763329293926
 40
0.6265214405086714
 40
0.7354101519515485
 40
0.8421778212351385
 40
0.9513074518816103
 40
1.0
 40
1.0
 40
1.0
 40
1.0
 10
-10.2272373167151
 20
835.7190320017985
 30
0.0
 10
-10.19321564651317
 20
835.7392050177817
 30
0.0
 10
-10.1161555568409
 20
835.7848974958819
 30
0.0
 10
-8.705769782459154
 20
835.8619061495173
 30
0.0
 10
-6.386933790757564
 20
835.9354929742465
 30
0.0
 10
-3.368265762881558
 20
836.0169248699003
 30
0.0
 10
0.0092085569473048
 20
836.0939306842741
 30
0.0
 10
3.383602761972576
 20
836.1709991695402
 30
0.0
 10
6.405935666349529
 20
836.2524222405044
 30
0.0
 10
8.697775965757321
 20
836.3259141743199
 30
0.0
 10
9.998739318231424
 20
836.3937034449572
 30
0.0
 10
10.08673339516193
 20
836.4307398575535
 30
0.0
 10
10.11388202445221
 20
836.4421666247963
 30
0.0
  0
SPLINE
  5
22A
330
23
100
AcDbEntity
  8
0
  6
Continuous
 62
     7
370
    25
100
AcDbSpline
210
0.0
220
0.0
230
1.0
 70
     8
 71
     3
 72
    17
 73
    13
 74
     0
 42
0.000000001
 43
0.00000001
 40
0.0
 40
0.0
 40
0.0
 40
0.0
 40
0.0645688412943558
 40
0.1737108008314086
 40
0.2808049124383872
 40
0.3892531651006163
 40
0.497682665043037
 40
0.6047924660480631
 40
0.7139306237304464
 40
0.8207052299550769
 40
0.9296165751523545
 40
1.0
 40
1.0
 40
1.0
 40
1.0
 10
-10.18325113070844
 20
837.2188964808055
 30
0.0
 10
-10.1955136379657
 20
837.2339160248939
 30
0.0
 10
-10.22850369808074
 20
837.2743233944454
 30
0.0
 10
-9.059161889865356
 20
837.3459451194374
 30
0.0
 10
-6.920366137905145
 20
837.4206833537972
 30
0.0
 10
-4.00563863340072
 20
837.5002691190087
 30
0.0
 10
-0.6756650907104728
 20
837.5797904854265
 30
0.0
 10
2.731201667795597
 20
837.65456519083
 30
0.0
 10
5.845277299474005
 20
837.7370101888113
 30
0.0
 10
8.309434906091123
 20
837.8105059925323
 30
0.0
 10
9.845618928107985
 20
837.88274144613
 30
0.0
 10
10.04582340264351
 20
837.9253896321843
 30
0.0
 10
10.12441507926688
 20
837.9421314780135
 30
0.0
  0
SPLINE
  5
22B
330
23
100
AcDbEntity
  8
0
  6
Continuous
 62
     7
370
    25
100
AcDbSpline
210
0.0
220
0.0
230
1.0
 70
     8
 71
     3
 72
    17
 73
    13
 74
     0
 42
0.000000001
 43
0.00000001
 40
0.0
 40
0.0
 40
0.0
 40
0.0
 40
0.0429282200586701
 40
0.1518590861679263
 40
0.2596088479723749
 40
0.3673896223121875
 40
0.4763068672430513
 40
0.58310584920239
 40
0.6922671102939484
 40
0.7993776149836929
 40
0.9078470441123042
 40
1.0
 40
1.0
 40
1.0
 40
1.0
 10
-10.1825322313083
 20
838.7186365477406
 30
0.0
 10
-10.21446956391244
 20
838.7286645478675
 30
0.0
 10
-10.3274482557212
 20
838.764138716918
 30
0.0
 10
-9.369495059876348
 20
838.829544060875
 30
0.0
 10
-7.424034109187759
 20
838.9065160999255
 30
0.0
 10
-4.625630013279625
 20
838.9836119796402
 30
0.0
 10
-1.35930116051102
 20
839.0650038037362
 30
0.0
 10
2.06452658449303
 20
839.1385751924308
 30
0.0
 10
5.261460090550842
 20
839.2210445258156
 30
0.0
 10
7.882879085221258
 20
839.2956790520717
 30
0.0
 10
9.679761822826977
 20
839.3715655399343
 30
0.0
 10
10.02081988755113
 20
839.4201598619744
 30
0.0
 10
10.17747991724379
 20
839.4424809524895
 30
0.0
  0
SPLINE
  5
22F
330
23
100
AcDbEntity
  8
0
  6
Continuous
 62
     7
370
    25
100
AcDbSpline
210
0.0
220
0.0
230
1.0
 70
     8
 71
     3
 72
    18
 73
    14
 74
     0
 42
0.000000001
 43
0.00000001
 40
0.0
 40
0.0
 40
0.0
 40
0.0
 40
0.0293761384391447
 40
0.1357014387823776
 40
0.2408931331241951
 40
0.3460881974052107
 40
0.4524120218307249
 40
0.556659388582672
 40
0.6632135202841252
 40
0.7677758780195107
 40
0.8736469007149209
 40
0.9795142652811615
 40
1.0
 40
1.0
 40
1.0
 40
1.0
 10
-10.19553340119957
 20
831.4149303136041
 30
0.0
 10
-10.21542580501613
 20
831.4219727758766
 30
0.0
 10
-10.30731765881916
 20
831.4545050389214
 30
0.0
 10
-9.365232936102217
 20
831.5167949748047
 30
0.0
 10
-7.434968687513734
 20
831.5937671074942
 30
0.0
 10
-4.635325907367623
 20
831.6708277769551
 30
0.0
 10
-1.371922921033402
 20
831.7522409757603
 30
0.0
 10
2.055397864502541
 20
831.8258080552218
 30
0.0
 10
5.241874835789581
 20
831.9082469542735
 30
0.0
 10
7.909329044166455
 20
831.9829916466815
 30
0.0
 10
9.640664066238823
 20
832.0625559973346
 30
0.0
 10
10.41656710994856
 20
832.1209513837025
 30
0.0
 10
10.25325816248719
 20
832.1515471956457
 30
0.0
 10
10.22678074488655
 20
832.1565077204807
 30
0.0
  0
SPLINE
  5
230
330
23
100
AcDbEntity
  8
0
  6
Continuous
 62
     7
370
    25
100
AcDbSpline
210
0.0
220
0.0
230
1.0
 70
     8
 71
     3
 72
    18
 73
    14
 74
     0
 42
0.000000001
 43
0.00000001
 40
0.0
 40
0.0
 40
0.0
 40
0.0
 40
0.0085854728595326
 40
0.1144487114241751
 40
0.2203058536254694
 40
0.3248634045631021
 40
0.431407485939947
 40
0.5356446282777828
 40
0.6419623602373095
 40
0.7471417457724865
 40
0.8523312330832193
 40
0.9586445376663861
 40
1.0
 40
1.0
 40
1.0
 40
1.0
 10
-10.26376627245506
 20
832.9147837579037
 30
0.0
 10
-10.27367076406095
 20
832.9168649712276
 30
0.0
 10
-10.40570266494186
 20
832.944608601312
 30
0.0
 10
-9.625340432915962
 20
833.0001153153258
 30
0.0
 10
-7.908872539952053
 20
833.0796261958387
 30
0.0
 10
-5.23583034074223
 20
833.1543950119784
 30
0.0
 10
-2.049785728259484
 20
833.2368273364814
 30
0.0
 10
1.377697052824681
 20
833.3103888003412
 30
0.0
 10
4.641237249503475
 20
833.3918183807285
 30
0.0
 10
7.436721991476975
 20
833.4688420267012
 30
0.0
 10
9.376925489098978
 20
833.5458862466985
 30
0.0
 10
10.32984935814516
 20
833.6111206038867
 30
0.0
 10
10.21520122236857
 20
833.646470219963
 30
0.0
 10
10.1830933720782
 20
833.6563700772359
 30
0.0
  0
SPLINE
  5
231
330
23
100
AcDbEntity
  8
0
  6
Continuous
 62
     7
370
    25
100
AcDbSpline
210
0.0
220
0.0
230
1.0
 70
     8
 71
     3
 72
    17
 73
    13
 74
     0
 42
0.000000001
 43
0.00000001
 40
0.0
 40
0.0
 40
0.0
 40
0.0
 40
0.0929658680138848
 40
0.1992875278675617
 40
0.3035359869884217
 40
0.4100909080605694
 40
0.514650274489707
 40
0.620525003044389
 40
0.7263887572075614
 40
0.8309573053226595
 40
0.9375100014904941
 40
1.0
 40
1.0
 40
1.0
 40
1.0
 10
-10.24835027971494
 20
834.4153920771404
 30
0.0
 10
-10.14966825445351
 20
834.438022740191
 30
0.0
 10
-9.938127209557557
 20
834.4865352640846
 30
0.0
 10
-8.308255153980678
 20
834.564853660378
 30
0.0
 10
-5.827860444315939
 20
834.6384058200902
 30
0.0
 10
-2.714764550863387
 20
834.7208529673984
 30
0.0
 10
0.6935996966709228
 20
834.7955854884444
 30
0.0
 10
4.021894720885336
 20
834.875162886215
 30
0.0
 10
6.933819941098379
 20
834.9546922909208
 30
0.0
 10
9.067757365944624
 20
835.029474675781
 30
0.0
 10
10.23123312032187
 20
835.1009454038619
 30
0.0
 10
10.1957858901802
 20
835.1412213016453
 30
0.0
 10
10.18268211564
 20
835.1561100893405
 30
0.0
  0
SPLINE
  5
232
330
23
100
AcDbEntity
  8
0
  6
Continuous
 62
     7
370
    25
100
AcDbSpline
210
0.0
220
0.0
230
1.0
 70
     8
 71
     3
 72
    17
 73
    13
 74
     0
 42
0.000000001
 43
0.00000001
 40
0.0
 40
0.0
 40
0.0
 40
0.0
 40
0.0715690846429844
 40
0.1781344861091369
 40
0.2823922194062642
 40
0.3887341790186011
 40
0.4939303180979845
 40
0.5991466433595733
 40
0.705479746386939
 40
0.8097415814396134
 40
0.9163099434356791
 40
1.0
 40
1.0
 40
1.0
 40
1.0
 10
-10.18740673200847
 20
835.9157548002048
 30
0.0
 10
-10.15460107900974
 20
835.932912796992
 30
0.0
 10
-10.07294825129013
 20
835.97561881951
 30
0.0
 10
-8.700500219229296
 20
836.0494318951171
 30
0.0
 10
-6.388394823947152
 20
836.1229856381582
 30
0.0
 10
-3.367799354567191
 20
836.2044269992858
 30
0.0
 10
0.0087567652501896
 20
836.2814283241655
 30
0.0
 10
3.384902772383418
 20
836.3585054198185
 30
0.0
 10
6.401125431429614
 20
836.4398983206298
 30
0.0
 10
8.715441319326413
 20
836.5135012523625
 30
0.0
 10
10.11924408402176
 20
836.5903815093066
 30
0.0
 10
10.19308202716381
 20
836.6359310171234
 30
0.0
 10
10.22556154467956
 20
836.6559671391228
 30
0.0
  0
SPLINE
  5
233
330
23
100
AcDbEntity
  8
0
  6
Continuous
 62
     7
370
    25
100
AcDbSpline
210
0.0
220
0.0
230
1.0
 70
     8
 71
     3
 72
    18
 73
    14
 74
     0
 42
0.000000001
 43
0.00000001
 40
0.0
 40
0.0
 40
0.0
 40
0.0
 40
0.0486451321955781
 40
0.1514518974894524
 40
0.2523296916167924
 40
0.3544830097461982
 40
0.4566186807374209
 40
0.557511239280582
 40
0.6603144268641513
 40
0.7608912568732583
 40
0.8634807902027849
 40
0.9649603067883586
 40
0.9999999999999999
 40
0.9999999999999999
 40
0.9999999999999999
 40
0.9999999999999999
 10
-10.16969576175529
 20
837.4155244103239
 30
0.0
 10
-10.17589921164268
 20
837.4275557644712
 30
0.0
 10
-10.19521305074683
 20
837.4650142178197
 30
0.0
 10
-9.052221562054726
 20
837.5334806064419
 30
0.0
 10
-6.922296455523013
 20
837.6081734672211
 30
0.0
 10
-4.004940368243041
 20
837.6877715728015
 30
0.0
 10
-0.6765688039221318
 20
837.7672891241957
 30
0.0
 10
2.734047256748194
 20
837.8420667752392
 30
0.0
 10
5.83460632513551
 20
837.9245036244142
 30
0.0
 10
8.348532537937437
 20
837.9980287412634
 30
0.0
 10
9.897575170323927
 20
838.0795849519607
 30
0.0
 10
10.50092729902516
 20
838.1395115951683
 30
0.0
 10
10.19988294997068
 20
838.1743337661127
 30
0.0
 10
10.12261542366698
 20
838.1832713961257
 30
0.0
  0
SPLINE
  5
234
330
23
100
AcDbEntity
  8
0
  6
Continuous
 62
     7
370
    25
100
AcDbSpline
210
0.0
220
0.0
230
1.0
 70
     8
 71
     3
 72
    18
 73
    14
 74
     0
 42
0.000000001
 43
0.00000001
 40
0.0
 40
0.0
 40
0.0
 40
0.0
 40
0.0295320747889295
 40
0.1358857431085587
 40
0.2410862715821572
 40
0.3463170496987954
 40
0.4526574319577708
 40
0.5569296573359533
 40
0.663508273855562
 40
0.7680846639686485
 40
0.8739878076138711
 40
0.9798677782235559
 40
1.0
 40
1.0
 40
1.0
 40
1.0
 10
-10.19494060213423
 20
838.915088477948
 30
0.0
 10
-10.21461837234135
 20
838.9221660081207
 30
0.0
 10
-10.30516156805057
 20
838.9547318015426
 30
0.0
 10
-9.36014724704468
 20
839.0170824052027
 30
0.0
 10
-7.426582104430732
 20
839.094005449773
 30
0.0
 10
-4.624787056142795
 20
839.1711147867844
 30
0.0
 10
-1.360161162187097
 20
839.2525015544284
 30
0.0
 10
2.067027182326927
 20
839.3260796020163
 30
0.0
 10
5.252077847295773
 20
839.4085270252734
 30
0.0
 10
7.917227987184615
 20
839.4832416739421
 30
0.0
 10
9.644801717220183
 20
839.5628448115745
 30
0.0
 10
10.41796974323658
 20
839.6211179494761
 30
0.0
 10
10.25408992759917
 20
839.6516320311994
 30
0.0
 10
10.22790781989498
 20
839.6565070853426
 30
0.0
  0
SPLINE
  5
235
330
23
100
AcDbEntity
  8
0
  6
Continuous
 62
     7
370
    25
100
AcDbSpline
210
0.0
220
0.0
230
1.0
 70
     8
 71
     3
 72
    18
 73
    14
 74
     0
 42
0.000000001
 43
0.00000001
 40
0.0
 40
0.0
 40
0.0
 40
0.0
 40
0.021220255482583
 40
0.1297611519496307
 40
0.2382957885540905
 40
0.3454977117906137
 40
0.4547368071814785
 40
0.5616101497556719
 40
0.6706171272839582
 40
0.7784567260748203
 40
0.8863066974946483
 40
0.9953091288916442
 40
1.0
 40
1.0
 40
1.0
 40
1.0
 10
-9.420971649738394
 20
832.249717424734
 30
0.0
 10
-9.445544842321455
 20
832.254728877829
 30
0.0
 10
-9.595809092404371
 20
832.285373745753
 30
0.0
 10
-8.879728838023224
 20
832.3438384563879
 30
0.0
 10
-7.282955003356135
 20
832.4233832364433
 30
0.0
 10
-4.824415718161934
 20
832.4981436159366
 30
0.0
 10
-1.888338438377609
 20
832.5805769649228
 30
0.0
 10
1.269791445400683
 20
832.6541417474263
 30
0.0
 10
4.273491573350522
 20
832.7355580371261
 30
0.0
 10
6.859815081158525
 20
832.8126304173892
 30
0.0
 10
8.606327228410953
 20
832.8894929461414
 30
0.0
 10
9.461478510760607
 20
832.9457044913853
 30
0.0
 10
9.418886342711842
 20
832.9724127334624
 30
0.0
 10
9.417129032772387
 20
832.9735146886204
 30
0.0
  0
SPLINE
  5
236
330
23
100
AcDbEntity
  8
0
  6
Continuous
 62
     7
370
    25
100
AcDbSpline
210
0.0
220
0.0
230
1.0
 70
     8
 71
     3
 72
    18
 73
    14
 74
     0
 42
0.000000001
 43
0.00000001
 40
0.0
 40
0.0
 40
0.0
 40
0.0
 40
0.0212194278288135
 40
0.1297560908745351
 40
0.2382864943018222
 40
0.3454842363410014
 40
0.4547190710786828
 40
0.5615882452711659
 40
0.6705909711995631
 40
0.7784263639218173
 40
0.8862721288684735
 40
0.9952703088428934
 40
1.0
 40
1.0
 40
1.0
 40
1.0
 10
-9.420971649738394
 20
833.749717424734
 30
0.0
 10
-9.445544842295842
 20
833.7547288778293
 30
0.0
 10
-9.595809092222128
 20
833.7853737457538
 30
0.0
 10
-8.879728842829964
 20
833.8438384563664
 30
0.0
 10
-7.282954986230723
 20
833.9233832365196
 30
0.0
 10
-4.824415781518193
 20
833.9981436156551
 30
0.0
 10
-1.888338199088005
 20
834.0805769659856
 30
0.0
 10
1.269790567053868
 20
834.1541417435244
 30
0.0
 10
4.273494911450692
 20
834.2355580519556
 30
0.0
 10
6.859802778569568
 20
834.3126303627347
 30
0.0
 10
8.60637336912344
 20
834.3894931511239
 30
0.0
 10
9.461525339786787
 20
834.4457139270792
 30
0.0
 10
9.418866114464018
 20
834.4724310989102
 30
0.0
 10
9.417092011433944
 20
834.4735422071203
 30
0.0
  0
SPLINE
  5
237
330
23
100
AcDbEntity
  8
0
  6
Continuous
 62
     7
370
    25
100
AcDbSpline
210
0.0
220
0.0
230
1.0
 70
     8
 71
     3
 72
    18
 73
    14
 74
     0
 42
0.000000001
 43
0.00000001
 40
0.0
 40
0.0
 40
0.0
 40
0.0
 40
0.0212186033177516
 40
0.129751049016991
 40
0.2382772353410224
 40
0.3454708120594003
 40
0.4547014023221449
 40
0.561566423960798
 40
0.6705649144331767
 40
0.778396117057805
 40
0.8862376915038077
 40
0.9952316361988485
 40
1.0
 40
1.0
 40
1.0
 40
1.0
 10
-9.420971649738394
 20
835.249717424734
 30
0.0
 10
-9.445544842270344
 20
835.2547288778294
 30
0.0
 10
-9.595809092040703
 20
835.2853737457544
 30
0.0
 10
-8.879728847615075
 20
835.3438384563458
 30
0.0
 10
-7.282954969182409
 20
835.423383236595
 30
0.0
 10
-4.8244158445892
 20
835.498143615375
 30
0.0
 10
-1.888337960875771
 20
835.5805769670444
 30
0.0
 10
1.269789692661708
 20
835.6541417396396
 30
0.0
 10
4.273498234521456
 20
835.7355580667187
 30
0.0
 10
6.859790531371563
 20
835.8126303083259
 30
0.0
 10
8.606419302092824
 20
835.8894933551827
 30
0.0
 10
9.461572023382505
 20
835.9457233278058
 30
0.0
 10
9.41884599550673
 20
835.9724493961977
 30
0.0
 10
9.417055127798587
 20
835.9735696232638
 30
0.0
  0
SPLINE
  5
238
330
23
100
AcDbEntity
  8
0
  6
Continuous
 62
     7
370
    25
100
AcDbSpline
210
0.0
220
0.0
230
1.0
 70
     8
 71
     3
 72
    18
 73
    14
 74
     0
 42
0.000000001
 43
0.00000001
 40
0.0
 40
0.0
 40
0.0
 40
0.0
 40
0.0212177819130437
 40
0.1297460261546982
 40
0.2382680112634545
 40
0.3454574383539211
 40
0.4546838001328329
 40
0.5615446848624461
 40
0.6705389558359311
 40
0.7783659841491704
 40
0.8862033838822749
 40
0.9951931092543961
 40
1.0
 40
1.0
 40
1.0
 40
1.0
 10
-9.420971649738394
 20
836.749717424734
 30
0.0
 10
-9.44554484224496
 20
836.7547288778294
 30
0.0
 10
-9.5958090918601
 20
836.7853737457556
 30
0.0
 10
-8.879728852378783
 20
836.8438384563242
 30
0.0
 10
-7.282954952210303
 20
836.9233832366707
 30
0.0
 10
-4.824415907378286
 20
836.998143615096
 30
0.0
 10
-1.888337723728315
 20
837.0805769680981
 30
0.0
 10
1.269788822177967
 20
837.1541417357726
 30
0.0
 10
4.273501542738527
 20
837.2355580814153
 30
0.0
 10
6.85977833891694
 20
837.3126302541609
 30
0.0
 10
8.606465029747824
 20
837.3894935583282
 30
0.0
 10
9.461618563212078
 20
837.4457326939712
 30
0.0
 10
9.418825984552305
 20
837.4724676261139
 30
0.0
 10
9.417018380272339
 20
837.473596938235
 30
0.0
  0
SPLINE
  5
239
330
23
100
AcDbEntity
  8
0
  6
Continuous
 62
     7
370
    25
100
AcDbSpline
210
0.0
220
0.0
230
1.0
 70
     8
 71
     3
 72
    18
 73
    14
 74
     0
 42
0.000000001
 43
0.00000001
 40
0.0
 40
0.0
 40
0.0
 40
0.0
 40
0.0212169635786932
 40
0.1297410220675476
 40
0.2382588216649082
 40
0.3454441146385123
 40
0.4546662637393987
 40
0.5615230270234786
 40
0.6705130942702923
 40
0.7783359638754566
 40
0.8861692045004779
 40
0.9951547263212439
 40
1.0
 40
1.0
 40
1.0
 40
1.0
 10
-9.420971649738398
 20
838.249717424734
 30
0.0
 10
-9.445544842219688
 20
838.2547288778296
 30
0.0
 10
-9.595809091680284
 20
838.2853737457557
 30
0.0
 10
-8.879728857121354
 20
838.3438384563035
 30
0.0
 10
-7.282954935313512
 20
838.4233832367462
 30
0.0
 10
-4.824415969888751
 20
838.4981436148184
 30
0.0
 10
-1.888337487633186
 20
838.5805769691468
 30
0.0
 10
1.269787955556941
 20
838.6541417319226
 30
0.0
 10
4.273504836275598
 20
838.7355580960474
 30
0.0
 10
6.859766200565546
 20
838.8126302002357
 30
0.0
 10
8.606510554489294
 20
838.8894937605734
 30
0.0
 10
9.461664960927143
 20
838.9457420259699
 30
0.0
 10
9.418806080329619
 20
838.9724857894403
 30
0.0
 10
9.416981767276646
 20
838.9736241532079
 30
0.0
  0
SPLINE
  5
23A
330
23
100
AcDbEntity
  8
0
  6
Continuous
 62
     7
370
    25
100
AcDbSpline
210
0.0
220
0.0
230
1.0
 70
     8
 71
     3
 72
    11
 73
     7
 74
     0
 42
0.000000001
 43
0.00000001
 40
0.0
 40
0.0
 40
0.0
 40
0.0
 40
0.0613532289879764
 40
0.375172941524841
 40
0.6889745551852285
 40
1.0
 40
1.0
 40
1.0
 40
1.0
 10
-9.420971649738394
 20
839.749717424734
 30
0.0
 10
-9.445577634889055
 20
839.7547283326643
 30
0.0
 10
-9.596042410425136
 20
839.7853698669228
 30
0.0
 10
-8.873574919928041
 20
839.8439407631217
 30
0.0
 10
-7.303078057842617
 20
839.9231095811742
 30
0.0
 10
-5.598490753806792
 20
839.9739612369582
 30
0.0
 10
-4.749983927362381
 20
839.999274095365
 30
0.0
  0
SPLINE
  5
23B
330
23
100
AcDbEntity
  8
0
  6
Continuous
 62
     7
370
    25
100
AcDbSpline
210
0.0
220
0.0
230
1.0
 70
     8
 71
     3
 72
    17
 73
    13
 74
     0
 42
0.000000001
 43
0.00000001
 40
0.0
 40
0.0
 40
0.0
 40
0.0
 40
0.0924281994167455
 40
0.2008960004518094
 40
0.3080227746231154
 40
0.4171905787496716
 40
0.5239945758237216
 40
0.6329263748746995
 40
0.7407015023482622
 40
0.8484731732201012
 40
0.9574064861577058
 40
1.0
 40
1.0
 40
1.0
 40
1.0
 10
9.376656116407393
 20
831.4736591864845
 30
0.0
 10
9.231003815114065
 20
831.4512663567372
 30
0.0
 10
8.914423323758845
 20
831.4025947395962
 30
0.0
 10
7.25511659102641
 20
831.3266781830823
 30
0.0
 10
4.837740277042204
 20
831.2520141605296
 30
0.0
 10
1.891276489882463
 20
831.1695535962962
 30
0.0
 10
-1.263137938613377
 20
831.095992745542
 30
0.0
 10
-4.271140832285674
 20
831.0145748688255
 30
0.0
 10
-6.847268544652091
 20
830.9375273485439
 30
0.0
 10
-8.636395230245322
 20
830.8605068980839
 30
0.0
 10
-9.515856911227875
 20
830.7952075262102
 30
0.0
 10
-9.410690507509994
 20
830.7598084298761
 30
0.0
 10
-9.381128701408107
 20
830.7498579020936
 30
0.0
  0
SPLINE
  5
23E
330
23
100
AcDbEntity
  8
0
  6
Continuous
 62
     7
370
    25
100
AcDbSpline
210
0.0
220
0.0
230
1.0
 70
     8
 71
     3
 72
    18
 73
    14
 74
     0
 42
0.000000001
 43
0.00000001
 40
0.0
 40
0.0
 40
0.0
 40
0.0
 40
0.0205418884284636
 40
0.1265250382175277
 40
0.2325118538697488
 40
0.3371883164385993
 40
0.4438591242181568
 40
0.5482201923051507
 40
0.6546603933237609
 40
0.759970378946902
 40
0.8652769875244058
 40
0.9717186675863729
 40
0.9999999999999999
 40
0.9999999999999999
 40
0.9999999999999999
 40
0.9999999999999999
 10
9.421486394555998
 20
832.6252823375022
 30
0.0
 10
9.445925736385353
 20
832.6203136501153
 30
0.0
 10
9.59645662207967
 20
832.5897096789317
 30
0.0
 10
8.881644477495971
 20
832.5313061053986
 30
0.0
 10
7.286592195768812
 20
832.4517418073564
 30
0.0
 10
4.829154595945555
 20
832.3769967632397
 30
0.0
 10
1.893583072981989
 20
832.2945583677316
 30
0.0
 10
-1.263929847936065
 20
832.2209907001674
 30
0.0
 10
-4.270298296041549
 20
832.1395782171928
 30
0.0
 10
-6.849815154839865
 20
832.0625160941598
 30
0.0
 10
-8.626997630475367
 20
831.9855487555204
 30
0.0
 10
-9.493995655522044
 20
831.9235361125153
 30
0.0
 10
-9.41124448813176
 20
831.8912682162986
 30
0.0
 10
-9.393873192541081
 20
831.8844944730278
 30
0.0
  0
SPLINE
  5
23F
330
23
100
AcDbEntity
  8
0
  6
Continuous
 62
     7
370
    25
100
AcDbSpline
210
0.0
220
0.0
230
1.0
 70
     8
 71
     3
 72
    18
 73
    14
 74
     0
 42
0.000000001
 43
0.00000001
 40
0.0
 40
0.0
 40
0.0
 40
0.0
 40
0.0414425181445638
 40
0.1478940119232073
 40
0.2532200127791444
 40
0.3585358884870901
 40
0.4649918199280533
 40
0.5693640503943953
 40
0.676046668848668
 40
0.7807397886466945
 40
0.8867344356105894
 40
0.9927351930795368
 40
1.0
 40
1.0
 40
1.0
 40
1.0
 10
9.381303422785173
 20
834.1251443352087
 30
0.0
 10
9.410916246188224
 20
834.115236510714
 30
0.0
 10
9.516594169575338
 20
834.0798789122967
 30
0.0
 10
8.638665193522858
 20
834.0146365595527
 30
0.0
 10
6.851195835535726
 20
833.9375920748874
 30
0.0
 10
4.275810696072541
 20
833.8605683364335
 30
0.0
 10
1.269244820190754
 20
833.7791391212832
 30
0.0
 10
-1.888433280052818
 20
833.7055770869093
 30
0.0
 10
-4.82347135901931
 20
833.6231455547698
 30
0.0
 10
-7.286579584641881
 20
833.548375229882
 30
0.0
 10
-8.865968664482226
 20
833.4688687513939
 30
0.0
 10
-9.585530700555541
 20
833.4136862278857
 30
0.0
 10
-9.467064569294479
 20
833.38626108257
 30
0.0
 10
-9.459466200144373
 20
833.3845020449794
 30
0.0
  0
SPLINE
  5
240
330
23
100
AcDbEntity
  8
0
  6
Continuous
 62
     7
370
    25
100
AcDbSpline
210
0.0
220
0.0
230
1.0
 70
     8
 71
     3
 72
    17
 73
    13
 74
     0
 42
0.000000001
 43
0.00000001
 40
0.0
 40
0.0
 40
0.0
 40
0.0
 40
0.062521243375261
 40
0.1691278376840825
 40
0.2737488979833835
 40
0.3796660608123911
 40
0.4855942147627855
 40
0.5902060794331132
 40
0.6968149020511247
 40
0.801115647724019
 40
0.9074910408365664
 40
0.9999999999999999
 40
0.9999999999999999
 40
0.9999999999999999
 40
0.9999999999999999
 10
9.380956976795492
 20
835.6248601500793
 30
0.0
 10
9.393028996680519
 20
835.6099713672432
 30
0.0
 10
9.425685330902459
 20
835.5696953344763
 30
0.0
 10
8.35382172247115
 20
835.4982250330145
 30
0.0
 10
6.387891478192829
 20
835.4234422649638
 30
0.0
 10
3.705239167845713
 20
835.3439130189333
 30
0.0
 10
0.6389971438696537
 20
835.2643357316125
 30
0.0
 10
-2.501011911220949
 20
835.1896029053083
 30
0.0
 10
-5.369040193816812
 20
835.1071560363413
 30
0.0
 10
-7.653953619351648
 20
835.0336041298731
 30
0.0
 10
-9.153743812375971
 20
834.9554132651647
 30
0.0
 10
-9.34847053143843
 20
834.9070219709039
 30
0.0
 10
-9.439045611356145
 20
834.8845132706801
 30
0.0
  0
SPLINE
  5
241
330
23
100
AcDbEntity
  8
0
  6
Continuous
 62
     7
370
    25
100
AcDbSpline
210
0.0
220
0.0
230
1.0
 70
     8
 71
     3
 72
    17
 73
    13
 74
     0
 42
0.000000001
 43
0.00000001
 40
0.0
 40
0.0
 40
0.0
 40
0.0
 40
0.0837351334159714
 40
0.1903614566430483
 40
0.2946795503540727
 40
0.4010704343476175
 40
0.506343726331873
 40
0.6115968007313669
 40
0.7179965551799852
 40
0.8223105407500743
 40
0.9289338988091373
 40
1.0
 40
1.0
 40
1.0
 40
1.0
 10
9.420460070660555
 20
837.1247172185584
 30
0.0
 10
9.390537838951827
 20
837.1046811026246
 30
0.0
 10
9.32251335052367
 20
837.0591314741823
 30
0.0
 10
8.02924787480611
 20
836.982251683722
 30
0.0
 10
5.897136550936816
 20
836.908648251943
 30
0.0
 10
3.118407224932128
 20
836.827255731045
 30
0.0
 10
0.0080697626140781
 20
836.7501784480896
 30
0.0
 10
-3.102620507094985
 20
836.6731771268821
 30
0.0
 10
-5.885458668250418
 20
836.5917356995828
 30
0.0
 10
-8.015251590289557
 20
836.5181829886002
 30
0.0
 10
-9.278172088405626
 20
836.4445067158248
 30
0.0
 10
-9.353581838336359
 20
836.4019281262097
 30
0.0
 10
-9.383741629142056
 20
836.3848990105216
 30
0.0
  0
SPLINE
  5
242
330
23
100
AcDbEntity
  8
0
  6
Continuous
 62
     7
370
    25
100
AcDbSpline
210
0.0
220
0.0
230
1.0
 70
     8
 71
     3
 72
    17
 73
    13
 74
     0
 42
0.000000001
 43
0.00000001
 40
0.0
 40
0.0
 40
0.0
 40
0.0
 40
0.1049251159802474
 40
0.2113532512556631
 40
0.3156929616681253
 40
0.4223427838304434
 40
0.5270101075262522
 40
0.6329672923049744
 40
0.7389428031719082
 40
0.8435947945007545
 40
0.9502483320428806
 40
1.0
 40
1.0
 40
1.0
 40
1.0
 10
9.498332172503115
 20
838.6249901477595
 30
0.0
 10
9.40139670019198
 20
838.5995001158709
 30
0.0
 10
9.206137185407933
 20
838.5481549154018
 30
0.0
 10
7.667666061345205
 20
838.4668027651901
 30
0.0
 10
5.381640824001604
 20
838.3932471497126
 30
0.0
 10
2.517103631551064
 20
838.3108189314997
 30
0.0
 10
-0.622846393404191
 20
838.236038675823
 30
0.0
 10
-3.689701412042589
 20
838.1565220740274
 30
0.0
 10
-6.377338981627892
 20
838.0769231725457
 30
0.0
 10
-8.339117042322586
 20
838.002232802007
 30
0.0
 10
-9.390792239142469
 20
837.9339446594113
 30
0.0
 10
-9.373718561818508
 20
837.8966525845417
 30
0.0
 10
-9.368287515439217
 20
837.8847901729268
 30
0.0
  0
SPLINE
  5
243
330
23
100
AcDbEntity
  8
0
  6
Continuous
 62
     7
370
    25
100
AcDbSpline
210
0.0
220
0.0
230
1.0
 70
     8
 71
     3
 72
    16
 73
    12
 74
     0
 42
0.000000001
 43
0.00000001
 40
0.0
 40
0.0
 40
0.0
 40
0.0
 40
0.101701032378682
 40
0.2033262032884127
 40
0.3314906412413043
 40
0.4568810267203109
 40
0.5847589133084532
 40
0.7113022231711343
 40
0.8378091200497098
 40
0.9657029999034603
 40
0.9999999999999999
 40
0.9999999999999999
 40
0.9999999999999999
 40
0.9999999999999999
 10
8.241407351386306
 20
840.0000000000002
 30
0.0
 10
7.773888352115012
 20
839.9793041236599
 30
0.0
 10
6.839199088262899
 20
839.9379278085767
 30
0.0
 10
4.647812370145388
 20
839.8719409888415
 30
0.0
 10
1.905473219373687
 20
839.794856191226
 30
0.0
 10
-1.253400539624279
 20
839.7212444286097
 30
0.0
 10
-4.2605032396325
 20
839.6398673216811
 30
0.0
 10
-6.84208072440606
 20
839.5627542325087
 30
0.0
 10
-8.622393725901713
 20
839.4858361774118
 30
0.0
 10
-9.492176087659717
 20
839.4237345678116
 30
0.0
 10
-9.410462932612722
 20
839.3914061944873
 30
0.0
 10
-9.393183810091196
 20
839.3845700134186
 30
0.0
  0
SPLINE
  5
246
330
23
100
AcDbEntity
  8
0
  6
Continuous
 62
     7
370
    25
100
AcDbSpline
210
0.0
220
0.0
230
1.0
 70
     8
 71
     3
 72
    14
 73
    10
 74
     0
 42
0.000000001
 43
0.00000001
 40
0.0
 40
0.0
 40
0.0
 40
0.0
 40
0.1742647998880439
 40
0.3470579146180518
 40
0.5518021795633632
 40
0.6703122192847392
 40
0.7932360330077143
 40
0.9666277134187583
 40
1.0
 40
1.0
 40
1.0
 40
1.0
 10
9.797958971132742
 20
765.0
 30
0.0
 10
9.88394775760542
 20
764.0483168044753
 30
0.0
 10
10.05519914591171
 20
762.1529874813532
 30
0.0
 10
11.15599412364857
 20
759.5529899150835
 30
0.0
 10
12.22931267348475
 20
757.6436067858566
 30
0.0
 10
13.0951435203167
 20
756.3033494701989
 30
0.0
 10
13.69927203428611
 20
755.4193394719114
 30
0.0
 10
14.0559015885132
 20
754.9212933565036
 30
0.0
 10
13.96964251951641
 20
755.0427243666505
 30
0.0
 10
13.95572006284919
 20
755.0623236736739
 30
0.0
  0
SPLINE
  5
247
330
23
100
AcDbEntity
  8
0
  6
Continuous
 62
     7
370
    25
100
AcDbSpline
210
0.0
220
0.0
230
1.0
 70
     8
 71
     3
 72
    14
 73
    10
 74
     0
 42
0.000000001
 43
0.00000001
 40
0.0
 40
0.0
 40
0.0
 40
0.0
 40
0.0380645387592671
 40
0.208252777043358
 40
0.3826031588091577
 40
0.5840495139234905
 40
0.7005216774056325
 40
0.8207832603551949
 40
1.0
 40
1.0
 40
1.0
 40
1.0
 10
13.94517251042705
 20
774.9227585869791
 30
0.0
 10
13.96245653741433
 20
774.9471182647934
 30
0.0
 10
14.05701821439557
 20
775.0803911407585
 30
0.0
 10
13.63698039954478
 20
774.4932897011525
 30
0.0
 10
12.77685133984462
 20
773.2282015906206
 30
0.0
 10
11.70137107149585
 20
771.4741584673295
 30
0.0
 10
10.80205880798688
 20
769.6090076447797
 30
0.0
 10
10.03430155587015
 20
767.6154665750815
 30
0.0
 10
9.886442331035669
 20
765.9791941242164
 30
0.0
 10
9.797958971132742
 20
765.0
 30
0.0
  0
SPLINE
  5
24F
330
23
100
AcDbEntity
  8
0
  6
Continuous
 62
     7
370
    25
100
AcDbSpline
210
0.0
220
0.0
230
1.0
 70
     8
 71
     3
 72
    18
 73
    14
 74
     0
 42
0.000000001
 43
0.00000001
 40
0.0
 40
0.0
 40
0.0
 40
0.0
 40
0.0322180483793278
 40
0.136181082573255
 40
0.2411083457402126
 40
0.3488700809484252
 40
0.4571195481804041
 40
0.5625026267915616
 40
0.6661903012377393
 40
0.7719305429398801
 40
0.8802971239119243
 40
0.9878387114818323
 40
1.0
 40
1.0
 40
1.0
 40
1.0
 10
32.47041189485321
 20
755.0073254225065
 30
0.0
 10
32.47894010959251
 20
755.0052164074019
 30
0.0
 10
32.51498765356358
 20
754.9963019021937
 30
0.0
 10
32.30120145073834
 20
755.0497573294672
 30
0.0
 10
31.84892080173637
 20
755.1477567642403
 30
0.0
 10
31.16642995241176
 20
755.2575058310204
 30
0.0
 10
30.35199310484022
 20
755.3235947649305
 30
0.0
 10
29.50469703338668
 20
755.3164468394242
 30
0.0
 10
28.72454432130683
 20
755.2427460476242
 30
0.0
 10
28.07061495333129
 20
755.1319269210709
 30
0.0
 10
27.64915092745308
 20
755.0377913935974
 30
0.0
 10
27.46492040406865
 20
754.9913906486964
 30
0.0
 10
27.5093720372906
 20
755.0023021548817
 30
0.0
 10
27.51388812875292
 20
755.0034107161731
 30
0.0
  0
LINE
  5
271
330
23
100
AcDbEntity
  8
0
  6
Continuous
 62
     7
370
    25
100
AcDbLine
 10
10.5
 20
800.0
 30
0.0
 11
10.5
 21
900.0
 31
0.0
  0
LINE
  5
272
330
23
100
AcDbEntity
  8
0
  6
Continuous
 62
     7
370
    25
100
AcDbLine
 10
-10.5
 20
900.0
 30
0.0
 11
-10.5
 21
800.0
 31
0.0
  0
LINE
  5
273
330
23
100
AcDbEntity
  8
0
  6
Continuous
 62
     7
370
    25
100
AcDbLine
 10
10.3118988125
 20
839.4687499247
 30
0.0
 11
10.3118988125
 21
839.6562499247
 31
0.0
  0
LINE
  5
274
330
23
100
AcDbEntity
  8
0
  6
Continuous
 62
     7
370
    25
100
AcDbLine
 10
10.3118988125
 20
837.968749912
 30
0.0
 11
10.3118988125
 21
838.156249912
 31
0.0
  0
LINE
  5
275
330
23
100
AcDbEntity
  8
0
  6
Continuous
 62
     7
370
    25
100
AcDbLine
 10
10.3118988125
 20
836.4687499191
 30
0.0
 11
10.3118988125
 21
836.6562499191
 31
0.0
  0
LINE
  5
276
330
23
100
AcDbEntity
  8
0
  6
Continuous
 62
     7
370
    25
100
AcDbLine
 10
10.3118988125
 20
834.9687499394
 30
0.0
 11
10.3118988125
 21
835.1562499394
 31
0.0
  0
LINE
  5
277
330
23
100
AcDbEntity
  8
0
  6
Continuous
 62
     7
370
    25
100
AcDbLine
 10
10.3118988125
 20
833.4687499653
 30
0.0
 11
10.3118988125
 21
833.6562499653
 31
0.0
  0
LINE
  5
278
330
23
100
AcDbEntity
  8
0
  6
Continuous
 62
     7
370
    25
100
AcDbLine
 10
10.3118988125
 20
831.9687499881
 30
0.0
 11
10.3118988125
 21
832.1562499881
 31
0.0
  0
LINE
  5
279
330
23
100
AcDbEntity
  8
0
  6
Continuous
 62
     7
370
    25
100
AcDbLine
 10
-10.3118988125
 20
831.4062499953
 30
0.0
 11
-10.3118988125
 21
831.2187499953
 31
0.0
  0
LINE
  5
27A
330
23
100
AcDbEntity
  8
0
  6
Continuous
 62
     7
370
    25
100
AcDbLine
 10
-10.3118988125
 20
832.9062499777
 30
0.0
 11
-10.3118988125
 21
832.7187499777
 31
0.0
  0
LINE
  5
27B
330
23
100
AcDbEntity
  8
0
  6
Continuous
 62
     7
370
    25
100
AcDbLine
 10
-10.3118988125
 20
834.4062499521
 30
0.0
 11
-10.3118988125
 21
834.2187499521
 31
0.0
  0
LINE
  5
27C
330
23
100
AcDbEntity
  8
0
  6
Continuous
 62
     7
370
    25
100
AcDbLine
 10
-10.3118988125
 20
835.906249928
 30
0.0
 11
-10.3118988125
 21
835.718749928
 31
0.0
  0
LINE
  5
27D
330
23
100
AcDbEntity
  8
0
  6
Continuous
 62
     7
370
    25
100
AcDbLine
 10
-10.3118988125
 20
837.4062499134
 30
0.0
 11
-10.3118988125
 21
837.2187499134
 31
0.0
  0
LINE
  5
27E
330
23
100
AcDbEntity
  8
0
  6
Continuous
 62
     7
370
    25
100
AcDbLine
 10
-10.3118988125
 20
838.9062499155
 30
0.0
 11
-10.3118988125
 21
838.7187499155
 31
0.0
  0
LINE
  5
27F
330
23
100
AcDbEntity
  8
0
  6
Continuous
 62
     7
370
    25
100
AcDbLine
 10
9.5
 20
838.6249901478
 30
0.0
 11
9.5
 21
839.0001443401
 31
0.0
  0
LINE
  5
280
330
23
100
AcDbEntity
  8
0
  6
Continuous
 62
     7
370
    25
100
AcDbLine
 10
9.5
 20
837.1247172186
 30
0.0
 11
9.5
 21
837.5001443401
 31
0.0
  0
LINE
  5
281
330
23
100
AcDbEntity
  8
0
  6
Continuous
 62
     7
370
    25
100
AcDbLine
 10
9.5
 20
835.6248601501
 30
0.0
 11
9.5
 21
836.0001443401
 31
0.0
  0
LINE
  5
282
330
23
100
AcDbEntity
  8
0
  6
Continuous
 62
     7
370
    25
100
AcDbLine
 10
9.5
 20
834.1251443352
 30
0.0
 11
9.5
 21
834.5001443401
 31
0.0
  0
LINE
  5
283
330
23
100
AcDbEntity
  8
0
  6
Continuous
 62
     7
370
    25
100
AcDbLine
 10
9.5
 20
832.6252823375
 30
0.0
 11
9.5
 21
833.0001443401
 31
0.0
  0
LINE
  5
284
330
23
100
AcDbEntity
  8
0
  6
Continuous
 62
     7
370
    25
100
AcDbLine
 10
9.5
 20
831.1259999959
 30
0.0
 11
9.5
 21
831.5002823416
 31
0.0
  0
LINE
  5
285
330
23
100
AcDbEntity
  8
0
  6
Continuous
 62
     7
370
    25
100
AcDbLine
 10
-9.5
 20
830.7498579021
 30
0.0
 11
-9.5
 21
830.0
 31
0.0
  0
LINE
  5
286
330
23
100
AcDbEntity
  8
0
  6
Continuous
 62
     7
370
    25
100
AcDbLine
 10
-9.5
 20
832.2497174247
 30
0.0
 11
-9.5
 21
831.879743267
 31
0.0
  0
LINE
  5
287
330
23
100
AcDbEntity
  8
0
  6
Continuous
 62
     7
370
    25
100
AcDbLine
 10
-9.5
 20
833.7497174247
 30
0.0
 11
-9.5
 21
833.3797432918
 31
0.0
  0
LINE
  5
288
330
23
100
AcDbEntity
  8
0
  6
Continuous
 62
     7
370
    25
100
AcDbLine
 10
-9.5
 20
835.2497174247
 30
0.0
 11
-9.5
 21
834.8797432666
 31
0.0
  0
LINE
  5
289
330
23
100
AcDbEntity
  8
0
  6
Continuous
 62
     7
370
    25
100
AcDbLine
 10
-9.5
 20
836.7497174247
 30
0.0
 11
-9.5
 21
836.3797431912
 31
0.0
  0
LINE
  5
28A
330
23
100
AcDbEntity
  8
0
  6
Continuous
 62
     7
370
    25
100
AcDbLine
 10
-9.5
 20
838.2497174247
 30
0.0
 11
-9.5
 21
837.8797430656
 31
0.0
  0
LINE
  5
28B
330
23
100
AcDbEntity
  8
0
  6
Continuous
 62
     7
370
    25
100
AcDbLine
 10
-9.5
 20
839.7497174247
 30
0.0
 11
-9.5
 21
839.3797428896
 31
0.0
  0
LINE
  5
28C
330
23
100
AcDbEntity
  8
0
  6
Continuous
 62
     7
370
    25
100
AcDbLine
 10
14.0
 20
774.922758587
 30
0.0
 11
14.0
 21
799.8
 31
0.0
  0
LINE
  5
28D
330
23
100
AcDbEntity
  8
0
  6
Continuous
 62
     7
370
    25
100
AcDbLine
 10
14.0
 20
730.2
 30
0.0
 11
14.0
 21
755.0623236737
 31
0.0
  0
LINE
  5
28E
330
23
100
AcDbEntity
  8
0
  6
Continuous
 62
     7
370
    25
100
AcDbLine
 10
-14.0
 20
799.8
 30
0.0
 11
-14.0
 21
730.2
 31
0.0
  0
LINE
  5
28F
330
23
100
AcDbEntity
  8
0
  6
Continuous
 62
     7
370
    25
100
AcDbLine
 10
14.0
 20
0.0
 30
0.0
 11
14.0
 21
14.8
 31
0.0
  0
LINE
  5
290
330
23
100
AcDbEntity
  8
0
  6
Continuous
 62
     7
370
    25
100
AcDbLine
 10
-14.0
 20
14.8
 30
0.0
 11
-14.0
 21
0.0
 31
0.0
  0
LINE
  5
291
330
23
100
AcDbEntity
  8
0
  6
Continuous
 62
     7
370
    25
100
AcDbLine
 10
-10.5
 20
730.0
 30
0.0
 11
-10.5
 21
15.0
 31
0.0
  0
LINE
  5
292
330
23
100
AcDbEntity
  8
0
  6
Continuous
 62
     7
370
    25
100
AcDbLine
 10
10.5
 20
15.0
 30
0.0
 11
10.5
 21
730.0
 31
0.0
  0
LINE
  5
293
330
23
100
AcDbEntity
  8
0
  6
Continuous
 62
     7
370
    25
100
AcDbLine
 10
32.4704118949
 20
755.0
 30
0.0
 11
39.8
 21
755.0
 31
0.0
  0
LINE
  5
294
330
23
100
AcDbEntity
  8
0
  6
Continuous
 62
     7
370
    25
100
AcDbLine
 10
20.2
 20
755.0
 30
0.0
 11
27.5138881288
 21
755.0
 31
0.0
  0
LINE
  5
295
330
23
100
AcDbEntity
  8
0
  6
Continuous
 62
     7
370
    25
100
AcDbLine
 10
39.8
 20
775.0
 30
0.0
 11
20.2
 21
775.0
 31
0.0
  0
LINE
  5
296
330
23
100
AcDbEntity
  8
0
  6
Continuous
 62
     7
370
    25
100
AcDbLine
 10
13.9558874405
 20
755.0
 30
0.0
 11
19.3
 21
755.0
 31
0.0
  0
LINE
  5
297
330
23
100
AcDbEntity
  8
0
  6
Continuous
 62
     7
370
    25
100
AcDbLine
 10
19.3
 20
775.0
 30
0.0
 11
13.9454102384
 21
775.0
 31
0.0
  0
LINE
  5
298
330
23
100
AcDbEntity
  8
0
  6
Continuous
 62
     7
370
    25
100
AcDbLine
 10
20.0
 20
774.25
 30
0.0
 11
19.5
 21
774.25
 31
0.0
  0
LINE
  5
299
330
23
100
AcDbEntity
  8
0
  6
Continuous
 62
     7
370
    25
100
AcDbLine
 10
19.5
 20
755.75
 30
0.0
 11
20.0
 21
755.75
 31
0.0
  0
LINE
  5
29A
330
23
100
AcDbEntity
  8
0
  6
Continuous
 62
     7
370
    25
100
AcDbLine
 10
32.5
 20
730.2
 30
0.0
 11
32.5
 21
755.0072952049
 31
0.0
  0
LINE
  5
29B
330
23
100
AcDbEntity
  8
0
  6
Continuous
 62
     7
370
    25
100
AcDbLine
 10
27.5
 20
755.0033593858
 30
0.0
 11
27.5
 21
730.2
 31
0.0
  0
LINE
  5
29C
330
23
100
AcDbEntity
  8
0
  6
Continuous
 62
     7
370
    25
100
AcDbLine
 10
-10.5
 20
840.0
 30
0.0
 11
10.5
 21
840.0
 31
0.0
  0
LINE
  5
29D
330
23
100
AcDbEntity
  8
0
  6
Continuous
 62
     7
370
    25
100
AcDbLine
 10
10.290823032
 20
831.9540952534
 30
0.0
 11
10.2266752721
 21
831.9690323293
 31
0.0
  0
LINE
  5
29E
330
23
100
AcDbEntity
  8
0
  6
Continuous
 62
     7
370
    25
100
AcDbLine
 10
10.2915490416
 20
839.4543528965
 30
0.0
 11
10.2278022243
 21
839.4690317013
 31
0.0
  0
LINE
  5
29F
330
23
100
AcDbEntity
  8
0
  6
Continuous
 62
     7
370
    25
100
AcDbLine
 10
10.3118988125
 20
830.468749998
 30
0.0
 11
10.3118988125
 21
830.656249998
 31
0.0
  0
LINE
  5
2A0
330
23
100
AcDbEntity
  8
0
  6
Continuous
 62
     7
370
    25
100
AcDbLine
 10
10.3118988125
 20
830.656249998
 30
0.0
 11
10.1233242167
 21
830.6830977043
 31
0.0
  0
LINE
  5
2A1
330
23
100
AcDbEntity
  8
0
  6
Continuous
 62
     7
370
    25
100
AcDbLine
 10
9.5
 20
830.0
 30
0.0
 11
10.3118988125
 21
830.468749998
 31
0.0
  0
LINE
  5
2A2
330
23
100
AcDbEntity
  8
0
  6
Continuous
 62
     7
370
    25
100
AcDbLine
 10
10.3118988125
 20
830.656249998
 30
0.0
 11
9.5
 21
831.1249999959
 31
0.0
  0
LINE
  5
2A3
330
23
100
AcDbEntity
  8
0
  6
Continuous
 62
     7
370
    25
100
AcDbLine
 10
9.5
 20
831.1249999959
 30
0.0
 11
9.5
 21
830.0
 31
0.0
  0
LINE
  5
2A4
330
23
100
AcDbEntity
  8
0
  6
Continuous
 62
     7
370
    25
100
AcDbLine
 10
9.5
 20
830.0
 30
0.0
 11
-9.5
 21
830.0
 31
0.0
  0
LINE
  5
2A5
330
23
100
AcDbEntity
  8
0
  6
Continuous
 62
     7
370
    25
100
AcDbLine
 10
13.8
 20
730.0
 30
0.0
 11
-13.8
 21
730.0
 31
0.0
  0
LINE
  5
2A6
330
23
100
AcDbEntity
  8
0
  6
Continuous
 62
     7
370
    25
100
AcDbLine
 10
-13.8
 20
800.0
 30
0.0
 11
13.8
 21
800.0
 31
0.0
  0
LINE
  5
2A7
330
23
100
AcDbEntity
  8
0
  6
Continuous
 62
     7
370
    25
100
AcDbLine
 10
-13.8
 20
15.0
 30
0.0
 11
13.8
 21
15.0
 31
0.0
  0
LINE
  5
2A8
330
23
100
AcDbEntity
  8
0
  6
Continuous
 62
     7
370
    25
100
AcDbLine
 10
14.0
 20
0.0
 30
0.0
 11
-14.0
 21
0.0
 31
0.0
  0
LINE
  5
2A9
330
23
100
AcDbEntity
  8
0
  6
Continuous
 62
     7
370
    25
100
AcDbLine
 10
40.0
 20
774.8
 30
0.0
 11
40.0
 21
755.2
 31
0.0
  0
LINE
  5
2AA
330
23
100
AcDbEntity
  8
0
  6
Continuous
 62
     7
370
    25
100
AcDbLine
 10
19.5
 20
774.7999992859
 30
0.0
 11
19.5
 21
755.2
 31
0.0
  0
LINE
  5
2AB
330
23
100
AcDbEntity
  8
0
  6
Continuous
 62
     7
370
    25
100
AcDbLine
 10
20.0
 20
755.2000007141
 30
0.0
 11
20.0
 21
774.8
 31
0.0
  0
LINE
  5
2AC
330
23
100
AcDbEntity
  8
0
  6
Continuous
 62
     7
370
    25
100
AcDbLine
 10
32.3
 20
730.0
 30
0.0
 11
27.7
 21
730.0
 31
0.0
  0
LINE
  5
2AD
330
23
100
AcDbEntity
  8
0
  6
Continuous
 62
     7
370
    25
100
AcDbLine
 10
14.3614066163
 20
755.0
 30
0.0
 11
14.0
 21
754.5
 31
0.0
  0
LINE
  5
2AE
330
23
100
AcDbEntity
  8
0
  6
Continuous
 62
     7
370
    25
100
AcDbLine
 10
14.0
 20
775.5
 30
0.0
 11
14.3614066163
 21
775.0
 31
0.0
  0
LINE
  5
2AF
330
23
100
AcDbEntity
  8
0
  6
Continuous
 62
     8
370
    25
100
AcDbLine
 10
10.5
 20
870.0
 30
0.0
 11
-10.5
 21
870.0
 31
0.0
  0
LINE
  5
2B0
330
23
100
AcDbEntity
  8
0
  6
Continuous
 62
     8
370
    25
100
AcDbLine
 10
14.0
 20
799.8
 30
0.0
 11
-14.0
 21
799.8
 31
0.0
  0
LINE
  5
2B1
330
23
100
AcDbEntity
  8
0
  6
Continuous
 62
     8
370
    25
100
AcDbLine
 10
-14.0
 20
730.2
 30
0.0
 11
14.0
 21
730.2
 31
0.0
  0
LINE
  5
2B2
330
23
100
AcDbEntity
  8
0
  6
Continuous
 62
     8
370
    25
100
AcDbLine
 10
14.0
 20
14.8
 30
0.0
 11
-14.0
 21
14.8
 31
0.0
  0
LINE
  5
2B3
330
23
100
AcDbEntity
  8
0
  6
Continuous
 62
     8
370
    25
100
AcDbLine
 10
39.8
 20
755.0
 30
0.0
 11
39.8
 21
775.0
 31
0.0
  0
LINE
  5
2B4
330
23
100
AcDbEntity
  8
0
  6
Continuous
 62
     8
370
    25
100
AcDbLine
 10
20.2
 20
775.0
 30
0.0
 11
20.2
 21
755.0
 31
0.0
  0
LINE
  5
2B5
330
23
100
AcDbEntity
  8
0
  6
Continuous
 62
     8
370
    25
100
AcDbLine
 10
19.3
 20
755.0
 30
0.0
 11
19.3
 21
775.0
 31
0.0
  0
LINE
  5
2B6
330
23
100
AcDbEntity
  8
0
  6
Continuous
 62
     8
370
    25
100
AcDbLine
 10
27.5
 20
730.2
 30
0.0
 11
32.5
 21
730.2
 31
0.0
  0
LINE
  5
2B7
330
23
100
AcDbEntity
  8
0
  6
Continuous
 62
     8
370
    25
100
AcDbLine
 10
14.1170110151
 20
775.0
 30
0.0
 11
14.0
 21
775.1631687972
 31
0.0
  0
LINE
  5
2B8
330
23
100
AcDbEntity
  8
0
  6
Continuous
 62
     8
370
    25
100
AcDbLine
 10
14.0
 20
754.8368312028
 30
0.0
 11
14.1170110151
 21
755.0
 31
0.0
  0
LINE
  5
2B9
330
23
100
AcDbEntity
  8
0
  6
Continuous
 62
     8
370
    25
100
AcDbLine
 10
14.0
 20
775.8300507847
 30
0.0
 11
14.6044513762
 21
775.0
 31
0.0
  0
LINE
  5
2BA
330
23
100
AcDbEntity
  8
0
  6
Continuous
 62
     8
370
    25
100
AcDbLine
 10
14.6044513762
 20
755.0
 30
0.0
 11
14.0
 21
754.1699492153
 31
0.0
  0
ARC
  5
2BB
330
23
100
AcDbEntity
  8
0
  6
Continuous
 62
     7
370
    25
100
AcDbCircle
 10
-13.8
 20
730.2
 30
0.0
 40
0.1999999999999709
100
AcDbArc
 50
180.0
 51
270.0
  0
ARC
  5
2BC
330
23
100
AcDbEntity
  8
0
  6
Continuous
 62
     7
370
    25
100
AcDbCircle
 10
13.8
 20
730.2
 30
0.0
 40
0.2000000000001592
100
AcDbArc
 50
270.0
 51
359.9999999999
  0
ARC
  5
2BD
330
23
100
AcDbEntity
  8
0
  6
Continuous
 62
     7
370
    25
100
AcDbCircle
 10
-13.8
 20
799.8
 30
0.0
 40
0.2000000000001592
100
AcDbArc
 50
90.0
 51
179.9999999999
  0
ARC
  5
2BE
330
23
100
AcDbEntity
  8
0
  6
Continuous
 62
     7
370
    25
100
AcDbCircle
 10
13.8
 20
799.8
 30
0.0
 40
0.1999999999999709
100
AcDbArc
 50
0.0
 51
90.0
  0
ARC
  5
2BF
330
23
100
AcDbEntity
  8
0
  6
Continuous
 62
     7
370
    25
100
AcDbCircle
 10
13.8
 20
14.8
 30
0.0
 40
0.1999999999999975
100
AcDbArc
 50
360.0
 51
90.0
  0
ARC
  5
2C0
330
23
100
AcDbEntity
  8
0
  6
Continuous
 62
     7
370
    25
100
AcDbCircle
 10
-13.8
 20
14.8
 30
0.0
 40
0.1999999999999904
100
AcDbArc
 50
90.0
 51
180.0
  0
ARC
  5
2C1
330
23
100
AcDbEntity
  8
0
  6
Continuous
 62
     7
370
    25
100
AcDbCircle
 10
39.8
 20
774.8
 30
0.0
 40
0.1999999999999673
100
AcDbArc
 50
0.0
 51
90.0
  0
ARC
  5
2C2
330
23
100
AcDbEntity
  8
0
  6
Continuous
 62
     7
370
    25
100
AcDbCircle
 10
39.8
 20
755.2
 30
0.0
 40
0.2000000000001663
100
AcDbArc
 50
270.0
 51
359.9999999999
  0
ARC
  5
2C3
330
23
100
AcDbEntity
  8
0
  6
Continuous
 62
     7
370
    25
100
AcDbCircle
 10
19.3
 20
755.2
 30
0.0
 40
0.2000000000001592
100
AcDbArc
 50
270.0
 51
359.9999999999
  0
ARC
  5
2C4
330
23
100
AcDbEntity
  8
0
  6
Continuous
 62
     7
370
    25
100
AcDbCircle
 10
19.3
 20
774.8
 30
0.0
 40
0.1999999999999744
100
AcDbArc
 50
0.0
 51
90.0
  0
ARC
  5
2C5
330
23
100
AcDbEntity
  8
0
  6
Continuous
 62
     7
370
    25
100
AcDbCircle
 10
20.2
 20
774.8
 30
0.0
 40
0.2000000000001592
100
AcDbArc
 50
90.0
 51
179.9999999999
  0
ARC
  5
2C6
330
23
100
AcDbEntity
  8
0
  6
Continuous
 62
     7
370
    25
100
AcDbCircle
 10
20.2
 20
755.2
 30
0.0
 40
0.1999999999999709
100
AcDbArc
 50
180.0
 51
270.0
  0
ARC
  5
2C7
330
23
100
AcDbEntity
  8
0
  6
Continuous
 62
     7
370
    25
100
AcDbCircle
 10
27.7
 20
730.2
 30
0.0
 40
0.1999999999999744
100
AcDbArc
 50
180.0
 51
270.0
  0
ARC
  5
2C8
330
23
100
AcDbEntity
  8
0
  6
Continuous
 62
     7
370
    25
100
AcDbCircle
 10
32.3
 20
730.2
 30
0.0
 40
0.2000000000001592
100
AcDbArc
 50
270.0
 51
359.9999999999
  0
ARC
  5
2C9
330
23
100
AcDbEntity
  8
0
  6
Continuous
 62
     7
370
    25
100
AcDbCircle
 10
0.0
 20
900.0
 30
0.0
 40
10.5
100
AcDbArc
 50
0.0
 51
180.0
  0
ARC
  5
2CA
330
23
100
AcDbEntity
  8
0
  6
Continuous
 62
     7
370
    25
100
AcDbCircle
 10
0.0
 20
765.0
 30
0.0
 40
17.50000000000006
100
AcDbArc
 50
143.1301023542
 51
216.8698976458
  0
ARC
  5
2CB
330
23
100
AcDbEntity
  8
0
  6
Continuous
 62
     7
370
    25
100
AcDbCircle
 10
0.0
 20
765.0
 30
0.0
 40
32.50000000000052
100
AcDbArc
 50
115.5163873662
 51
244.4836126338
  0
ARC
  5
2CC
330
23
100
AcDbEntity
  8
0
  6
Continuous
 62
     7
370
    25
100
AcDbCircle
 10
0.0
 20
765.0
 30
0.0
 40
32.50000000000004
100
AcDbArc
 50
17.9202131394
 51
64.4836126338
  0
ARC
  5
2CD
330
23
100
AcDbEntity
  8
0
  6
Continuous
 62
     7
370
    25
100
AcDbCircle
 10
0.0
 20
765.0
 30
0.0
 40
32.50000000000091
100
AcDbArc
 50
295.5163873662
 51
327.795772496
  0
ARC
  5
2CE
330
23
100
AcDbEntity
  8
0
  6
Continuous
 62
     8
370
    25
100
AcDbCircle
 10
0.0
 20
765.0
 30
0.0
 40
17.2999999999999
100
AcDbArc
 50
144.0225780433
 51
215.9774219567
  0
ARC
  5
2CF
330
23
100
AcDbEntity
  8
0
  6
Continuous
 62
     8
370
    25
100
AcDbCircle
 10
0.0
 20
765.0
 30
0.0
 40
17.70000000000001
100
AcDbArc
 50
142.2753580183
 51
217.7246419817
  0
ARC
  5
2D0
330
23
100
AcDbEntity
  8
0
  6
Continuous
 62
     8
370
    25
100
AcDbCircle
 10
0.0
 20
765.0
 30
0.0
 40
32.30000000000018
100
AcDbArc
 50
115.6858496699
 51
244.3141503301
  0
ARC
  5
2D1
330
23
100
AcDbEntity
  8
0
  6
Continuous
 62
     8
370
    25
100
AcDbCircle
 10
0.0
 20
765.0
 30
0.0
 40
32.30000000000124
100
AcDbArc
 50
295.6858496699
 51
328.3635251465
  0
ARC
  5
2D2
330
23
100
AcDbEntity
  8
0
  6
Continuous
 62
     8
370
    25
100
AcDbCircle
 10
0.0
 20
765.0
 30
0.0
 40
32.30000000000044
100
AcDbArc
 50
18.0349770527
 51
64.3141503301
  0
VIEWPORT
  5
32C
330
23
100
AcDbEntity
  8
0
100
AcDbViewport
 10
0.0
 20
0.0
 30
0.0
 40
205.6
 41
156.0
 68
     1
 69
     1
 12
-147.75
 22
455.25
 13
0.0
 23
0.0
 14
10.0
 24
10.0
 15
10.0
 25
10.0
 16
0.0
 26
0.0
 36
1.0
 17
0.0
 27
0.0
 37
0.0
 42
50.0
 43
0.0
 44
0.0
 45
928.71
 50
0.0
 51
0.0
 72
   100
 90
   557152
  1

281
     0
 71
     1
 74
     0
110
0.0
120
0.0
130
0.0
111
1.0
121
0.0
131
0.0
112
0.0
122
1.0
132
0.0
 79
     0
146
0.0
  0
ENDBLK
  5
25
330
23
100
AcDbEntity
  8
0
100
AcDbBlockEnd
  0
BLOCK
  5
2D5
330
2D3
100
AcDbEntity
  8
0
100
AcDbBlockBegin
  2
*Paper_Space1
 70
     0
 10
0.0
 20
0.0
 30
0.0
  3
*Paper_Space1
  1

  0
CIRCLE
  5
2F1
330
2D3
100
AcDbEntity
  8
0
  6
Continuous
 62
     7
370
    25
100
AcDbCircle
 10
0.0
 20
765.0
 30
0.0
 40
32.49999999999965
  0
SPLINE
  5
2FB
330
2D3
100
AcDbEntity
  8
0
  6
Continuous
 62
     7
370
    25
100
AcDbSpline
210
0.0
220
0.0
230
1.0
 70
     8
 71
     3
 72
    11
 73
     7
 74
     0
 42
0.000000001
 43
0.00000001
 40
0.0
 40
0.0
 40
0.0
 40
0.0
 40
0.2594911938008165
 40
0.5331769212224945
 40
0.8106030739207246
 40
1.0
 40
1.0
 40
1.0
 40
1.0
 10
-30.8365425707653
 20
755.280629650015
 30
0.0
 10
-31.07962201650645
 20
755.2542221370668
 30
0.0
 10
-31.57907769588575
 20
755.1999625830343
 30
0.0
 10
-32.13168771482348
 20
755.0881887960837
 30
0.0
 10
-32.46498265483083
 20
755.0090689577399
 30
0.0
 10
-32.46884491828502
 20
755.0078286382137
 30
0.0
 10
-32.47041189485321
 20
755.0073254225065
 30
0.0
  0
LINE
  5
305
330
2D3
100
AcDbEntity
  8
0
  6
Continuous
 62
     7
370
    25
100
AcDbLine
 10
14.0
 20
730.2
 30
0.0
 11
14.0
 21
735.6699812479
 31
0.0
  0
LINE
  5
306
330
2D3
100
AcDbEntity
  8
0
  6
Continuous
 62
     7
370
    25
100
AcDbLine
 10
14.0
 20
794.3300187521
 30
0.0
 11
14.0
 21
799.8
 31
0.0
  0
LINE
  5
307
330
2D3
100
AcDbEntity
  8
0
  6
Continuous
 62
     7
370
    25
100
AcDbLine
 10
-14.0
 20
735.6699812479
 30
0.0
 11
-14.0
 21
730.2
 31
0.0
  0
LINE
  5
308
330
2D3
100
AcDbEntity
  8
0
  6
Continuous
 62
     7
370
    25
100
AcDbLine
 10
-14.0
 20
799.8
 30
0.0
 11
-14.0
 21
794.3300187521
 31
0.0
  0
LINE
  5
309
330
2D3
100
AcDbEntity
  8
0
  6
Continuous
 62
     7
370
    25
100
AcDbLine
 10
14.0
 20
0.0
 30
0.0
 11
14.0
 21
14.8
 31
0.0
  0
LINE
  5
30A
330
2D3
100
AcDbEntity
  8
0
  6
Continuous
 62
     7
370
    25
100
AcDbLine
 10
-14.0
 20
14.8
 30
0.0
 11
-14.0
 21
0.0
 31
0.0
  0
LINE
  5
30B
330
2D3
100
AcDbEntity
  8
0
  6
Continuous
 62
     7
370
    25
100
AcDbLine
 10
-10.5
 20
730.0
 30
0.0
 11
-10.5
 21
15.0
 31
0.0
  0
LINE
  5
30C
330
2D3
100
AcDbEntity
  8
0
  6
Continuous
 62
     7
370
    25
100
AcDbLine
 10
10.5
 20
15.0
 30
0.0
 11
10.5
 21
730.0
 31
0.0
  0
LINE
  5
30D
330
2D3
100
AcDbEntity
  8
0
  6
Continuous
 62
     7
370
    25
100
AcDbLine
 10
10.5
 20
800.0
 30
0.0
 11
10.5
 21
900.0
 31
0.0
  0
LINE
  5
30E
330
2D3
100
AcDbEntity
  8
0
  6
Continuous
 62
     7
370
    25
100
AcDbLine
 10
-10.5
 20
900.0
 30
0.0
 11
-10.5
 21
800.0
 31
0.0
  0
LINE
  5
30F
330
2D3
100
AcDbEntity
  8
0
  6
Continuous
 62
     7
370
    25
100
AcDbLine
 10
-30.9232921921
 20
775.0
 30
0.0
 11
-39.8
 21
775.0
 31
0.0
  0
LINE
  5
310
330
2D3
100
AcDbEntity
  8
0
  6
Continuous
 62
     7
370
    25
100
AcDbLine
 10
-39.8
 20
755.0
 30
0.0
 11
-32.4704118949
 21
755.0
 31
0.0
  0
LINE
  5
311
330
2D3
100
AcDbEntity
  8
0
  6
Continuous
 62
     7
370
    25
100
AcDbLine
 10
-27.5
 20
730.2
 30
0.0
 11
-27.5
 21
747.6794919243
 31
0.0
  0
LINE
  5
312
330
2D3
100
AcDbEntity
  8
0
  6
Continuous
 62
     7
370
    25
100
AcDbLine
 10
-32.5
 20
755.0072952049
 30
0.0
 11
-32.5
 21
730.2
 31
0.0
  0
LINE
  5
313
330
2D3
100
AcDbEntity
  8
0
  6
Continuous
 62
     7
370
    25
100
AcDbLine
 10
-13.8
 20
800.0
 30
0.0
 11
13.8
 21
800.0
 31
0.0
  0
LINE
  5
314
330
2D3
100
AcDbEntity
  8
0
  6
Continuous
 62
     7
370
    25
100
AcDbLine
 10
13.8
 20
730.0
 30
0.0
 11
-13.8
 21
730.0
 31
0.0
  0
LINE
  5
315
330
2D3
100
AcDbEntity
  8
0
  6
Continuous
 62
     7
370
    25
100
AcDbLine
 10
14.0
 20
0.0
 30
0.0
 11
-14.0
 21
0.0
 31
0.0
  0
LINE
  5
316
330
2D3
100
AcDbEntity
  8
0
  6
Continuous
 62
     7
370
    25
100
AcDbLine
 10
-13.8
 20
15.0
 30
0.0
 11
13.8
 21
15.0
 31
0.0
  0
LINE
  5
317
330
2D3
100
AcDbEntity
  8
0
  6
Continuous
 62
     7
370
    25
100
AcDbLine
 10
-40.0
 20
755.2
 30
0.0
 11
-40.0
 21
774.8
 31
0.0
  0
LINE
  5
318
330
2D3
100
AcDbEntity
  8
0
  6
Continuous
 62
     7
370
    25
100
AcDbLine
 10
-27.7
 20
730.0
 30
0.0
 11
-32.3
 21
730.0
 31
0.0
  0
LINE
  5
319
330
2D3
100
AcDbEntity
  8
0
  6
Continuous
 62
     8
370
    25
100
AcDbLine
 10
14.0
 20
799.8
 30
0.0
 11
-14.0
 21
799.8
 31
0.0
  0
LINE
  5
31A
330
2D3
100
AcDbEntity
  8
0
  6
Continuous
 62
     8
370
    25
100
AcDbLine
 10
-14.0
 20
730.2
 30
0.0
 11
14.0
 21
730.2
 31
0.0
  0
LINE
  5
31B
330
2D3
100
AcDbEntity
  8
0
  6
Continuous
 62
     8
370
    25
100
AcDbLine
 10
14.0
 20
14.8
 30
0.0
 11
-14.0
 21
14.8
 31
0.0
  0
LINE
  5
31C
330
2D3
100
AcDbEntity
  8
0
  6
Continuous
 62
     8
370
    25
100
AcDbLine
 10
-10.5
 20
870.0
 30
0.0
 11
10.5
 21
870.0
 31
0.0
  0
LINE
  5
31D
330
2D3
100
AcDbEntity
  8
0
  6
Continuous
 62
     8
370
    25
100
AcDbLine
 10
-39.8
 20
775.0
 30
0.0
 11
-39.8
 21
755.0
 31
0.0
  0
LINE
  5
31E
330
2D3
100
AcDbEntity
  8
0
  6
Continuous
 62
     8
370
    25
100
AcDbLine
 10
-32.5
 20
730.2
 30
0.0
 11
-27.5
 21
730.2
 31
0.0
  0
ARC
  5
31F
330
2D3
100
AcDbEntity
  8
0
  6
Continuous
 62
     7
370
    25
100
AcDbCircle
 10
-13.8
 20
799.8
 30
0.0
 40
0.2000000000001592
100
AcDbArc
 50
90.0
 51
179.9999999999
  0
ARC
  5
320
330
2D3
100
AcDbEntity
  8
0
  6
Continuous
 62
     7
370
    25
100
AcDbCircle
 10
13.8
 20
799.8
 30
0.0
 40
0.1999999999999709
100
AcDbArc
 50
0.0
 51
90.0
  0
ARC
  5
321
330
2D3
100
AcDbEntity
  8
0
  6
Continuous
 62
     7
370
    25
100
AcDbCircle
 10
-13.8
 20
730.2
 30
0.0
 40
0.1999999999999709
100
AcDbArc
 50
180.0
 51
270.0
  0
ARC
  5
322
330
2D3
100
AcDbEntity
  8
0
  6
Continuous
 62
     7
370
    25
100
AcDbCircle
 10
13.8
 20
730.2
 30
0.0
 40
0.2000000000001592
100
AcDbArc
 50
270.0
 51
359.9999999999
  0
ARC
  5
323
330
2D3
100
AcDbEntity
  8
0
  6
Continuous
 62
     7
370
    25
100
AcDbCircle
 10
13.8
 20
14.8
 30
0.0
 40
0.1999999999999904
100
AcDbArc
 50
360.0
 51
90.0
  0
ARC
  5
324
330
2D3
100
AcDbEntity
  8
0
  6
Continuous
 62
     7
370
    25
100
AcDbCircle
 10
-13.8
 20
14.8
 30
0.0
 40
0.1999999999999957
100
AcDbArc
 50
90.0
 51
180.0
  0
ARC
  5
325
330
2D3
100
AcDbEntity
  8
0
  6
Continuous
 62
     7
370
    25
100
AcDbCircle
 10
-39.8
 20
755.2
 30
0.0
 40
0.1999999999999673
100
AcDbArc
 50
180.0
 51
270.0
  0
ARC
  5
326
330
2D3
100
AcDbEntity
  8
0
  6
Continuous
 62
     7
370
    25
100
AcDbCircle
 10
-39.8
 20
774.8
 30
0.0
 40
0.2000000000001663
100
AcDbArc
 50
90.0
 51
179.9999999999
  0
ARC
  5
327
330
2D3
100
AcDbEntity
  8
0
  6
Continuous
 62
     7
370
    25
100
AcDbCircle
 10
-32.3
 20
730.2
 30
0.0
 40
0.1999999999999744
100
AcDbArc
 50
180.0
 51
270.0
  0
ARC
  5
328
330
2D3
100
AcDbEntity
  8
0
  6
Continuous
 62
     7
370
    25
100
AcDbCircle
 10
-27.7
 20
730.2
 30
0.0
 40
0.2000000000001627
100
AcDbArc
 50
270.0
 51
359.9999999999
  0
ARC
  5
329
330
2D3
100
AcDbEntity
  8
0
  6
Continuous
 62
     7
370
    25
100
AcDbCircle
 10
0.0
 20
900.0
 30
0.0
 40
10.5
100
AcDbArc
 50
0.0
 51
180.0
  0
VIEWPORT
  5
32E
330
2D3
100
AcDbEntity
  8
0
100
AcDbViewport
 10
0.0
 20
0.0
 30
0.0
 40
205.6
 41
156.0
 68
     1
 69
     1
 12
-147.75
 22
455.25
 13
0.0
 23
0.0
 14
10.0
 24
10.0
 15
10.0
 25
10.0
 16
0.0
 26
0.0
 36
1.0
 17
0.0
 27
0.0
 37
0.0
 42
50.0
 43
0.0
 44
0.0
 45
928.71
 50
0.0
 51
0.0
 72
   100
 90
   557152
  1

281
     0
 71
     1
 74
     0
110
0.0
120
0.0
130
0.0
111
1.0
121
0.0
131
0.0
112
0.0
122
1.0
132
0.0
 79
     0
146
0.0
  0
ENDBLK
  5
2D6
330
2D3
100
AcDbEntity
  8
0
100
AcDbBlockEnd
  0
ENDSEC
  0
SECTION
  2
ENTITIES
  0
SPLINE
  5
A5
330
1F
100
AcDbEntity
  8
0
  6
Continuous
 62
     7
370
    25
100
AcDbSpline
210
0.0
220
0.0
230
1.0
 70
     8
 71
     3
 72
     9
 73
     5
 74
     0
 42
0.000000001
 43
0.00000001
 40
0.0
 40
0.0
 40
0.0
 40
0.0
 40
0.5046830416798211
 40
1.0
 40
1.0
 40
1.0
 40
1.0
 10
-365.3045035632695
 20
833.0851125603432
 30
0.0
 10
-365.1691604064789
 20
833.0069146728321
 30
0.0
 10
-364.9009858382586
 20
832.8519701213947
 30
0.0
 10
-364.6328247396852
 20
832.697010785769
 30
0.0
 10
-364.5000000000001
 20
832.6202567989836
 30
0.0
  0
SPLINE
  5
A6
330
1F
100
AcDbEntity
  8
0
  6
Continuous
 62
     7
370
    25
100
AcDbSpline
210
0.0
220
0.0
230
1.0
 70
     8
 71
     3
 72
     9
 73
     5
 74
     0
 42
0.000000001
 43
0.00000001
 40
0.0
 40
0.0
 40
0.0
 40
0.0
 40
0.5043602722779399
 40
1.0
 40
1.0
 40
1.0
 40
1.0
 10
-365.3045035632695
 20
834.5851125603433
 30
0.0
 10
-365.1692447143803
 20
834.5069665427367
 30
0.0
 10
-364.901065683787
 20
834.3520256762532
 30
0.0
 10
-364.6329090706984
 20
834.1970627205608
 30
0.0
 10
-364.5000000000001
 20
834.1202569233941
 30
0.0
  0
SPLINE
  5
A7
330
1F
100
AcDbEntity
  8
0
  6
Continuous
 62
     7
370
    25
100
AcDbSpline
210
0.0
220
0.0
230
1.0
 70
     8
 71
     3
 72
     9
 73
     5
 74
     0
 42
0.000000001
 43
0.00000001
 40
0.0
 40
0.0
 40
0.0
 40
0.0
 40
0.5040424327198638
 40
1.0
 40
1.0
 40
1.0
 40
1.0
 10
-365.3045035632695
 20
836.0851125603432
 30
0.0
 10
-365.1693274527303
 20
836.0070187666316
 30
0.0
 10
-364.9011434631209
 20
835.8520838075046
 30
0.0
 10
-364.6329918310862
 20
835.6971150335937
 30
0.0
 10
-364.5000000000001
 20
835.6202570974806
 30
0.0
  0
SPLINE
  5
A8
330
1F
100
AcDbEntity
  8
0
  6
Continuous
 62
     7
370
    25
100
AcDbSpline
210
0.0
220
0.0
230
1.0
 70
     8
 71
     3
 72
     9
 73
     5
 74
     0
 42
0.000000001
 43
0.00000001
 40
0.0
 40
0.0
 40
0.0
 40
0.0
 40
0.5037298826964474
 40
1.0
 40
1.0
 40
1.0
 40
1.0
 10
-365.3045035632695
 20
837.5851125603433
 30
0.0
 10
-365.1694086714643
 20
837.5070713714168
 30
0.0
 10
-364.9012195160342
 20
837.3521447101103
 30
0.0
 10
-364.6330730688157
 20
837.1971677535507
 30
0.0
 10
-364.5000000000001
 20
837.1202573211393
 30
0.0
  0
SPLINE
  5
A9
330
1F
100
AcDbEntity
  8
0
  6
Continuous
 62
     7
370
    25
100
AcDbSpline
210
0.0
220
0.0
230
1.0
 70
     8
 71
     3
 72
     9
 73
     5
 74
     0
 42
0.000000001
 43
0.00000001
 40
0.0
 40
0.0
 40
0.0
 40
0.0
 40
0.5034229676729144
 40
0.9999999999999999
 40
0.9999999999999999
 40
0.9999999999999999
 40
0.9999999999999999
 10
-365.3045035632695
 20
839.0851125603432
 30
0.0
 10
-365.1694884183287
 20
839.0071243827925
 30
0.0
 10
-364.9012941689384
 20
838.8522085713204
 30
0.0
 10
-364.6331528302235
 20
838.6972209081127
 30
0.0
 10
-364.5000000000001
 20
838.6202575942697
 30
0.0
  0
SPLINE
  5
AA
330
1F
100
AcDbEntity
  8
0
  6
Continuous
 62
     7
370
    25
100
AcDbSpline
210
0.0
220
0.0
230
1.0
 70
     8
 71
     3
 72
     9
 73
     5
 74
     0
 42
0.000000001
 43
0.00000001
 40
0.0
 40
0.0
 40
0.0
 40
0.0
 40
0.5003120106134686
 40
0.9999999999999999
 40
0.9999999999999999
 40
0.9999999999999999
 40
0.9999999999999999
 10
-345.5080402468075
 20
831.8656108000243
 30
0.0
 10
-345.3725349167971
 20
831.9439138158552
 30
0.0
 10
-345.1016932677144
 20
832.1004221829735
 30
0.0
 10
-344.8308380519817
 20
832.2569155679349
 30
0.0
 10
-344.6954949538175
 20
832.3351134328185
 30
0.0
  0
SPLINE
  5
AB
330
1F
100
AcDbEntity
  8
0
  6
Continuous
 62
     7
370
    25
100
AcDbSpline
210
0.0
220
0.0
230
1.0
 70
     8
 71
     3
 72
     9
 73
     5
 74
     0
 42
0.000000001
 43
0.00000001
 40
0.0
 40
0.0
 40
0.0
 40
0.0
 40
0.5006315807273385
 40
0.9999999999999999
 40
0.9999999999999999
 40
0.9999999999999999
 40
0.9999999999999999
 10
-345.5080402468075
 20
833.3656108000243
 30
0.0
 10
-345.3724506139437
 20
833.4439656904837
 30
0.0
 10
-345.1016134592705
 20
833.6004777713747
 30
0.0
 10
-344.8307537424507
 20
833.7569674362418
 30
0.0
 10
-344.6954949538175
 20
833.8351134328186
 30
0.0
  0
SPLINE
  5
AC
330
1F
100
AcDbEntity
  8
0
  6
Continuous
 62
     7
370
    25
100
AcDbSpline
210
0.0
220
0.0
230
1.0
 70
     8
 71
     3
 72
     9
 73
     5
 74
     0
 42
0.000000001
 43
0.00000001
 40
0.0
 40
0.0
 40
0.0
 40
0.0
 40
0.5009462759344206
 40
1.0
 40
1.0
 40
1.0
 40
1.0
 10
-345.5080402468075
 20
834.8656108000243
 30
0.0
 10
-345.372367884215
 20
834.9440179212769
 30
0.0
 10
-345.1015357229427
 20
835.1005359453032
 30
0.0
 10
-344.8306710016811
 20
835.2570196548256
 30
0.0
 10
-344.6954949538175
 20
835.3351134328185
 30
0.0
  0
SPLINE
  5
AD
330
1F
100
AcDbEntity
  8
0
  6
Continuous
 62
     7
370
    25
100
AcDbSpline
210
0.0
220
0.0
230
1.0
 70
     8
 71
     3
 72
     9
 73
     5
 74
     0
 42
0.000000001
 43
0.00000001
 40
0.0
 40
0.0
 40
0.0
 40
0.0
 40
0.5012557365601022
 40
1.0
 40
1.0
 40
1.0
 40
1.0
 10
-345.5080402468075
 20
836.3656108000243
 30
0.0
 10
-345.3722866782055
 20
836.4440705378278
 30
0.0
 10
-345.1014597156382
 20
836.6005969016792
 30
0.0
 10
-344.8305897802372
 20
836.7570722503162
 30
0.0
 10
-344.6954949538175
 20
836.8351134328186
 30
0.0
  0
SPLINE
  5
AE
330
1F
100
AcDbEntity
  8
0
  6
Continuous
 62
     7
370
    25
100
AcDbSpline
210
0.0
220
0.0
230
1.0
 70
     8
 71
     3
 72
     9
 73
     5
 74
     0
 42
0.000000001
 43
0.00000001
 40
0.0
 40
0.0
 40
0.0
 40
0.0
 40
0.5015596171742218
 40
1.0
 40
1.0
 40
1.0
 40
1.0
 10
-345.5080402468075
 20
837.8656108000243
 30
0.0
 10
-345.3722069481946
 20
837.9441235686947
 30
0.0
 10
-345.1013851077557
 20
838.1006608296341
 30
0.0
 10
-344.830510030849
 20
838.2571252481532
 30
0.0
 10
-344.6954949538175
 20
838.3351134328185
 30
0.0
  0
SPLINE
  5
AF
330
1F
100
AcDbEntity
  8
0
  6
Continuous
 62
     7
370
    25
100
AcDbSpline
210
0.0
220
0.0
230
1.0
 70
     8
 71
     3
 72
     9
 73
     5
 74
     0
 42
0.000000001
 43
0.00000001
 40
0.0
 40
0.0
 40
0.0
 40
0.0
 40
0.501857587855668
 40
1.0
 40
1.0
 40
1.0
 40
1.0
 10
-345.5080402468075
 20
839.3656108000243
 30
0.0
 10
-345.3721286483396
 20
839.4441770412847
 30
0.0
 10
-345.1013115843818
 20
839.6007279098206
 30
0.0
 10
-344.8304317085605
 20
839.7571786725103
 30
0.0
 10
-344.6954949538175
 20
839.8351134328186
 30
0.0
  0
SPLINE
  5
B0
330
1F
100
AcDbEntity
  8
0
  6
Continuous
 62
     7
370
    25
100
AcDbSpline
210
0.0
220
0.0
230
1.0
 70
     8
 71
     3
 72
     9
 73
     5
 74
     0
 42
0.000000001
 43
0.00000001
 40
0.0
 40
0.0
 40
0.0
 40
0.0
 40
0.4999879381535743
 40
1.0
 40
1.0
 40
1.0
 40
1.0
 10
-345.5080402468075
 20
830.3656108000243
 30
0.0
 10
-345.3726208436598
 20
830.4438622668886
 30
0.0
 10
-345.1017755035742
 20
830.6003689761362
 30
0.0
 10
-344.8309239817161
 20
830.7568640221782
 30
0.0
 10
-344.6954949538175
 20
830.8351134328186
 30
0.0
  0
SPLINE
  5
B1
330
1F
100
AcDbEntity
  8
0
  6
Continuous
 62
     7
370
    25
100
AcDbSpline
210
0.0
220
0.0
230
1.0
 70
     8
 71
     3
 72
     9
 73
     5
 74
     0
 42
0.000000001
 43
0.00000001
 40
0.0
 40
0.0
 40
0.0
 40
0.0
 40
0.5050103683679089
 40
1.0
 40
1.0
 40
1.0
 40
1.0
 10
-365.3045035632695
 20
831.5851125603433
 30
0.0
 10
-365.1690744770661
 20
831.5068631289071
 30
0.0
 10
-364.9009035746726
 20
831.3519169409925
 30
0.0
 10
-364.63273878865
 20
831.1969591996584
 30
0.0
 10
-364.5000000000001
 20
831.1202567243571
 30
0.0
  0
SPLINE
  5
B2
330
1F
100
AcDbEntity
  8
0
  6
Continuous
 62
     7
370
    25
100
AcDbSpline
210
0.0
220
0.0
230
1.0
 70
     8
 71
     3
 72
     9
 73
     5
 74
     0
 42
0.000000001
 43
0.00000001
 40
0.0
 40
0.0
 40
0.0
 40
0.0
 40
0.4996597933238865
 40
1.0
 40
1.0
 40
1.0
 40
1.0
 10
-364.4919572448375
 20
833.7593906721249
 30
0.0
 10
-364.6272889768231
 20
833.6811904856108
 30
0.0
 10
-364.8981367292213
 20
833.5246836232244
 30
0.0
 10
-365.1689856900837
 20
833.3681888146831
 30
0.0
 10
-365.3045023151396
 20
833.2898881698338
 30
0.0
  0
SPLINE
  5
B3
330
1F
100
AcDbEntity
  8
0
  6
Continuous
 62
     7
370
    25
100
AcDbSpline
210
0.0
220
0.0
230
1.0
 70
     8
 71
     3
 72
     9
 73
     5
 74
     0
 42
0.000000001
 43
0.00000001
 40
0.0
 40
0.0
 40
0.0
 40
0.0
 40
0.4993279197988558
 40
1.0
 40
1.0
 40
1.0
 40
1.0
 10
-364.4919572448375
 20
835.2593906721249
 30
0.0
 10
-364.6271996162831
 20
835.1812414813865
 30
0.0
 10
-364.8980484234157
 20
835.0247327270397
 30
0.0
 10
-365.1688963302211
 20
834.8682398060981
 30
0.0
 10
-365.3045023151396
 20
834.789888169834
 30
0.0
  0
SPLINE
  5
B4
330
1F
100
AcDbEntity
  8
0
  6
Continuous
 62
     7
370
    25
100
AcDbSpline
210
0.0
220
0.0
230
1.0
 70
     8
 71
     3
 72
     9
 73
     5
 74
     0
 42
0.000000001
 43
0.00000001
 40
0.0
 40
0.0
 40
0.0
 40
0.0
 40
0.4989927240423867
 40
1.0
 40
1.0
 40
1.0
 40
1.0
 10
-364.4919572448375
 20
836.7593906721249
 30
0.0
 10
-364.6271084724057
 20
836.681292247136
 30
0.0
 10
-364.8979565650857
 20
836.5247800953028
 30
0.0
 10
-365.1688051855859
 20
836.3682905637522
 30
0.0
 10
-365.3045023151396
 20
836.2898881698338
 30
0.0
  0
SPLINE
  5
B5
330
1F
100
AcDbEntity
  8
0
  6
Continuous
 62
     7
370
    25
100
AcDbSpline
210
0.0
220
0.0
230
1.0
 70
     8
 71
     3
 72
     9
 73
     5
 74
     0
 42
0.000000001
 43
0.00000001
 40
0.0
 40
0.0
 40
0.0
 40
0.0
 40
0.4986546150396849
 40
1.0
 40
1.0
 40
1.0
 40
1.0
 10
-364.4919572448375
 20
838.2593906721249
 30
0.0
 10
-364.6270154905852
 20
838.1813428156664
 30
0.0
 10
-364.8978607643967
 20
838.0248259518809
 30
0.0
 10
-365.1687121985946
 20
837.8683411187435
 30
0.0
 10
-365.3045023151396
 20
837.789888169834
 30
0.0
  0
SPLINE
  5
B6
330
1F
100
AcDbEntity
  8
0
  6
Continuous
 62
     7
370
    25
100
AcDbSpline
210
0.0
220
0.0
230
1.0
 70
     8
 71
     3
 72
     9
 73
     5
 74
     0
 42
0.000000001
 43
0.00000001
 40
0.0
 40
0.0
 40
0.0
 40
0.0
 40
0.4983140068624889
 40
0.9999999999999999
 40
0.9999999999999999
 40
0.9999999999999999
 40
0.9999999999999999
 10
-364.4919572448375
 20
839.7593906721249
 30
0.0
 10
-364.6269206158523
 20
839.6813932200185
 30
0.0
 10
-364.8977606266812
 20
839.5248705234212
 30
0.0
 10
-365.1686173106465
 20
839.3683915027332
 30
0.0
 10
-365.3045023151396
 20
839.2898881698338
 30
0.0
  0
SPLINE
  5
B7
330
1F
100
AcDbEntity
  8
0
  6
Continuous
 62
     7
370
    25
100
AcDbSpline
210
0.0
220
0.0
230
1.0
 70
     8
 71
     3
 72
     9
 73
     5
 74
     0
 42
0.000000001
 43
0.00000001
 40
0.0
 40
0.0
 40
0.0
 40
0.0
 40
0.5053407872145399
 40
1.0
 40
1.0
 40
1.0
 40
1.0
 10
-344.6954953711368
 20
832.5398868086243
 30
0.0
 10
-344.8310119814964
 20
832.6181874465755
 30
0.0
 10
-345.0991807376869
 20
832.7731336530412
 30
0.0
 10
-345.3673483968326
 20
832.9280918032804
 30
0.0
 10
-345.5000000000001
 20
833.0047432798924
 30
0.0
  0
SPLINE
  5
B8
330
1F
100
AcDbEntity
  8
0
  6
Continuous
 62
     7
370
    25
100
AcDbSpline
210
0.0
220
0.0
230
1.0
 70
     8
 71
     3
 72
     9
 73
     5
 74
     0
 42
0.000000001
 43
0.00000001
 40
0.0
 40
0.0
 40
0.0
 40
0.0
 40
0.5056759719294274
 40
1.0
 40
1.0
 40
1.0
 40
1.0
 10
-344.6954953711368
 20
834.0398868086243
 30
0.0
 10
-344.8311013188276
 20
834.1182384339412
 30
0.0
 10
-345.0992689898629
 20
834.2731827652251
 30
0.0
 10
-345.3674377421612
 20
834.428142790826
 30
0.0
 10
-345.5000000000001
 20
834.5047432548711
 30
0.0
  0
SPLINE
  5
B9
330
1F
100
AcDbEntity
  8
0
  6
Continuous
 62
     7
370
    25
100
AcDbSpline
210
0.0
220
0.0
230
1.0
 70
     8
 71
     3
 72
     9
 73
     5
 74
     0
 42
0.000000001
 43
0.00000001
 40
0.0
 40
0.0
 40
0.0
 40
0.0
 40
0.5060145340744111
 40
1.0
 40
1.0
 40
1.0
 40
1.0
 10
-344.6954953711368
 20
835.5398868086243
 30
0.0
 10
-344.8311924438611
 20
835.6182891850223
 30
0.0
 10
-345.099360774189
 20
835.7732301424817
 30
0.0
 10
-345.3675288621315
 20
835.9281935223347
 30
0.0
 10
-345.5000000000001
 20
836.0047431797325
 30
0.0
  0
SPLINE
  5
BA
330
1F
100
AcDbEntity
  8
0
  6
Continuous
 62
     7
370
    25
100
AcDbSpline
210
0.0
220
0.0
230
1.0
 70
     8
 71
     3
 72
     9
 73
     5
 74
     0
 42
0.000000001
 43
0.00000001
 40
0.0
 40
0.0
 40
0.0
 40
0.0
 40
0.5063560648260219
 40
1.0
 40
1.0
 40
1.0
 40
1.0
 10
-344.6954953711368
 20
837.0398868086243
 30
0.0
 10
-344.8312854147518
 20
837.11833973123
 30
0.0
 10
-345.0994564766739
 20
837.2732760064233
 30
0.0
 10
-345.3676218097186
 20
837.4282440295784
 30
0.0
 10
-345.5000000000001
 20
837.5047430543548
 30
0.0
  0
SPLINE
  5
BB
330
1F
100
AcDbEntity
  8
0
  6
Continuous
 62
     7
370
    25
100
AcDbSpline
210
0.0
220
0.0
230
1.0
 70
     8
 71
     3
 72
     9
 73
     5
 74
     0
 42
0.000000001
 43
0.00000001
 40
0.0
 40
0.0
 40
0.0
 40
0.0
 40
0.5067001503003512
 40
1.0
 40
1.0
 40
1.0
 40
1.0
 10
-344.6954953711368
 20
838.5398868086243
 30
0.0
 10
-344.831380290683
 20
838.6183901045415
 30
0.0
 10
-345.0995564881157
 20
838.7733205814137
 30
0.0
 10
-345.3677166382456
 20
838.9282943445503
 30
0.0
 10
-345.5000000000001
 20
839.0047428786127
 30
0.0
  0
SPLINE
  5
BC
330
1F
100
AcDbEntity
  8
0
  6
Continuous
 62
     7
370
    25
100
AcDbSpline
210
0.0
220
0.0
230
1.0
 70
     8
 71
     3
 72
     9
 73
     5
 74
     0
 42
0.000000001
 43
0.00000001
 40
0.0
 40
0.0
 40
0.0
 40
0.0
 40
0.5050093820406442
 40
1.0
 40
1.0
 40
1.0
 40
1.0
 10
-344.6954953711368
 20
831.0398868086243
 30
0.0
 10
-344.8309243749594
 20
831.118136192199
 30
0.0
 10
-345.0990956379871
 20
831.2730825879645
 30
0.0
 10
-345.3672607737391
 20
831.4280405282797
 30
0.0
 10
-345.5000000000001
 20
831.5047432549142
 30
0.0
  0
SPLINE
  5
BD
330
1F
100
AcDbEntity
  8
0
  6
Continuous
 62
     7
370
    25
100
AcDbSpline
210
0.0
220
0.0
230
1.0
 70
     8
 71
     3
 72
     9
 73
     5
 74
     0
 42
0.000000001
 43
0.00000001
 40
0.0
 40
0.0
 40
0.0
 40
0.0
 40
0.4999879423707417
 40
1.0
 40
1.0
 40
1.0
 40
1.0
 10
-364.4919572448375
 20
832.2593906721249
 30
0.0
 10
-364.6273766080374
 20
832.1811392273728
 30
0.0
 10
-364.8982218659404
 20
832.02463256367
 30
0.0
 10
-365.1690733215223
 20
831.8681375590852
 30
0.0
 10
-365.3045023151396
 20
831.789888169834
 30
0.0
  0
CIRCLE
  5
D0
330
1F
100
AcDbEntity
  8
0
  6
Continuous
 62
     7
370
    25
100
AcDbCircle
 10
0.0
 20
765.0
 30
0.0
 40
9.800000000000026
  0
CIRCLE
  5
D1
330
1F
100
AcDbEntity
  8
0
  6
Continuous
 62
     7
370
    25
100
AcDbCircle
 10
0.0
 20
765.0
 30
0.0
 40
9.999999999999991
  0
SPLINE
  5
D8
330
1F
100
AcDbEntity
  8
0
  6
Continuous
 62
     7
370
    25
100
AcDbSpline
210
0.0
220
0.0
230
1.0
 70
     8
 71
     3
 72
    18
 73
    14
 74
     0
 42
0.000000001
 43
0.00000001
 40
0.0
 40
0.0
 40
0.0
 40
0.0
 40
0.0261538764180149
 40
0.1197918439066002
 40
0.2158061684886796
 40
0.3222641693647345
 40
0.4358647695550753
 40
0.538210550024522
 40
0.6280332681076956
 40
0.7236947021735517
 40
0.8333448236978686
 40
0.9455704252382251
 40
1.0
 40
1.0
 40
1.0
 40
1.0
 10
13.95905580162882
 20
757.5770798975586
 30
0.0
 10
13.97148219041314
 20
757.5536649814825
 30
0.0
 10
14.02839841964737
 20
757.4464183184316
 30
0.0
 10
13.74141028248249
 20
757.98178471172
 30
0.0
 10
13.18313423391315
 20
759.1194990651138
 30
0.0
 10
12.43428748697895
 20
760.966361912397
 30
0.0
 10
11.84527139287003
 20
763.3386015150322
 30
0.0
 10
11.77457561367648
 20
765.8416884530486
 30
0.0
 10
12.15970341896738
 20
768.0619931519243
 30
0.0
 10
12.80489976758176
 20
770.0148735516991
 30
0.0
 10
13.52448490636218
 20
771.6022099646962
 30
0.0
 10
13.95014579196815
 20
772.4070135995515
 30
0.0
 10
13.9877262301891
 20
772.4771073752909
 30
0.0
 10
14.00000000000001
 20
772.5
 30
0.0
  0
SPLINE
  5
DE
330
1F
100
AcDbEntity
  8
0
  6
Continuous
 62
     7
370
    25
100
AcDbSpline
210
0.0
220
0.0
230
1.0
 70
     8
 71
     3
 72
    12
 73
     8
 74
     0
 42
0.000000001
 43
0.00000001
 40
0.0
 40
0.0
 40
0.0
 40
0.0
 40
0.2130535363457419
 40
0.4283981166361572
 40
0.6395349519531086
 40
0.855343991453545
 40
1.0
 40
1.0
 40
1.0
 40
1.0
 10
-355.0000000000001
 20
830.4687499979517
 30
0.0
 10
-353.8786267326609
 20
830.4943377245012
 30
0.0
 10
-351.6238216540223
 20
830.5457883319438
 30
0.0
 10
-348.6045379351434
 20
830.627209850927
 30
0.0
 10
-346.2946147731863
 20
830.700771850481
 30
0.0
 10
-344.924923020138
 20
830.7745555353849
 30
0.0
 10
-344.8448163623943
 20
830.8172229235611
 30
0.0
 10
-344.8126692529034
 20
830.8343455103474
 30
0.0
  0
SPLINE
  5
DF
330
1F
100
AcDbEntity
  8
0
  6
Continuous
 62
     7
370
    25
100
AcDbSpline
210
0.0
220
0.0
230
1.0
 70
     8
 71
     3
 72
    17
 73
    13
 74
     0
 42
0.000000001
 43
0.00000001
 40
0.0
 40
0.0
 40
0.0
 40
0.0
 40
0.0627935589080469
 40
0.1693369766506318
 40
0.2738888190826943
 40
0.3797491979194222
 40
0.4856059154562844
 40
0.5901608211022261
 40
0.6967034965668785
 40
0.8009393574638892
 40
0.9072547041986515
 40
1.0
 40
1.0
 40
1.0
 40
1.0
 10
-365.1830001866678
 20
831.5938674277837
 30
0.0
 10
-365.1957046894898
 20
831.6088299853502
 30
0.0
 10
-365.229965243202
 20
831.6491798923373
 30
0.0
 10
-364.0634810908304
 20
831.720735091039
 30
0.0
 10
-361.9270997577941
 20
831.7954954082912
 30
0.0
 10
-359.0137474848182
 20
831.8750531150451
 30
0.0
 10
-355.6847278012241
 20
831.9546021674089
 30
0.0
 10
-352.2766755721991
 20
832.0293571797602
 30
0.0
 10
-349.1647281261427
 20
832.1117976962009
 30
0.0
 10
-346.6863946509566
 20
832.1853424320325
 30
0.0
 10
-345.0597680432815
 20
832.2636253380789
 30
0.0
 10
-344.8500675551351
 20
832.3120746406523
 30
0.0
 10
-344.7523649979896
 20
832.3346478868817
 30
0.0
  0
SPLINE
  5
E0
330
1F
100
AcDbEntity
  8
0
  6
Continuous
 62
     7
370
    25
100
AcDbSpline
210
0.0
220
0.0
230
1.0
 70
     8
 71
     3
 72
    18
 73
    14
 74
     0
 42
0.000000001
 43
0.00000001
 40
0.0
 40
0.0
 40
0.0
 40
0.0
 40
0.0412084310098567
 40
0.1462558286098952
 40
0.2501784745357392
 40
0.3541111111809908
 40
0.4591541300726603
 40
0.562147823008095
 40
0.6674203265137445
 40
0.7707225261669404
 40
0.875322064558648
 40
0.9799131618634096
 40
1.0
 40
1.0
 40
1.0
 40
1.0
 10
-365.182727852066
 20
833.0935760434465
 30
0.0
 10
-365.2148366991665
 20
833.103558777068
 30
0.0
 10
-365.3287965351352
 20
833.1389892203487
 30
0.0
 10
-364.3732634321549
 20
833.2043286677961
 30
0.0
 10
-362.4303892137989
 20
833.2813369668385
 30
0.0
 10
-359.6333608345857
 20
833.3583968639559
 30
0.0
 10
-356.3688013597993
 20
833.4398069643272
 30
0.0
 10
-352.9417370011699
 20
833.5133758371334
 30
0.0
 10
-349.7555615238073
 20
833.5958171406972
 30
0.0
 10
-347.0886787322289
 20
833.6705542588254
 30
0.0
 10
-345.3583610689572
 20
833.7501281970493
 30
0.0
 10
-344.5831409294055
 20
833.8084771649809
 30
0.0
 10
-344.7464282924501
 20
833.8390370182102
 30
0.0
 10
-344.7727354880225
 20
833.8439605102708
 30
0.0
  0
SPLINE
  5
E1
330
1F
100
AcDbEntity
  8
0
  6
Continuous
 62
     7
370
    25
100
AcDbSpline
210
0.0
220
0.0
230
1.0
 70
     8
 71
     3
 72
    18
 73
    14
 74
     0
 42
0.000000001
 43
0.00000001
 40
0.0
 40
0.0
 40
0.0
 40
0.0
 40
0.0328166497600485
 40
0.1373735602155436
 40
0.241919622393351
 40
0.3451866098432566
 40
0.4504130429373069
 40
0.5533608883581865
 40
0.6583657197009075
 40
0.7622414987770945
 40
0.8661339102281383
 40
0.9711314467826604
 40
1.0
 40
1.0
 40
1.0
 40
1.0
 10
-365.1872744511484
 20
834.5844111876703
 30
0.0
 10
-365.2337269010698
 20
834.5924487223559
 30
0.0
 10
-365.4281811940305
 20
834.6260945930698
 30
0.0
 10
-364.6485259089716
 20
834.6876383235292
 30
0.0
 10
-362.900495084934
 20
834.7672018095495
 30
0.0
 10
-360.2350024993125
 20
834.8419617261721
 30
0.0
 10
-357.0464593989643
 20
834.9243960725255
 30
0.0
 10
-353.6193059491793
 20
834.9979546102078
 30
0.0
 10
-350.3567543628096
 20
835.0793876348325
 30
0.0
 10
-347.5587395868166
 20
835.1564117518254
 30
0.0
 10
-345.6309829977095
 20
835.2334207257601
 30
0.0
 10
-344.6911241192087
 20
835.295657243235
 30
0.0
 10
-344.7839677503258
 20
835.3281569919961
 30
0.0
 10
-344.8039897089142
 20
835.3351656431661
 30
0.0
  0
SPLINE
  5
E2
330
1F
100
AcDbEntity
  8
0
  6
Continuous
 62
     7
370
    25
100
AcDbSpline
210
0.0
220
0.0
230
1.0
 70
     8
 71
     3
 72
    18
 73
    14
 74
     0
 42
0.000000001
 43
0.00000001
 40
0.0
 40
0.0
 40
0.0
 40
0.0
 40
0.0124151305457282
 40
0.1163180298123305
 40
0.2213237518400769
 40
0.324284068421878
 40
0.4295221184346707
 40
0.53278680129748
 40
0.6373549948474209
 40
0.7419075173349408
 40
0.8451853113378649
 40
0.9504201842594103
 40
1.0
 40
1.0
 40
1.0
 40
1.0
 10
-365.2471547194897
 20
836.0846738645583
 30
0.0
 10
-365.2708217723233
 20
836.0877631772333
 30
0.0
 10
-365.4925596708429
 20
836.1167071148349
 30
0.0
 10
-364.8688212740429
 20
836.1709004547905
 30
0.0
 10
-363.3417179490432
 20
836.2524321631713
 30
0.0
 10
-360.815769752763
 20
836.325970373647
 30
0.0
 10
-357.7144797119797
 20
836.4084239531189
 30
0.0
 10
-354.3026203492146
 20
836.483148655516
 30
0.0
 10
-350.9760559036408
 20
836.5627326503094
 30
0.0
 10
-348.062071108067
 20
836.6422643327146
 30
0.0
 10
-345.937561481937
 20
836.7170102048062
 30
0.0
 10
-344.8002121045165
 20
836.78540668601
 30
0.0
 10
-344.822582703959
 20
836.8228104336182
 30
0.0
 10
-344.8297469479204
 20
836.8347890832571
 30
0.0
  0
SPLINE
  5
E3
330
1F
100
AcDbEntity
  8
0
  6
Continuous
 62
     7
370
    25
100
AcDbSpline
210
0.0
220
0.0
230
1.0
 70
     8
 71
     3
 72
    17
 73
    13
 74
     0
 42
0.000000001
 43
0.00000001
 40
0.0
 40
0.0
 40
0.0
 40
0.0
 40
0.0844620405708755
 40
0.1909693328847654
 40
0.2951700490995571
 40
0.4014559964304953
 40
0.5065919135130279
 40
0.611754737734603
 40
0.7180288712522701
 40
0.8222350588089934
 40
0.9287463001731322
 40
1.0
 40
1.0
 40
1.0
 40
1.0
 10
-365.228076395074
 20
837.5939032363415
 30
0.0
 10
-365.1937838012946
 20
837.6141411117069
 30
0.0
 10
-365.1162479791349
 20
837.6598991058472
 30
0.0
 10
-363.7042169506078
 20
837.7369737427643
 30
0.0
 10
-361.3845672545622
 20
837.8105582558375
 30
0.0
 10
-358.3654188800422
 20
837.8919969555852
 30
0.0
 10
-354.9880763000045
 20
837.9689891887296
 30
0.0
 10
-351.6127058396483
 20
838.0460754648489
 30
0.0
 10
-348.595101725612
 20
838.1274706515687
 30
0.0
 10
-346.288090116524
 20
838.201043986941
 30
0.0
 10
-344.921939107347
 20
838.2747994555451
 30
0.0
 10
-344.8439101227793
 20
838.3174258891852
 30
0.0
 10
-344.8126336865657
 20
838.3345118853717
 30
0.0
  0
SPLINE
  5
E4
330
1F
100
AcDbEntity
  8
0
  6
Continuous
 62
     7
370
    25
100
AcDbSpline
210
0.0
220
0.0
230
1.0
 70
     8
 71
     3
 72
    17
 73
    13
 74
     0
 42
0.000000001
 43
0.00000001
 40
0.0
 40
0.0
 40
0.0
 40
0.0
 40
0.0633051833068998
 40
0.1698213357024941
 40
0.274336423991302
 40
0.3801775083448038
 40
0.4859954108401739
 40
0.5905298941501167
 40
0.6970413467445109
 40
0.8012459773340195
 40
0.9075380459180584
 40
1.0
 40
1.0
 40
1.0
 40
1.0
 10
-365.1835640259282
 20
839.0937538637113
 30
0.0
 10
-365.1957881521389
 20
839.1088422170301
 30
0.0
 10
-365.2285803712344
 20
839.1493179597782
 30
0.0
 10
-364.0578217012327
 20
839.2210145826323
 30
0.0
 10
-361.9181094920634
 20
839.29574611313
 30
0.0
 10
-359.0028762171203
 20
839.3753413096113
 30
0.0
 10
-355.6728889068409
 20
839.4548523946563
 30
0.0
 10
-352.2652578341715
 20
839.529637694883
 30
0.0
 10
-349.1548477919029
 20
839.612069088535
 30
0.0
 10
-346.6792575946749
 20
839.6856042576053
 30
0.0
 10
-345.0568680052302
 20
839.7638455661393
 30
0.0
 10
-344.8496100154029
 20
839.8122163648441
 30
0.0
 10
-344.753191948078
 20
839.8347188455931
 30
0.0
  0
SPLINE
  5
E5
330
1F
100
AcDbEntity
  8
0
  6
Continuous
 62
     7
370
    25
100
AcDbSpline
210
0.0
220
0.0
230
1.0
 70
     8
 71
     3
 72
    12
 73
     8
 74
     0
 42
0.000000001
 43
0.00000001
 40
0.0
 40
0.0
 40
0.0
 40
0.0
 40
0.2077848250123431
 40
0.4178040378711645
 40
0.6237195608353142
 40
0.8341917467388114
 40
1.0
 40
1.0
 40
1.0
 40
1.0
 10
-355.0000000000001
 20
830.6562499979517
 30
0.0
 10
-353.8785102280798
 20
830.6818382979393
 30
0.0
 10
-351.6234708857617
 20
830.733290058463
 30
0.0
 10
-348.6059477174288
 20
830.8147028983941
 30
0.0
 10
-346.2893978493346
 20
830.8882975552277
 30
0.0
 10
-344.8823389138537
 20
830.965239027637
 30
0.0
 10
-344.8068891741405
 20
831.0108570869094
 30
0.0
 10
-344.7736421906444
 20
831.0309587183996
 30
0.0
  0
SPLINE
  5
E6
330
1F
100
AcDbEntity
  8
0
  6
Continuous
 62
     7
370
    25
100
AcDbSpline
210
0.0
220
0.0
230
1.0
 70
     8
 71
     3
 72
    18
 73
    14
 74
     0
 42
0.000000001
 43
0.00000001
 40
0.0
 40
0.0
 40
0.0
 40
0.0
 40
0.0497373095474311
 40
0.1549873234110903
 40
0.2582699406642712
 40
0.3628452061046796
 40
0.4674168581878238
 40
0.5707024985436338
 40
0.6759517798496658
 40
0.7789222507085029
 40
0.8839469612590755
 40
0.9878495498102162
 40
1.0
 40
1.0
 40
1.0
 40
1.0
 10
-365.1699656894093
 20
831.7903696859291
 30
0.0
 10
-365.1765943170327
 20
831.8023851439382
 30
0.0
 10
-365.1972499026003
 20
831.8398267284016
 30
0.0
 10
-364.0566183585772
 20
831.9082703164681
 30
0.0
 10
-361.9289966108705
 20
831.9829858775677
 30
0.0
 10
-359.0130664394821
 20
832.062555549373
 30
0.0
 10
-355.6855499707721
 20
832.1421017222051
 30
0.0
 10
-352.274087416534
 20
832.2168562711227
 30
0.0
 10
-349.1743905772315
 20
832.2993015060136
 30
0.0
 10
-346.6509680513014
 20
832.3728280134779
 30
0.0
 10
-345.127715735089
 20
832.4543892306754
 30
0.0
 10
-344.5064055213739
 20
832.5084719023603
 30
0.0
 10
-344.7286214783244
 20
832.5373545939116
 30
0.0
 10
-344.7518869089034
 20
832.5403785363161
 30
0.0
  0
SPLINE
  5
E7
330
1F
100
AcDbEntity
  8
0
  6
Continuous
 62
     7
370
    25
100
AcDbSpline
210
0.0
220
0.0
230
1.0
 70
     8
 71
     3
 72
    18
 73
    14
 74
     0
 42
0.000000001
 43
0.00000001
 40
0.0
 40
0.0
 40
0.0
 40
0.0
 40
0.0294274079493438
 40
0.1357692464353551
 40
0.2409724803878781
 40
0.3461858184064377
 40
0.4525232285122241
 40
0.5567860565412129
 40
0.6633557760613894
 40
0.7679309167790527
 40
0.8738193753023942
 40
0.9796992969823327
 40
1.0
 40
1.0
 40
1.0
 40
1.0
 10
-365.1953754539447
 20
833.2899628459664
 30
0.0
 10
-365.2152234703318
 20
833.297016384754
 30
0.0
 10
-365.3067962732355
 20
833.3295593001047
 30
0.0
 10
-364.363970757126
 20
833.3918668097551
 30
0.0
 10
-362.4328708549631
 20
833.468826681818
 30
0.0
 10
-359.6326922387792
 20
833.545899524093
 30
0.0
 10
-356.3689829816943
 20
833.6273061360255
 30
0.0
 10
-352.941692736386
 20
833.7008759301378
 30
0.0
 10
-349.7555808007525
 20
833.7833169704139
 30
0.0
 10
-347.0886697622216
 20
833.8580541873796
 30
0.0
 10
-345.3583971031689
 20
833.9376280042219
 30
0.0
 10
-344.5831726332172
 20
833.995968757794
 30
0.0
 10
-344.7463732808882
 20
834.0265205444922
 30
0.0
 10
-344.7726299893852
 20
834.0314359009495
 30
0.0
  0
SPLINE
  5
E8
330
1F
100
AcDbEntity
  8
0
  6
Continuous
 62
     7
370
    25
100
AcDbSpline
210
0.0
220
0.0
230
1.0
 70
     8
 71
     3
 72
    18
 73
    14
 74
     0
 42
0.000000001
 43
0.00000001
 40
0.0
 40
0.0
 40
0.0
 40
0.0
 40
0.0086595303176881
 40
0.1145412528054679
 40
0.2204120001767854
 40
0.3249874559405703
 40
0.4315471908270734
 40
0.5357994669096598
 40
0.6421347875747193
 40
0.7473267615091446
 40
0.852535562315157
 40
0.9588635029018903
 40
1.0
 40
1.0
 40
1.0
 40
1.0
 10
-365.2634322947509
 20
834.7897954488959
 30
0.0
 10
-365.2734028574856
 20
834.7918941840311
 30
0.0
 10
-365.4052853851644
 20
834.8196545524214
 30
0.0
 10
-364.6243043089384
 20
834.8751876478306
 30
0.0
 10
-362.9068947518844
 20
834.9546886139216
 30
0.0
 10
-360.233277851726
 20
835.0294650774886
 30
0.0
 10
-357.0468781803121
 20
835.1118951707416
 30
0.0
 10
-353.6193606186679
 20
835.1854540079287
 30
0.0
 10
-350.3561386153069
 20
835.2668900736935
 30
0.0
 10
-347.5611507849806
 20
835.3439017582485
 30
0.0
 10
-345.6219306423096
 20
835.4209575544122
 30
0.0
 10
-344.669997880024
 20
835.4861301390956
 30
0.0
 10
-344.7846764648522
 20
835.5214273986021
 30
0.0
 10
-344.816667060999
 20
835.5312738784453
 30
0.0
  0
SPLINE
  5
E9
330
1F
100
AcDbEntity
  8
0
  6
Continuous
 62
     7
370
    25
100
AcDbSpline
210
0.0
220
0.0
230
1.0
 70
     8
 71
     3
 72
    17
 73
    13
 74
     0
 42
0.000000001
 43
0.00000001
 40
0.0
 40
0.0
 40
0.0
 40
0.0
 40
0.0930535229663741
 40
0.1993935253706189
 40
0.3036621254068561
 40
0.4102374020444763
 40
0.5148142442105202
 40
0.6207111466055661
 40
0.7265921941487243
 40
0.8311823012206347
 40
0.9377543635089076
 40
1.0
 40
1.0
 40
1.0
 40
1.0
 10
-365.248589090681
 20
836.2904054478068
 30
0.0
 10
-365.1495799224349
 20
836.3130552317516
 30
0.0
 10
-364.9374247404357
 20
836.361588808189
 30
0.0
 10
-363.3064709313673
 20
836.4399189852747
 30
0.0
 10
-360.8253896886919
 20
836.5134736620385
 30
0.0
 10
-357.7119119064777
 20
836.5959229802909
 30
0.0
 10
-354.3034423156896
 20
836.6706480575446
 30
0.0
 10
-350.9753964928626
 20
836.7502348414807
 30
0.0
 10
-348.063920647364
 20
836.8297549282073
 30
0.0
 10
-345.9308969443488
 20
836.904544200514
 30
0.0
 10
-344.7687492809191
 20
836.9759485212983
 30
0.0
 10
-344.8044228832351
 20
837.0161640848924
 30
0.0
 10
-344.8175762794617
 20
837.0309921708742
 30
0.0
  0
SPLINE
  5
EA
330
1F
100
AcDbEntity
  8
0
  6
Continuous
 62
     7
370
    25
100
AcDbSpline
210
0.0
220
0.0
230
1.0
 70
     8
 71
     3
 72
    17
 73
    13
 74
     0
 42
0.000000001
 43
0.00000001
 40
0.0
 40
0.0
 40
0.0
 40
0.0
 40
0.0716313824343924
 40
0.1782212222225202
 40
0.2825026987900998
 40
0.3888710145842372
 40
0.4940884272820685
 40
0.5993327420233178
 40
0.7056892462763162
 40
0.8099761931300523
 40
0.9165699812143806
 40
1.0
 40
1.0
 40
1.0
 40
1.0
 10
-365.1874308734565
 20
837.7907884874033
 30
0.0
 10
-365.1544052185548
 20
837.8079582102716
 30
0.0
 10
-365.0722363090454
 20
837.8506770423088
 30
0.0
 10
-363.6988710380379
 20
837.9244997855252
 30
0.0
 10
-361.38603566752
 20
837.9980508374496
 30
0.0
 10
-358.3650152309605
 20
838.0794987174125
 30
0.0
 10
-354.98828913953
 20
838.1564879653909
 30
0.0
 10
-351.6123210427853
 20
838.2335771394589
 30
0.0
 10
-348.5964951619868
 20
838.3149635525366
 30
0.0
 10
-346.2830225324211
 20
838.3885687977777
 30
0.0
 10
-344.880884018359
 20
838.465380133332
 30
0.0
 10
-344.8075094316474
 20
838.5108615543331
 30
0.0
 10
-344.7752942937203
 20
838.5308301881112
 30
0.0
  0
SPLINE
  5
EB
330
1F
100
AcDbEntity
  8
0
  6
Continuous
 62
     7
370
    25
100
AcDbSpline
210
0.0
220
0.0
230
1.0
 70
     8
 71
     3
 72
    17
 73
    13
 74
     0
 42
0.000000001
 43
0.00000001
 40
0.0
 40
0.0
 40
0.0
 40
0.0
 40
0.0527511212135107
 40
0.1641525459923908
 40
0.2734611412553669
 40
0.3841565272146096
 40
0.4948276915310907
 40
0.6041565517457685
 40
0.715553065925575
 40
0.8245369582832462
 40
0.9357040167957753
 40
1.0
 40
1.0
 40
1.0
 40
1.0
 10
-365.1696222114446
 20
839.2905644312606
 30
0.0
 10
-365.17569037456
 20
839.3026048743712
 30
0.0
 10
-365.1945734694021
 20
839.3400726920408
 30
0.0
 10
-364.0507717292668
 20
839.4085506601602
 30
0.0
 10
-361.9200315383889
 20
839.4832359505582
 30
0.0
 10
-359.0023369322805
 20
839.5628438944841
 30
0.0
 10
-355.6731845288641
 20
839.6423503902289
 30
0.0
 10
-352.2646902674569
 20
839.7171413315851
 30
0.0
 10
-349.1569241756592
 20
839.7995544623531
 30
0.0
 10
-346.6717198014765
 20
839.8731562929404
 30
0.0
 10
-345.2464660998976
 20
839.9431788428926
 30
0.0
 10
-344.9062220149679
 20
839.9847623163957
 30
0.0
 10
-344.7815443178532
 20
840.0000000000001
 30
0.0
  0
SPLINE
  5
ED
330
1F
100
AcDbEntity
  8
0
  6
Continuous
 62
     7
370
    25
100
AcDbSpline
210
0.0
220
0.0
230
1.0
 70
     8
 71
     3
 72
    18
 73
    14
 74
     0
 42
0.000000001
 43
0.00000001
 40
0.0
 40
0.0
 40
0.0
 40
0.0
 40
0.0416763144994442
 40
0.1480330118251006
 40
0.2532507128235872
 40
0.3584785342619244
 40
0.4648307959861121
 40
0.5691077875425073
 40
0.675692441970878
 40
0.7802818436285072
 40
0.8861850101538024
 40
0.950302124916371
 40
1.0
 40
1.0
 40
1.0
 40
1.0
 10
-364.3810424089122
 20
832.6248590274972
 30
0.0
 10
-364.4105783218422
 20
832.6348309189799
 30
0.0
 10
-364.5154889935401
 20
832.670250776698
 30
0.0
 10
-363.6352437181929
 20
832.7355787277273
 30
0.0
 10
-361.8453558256965
 20
832.8125868688085
 30
0.0
 10
-359.268606025871
 20
832.8896473985635
 30
0.0
 10
-356.2608238810615
 20
832.9710554224689
 30
0.0
 10
-353.1045701499943
 20
833.0446310866647
 30
0.0
 10
-350.1654894552429
 20
833.1270481602266
 30
0.0
 10
-347.7225609677168
 20
833.2018734316803
 30
0.0
 10
-346.2932926448377
 20
833.2706532483211
 30
0.0
 10
-345.6344204869432
 20
833.3265284147114
 30
0.0
 10
-345.5664848929517
 20
833.3537346426405
 30
0.0
 10
-345.5368204817131
 20
833.3656143758719
 30
0.0
  0
SPLINE
  5
EE
330
1F
100
AcDbEntity
  8
0
  6
Continuous
 62
     7
370
    25
100
AcDbSpline
210
0.0
220
0.0
230
1.0
 70
     8
 71
     3
 72
    18
 73
    14
 74
     0
 42
0.000000001
 43
0.00000001
 40
0.0
 40
0.0
 40
0.0
 40
0.0
 40
0.041674804269901
 40
0.1480276475353234
 40
0.2532415357475207
 40
0.358465544032833
 40
0.4648139518575202
 40
0.5690871647162257
 40
0.6756679568238537
 40
0.7802535684629512
 40
0.8861528973626618
 40
0.9502676887057511
 40
1.0
 40
1.0
 40
1.0
 40
1.0
 10
-364.3810424089122
 20
834.1248590274972
 30
0.0
 10
-364.4105783218112
 20
834.1348309189801
 30
0.0
 10
-364.5154889933987
 20
834.1702507766984
 30
0.0
 10
-363.6352437198715
 20
834.2355787277172
 30
0.0
 10
-361.8453558196576
 20
834.3125868688464
 30
0.0
 10
-359.2686060484795
 20
834.3896473984198
 30
0.0
 10
-356.2608237963956
 20
834.4710554230066
 30
0.0
 10
-353.1045704618902
 20
834.544631084683
 30
0.0
 10
-350.165488271216
 20
834.6270481677517
 30
0.0
 10
-347.7225653145771
 20
834.7018734040539
 30
0.0
 10
-346.2932789333296
 20
834.7706533354642
 30
0.0
 10
-345.634338487546
 20
834.8265374607862
 30
0.0
 10
-345.566396827237
 20
834.8537522521973
 30
0.0
 10
-345.5367175844452
 20
834.8656406046185
 30
0.0
  0
SPLINE
  5
EF
330
1F
100
AcDbEntity
  8
0
  6
Continuous
 62
     7
370
    25
100
AcDbSpline
210
0.0
220
0.0
230
1.0
 70
     8
 71
     3
 72
    18
 73
    14
 74
     0
 42
0.000000001
 43
0.00000001
 40
0.0
 40
0.0
 40
0.0
 40
0.0
 40
0.041673291924776
 40
0.1480222757310633
 40
0.2532323458158883
 40
0.358452535606579
 40
0.4647970841330897
 40
0.5690665130007747
 40
0.6756434373771876
 40
0.7802252536885643
 40
0.8861207395868113
 40
0.9502332042556947
 40
1.0
 40
1.0
 40
1.0
 40
1.0
 10
-364.3810424089122
 20
835.6248590274972
 30
0.0
 10
-364.4105783217801
 20
835.6348309189802
 30
0.0
 10
-364.5154889932574
 20
835.6702507766992
 30
0.0
 10
-363.6352437215508
 20
835.7355787277061
 30
0.0
 10
-361.8453558136143
 20
835.8125868688852
 30
0.0
 10
-359.2686060711057
 20
835.889647398276
 30
0.0
 10
-356.2608237116625
 20
835.9710554235455
 30
0.0
 10
-353.1045707740341
 20
836.044631082699
 30
0.0
 10
-350.1654870862462
 20
836.1270481752827
 30
0.0
 10
-347.7225696648994
 20
836.2018733764054
 30
0.0
 10
-346.2932652109016
 20
836.2706534226775
 30
0.0
 10
-345.6342563626123
 20
836.3265465202195
 30
0.0
 10
-345.566308626437
 20
836.3537698877352
 30
0.0
 10
-345.5366145355617
 20
836.3656668720122
 30
0.0
  0
SPLINE
  5
F0
330
1F
100
AcDbEntity
  8
0
  6
Continuous
 62
     7
370
    25
100
AcDbSpline
210
0.0
220
0.0
230
1.0
 70
     8
 71
     3
 72
    18
 73
    14
 74
     0
 42
0.000000001
 43
0.00000001
 40
0.0
 40
0.0
 40
0.0
 40
0.0
 40
0.041671777422213
 40
0.1480168962636498
 40
0.253223142774349
 40
0.3584395086231407
 40
0.464780192345989
 40
0.5690458318245973
 40
0.6756188829522791
 40
0.7801968985217063
 40
0.886088535936252
 40
0.9501986706118102
 40
1.0
 40
1.0
 40
1.0
 40
1.0
 10
-364.3810424089122
 20
837.1248590274971
 30
0.0
 10
-364.4105783217491
 20
837.1348309189805
 30
0.0
 10
-364.5154889931161
 20
837.1702507767003
 30
0.0
 10
-363.6352437232319
 20
837.2355787276956
 30
0.0
 10
-361.8453558075655
 20
837.3125868689228
 30
0.0
 10
-359.2686060937507
 20
837.3896473981323
 30
0.0
 10
-356.2608236268595
 20
837.4710554240839
 30
0.0
 10
-353.1045710864347
 20
837.5446310807138
 30
0.0
 10
-350.1654859003029
 20
837.6270481828202
 30
0.0
 10
-347.7225740187956
 20
837.7018733487344
 30
0.0
 10
-346.2932514772004
 20
837.7706535099617
 30
0.0
 10
-345.6341741098277
 20
837.8265555932663
 30
0.0
 10
-345.5662202880644
 20
837.8537875497475
 30
0.0
 10
-345.5365113321781
 20
837.8656931787883
 30
0.0
  0
SPLINE
  5
F1
330
1F
100
AcDbEntity
  8
0
  6
Continuous
 62
     7
370
    25
100
AcDbSpline
210
0.0
220
0.0
230
1.0
 70
     8
 71
     3
 72
    18
 73
    14
 74
     0
 42
0.000000001
 43
0.00000001
 40
0.0
 40
0.0
 40
0.0
 40
0.0
 40
0.0416702607201768
 40
0.1480115089837737
 40
0.2532139263674682
 40
0.3584264627209478
 40
0.4647632760273784
 40
0.5690251206136774
 40
0.675594292867608
 40
0.7801685021753654
 40
0.8860562855171555
 40
0.9501640868155987
 40
0.9999999999999999
 40
0.9999999999999999
 40
0.9999999999999999
 40
0.9999999999999999
 10
-364.3810424089122
 20
838.6248590274972
 30
0.0
 10
-364.410578321718
 20
838.6348309189807
 30
0.0
 10
-364.5154889929746
 20
838.6702507767011
 30
0.0
 10
-363.6352437249143
 20
838.7355787276852
 30
0.0
 10
-361.845355801512
 20
838.8125868689616
 30
0.0
 10
-359.2686061164148
 20
838.8896473979881
 30
0.0
 10
-356.260823541985
 20
838.9710554246238
 30
0.0
 10
-353.1045713990995
 20
839.0446310787264
 30
0.0
 10
-350.1654847133557
 20
839.1270481903639
 30
0.0
 10
-347.7225783763772
 20
839.2018733210398
 30
0.0
 10
-346.293237731874
 20
839.2706535973203
 30
0.0
 10
-345.6340917268658
 20
839.3265646801804
 30
0.0
 10
-345.5661318096201
 20
839.353805238731
 30
0.0
 10
-345.5364079713965
 20
839.3657195256853
 30
0.0
  0
SPLINE
  5
F2
330
1F
100
AcDbEntity
  8
0
  6
Continuous
 62
     7
370
    25
100
AcDbSpline
210
0.0
220
0.0
230
1.0
 70
     8
 71
     3
 72
    17
 73
    13
 74
     0
 42
0.000000001
 43
0.00000001
 40
0.0
 40
0.0
 40
0.0
 40
0.0
 40
0.0923774770355571
 40
0.1987165322784379
 40
0.3029755977217297
 40
0.4095730041285396
 40
0.5141812317050596
 40
0.6200921910058103
 40
0.7260068142079519
 40
0.8306119764122353
 40
0.937210125628256
 40
0.9999999999999999
 40
0.9999999999999999
 40
0.9999999999999999
 40
0.9999999999999999
 10
-345.5611375261857
 20
831.8655492245858
 30
0.0
 10
-345.651090018245
 20
831.8430748946746
 30
0.0
 10
-345.8445900776258
 20
831.7947295506727
 30
0.0
 10
-347.3417054620339
 20
831.7165708355736
 30
0.0
 10
-349.6244085796578
 20
831.6430399698926
 30
0.0
 10
-352.4910950660802
 20
831.5606073177044
 30
0.0
 10
-355.6308197320734
 20
831.4858520504004
 30
0.0
 10
-358.6977274508079
 20
831.4063031168948
 30
0.0
 10
-361.3817010058838
 20
831.3267455292556
 30
0.0
 10
-363.3498629519256
 20
831.2519849598741
 30
0.0
 10
-364.4244287313687
 20
831.1804390916866
 30
0.0
 10
-364.3929021723549
 20
831.1400973602696
 30
0.0
 10
-364.381215698672
 20
831.125143220101
 30
0.0
  0
SPLINE
  5
F3
330
1F
100
AcDbEntity
  8
0
  6
Continuous
 62
     7
370
    25
100
AcDbSpline
210
0.0
220
0.0
230
1.0
 70
     8
 71
     3
 72
    12
 73
     8
 74
     0
 42
0.000000001
 43
0.00000001
 40
0.0
 40
0.0
 40
0.0
 40
0.0
 40
0.2131812298935418
 40
0.4286553317347424
 40
0.6399183406264798
 40
0.8344312388295893
 40
1.0
 40
1.0
 40
1.0
 40
1.0
 10
-355.0000000000001
 20
830.0000000000001
 30
0.0
 10
-353.9667362400171
 20
830.0255884737409
 30
0.0
 10
-351.8890954457214
 20
830.077040638199
 30
0.0
 10
-349.1102647285887
 20
830.1584508915658
 30
0.0
 10
-347.0432453238682
 20
830.2296005818803
 30
0.0
 10
-345.7834539127359
 20
830.3027599420391
 30
0.0
 10
-345.6271825590872
 20
830.3457589874171
 30
0.0
 10
-345.5553275957573
 20
830.3655303323035
 30
0.0
  0
SPLINE
  5
F5
330
1F
100
AcDbEntity
  8
0
  6
Continuous
 62
     7
370
    25
100
AcDbSpline
210
0.0
220
0.0
230
1.0
 70
     8
 71
     3
 72
    22
 73
    18
 74
     0
 42
0.000000001
 43
0.00000001
 40
0.0
 40
0.0
 40
0.0
 40
0.0
 40
0.1249999999999999
 40
0.1249999999999999
 40
0.2499999999999999
 40
0.2499999999999999
 40
0.3749999999999998
 40
0.3749999999999998
 40
0.4999999999999998
 40
0.4999999999999998
 40
0.6249999999999998
 40
0.6249999999999998
 40
0.7499999999999999
 40
0.7499999999999999
 40
0.8749999999999999
 40
0.8749999999999999
 40
1.0
 40
1.0
 40
1.0
 40
1.0
 10
-355.0000000000001
 20
831.1249999959033
 30
0.0
 10
-354.3940845654219
 20
831.1394356135988
 30
0.0
 10
-353.7764159307311
 20
831.1547285760113
 30
0.0
 10
-352.5524830899803
 20
831.1862666709353
 30
0.0
 10
-351.9464490983188
 20
831.2025067751234
 30
0.0
 10
-350.7825656867443
 20
831.2349932166828
 30
0.0
 10
-350.2249395814609
 20
831.2512333208712
 30
0.0
 10
-349.1890579425144
 20
831.2827714157953
 30
0.0
 10
-348.7109324913437
 20
831.2980643782075
 30
0.0
 10
-347.854038666112
 20
831.3269356135988
 30
0.0
 10
-347.4586487570508
 20
831.3422285760112
 30
0.0
 10
-346.7636279731737
 20
831.3737666709351
 30
0.0
 10
-346.4641925881901
 20
831.3900067751237
 30
0.0
 10
-345.9820962940951
 20
831.422493216683
 30
0.0
 10
-345.7995278849316
 20
831.4387333208715
 30
0.0
 10
-345.558502862871
 20
831.4702714157955
 30
0.0
 10
-345.5000000000001
 20
831.4855643782076
 30
0.0
 10
-345.5000000000001
 20
831.4999999959033
 30
0.0
  0
SPLINE
  5
F6
330
1F
100
AcDbEntity
  8
0
  6
Continuous
 62
     7
370
    25
100
AcDbSpline
210
0.0
220
0.0
230
1.0
 70
     8
 71
     3
 72
    17
 73
    13
 74
     0
 42
0.000000001
 43
0.00000001
 40
0.0
 40
0.0
 40
0.0
 40
0.0
 40
0.1052541948401262
 40
0.2116417725403289
 40
0.3159484115680261
 40
0.4225944540617139
 40
0.5272504098331374
 40
0.6332096922362506
 40
0.739172639676969
 40
0.8438255291255918
 40
0.9504723146587447
 40
1.0
 40
1.0
 40
1.0
 40
1.0
 10
-345.5000000000001
 20
832.9999999959033
 30
0.0
 10
-345.5982548332016
 20
832.9744200969507
 30
0.0
 10
-345.7958225129602
 20
832.9229848533104
 30
0.0
 10
-347.3378553719617
 20
832.8415850784916
 30
0.0
 10
-349.6254667116572
 20
832.7680360258911
 30
0.0
 10
-352.4907823913888
 20
832.6856085302111
 30
0.0
 10
-355.6310248336247
 20
832.6108510357418
 30
0.0
 10
-358.6972154781668
 20
832.5313059299654
 30
0.0
 10
-361.3835328319346
 20
832.4517352911594
 30
0.0
 10
-363.3430856877455
 20
832.3770228276177
 30
0.0
 10
-364.3923048934797
 20
832.3087963788573
 30
0.0
 10
-364.3741584478204
 20
832.2715576049932
 30
0.0
 10
-364.3684036567485
 20
832.2597480546608
 30
0.0
  0
SPLINE
  5
F7
330
1F
100
AcDbEntity
  8
0
  6
Continuous
 62
     7
370
    25
100
AcDbSpline
210
0.0
220
0.0
230
1.0
 70
     8
 71
     3
 72
    18
 73
    14
 74
     0
 42
0.000000001
 43
0.00000001
 40
0.0
 40
0.0
 40
0.0
 40
0.0
 40
0.0627994426012408
 40
0.1268307926937336
 40
0.2327742527259385
 40
0.3374034515709692
 40
0.4440286604042696
 40
0.548345328141873
 40
0.6547380573087129
 40
0.7600059148607525
 40
0.8652636528542047
 40
0.9716608172336335
 40
1.0
 40
1.0
 40
1.0
 40
1.0
 10
-345.5000000000001
 20
834.4999999959033
 30
0.0
 10
-345.5347841883521
 20
834.4850109479697
 30
0.0
 10
-345.6050349103196
 20
834.4547388189125
 30
0.0
 10
-346.2894939069315
 20
834.395653505777
 30
0.0
 10
-347.7239460652925
 20
834.3268645427368
 30
0.0
 10
-350.1651263503558
 20
834.2520504545794
 30
0.0
 10
-353.1046230280885
 20
834.1696306133505
 30
0.0
 10
-356.2609775961598
 20
834.096054744214
 30
0.0
 10
-359.2679357686488
 20
834.0146503300015
 30
0.0
 10
-361.8478587160126
 20
833.937575654835
 30
0.0
 10
-363.6258573372788
 20
833.860620595974
 30
0.0
 10
-364.4935472635099
 20
833.7985847210086
 30
0.0
 10
-364.4110485657365
 20
833.766300772636
 30
0.0
 10
-364.3936965614427
 20
833.7595104689597
 30
0.0
  0
SPLINE
  5
F8
330
1F
100
AcDbEntity
  8
0
  6
Continuous
 62
     7
370
    25
100
AcDbSpline
210
0.0
220
0.0
230
1.0
 70
     8
 71
     3
 72
    18
 73
    14
 74
     0
 42
0.000000001
 43
0.00000001
 40
0.0
 40
0.0
 40
0.0
 40
0.0
 40
0.084003565543086
 40
0.1694684639811253
 40
0.2534797478412131
 40
0.3587481597504477
 40
0.4651609861370583
 40
0.56948884083317
 40
0.6761262863468092
 40
0.7807776232512347
 40
0.8867254377683983
 40
0.9926842465877029
 40
0.9999999999999999
 40
0.9999999999999999
 40
0.9999999999999999
 40
0.9999999999999999
 10
-345.5000000000001
 20
835.9999999959033
 30
0.0
 10
-345.5622090811102
 20
835.9797942861596
 30
0.0
 10
-345.6877094375922
 20
835.9390313664935
 30
0.0
 10
-346.6837472489144
 20
835.8736102995709
 30
0.0
 10
-348.3259069122387
 20
835.8077092960059
 30
0.0
 10
-350.719918254946
 20
835.735572962946
 30
0.0
 10
-353.7285293781302
 20
835.6542220453275
 30
0.0
 10
-356.8856201000414
 20
835.580640163918
 30
0.0
 10
-359.8211516471422
 20
835.4982169560903
 30
0.0
 10
-362.2847516899404
 20
835.4234373387532
 30
0.0
 10
-363.8649964389522
 20
835.3439413020947
 30
0.0
 10
-364.5851281041308
 20
835.2887368760363
 30
0.0
 10
-364.4668407156059
 20
835.2612994621105
 30
0.0
 10
-364.4592012125331
 20
835.2595274371245
 30
0.0
  0
SPLINE
  5
F9
330
1F
100
AcDbEntity
  8
0
  6
Continuous
 62
     7
370
    25
100
AcDbSpline
210
0.0
220
0.0
230
1.0
 70
     8
 71
     3
 72
    17
 73
    13
 74
     0
 42
0.000000001
 43
0.00000001
 40
0.0
 40
0.0
 40
0.0
 40
0.0
 40
0.0625555489415323
 40
0.1691508748972335
 40
0.2737634333426299
 40
0.3796674507618741
 40
0.4855873426393363
 40
0.5901866198532624
 40
0.69678516415218
 40
0.801076080288819
 40
0.9074392466922433
 40
1.0
 40
1.0
 40
1.0
 40
1.0
 10
-345.5000000000001
 20
837.4999999959033
 30
0.0
 10
-345.5354205208205
 20
837.485084437627
 30
0.0
 10
-345.6311979888067
 20
837.4447526081616
 30
0.0
 10
-346.6264792002051
 20
837.3733020437103
 30
0.0
 10
-348.6149995059628
 20
837.2985029521157
 30
0.0
 10
-351.2909228045502
 20
837.2189855722843
 30
0.0
 10
-354.3586295722818
 20
837.1393982099621
 30
0.0
 10
-357.498285087759
 20
837.0646730148328
 30
0.0
 10
-360.3667882719469
 20
836.9822239214035
 30
0.0
 10
-362.6522987966026
 20
836.9086695201553
 30
0.0
 10
-364.1530610815911
 20
836.8304691974924
 30
0.0
 10
-364.3483486368861
 20
836.7820590795164
 30
0.0
 10
-364.4392173632613
 20
836.7595334979068
 30
0.0
  0
SPLINE
  5
FA
330
1F
100
AcDbEntity
  8
0
  6
Continuous
 62
     7
370
    25
100
AcDbSpline
210
0.0
220
0.0
230
1.0
 70
     8
 71
     3
 72
    17
 73
    13
 74
     0
 42
0.000000001
 43
0.00000001
 40
0.0
 40
0.0
 40
0.0
 40
0.0
 40
0.0836861068963762
 40
0.1903100143506142
 40
0.2946259809428083
 40
0.4010124831974053
 40
0.5062862797742714
 40
0.6115331395107476
 40
0.7179314687144004
 40
0.8222419579356032
 40
0.9288619119409283
 40
1.0
 40
1.0
 40
1.0
 40
1.0
 10
-345.5000000000001
 20
838.9999999959033
 30
0.0
 10
-345.5625623524912
 20
838.9798727597718
 30
0.0
 10
-345.7048349786409
 20
838.9341015470924
 30
0.0
 10
-346.9612121139217
 20
838.8573449870614
 30
0.0
 10
-349.1028746197848
 20
838.783706561137
 30
0.0
 10
-351.8784443458434
 20
838.7023293716311
 30
0.0
 10
-354.9893632125337
 20
838.6252376436349
 30
0.0
 10
-358.1000117682468
 20
838.5482490334434
 30
0.0
 10
-360.8832914506427
 20
838.4668009346807
 30
0.0
 10
-363.013758257574
 20
838.3932508801462
 30
0.0
 10
-364.2776028958477
 20
838.3195577921289
 30
0.0
 10
-364.3534770954216
 20
838.2769597202754
 30
0.0
 10
-364.3838416596798
 20
838.2599121349654
 30
0.0
  0
SPLINE
  5
FB
330
1F
100
AcDbEntity
  8
0
  6
Continuous
 62
     7
370
    25
100
AcDbSpline
210
0.0
220
0.0
230
1.0
 70
     8
 71
     3
 72
    11
 73
     7
 74
     0
 42
0.000000001
 43
0.00000001
 40
0.0
 40
0.0
 40
0.0
 40
0.0
 40
0.2598595922677441
 40
0.5195253484462227
 40
0.8470024429328675
 40
1.0
 40
1.0
 40
1.0
 40
1.0
 10
-359.7253788068806
 20
840.0000000000002
 30
0.0
 10
-360.4156560132774
 20
839.979302699597
 30
0.0
 10
-361.7956955301882
 20
839.9379235374506
 30
0.0
 10
-363.4093000407934
 20
839.8719599157201
 30
0.0
 10
-364.3913623147636
 20
839.8090034282254
 30
0.0
 10
-364.3738344332758
 20
839.7716850859988
 30
0.0
 10
-364.3682530294713
 20
839.7598018052139
 30
0.0
  0
LINE
  5
10E
330
1F
100
AcDbEntity
  8
0
  6
Continuous
 62
     7
370
    25
100
AcDbLine
 10
2.5
 20
730.2
 30
0.0
 11
2.5
 21
755.3175416345
 31
0.0
  0
LINE
  5
10F
330
1F
100
AcDbEntity
  8
0
  6
Continuous
 62
     7
370
    25
100
AcDbLine
 10
-2.5
 20
755.3090264343
 30
0.0
 11
-2.5
 21
730.2
 31
0.0
  0
LINE
  5
110
330
1F
100
AcDbEntity
  8
0
  6
Continuous
 62
     7
370
    25
100
AcDbLine
 10
70.0
 20
797.5
 30
0.0
 11
60.2
 21
797.5
 31
0.0
  0
LINE
  5
111
330
1F
100
AcDbEntity
  8
0
  6
Continuous
 62
     7
370
    25
100
AcDbLine
 10
60.2
 20
732.5
 30
0.0
 11
70.0
 21
732.5
 31
0.0
  0
LINE
  5
112
330
1F
100
AcDbEntity
  8
0
  6
Continuous
 62
     7
370
    25
100
AcDbLine
 10
59.8
 20
782.5
 30
0.0
 11
30.2
 21
782.5
 31
0.0
  0
LINE
  5
113
330
1F
100
AcDbEntity
  8
0
  6
Continuous
 62
     7
370
    25
100
AcDbLine
 10
30.2
 20
747.5
 30
0.0
 11
59.8
 21
747.5
 31
0.0
  0
LINE
  5
114
330
1F
100
AcDbEntity
  8
0
  6
Continuous
 62
     7
370
    25
100
AcDbLine
 10
14.0
 20
772.5
 30
0.0
 11
14.0
 21
799.8
 31
0.0
  0
LINE
  5
115
330
1F
100
AcDbEntity
  8
0
  6
Continuous
 62
     7
370
    25
100
AcDbLine
 10
14.0
 20
730.2
 30
0.0
 11
14.0
 21
757.5770798976
 31
0.0
  0
LINE
  5
116
330
1F
100
AcDbEntity
  8
0
  6
Continuous
 62
     7
370
    25
100
AcDbLine
 10
-14.0
 20
799.8
 30
0.0
 11
-14.0
 21
730.2
 31
0.0
  0
LINE
  5
117
330
1F
100
AcDbEntity
  8
0
  6
Continuous
 62
     7
370
    25
100
AcDbLine
 10
14.0
 20
0.0
 30
0.0
 11
14.0
 21
14.8
 31
0.0
  0
LINE
  5
118
330
1F
100
AcDbEntity
  8
0
  6
Continuous
 62
     7
370
    25
100
AcDbLine
 10
-14.0
 20
14.8
 30
0.0
 11
-14.0
 21
0.0
 31
0.0
  0
LINE
  5
119
330
1F
100
AcDbEntity
  8
0
  6
Continuous
 62
     7
370
    25
100
AcDbLine
 10
-10.5
 20
730.0
 30
0.0
 11
-10.5
 21
15.0
 31
0.0
  0
LINE
  5
11A
330
1F
100
AcDbEntity
  8
0
  6
Continuous
 62
     7
370
    25
100
AcDbLine
 10
10.5
 20
15.0
 30
0.0
 11
10.5
 21
730.0
 31
0.0
  0
LINE
  5
11B
330
1F
100
AcDbEntity
  8
0
  6
Continuous
 62
     7
370
    25
100
AcDbLine
 10
-344.5
 20
840.0
 30
0.0
 11
-344.5
 21
870.0
 31
0.0
  0
LINE
  5
11C
330
1F
100
AcDbEntity
  8
0
  6
Continuous
 62
     7
370
    25
100
AcDbLine
 10
-365.5
 20
870.0
 30
0.0
 11
-365.5
 21
840.0
 31
0.0
  0
LINE
  5
11D
330
1F
100
AcDbEntity
  8
0
  6
Continuous
 62
     7
370
    25
100
AcDbLine
 10
-325.0
 20
889.5
 30
0.0
 11
-30.0
 21
889.5
 31
0.0
  0
LINE
  5
11E
330
1F
100
AcDbEntity
  8
0
  6
Continuous
 62
     7
370
    25
100
AcDbLine
 10
-30.0
 20
910.5
 30
0.0
 11
-325.0
 21
910.5
 31
0.0
  0
LINE
  5
11F
330
1F
100
AcDbEntity
  8
0
  6
Continuous
 62
     7
370
    25
100
AcDbLine
 10
-10.5
 20
870.0
 30
0.0
 11
-10.5
 21
800.0
 31
0.0
  0
LINE
  5
120
330
1F
100
AcDbEntity
  8
0
  6
Continuous
 62
     7
370
    25
100
AcDbLine
 10
10.5
 20
800.0
 30
0.0
 11
10.5
 21
870.0
 31
0.0
  0
LINE
  5
121
330
1F
100
AcDbEntity
  8
0
  6
Continuous
 62
     7
370
    25
100
AcDbLine
 10
-344.6881033028
 20
839.8436050077
 30
0.0
 11
-344.6881033028
 21
840.0
 31
0.0
  0
LINE
  5
122
330
1F
100
AcDbEntity
  8
0
  6
Continuous
 62
     7
370
    25
100
AcDbLine
 10
-344.6881029461
 20
838.3436177969
 30
0.0
 11
-344.6881029461
 21
838.5311177969
 31
0.0
  0
LINE
  5
123
330
1F
100
AcDbEntity
  8
0
  6
Continuous
 62
     7
370
    25
100
AcDbLine
 10
-344.6881025235
 20
836.8436347754
 30
0.0
 11
-344.6881025235
 21
837.0311347754
 31
0.0
  0
LINE
  5
124
330
1F
100
AcDbEntity
  8
0
  6
Continuous
 62
     7
370
    25
100
AcDbLine
 10
-344.6881020799
 20
835.3436558282
 30
0.0
 11
-344.6881020799
 21
835.5311558282
 31
0.0
  0
LINE
  5
125
330
1F
100
AcDbEntity
  8
0
  6
Continuous
 62
     7
370
    25
100
AcDbLine
 10
-344.6881016696
 20
833.8436807868
 30
0.0
 11
-344.6881016696
 21
834.0311807868
 31
0.0
  0
LINE
  5
126
330
1F
100
AcDbEntity
  8
0
  6
Continuous
 62
     7
370
    25
100
AcDbLine
 10
-344.6881013531
 20
832.3437094306
 30
0.0
 11
-344.6881013531
 21
832.5312094306
 31
0.0
  0
LINE
  5
127
330
1F
100
AcDbEntity
  8
0
  6
Continuous
 62
     7
370
    25
100
AcDbLine
 10
-344.6881011948
 20
830.8437414872
 30
0.0
 11
-344.6881011948
 21
831.0312414872
 31
0.0
  0
LINE
  5
128
330
1F
100
AcDbEntity
  8
0
  6
Continuous
 62
     7
370
    25
100
AcDbLine
 10
-365.3118987499
 20
831.7812250513
 30
0.0
 11
-365.3118987499
 21
831.5937250513
 31
0.0
  0
LINE
  5
129
330
1F
100
AcDbEntity
  8
0
  6
Continuous
 62
     7
370
    25
100
AcDbLine
 10
-365.3118985044
 20
833.2811946639
 30
0.0
 11
-365.3118985044
 21
833.0936946639
 31
0.0
  0
LINE
  5
12A
330
1F
100
AcDbEntity
  8
0
  6
Continuous
 62
     7
370
    25
100
AcDbLine
 10
-365.3118981331
 20
834.7811678319
 30
0.0
 11
-365.3118981331
 21
834.5936678319
 31
0.0
  0
LINE
  5
12B
330
1F
100
AcDbEntity
  8
0
  6
Continuous
 62
     7
370
    25
100
AcDbLine
 10
-365.3118976989
 20
836.2811448018
 30
0.0
 11
-365.3118976989
 21
836.0936448018
 31
0.0
  0
LINE
  5
12C
330
1F
100
AcDbEntity
  8
0
  6
Continuous
 62
     7
370
    25
100
AcDbLine
 10
-365.3118972595
 20
837.7811257684
 30
0.0
 11
-365.3118972595
 21
837.5936257684
 31
0.0
  0
LINE
  5
12D
330
1F
100
AcDbEntity
  8
0
  6
Continuous
 62
     7
370
    25
100
AcDbLine
 10
-365.3118968649
 20
839.2811108736
 30
0.0
 11
-365.3118968649
 21
839.0936108736
 31
0.0
  0
LINE
  5
12E
330
1F
100
AcDbEntity
  8
0
  6
Continuous
 62
     7
370
    25
100
AcDbLine
 10
-345.5
 20
838.9999999959
 30
0.0
 11
-345.5
 21
839.3702579376
 31
0.0
  0
LINE
  5
12F
330
1F
100
AcDbEntity
  8
0
  6
Continuous
 62
     7
370
    25
100
AcDbLine
 10
-345.5
 20
837.4999999959
 30
0.0
 11
-345.5
 21
837.8702576148
 31
0.0
  0
LINE
  5
130
330
1F
100
AcDbEntity
  8
0
  6
Continuous
 62
     7
370
    25
100
AcDbLine
 10
-345.5
 20
835.9999999959
 30
0.0
 11
-345.5
 21
836.3702573414
 31
0.0
  0
LINE
  5
131
330
1F
100
AcDbEntity
  8
0
  6
Continuous
 62
     7
370
    25
100
AcDbLine
 10
-345.5
 20
834.4999999959
 30
0.0
 11
-345.5
 21
834.8702571175
 31
0.0
  0
LINE
  5
132
330
1F
100
AcDbEntity
  8
0
  6
Continuous
 62
     7
370
    25
100
AcDbLine
 10
-345.5
 20
832.9999999959
 30
0.0
 11
-345.5
 21
833.3702569432
 31
0.0
  0
LINE
  5
133
330
1F
100
AcDbEntity
  8
0
  6
Continuous
 62
     7
370
    25
100
AcDbLine
 10
-345.5
 20
831.4999999959
 30
0.0
 11
-345.5
 21
831.8702568185
 31
0.0
  0
LINE
  5
134
330
1F
100
AcDbEntity
  8
0
  6
Continuous
 62
     7
370
    25
100
AcDbLine
 10
-345.5
 20
830.0
 30
0.0
 11
-345.5
 21
830.3702567435
 31
0.0
  0
LINE
  5
135
330
1F
100
AcDbEntity
  8
0
  6
Continuous
 62
     7
370
    25
100
AcDbLine
 10
-364.5
 20
831.1251432201
 30
0.0
 11
-364.5
 21
830.0
 31
0.0
  0
LINE
  5
136
330
1F
100
AcDbEntity
  8
0
  6
Continuous
 62
     7
370
    25
100
AcDbLine
 10
-364.5
 20
832.6248590275
 30
0.0
 11
-364.5
 21
832.2547432791
 31
0.0
  0
LINE
  5
137
330
1F
100
AcDbEntity
  8
0
  6
Continuous
 62
     7
370
    25
100
AcDbLine
 10
-364.5
 20
834.1248590275
 30
0.0
 11
-364.5
 21
833.7547433037
 31
0.0
  0
LINE
  5
138
330
1F
100
AcDbEntity
  8
0
  6
Continuous
 62
     7
370
    25
100
AcDbLine
 10
-364.5
 20
835.6248590275
 30
0.0
 11
-364.5
 21
835.2547432782
 31
0.0
  0
LINE
  5
139
330
1F
100
AcDbEntity
  8
0
  6
Continuous
 62
     7
370
    25
100
AcDbLine
 10
-364.5
 20
837.1248590275
 30
0.0
 11
-364.5
 21
836.7547432026
 31
0.0
  0
LINE
  5
13A
330
1F
100
AcDbEntity
  8
0
  6
Continuous
 62
     7
370
    25
100
AcDbLine
 10
-364.5
 20
838.6248590275
 30
0.0
 11
-364.5
 21
838.2547430768
 31
0.0
  0
LINE
  5
13B
330
1F
100
AcDbEntity
  8
0
  6
Continuous
 62
     7
370
    25
100
AcDbLine
 10
-364.5
 20
840.0
 30
0.0
 11
-364.5
 21
839.7547429005
 31
0.0
  0
LINE
  5
13C
330
1F
100
AcDbEntity
  8
0
  6
Continuous
 62
     7
370
    25
100
AcDbLine
 10
13.9592504261
 20
757.5
 30
0.0
 11
29.8
 21
757.5
 31
0.0
  0
LINE
  5
13D
330
1F
100
AcDbEntity
  8
0
  6
Continuous
 62
     7
370
    25
100
AcDbLine
 10
29.8
 20
772.5
 30
0.0
 11
14.0
 21
772.5
 31
0.0
  0
LINE
  5
13E
330
1F
100
AcDbEntity
  8
0
  6
Continuous
 62
     7
370
    25
100
AcDbLine
 10
2.299999723
 20
730.0
 30
0.0
 11
-13.8
 21
730.0
 31
0.0
  0
LINE
  5
13F
330
1F
100
AcDbEntity
  8
0
  6
Continuous
 62
     7
370
    25
100
AcDbLine
 10
60.0
 20
732.7
 30
0.0
 11
60.0
 21
797.3
 31
0.0
  0
LINE
  5
140
330
1F
100
AcDbEntity
  8
0
  6
Continuous
 62
     7
370
    25
100
AcDbLine
 10
70.0
 20
797.5
 30
0.0
 11
70.0
 21
732.5
 31
0.0
  0
LINE
  5
141
330
1F
100
AcDbEntity
  8
0
  6
Continuous
 62
     7
370
    25
100
AcDbLine
 10
30.0
 20
747.7
 30
0.0
 11
30.0
 21
782.3
 31
0.0
  0
LINE
  5
142
330
1F
100
AcDbEntity
  8
0
  6
Continuous
 62
     7
370
    25
100
AcDbLine
 10
-13.8
 20
800.0
 30
0.0
 11
13.7999996034
 21
800.0
 31
0.0
  0
LINE
  5
143
330
1F
100
AcDbEntity
  8
0
  6
Continuous
 62
     7
370
    25
100
AcDbLine
 10
13.7999996034
 20
730.0
 30
0.0
 11
2.3
 21
730.0
 31
0.0
  0
LINE
  5
144
330
1F
100
AcDbEntity
  8
0
  6
Continuous
 62
     7
370
    25
100
AcDbLine
 10
-13.7999996034
 20
15.0
 30
0.0
 11
13.8
 21
15.0
 31
0.0
  0
LINE
  5
145
330
1F
100
AcDbEntity
  8
0
  6
Continuous
 62
     7
370
    25
100
AcDbLine
 10
14.0
 20
0.0
 30
0.0
 11
-14.0
 21
0.0
 31
0.0
  0
LINE
  5
146
330
1F
100
AcDbEntity
  8
0
  6
Continuous
 62
     7
370
    25
100
AcDbLine
 10
-365.5
 20
840.0
 30
0.0
 11
-344.5
 21
840.0
 31
0.0
  0
LINE
  5
147
330
1F
100
AcDbEntity
  8
0
  6
Continuous
 62
     7
370
    25
100
AcDbLine
 10
-355.0
 20
830.0
 30
0.0
 11
-355.0
 21
831.1249999959
 31
0.0
  0
LINE
  5
148
330
1F
100
AcDbEntity
  8
0
  6
Continuous
 62
     7
370
    25
100
AcDbLine
 10
-345.5
 20
830.0
 30
0.0
 11
-364.5
 21
830.0
 31
0.0
  0
LINE
  5
149
330
1F
100
AcDbEntity
  8
0
  6
Continuous
 62
     8
370
    25
100
AcDbLine
 10
-14.0
 20
730.2
 30
0.0
 11
14.0
 21
730.2
 31
0.0
  0
LINE
  5
14A
330
1F
100
AcDbEntity
  8
0
  6
Continuous
 62
     8
370
    25
100
AcDbLine
 10
60.2
 20
797.5
 30
0.0
 11
60.2
 21
732.5
 31
0.0
  0
LINE
  5
14B
330
1F
100
AcDbEntity
  8
0
  6
Continuous
 62
     8
370
    25
100
AcDbLine
 10
59.8
 20
747.5
 30
0.0
 11
59.8
 21
782.5
 31
0.0
  0
LINE
  5
14C
330
1F
100
AcDbEntity
  8
0
  6
Continuous
 62
     8
370
    25
100
AcDbLine
 10
30.2
 20
782.5
 30
0.0
 11
30.2
 21
747.5
 31
0.0
  0
LINE
  5
14D
330
1F
100
AcDbEntity
  8
0
  6
Continuous
 62
     8
370
    25
100
AcDbLine
 10
14.0
 20
799.8
 30
0.0
 11
-14.0
 21
799.8
 31
0.0
  0
LINE
  5
14E
330
1F
100
AcDbEntity
  8
0
  6
Continuous
 62
     8
370
    25
100
AcDbLine
 10
14.0
 20
14.8
 30
0.0
 11
-14.0
 21
14.8
 31
0.0
  0
LINE
  5
14F
330
1F
100
AcDbEntity
  8
0
  6
Continuous
 62
     8
370
    25
100
AcDbLine
 10
-10.5
 20
870.0
 30
0.0
 11
10.5
 21
870.0
 31
0.0
  0
LINE
  5
150
330
1F
100
AcDbEntity
  8
0
  6
Continuous
 62
     8
370
    25
100
AcDbLine
 10
-30.0
 20
889.5
 30
0.0
 11
-30.0
 21
910.5
 31
0.0
  0
LINE
  5
151
330
1F
100
AcDbEntity
  8
0
  6
Continuous
 62
     8
370
    25
100
AcDbLine
 10
-344.5
 20
870.0
 30
0.0
 11
-365.5
 21
870.0
 31
0.0
  0
LINE
  5
152
330
1F
100
AcDbEntity
  8
0
  6
Continuous
 62
     8
370
    25
100
AcDbLine
 10
-325.0
 20
889.5
 30
0.0
 11
-325.0
 21
910.5
 31
0.0
  0
LINE
  5
153
330
1F
100
AcDbEntity
  8
0
  6
Continuous
 62
     8
370
    25
100
AcDbLine
 10
29.8
 20
757.5
 30
0.0
 11
29.8
 21
772.5
 31
0.0
  0
ARC
  5
154
330
1F
100
AcDbEntity
  8
0
  6
Continuous
 62
     7
370
    25
100
AcDbCircle
 10
-2.3
 20
730.2
 30
0.0
 40
0.1999999999999797
100
AcDbArc
 50
180.0
 51
270.0
  0
ARC
  5
155
330
1F
100
AcDbEntity
  8
0
  6
Continuous
 62
     7
370
    25
100
AcDbCircle
 10
2.3
 20
730.2
 30
0.0
 40
0.1999999999999686
100
AcDbArc
 50
270.0
 51
0.0
  0
ARC
  5
156
330
1F
100
AcDbEntity
  8
0
  6
Continuous
 62
     7
370
    25
100
AcDbCircle
 10
60.2
 20
797.3
 30
0.0
 40
0.2000000000001592
100
AcDbArc
 50
90.0
 51
180.0
  0
ARC
  5
157
330
1F
100
AcDbEntity
  8
0
  6
Continuous
 62
     7
370
    25
100
AcDbCircle
 10
60.2
 20
732.7
 30
0.0
 40
0.2000000000001592
100
AcDbArc
 50
180.0
 51
270.0
  0
ARC
  5
158
330
1F
100
AcDbEntity
  8
0
  6
Continuous
 62
     7
370
    25
100
AcDbCircle
 10
59.8
 20
782.7
 30
0.0
 40
0.2000000000000455
100
AcDbArc
 50
270.0
 51
360.0
  0
ARC
  5
159
330
1F
100
AcDbEntity
  8
0
  6
Continuous
 62
     7
370
    25
100
AcDbCircle
 10
59.8
 20
747.3
 30
0.0
 40
0.1999999999998678
100
AcDbArc
 50
360.0
 51
90.0
  0
ARC
  5
15A
330
1F
100
AcDbEntity
  8
0
  6
Continuous
 62
     7
370
    25
100
AcDbCircle
 10
30.2
 20
747.7
 30
0.0
 40
0.2000000000001592
100
AcDbArc
 50
180.0
 51
270.0
  0
ARC
  5
15B
330
1F
100
AcDbEntity
  8
0
  6
Continuous
 62
     7
370
    25
100
AcDbCircle
 10
30.2
 20
782.3
 30
0.0
 40
0.2000000000001627
100
AcDbArc
 50
90.0
 51
180.0
  0
ARC
  5
15C
330
1F
100
AcDbEntity
  8
0
  6
Continuous
 62
     7
370
    25
100
AcDbCircle
 10
-13.8
 20
799.8
 30
0.0
 40
0.2000000000001592
100
AcDbArc
 50
90.0
 51
179.9999999999
  0
ARC
  5
15D
330
1F
100
AcDbEntity
  8
0
  6
Continuous
 62
     7
370
    25
100
AcDbCircle
 10
13.8
 20
799.8
 30
0.0
 40
0.2000000000000455
100
AcDbArc
 50
0.0
 51
90.0
  0
ARC
  5
15E
330
1F
100
AcDbEntity
  8
0
  6
Continuous
 62
     7
370
    25
100
AcDbCircle
 10
-13.8
 20
730.2
 30
0.0
 40
0.2000000000000455
100
AcDbArc
 50
180.0
 51
270.0
  0
ARC
  5
15F
330
1F
100
AcDbEntity
  8
0
  6
Continuous
 62
     7
370
    25
100
AcDbCircle
 10
13.8
 20
730.2
 30
0.0
 40
0.2000000000001592
100
AcDbArc
 50
270.0
 51
359.9999999999
  0
ARC
  5
160
330
1F
100
AcDbEntity
  8
0
  6
Continuous
 62
     7
370
    25
100
AcDbCircle
 10
13.8
 20
14.8
 30
0.0
 40
0.2000000000000224
100
AcDbArc
 50
360.0
 51
90.0
  0
ARC
  5
161
330
1F
100
AcDbEntity
  8
0
  6
Continuous
 62
     7
370
    25
100
AcDbCircle
 10
-13.8
 20
14.8
 30
0.0
 40
0.2000000000000224
100
AcDbArc
 50
90.0
 51
180.0
  0
ARC
  5
162
330
1F
100
AcDbEntity
  8
0
  6
Continuous
 62
     7
370
    25
100
AcDbCircle
 10
-30.0
 20
870.0
 30
0.0
 40
19.50000000000034
100
AcDbArc
 50
0.0
 51
90.0
  0
ARC
  5
163
330
1F
100
AcDbEntity
  8
0
  6
Continuous
 62
     7
370
    25
100
AcDbCircle
 10
-30.0
 20
870.0
 30
0.0
 40
40.5
100
AcDbArc
 50
0.0
 51
90.0
  0
ARC
  5
164
330
1F
100
AcDbEntity
  8
0
  6
Continuous
 62
     7
370
    25
100
AcDbCircle
 10
-325.0
 20
870.0
 30
0.0
 40
19.50000000000034
100
AcDbArc
 50
90.0
 51
180.0
  0
ARC
  5
165
330
1F
100
AcDbEntity
  8
0
  6
Continuous
 62
     7
370
    25
100
AcDbCircle
 10
-325.0
 20
870.0
 30
0.0
 40
40.5
100
AcDbArc
 50
90.0
 51
180.0
  0
ARC
  5
166
330
1F
100
AcDbEntity
  8
0
  6
Continuous
 62
     7
370
    25
100
AcDbCircle
 10
29.8
 20
757.3
 30
0.0
 40
0.2000000000002728
100
AcDbArc
 50
0.0
 51
90.0
  0
ARC
  5
167
330
1F
100
AcDbEntity
  8
0
  6
Continuous
 62
     7
370
    25
100
AcDbCircle
 10
29.8
 20
772.7
 30
0.0
 40
0.2000000000000455
100
AcDbArc
 50
270.0
 51
360.0
  0
LINE
  5
19D
330
1B
100
AcDbEntity
 67
     1
  8
0
  6
Continuous
 62
     7
370
    25
100
AcDbLine
 10
-10.5
 20
0.0
 30
0.0
 11
-10.5
 21
-355.0
 31
0.0
  0
LINE
  5
19E
330
1B
100
AcDbEntity
 67
     1
  8
0
  6
Continuous
 62
     7
370
    25
100
AcDbLine
 10
10.5
 20
-355.0
 30
0.0
 11
10.5
 21
0.0
 31
0.0
  0
LINE
  5
19F
330
1B
100
AcDbEntity
 67
     1
  8
0
  6
Continuous
 62
     7
370
    25
100
AcDbLine
 10
-32.5
 20
70.0
 30
0.0
 11
-32.5
 21
60.2
 31
0.0
  0
LINE
  5
1A0
330
1B
100
AcDbEntity
 67
     1
  8
0
  6
Continuous
 62
     7
370
    25
100
AcDbLine
 10
32.5
 20
60.2
 30
0.0
 11
32.5
 21
70.0
 31
0.0
  0
LINE
  5
1A1
330
1B
100
AcDbEntity
 67
     1
  8
0
  6
Continuous
 62
     7
370
    25
100
AcDbLine
 10
-17.5
 20
59.8
 30
0.0
 11
-17.5
 21
30.2
 31
0.0
  0
LINE
  5
1A2
330
1B
100
AcDbEntity
 67
     1
  8
0
  6
Continuous
 62
     7
370
    25
100
AcDbLine
 10
17.5
 20
30.2
 30
0.0
 11
17.5
 21
59.8
 31
0.0
  0
LINE
  5
1A3
330
1B
100
AcDbEntity
 67
     1
  8
0
  6
Continuous
 62
     7
370
    25
100
AcDbLine
 10
20.2
 20
-10.0
 30
0.0
 11
39.8
 21
-10.0
 31
0.0
  0
LINE
  5
1A4
330
1B
100
AcDbEntity
 67
     1
  8
0
  6
Continuous
 62
     7
370
    25
100
AcDbLine
 10
39.8
 20
10.0
 30
0.0
 11
20.2
 21
10.0
 31
0.0
  0
LINE
  5
1A5
330
1B
100
AcDbEntity
 67
     1
  8
0
  6
Continuous
 62
     7
370
    25
100
AcDbLine
 10
10.5
 20
-10.0
 30
0.0
 11
19.3
 21
-10.0
 31
0.0
  0
LINE
  5
1A6
330
1B
100
AcDbEntity
 67
     1
  8
0
  6
Continuous
 62
     7
370
    25
100
AcDbLine
 10
19.3
 20
10.0
 30
0.0
 11
9.8958828052
 21
10.0
 31
0.0
  0
LINE
  5
1A7
330
1B
100
AcDbEntity
 67
     1
  8
0
  6
Continuous
 62
     7
370
    25
100
AcDbLine
 10
20.0
 20
9.25
 30
0.0
 11
19.5
 21
9.25
 31
0.0
  0
LINE
  5
1A8
330
1B
100
AcDbEntity
 67
     1
  8
0
  6
Continuous
 62
     7
370
    25
100
AcDbLine
 10
19.5
 20
-9.25
 30
0.0
 11
20.0
 21
-9.25
 31
0.0
  0
LINE
  5
1A9
330
1B
100
AcDbEntity
 67
     1
  8
0
  6
Continuous
 62
     7
370
    25
100
AcDbLine
 10
7.5
 20
11.8807033628
 30
0.0
 11
7.5
 21
29.8
 31
0.0
  0
LINE
  5
1AA
330
1B
100
AcDbEntity
 67
     1
  8
0
  6
Continuous
 62
     7
370
    25
100
AcDbLine
 10
-7.5
 20
29.8
 30
0.0
 11
-7.5
 21
11.8595839951
 31
0.0
  0
LINE
  5
1AB
330
1B
100
AcDbEntity
 67
     1
  8
0
  6
Continuous
 62
     7
370
    25
100
AcDbLine
 10
-32.3
 20
60.0
 30
0.0
 11
32.3
 21
60.0
 31
0.0
  0
LINE
  5
1AC
330
1B
100
AcDbEntity
 67
     1
  8
0
  6
Continuous
 62
     7
370
    25
100
AcDbLine
 10
-32.5
 20
70.0
 30
0.0
 11
32.5
 21
70.0
 31
0.0
  0
LINE
  5
1AD
330
1B
100
AcDbEntity
 67
     1
  8
0
  6
Continuous
 62
     7
370
    25
100
AcDbLine
 10
17.3
 20
30.0
 30
0.0
 11
-17.2991783163
 21
30.0
 31
0.0
  0
LINE
  5
1AE
330
1B
100
AcDbEntity
 67
     1
  8
0
  6
Continuous
 62
     7
370
    25
100
AcDbLine
 10
40.0
 20
9.8
 30
0.0
 11
40.0
 21
-9.7999992859
 31
0.0
  0
LINE
  5
1AF
330
1B
100
AcDbEntity
 67
     1
  8
0
  6
Continuous
 62
     7
370
    25
100
AcDbLine
 10
19.5
 20
9.8
 30
0.0
 11
19.5
 21
-9.8
 31
0.0
  0
LINE
  5
1B0
330
1B
100
AcDbEntity
 67
     1
  8
0
  6
Continuous
 62
     7
370
    25
100
AcDbLine
 10
20.0
 20
-9.8
 30
0.0
 11
20.0
 21
9.8
 31
0.0
  0
LINE
  5
1B1
330
1B
100
AcDbEntity
 67
     1
  8
0
  6
Continuous
 62
     8
370
    25
100
AcDbLine
 10
10.5
 20
-30.0
 30
0.0
 11
-10.5
 21
-30.0
 31
0.0
  0
LINE
  5
1B2
330
1B
100
AcDbEntity
 67
     1
  8
0
  6
Continuous
 62
     8
370
    25
100
AcDbLine
 10
10.5
 20
-325.0
 30
0.0
 11
-10.5
 21
-325.0
 31
0.0
  0
LINE
  5
1B3
330
1B
100
AcDbEntity
 67
     1
  8
0
  6
Continuous
 62
     8
370
    25
100
AcDbLine
 10
-32.5
 20
60.2
 30
0.0
 11
32.5
 21
60.2
 31
0.0
  0
LINE
  5
1B4
330
1B
100
AcDbEntity
 67
     1
  8
0
  6
Continuous
 62
     8
370
    25
100
AcDbLine
 10
17.5
 20
59.8
 30
0.0
 11
-17.5
 21
59.8
 31
0.0
  0
LINE
  5
1B5
330
1B
100
AcDbEntity
 67
     1
  8
0
  6
Continuous
 62
     8
370
    25
100
AcDbLine
 10
-17.5
 20
30.2
 30
0.0
 11
17.5
 21
30.2
 31
0.0
  0
LINE
  5
1B6
330
1B
100
AcDbEntity
 67
     1
  8
0
  6
Continuous
 62
     8
370
    25
100
AcDbLine
 10
39.8
 20
-10.0
 30
0.0
 11
39.8
 21
10.0
 31
0.0
  0
LINE
  5
1B7
330
1B
100
AcDbEntity
 67
     1
  8
0
  6
Continuous
 62
     8
370
    25
100
AcDbLine
 10
20.2
 20
10.0
 30
0.0
 11
20.2
 21
-10.0
 31
0.0
  0
LINE
  5
1B8
330
1B
100
AcDbEntity
 67
     1
  8
0
  6
Continuous
 62
     8
370
    25
100
AcDbLine
 10
19.3
 20
-10.0
 30
0.0
 11
19.3
 21
10.0
 31
0.0
  0
LINE
  5
1B9
330
1B
100
AcDbEntity
 67
     1
  8
0
  6
Continuous
 62
     8
370
    25
100
AcDbLine
 10
7.5
 20
29.8
 30
0.0
 11
-7.5
 21
29.8
 31
0.0
  0
ARC
  5
1BA
330
1B
100
AcDbEntity
 67
     1
  8
0
  6
Continuous
 62
     7
370
    25
100
AcDbCircle
 10
-32.3
 20
60.2
 30
0.0
 40
0.2000000000000171
100
AcDbArc
 50
180.0
 51
270.0
  0
ARC
  5
1BB
330
1B
100
AcDbEntity
 67
     1
  8
0
  6
Continuous
 62
     7
370
    25
100
AcDbCircle
 10
32.3
 20
60.2
 30
0.0
 40
0.2000000000000171
100
AcDbArc
 50
270.0
 51
360.0
  0
ARC
  5
1BC
330
1B
100
AcDbEntity
 67
     1
  8
0
  6
Continuous
 62
     7
370
    25
100
AcDbCircle
 10
-17.7
 20
59.8
 30
0.0
 40
0.2000000000000099
100
AcDbArc
 50
0.0
 51
90.0
  0
ARC
  5
1BD
330
1B
100
AcDbEntity
 67
     1
  8
0
  6
Continuous
 62
     7
370
    25
100
AcDbCircle
 10
17.7
 20
59.8
 30
0.0
 40
0.1999999999999957
100
AcDbArc
 50
90.0
 51
180.0
  0
ARC
  5
1BE
330
1B
100
AcDbEntity
 67
     1
  8
0
  6
Continuous
 62
     7
370
    25
100
AcDbCircle
 10
17.3
 20
30.2
 30
0.0
 40
0.2000000000000028
100
AcDbArc
 50
270.0
 51
0.0
  0
ARC
  5
1BF
330
1B
100
AcDbEntity
 67
     1
  8
0
  6
Continuous
 62
     7
370
    25
100
AcDbCircle
 10
-17.3
 20
30.2
 30
0.0
 40
0.2000000000000028
100
AcDbArc
 50
180.0
 51
270.0
  0
ARC
  5
1C0
330
1B
100
AcDbEntity
 67
     1
  8
0
  6
Continuous
 62
     7
370
    25
100
AcDbCircle
 10
39.8
 20
9.8
 30
0.0
 40
0.1999999999999904
100
AcDbArc
 50
0.0
 51
90.0
  0
ARC
  5
1C1
330
1B
100
AcDbEntity
 67
     1
  8
0
  6
Continuous
 62
     7
370
    25
100
AcDbCircle
 10
39.8
 20
-9.8
 30
0.0
 40
0.2000000000000011
100
AcDbArc
 50
270.0
 51
0.0
  0
ARC
  5
1C2
330
1B
100
AcDbEntity
 67
     1
  8
0
  6
Continuous
 62
     7
370
    25
100
AcDbCircle
 10
19.3
 20
-9.8
 30
0.0
 40
0.2000000000000011
100
AcDbArc
 50
270.0
 51
360.0
  0
ARC
  5
1C3
330
1B
100
AcDbEntity
 67
     1
  8
0
  6
Continuous
 62
     7
370
    25
100
AcDbCircle
 10
19.3
 20
9.8
 30
0.0
 40
0.2000000000000028
100
AcDbArc
 50
0.0
 51
90.0
  0
ARC
  5
1C4
330
1B
100
AcDbEntity
 67
     1
  8
0
  6
Continuous
 62
     7
370
    25
100
AcDbCircle
 10
20.2
 20
9.8
 30
0.0
 40
0.1999999999999993
100
AcDbArc
 50
90.0
 51
180.0
  0
ARC
  5
1C5
330
1B
100
AcDbEntity
 67
     1
  8
0
  6
Continuous
 62
     7
370
    25
100
AcDbCircle
 10
20.2
 20
-9.8
 30
0.0
 40
0.2000000000000046
100
AcDbArc
 50
180.0
 51
270.0
  0
ARC
  5
1C6
330
1B
100
AcDbEntity
 67
     1
  8
0
  6
Continuous
 62
     7
370
    25
100
AcDbCircle
 10
7.7
 20
29.8
 30
0.0
 40
0.2000000000000002
100
AcDbArc
 50
90.0
 51
180.0
  0
ARC
  5
1C7
330
1B
100
AcDbEntity
 67
     1
  8
0
  6
Continuous
 62
     7
370
    25
100
AcDbCircle
 10
-7.7
 20
29.8
 30
0.0
 40
0.2000000000000064
100
AcDbArc
 50
0.0
 51
90.0
  0
ARC
  5
1C8
330
1B
100
AcDbEntity
 67
     1
  8
0
  6
Continuous
 62
     7
370
    25
100
AcDbCircle
 10
0.0
 20
0.0
 30
0.0
 40
10.5
100
AcDbArc
 50
0.0
 51
180.0
  0
ARC
  5
1C9
330
1B
100
AcDbEntity
 67
     1
  8
0
  6
Continuous
 62
     7
370
    25
100
AcDbCircle
 10
0.0
 20
-355.0
 30
0.0
 40
10.5
100
AcDbArc
 50
180.0
 51
0.0
  0
ARC
  5
1CA
330
1B
100
AcDbEntity
 67
     1
  8
0
  6
Continuous
 62
     7
370
    25
100
AcDbCircle
 10
0.0
 20
0.0
 30
0.0
 40
14.00000000000001
100
AcDbArc
 50
318.5903778907
 51
221.4096221093
  0
ARC
  5
1CB
330
1B
100
AcDbEntity
 67
     1
  8
0
  6
Continuous
 62
     8
370
    25
100
AcDbCircle
 10
0.0
 20
0.0
 30
0.0
 40
13.80000000000001
100
AcDbArc
 50
319.5409169192
 51
220.4590830808
  0
VIEWPORT
  5
32A
330
1B
100
AcDbEntity
 67
     1
  8
0
100
AcDbViewport
 10
0.0
 20
0.0
 30
0.0
 40
205.6
 41
156.0
 68
     1
 69
     1
 12
-147.75
 22
455.25
 13
0.0
 23
0.0
 14
10.0
 24
10.0
 15
10.0
 25
10.0
 16
0.0
 26
0.0
 36
1.0
 17
0.0
 27
0.0
 37
0.0
 42
50.0
 43
0.0
 44
0.0
 45
928.71
 50
0.0
 51
0.0
 72
   100
 90
   557152
  1

281
     0
 71
     1
 74
     0
110
0.0
120
0.0
130
0.0
111
1.0
121
0.0
131
0.0
112
0.0
122
1.0
132
0.0
 79
     0
146
0.0
  0
ENDSEC
  0
SECTION
  2
OBJECTS
  0
DICTIONARY
  5
C
330
0
100
AcDbDictionary
281
     1
  3
ACAD_GROUP
350
D
  3
ACAD_LAYOUT
350
1A
  3
ACAD_MLINESTYLE
350
17
  3
ACAD_PLOTSETTINGS
350
19
  3
ACAD_PLOTSTYLENAME
350
E
  3
ACAD_SCALELIST
350
47
  0
DICTIONARY
  5
D
102
{ACAD_REACTORS
330
C
102
}
330
C
100
AcDbDictionary
281
     1
  0
DICTIONARY
  5
1A
102
{ACAD_REACTORS
330
C
102
}
330
C
100
AcDbDictionary
281
     1
  3
_Back
350
2D4
  3
_Front
350
26
  3
_Top
350
1E
  3
Model
350
22
  0
DICTIONARY
  5
17
102
{ACAD_REACTORS
330
C
102
}
330
C
100
AcDbDictionary
281
     1
  3
Standard
350
18
  0
DICTIONARY
  5
19
102
{ACAD_REACTORS
330
C
102
}
330
C
100
AcDbDictionary
281
     1
  0
ACDBDICTIONARYWDFLT
  5
E
102
{ACAD_REACTORS
330
C
102
}
330
C
100
AcDbDictionary
281
     1
  3
Normal
350
F
100
AcDbDictionaryWithDefault
340
F
  0
DICTIONARY
  5
47
102
{ACAD_REACTORS
330
C
102
}
330
C
100
AcDbDictionary
281
     1
  3
A0
350
48
  3
A1
350
49
  3
A2
350
4A
  3
A3
350
4B
  3
A4
350
4C
  3
A5
350
4D
  3
A6
350
4E
  3
A7
350
4F
  3
A8
350
50
  3
A9
350
51
  3
B0
350
52
  3
B1
350
53
  3
B2
350
54
  3
B3
350
55
  3
B4
350
56
  3
B5
350
57
  3
B6
350
58
  3
B7
350
59
  3
B8
350
5A
  3
B9
350
5B
  3
C0
350
5C
  3
C1
350
5D
  3
C2
350
5E
  3
C3
350
5F
  3
C4
350
60
  3
C5
350
61
  3
C6
350
62
  3
C7
350
63
  3
C8
350
64
  3
C9
350
65
  3
D0
350
66
  3
D1
350
67
  3
D2
350
68
  0
LAYOUT
  5
2D4
102
{ACAD_REACTORS
330
1A
102
}
330
1A
100
AcDbPlotSettings
  1

  2
none_device
  4
ISO_A4_(210.00_x_297.00_MM)
  6

 40
7.5
 41
20.0
 42
7.5
 43
20.0
 44
210.0
 45
297.0
 46
0.0
 47
0.0
 48
0.0
 49
0.0
140
0.0
141
0.0
142
1.0
143
2.2333333333
 70
   688
 72
     1
 73
     1
 74
     1
  7

 75
     0
147
0.447761194
148
32.5
149
365.5
100
AcDbLayout
  1
_Back
 70
     1
 71
     3
 10
0.0
 20
0.0
 11
0.0
 21
0.0
 12
0.0
 22
0.0
 32
0.0
 14
0.0
 24
0.0
 34
0.0
 15
0.0
 25
0.0
 35
0.0
146
0.0
 13
0.0
 23
0.0
 33
0.0
 16
1.0
 26
0.0
 36
0.0
 17
0.0
 27
1.0
 37
0.0
 76
     0
330
2D3
331
32E
  0
LAYOUT
  5
26
102
{ACAD_REACTORS
330
1A
102
}
330
1A
100
AcDbPlotSettings
  1

  2
none_device
  4
ISO_A4_(210.00_x_297.00_MM)
  6

 40
7.5
 41
20.0
 42
7.5
 43
20.0
 44
210.0
 45
297.0
 46
0.0
 47
0.0
 48
0.0
 49
0.0
140
0.0
141
0.0
142
1.0
143
2.2333333333
 70
   688
 72
     1
 73
     1
 74
     1
  7

 75
     0
147
0.447761194
148
32.5
149
365.5
100
AcDbLayout
  1
_Front
 70
     1
 71
     2
 10
0.0
 20
0.0
 11
0.0
 21
0.0
 12
0.0
 22
0.0
 32
0.0
 14
0.0
 24
0.0
 34
0.0
 15
0.0
 25
0.0
 35
0.0
146
0.0
 13
0.0
 23
0.0
 33
0.0
 16
1.0
 26
0.0
 36
0.0
 17
0.0
 27
1.0
 37
0.0
 76
     0
330
23
331
32C
  0
LAYOUT
  5
1E
102
{ACAD_REACTORS
330
1A
102
}
330
1A
100
AcDbPlotSettings
  1

  2
none_device
  4
ISO_A4_(210.00_x_297.00_MM)
  6

 40
7.5
 41
20.0
 42
7.5
 43
20.0
 44
210.0
 45
297.0
 46
0.0
 47
0.0
 48
0.0
 49
0.0
140
0.0
141
0.0
142
1.0
143
2.2333333333
 70
   688
 72
     1
 73
     1
 74
     1
  7

 75
     0
147
0.447761194
148
32.5
149
365.5
100
AcDbLayout
  1
_Top
 70
     1
 71
     1
 10
-77.1666666667
 20
-382.25
 11
586.1333333333
 21
86.75
 12
0.0
 22
0.0
 32
0.0
 14
-32.5
 24
-365.5
 34
0.0
 15
40.0
 25
70.0
 35
0.0
146
0.0
 13
0.0
 23
0.0
 33
0.0
 16
1.0
 26
0.0
 36
0.0
 17
0.0
 27
1.0
 37
0.0
 76
     0
330
1B
331
32A
  0
LAYOUT
  5
22
102
{ACAD_REACTORS
330
1A
102
}
330
1A
100
AcDbPlotSettings
  1

  2
none_device
  4
ANSI_A_(11.00_x_8.50_Inches)
  6

 40
6.35
 41
19.05
 42
6.35000508
 43
19.05000254
 44
279.4
 45
215.9
 46
168.0344925177
 47
-17.97050127
 48
0.0
 49
0.0
140
0.0
141
0.0
142
0.0092421746
143
1.0
 70
  1696
 72
     0
 73
     0
 74
     0
  7

 75
     0
147
0.0179189148
148
-1300.4909072572
149
0.0
100
AcDbLayout
  1
Model
 70
     1
 71
     0
 10
0.0
 20
0.0
 11
420.0
 21
297.0
 12
0.0
 22
0.0
 32
0.0
 14
-365.5
 24
0.0
 34
0.0
 15
70.0
 25
910.5
 35
0.0
146
0.0
 13
0.0
 23
0.0
 33
0.0
 16
1.0
 26
0.0
 36
0.0
 17
0.0
 27
1.0
 37
0.0
 76
     0
330
1F
331
29
  0
MLINESTYLE
  5
18
102
{ACAD_REACTORS
330
17
102
}
330
17
100
AcDbMlineStyle
  2
Standard
 70
     0
  3

 62
   256
 51
90.0
 52
90.0
 71
     2
 49
0.5
 62
   256
  6
BYLAYER
 49
-0.5
 62
   256
  6
BYLAYER
  0
ACDBPLACEHOLDER
  5
F
102
{ACAD_REACTORS
330
E
102
}
330
E
  0
SCALE
  5
48
102
{ACAD_REACTORS
330
47
102
}
330
47
100
AcDbScale
 70
     0
300
1:1
140
1.0
141
1.0
290
     1
  0
SCALE
  5
49
102
{ACAD_REACTORS
330
47
102
}
330
47
100
AcDbScale
 70
     0
300
1:2
140
1.0
141
2.0
290
     0
  0
SCALE
  5
4A
102
{ACAD_REACTORS
330
47
102
}
330
47
100
AcDbScale
 70
     0
300
1:4
140
1.0
141
4.0
290
     0
  0
SCALE
  5
4B
102
{ACAD_REACTORS
330
47
102
}
330
47
100
AcDbScale
 70
     0
300
1:5
140
1.0
141
5.0
290
     0
  0
SCALE
  5
4C
102
{ACAD_REACTORS
330
47
102
}
330
47
100
AcDbScale
 70
     0
300
1:8
140
1.0
141
8.0
290
     0
  0
SCALE
  5
4D
102
{ACAD_REACTORS
330
47
102
}
330
47
100
AcDbScale
 70
     0
300
1:10
140
1.0
141
10.0
290
     0
  0
SCALE
  5
4E
102
{ACAD_REACTORS
330
47
102
}
330
47
100
AcDbScale
 70
     0
300
1:16
140
1.0
141
16.0
290
     0
  0
SCALE
  5
4F
102
{ACAD_REACTORS
330
47
102
}
330
47
100
AcDbScale
 70
     0
300
1:20
140
1.0
141
20.0
290
     0
  0
SCALE
  5
50
102
{ACAD_REACTORS
330
47
102
}
330
47
100
AcDbScale
 70
     0
300
1:30
140
1.0
141
30.0
290
     0
  0
SCALE
  5
51
102
{ACAD_REACTORS
330
47
102
}
330
47
100
AcDbScale
 70
     0
300
1:40
140
1.0
141
40.0
290
     0
  0
SCALE
  5
52
102
{ACAD_REACTORS
330
47
102
}
330
47
100
AcDbScale
 70
     0
300
1:50
140
1.0
141
50.0
290
     0
  0
SCALE
  5
53
102
{ACAD_REACTORS
330
47
102
}
330
47
100
AcDbScale
 70
     0
300
1:100
140
1.0
141
100.0
290
     0
  0
SCALE
  5
54
102
{ACAD_REACTORS
330
47
102
}
330
47
100
AcDbScale
 70
     0
300
2:1
140
2.0
141
1.0
290
     0
  0
SCALE
  5
55
102
{ACAD_REACTORS
330
47
102
}
330
47
100
AcDbScale
 70
     0
300
4:1
140
4.0
141
1.0
290
     0
  0
SCALE
  5
56
102
{ACAD_REACTORS
330
47
102
}
330
47
100
AcDbScale
 70
     0
300
8:1
140
8.0
141
1.0
290
     0
  0
SCALE
  5
57
102
{ACAD_REACTORS
330
47
102
}
330
47
100
AcDbScale
 70
     0
300
10:1
140
10.0
141
1.0
290
     0
  0
SCALE
  5
58
102
{ACAD_REACTORS
330
47
102
}
330
47
100
AcDbScale
 70
     0
300
100:1
140
100.0
141
1.0
290
     0
  0
SCALE
  5
59
102
{ACAD_REACTORS
330
47
102
}
330
47
100
AcDbScale
 70
     0
300
1/128" = 1'-0"
140
0.0078125
141
12.0
290
     0
  0
SCALE
  5
5A
102
{ACAD_REACTORS
330
47
102
}
330
47
100
AcDbScale
 70
     0
300
1/64" = 1'-0"
140
0.015625
141
12.0
290
     0
  0
SCALE
  5
5B
102
{ACAD_REACTORS
330
47
102
}
330
47
100
AcDbScale
 70
     0
300
1/32" = 1'-0"
140
0.03125
141
12.0
290
     0
  0
SCALE
  5
5C
102
{ACAD_REACTORS
330
47
102
}
330
47
100
AcDbScale
 70
     0
300
1/16" = 1'-0"
140
0.0625
141
12.0
290
     0
  0
SCALE
  5
5D
102
{ACAD_REACTORS
330
47
102
}
330
47
100
AcDbScale
 70
     0
300
3/32" = 1'-0"
140
0.09375
141
12.0
290
     0
  0
SCALE
  5
5E
102
{ACAD_REACTORS
330
47
102
}
330
47
100
AcDbScale
 70
     0
300
1/8" = 1'-0"
140
0.125
141
12.0
290
     0
  0
SCALE
  5
5F
102
{ACAD_REACTORS
330
47
102
}
330
47
100
AcDbScale
 70
     0
300
3/16" = 1'-0"
140
0.1875
141
12.0
290
     0
  0
SCALE
  5
60
102
{ACAD_REACTORS
330
47
102
}
330
47
100
AcDbScale
 70
     0
300
1/4" = 1'-0"
140
0.25
141
12.0
290
     0
  0
SCALE
  5
61
102
{ACAD_REACTORS
330
47
102
}
330
47
100
AcDbScale
 70
     0
300
3/8" = 1'-0"
140
0.375
141
12.0
290
     0
  0
SCALE
  5
62
102
{ACAD_REACTORS
330
47
102
}
330
47
100
AcDbScale
 70
     0
300
1/2" = 1'-0"
140
0.5
141
12.0
290
     0
  0
SCALE
  5
63
102
{ACAD_REACTORS
330
47
102
}
330
47
100
AcDbScale
 70
     0
300
3/4" = 1'-0"
140
0.75
141
12.0
290
     0
  0
SCALE
  5
64
102
{ACAD_REACTORS
330
47
102
}
330
47
100
AcDbScale
 70
     0
300
1" = 1'-0"
140
1.0
141
12.0
290
     0
  0
SCALE
  5
65
102
{ACAD_REACTORS
330
47
102
}
330
47
100
AcDbScale
 70
     0
300
1-1/2" = 1'-0"
140
1.5
141
12.0
290
     0
  0
SCALE
  5
66
102
{ACAD_REACTORS
330
47
102
}
330
47
100
AcDbScale
 70
     0
300
3" = 1'-0"
140
3.0
141
12.0
290
     0
  0
SCALE
  5
67
102
{ACAD_REACTORS
330
47
102
}
330
47
100
AcDbScale
 70
     0
300
6" = 1'-0"
140
6.0
141
12.0
290
     0
  0
SCALE
  5
68
102
{ACAD_REACTORS
330
47
102
}
330
47
100
AcDbScale
 70
     0
300
1'-0" = 1'-0"
140
12.0
141
12.0
290
     0
  0
ENDSEC
  0
EOF
