  0
SECTION
  2
HEADER
  9
$ACADVER
  1
AC1015
  9
$ACADMAINTVER
 70
     6
  9
$DWGCODEPAGE
  3
ANSI_1252
  9
$INSBASE
 10
0.0
 20
0.0
 30
0.0
  9
$EXTMIN
 10
-132.5
 20
-26.0
 30
0.0
  9
$EXTMAX
 10
34.5
 20
26.0
 30
0.0
  9
$LIMMIN
 10
0.0
 20
0.0
  9
$LIMMAX
 10
420.0
 20
297.0
  9
$ORTHOMODE
 70
     0
  9
$REGENMODE
 70
     1
  9
$FILLMODE
 70
     1
  9
$QTEXTMODE
 70
     0
  9
$MIRRTEXT
 70
     1
  9
$LTSCALE
 40
1.0
  9
$ATTMODE
 70
     1
  9
$TEXTSIZE
 40
3.5
  9
$TRACEWID
 40
1.0
  9
$TEXTSTYLE
  7
Standard
  9
$CLAYER
  8
0
  9
$CELTYPE
  6
ByLayer
  9
$CECOLOR
 62
   256
  9
$CELTSCALE
 40
1.0
  9
$DISPSILH
 70
     0
  9
$DIMSCALE
 40
1.0
  9
$DIMASZ
 40
3.302
  9
$DIMEXO
 40
1.0
  9
$DIMDLI
 40
3.75
  9
$DIMRND
 40
0.0
  9
$DIMDLE
 40
0.0
  9
$DIMEXE
 40
1.0
  9
$DIMTP
 40
0.0
  9
$DIMTM
 40
0.0
  9
$DIMTXT
 40
3.5
  9
$DIMCEN
 40
2.5
  9
$DIMTSZ
 40
0.0
  9
$DIMTOL
 70
     0
  9
$DIMLIM
 70
     0
  9
$DIMTIH
 70
     1
  9
$DIMTOH
 70
     1
  9
$DIMSE1
 70
     0
  9
$DIMSE2
 70
     0
  9
$DIMTAD
 70
     1
  9
$DIMZIN
 70
     1
  9
$DIMBLK
  1

  9
$DIMASO
 70
     1
  9
$DIMSHO
 70
     1
  9
$DIMPOST
  1

  9
$DIMAPOST
  1

  9
$DIMALT
 70
     0
  9
$DIMALTD
 70
     3
  9
$DIMALTF
 40
0.0393700787
  9
$DIMLFAC
 40
1.0
  9
$DIMTOFL
 70
     1
  9
$DIMTVP
 40
0.0
  9
$DIMTIX
 70
     0
  9
$DIMSOXD
 70
     0
  9
$DIMSAH
 70
     0
  9
$DIMBLK1
  1

  9
$DIMBLK2
  1

  9
$DIMSTYLE
  2
ISO-25
  9
$DIMCLRD
 70
     0
  9
$DIMCLRE
 70
     0
  9
$DIMCLRT
 70
     0
  9
$DIMTFAC
 40
1.0
  9
$DIMGAP
 40
1.524
  9
$DIMJUST
 70
     0
  9
$DIMSD1
 70
     0
  9
$DIMSD2
 70
     0
  9
$DIMTOLJ
 70
     0
  9
$DIMTZIN
 70
     1
  9
$DIMALTZ
 70
     0
  9
$DIMALTTZ
 70
     0
  9
$DIMUPT
 70
     0
  9
$DIMDEC
 70
     2
  9
$DIMTDEC
 70
     2
  9
$DIMALTU
 70
     2
  9
$DIMALTTD
 70
     3
  9
$DIMTXSTY
  7
Standard
  9
$DIMAUNIT
 70
     0
  9
$DIMADEC
 70
     2
  9
$DIMALTRND
 40
0.0
  9
$DIMAZIN
 70
     0
  9
$DIMDSEP
 70
    44
  9
$DIMATFIT
 70
     3
  9
$DIMFRAC
 70
     0
  9
$DIMLDRBLK
  1

  9
$DIMLUNIT
 70
     2
  9
$DIMLWD
 70
    -2
  9
$DIMLWE
 70
    -2
  9
$DIMTMOVE
 70
     0
  9
$LUNITS
 70
     2
  9
$LUPREC
 70
     2
  9
$SKETCHINC
 40
1.0
  9
$FILLETRAD
 40
10.0
  9
$AUNITS
 70
     0
  9
$AUPREC
 70
     2
  9
$MENU
  1
.
  9
$ELEVATION
 40
0.0
  9
$PELEVATION
 40
0.0
  9
$THICKNESS
 40
0.0
  9
$LIMCHECK
 70
     0
  9
$CHAMFERA
 40
0.0
  9
$CHAMFERB
 40
0.0
  9
$CHAMFERC
 40
0.0
  9
$CHAMFERD
 40
0.0
  9
$SKPOLY
 70
     0
  9
$TDCREATE
 40
2459033.412112975
  9
$TDUCREATE
 40
2459033.370446308
  9
$TDUPDATE
 40
2459033.412234873
  9
$TDUUPDATE
 40
2459033.370568206
  9
$TDINDWG
 40
0.0000000116
  9
$TDUSRTIMER
 40
0.0000000116
  9
$USRTIMER
 70
     1
  9
$ANGBASE
 50
0.0
  9
$ANGDIR
 70
     0
  9
$PDMODE
 70
     0
  9
$PDSIZE
 40
-1.0
  9
$PLINEWID
 40
0.0
  9
$SPLFRAME
 70
     0
  9
$SPLINETYPE
 70
     6
  9
$SPLINESEGS
 70
     8
  9
$HANDSEED
  5
EB
  9
$SURFTAB1
 70
     6
  9
$SURFTAB2
 70
     6
  9
$SURFTYPE
 70
     6
  9
$SURFU
 70
     6
  9
$SURFV
 70
     6
  9
$UCSBASE
  2

  9
$UCSNAME
  2

  9
$UCSORG
 10
0.0
 20
0.0
 30
0.0
  9
$UCSXDIR
 10
1.0
 20
0.0
 30
0.0
  9
$UCSYDIR
 10
0.0
 20
1.0
 30
0.0
  9
$UCSORTHOREF
  2

  9
$UCSORTHOVIEW
 70
     0
  9
$UCSORGTOP
 10
0.0
 20
0.0
 30
0.0
  9
$UCSORGBOTTOM
 10
0.0
 20
0.0
 30
0.0
  9
$UCSORGLEFT
 10
0.0
 20
0.0
 30
0.0
  9
$UCSORGRIGHT
 10
0.0
 20
0.0
 30
0.0
  9
$UCSORGFRONT
 10
0.0
 20
0.0
 30
0.0
  9
$UCSORGBACK
 10
0.0
 20
0.0
 30
0.0
  9
$PUCSBASE
  2

  9
$PUCSNAME
  2

  9
$PUCSORG
 10
0.0
 20
0.0
 30
0.0
  9
$PUCSXDIR
 10
1.0
 20
0.0
 30
0.0
  9
$PUCSYDIR
 10
0.0
 20
1.0
 30
0.0
  9
$PUCSORTHOREF
  2

  9
$PUCSORTHOVIEW
 70
     0
  9
$PUCSORGTOP
 10
0.0
 20
0.0
 30
0.0
  9
$PUCSORGBOTTOM
 10
0.0
 20
0.0
 30
0.0
  9
$PUCSORGLEFT
 10
0.0
 20
0.0
 30
0.0
  9
$PUCSORGRIGHT
 10
0.0
 20
0.0
 30
0.0
  9
$PUCSORGFRONT
 10
0.0
 20
0.0
 30
0.0
  9
$PUCSORGBACK
 10
0.0
 20
0.0
 30
0.0
  9
$USERI1
 70
     0
  9
$USERI2
 70
     0
  9
$USERI3
 70
     0
  9
$USERI4
 70
     0
  9
$USERI5
 70
     0
  9
$USERR1
 40
0.0
  9
$USERR2
 40
0.0
  9
$USERR3
 40
0.0
  9
$USERR4
 40
0.0
  9
$USERR5
 40
0.0
  9
$WORLDVIEW
 70
     1
  9
$SHADEDGE
 70
     3
  9
$SHADEDIF
 70
    70
  9
$TILEMODE
 70
     1
  9
$MAXACTVP
 70
    64
  9
$PINSBASE
 10
0.0
 20
0.0
 30
0.0
  9
$PLIMCHECK
 70
     0
  9
$PEXTMIN
 10
-132.5
 20
-97.5
 30
0.0
  9
$PEXTMAX
 10
34.5
 20
0.0
 30
0.0
  9
$PLIMMIN
 10
-145.4961089494
 20
-102.373540856
  9
$PLIMMAX
 10
47.4961089494
 20
34.0856031128
  9
$UNITMODE
 70
     0
  9
$VISRETAIN
 70
     1
  9
$PLINEGEN
 70
     0
  9
$PSLTSCALE
 70
     1
  9
$TREEDEPTH
 70
  3020
  9
$CMLSTYLE
  2
Standard
  9
$CMLJUST
 70
     0
  9
$CMLSCALE
 40
20.0
  9
$PROXYGRAPHICS
 70
     1
  9
$MEASUREMENT
 70
     1
  9
$CELWEIGHT
370
    -1
  9
$ENDCAPS
280
     0
  9
$JOINSTYLE
280
     0
  9
$LWDISPLAY
290
     1
  9
$INSUNITS
 70
     4
  9
$HYPERLINKBASE
  1

  9
$STYLESHEET
  1

  9
$XEDIT
290
     1
  9
$CEPSNTYPE
380
     0
  9
$PSTYLEMODE
290
     1
  9
$FINGERPRINTGUID
  2
{0aadcbcc-ab05-4d8c-ad0b-c1a110a6e798}
  9
$VERSIONGUID
  2
{FAEB1C32-E019-11D5-929B-00C0DF256EC4}
  9
$EXTNAMES
290
     1
  9
$PSVPSCALE
 40
0.0
  9
$OLESTARTUP
290
     0
  0
ENDSEC
  0
SECTION
  2
CLASSES
  0
CLASS
  1
ACDBDICTIONARYWDFLT
  2
AcDbDictionaryWithDefault
  3
ObjectDBX Classes
 90
        0
280
     0
281
     0
  0
CLASS
  1
VISUALSTYLE
  2
AcDbVisualStyle
  3
ObjectDBX Classes
 90
     4095
280
     0
281
     0
  0
CLASS
  1
MATERIAL
  2
AcDbMaterial
  3
ObjectDBX Classes
 90
     1153
280
     0
281
     0
  0
CLASS
  1
SCALE
  2
AcDbScale
  3
ObjectDBX Classes
 90
     1153
280
     0
281
     0
  0
CLASS
  1
TABLESTYLE
  2
AcDbTableStyle
  3
ObjectDBX Classes
 90
     4095
280
     0
281
     0
  0
CLASS
  1
MLEADERSTYLE
  2
AcDbMLeaderStyle
  3
ACDB_MLEADERSTYLE_CLASS
 90
     4095
280
     0
281
     0
  0
CLASS
  1
SUN
  2
AcDbSun
  3
SCENEOE
 90
     1153
280
     0
281
     0
  0
CLASS
  1
ACDBPLACEHOLDER
  2
AcDbPlaceHolder
  3
ObjectDBX Classes
 90
        0
280
     0
281
     0
  0
CLASS
  1
LAYOUT
  2
AcDbLayout
  3
ObjectDBX Classes
 90
        0
280
     0
281
     0
  0
ENDSEC
  0
SECTION
  2
TABLES
  0
TABLE
  2
VPORT
  5
8
330
0
100
AcDbSymbolTable
 70
     1
  0
VPORT
  5
29
330
8
100
AcDbSymbolTableRecord
100
AcDbViewportTableRecord
  2
*Active
 70
     0
 10
0.0
 20
0.0
 11
1.0
 21
1.0
 12
-49.0
 22
0.0
 13
0.0
 23
0.0
 14
10.0
 24
10.0
 15
10.0
 25
10.0
 16
0.0
 26
0.0
 36
1.0
 17
0.0
 27
0.0
 37
0.0
 40
53.04
 41
3.2115384615
 42
50.0
 43
0.0
 44
0.0
 50
0.0
 51
0.0
 71
     0
 72
   100
 73
     1
 74
     3
 75
     0
 76
     0
 77
     0
 78
     0
281
     0
 65
     1
110
0.0
120
0.0
130
0.0
111
1.0
121
0.0
131
0.0
112
0.0
122
1.0
132
0.0
 79
     0
146
0.0
  0
ENDTAB
  0
TABLE
  2
LTYPE
  5
5
330
0
100
AcDbSymbolTable
 70
     6
  0
LTYPE
  5
14
330
5
100
AcDbSymbolTableRecord
100
AcDbLinetypeTableRecord
  2
ByBlock
 70
     0
  3

 72
    65
 73
     0
 40
0.0
  0
LTYPE
  5
15
330
5
100
AcDbSymbolTableRecord
100
AcDbLinetypeTableRecord
  2
ByLayer
 70
     0
  3

 72
    65
 73
     0
 40
0.0
  0
LTYPE
  5
16
330
5
100
AcDbSymbolTableRecord
100
AcDbLinetypeTableRecord
  2
Continuous
 70
     0
  3
Solid line
 72
    65
 73
     0
 40
0.0
  0
LTYPE
  5
6E
330
5
100
AcDbSymbolTableRecord
100
AcDbLinetypeTableRecord
  2
HIDDEN
 70
     0
  3
Hidden __ __ __ __ __ __ __ __ __ __ __ __ __ __
 72
    65
 73
     2
 40
1.905
 49
1.27
 74
     0
 49
-0.635
 74
     0
  0
LTYPE
  5
6F
330
5
100
AcDbSymbolTableRecord
100
AcDbLinetypeTableRecord
  2
PHANTOM
 70
     0
  3
Phantom ______  __  __  ______  __  __  ______
 72
    65
 73
     6
 40
12.7
 49
6.35
 74
     0
 49
-1.27
 74
     0
 49
1.27
 74
     0
 49
-1.27
 74
     0
 49
1.27
 74
     0
 49
-1.27
 74
     0
  0
LTYPE
  5
70
330
5
100
AcDbSymbolTableRecord
100
AcDbLinetypeTableRecord
  2
CENTER
 70
     0
  3
Center ____ _ ____ _ ____ _ ____ _ ____ _ ____
 72
    65
 73
     4
 40
10.16
 49
6.35
 74
     0
 49
-1.27
 74
     0
 49
1.27
 74
     0
 49
-1.27
 74
     0
  0
LTYPE
  5
71
330
5
100
AcDbSymbolTableRecord
100
AcDbLinetypeTableRecord
  2
CENTERX2
 70
     0
  3
Center (2x) ________  __  ________  __  _____
 72
    65
 73
     4
 40
20.32
 49
12.7
 74
     0
 49
-2.54
 74
     0
 49
2.54
 74
     0
 49
-2.54
 74
     0
  0
LTYPE
  5
72
330
5
100
AcDbSymbolTableRecord
100
AcDbLinetypeTableRecord
  2
DOT2
 70
     0
  3
Dot (.5x) ........................................
 72
    65
 73
     2
 40
0.635
 49
0.0
 74
     0
 49
-0.635
 74
     0
  0
ENDTAB
  0
TABLE
  2
LAYER
  5
2
330
0
100
AcDbSymbolTable
 70
     1
  0
LAYER
  5
10
330
2
100
AcDbSymbolTableRecord
100
AcDbLayerTableRecord
  2
0
 70
     0
 62
     7
  6
Continuous
370
    -3
390
F
  0
ENDTAB
  0
TABLE
  2
STYLE
  5
3
330
0
100
AcDbSymbolTable
 70
     1
  0
STYLE
  5
11
330
3
100
AcDbSymbolTableRecord
100
AcDbTextStyleTableRecord
  2
Standard
 70
     0
 40
0.0
 41
1.0
 50
0.0
 71
     0
 42
3.5
  3
txt
  4

  0
ENDTAB
  0
TABLE
  2
VIEW
  5
6
330
0
100
AcDbSymbolTable
 70
     0
  0
ENDTAB
  0
TABLE
  2
UCS
  5
7
330
0
100
AcDbSymbolTable
 70
     0
  0
ENDTAB
  0
TABLE
  2
APPID
  5
9
330
0
100
AcDbSymbolTable
 70
     1
  0
APPID
  5
12
330
9
100
AcDbSymbolTableRecord
100
AcDbRegAppTableRecord
  2
ACAD
 70
     0
  0
ENDTAB
  0
TABLE
  2
DIMSTYLE
  5
A
330
0
100
AcDbSymbolTable
 70
     1
100
AcDbDimStyleTable
  0
DIMSTYLE
105
27
330
A
100
AcDbSymbolTableRecord
100
AcDbDimStyleTableRecord
  2
ISO-25
 70
     0
 41
2.5
 42
0.625
 43
3.75
 44
1.25
 73
     0
 74
     0
 77
     1
 78
     8
140
2.5
141
2.5
143
0.0393700787
147
0.625
171
     3
172
     1
178
     0
271
     2
272
     2
274
     3
278
    44
283
     0
284
     8
340
11
  0
ENDTAB
  0
TABLE
  2
BLOCK_RECORD
  5
1
330
0
100
AcDbSymbolTable
 70
     2
  0
BLOCK_RECORD
  5
1F
330
1
100
AcDbSymbolTableRecord
100
AcDbBlockTableRecord
  2
*Model_Space
340
22
  0
BLOCK_RECORD
  5
1B
330
1
100
AcDbSymbolTableRecord
100
AcDbBlockTableRecord
  2
*Paper_Space
340
1E
  0
BLOCK_RECORD
  5
23
330
1
100
AcDbSymbolTableRecord
100
AcDbBlockTableRecord
  2
*Paper_Space0
340
26
  0
BLOCK_RECORD
  5
BB
330
1
100
AcDbSymbolTableRecord
100
AcDbBlockTableRecord
  2
*Paper_Space1
340
BC
  0
ENDTAB
  0
ENDSEC
  0
SECTION
  2
BLOCKS
  0
BLOCK
  5
20
330
1F
100
AcDbEntity
  8
0
100
AcDbBlockBegin
  2
*Model_Space
 70
     0
 10
0.0
 20
0.0
 30
0.0
  3
*Model_Space
  1

  0
ENDBLK
  5
21
330
1F
100
AcDbEntity
  8
0
100
AcDbBlockEnd
  0
BLOCK
  5
1C
330
1B
100
AcDbEntity
 67
     1
  8
0
100
AcDbBlockBegin
  2
*Paper_Space
 70
     0
 10
0.0
 20
0.0
 30
0.0
  3
*Paper_Space
  1

  0
ENDBLK
  5
1D
330
1B
100
AcDbEntity
 67
     1
  8
0
100
AcDbBlockEnd
  0
BLOCK
  5
24
330
23
100
AcDbEntity
  8
0
100
AcDbBlockBegin
  2
*Paper_Space0
 70
     0
 10
0.0
 20
0.0
 30
0.0
  3
*Paper_Space0
  1

  0
CIRCLE
  5
AD
330
23
100
AcDbEntity
  8
0
  6
Continuous
 62
     7
370
    25
100
AcDbCircle
 10
-82.5
 20
0.0
 30
0.0
 40
9.500000000000014
  0
LINE
  5
B4
330
23
100
AcDbEntity
  8
0
  6
Continuous
 62
     7
370
    25
100
AcDbLine
 10
0.0
 20
26.0
 30
0.0
 11
-10.0
 21
26.0
 31
0.0
  0
LINE
  5
B5
330
23
100
AcDbEntity
  8
0
  6
Continuous
 62
     7
370
    25
100
AcDbLine
 10
-10.0
 20
-26.0
 30
0.0
 11
0.0
 21
-26.0
 31
0.0
  0
LINE
  5
B6
330
23
100
AcDbEntity
  8
0
  6
Continuous
 62
     7
370
    25
100
AcDbLine
 10
-10.0
 20
9.5
 30
0.0
 11
-82.5
 21
9.5
 31
0.0
  0
LINE
  5
B7
330
23
100
AcDbEntity
  8
0
  6
Continuous
 62
     7
370
    25
100
AcDbLine
 10
-82.5
 20
-9.5
 30
0.0
 11
-10.0
 21
-9.5
 31
0.0
  0
LINE
  5
B8
330
23
100
AcDbEntity
  8
0
  6
Continuous
 62
     7
370
    25
100
AcDbLine
 10
0.0
 20
-26.0
 30
0.0
 11
0.0
 21
26.0
 31
0.0
  0
LINE
  5
B9
330
23
100
AcDbEntity
  8
0
  6
Continuous
 62
     7
370
    25
100
AcDbLine
 10
-10.0
 20
-26.0
 30
0.0
 11
-10.0
 21
26.0
 31
0.0
  0
ARC
  5
BA
330
23
100
AcDbEntity
  8
0
  6
Continuous
 62
     7
370
    25
100
AcDbCircle
 10
-82.5
 20
0.0
 30
0.0
 40
15.0
100
AcDbArc
 50
39.2964802392
 51
320.7035197608
  0
VIEWPORT
  5
E7
330
23
100
AcDbEntity
  8
0
100
AcDbViewport
 10
0.0
 20
0.0
 30
0.0
 40
205.6
 41
156.0
 68
     1
 69
     1
 12
-49.0
 22
0.0
 13
0.0
 23
0.0
 14
10.0
 24
10.0
 15
10.0
 25
10.0
 16
0.0
 26
0.0
 36
1.0
 17
0.0
 27
0.0
 37
0.0
 42
50.0
 43
0.0
 44
0.0
 45
129.2463035019
 50
0.0
 51
0.0
 72
   100
 90
   557152
  1

281
     0
 71
     1
 74
     0
110
0.0
120
0.0
130
0.0
111
1.0
121
0.0
131
0.0
112
0.0
122
1.0
132
0.0
 79
     0
146
0.0
  0
ENDBLK
  5
25
330
23
100
AcDbEntity
  8
0
100
AcDbBlockEnd
  0
BLOCK
  5
BD
330
BB
100
AcDbEntity
  8
0
100
AcDbBlockBegin
  2
*Paper_Space1
 70
     0
 10
0.0
 20
0.0
 30
0.0
  3
*Paper_Space1
  1

  0
LWPOLYLINE
  5
C9
330
BB
100
AcDbEntity
  8
0
  6
Continuous
 62
     7
370
    25
100
AcDbPolyline
 90
       21
 70
   128
 43
0.0
 10
-145.0156022753
 20
27.3314140093
 10
-145.3106802355
 20
27.4817996771
 10
-145.9492331269
 20
27.6908691694
 10
-146.6434316452
 20
27.7747220416
 10
-147.3831528127
 20
27.7321355298
 10
-148.1576098292
 20
27.5637306413
 10
-148.9555093674
 20
27.2719630986
 10
-149.7652162553
 20
26.8610875296
 10
-150.5749231432
 20
26.3370954251
 10
-151.3728226814
 20
25.70762777
 10
-152.1472796979
 20
24.9818636202
 10
-152.8870008654
 20
24.1703862512
 10
-153.5811993837
 20
23.2850288304
 10
-154.2197522751
 20
22.3387018625
 10
-154.7933480006
 20
21.3452049259
 10
-155.2936222429
 20
20.3190254428
 10
-155.713279877
 20
19.2751274211
 10
-156.0462013497
 20
18.2287332443
 10
-156.2875319161
 20
17.1951016961
 10
-156.4337524332
 20
16.1893054518
 10
-156.4827306766
 20
15.2260112855
  0
LWPOLYLINE
  5
CA
330
BB
100
AcDbEntity
  8
0
  6
Continuous
 62
     7
370
    25
100
AcDbPolyline
 90
       53
 70
   128
 43
0.0
 10
-27.2236110757
 20
-43.8819360105
 10
-27.2725893191
 20
-42.9751909203
 10
-27.4188098362
 20
-42.1382172916
 10
-27.6601404026
 20
-41.3832200844
 10
-27.9930618752
 20
-40.7212088582
 10
-28.4127195093
 20
-40.1618372273
 10
-28.9129937516
 20
-39.7132620898
 10
-29.4865894771
 20
-39.3820246812
 10
-30.1251423686
 20
-39.1729551888
 10
-30.8193408869
 20
-39.0891023167
 10
-31.5590620544
 20
-39.1316888285
 10
-32.3335190709
 20
-39.300093717
 10
-33.131418609
 20
-39.5918612596
 10
-33.941125497
 20
-40.0027368287
 10
-34.7508323849
 20
-40.5267289332
 10
-35.548731923
 20
-41.1561965883
 10
-36.3231889395
 20
-41.8819607381
 10
-37.0629101071
 20
-42.6934381071
 10
-37.7571086253
 20
-43.5787955279
 10
-38.3956615168
 20
-44.5251224957
 10
-38.9692572423
 20
-45.5186194324
 10
-39.4695314846
 20
-46.5447989155
 10
-39.8891891187
 20
-47.5886969372
 10
-40.2221105913
 20
-48.6350911139
 10
-40.4634411577
 20
-49.6687226622
 10
-40.6096616748
 20
-50.6745189065
 10
-40.6586399182
 20
-51.6378130728
 10
-40.6096616748
 20
-52.5445581629
 10
-40.4634411577
 20
-53.3815317917
 10
-40.2221105913
 20
-54.1365289989
 10
-39.8891891187
 20
-54.7985402251
 10
-39.4695314846
 20
-55.3579118559
 10
-38.9692572423
 20
-55.8064869935
 10
-38.3956615168
 20
-56.1377244021
 10
-37.7571086253
 20
-56.3467938944
 10
-37.0629101071
 20
-56.4306467665
 10
-36.3231889395
 20
-56.3880602548
 10
-35.548731923
 20
-56.2196553663
 10
-34.7508323849
 20
-55.9278878236
 10
-33.941125497
 20
-55.5170122545
 10
-33.131418609
 20
-54.9930201501
 10
-32.3335190709
 20
-54.363552495
 10
-31.5590620544
 20
-53.6377883452
 10
-30.8193408869
 20
-52.8263109762
 10
-30.1251423686
 20
-51.9409535553
 10
-29.4865894771
 20
-50.9946265875
 10
-28.9129937516
 20
-50.0011296508
 10
-28.4127195093
 20
-48.9749501678
 10
-27.9930618752
 20
-47.931052146
 10
-27.6601404026
 20
-46.8846579693
 10
-27.4188098362
 20
-45.8510264211
 10
-27.2725893191
 20
-44.8452301767
 10
-27.2236110757
 20
-43.8819360105
  0
LWPOLYLINE
  5
CD
330
BB
100
AcDbEntity
  8
0
  6
Continuous
 62
     7
370
    25
100
AcDbPolyline
 90
       21
 70
   128
 43
0.0
 10
-0.3535533906
 20
-7.9599790903
 10
-0.402531634
 20
-6.996684924
 10
-0.5487521511
 20
-5.9908886797
 10
-0.7900827175
 20
-4.9572571314
 10
-1.1230041901
 20
-3.9108629547
 10
-1.5426618243
 20
-2.8669649329
 10
-2.0429360665
 20
-1.8407854499
 10
-2.6165317921
 20
-0.8472885132
 10
-3.2550846835
 20
0.0990384546
 10
-3.9492832018
 20
0.9843958754
 10
-4.6890043693
 20
1.7958732444
 10
-5.4634613858
 20
2.5216373942
 10
-6.261360924
 20
3.1511050493
 10
-7.0710678119
 20
3.6750971538
 10
-7.8807746998
 20
4.0859727229
 10
-8.678674238
 20
4.3777402655
 10
-9.4531312544
 20
4.546145154
 10
-10.192852422
 20
4.5887316658
 10
-10.8870509402
 20
4.5048787937
 10
-11.5256038317
 20
4.2958093013
 10
-11.8206817919
 20
4.1454236335
  0
LWPOLYLINE
  5
CF
330
BB
100
AcDbEntity
  8
0
  6
Continuous
 62
     7
370
    25
100
AcDbPolyline
 90
       34
 70
   128
 43
0.0
 10
18.3847763109
 20
-10.6133054537
 10
18.3357309427
 20
-9.0352971744
 10
18.1888565167
 20
-7.4090816754
 10
17.9449366713
 20
-5.7433355199
 10
17.6052728245
 20
-4.0469461845
 10
17.1716772298
 20
-2.3289646401
 10
16.6464633074
 20
-0.5985570618
 10
16.0324333007
 20
1.1350440775
 10
15.3328633256
 20
2.8625892656
 10
14.5514858906
 20
4.5748613013
 10
13.6924699823
 20
6.2627244726
 10
12.7603988223
 20
7.9171732991
 10
11.7602454134
 20
9.5293805805
 10
10.697346007
 20
11.0907444934
 10
9.5773716312
 20
12.5929344858
 10
8.4062978338
 20
14.027935724
 10
7.1903728003
 20
15.3880918557
 10
5.9360840169
 20
16.6661458593
 10
4.6501236568
 20
17.8552787638
 10
3.3393528751
 20
18.9491460305
 10
2.0107652009
 20
19.9419114044
 10
0.6714492243
 20
20.8282780527
 10
-0.6714492243
 20
21.6035168257
 10
-2.0107652009
 20
22.2634914891
 10
-3.3393528751
 20
22.8046807927
 10
-4.6501236568
 20
23.2241972573
 10
-5.9360840169
 20
23.519802581
 10
-7.1903728003
 20
23.6899195816
 10
-8.4062978338
 20
23.7336406112
 10
-9.5773716312
 20
23.6507323993
 10
-10.697346007
 20
23.4416372969
 10
-11.7602454134
 20
23.1074709171
 10
-12.7603988223
 20
22.6500161819
 10
-12.9989435243
 20
22.5172704219
  0
LWPOLYLINE
  5
D0
330
BB
100
AcDbEntity
  8
0
  6
Continuous
 62
     7
370
    25
100
AcDbPolyline
 90
       12
 70
   128
 43
0.0
 10
12.9989435243
 20
-22.5172704219
 10
13.6924699823
 20
-22.0717138103
 10
14.5514858906
 20
-21.3756492958
 10
15.3328633256
 20
-20.5655364435
 10
16.0324333007
 20
-19.6456975562
 10
16.6464633074
 20
-18.6210403723
 10
17.1716772298
 20
-17.4970318812
 10
17.6052728245
 20
-16.2796691544
 10
17.9449366713
 20
-14.975447349
 10
18.1888565167
 20
-13.5913250525
 10
18.3357309427
 20
-12.1346871563
 10
18.3847763109
 20
-10.6133054537
  0
LWPOLYLINE
  5
D1
330
BB
100
AcDbEntity
  8
0
  6
Continuous
 62
     7
370
    25
100
AcDbPolyline
 90
       50
 70
   128
 43
0.0
 10
11.313708499
 20
-14.6953460128
 10
11.2646631309
 20
-13.1173377335
 10
11.1177887048
 20
-11.4911222345
 10
10.8738688594
 20
-9.8253760791
 10
10.5342050126
 20
-8.1289867436
 10
10.1006094179
 20
-6.4110051993
 10
9.5753954955
 20
-4.6805976209
 10
8.9613654889
 20
-2.9469964816
 10
8.2617955138
 20
-1.2194512935
 10
7.4804180787
 20
0.4928207422
 10
6.6214021704
 20
2.1806839135
 10
5.6893310104
 20
3.83513274
 10
4.6891776016
 20
5.4473400214
 10
3.6262781951
 20
7.0087039343
 10
2.5063038193
 20
8.5108939266
 10
1.3352300219
 20
9.9458951649
 10
0.1193049885
 20
11.3060512966
 10
-1.134983795
 20
12.5841053002
 10
-2.420944155
 20
13.7732382046
 10
-3.7317149368
 20
14.8671054714
 10
-5.060302611
 20
15.8598708453
 10
-6.3996185875
 20
16.7462374935
 10
-7.7425170362
 20
17.5214762665
 10
-9.0818330127
 20
18.18145093
 10
-10.4104206869
 20
18.7226402336
 10
-11.7211914687
 20
19.1421566982
 10
-13.0071518287
 20
19.4377620219
 10
-14.2614406122
 20
19.6078790225
 10
-15.4773656457
 20
19.6516000521
 10
-16.648439443
 20
19.5686918401
 10
-17.7684138189
 20
19.3595967378
 10
-18.8313132253
 20
19.025430358
 10
-19.8314666341
 20
18.5679756228
 10
-20.7635377942
 20
17.9896732512
 10
-21.6225537025
 20
17.2936087366
 10
-22.4039311375
 20
16.4834958844
 10
-23.1035011126
 20
15.5636569971
 10
-23.7175311192
 20
14.5389998132
 10
-24.2427450416
 20
13.414991322
 10
-24.6763406363
 20
12.1976285953
 10
-25.0160044831
 20
10.8934067899
 10
-25.2599243285
 20
9.5092844934
 10
-25.4067987546
 20
8.0526465972
 10
-25.4558441227
 20
6.5312648946
 10
-25.4067987546
 20
4.9532566153
 10
-25.2599243285
 20
3.3270411163
 10
-25.0160044831
 20
1.6612949608
 10
-24.6763406363
 20
-0.0350943746
 10
-24.2427450416
 20
-1.753075919
 10
-23.9228014497
 20
-2.8409813351
  0
LWPOLYLINE
  5
D2
330
BB
100
AcDbEntity
  8
0
  6
Continuous
 62
     7
370
    25
100
AcDbPolyline
 90
       29
 70
   128
 43
0.0
 10
-14.4235734897
 20
-19.2959097204
 10
-14.2614406122
 20
-19.4701324148
 10
-13.0071518287
 20
-20.7481864184
 10
-11.7211914687
 20
-21.9373193229
 10
-10.4104206869
 20
-23.0311865896
 10
-9.0818330127
 20
-24.0239519635
 10
-7.7425170362
 20
-24.9103186118
 10
-6.3996185875
 20
-25.6855573848
 10
-5.060302611
 20
-26.3455320482
 10
-3.7317149368
 20
-26.8867213518
 10
-2.420944155
 20
-27.3062378164
 10
-1.134983795
 20
-27.6018431401
 10
0.1193049885
 20
-27.7719601407
 10
1.3352300219
 20
-27.8156811703
 10
2.5063038193
 20
-27.7327729584
 10
3.6262781951
 20
-27.523677856
 10
4.6891776016
 20
-27.1895114762
 10
5.6893310104
 20
-26.732056741
 10
6.6214021704
 20
-26.1537543694
 10
7.4804180787
 20
-25.4576898549
 10
8.2617955138
 20
-24.6475770026
 10
8.9613654889
 20
-23.7277381153
 10
9.5753954955
 20
-22.7030809314
 10
10.1006094179
 20
-21.5790724403
 10
10.5342050126
 20
-20.3617097136
 10
10.8738688594
 20
-19.0574879081
 10
11.1177887048
 20
-17.6733656116
 10
11.2646631309
 20
-16.2167277154
 10
11.313708499
 20
-14.6953460128
  0
LWPOLYLINE
  5
D3
330
BB
100
AcDbEntity
  8
0
  6
Continuous
 62
     7
370
    25
100
AcDbPolyline
 90
       26
 70
   128
 43
0.0
 10
-162.6345596729
 20
14.2871419569
 10
-162.5850441817
 20
15.4978399717
 10
-162.4369600208
 20
16.7544033946
 10
-162.1916898122
 20
18.0451000315
 10
-161.8515235777
 20
19.3578789956
 10
-161.4196373578
 20
20.6804832236
 10
-160.9000635578
 20
22.000563916
 10
-160.2976532982
 20
23.3057958351
 10
-159.6180311214
 20
24.5839923822
 10
-158.8675424764
 20
25.8232193805
 10
-158.0531944736
 20
27.0119065014
 10
-157.1825904608
 20
28.1389552935
 10
-156.2638590332
 20
29.193842806
 10
-155.3055781385
 20
30.1667198383
 10
-154.3166949872
 20
31.0485028997
 10
-153.306442515
 20
31.8309590194
 10
-152.2842531768
 20
32.5067826154
 10
-151.2596708793
 20
33.0696637048
 10
-150.2422618712
 20
33.5143468187
 10
-149.2415254262
 20
33.8366800705
 10
-148.2668051511
 20
34.0336539215
 10
-147.3272017462
 20
34.1034292801
 10
-146.4314880356
 20
34.0453546724
 10
-145.5880270567
 20
33.8599723254
 10
-144.8046939775
 20
33.5490131042
 10
-144.5285674603
 20
33.4009357313
  0
LWPOLYLINE
  5
D5
330
BB
100
AcDbEntity
  8
0
  6
Continuous
 62
     7
370
    25
100
AcDbPolyline
 90
       35
 70
   128
 43
0.0
 10
-160.3718179731
 20
12.980888978
 10
-160.3223024819
 20
14.1915869927
 10
-160.174218321
 20
15.4481504156
 10
-159.9289481124
 20
16.7388470525
 10
-159.5887818779
 20
18.0516260167
 10
-159.156895658
 20
19.3742302447
 10
-158.637321858
 20
20.6943109371
 10
-158.0349115984
 20
21.9995428562
 10
-157.3552894216
 20
23.2777394033
 10
-156.6048007766
 20
24.5169664016
 10
-155.7904527738
 20
25.7056535225
 10
-154.919848761
 20
26.8327023146
 10
-154.0011173334
 20
27.8875898271
 10
-153.0428364387
 20
28.8604668594
 10
-152.0539532874
 20
29.7422499208
 10
-151.0437008152
 20
30.5247060405
 10
-150.021511477
 20
31.2005296365
 10
-148.9969291795
 20
31.7634107259
 10
-147.9795201714
 20
32.2080938398
 10
-146.9787837264
 20
32.5304270916
 10
-146.0040634513
 20
32.7274009426
 10
-145.0644600464
 20
32.7971763012
 10
-144.1687463358
 20
32.7391016935
 10
-143.3252853569
 20
32.5537193465
 10
-142.5419522777
 20
32.2427601252
 10
-141.826060868
 20
31.8091273722
 10
-141.184295213
 20
31.2568697995
 10
-140.6226473059
 20
30.5911436874
 10
-140.1463611017
 20
29.8181647412
 10
-139.7598835564
 20
28.945150057
 10
-139.4668231067
 20
27.9802507378
 10
-139.2699159791
 20
26.9324757884
 10
-139.1710006424
 20
25.8116080013
 10
-139.1710006424
 20
24.628112617
 10
-139.2110372471
 20
23.9805099445
  0
LWPOLYLINE
  5
D6
330
BB
100
AcDbEntity
  8
0
  6
Continuous
 62
     7
370
    25
100
AcDbPolyline
 90
       19
 70
   128
 43
0.0
 10
-148.7102652072
 20
7.5255815593
 10
-148.9969291795
 20
7.3315342838
 10
-150.021511477
 20
6.7114578325
 10
-151.0437008152
 20
6.2070867398
 10
-152.0539532874
 20
5.8231301828
 10
-153.0428364387
 20
5.5631730604
 10
-154.0011173334
 20
5.4296425223
 10
-154.919848761
 20
5.4237853069
 10
-155.7904527738
 20
5.5456561017
 10
-156.6048007766
 20
5.7941170319
 10
-157.3552894216
 20
6.1668482845
 10
-158.0349115984
 20
6.6603697685
 10
-158.637321858
 20
7.2700736067
 10
-159.156895658
 20
7.9902671586
 10
-159.5887818779
 20
8.814226171
 10
-159.9289481124
 20
9.7342575607
 10
-160.174218321
 20
10.7417712425
 10
-160.3223024819
 20
11.8273603325
 10
-160.3718179731
 20
12.980888978
  0
LINE
  5
D7
330
BB
100
AcDbEntity
  8
0
  6
Continuous
 62
     7
370
    25
100
AcDbLine
 10
-58.3363094479
 20
-22.7074766323
 30
0.0
 11
-145.0156022753
 21
27.3314140093
 31
0.0
  0
LINE
  5
D8
330
BB
100
AcDbEntity
  8
0
  6
Continuous
 62
     7
370
    25
100
AcDbLine
 10
-29.1915115169
 20
-39.532410349
 30
0.0
 11
-48.8370814878
 21
-28.1912642079
 31
0.0
  0
LINE
  5
D9
330
BB
100
AcDbEntity
  8
0
  6
Continuous
 62
     7
370
    25
100
AcDbLine
 10
-154.5148302353
 20
10.876485624
 30
0.0
 11
-38.690739477
 21
-55.9873387342
 31
0.0
  0
LINE
  5
DA
330
BB
100
AcDbEntity
  8
0
  6
Continuous
 62
     7
370
    25
100
AcDbLine
 10
-11.8206817919
 20
4.1454236335
 30
0.0
 11
-58.3363094479
 21
-22.7074766323
 31
0.0
  0
LINE
  5
DB
330
BB
100
AcDbEntity
  8
0
  6
Continuous
 62
     7
370
    25
100
AcDbLine
 10
-39.3347652425
 20
-33.6768346127
 30
0.0
 11
-2.3214538318
 21
-12.3095047517
 31
0.0
  0
LINE
  5
DC
330
BB
100
AcDbEntity
  8
0
  6
Continuous
 62
     7
370
    25
100
AcDbLine
 10
-12.9989435243
 20
22.5172704219
 30
0.0
 11
-20.0700113361
 21
18.4352298628
 31
0.0
  0
LINE
  5
DD
330
BB
100
AcDbEntity
  8
0
  6
Continuous
 62
     7
370
    25
100
AcDbLine
 10
5.9278757124
 20
-26.599310981
 30
0.0
 11
12.9989435243
 21
-22.5172704219
 31
0.0
  0
LINE
  5
DE
330
BB
100
AcDbEntity
  8
0
  6
Continuous
 62
     7
370
    25
100
AcDbLine
 10
-159.5273484499
 20
7.4194698599
 30
0.0
 11
-157.2646067501
 21
6.1132168809
 31
0.0
  0
LINE
  5
DF
330
BB
100
AcDbEntity
  8
0
  6
Continuous
 62
     7
370
    25
100
AcDbLine
 10
-142.2658257605
 20
32.0946827524
 30
0.0
 11
-144.5285674603
 21
33.4009357313
 31
0.0
  0
LINE
  5
E0
330
BB
100
AcDbEntity
  8
0
  6
Continuous
 62
     7
370
    25
100
AcDbLine
 10
-58.3363094479
 20
-22.7074766323
 30
0.0
 11
-58.3363094479
 21
-25.9196968998
 31
0.0
  0
ARC
  5
E1
330
BB
100
AcDbEntity
  8
0
  6
Continuous
 62
     7
370
    25
100
AcDbCircle
 10
-151.9079677307
 20
14.6758766318
 30
0.0
 40
4.607722229937964
100
AcDbArc
 50
173.1428667726
 51
235.544952834
  0
ARC
  5
E2
330
BB
100
AcDbEntity
  8
0
  6
Continuous
 62
     7
370
    25
100
AcDbCircle
 10
-57.9331162847
 20
-45.2313197648
 30
0.0
 40
19.31583139313258
100
AcDbArc
 50
61.9065612351
 51
91.1960626505
  0
ARC
  5
E3
330
BB
100
AcDbEntity
  8
0
  6
Continuous
 62
     7
370
    25
100
AcDbCircle
 10
-5.1946071593
 20
-8.3896330597
 30
0.0
 40
4.860082728229008
100
AcDbArc
 50
306.2403453107
 51
5.0718350827
  0
ARC
  5
E4
330
BB
100
AcDbEntity
  8
0
  6
Continuous
 62
     7
370
    25
100
AcDbCircle
 10
-155.1916396334
 20
13.5178687512
 30
0.0
 40
7.482569076172943
100
AcDbArc
 50
174.0990689352
 51
234.5887506715
  0
VIEWPORT
  5
E9
330
BB
100
AcDbEntity
  8
0
100
AcDbViewport
 10
0.0
 20
0.0
 30
0.0
 40
205.6
 41
156.0
 68
     1
 69
     1
 12
-49.0
 22
0.0
 13
0.0
 23
0.0
 14
10.0
 24
10.0
 15
10.0
 25
10.0
 16
0.0
 26
0.0
 36
1.0
 17
0.0
 27
0.0
 37
0.0
 42
50.0
 43
0.0
 44
0.0
 45
129.2463035019
 50
0.0
 51
0.0
 72
   100
 90
   557152
  1

281
     0
 71
     1
 74
     0
110
0.0
120
0.0
130
0.0
111
1.0
121
0.0
131
0.0
112
0.0
122
1.0
132
0.0
 79
     0
146
0.0
  0
ENDBLK
  5
BE
330
BB
100
AcDbEntity
  8
0
100
AcDbBlockEnd
  0
ENDSEC
  0
SECTION
  2
ENTITIES
  0
LINE
  5
80
330
1F
100
AcDbEntity
  8
0
  6
Continuous
 62
     7
370
    25
100
AcDbLine
 10
-132.5
 20
-15.0
 30
0.0
 11
-129.3
 21
-15.0
 31
0.0
  0
LINE
  5
81
330
1F
100
AcDbEntity
  8
0
  6
Continuous
 62
     7
370
    25
100
AcDbLine
 10
-129.3
 20
15.0
 30
0.0
 11
-132.5
 21
15.0
 31
0.0
  0
LINE
  5
82
330
1F
100
AcDbEntity
  8
0
  6
Continuous
 62
     7
370
    25
100
AcDbLine
 10
34.5
 20
9.5
 30
0.0
 11
-129.3
 21
9.5
 31
0.0
  0
LINE
  5
83
330
1F
100
AcDbEntity
  8
0
  6
Continuous
 62
     7
370
    25
100
AcDbLine
 10
-129.3
 20
-9.5
 30
0.0
 11
34.5
 21
-9.5
 31
0.0
  0
LINE
  5
84
330
1F
100
AcDbEntity
  8
0
  6
Continuous
 62
     7
370
    25
100
AcDbLine
 10
-129.3
 20
-15.0
 30
0.0
 11
-129.3
 21
15.0
 31
0.0
  0
LINE
  5
85
330
1F
100
AcDbEntity
  8
0
  6
Continuous
 62
     7
370
    25
100
AcDbLine
 10
-132.5
 20
-15.0
 30
0.0
 11
-132.5
 21
15.0
 31
0.0
  0
LINE
  5
86
330
1F
100
AcDbEntity
  8
0
  6
Continuous
 62
     7
370
    25
100
AcDbLine
 10
34.5
 20
9.5
 30
0.0
 11
34.5
 21
-9.5
 31
0.0
  0
ARC
  5
87
330
1F
100
AcDbEntity
  8
0
  6
Continuous
 62
     7
370
    25
100
AcDbCircle
 10
0.0
 20
0.0
 30
0.0
 40
26.0
100
AcDbArc
 50
21.4312545038
 51
158.5687454962
  0
ARC
  5
88
330
1F
100
AcDbEntity
  8
0
  6
Continuous
 62
     7
370
    25
100
AcDbCircle
 10
0.0
 20
0.0
 30
0.0
 40
26.00000000000001
100
AcDbArc
 50
201.4312545038
 51
338.5687454962
  0
LINE
  5
99
330
1B
100
AcDbEntity
 67
     1
  8
0
  6
Continuous
 62
     7
370
    25
100
AcDbLine
 10
-26.0
 20
0.0
 30
0.0
 11
-26.0
 21
-10.0
 31
0.0
  0
LINE
  5
9A
330
1B
100
AcDbEntity
 67
     1
  8
0
  6
Continuous
 62
     7
370
    25
100
AcDbLine
 10
26.0
 20
-10.0
 30
0.0
 11
26.0
 21
0.0
 31
0.0
  0
LINE
  5
9B
330
1B
100
AcDbEntity
 67
     1
  8
0
  6
Continuous
 62
     7
370
    25
100
AcDbLine
 10
-132.5
 20
-97.5
 30
0.0
 11
-129.3
 21
-97.5
 31
0.0
  0
LINE
  5
9C
330
1B
100
AcDbEntity
 67
     1
  8
0
  6
Continuous
 62
     7
370
    25
100
AcDbLine
 10
-129.3
 20
-67.5
 30
0.0
 11
-132.5
 21
-67.5
 31
0.0
  0
LINE
  5
9D
330
1B
100
AcDbEntity
 67
     1
  8
0
  6
Continuous
 62
     7
370
    25
100
AcDbLine
 10
-9.5
 20
-73.0
 30
0.0
 11
-129.3
 21
-73.0
 31
0.0
  0
LINE
  5
9E
330
1B
100
AcDbEntity
 67
     1
  8
0
  6
Continuous
 62
     7
370
    25
100
AcDbLine
 10
34.5
 20
-73.0
 30
0.0
 11
9.5
 21
-73.0
 31
0.0
  0
LINE
  5
9F
330
1B
100
AcDbEntity
 67
     1
  8
0
  6
Continuous
 62
     7
370
    25
100
AcDbLine
 10
-129.3
 20
-92.0
 30
0.0
 11
34.5
 21
-92.0
 31
0.0
  0
LINE
  5
A0
330
1B
100
AcDbEntity
 67
     1
  8
0
  6
Continuous
 62
     7
370
    25
100
AcDbLine
 10
-9.5
 20
-10.0
 30
0.0
 11
-9.5
 21
-73.0
 31
0.0
  0
LINE
  5
A1
330
1B
100
AcDbEntity
 67
     1
  8
0
  6
Continuous
 62
     7
370
    25
100
AcDbLine
 10
9.5
 20
-73.0
 30
0.0
 11
9.5
 21
-10.0
 31
0.0
  0
LINE
  5
A2
330
1B
100
AcDbEntity
 67
     1
  8
0
  6
Continuous
 62
     7
370
    25
100
AcDbLine
 10
26.0
 20
0.0
 30
0.0
 11
-26.0
 21
0.0
 31
0.0
  0
LINE
  5
A3
330
1B
100
AcDbEntity
 67
     1
  8
0
  6
Continuous
 62
     7
370
    25
100
AcDbLine
 10
26.0
 20
-10.0
 30
0.0
 11
-26.0
 21
-10.0
 31
0.0
  0
LINE
  5
A4
330
1B
100
AcDbEntity
 67
     1
  8
0
  6
Continuous
 62
     7
370
    25
100
AcDbLine
 10
-129.3
 20
-97.5
 30
0.0
 11
-129.3
 21
-67.5
 31
0.0
  0
LINE
  5
A5
330
1B
100
AcDbEntity
 67
     1
  8
0
  6
Continuous
 62
     7
370
    25
100
AcDbLine
 10
-132.5
 20
-97.5
 30
0.0
 11
-132.5
 21
-67.5
 31
0.0
  0
LINE
  5
A6
330
1B
100
AcDbEntity
 67
     1
  8
0
  6
Continuous
 62
     7
370
    25
100
AcDbLine
 10
34.5
 20
-73.0
 30
0.0
 11
34.5
 21
-92.0
 31
0.0
  0
LINE
  5
A7
330
1B
100
AcDbEntity
 67
     1
  8
0
  6
Continuous
 62
     7
370
    25
100
AcDbLine
 10
0.0
 20
-82.5
 30
0.0
 11
9.5
 21
-73.0
 31
0.0
  0
LINE
  5
A8
330
1B
100
AcDbEntity
 67
     1
  8
0
  6
Continuous
 62
     7
370
    25
100
AcDbLine
 10
-9.5
 20
-73.0
 30
0.0
 11
0.0
 21
-82.5
 31
0.0
  0
VIEWPORT
  5
E5
330
1B
100
AcDbEntity
 67
     1
  8
0
100
AcDbViewport
 10
0.0
 20
0.0
 30
0.0
 40
205.6
 41
156.0
 68
     1
 69
     1
 12
-49.0
 22
0.0
 13
0.0
 23
0.0
 14
10.0
 24
10.0
 15
10.0
 25
10.0
 16
0.0
 26
0.0
 36
1.0
 17
0.0
 27
0.0
 37
0.0
 42
50.0
 43
0.0
 44
0.0
 45
129.2463035019
 50
0.0
 51
0.0
 72
   100
 90
   557152
  1

281
     0
 71
     1
 74
     0
110
0.0
120
0.0
130
0.0
111
1.0
121
0.0
131
0.0
112
0.0
122
1.0
132
0.0
 79
     0
146
0.0
  0
ENDSEC
  0
SECTION
  2
OBJECTS
  0
DICTIONARY
  5
C
330
0
100
AcDbDictionary
281
     1
  3
ACAD_GROUP
350
D
  3
ACAD_LAYOUT
350
1A
  3
ACAD_MLINESTYLE
350
17
  3
ACAD_PLOTSETTINGS
350
19
  3
ACAD_PLOTSTYLENAME
350
E
  3
ACAD_SCALELIST
350
47
  0
DICTIONARY
  5
D
102
{ACAD_REACTORS
330
C
102
}
330
C
100
AcDbDictionary
281
     1
  0
DICTIONARY
  5
1A
102
{ACAD_REACTORS
330
C
102
}
330
C
100
AcDbDictionary
281
     1
  3
_Isometric
350
BC
  3
_Right
350
26
  3
_Top
350
1E
  3
Model
350
22
  0
DICTIONARY
  5
17
102
{ACAD_REACTORS
330
C
102
}
330
C
100
AcDbDictionary
281
     1
  3
Standard
350
18
  0
DICTIONARY
  5
19
102
{ACAD_REACTORS
330
C
102
}
330
C
100
AcDbDictionary
281
     1
  0
ACDBDICTIONARYWDFLT
  5
E
102
{ACAD_REACTORS
330
C
102
}
330
C
100
AcDbDictionary
281
     1
  3
Normal
350
F
100
AcDbDictionaryWithDefault
340
F
  0
DICTIONARY
  5
47
102
{ACAD_REACTORS
330
C
102
}
330
C
100
AcDbDictionary
281
     1
  3
A0
350
48
  3
A1
350
49
  3
A2
350
4A
  3
A3
350
4B
  3
A4
350
4C
  3
A5
350
4D
  3
A6
350
4E
  3
A7
350
4F
  3
A8
350
50
  3
A9
350
51
  3
B0
350
52
  3
B1
350
53
  3
B2
350
54
  3
B3
350
55
  3
B4
350
56
  3
B5
350
57
  3
B6
350
58
  3
B7
350
59
  3
B8
350
5A
  3
B9
350
5B
  3
C0
350
5C
  3
C1
350
5D
  3
C2
350
5E
  3
C3
350
5F
  3
C4
350
60
  3
C5
350
61
  3
C6
350
62
  3
C7
350
63
  3
C8
350
64
  3
C9
350
65
  3
D0
350
66
  3
D1
350
67
  3
D2
350
68
  0
LAYOUT
  5
BC
102
{ACAD_REACTORS
330
1A
102
}
330
1A
100
AcDbPlotSettings
  1

  2
none_device
  4
ISO_A4_(210.00_x_297.00_MM)
  6

 40
7.5
 41
20.0
 42
7.5
 43
20.0
 44
210.0
 45
297.0
 46
0.0
 47
0.0
 48
0.0
 49
0.0
140
0.0
141
0.0
142
1.0
143
0.6498054475
 70
   688
 72
     1
 73
     1
 74
     1
  7

 75
     0
147
1.5389221557
148
132.5
149
97.5
100
AcDbLayout
  1
_Isometric
 70
     1
 71
     3
 10
0.0
 20
0.0
 11
0.0
 21
0.0
 12
0.0
 22
0.0
 32
0.0
 14
0.0
 24
0.0
 34
0.0
 15
0.0
 25
0.0
 35
0.0
146
0.0
 13
0.0
 23
0.0
 33
0.0
 16
1.0
 26
0.0
 36
0.0
 17
0.0
 27
1.0
 37
0.0
 76
     0
330
BB
331
E9
  0
LAYOUT
  5
26
102
{ACAD_REACTORS
330
1A
102
}
330
1A
100
AcDbPlotSettings
  1

  2
none_device
  4
ISO_A4_(210.00_x_297.00_MM)
  6

 40
7.5
 41
20.0
 42
7.5
 43
20.0
 44
210.0
 45
297.0
 46
0.0
 47
0.0
 48
0.0
 49
0.0
140
0.0
141
0.0
142
1.0
143
0.6498054475
 70
   688
 72
     1
 73
     1
 74
     1
  7

 75
     0
147
1.5389221557
148
132.5
149
97.5
100
AcDbLayout
  1
_Right
 70
     1
 71
     2
 10
0.0
 20
0.0
 11
0.0
 21
0.0
 12
0.0
 22
0.0
 32
0.0
 14
0.0
 24
0.0
 34
0.0
 15
0.0
 25
0.0
 35
0.0
146
0.0
 13
0.0
 23
0.0
 33
0.0
 16
1.0
 26
0.0
 36
0.0
 17
0.0
 27
1.0
 37
0.0
 76
     0
330
23
331
E7
  0
LAYOUT
  5
1E
102
{ACAD_REACTORS
330
1A
102
}
330
1A
100
AcDbPlotSettings
  1

  2
none_device
  4
ISO_A4_(210.00_x_297.00_MM)
  6

 40
7.5
 41
20.0
 42
7.5
 43
20.0
 44
210.0
 45
297.0
 46
0.0
 47
0.0
 48
0.0
 49
0.0
140
0.0
141
0.0
142
1.0
143
0.6498054475
 70
   688
 72
     1
 73
     1
 74
     1
  7

 75
     0
147
1.5389221557
148
132.5
149
97.5
100
AcDbLayout
  1
_Top
 70
     1
 71
     1
 10
-145.4961089494
 20
-102.373540856
 11
47.4961089494
 21
34.0856031128
 12
0.0
 22
0.0
 32
0.0
 14
-132.5
 24
-97.5
 34
0.0
 15
34.5
 25
0.0
 35
0.0
146
0.0
 13
0.0
 23
0.0
 33
0.0
 16
1.0
 26
0.0
 36
0.0
 17
0.0
 27
1.0
 37
0.0
 76
     0
330
1B
331
E5
  0
LAYOUT
  5
22
102
{ACAD_REACTORS
330
1A
102
}
330
1A
100
AcDbPlotSettings
  1

  2
none_device
  4
ANSI_A_(11.00_x_8.50_Inches)
  6

 40
6.35
 41
19.05
 42
6.35000508
 43
19.05000254
 44
279.4
 45
215.9
 46
214.5098417714
 47
88.89999873
 48
0.0
 49
0.0
140
0.0
141
0.0
142
0.0652095808
143
1.0
 70
  1696
 72
     0
 73
     0
 74
     0
  7

 75
     0
147
0.0179189148
148
-1300.4909072572
149
0.0
100
AcDbLayout
  1
Model
 70
     1
 71
     0
 10
0.0
 20
0.0
 11
420.0
 21
297.0
 12
0.0
 22
0.0
 32
0.0
 14
-132.5
 24
-26.0
 34
0.0
 15
34.5
 25
26.0
 35
0.0
146
0.0
 13
0.0
 23
0.0
 33
0.0
 16
1.0
 26
0.0
 36
0.0
 17
0.0
 27
1.0
 37
0.0
 76
     0
330
1F
331
29
  0
MLINESTYLE
  5
18
102
{ACAD_REACTORS
330
17
102
}
330
17
100
AcDbMlineStyle
  2
Standard
 70
     0
  3

 62
   256
 51
90.0
 52
90.0
 71
     2
 49
0.5
 62
   256
  6
BYLAYER
 49
-0.5
 62
   256
  6
BYLAYER
  0
ACDBPLACEHOLDER
  5
F
102
{ACAD_REACTORS
330
E
102
}
330
E
  0
SCALE
  5
48
102
{ACAD_REACTORS
330
47
102
}
330
47
100
AcDbScale
 70
     0
300
1:1
140
1.0
141
1.0
290
     1
  0
SCALE
  5
49
102
{ACAD_REACTORS
330
47
102
}
330
47
100
AcDbScale
 70
     0
300
1:2
140
1.0
141
2.0
290
     0
  0
SCALE
  5
4A
102
{ACAD_REACTORS
330
47
102
}
330
47
100
AcDbScale
 70
     0
300
1:4
140
1.0
141
4.0
290
     0
  0
SCALE
  5
4B
102
{ACAD_REACTORS
330
47
102
}
330
47
100
AcDbScale
 70
     0
300
1:5
140
1.0
141
5.0
290
     0
  0
SCALE
  5
4C
102
{ACAD_REACTORS
330
47
102
}
330
47
100
AcDbScale
 70
     0
300
1:8
140
1.0
141
8.0
290
     0
  0
SCALE
  5
4D
102
{ACAD_REACTORS
330
47
102
}
330
47
100
AcDbScale
 70
     0
300
1:10
140
1.0
141
10.0
290
     0
  0
SCALE
  5
4E
102
{ACAD_REACTORS
330
47
102
}
330
47
100
AcDbScale
 70
     0
300
1:16
140
1.0
141
16.0
290
     0
  0
SCALE
  5
4F
102
{ACAD_REACTORS
330
47
102
}
330
47
100
AcDbScale
 70
     0
300
1:20
140
1.0
141
20.0
290
     0
  0
SCALE
  5
50
102
{ACAD_REACTORS
330
47
102
}
330
47
100
AcDbScale
 70
     0
300
1:30
140
1.0
141
30.0
290
     0
  0
SCALE
  5
51
102
{ACAD_REACTORS
330
47
102
}
330
47
100
AcDbScale
 70
     0
300
1:40
140
1.0
141
40.0
290
     0
  0
SCALE
  5
52
102
{ACAD_REACTORS
330
47
102
}
330
47
100
AcDbScale
 70
     0
300
1:50
140
1.0
141
50.0
290
     0
  0
SCALE
  5
53
102
{ACAD_REACTORS
330
47
102
}
330
47
100
AcDbScale
 70
     0
300
1:100
140
1.0
141
100.0
290
     0
  0
SCALE
  5
54
102
{ACAD_REACTORS
330
47
102
}
330
47
100
AcDbScale
 70
     0
300
2:1
140
2.0
141
1.0
290
     0
  0
SCALE
  5
55
102
{ACAD_REACTORS
330
47
102
}
330
47
100
AcDbScale
 70
     0
300
4:1
140
4.0
141
1.0
290
     0
  0
SCALE
  5
56
102
{ACAD_REACTORS
330
47
102
}
330
47
100
AcDbScale
 70
     0
300
8:1
140
8.0
141
1.0
290
     0
  0
SCALE
  5
57
102
{ACAD_REACTORS
330
47
102
}
330
47
100
AcDbScale
 70
     0
300
10:1
140
10.0
141
1.0
290
     0
  0
SCALE
  5
58
102
{ACAD_REACTORS
330
47
102
}
330
47
100
AcDbScale
 70
     0
300
100:1
140
100.0
141
1.0
290
     0
  0
SCALE
  5
59
102
{ACAD_REACTORS
330
47
102
}
330
47
100
AcDbScale
 70
     0
300
1/128" = 1'-0"
140
0.0078125
141
12.0
290
     0
  0
SCALE
  5
5A
102
{ACAD_REACTORS
330
47
102
}
330
47
100
AcDbScale
 70
     0
300
1/64" = 1'-0"
140
0.015625
141
12.0
290
     0
  0
SCALE
  5
5B
102
{ACAD_REACTORS
330
47
102
}
330
47
100
AcDbScale
 70
     0
300
1/32" = 1'-0"
140
0.03125
141
12.0
290
     0
  0
SCALE
  5
5C
102
{ACAD_REACTORS
330
47
102
}
330
47
100
AcDbScale
 70
     0
300
1/16" = 1'-0"
140
0.0625
141
12.0
290
     0
  0
SCALE
  5
5D
102
{ACAD_REACTORS
330
47
102
}
330
47
100
AcDbScale
 70
     0
300
3/32" = 1'-0"
140
0.09375
141
12.0
290
     0
  0
SCALE
  5
5E
102
{ACAD_REACTORS
330
47
102
}
330
47
100
AcDbScale
 70
     0
300
1/8" = 1'-0"
140
0.125
141
12.0
290
     0
  0
SCALE
  5
5F
102
{ACAD_REACTORS
330
47
102
}
330
47
100
AcDbScale
 70
     0
300
3/16" = 1'-0"
140
0.1875
141
12.0
290
     0
  0
SCALE
  5
60
102
{ACAD_REACTORS
330
47
102
}
330
47
100
AcDbScale
 70
     0
300
1/4" = 1'-0"
140
0.25
141
12.0
290
     0
  0
SCALE
  5
61
102
{ACAD_REACTORS
330
47
102
}
330
47
100
AcDbScale
 70
     0
300
3/8" = 1'-0"
140
0.375
141
12.0
290
     0
  0
SCALE
  5
62
102
{ACAD_REACTORS
330
47
102
}
330
47
100
AcDbScale
 70
     0
300
1/2" = 1'-0"
140
0.5
141
12.0
290
     0
  0
SCALE
  5
63
102
{ACAD_REACTORS
330
47
102
}
330
47
100
AcDbScale
 70
     0
300
3/4" = 1'-0"
140
0.75
141
12.0
290
     0
  0
SCALE
  5
64
102
{ACAD_REACTORS
330
47
102
}
330
47
100
AcDbScale
 70
     0
300
1" = 1'-0"
140
1.0
141
12.0
290
     0
  0
SCALE
  5
65
102
{ACAD_REACTORS
330
47
102
}
330
47
100
AcDbScale
 70
     0
300
1-1/2" = 1'-0"
140
1.5
141
12.0
290
     0
  0
SCALE
  5
66
102
{ACAD_REACTORS
330
47
102
}
330
47
100
AcDbScale
 70
     0
300
3" = 1'-0"
140
3.0
141
12.0
290
     0
  0
SCALE
  5
67
102
{ACAD_REACTORS
330
47
102
}
330
47
100
AcDbScale
 70
     0
300
6" = 1'-0"
140
6.0
141
12.0
290
     0
  0
SCALE
  5
68
102
{ACAD_REACTORS
330
47
102
}
330
47
100
AcDbScale
 70
     0
300
1'-0" = 1'-0"
140
12.0
141
12.0
290
     0
  0
ENDSEC
  0
EOF
