  0
SECTION
  2
HEADER
  9
$ACADVER
  1
AC1015
  9
$ACADMAINTVER
 70
     6
  9
$DWGCODEPAGE
  3
ANSI_1252
  9
$INSBASE
 10
0.0
 20
0.0
 30
0.0
  9
$EXTMIN
 10
-47.3512327713
 20
-7.5072429035
 30
0.0
  9
$EXTMAX
 10
2.6487672287
 20
48.6081307478
 30
0.0
  9
$LIMMIN
 10
0.0
 20
0.0
  9
$LIMMAX
 10
420.0
 20
297.0
  9
$ORTHOMODE
 70
     0
  9
$REGENMODE
 70
     1
  9
$FILLMODE
 70
     1
  9
$QTEXTMODE
 70
     0
  9
$MIRRTEXT
 70
     1
  9
$LTSCALE
 40
1.0
  9
$ATTMODE
 70
     1
  9
$TEXTSIZE
 40
3.5
  9
$TRACEWID
 40
1.0
  9
$TEXTSTYLE
  7
Standard
  9
$CLAYER
  8
0
  9
$CELTYPE
  6
ByLayer
  9
$CECOLOR
 62
   256
  9
$CELTSCALE
 40
1.0
  9
$DISPSILH
 70
     0
  9
$DIMSCALE
 40
1.0
  9
$DIMASZ
 40
3.302
  9
$DIMEXO
 40
1.0
  9
$DIMDLI
 40
3.75
  9
$DIMRND
 40
0.0
  9
$DIMDLE
 40
0.0
  9
$DIMEXE
 40
1.0
  9
$DIMTP
 40
0.0
  9
$DIMTM
 40
0.0
  9
$DIMTXT
 40
3.5
  9
$DIMCEN
 40
2.5
  9
$DIMTSZ
 40
0.0
  9
$DIMTOL
 70
     0
  9
$DIMLIM
 70
     0
  9
$DIMTIH
 70
     1
  9
$DIMTOH
 70
     1
  9
$DIMSE1
 70
     0
  9
$DIMSE2
 70
     0
  9
$DIMTAD
 70
     1
  9
$DIMZIN
 70
     1
  9
$DIMBLK
  1

  9
$DIMASO
 70
     1
  9
$DIMSHO
 70
     1
  9
$DIMPOST
  1

  9
$DIMAPOST
  1

  9
$DIMALT
 70
     0
  9
$DIMALTD
 70
     3
  9
$DIMALTF
 40
0.0393700787
  9
$DIMLFAC
 40
1.0
  9
$DIMTOFL
 70
     1
  9
$DIMTVP
 40
0.0
  9
$DIMTIX
 70
     0
  9
$DIMSOXD
 70
     0
  9
$DIMSAH
 70
     0
  9
$DIMBLK1
  1

  9
$DIMBLK2
  1

  9
$DIMSTYLE
  2
ISO-25
  9
$DIMCLRD
 70
     0
  9
$DIMCLRE
 70
     0
  9
$DIMCLRT
 70
     0
  9
$DIMTFAC
 40
1.0
  9
$DIMGAP
 40
1.524
  9
$DIMJUST
 70
     0
  9
$DIMSD1
 70
     0
  9
$DIMSD2
 70
     0
  9
$DIMTOLJ
 70
     0
  9
$DIMTZIN
 70
     1
  9
$DIMALTZ
 70
     0
  9
$DIMALTTZ
 70
     0
  9
$DIMUPT
 70
     0
  9
$DIMDEC
 70
     2
  9
$DIMTDEC
 70
     2
  9
$DIMALTU
 70
     2
  9
$DIMALTTD
 70
     3
  9
$DIMTXSTY
  7
Standard
  9
$DIMAUNIT
 70
     0
  9
$DIMADEC
 70
     2
  9
$DIMALTRND
 40
0.0
  9
$DIMAZIN
 70
     0
  9
$DIMDSEP
 70
    44
  9
$DIMATFIT
 70
     3
  9
$DIMFRAC
 70
     0
  9
$DIMLDRBLK
  1

  9
$DIMLUNIT
 70
     2
  9
$DIMLWD
 70
    -2
  9
$DIMLWE
 70
    -2
  9
$DIMTMOVE
 70
     0
  9
$LUNITS
 70
     2
  9
$LUPREC
 70
     2
  9
$SKETCHINC
 40
1.0
  9
$FILLETRAD
 40
10.0
  9
$AUNITS
 70
     0
  9
$AUPREC
 70
     2
  9
$MENU
  1
.
  9
$ELEVATION
 40
0.0
  9
$PELEVATION
 40
0.0
  9
$THICKNESS
 40
0.0
  9
$LIMCHECK
 70
     0
  9
$CHAMFERA
 40
0.0
  9
$CHAMFERB
 40
0.0
  9
$CHAMFERC
 40
0.0
  9
$CHAMFERD
 40
0.0
  9
$SKPOLY
 70
     0
  9
$TDCREATE
 40
2458654.430105891
  9
$TDUCREATE
 40
2458654.388439225
  9
$TDUPDATE
 40
2458654.430160081
  9
$TDUUPDATE
 40
2458654.388493415
  9
$TDINDWG
 40
0.0000000116
  9
$TDUSRTIMER
 40
0.0000000116
  9
$USRTIMER
 70
     1
  9
$ANGBASE
 50
0.0
  9
$ANGDIR
 70
     0
  9
$PDMODE
 70
     0
  9
$PDSIZE
 40
-1.0
  9
$PLINEWID
 40
0.0
  9
$SPLFRAME
 70
     0
  9
$SPLINETYPE
 70
     6
  9
$SPLINESEGS
 70
     8
  9
$HANDSEED
  5
25A
  9
$SURFTAB1
 70
     6
  9
$SURFTAB2
 70
     6
  9
$SURFTYPE
 70
     6
  9
$SURFU
 70
     6
  9
$SURFV
 70
     6
  9
$UCSBASE
  2

  9
$UCSNAME
  2

  9
$UCSORG
 10
0.0
 20
0.0
 30
0.0
  9
$UCSXDIR
 10
1.0
 20
0.0
 30
0.0
  9
$UCSYDIR
 10
0.0
 20
1.0
 30
0.0
  9
$UCSORTHOREF
  2

  9
$UCSORTHOVIEW
 70
     0
  9
$UCSORGTOP
 10
0.0
 20
0.0
 30
0.0
  9
$UCSORGBOTTOM
 10
0.0
 20
0.0
 30
0.0
  9
$UCSORGLEFT
 10
0.0
 20
0.0
 30
0.0
  9
$UCSORGRIGHT
 10
0.0
 20
0.0
 30
0.0
  9
$UCSORGFRONT
 10
0.0
 20
0.0
 30
0.0
  9
$UCSORGBACK
 10
0.0
 20
0.0
 30
0.0
  9
$PUCSBASE
  2

  9
$PUCSNAME
  2

  9
$PUCSORG
 10
0.0
 20
0.0
 30
0.0
  9
$PUCSXDIR
 10
1.0
 20
0.0
 30
0.0
  9
$PUCSYDIR
 10
0.0
 20
1.0
 30
0.0
  9
$PUCSORTHOREF
  2

  9
$PUCSORTHOVIEW
 70
     0
  9
$PUCSORGTOP
 10
0.0
 20
0.0
 30
0.0
  9
$PUCSORGBOTTOM
 10
0.0
 20
0.0
 30
0.0
  9
$PUCSORGLEFT
 10
0.0
 20
0.0
 30
0.0
  9
$PUCSORGRIGHT
 10
0.0
 20
0.0
 30
0.0
  9
$PUCSORGFRONT
 10
0.0
 20
0.0
 30
0.0
  9
$PUCSORGBACK
 10
0.0
 20
0.0
 30
0.0
  9
$USERI1
 70
     0
  9
$USERI2
 70
     0
  9
$USERI3
 70
     0
  9
$USERI4
 70
     0
  9
$USERI5
 70
     0
  9
$USERR1
 40
0.0
  9
$USERR2
 40
0.0
  9
$USERR3
 40
0.0
  9
$USERR4
 40
0.0
  9
$USERR5
 40
0.0
  9
$WORLDVIEW
 70
     1
  9
$SHADEDGE
 70
     3
  9
$SHADEDIF
 70
    70
  9
$TILEMODE
 70
     1
  9
$MAXACTVP
 70
    64
  9
$PINSBASE
 10
0.0
 20
0.0
 30
0.0
  9
$PLIMCHECK
 70
     0
  9
$PEXTMIN
 10
-46.4574331076
 20
-7.5072429035
 30
0.0
  9
$PEXTMAX
 10
48.4079711771
 20
48.6081307478
 30
0.0
  9
$PLIMMIN
 10
-53.8399548418
 20
-10.2756885538
  9
$PLIMMAX
 10
55.7904929113
 20
67.2407896555
  9
$UNITMODE
 70
     0
  9
$VISRETAIN
 70
     1
  9
$PLINEGEN
 70
     0
  9
$PSLTSCALE
 70
     1
  9
$TREEDEPTH
 70
  3020
  9
$CMLSTYLE
  2
Standard
  9
$CMLJUST
 70
     0
  9
$CMLSCALE
 40
20.0
  9
$PROXYGRAPHICS
 70
     1
  9
$MEASUREMENT
 70
     1
  9
$CELWEIGHT
370
    -1
  9
$ENDCAPS
280
     0
  9
$JOINSTYLE
280
     0
  9
$LWDISPLAY
290
     1
  9
$INSUNITS
 70
     4
  9
$HYPERLINKBASE
  1

  9
$STYLESHEET
  1

  9
$XEDIT
290
     1
  9
$CEPSNTYPE
380
     0
  9
$PSTYLEMODE
290
     1
  9
$FINGERPRINTGUID
  2
{124a1e4d-3bd0-4146-a32f-19ad0fb47994}
  9
$VERSIONGUID
  2
{FAEB1C32-E019-11D5-929B-00C0DF256EC4}
  9
$EXTNAMES
290
     1
  9
$PSVPSCALE
 40
0.0
  9
$OLESTARTUP
290
     0
  0
ENDSEC
  0
SECTION
  2
CLASSES
  0
CLASS
  1
ACDBDICTIONARYWDFLT
  2
AcDbDictionaryWithDefault
  3
ObjectDBX Classes
 90
        0
280
     0
281
     0
  0
CLASS
  1
VISUALSTYLE
  2
AcDbVisualStyle
  3
ObjectDBX Classes
 90
     4095
280
     0
281
     0
  0
CLASS
  1
MATERIAL
  2
AcDbMaterial
  3
ObjectDBX Classes
 90
     1153
280
     0
281
     0
  0
CLASS
  1
SCALE
  2
AcDbScale
  3
ObjectDBX Classes
 90
     1153
280
     0
281
     0
  0
CLASS
  1
TABLESTYLE
  2
AcDbTableStyle
  3
ObjectDBX Classes
 90
     4095
280
     0
281
     0
  0
CLASS
  1
MLEADERSTYLE
  2
AcDbMLeaderStyle
  3
ACDB_MLEADERSTYLE_CLASS
 90
     4095
280
     0
281
     0
  0
CLASS
  1
SUN
  2
AcDbSun
  3
SCENEOE
 90
     1153
280
     0
281
     0
  0
CLASS
  1
ACDBPLACEHOLDER
  2
AcDbPlaceHolder
  3
ObjectDBX Classes
 90
        0
280
     0
281
     0
  0
CLASS
  1
LAYOUT
  2
AcDbLayout
  3
ObjectDBX Classes
 90
        0
280
     0
281
     0
  0
ENDSEC
  0
SECTION
  2
TABLES
  0
TABLE
  2
VPORT
  5
8
330
0
100
AcDbSymbolTable
 70
     1
  0
VPORT
  5
29
330
8
100
AcDbSymbolTableRecord
100
AcDbViewportTableRecord
  2
*Active
 70
     0
 10
0.0
 20
0.0
 11
1.0
 21
1.0
 12
-22.3512327713
 22
20.5504439222
 13
0.0
 23
0.0
 14
10.0
 24
10.0
 15
10.0
 25
10.0
 16
0.0
 26
0.0
 36
1.0
 17
0.0
 27
0.0
 37
0.0
 40
57.2376811243
 41
0.8910214215
 42
50.0
 43
0.0
 44
0.0
 50
0.0
 51
0.0
 71
     0
 72
   100
 73
     1
 74
     3
 75
     0
 76
     0
 77
     0
 78
     0
281
     0
 65
     1
110
0.0
120
0.0
130
0.0
111
1.0
121
0.0
131
0.0
112
0.0
122
1.0
132
0.0
 79
     0
146
0.0
  0
ENDTAB
  0
TABLE
  2
LTYPE
  5
5
330
0
100
AcDbSymbolTable
 70
     6
  0
LTYPE
  5
14
330
5
100
AcDbSymbolTableRecord
100
AcDbLinetypeTableRecord
  2
ByBlock
 70
     0
  3

 72
    65
 73
     0
 40
0.0
  0
LTYPE
  5
15
330
5
100
AcDbSymbolTableRecord
100
AcDbLinetypeTableRecord
  2
ByLayer
 70
     0
  3

 72
    65
 73
     0
 40
0.0
  0
LTYPE
  5
16
330
5
100
AcDbSymbolTableRecord
100
AcDbLinetypeTableRecord
  2
Continuous
 70
     0
  3
Solid line
 72
    65
 73
     0
 40
0.0
  0
LTYPE
  5
6E
330
5
100
AcDbSymbolTableRecord
100
AcDbLinetypeTableRecord
  2
HIDDEN
 70
     0
  3
Hidden __ __ __ __ __ __ __ __ __ __ __ __ __ __
 72
    65
 73
     2
 40
1.905
 49
1.27
 74
     0
 49
-0.635
 74
     0
  0
LTYPE
  5
6F
330
5
100
AcDbSymbolTableRecord
100
AcDbLinetypeTableRecord
  2
PHANTOM
 70
     0
  3
Phantom ______  __  __  ______  __  __  ______
 72
    65
 73
     6
 40
12.7
 49
6.35
 74
     0
 49
-1.27
 74
     0
 49
1.27
 74
     0
 49
-1.27
 74
     0
 49
1.27
 74
     0
 49
-1.27
 74
     0
  0
LTYPE
  5
70
330
5
100
AcDbSymbolTableRecord
100
AcDbLinetypeTableRecord
  2
CENTER
 70
     0
  3
Center ____ _ ____ _ ____ _ ____ _ ____ _ ____
 72
    65
 73
     4
 40
10.16
 49
6.35
 74
     0
 49
-1.27
 74
     0
 49
1.27
 74
     0
 49
-1.27
 74
     0
  0
LTYPE
  5
71
330
5
100
AcDbSymbolTableRecord
100
AcDbLinetypeTableRecord
  2
CENTERX2
 70
     0
  3
Center (2x) ________  __  ________  __  _____
 72
    65
 73
     4
 40
20.32
 49
12.7
 74
     0
 49
-2.54
 74
     0
 49
2.54
 74
     0
 49
-2.54
 74
     0
  0
LTYPE
  5
72
330
5
100
AcDbSymbolTableRecord
100
AcDbLinetypeTableRecord
  2
DOT2
 70
     0
  3
Dot (.5x) ........................................
 72
    65
 73
     2
 40
0.635
 49
0.0
 74
     0
 49
-0.635
 74
     0
  0
ENDTAB
  0
TABLE
  2
LAYER
  5
2
330
0
100
AcDbSymbolTable
 70
     1
  0
LAYER
  5
10
330
2
100
AcDbSymbolTableRecord
100
AcDbLayerTableRecord
  2
0
 70
     0
 62
     7
  6
Continuous
370
    -3
390
F
  0
ENDTAB
  0
TABLE
  2
STYLE
  5
3
330
0
100
AcDbSymbolTable
 70
     1
  0
STYLE
  5
11
330
3
100
AcDbSymbolTableRecord
100
AcDbTextStyleTableRecord
  2
Standard
 70
     0
 40
0.0
 41
1.0
 50
0.0
 71
     0
 42
3.5
  3
txt
  4

  0
ENDTAB
  0
TABLE
  2
VIEW
  5
6
330
0
100
AcDbSymbolTable
 70
     0
  0
ENDTAB
  0
TABLE
  2
UCS
  5
7
330
0
100
AcDbSymbolTable
 70
     0
  0
ENDTAB
  0
TABLE
  2
APPID
  5
9
330
0
100
AcDbSymbolTable
 70
     1
  0
APPID
  5
12
330
9
100
AcDbSymbolTableRecord
100
AcDbRegAppTableRecord
  2
ACAD
 70
     0
  0
ENDTAB
  0
TABLE
  2
DIMSTYLE
  5
A
330
0
100
AcDbSymbolTable
 70
     1
100
AcDbDimStyleTable
  0
DIMSTYLE
105
27
330
A
100
AcDbSymbolTableRecord
100
AcDbDimStyleTableRecord
  2
ISO-25
 70
     0
 41
2.5
 42
0.625
 43
3.75
 44
1.25
 73
     0
 74
     0
 77
     1
 78
     8
140
2.5
141
2.5
143
0.0393700787
147
0.625
171
     3
172
     1
178
     0
271
     2
272
     2
274
     3
278
    44
283
     0
284
     8
340
11
  0
ENDTAB
  0
TABLE
  2
BLOCK_RECORD
  5
1
330
0
100
AcDbSymbolTable
 70
     2
  0
BLOCK_RECORD
  5
1F
330
1
100
AcDbSymbolTableRecord
100
AcDbBlockTableRecord
  2
*Model_Space
340
22
  0
BLOCK_RECORD
  5
1B
330
1
100
AcDbSymbolTableRecord
100
AcDbBlockTableRecord
  2
*Paper_Space
340
1E
  0
BLOCK_RECORD
  5
23
330
1
100
AcDbSymbolTableRecord
100
AcDbBlockTableRecord
  2
*Paper_Space0
340
26
  0
BLOCK_RECORD
  5
20A
330
1
100
AcDbSymbolTableRecord
100
AcDbBlockTableRecord
  2
*Paper_Space1
340
20B
  0
ENDTAB
  0
ENDSEC
  0
SECTION
  2
BLOCKS
  0
BLOCK
  5
20
330
1F
100
AcDbEntity
  8
0
100
AcDbBlockBegin
  2
*Model_Space
 70
     0
 10
0.0
 20
0.0
 30
0.0
  3
*Model_Space
  1

  0
ENDBLK
  5
21
330
1F
100
AcDbEntity
  8
0
100
AcDbBlockEnd
  0
BLOCK
  5
1C
330
1B
100
AcDbEntity
 67
     1
  8
0
100
AcDbBlockBegin
  2
*Paper_Space
 70
     0
 10
0.0
 20
0.0
 30
0.0
  3
*Paper_Space
  1

  0
ENDBLK
  5
1D
330
1B
100
AcDbEntity
 67
     1
  8
0
100
AcDbBlockEnd
  0
BLOCK
  5
24
330
23
100
AcDbEntity
  8
0
100
AcDbBlockBegin
  2
*Paper_Space0
 70
     0
 10
0.0
 20
0.0
 30
0.0
  3
*Paper_Space0
  1

  0
SPLINE
  5
18F
330
23
100
AcDbEntity
  8
0
  6
Continuous
 62
     7
370
    25
100
AcDbSpline
210
0.0
220
0.0
230
1.0
 70
     8
 71
     3
 72
     9
 73
     5
 74
     0
 42
0.000000001
 43
0.00000001
 40
0.0
 40
0.0
 40
0.0
 40
0.0
 40
0.2671842068672079
 40
1.0
 40
1.0
 40
1.0
 40
1.0
 10
-32.80606290254418
 20
42.4583929153652
 30
0.0
 10
-32.89739792195981
 20
42.40549521743128
 30
0.0
 10
-33.23924080439118
 20
42.2075130890931
 30
0.0
 10
-33.58115109065493
 20
42.00964788006357
 30
0.0
 10
-33.83170834826354
 20
41.86464912997518
 30
0.0
  0
SPLINE
  5
190
330
23
100
AcDbEntity
  8
0
  6
Continuous
 62
     7
370
    25
100
AcDbSpline
210
0.0
220
0.0
230
1.0
 70
     8
 71
     3
 72
     9
 73
     5
 74
     0
 42
0.000000001
 43
0.00000001
 40
0.0
 40
0.0
 40
0.0
 40
0.0
 40
0.2671842068672138
 40
1.0
 40
1.0
 40
1.0
 40
1.0
 10
-32.80606290254418
 20
39.9583929153652
 30
0.0
 10
-32.89739792195981
 20
39.90549521743127
 30
0.0
 10
-33.23924080439119
 20
39.70751308909311
 30
0.0
 10
-33.58115109065492
 20
39.50964788006355
 30
0.0
 10
-33.83170834826354
 20
39.36464912997518
 30
0.0
  0
SPLINE
  5
191
330
23
100
AcDbEntity
  8
0
  6
Continuous
 62
     7
370
    25
100
AcDbSpline
210
0.0
220
0.0
230
1.0
 70
     8
 71
     3
 72
     9
 73
     5
 74
     0
 42
0.000000001
 43
0.00000001
 40
0.0
 40
0.0
 40
0.0
 40
0.0
 40
0.2671842068672154
 40
1.0
 40
1.0
 40
1.0
 40
1.0
 10
-32.80606290254418
 20
37.4583929153652
 30
0.0
 10
-32.89739792195981
 20
37.40549521743127
 30
0.0
 10
-33.23924080439119
 20
37.2075130890931
 30
0.0
 10
-33.58115109065493
 20
37.00964788006355
 30
0.0
 10
-33.83170834826354
 20
36.86464912997518
 30
0.0
  0
SPLINE
  5
192
330
23
100
AcDbEntity
  8
0
  6
Continuous
 62
     7
370
    25
100
AcDbSpline
210
0.0
220
0.0
230
1.0
 70
     8
 71
     3
 72
     9
 73
     5
 74
     0
 42
0.000000001
 43
0.00000001
 40
0.0
 40
0.0
 40
0.0
 40
0.0
 40
0.2671842068672159
 40
1.0
 40
1.0
 40
1.0
 40
1.0
 10
-32.80606290254418
 20
34.9583929153652
 30
0.0
 10
-32.89739792195981
 20
34.90549521743128
 30
0.0
 10
-33.23924080439119
 20
34.70751308909311
 30
0.0
 10
-33.58115109065492
 20
34.50964788006355
 30
0.0
 10
-33.83170834826354
 20
34.36464912997518
 30
0.0
  0
SPLINE
  5
193
330
23
100
AcDbEntity
  8
0
  6
Continuous
 62
     7
370
    25
100
AcDbSpline
210
0.0
220
0.0
230
1.0
 70
     8
 71
     3
 72
     9
 73
     5
 74
     0
 42
0.000000001
 43
0.00000001
 40
0.0
 40
0.0
 40
0.0
 40
0.0
 40
0.267184206867213
 40
1.0
 40
1.0
 40
1.0
 40
1.0
 10
-32.80606290254418
 20
32.4583929153652
 30
0.0
 10
-32.89739792195981
 20
32.40549521743128
 30
0.0
 10
-33.23924080439118
 20
32.2075130890931
 30
0.0
 10
-33.58115109065492
 20
32.00964788006355
 30
0.0
 10
-33.83170834826354
 20
31.86464912997518
 30
0.0
  0
SPLINE
  5
194
330
23
100
AcDbEntity
  8
0
  6
Continuous
 62
     7
370
    25
100
AcDbSpline
210
0.0
220
0.0
230
1.0
 70
     8
 71
     3
 72
     9
 73
     5
 74
     0
 42
0.000000001
 43
0.00000001
 40
0.0
 40
0.0
 40
0.0
 40
0.0
 40
0.2671842068672135
 40
1.0
 40
1.0
 40
1.0
 40
1.0
 10
-32.80606290254418
 20
29.9583929153652
 30
0.0
 10
-32.89739792195981
 20
29.90549521743128
 30
0.0
 10
-33.23924080439116
 20
29.70751308909308
 30
0.0
 10
-33.58115109065491
 20
29.50964788006355
 30
0.0
 10
-33.83170834826354
 20
29.36464912997518
 30
0.0
  0
SPLINE
  5
195
330
23
100
AcDbEntity
  8
0
  6
Continuous
 62
     7
370
    25
100
AcDbSpline
210
0.0
220
0.0
230
1.0
 70
     8
 71
     3
 72
     9
 73
     5
 74
     0
 42
0.000000001
 43
0.00000001
 40
0.0
 40
0.0
 40
0.0
 40
0.0
 40
0.2671842068672131
 40
0.9999999999999999
 40
0.9999999999999999
 40
0.9999999999999999
 40
0.9999999999999999
 10
-32.80606290254418
 20
27.4583929153652
 30
0.0
 10
-32.8973979219598
 20
27.40549521743128
 30
0.0
 10
-33.23924080439118
 20
27.2075130890931
 30
0.0
 10
-33.58115109065493
 20
27.00964788006355
 30
0.0
 10
-33.83170834826354
 20
26.86464912997518
 30
0.0
  0
SPLINE
  5
196
330
23
100
AcDbEntity
  8
0
  6
Continuous
 62
     7
370
    25
100
AcDbSpline
210
0.0
220
0.0
230
1.0
 70
     8
 71
     3
 72
     9
 73
     5
 74
     0
 42
0.000000001
 43
0.00000001
 40
0.0
 40
0.0
 40
0.0
 40
0.0
 40
0.7324061901357223
 40
1.0
 40
1.0
 40
1.0
 40
1.0
 10
-11.12680956378579
 20
40.67873933990217
 30
0.0
 10
-11.37170527527705
 20
40.82331064240119
 30
0.0
 10
-11.70607671395356
 20
41.02070288791488
 30
0.0
 10
-12.03990151360765
 20
41.21811582116053
 30
0.0
 10
-12.12923096357427
 20
41.27094230008422
 30
0.0
  0
SPLINE
  5
197
330
23
100
AcDbEntity
  8
0
  6
Continuous
 62
     7
370
    25
100
AcDbSpline
210
0.0
220
0.0
230
1.0
 70
     8
 71
     3
 72
     9
 73
     5
 74
     0
 42
0.000000001
 43
0.00000001
 40
0.0
 40
0.0
 40
0.0
 40
0.0
 40
0.7324061901357273
 40
1.0
 40
1.0
 40
1.0
 40
1.0
 10
-11.12680956378579
 20
38.17873933990218
 30
0.0
 10
-11.37170527527706
 20
38.3233106424012
 30
0.0
 10
-11.70607671395357
 20
38.52070288791489
 30
0.0
 10
-12.03990151360765
 20
38.71811582116054
 30
0.0
 10
-12.12923096357427
 20
38.77094230008422
 30
0.0
  0
SPLINE
  5
198
330
23
100
AcDbEntity
  8
0
  6
Continuous
 62
     7
370
    25
100
AcDbSpline
210
0.0
220
0.0
230
1.0
 70
     8
 71
     3
 72
     9
 73
     5
 74
     0
 42
0.000000001
 43
0.00000001
 40
0.0
 40
0.0
 40
0.0
 40
0.0
 40
0.732406190135731
 40
1.0
 40
1.0
 40
1.0
 40
1.0
 10
-11.12680956378579
 20
35.67873933990218
 30
0.0
 10
-11.37170527527705
 20
35.8233106424012
 30
0.0
 10
-11.70607671395356
 20
36.02070288791489
 30
0.0
 10
-12.03990151360765
 20
36.21811582116054
 30
0.0
 10
-12.12923096357427
 20
36.27094230008422
 30
0.0
  0
SPLINE
  5
199
330
23
100
AcDbEntity
  8
0
  6
Continuous
 62
     7
370
    25
100
AcDbSpline
210
0.0
220
0.0
230
1.0
 70
     8
 71
     3
 72
     9
 73
     5
 74
     0
 42
0.000000001
 43
0.00000001
 40
0.0
 40
0.0
 40
0.0
 40
0.0
 40
0.7324061901357297
 40
1.0
 40
1.0
 40
1.0
 40
1.0
 10
-11.12680956378579
 20
33.17873933990217
 30
0.0
 10
-11.37170527527705
 20
33.3233106424012
 30
0.0
 10
-11.70607671395357
 20
33.52070288791489
 30
0.0
 10
-12.03990151360765
 20
33.71811582116054
 30
0.0
 10
-12.12923096357427
 20
33.77094230008422
 30
0.0
  0
SPLINE
  5
19A
330
23
100
AcDbEntity
  8
0
  6
Continuous
 62
     7
370
    25
100
AcDbSpline
210
0.0
220
0.0
230
1.0
 70
     8
 71
     3
 72
     9
 73
     5
 74
     0
 42
0.000000001
 43
0.00000001
 40
0.0
 40
0.0
 40
0.0
 40
0.0
 40
0.7324061901357263
 40
1.0
 40
1.0
 40
1.0
 40
1.0
 10
-11.12680956378579
 20
30.67873933990217
 30
0.0
 10
-11.37170527527705
 20
30.82331064240119
 30
0.0
 10
-11.70607671395356
 20
31.02070288791489
 30
0.0
 10
-12.03990151360765
 20
31.21811582116054
 30
0.0
 10
-12.12923096357426
 20
31.27094230008422
 30
0.0
  0
SPLINE
  5
19B
330
23
100
AcDbEntity
  8
0
  6
Continuous
 62
     7
370
    25
100
AcDbSpline
210
0.0
220
0.0
230
1.0
 70
     8
 71
     3
 72
     9
 73
     5
 74
     0
 42
0.000000001
 43
0.00000001
 40
0.0
 40
0.0
 40
0.0
 40
0.0
 40
0.7324061901357298
 40
1.0
 40
1.0
 40
1.0
 40
1.0
 10
-11.12680956378579
 20
28.17873933990218
 30
0.0
 10
-11.37170527527706
 20
28.3233106424012
 30
0.0
 10
-11.70607671395358
 20
28.52070288791489
 30
0.0
 10
-12.03990151360766
 20
28.71811582116054
 30
0.0
 10
-12.12923096357427
 20
28.77094230008422
 30
0.0
  0
SPLINE
  5
19C
330
23
100
AcDbEntity
  8
0
  6
Continuous
 62
     7
370
    25
100
AcDbSpline
210
0.0
220
0.0
230
1.0
 70
     8
 71
     3
 72
     9
 73
     5
 74
     0
 42
0.000000001
 43
0.00000001
 40
0.0
 40
0.0
 40
0.0
 40
0.0
 40
0.7324061901357322
 40
0.9999999999999999
 40
0.9999999999999999
 40
0.9999999999999999
 40
0.9999999999999999
 10
-11.12680956378579
 20
25.67873933990218
 30
0.0
 10
-11.37170527527706
 20
25.8233106424012
 30
0.0
 10
-11.70607671395357
 20
26.02070288791488
 30
0.0
 10
-12.03990151360766
 20
26.21811582116054
 30
0.0
 10
-12.12923096357427
 20
26.27094230008422
 30
0.0
  0
SPLINE
  5
19D
330
23
100
AcDbEntity
  8
0
  6
Continuous
 62
     7
370
    25
100
AcDbSpline
210
0.0
220
0.0
230
1.0
 70
     8
 71
     3
 72
     9
 73
     5
 74
     0
 42
0.000000001
 43
0.00000001
 40
0.0
 40
0.0
 40
0.0
 40
0.0
 40
0.7324061901357248
 40
1.0
 40
1.0
 40
1.0
 40
1.0
 10
-11.12680956378579
 20
43.17873933990218
 30
0.0
 10
-11.37170527527705
 20
43.32331064240118
 30
0.0
 10
-11.70607671395356
 20
43.52070288791489
 30
0.0
 10
-12.03990151360765
 20
43.71811582116054
 30
0.0
 10
-12.12923096357427
 20
43.77094230008423
 30
0.0
  0
SPLINE
  5
19E
330
23
100
AcDbEntity
  8
0
  6
Continuous
 62
     7
370
    25
100
AcDbSpline
210
0.0
220
0.0
230
1.0
 70
     8
 71
     3
 72
     9
 73
     5
 74
     0
 42
0.000000001
 43
0.00000001
 40
0.0
 40
0.0
 40
0.0
 40
0.0
 40
0.2671842068672132
 40
1.0
 40
1.0
 40
1.0
 40
1.0
 10
-32.80606290254418
 20
44.95839291536519
 30
0.0
 10
-32.8973979219598
 20
44.90549521743127
 30
0.0
 10
-33.23924080439118
 20
44.7075130890931
 30
0.0
 10
-33.58115109065492
 20
44.50964788006355
 30
0.0
 10
-33.83170834826354
 20
44.36464912997518
 30
0.0
  0
SPLINE
  5
19F
330
23
100
AcDbEntity
  8
0
  6
Continuous
 62
     7
370
    25
100
AcDbSpline
210
0.0
220
0.0
230
1.0
 70
     8
 71
     3
 72
     9
 73
     5
 74
     0
 42
0.000000001
 43
0.00000001
 40
0.0
 40
0.0
 40
0.0
 40
0.0
 40
0.5109696017858153
 40
1.0
 40
1.0
 40
1.0
 40
1.0
 10
-33.83170834826355
 20
41.819408515833
 30
0.0
 10
-33.66470051500122
 20
41.72275749174896
 30
0.0
 10
-33.33785556634157
 20
41.53360529219296
 30
0.0
 10
-33.01105042145574
 20
41.34438391858576
 30
0.0
 10
-32.85123277131379
 20
41.2518489149
 30
0.0
  0
SPLINE
  5
1A0
330
23
100
AcDbEntity
  8
0
  6
Continuous
 62
     7
370
    25
100
AcDbSpline
210
0.0
220
0.0
230
1.0
 70
     8
 71
     3
 72
     9
 73
     5
 74
     0
 42
0.000000001
 43
0.00000001
 40
0.0
 40
0.0
 40
0.0
 40
0.0
 40
0.510969601785814
 40
1.0
 40
1.0
 40
1.0
 40
1.0
 10
-33.83170834826355
 20
39.31940851583301
 30
0.0
 10
-33.66470051500121
 20
39.22275749174896
 30
0.0
 10
-33.33785556634157
 20
39.03360529219297
 30
0.0
 10
-33.01105042145574
 20
38.84438391858577
 30
0.0
 10
-32.85123277131379
 20
38.75184891490002
 30
0.0
  0
SPLINE
  5
1A1
330
23
100
AcDbEntity
  8
0
  6
Continuous
 62
     7
370
    25
100
AcDbSpline
210
0.0
220
0.0
230
1.0
 70
     8
 71
     3
 72
     9
 73
     5
 74
     0
 42
0.000000001
 43
0.00000001
 40
0.0
 40
0.0
 40
0.0
 40
0.0
 40
0.5109696017858071
 40
1.0
 40
1.0
 40
1.0
 40
1.0
 10
-33.83170834826355
 20
36.819408515833
 30
0.0
 10
-33.66470051500122
 20
36.72275749174896
 30
0.0
 10
-33.33785556634157
 20
36.53360529219296
 30
0.0
 10
-33.01105042145575
 20
36.34438391858578
 30
0.0
 10
-32.8512327713138
 20
36.25184891490002
 30
0.0
  0
SPLINE
  5
1A2
330
23
100
AcDbEntity
  8
0
  6
Continuous
 62
     7
370
    25
100
AcDbSpline
210
0.0
220
0.0
230
1.0
 70
     8
 71
     3
 72
     9
 73
     5
 74
     0
 42
0.000000001
 43
0.00000001
 40
0.0
 40
0.0
 40
0.0
 40
0.0
 40
0.5109696017858101
 40
1.0
 40
1.0
 40
1.0
 40
1.0
 10
-33.83170834826355
 20
34.319408515833
 30
0.0
 10
-33.66470051500123
 20
34.22275749174896
 30
0.0
 10
-33.33785556634157
 20
34.03360529219295
 30
0.0
 10
-33.01105042145575
 20
33.84438391858576
 30
0.0
 10
-32.85123277131379
 20
33.7518489149
 30
0.0
  0
SPLINE
  5
1A3
330
23
100
AcDbEntity
  8
0
  6
Continuous
 62
     7
370
    25
100
AcDbSpline
210
0.0
220
0.0
230
1.0
 70
     8
 71
     3
 72
     9
 73
     5
 74
     0
 42
0.000000001
 43
0.00000001
 40
0.0
 40
0.0
 40
0.0
 40
0.0
 40
0.5109696017858101
 40
1.0
 40
1.0
 40
1.0
 40
1.0
 10
-33.83170834826355
 20
31.81940851583301
 30
0.0
 10
-33.66470051500123
 20
31.72275749174896
 30
0.0
 10
-33.33785556634157
 20
31.53360529219295
 30
0.0
 10
-33.01105042145575
 20
31.34438391858577
 30
0.0
 10
-32.85123277131379
 20
31.25184891490001
 30
0.0
  0
SPLINE
  5
1A4
330
23
100
AcDbEntity
  8
0
  6
Continuous
 62
     7
370
    25
100
AcDbSpline
210
0.0
220
0.0
230
1.0
 70
     8
 71
     3
 72
     9
 73
     5
 74
     0
 42
0.000000001
 43
0.00000001
 40
0.0
 40
0.0
 40
0.0
 40
0.0
 40
0.5109696017858169
 40
1.0
 40
1.0
 40
1.0
 40
1.0
 10
-33.83170834826355
 20
29.31940851583301
 30
0.0
 10
-33.66470051500122
 20
29.22275749174896
 30
0.0
 10
-33.33785556634157
 20
29.03360529219296
 30
0.0
 10
-33.01105042145574
 20
28.84438391858576
 30
0.0
 10
-32.8512327713138
 20
28.75184891490002
 30
0.0
  0
SPLINE
  5
1A5
330
23
100
AcDbEntity
  8
0
  6
Continuous
 62
     7
370
    25
100
AcDbSpline
210
0.0
220
0.0
230
1.0
 70
     8
 71
     3
 72
     9
 73
     5
 74
     0
 42
0.000000001
 43
0.00000001
 40
0.0
 40
0.0
 40
0.0
 40
0.0
 40
0.5109696017857994
 40
1.0
 40
1.0
 40
1.0
 40
1.0
 10
-33.83170834826355
 20
26.819408515833
 30
0.0
 10
-33.66470051500123
 20
26.72275749174896
 30
0.0
 10
-33.33785556634157
 20
26.53360529219296
 30
0.0
 10
-33.01105042145575
 20
26.34438391858577
 30
0.0
 10
-32.85123277131379
 20
26.25184891490001
 30
0.0
  0
SPLINE
  5
1A6
330
23
100
AcDbEntity
  8
0
  6
Continuous
 62
     7
370
    25
100
AcDbSpline
210
0.0
220
0.0
230
1.0
 70
     8
 71
     3
 72
     9
 73
     5
 74
     0
 42
0.000000001
 43
0.00000001
 40
0.0
 40
0.0
 40
0.0
 40
0.0
 40
0.4999893614368144
 40
1.0
 40
1.0
 40
1.0
 40
1.0
 10
-12.10545053628403
 20
42.42707250575489
 30
0.0
 10
-11.94243172366506
 20
42.52344786756044
 30
0.0
 10
-11.61638716113577
 20
42.71620269244029
 30
0.0
 10
-11.29000441106501
 20
42.90894506774944
 30
0.0
 10
-11.12680956378613
 20
43.00531830590595
 30
0.0
  0
SPLINE
  5
1A7
330
23
100
AcDbEntity
  8
0
  6
Continuous
 62
     7
370
    25
100
AcDbSpline
210
0.0
220
0.0
230
1.0
 70
     8
 71
     3
 72
     9
 73
     5
 74
     0
 42
0.000000001
 43
0.00000001
 40
0.0
 40
0.0
 40
0.0
 40
0.0
 40
0.4999893614368124
 40
1.0
 40
1.0
 40
1.0
 40
1.0
 10
-12.10545053628403
 20
39.92707250575491
 30
0.0
 10
-11.94243172366506
 20
40.02344786756044
 30
0.0
 10
-11.61638716113576
 20
40.21620269244028
 30
0.0
 10
-11.29000441106501
 20
40.40894506774945
 30
0.0
 10
-11.12680956378613
 20
40.50531830590596
 30
0.0
  0
SPLINE
  5
1A8
330
23
100
AcDbEntity
  8
0
  6
Continuous
 62
     7
370
    25
100
AcDbSpline
210
0.0
220
0.0
230
1.0
 70
     8
 71
     3
 72
     9
 73
     5
 74
     0
 42
0.000000001
 43
0.00000001
 40
0.0
 40
0.0
 40
0.0
 40
0.0
 40
0.4999893614368124
 40
1.0
 40
1.0
 40
1.0
 40
1.0
 10
-12.10545053628403
 20
37.4270725057549
 30
0.0
 10
-11.94243172366506
 20
37.52344786756044
 30
0.0
 10
-11.61638716113576
 20
37.71620269244028
 30
0.0
 10
-11.29000441106501
 20
37.90894506774944
 30
0.0
 10
-11.12680956378613
 20
38.00531830590596
 30
0.0
  0
SPLINE
  5
1A9
330
23
100
AcDbEntity
  8
0
  6
Continuous
 62
     7
370
    25
100
AcDbSpline
210
0.0
220
0.0
230
1.0
 70
     8
 71
     3
 72
     9
 73
     5
 74
     0
 42
0.000000001
 43
0.00000001
 40
0.0
 40
0.0
 40
0.0
 40
0.0
 40
0.4999893614368139
 40
1.0
 40
1.0
 40
1.0
 40
1.0
 10
-12.10545053628403
 20
34.92707250575489
 30
0.0
 10
-11.94243172366506
 20
35.02344786756044
 30
0.0
 10
-11.61638716113575
 20
35.21620269244028
 30
0.0
 10
-11.29000441106501
 20
35.40894506774944
 30
0.0
 10
-11.12680956378613
 20
35.50531830590595
 30
0.0
  0
SPLINE
  5
1AA
330
23
100
AcDbEntity
  8
0
  6
Continuous
 62
     7
370
    25
100
AcDbSpline
210
0.0
220
0.0
230
1.0
 70
     8
 71
     3
 72
     9
 73
     5
 74
     0
 42
0.000000001
 43
0.00000001
 40
0.0
 40
0.0
 40
0.0
 40
0.0
 40
0.4999893614368082
 40
1.0
 40
1.0
 40
1.0
 40
1.0
 10
-12.10545053628403
 20
32.42707250575491
 30
0.0
 10
-11.94243172366506
 20
32.52344786756044
 30
0.0
 10
-11.61638716113575
 20
32.71620269244027
 30
0.0
 10
-11.29000441106501
 20
32.90894506774945
 30
0.0
 10
-11.12680956378613
 20
33.00531830590596
 30
0.0
  0
SPLINE
  5
1AB
330
23
100
AcDbEntity
  8
0
  6
Continuous
 62
     7
370
    25
100
AcDbSpline
210
0.0
220
0.0
230
1.0
 70
     8
 71
     3
 72
     9
 73
     5
 74
     0
 42
0.000000001
 43
0.00000001
 40
0.0
 40
0.0
 40
0.0
 40
0.0
 40
0.4999893614368127
 40
1.0
 40
1.0
 40
1.0
 40
1.0
 10
-12.10545053628403
 20
29.9270725057549
 30
0.0
 10
-11.94243172366506
 20
30.02344786756043
 30
0.0
 10
-11.61638716113577
 20
30.21620269244029
 30
0.0
 10
-11.29000441106501
 20
30.40894506774944
 30
0.0
 10
-11.12680956378613
 20
30.50531830590596
 30
0.0
  0
SPLINE
  5
1AC
330
23
100
AcDbEntity
  8
0
  6
Continuous
 62
     7
370
    25
100
AcDbSpline
210
0.0
220
0.0
230
1.0
 70
     8
 71
     3
 72
     9
 73
     5
 74
     0
 42
0.000000001
 43
0.00000001
 40
0.0
 40
0.0
 40
0.0
 40
0.0
 40
0.4999893614368127
 40
1.0
 40
1.0
 40
1.0
 40
1.0
 10
-12.10545053628403
 20
27.42707250575489
 30
0.0
 10
-11.94243172366505
 20
27.52344786756043
 30
0.0
 10
-11.61638716113574
 20
27.71620269244028
 30
0.0
 10
-11.290004411065
 20
27.90894506774943
 30
0.0
 10
-11.12680956378613
 20
28.00531830590596
 30
0.0
  0
SPLINE
  5
1AD
330
23
100
AcDbEntity
  8
0
  6
Continuous
 62
     7
370
    25
100
AcDbSpline
210
0.0
220
0.0
230
1.0
 70
     8
 71
     3
 72
     9
 73
     5
 74
     0
 42
0.000000001
 43
0.00000001
 40
0.0
 40
0.0
 40
0.0
 40
0.0
 40
0.4999893614368109
 40
1.0
 40
1.0
 40
1.0
 40
1.0
 10
-12.10545053628403
 20
44.92707250575489
 30
0.0
 10
-11.94243172366506
 20
45.02344786756043
 30
0.0
 10
-11.61638716113576
 20
45.21620269244029
 30
0.0
 10
-11.29000441106501
 20
45.40894506774944
 30
0.0
 10
-11.12680956378613
 20
45.50531830590596
 30
0.0
  0
SPLINE
  5
1AE
330
23
100
AcDbEntity
  8
0
  6
Continuous
 62
     7
370
    25
100
AcDbSpline
210
0.0
220
0.0
230
1.0
 70
     8
 71
     3
 72
     9
 73
     5
 74
     0
 42
0.000000001
 43
0.00000001
 40
0.0
 40
0.0
 40
0.0
 40
0.0
 40
0.51096960178582
 40
1.0
 40
1.0
 40
1.0
 40
1.0
 10
-33.83170834826355
 20
44.319408515833
 30
0.0
 10
-33.66470051500122
 20
44.22275749174896
 30
0.0
 10
-33.33785556634157
 20
44.03360529219295
 30
0.0
 10
-33.01105042145574
 20
43.84438391858577
 30
0.0
 10
-32.85123277131379
 20
43.75184891490002
 30
0.0
  0
SPLINE
  5
1C5
330
23
100
AcDbEntity
  8
0
  6
Continuous
 62
     7
370
    25
100
AcDbSpline
210
0.0
220
0.0
230
1.0
 70
     8
 71
     3
 72
    84
 73
    80
 74
     0
 42
0.000000001
 43
0.00000001
 40
0.0
 40
0.0
 40
0.0
 40
0.0
 40
0.03125
 40
0.03125
 40
0.0624999999999999
 40
0.0624999999999999
 40
0.0781249999999999
 40
0.0781249999999999
 40
0.0937499999999999
 40
0.0937499999999999
 40
0.1249999999999999
 40
0.1249999999999999
 40
0.1406249999999999
 40
0.1406249999999999
 40
0.1562499999999999
 40
0.1562499999999999
 40
0.1718749999999999
 40
0.1718749999999999
 40
0.1874999999999998
 40
0.1874999999999998
 40
0.2187499999999998
 40
0.2187499999999998
 40
0.2343749999999997
 40
0.2343749999999997
 40
0.2499999999999995
 40
0.2499999999999995
 40
0.2812499999999993
 40
0.2812499999999993
 40
0.3124999999999992
 40
0.3124999999999992
 40
0.3437499999999991
 40
0.3437499999999991
 40
0.3593749999999991
 40
0.3593749999999991
 40
0.3749999999999991
 40
0.3749999999999991
 40
0.4062499999999991
 40
0.4062499999999991
 40
0.4218749999999991
 40
0.4218749999999991
 40
0.437499999999999
 40
0.437499999999999
 40
0.4999999999999986
 40
0.4999999999999986
 40
0.5156249999999986
 40
0.5156249999999986
 40
0.5312499999999984
 40
0.5312499999999984
 40
0.5624999999999983
 40
0.5624999999999983
 40
0.5937499999999983
 40
0.5937499999999983
 40
0.6249999999999983
 40
0.6249999999999983
 40
0.6874999999999983
 40
0.6874999999999983
 40
0.7187499999999984
 40
0.7187499999999984
 40
0.7499999999999986
 40
0.7499999999999986
 40
0.7812499999999989
 40
0.7812499999999989
 40
0.8124999999999993
 40
0.8124999999999993
 40
0.8281249999999996
 40
0.8281249999999996
 40
0.8437499999999998
 40
0.8437499999999998
 40
0.8593749999999999
 40
0.8593749999999999
 40
0.8750000000000001
 40
0.8750000000000001
 40
0.9062500000000001
 40
0.9062500000000001
 40
0.9375000000000001
 40
0.9375000000000001
 40
0.96875
 40
0.96875
 40
1.0
 40
1.0
 40
1.0
 40
1.0
 10
-14.32444880644881
 20
-43.46844098982516
 30
0.0
 10
-13.96379875152874
 20
-43.09642695830622
 30
0.0
 10
-13.63323239782534
 20
-42.7035941078737
 30
0.0
 10
-13.02820834683294
 20
-41.8738273479208
 30
0.0
 10
-12.75373636689534
 20
-41.43695096313842
 30
0.0
 10
-12.3848920416897
 20
-40.7428426101701
 30
0.0
 10
-12.26882036887343
 20
-40.50413115645386
 30
0.0
 10
-12.05480313665767
 20
-40.01939213400338
 30
0.0
 10
-11.95648148792652
 20
-39.7727864793105
 30
0.0
 10
-11.68789502508225
 20
-39.01920594459066
 30
0.0
 10
-11.54373066517868
 20
-38.49860687308488
 30
0.0
 10
-11.38548043550607
 20
-37.68395941923944
 30
0.0
 10
-11.34283184502577
 20
-37.40791413041088
 30
0.0
 10
-11.27948563788874
 20
-36.8563562321438
 30
0.0
 10
-11.25850432142413
 20
-36.57947350523983
 30
0.0
 10
-11.23808967555893
 20
-36.0234462924513
 30
0.0
 10
-11.23865584424952
 20
-35.74430175462729
 30
0.0
 10
-11.2618833828983
 20
-35.18369447878291
 30
0.0
 10
-11.28472792128651
 20
-34.90213654900275
 30
0.0
 10
-11.38437589599185
 20
-34.0740443405076
 30
0.0
 10
-11.49215926095889
 20
-33.53706497162198
 30
0.0
 10
-11.71192991042969
 20
-32.7510964827531
 30
0.0
 10
-11.7952627471783
 20
-32.49168125069438
 30
0.0
 10
-11.97789638505788
 20
-31.98780737661821
 30
0.0
 10
-12.07744919784375
 20
-31.74223002610166
 30
0.0
 10
-12.39970772059674
 20
-31.02251264884579
 30
0.0
 10
-12.64583126408899
 20
-30.56524024385148
 30
0.0
 10
-13.1999269380024
 20
-29.68918113632194
 30
0.0
 10
-13.50954762898631
 20
-29.26917348049656
 30
0.0
 10
-14.17718520539146
 20
-28.48478932590942
 30
0.0
 10
-14.53665795983158
 20
-28.11764013827846
 30
0.0
 10
-15.1166780044301
 20
-27.60262033736813
 30
0.0
 10
-15.31685129549028
 20
-27.43693662459146
 30
0.0
 10
-15.73167087896455
 20
-27.11769234192853
 30
0.0
 10
-15.94686968974931
 20
-26.96383653255787
 30
0.0
 10
-16.60612203364131
 20
-26.52717115211705
 30
0.0
 10
-17.06621258592698
 20
-26.26698711556414
 30
0.0
 10
-17.78954287902133
 20
-25.92399228763617
 30
0.0
 10
-18.0362066635713
 20
-25.81757969360029
 30
0.0
 10
-18.54132695442618
 20
-25.62124362254256
 30
0.0
 10
-18.80094418000094
 20
-25.53097464788125
 30
0.0
 10
-20.11671877675184
 20
-25.12766854169065
 30
0.0
 10
-21.20398222438899
 20
-24.96022327771863
 30
0.0
 10
-22.61026459788326
 20
-24.95743830951004
 30
0.0
 10
-22.89202395928165
 20
-24.96754162357028
 30
0.0
 10
-23.44832727446353
 20
-25.00824684842457
 30
0.0
 10
-23.72412764381165
 20
-25.03883694881285
 30
0.0
 10
-24.54468083904194
 20
-25.16055025339016
 30
0.0
 10
-25.08305106641076
 20
-25.28158029032764
 30
0.0
 10
-26.14013432848909
 20
-25.60270653914552
 30
0.0
 10
-26.64536783845629
 20
-25.79857210234478
 30
0.0
 10
-27.61440656685817
 20
-26.25524720500392
 30
0.0
 10
-28.08015361387378
 20
-26.51742030679782
 30
0.0
 10
-29.40515016608965
 20
-27.39217838338534
 30
0.0
 10
-30.17629005870955
 20
-28.0766828850943
 30
0.0
 10
-31.18778328086175
 20
-29.26220384859103
 30
0.0
 10
-31.4936700642414
 20
-29.67677790649051
 30
0.0
 10
-32.04613804029591
 20
-30.54708240055752
 30
0.0
 10
-32.29283252472807
 20
-31.0028676553099
 30
0.0
 10
-32.72526318224497
 20
-31.96369297718946
 30
0.0
 10
-32.91191366843638
 20
-32.47342565802508
 30
0.0
 10
-33.20568114222034
 20
-33.51713573771889
 30
0.0
 10
-33.31464161409264
 20
-34.0536538465865
 30
0.0
 10
-33.41608828198915
 20
-34.88450275971689
 30
0.0
 10
-33.43938830235469
 20
-35.16656997563221
 30
0.0
 10
-33.46348493622562
 20
-35.72550161011424
 30
0.0
 10
-33.46455773149056
 20
-36.00406199665043
 30
0.0
 10
-33.44519146894631
 20
-36.55940652481039
 30
0.0
 10
-33.42475211375711
 20
-36.83619070658941
 30
0.0
 10
-33.36242462199506
 20
-37.38801653091414
 30
0.0
 10
-33.3202659801609
 20
-37.66437996911348
 30
0.0
 10
-33.16313358944738
 20
-38.48107229536784
 30
0.0
 10
-33.0192282469189
 20
-39.00433891065494
 30
0.0
 10
-32.65987873066251
 20
-40.0161333643675
 30
0.0
 10
-32.44295467773161
 20
-40.50614154250166
 30
0.0
 10
-31.9531746927417
 20
-41.42932764458492
 30
0.0
 10
-31.67916616652279
 20
-41.86649120410318
 30
0.0
 10
-31.07321264365331
 20
-42.69873127768976
 30
0.0
 10
-30.74039764131266
 20
-43.09464156951391
 30
0.0
 10
-30.37801673617875
 20
-43.46844098982518
 30
0.0
  0
SPLINE
  5
1C9
330
23
100
AcDbEntity
  8
0
  6
Continuous
 62
     7
370
    25
100
AcDbSpline
210
0.0
220
0.0
230
1.0
 70
     8
 71
     3
 72
    80
 73
    76
 74
     0
 42
0.000000001
 43
0.00000001
 40
0.0
 40
0.0
 40
0.0
 40
0.0
 40
0.0312500000000009
 40
0.0312500000000009
 40
0.0625000000000018
 40
0.0625000000000018
 40
0.0937500000000027
 40
0.0937500000000027
 40
0.1250000000000036
 40
0.1250000000000036
 40
0.1406250000000039
 40
0.1406250000000039
 40
0.1562500000000041
 40
0.1562500000000041
 40
0.1875000000000043
 40
0.1875000000000043
 40
0.2187500000000044
 40
0.2187500000000044
 40
0.2500000000000046
 40
0.2500000000000046
 40
0.2812500000000047
 40
0.2812500000000047
 40
0.3125000000000048
 40
0.3125000000000048
 40
0.3750000000000052
 40
0.3750000000000052
 40
0.4062500000000053
 40
0.4062500000000053
 40
0.4375000000000053
 40
0.4375000000000053
 40
0.4687500000000054
 40
0.4687500000000054
 40
0.5000000000000054
 40
0.5000000000000054
 40
0.5312500000000056
 40
0.5312500000000056
 40
0.5625000000000056
 40
0.5625000000000056
 40
0.5781250000000056
 40
0.5781250000000056
 40
0.5937500000000056
 40
0.5937500000000056
 40
0.6250000000000056
 40
0.6250000000000056
 40
0.6406250000000056
 40
0.6406250000000056
 40
0.6562500000000054
 40
0.6562500000000054
 40
0.6875000000000052
 40
0.6875000000000052
 40
0.718750000000005
 40
0.718750000000005
 40
0.7500000000000048
 40
0.7500000000000048
 40
0.7812500000000046
 40
0.7812500000000046
 40
0.8125000000000043
 40
0.8125000000000043
 40
0.8281250000000041
 40
0.8281250000000041
 40
0.8437500000000039
 40
0.8437500000000039
 40
0.875000000000003
 40
0.875000000000003
 40
0.8906250000000028
 40
0.8906250000000028
 40
0.9062500000000024
 40
0.9062500000000024
 40
0.9375000000000017
 40
0.9375000000000017
 40
0.9531250000000012
 40
0.9531250000000012
 40
0.9687500000000008
 40
0.9687500000000008
 40
1.0
 40
1.0
 40
1.0
 40
1.0
 10
-13.85123277131379
 20
-43.65393786951078
 30
0.0
 10
-13.49076962558921
 20
-43.25838533742214
 30
0.0
 10
-13.16198361963922
 20
-42.84257200931511
 30
0.0
 10
-12.56301445352427
 20
-41.96782025418163
 30
0.0
 10
-12.29282253301158
 20
-41.50893692016209
 30
0.0
 10
-11.81161408752219
 20
-40.54034333153845
 30
0.0
 10
-11.60066182269211
 20
-40.02881816421095
 30
0.0
 10
-11.25469484624626
 20
-38.9776619905332
 30
0.0
 10
-11.11757774325186
 20
-38.43452779203164
 30
0.0
 10
-10.97091669396381
 20
-37.58741435389703
 30
0.0
 10
-10.93205196144295
 20
-37.29910690190075
 30
0.0
 10
-10.8767313424425
 20
-36.72575227994761
 30
0.0
 10
-10.85991193197178
 20
-36.43893712292911
 30
0.0
 10
-10.84164167423957
 20
-35.57807626735703
 30
0.0
 10
-10.87219325344113
 20
-35.00361492236577
 30
0.0
 10
-11.02137452341489
 20
-33.85358061761875
 30
0.0
 10
-11.1373666372793
 20
-33.29796428607524
 30
0.0
 10
-11.44363055193215
 20
-32.22189691482694
 30
0.0
 10
-11.63594419809841
 20
-31.69747374718889
 30
0.0
 10
-12.08105493953554
 20
-30.70516951662641
 30
0.0
 10
-12.33418593601469
 20
-30.23423436119804
 30
0.0
 10
-12.90024755717002
 20
-29.33443367901418
 30
0.0
 10
-13.21360623569442
 20
-28.90514128491981
 30
0.0
 10
-14.24732499348128
 20
-27.67875131484727
 30
0.0
 10
-15.03459800250585
 20
-26.96953101143472
 30
0.0
 10
-16.38623886496213
 20
-26.06096341173918
 30
0.0
 10
-16.86847726425753
 20
-25.7839454371673
 30
0.0
 10
-17.86635319834543
 20
-25.30408696663492
 30
0.0
 10
-18.38507049367366
 20
-25.09871137998115
 30
0.0
 10
-19.46599017705516
 20
-24.76140597761078
 30
0.0
 10
-20.03249131131494
 20
-24.62956211167794
 30
0.0
 10
-21.16639981200226
 20
-24.45479502967947
 30
0.0
 10
-21.73853073572263
 20
-24.40979576876537
 30
0.0
 10
-22.89341318924741
 20
-24.40625470086662
 30
0.0
 10
-23.48106411697458
 20
-24.44914174333295
 30
0.0
 10
-24.6195877792558
 20
-24.61922206926051
 30
0.0
 10
-25.17545408758479
 20
-24.74569059774567
 30
0.0
 10
-25.99024774629824
 20
-24.99521472165838
 30
0.0
 10
-26.25979415850061
 20
-25.0888784490774
 30
0.0
 10
-26.78569603165523
 20
-25.29358682530457
 30
0.0
 10
-27.04216298480897
 20
-25.40453970202084
 30
0.0
 10
-27.79337084281963
 20
-25.76200009057165
 30
0.0
 10
-28.27001401145229
 20
-26.0329470699266
 30
0.0
 10
-28.95168961752535
 20
-26.48679887516096
 30
0.0
 10
-29.17363037950838
 20
-26.64633443624937
 30
0.0
 10
-29.60112479376021
 20
-26.97700874818795
 30
0.0
 10
-29.80742554582181
 20
-27.14860444119492
 30
0.0
 10
-30.40526658270545
 20
-27.68192689180921
 30
0.0
 10
-30.77587088683687
 20
-28.06202902515549
 30
0.0
 10
-31.4646167474875
 20
-28.87379971686408
 30
0.0
 10
-31.78309900455597
 20
-29.30694797639675
 30
0.0
 10
-32.35279220703365
 20
-30.20688208888604
 30
0.0
 10
-32.60644294424061
 20
-30.67613893887483
 30
0.0
 10
-33.05144139659873
 20
-31.65980220268243
 30
0.0
 10
-33.24297853862334
 20
-32.17444422320701
 30
0.0
 10
-33.55655093800171
 20
-33.26029405206459
 30
0.0
 10
-33.67373662798325
 20
-33.8151451446461
 30
0.0
 10
-33.78777952951936
 20
-34.66795027244294
 30
0.0
 10
-33.81545016311271
 20
-34.95564960131169
 30
0.0
 10
-33.84900012945912
 20
-35.53845450886965
 30
0.0
 10
-33.85464136533426
 20
-35.83211297454062
 30
0.0
 10
-33.83843042650766
 20
-36.70229165525482
 30
0.0
 10
-33.78411735568447
 20
-37.2747918765296
 30
0.0
 10
-33.63954125590617
 20
-38.123000238455
 30
0.0
 10
-33.58043571653366
 20
-38.4049738343879
 30
0.0
 10
-33.44408540225734
 20
-38.95405744698817
 30
0.0
 10
-33.36668697502348
 20
-39.22254769514662
 30
0.0
 10
-33.10829489675707
 20
-40.01189730478218
 30
0.0
 10
-32.90131207267464
 20
-40.51676651968781
 30
0.0
 10
-32.54019872799694
 20
-41.24733112724694
 30
0.0
 10
-32.41101923684843
 20
-41.48679795238976
 30
0.0
 10
-32.13867791571634
 20
-41.95185481811684
 30
0.0
 10
-31.9952246377106
 20
-42.17811849678912
 30
0.0
 10
-31.54302027953554
 20
-42.83951851681972
 30
0.0
 10
-31.21258410775
 20
-43.25741068553575
 30
0.0
 10
-30.8512327713138
 20
-43.65393786951077
 30
0.0
  0
SPLINE
  5
1CA
330
23
100
AcDbEntity
  8
0
  6
Continuous
 62
     7
370
    25
100
AcDbSpline
210
0.0
220
0.0
230
1.0
 70
     8
 71
     3
 72
    28
 73
    24
 74
     0
 42
0.000000001
 43
0.00000001
 40
0.0
 40
0.0
 40
0.0
 40
0.0
 40
0.1249999999999999
 40
0.1249999999999999
 40
0.2499999999999997
 40
0.2499999999999997
 40
0.3124999999999996
 40
0.3124999999999996
 40
0.3749999999999994
 40
0.3749999999999994
 40
0.4999999999999993
 40
0.4999999999999993
 40
0.5624999999999992
 40
0.5624999999999992
 40
0.6249999999999992
 40
0.6249999999999992
 40
0.7499999999999993
 40
0.7499999999999993
 40
0.8124999999999994
 40
0.8124999999999994
 40
0.8749999999999994
 40
0.8749999999999994
 40
1.0
 40
1.0
 40
1.0
 40
1.0
 10
-12.35123277131384
 20
46.45743310755956
 30
0.0
 10
-12.35415683750863
 20
46.42313017163823
 30
0.0
 10
-12.47862546329604
 20
46.38656475148024
 30
0.0
 10
-12.97459883451943
 20
46.31271906911634
 30
0.0
 10
-13.34586719101591
 20
46.27548868777922
 30
0.0
 10
-14.05076457296702
 20
46.22221210466605
 30
0.0
 10
-14.30791458420149
 20
46.20523947303343
 30
0.0
 10
-14.87449279613482
 20
46.17015522376466
 30
0.0
 10
-15.18391995049024
 20
46.15213523025211
 30
0.0
 10
-16.18064655922694
 20
46.09734923597527
 30
0.0
 10
-16.93733017463785
 20
46.05986319898634
 30
0.0
 10
-18.14771432685736
 20
46.00528869779384
 30
0.0
 10
-18.56345747562619
 20
45.98737357938868
 30
0.0
 10
-19.40718586640841
 20
45.95255850372502
 30
0.0
 10
-19.8369388120865
 20
45.93542265052176
 30
0.0
 10
-21.16320671842658
 20
45.88181182901679
 30
0.0
 10
-22.08610955209056
 20
45.84448903087028
 30
0.0
 10
-23.45299932375699
 20
45.78918603251364
 30
0.0
 10
-23.90560873968145
 20
45.7708697308934
 30
0.0
 10
-24.79247500025055
 20
45.73497163635211
 30
0.0
 10
-25.22476269002703
 20
45.71763293562412
 30
0.0
 10
-26.49110909640446
 20
45.66573305069517
 30
0.0
 10
-27.31230951732432
 20
45.62898625370984
 30
0.0
 10
-28.06249735190906
 20
45.59202882290406
 30
0.0
  0
SPLINE
  5
1CC
330
23
100
AcDbEntity
  8
0
  6
Continuous
 62
     7
370
    25
100
AcDbSpline
210
0.0
220
0.0
230
1.0
 70
     8
 71
     3
 72
    27
 73
    23
 74
     0
 42
0.000000001
 43
0.00000001
 40
0.0
 40
0.0
 40
0.0
 40
0.0
 40
0.0506321119710919
 40
0.1018968953964383
 40
0.1531616788217847
 40
0.2037937907928767
 40
0.2544259027639686
 40
0.3056906861893151
 40
0.3569554696146615
 40
0.4075875815857534
 40
0.4582196935568454
 40
0.5094844769821918
 40
0.5607492604075381
 40
0.61138137237863
 40
0.662013484349722
 40
0.7132782677750685
 40
0.7645430512004149
 40
0.8151751631715067
 40
0.8658072751425986
 40
0.9170720585679448
 40
0.9683368419932913
 40
0.9999999999999999
 40
0.9999999999999999
 40
0.9999999999999999
 40
0.9999999999999999
 10
-10.85123277131384
 20
45.59202882290405
 30
0.0
 10
-10.87827744154121
 20
45.57171348795954
 30
0.0
 10
-10.93270471755062
 20
45.53082896864566
 30
0.0
 10
-11.37187668410128
 20
45.46702882290406
 30
0.0
 10
-12.06324379636053
 20
45.40322867716238
 30
0.0
 10
-13.00991560045258
 20
45.3420288229043
 30
0.0
 10
-14.18325801951659
 20
45.28082896864471
 30
0.0
 10
-15.56351760973293
 20
45.21702882290765
 30
0.0
 10
-17.11219009097605
 20
45.15322867714904
 30
0.0
 10
-18.78307619562675
 20
45.09202882295346
 30
0.0
 10
-20.54109053969522
 20
45.03082896846018
 30
0.0
 10
-22.35123266442003
 20
44.96702882360592
 30
0.0
 10
-24.16137542787709
 20
44.90322867455777
 30
0.0
 10
-25.9193878793643
 20
44.84202883249115
 30
0.0
 10
-27.59028093394603
 20
44.78082893266232
 30
0.0
 10
-29.13892719445213
 20
44.71702895906921
 30
0.0
 10
-30.5192844827231
 20
44.65322817184603
 30
0.0
 10
-31.69226667696373
 20
44.59203068282524
 30
0.0
 10
-32.64028492656695
 20
44.53082198779612
 30
0.0
 10
-33.32656566053596
 20
44.46705523925142
 30
0.0
 10
-33.72795265306647
 20
44.4110476556197
 30
0.0
 10
-33.77925599421434
 20
44.37772811377945
 30
0.0
 10
-33.7988443955298
 20
44.36500620244558
 30
0.0
  0
SPLINE
  5
1CD
330
23
100
AcDbEntity
  8
0
  6
Continuous
 62
     7
370
    25
100
AcDbSpline
210
0.0
220
0.0
230
1.0
 70
     8
 71
     3
 72
    29
 73
    25
 74
     0
 42
0.000000001
 43
0.00000001
 40
0.0
 40
0.0
 40
0.0
 40
0.0
 40
0.0191832102820599
 40
0.0664507789716907
 40
0.1137183476613217
 40
0.1615765462942388
 40
0.2094347449271559
 40
0.256702313616787
 40
0.3039698823064179
 40
0.3518280809393351
 40
0.3996862795722523
 40
0.4469538482618832
 40
0.4942214169515143
 40
0.5420796155844314
 40
0.5899378142173484
 40
0.6372053829069794
 40
0.6844729515966104
 40
0.7323311502295277
 40
0.7801893488624447
 40
0.8274569175520758
 40
0.8747244862417067
 40
0.9225826848746238
 40
0.9704408835075409
 40
1.0
 40
1.0
 40
1.0
 40
1.0
 10
-11.16062707146873
 20
43.17888080896218
 30
0.0
 10
-11.09938577173883
 20
43.17034270557042
 30
0.0
 10
-10.88724546714673
 20
43.1407666537532
 30
0.0
 10
-10.81508302703733
 20
43.09207806125146
 30
0.0
 10
-10.94252613302379
 20
43.0308155912269
 30
0.0
 10
-11.369230154901
 20
42.96703242765221
 30
0.0
 10
-12.0639431747371
 20
42.90322772456268
 30
0.0
 10
-13.00972926372326
 20
42.84202907670728
 30
0.0
 10
-14.18330864478304
 20
42.78082889968972
 30
0.0
 10
-15.56350396798788
 20
42.71702884148861
 30
0.0
 10
-17.11219369597746
 20
42.65322867223877
 30
0.0
 10
-18.78307523513928
 20
42.59202882426171
 30
0.0
 10
-20.54109080064719
 20
42.53082896810475
 30
0.0
 10
-22.35123259410257
 20
42.46702882370171
 30
0.0
 10
-24.16137544645936
 20
42.40322867453243
 30
0.0
 10
-25.9193878744134
 20
42.34202883249791
 30
0.0
 10
-27.59028093529112
 20
42.28082893266047
 30
0.0
 10
-29.13892719408967
 20
42.2170289590697
 30
0.0
 10
-30.51928448281888
 20
42.1532281718459
 30
0.0
 10
-31.69226667693821
 20
42.09203068282527
 30
0.0
 10
-32.64028492657388
 20
42.0308219877961
 30
0.0
 10
-33.32656566053407
 20
41.96705523925142
 30
0.0
 10
-33.72795265306674
 20
41.91104765561969
 30
0.0
 10
-33.77925599421442
 20
41.87772811377946
 30
0.0
 10
-33.79884439552981
 20
41.86500620244558
 30
0.0
  0
SPLINE
  5
1CE
330
23
100
AcDbEntity
  8
0
  6
Continuous
 62
     7
370
    25
100
AcDbSpline
210
0.0
220
0.0
230
1.0
 70
     8
 71
     3
 72
    29
 73
    25
 74
     0
 42
0.000000001
 43
0.00000001
 40
0.0
 40
0.0
 40
0.0
 40
0.0
 40
0.01918321028206
 40
0.0664507789716908
 40
0.1137183476613218
 40
0.1615765462942388
 40
0.2094347449271559
 40
0.256702313616787
 40
0.3039698823064179
 40
0.3518280809393351
 40
0.3996862795722522
 40
0.4469538482618832
 40
0.4942214169515143
 40
0.5420796155844314
 40
0.5899378142173484
 40
0.6372053829069794
 40
0.6844729515966103
 40
0.7323311502295275
 40
0.7801893488624446
 40
0.8274569175520756
 40
0.8747244862417065
 40
0.9225826848746236
 40
0.9704408835075407
 40
1.0
 40
1.0
 40
1.0
 40
1.0
 10
-11.16062707146873
 20
40.67888080896218
 30
0.0
 10
-11.09938577173883
 20
40.67034270557042
 30
0.0
 10
-10.88724546714672
 20
40.64076665375318
 30
0.0
 10
-10.81508302703734
 20
40.59207806125146
 30
0.0
 10
-10.94252613302378
 20
40.5308155912269
 30
0.0
 10
-11.369230154901
 20
40.46703242765223
 30
0.0
 10
-12.06394317473709
 20
40.40322772456269
 30
0.0
 10
-13.00972926372326
 20
40.34202907670728
 30
0.0
 10
-14.18330864478305
 20
40.28082889968974
 30
0.0
 10
-15.56350396798788
 20
40.21702884148863
 30
0.0
 10
-17.11219369597746
 20
40.15322867223878
 30
0.0
 10
-18.78307523513928
 20
40.09202882426171
 30
0.0
 10
-20.54109080064719
 20
40.03082896810476
 30
0.0
 10
-22.35123259410257
 20
39.9670288237017
 30
0.0
 10
-24.16137544645936
 20
39.90322867453245
 30
0.0
 10
-25.91938787441338
 20
39.84202883249789
 30
0.0
 10
-27.59028093529114
 20
39.7808289326605
 30
0.0
 10
-29.13892719408967
 20
39.7170289590697
 30
0.0
 10
-30.51928448281887
 20
39.6532281718459
 30
0.0
 10
-31.69226667693822
 20
39.59203068282529
 30
0.0
 10
-32.6402849265739
 20
39.53082198779612
 30
0.0
 10
-33.32656566053406
 20
39.46705523925142
 30
0.0
 10
-33.72795265306674
 20
39.4110476556197
 30
0.0
 10
-33.77925599421441
 20
39.37772811377945
 30
0.0
 10
-33.7988443955298
 20
39.36500620244558
 30
0.0
  0
SPLINE
  5
1CF
330
23
100
AcDbEntity
  8
0
  6
Continuous
 62
     7
370
    25
100
AcDbSpline
210
0.0
220
0.0
230
1.0
 70
     8
 71
     3
 72
    29
 73
    25
 74
     0
 42
0.000000001
 43
0.00000001
 40
0.0
 40
0.0
 40
0.0
 40
0.0
 40
0.0191832102820596
 40
0.0664507789716904
 40
0.1137183476613214
 40
0.1615765462942385
 40
0.2094347449271556
 40
0.2567023136167867
 40
0.3039698823064177
 40
0.3518280809393349
 40
0.3996862795722521
 40
0.4469538482618831
 40
0.4942214169515142
 40
0.5420796155844313
 40
0.5899378142173484
 40
0.6372053829069794
 40
0.6844729515966104
 40
0.7323311502295277
 40
0.7801893488624448
 40
0.827456917552076
 40
0.8747244862417068
 40
0.9225826848746239
 40
0.9704408835075411
 40
1.0
 40
1.0
 40
1.0
 40
1.0
 10
-11.16062707146873
 20
38.17888080896218
 30
0.0
 10
-11.09938577173883
 20
38.17034270557042
 30
0.0
 10
-10.88724546714673
 20
38.1407666537532
 30
0.0
 10
-10.81508302703734
 20
38.09207806125148
 30
0.0
 10
-10.94252613302378
 20
38.0308155912269
 30
0.0
 10
-11.369230154901
 20
37.96703242765221
 30
0.0
 10
-12.0639431747371
 20
37.90322772456268
 30
0.0
 10
-13.00972926372325
 20
37.84202907670728
 30
0.0
 10
-14.18330864478305
 20
37.78082889968975
 30
0.0
 10
-15.56350396798788
 20
37.71702884148862
 30
0.0
 10
-17.11219369597746
 20
37.65322867223877
 30
0.0
 10
-18.78307523513928
 20
37.59202882426172
 30
0.0
 10
-20.54109080064718
 20
37.53082896810474
 30
0.0
 10
-22.35123259410258
 20
37.4670288237017
 30
0.0
 10
-24.16137544645935
 20
37.40322867453245
 30
0.0
 10
-25.9193878744134
 20
37.3420288324979
 30
0.0
 10
-27.59028093529112
 20
37.28082893266048
 30
0.0
 10
-29.13892719408969
 20
37.21702895906972
 30
0.0
 10
-30.51928448281888
 20
37.1532281718459
 30
0.0
 10
-31.6922666769382
 20
37.09203068282528
 30
0.0
 10
-32.64028492657389
 20
37.03082198779612
 30
0.0
 10
-33.32656566053407
 20
36.96705523925142
 30
0.0
 10
-33.72795265306674
 20
36.91104765561969
 30
0.0
 10
-33.77925599421441
 20
36.87772811377945
 30
0.0
 10
-33.7988443955298
 20
36.86500620244558
 30
0.0
  0
SPLINE
  5
1D0
330
23
100
AcDbEntity
  8
0
  6
Continuous
 62
     7
370
    25
100
AcDbSpline
210
0.0
220
0.0
230
1.0
 70
     8
 71
     3
 72
    29
 73
    25
 74
     0
 42
0.000000001
 43
0.00000001
 40
0.0
 40
0.0
 40
0.0
 40
0.0
 40
0.0191832102820596
 40
0.0664507789716904
 40
0.1137183476613213
 40
0.1615765462942384
 40
0.2094347449271555
 40
0.2567023136167866
 40
0.3039698823064176
 40
0.3518280809393348
 40
0.3996862795722519
 40
0.4469538482618829
 40
0.494221416951514
 40
0.5420796155844311
 40
0.5899378142173481
 40
0.6372053829069791
 40
0.6844729515966101
 40
0.7323311502295274
 40
0.7801893488624445
 40
0.8274569175520755
 40
0.8747244862417065
 40
0.9225826848746236
 40
0.9704408835075407
 40
1.0
 40
1.0
 40
1.0
 40
1.0
 10
-11.16062707146873
 20
35.67888080896218
 30
0.0
 10
-11.09938577173883
 20
35.67034270557041
 30
0.0
 10
-10.88724546714672
 20
35.6407666537532
 30
0.0
 10
-10.81508302703734
 20
35.59207806125147
 30
0.0
 10
-10.94252613302379
 20
35.53081559122691
 30
0.0
 10
-11.369230154901
 20
35.46703242765221
 30
0.0
 10
-12.0639431747371
 20
35.40322772456268
 30
0.0
 10
-13.00972926372326
 20
35.34202907670728
 30
0.0
 10
-14.18330864478304
 20
35.28082889968972
 30
0.0
 10
-15.56350396798788
 20
35.21702884148861
 30
0.0
 10
-17.11219369597746
 20
35.15322867223877
 30
0.0
 10
-18.78307523513928
 20
35.09202882426171
 30
0.0
 10
-20.54109080064718
 20
35.03082896810474
 30
0.0
 10
-22.35123259410258
 20
34.9670288237017
 30
0.0
 10
-24.16137544645935
 20
34.90322867453244
 30
0.0
 10
-25.9193878744134
 20
34.8420288324979
 30
0.0
 10
-27.59028093529111
 20
34.78082893266047
 30
0.0
 10
-29.13892719408969
 20
34.71702895906972
 30
0.0
 10
-30.51928448281886
 20
34.6532281718459
 30
0.0
 10
-31.69226667693822
 20
34.59203068282529
 30
0.0
 10
-32.64028492657388
 20
34.5308219877961
 30
0.0
 10
-33.32656566053407
 20
34.46705523925142
 30
0.0
 10
-33.72795265306674
 20
34.41104765561969
 30
0.0
 10
-33.77925599421441
 20
34.37772811377945
 30
0.0
 10
-33.7988443955298
 20
34.36500620244558
 30
0.0
  0
SPLINE
  5
1D1
330
23
100
AcDbEntity
  8
0
  6
Continuous
 62
     7
370
    25
100
AcDbSpline
210
0.0
220
0.0
230
1.0
 70
     8
 71
     3
 72
    29
 73
    25
 74
     0
 42
0.000000001
 43
0.00000001
 40
0.0
 40
0.0
 40
0.0
 40
0.0
 40
0.0191832102820598
 40
0.0664507789716905
 40
0.1137183476613215
 40
0.1615765462942386
 40
0.2094347449271557
 40
0.2567023136167869
 40
0.3039698823064178
 40
0.351828080939335
 40
0.3996862795722522
 40
0.4469538482618832
 40
0.4942214169515143
 40
0.5420796155844314
 40
0.5899378142173484
 40
0.6372053829069794
 40
0.6844729515966104
 40
0.7323311502295277
 40
0.7801893488624447
 40
0.8274569175520758
 40
0.8747244862417067
 40
0.9225826848746239
 40
0.970440883507541
 40
1.0
 40
1.0
 40
1.0
 40
1.0
 10
-11.16062707146873
 20
33.17888080896218
 30
0.0
 10
-11.09938577173883
 20
33.17034270557041
 30
0.0
 10
-10.88724546714672
 20
33.14076665375318
 30
0.0
 10
-10.81508302703733
 20
33.09207806125145
 30
0.0
 10
-10.94252613302378
 20
33.0308155912269
 30
0.0
 10
-11.369230154901
 20
32.96703242765222
 30
0.0
 10
-12.06394317473709
 20
32.90322772456268
 30
0.0
 10
-13.00972926372326
 20
32.84202907670728
 30
0.0
 10
-14.18330864478304
 20
32.78082889968973
 30
0.0
 10
-15.56350396798788
 20
32.71702884148862
 30
0.0
 10
-17.11219369597746
 20
32.65322867223878
 30
0.0
 10
-18.78307523513928
 20
32.5920288242617
 30
0.0
 10
-20.54109080064718
 20
32.53082896810476
 30
0.0
 10
-22.35123259410257
 20
32.46702882370169
 30
0.0
 10
-24.16137544645935
 20
32.40322867453244
 30
0.0
 10
-25.9193878744134
 20
32.3420288324979
 30
0.0
 10
-27.59028093529112
 20
32.28082893266048
 30
0.0
 10
-29.13892719408967
 20
32.2170289590697
 30
0.0
 10
-30.51928448281888
 20
32.1532281718459
 30
0.0
 10
-31.69226667693821
 20
32.09203068282527
 30
0.0
 10
-32.64028492657389
 20
32.03082198779612
 30
0.0
 10
-33.32656566053407
 20
31.96705523925142
 30
0.0
 10
-33.72795265306674
 20
31.91104765561968
 30
0.0
 10
-33.77925599421442
 20
31.87772811377946
 30
0.0
 10
-33.79884439552981
 20
31.86500620244558
 30
0.0
  0
SPLINE
  5
1D2
330
23
100
AcDbEntity
  8
0
  6
Continuous
 62
     7
370
    25
100
AcDbSpline
210
0.0
220
0.0
230
1.0
 70
     8
 71
     3
 72
    29
 73
    25
 74
     0
 42
0.000000001
 43
0.00000001
 40
0.0
 40
0.0
 40
0.0
 40
0.0
 40
0.0191832102820598
 40
0.0664507789716905
 40
0.1137183476613215
 40
0.1615765462942386
 40
0.2094347449271557
 40
0.2567023136167869
 40
0.3039698823064178
 40
0.351828080939335
 40
0.3996862795722522
 40
0.4469538482618832
 40
0.4942214169515143
 40
0.5420796155844314
 40
0.5899378142173484
 40
0.6372053829069794
 40
0.6844729515966104
 40
0.7323311502295277
 40
0.7801893488624447
 40
0.8274569175520758
 40
0.8747244862417067
 40
0.9225826848746239
 40
0.970440883507541
 40
1.0
 40
1.0
 40
1.0
 40
1.0
 10
-11.16062707146873
 20
30.67888080896217
 30
0.0
 10
-11.09938577173883
 20
30.67034270557041
 30
0.0
 10
-10.88724546714672
 20
30.64076665375319
 30
0.0
 10
-10.81508302703733
 20
30.59207806125146
 30
0.0
 10
-10.94252613302379
 20
30.53081559122691
 30
0.0
 10
-11.36923015490101
 20
30.46703242765222
 30
0.0
 10
-12.06394317473709
 20
30.40322772456267
 30
0.0
 10
-13.00972926372326
 20
30.34202907670728
 30
0.0
 10
-14.18330864478304
 20
30.28082889968973
 30
0.0
 10
-15.56350396798788
 20
30.21702884148862
 30
0.0
 10
-17.11219369597746
 20
30.15322867223878
 30
0.0
 10
-18.78307523513928
 20
30.09202882426171
 30
0.0
 10
-20.54109080064718
 20
30.03082896810475
 30
0.0
 10
-22.35123259410257
 20
29.9670288237017
 30
0.0
 10
-24.16137544645935
 20
29.90322867453244
 30
0.0
 10
-25.9193878744134
 20
29.84202883249791
 30
0.0
 10
-27.59028093529112
 20
29.78082893266047
 30
0.0
 10
-29.13892719408967
 20
29.7170289590697
 30
0.0
 10
-30.51928448281888
 20
29.6532281718459
 30
0.0
 10
-31.69226667693821
 20
29.59203068282528
 30
0.0
 10
-32.64028492657389
 20
29.53082198779612
 30
0.0
 10
-33.32656566053407
 20
29.46705523925142
 30
0.0
 10
-33.72795265306674
 20
29.4110476556197
 30
0.0
 10
-33.77925599421442
 20
29.37772811377946
 30
0.0
 10
-33.79884439552981
 20
29.36500620244558
 30
0.0
  0
SPLINE
  5
1D3
330
23
100
AcDbEntity
  8
0
  6
Continuous
 62
     7
370
    25
100
AcDbSpline
210
0.0
220
0.0
230
1.0
 70
     8
 71
     3
 72
    29
 73
    25
 74
     0
 42
0.000000001
 43
0.00000001
 40
0.0
 40
0.0
 40
0.0
 40
0.0
 40
0.0191832102820605
 40
0.0664507789716913
 40
0.1137183476613222
 40
0.1615765462942393
 40
0.2094347449271564
 40
0.2567023136167875
 40
0.3039698823064184
 40
0.3518280809393355
 40
0.3996862795722527
 40
0.4469538482618836
 40
0.4942214169515147
 40
0.5420796155844317
 40
0.5899378142173487
 40
0.6372053829069797
 40
0.6844729515966107
 40
0.7323311502295279
 40
0.780189348862445
 40
0.8274569175520761
 40
0.874724486241707
 40
0.922582684874624
 40
0.9704408835075411
 40
1.0
 40
1.0
 40
1.0
 40
1.0
 10
-11.16062707146874
 20
28.17888080896218
 30
0.0
 10
-11.09938577173884
 20
28.17034270557042
 30
0.0
 10
-10.88724546714673
 20
28.14076665375319
 30
0.0
 10
-10.81508302703733
 20
28.09207806125145
 30
0.0
 10
-10.94252613302379
 20
28.03081559122692
 30
0.0
 10
-11.369230154901
 20
27.96703242765221
 30
0.0
 10
-12.0639431747371
 20
27.90322772456269
 30
0.0
 10
-13.00972926372326
 20
27.84202907670727
 30
0.0
 10
-14.18330864478305
 20
27.78082889968974
 30
0.0
 10
-15.56350396798788
 20
27.71702884148861
 30
0.0
 10
-17.11219369597746
 20
27.65322867223878
 30
0.0
 10
-18.78307523513928
 20
27.5920288242617
 30
0.0
 10
-20.54109080064718
 20
27.53082896810474
 30
0.0
 10
-22.35123259410257
 20
27.46702882370171
 30
0.0
 10
-24.16137544645936
 20
27.40322867453244
 30
0.0
 10
-25.91938787441338
 20
27.3420288324979
 30
0.0
 10
-27.59028093529113
 20
27.28082893266048
 30
0.0
 10
-29.13892719408967
 20
27.2170289590697
 30
0.0
 10
-30.51928448281888
 20
27.1532281718459
 30
0.0
 10
-31.69226667693821
 20
27.09203068282528
 30
0.0
 10
-32.64028492657388
 20
27.03082198779611
 30
0.0
 10
-33.32656566053407
 20
26.96705523925142
 30
0.0
 10
-33.72795265306674
 20
26.9110476556197
 30
0.0
 10
-33.77925599421441
 20
26.87772811377945
 30
0.0
 10
-33.7988443955298
 20
26.86500620244558
 30
0.0
  0
SPLINE
  5
1D4
330
23
100
AcDbEntity
  8
0
  6
Continuous
 62
     7
370
    25
100
AcDbSpline
210
0.0
220
0.0
230
1.0
 70
     8
 71
     3
 72
     9
 73
     5
 74
     0
 42
0.000000001
 43
0.00000001
 40
0.0
 40
0.0
 40
0.0
 40
0.0
 40
0.2886830008453858
 40
1.0
 40
1.0
 40
1.0
 40
1.0
 10
-11.16062707146875
 20
25.67888080896218
 30
0.0
 10
-11.098679887941
 20
25.67034366703093
 30
0.0
 10
-10.8840943967748
 20
25.64077094571986
 30
0.0
 10
-10.86489186125555
 20
25.6122887166297
 30
0.0
 10
-10.85123277131384
 20
25.59202882290405
 30
0.0
  0
SPLINE
  5
1D5
330
23
100
AcDbEntity
  8
0
  6
Continuous
 62
     7
370
    25
100
AcDbSpline
210
0.0
220
0.0
230
1.0
 70
     8
 71
     3
 72
    18
 73
    14
 74
     0
 42
0.000000001
 43
0.00000001
 40
0.0
 40
0.0
 40
0.0
 40
0.0
 40
0.0266725489202979
 40
0.1340645007356109
 40
0.2414564525509252
 40
0.3501909651424669
 40
0.458925477734013
 40
0.566317429549323
 40
0.6737093813646405
 40
0.7824438939561811
 40
0.8911784065477217
 40
0.9985703583630348
 40
0.9999999999999999
 40
0.9999999999999999
 40
0.9999999999999999
 40
0.9999999999999999
 10
-21.12562074450742
 20
25.59202882290407
 30
0.0
 10
-20.99023632255859
 20
25.59724813973458
 30
0.0
 10
-20.30975224170882
 20
25.62348204438143
 30
0.0
 10
-19.115439506687
 20
25.66890737180523
 30
0.0
 10
-17.58701118993408
 20
25.73019746479579
 30
0.0
 10
-16.17157375922842
 20
25.79397288100648
 30
0.0
 10
-14.90919216850291
 20
25.85777974835673
 30
0.0
 10
-13.83454066212482
 20
25.91897665131903
 30
0.0
 10
-12.9700580984492
 20
25.98018255085908
 30
0.0
 10
-12.32501808331153
 20
26.04396209059716
 30
0.0
 10
-11.96021353272484
 20
26.10783755746917
 30
0.0
 10
-11.80985927518266
 20
26.14880548967224
 30
0.0
 10
-11.85235170549666
 20
26.16952244289583
 30
0.0
 10
-11.8529099490006
 20
26.16979461147909
 30
0.0
  0
SPLINE
  5
1D6
330
23
100
AcDbEntity
  8
0
  6
Continuous
 62
     7
370
    25
100
AcDbSpline
210
0.0
220
0.0
230
1.0
 70
     8
 71
     3
 72
    28
 73
    24
 74
     0
 42
0.000000001
 43
0.00000001
 40
0.0
 40
0.0
 40
0.0
 40
0.0
 40
0.0291496953950018
 40
0.0805119368180263
 40
0.1318741782410506
 40
0.1826022426298456
 40
0.2333303070186424
 40
0.2846925484416667
 40
0.3360547898646911
 40
0.386782854253484
 40
0.4375109186422805
 40
0.4888731600653043
 40
0.540235401488328
 40
0.5909634658771223
 40
0.6416915302659174
 40
0.6930537716889417
 40
0.7444160131119681
 40
0.795144077500761
 40
0.8458721418895575
 40
0.8972343833125813
 40
0.9485966247356049
 40
0.9993246891243992
 40
1.0
 40
1.0
 40
1.0
 40
1.0
 10
-32.7983460516264
 20
27.44506690722356
 30
0.0
 10
-32.78217177333756
 20
27.45675962360694
 30
0.0
 10
-32.73749815140011
 20
27.48905509805129
 30
0.0
 10
-32.37830671396579
 20
27.54400917893453
 30
0.0
 10
-31.75571011991306
 20
27.60776987148884
 30
0.0
 10
-30.89284227564929
 20
27.66898032957499
 30
0.0
 10
-29.82452926594208
 20
27.73017762273572
 30
0.0
 10
-28.56643723120834
 20
27.79397830449332
 30
0.0
 10
-27.15427073272765
 20
27.8577780303985
 30
0.0
 10
-25.62998381806916
 20
27.91897815575924
 30
0.0
 10
-24.02564419155214
 20
27.98017821344096
 30
0.0
 10
-22.37318658773513
 20
28.04397814492495
 30
0.0
 10
-20.72018595309342
 20
28.10777807402635
 30
0.0
 10
-19.1142321077584
 20
28.16897813876772
 30
0.0
 10
-17.5873392267108
 20
28.23017823820403
 30
0.0
 10
-16.17148536449911
 20
28.29397806191756
 30
0.0
 10
-14.9092155277984
 20
28.35777837924303
 30
0.0
 10
-13.83453443833099
 20
28.41897701610236
 30
0.0
 10
-12.97005978994262
 20
28.4801824517188
 30
0.0
 10
-12.32501762539639
 20
28.54396211743607
 30
0.0
 10
-11.96021366158409
 20
28.60783754991654
 30
0.0
 10
-11.80985927489487
 20
28.64880548968921
 30
0.0
 10
-11.85235170549293
 20
28.66952244289605
 30
0.0
 10
-11.8529099490006
 20
28.66979461147909
 30
0.0
  0
SPLINE
  5
1D7
330
23
100
AcDbEntity
  8
0
  6
Continuous
 62
     7
370
    25
100
AcDbSpline
210
0.0
220
0.0
230
1.0
 70
     8
 71
     3
 72
    28
 73
    24
 74
     0
 42
0.000000001
 43
0.00000001
 40
0.0
 40
0.0
 40
0.0
 40
0.0
 40
0.0291496953950038
 40
0.0805119368180282
 40
0.1318741782410524
 40
0.1826022426298473
 40
0.2333303070186439
 40
0.2846925484416682
 40
0.3360547898646924
 40
0.3867828542534852
 40
0.4375109186422815
 40
0.4888731600653053
 40
0.5402354014883288
 40
0.5909634658771231
 40
0.641691530265918
 40
0.6930537716889421
 40
0.7444160131119684
 40
0.7951440775007611
 40
0.8458721418895575
 40
0.8972343833125812
 40
0.9485966247356048
 40
0.9993246891243992
 40
1.0
 40
1.0
 40
1.0
 40
1.0
 10
-32.7983460516264
 20
29.94506690722356
 30
0.0
 10
-32.78217177333757
 20
29.95675962360695
 30
0.0
 10
-32.73749815140013
 20
29.98905509805131
 30
0.0
 10
-32.37830671396581
 20
30.04400917893453
 30
0.0
 10
-31.75571011991305
 20
30.10776987148884
 30
0.0
 10
-30.89284227564929
 20
30.16898032957498
 30
0.0
 10
-29.82452926594206
 20
30.23017762273572
 30
0.0
 10
-28.56643723120834
 20
30.29397830449333
 30
0.0
 10
-27.15427073272765
 20
30.35777803039851
 30
0.0
 10
-25.62998381806916
 20
30.41897815575925
 30
0.0
 10
-24.02564419155214
 20
30.48017821344096
 30
0.0
 10
-22.37318658773512
 20
30.54397814492495
 30
0.0
 10
-20.72018595309342
 20
30.60777807402635
 30
0.0
 10
-19.11423210775841
 20
30.66897813876772
 30
0.0
 10
-17.5873392267108
 20
30.73017823820404
 30
0.0
 10
-16.17148536449911
 20
30.79397806191757
 30
0.0
 10
-14.90921552779839
 20
30.85777837924304
 30
0.0
 10
-13.83453443833099
 20
30.91897701610236
 30
0.0
 10
-12.97005978994262
 20
30.98018245171883
 30
0.0
 10
-12.32501762539638
 20
31.04396211743606
 30
0.0
 10
-11.9602136615841
 20
31.10783754991662
 30
0.0
 10
-11.80985927489483
 20
31.14880548968903
 30
0.0
 10
-11.85235170549293
 20
31.16952244289605
 30
0.0
 10
-11.8529099490006
 20
31.16979461147909
 30
0.0
  0
SPLINE
  5
1D8
330
23
100
AcDbEntity
  8
0
  6
Continuous
 62
     7
370
    25
100
AcDbSpline
210
0.0
220
0.0
230
1.0
 70
     8
 71
     3
 72
    28
 73
    24
 74
     0
 42
0.000000001
 43
0.00000001
 40
0.0
 40
0.0
 40
0.0
 40
0.0
 40
0.0291496953950038
 40
0.0805119368180282
 40
0.1318741782410524
 40
0.1826022426298473
 40
0.2333303070186439
 40
0.2846925484416682
 40
0.3360547898646924
 40
0.3867828542534853
 40
0.4375109186422816
 40
0.4888731600653054
 40
0.540235401488329
 40
0.5909634658771232
 40
0.6416915302659181
 40
0.6930537716889423
 40
0.7444160131119686
 40
0.7951440775007613
 40
0.8458721418895577
 40
0.8972343833125814
 40
0.948596624735605
 40
0.9993246891243992
 40
1.0
 40
1.0
 40
1.0
 40
1.0
 10
-32.7983460516264
 20
32.44506690722356
 30
0.0
 10
-32.78217177333756
 20
32.45675962360693
 30
0.0
 10
-32.7374981514001
 20
32.48905509805129
 30
0.0
 10
-32.37830671396581
 20
32.54400917893454
 30
0.0
 10
-31.75571011991304
 20
32.60776987148883
 30
0.0
 10
-30.8928422756493
 20
32.66898032957499
 30
0.0
 10
-29.82452926594205
 20
32.7301776227357
 30
0.0
 10
-28.56643723120835
 20
32.79397830449334
 30
0.0
 10
-27.15427073272763
 20
32.85777803039849
 30
0.0
 10
-25.62998381806917
 20
32.91897815575925
 30
0.0
 10
-24.02564419155214
 20
32.98017821344096
 30
0.0
 10
-22.37318658773513
 20
33.04397814492496
 30
0.0
 10
-20.72018595309342
 20
33.10777807402634
 30
0.0
 10
-19.1142321077584
 20
33.16897813876773
 30
0.0
 10
-17.58733922671079
 20
33.23017823820403
 30
0.0
 10
-16.17148536449912
 20
33.29397806191757
 30
0.0
 10
-14.90921552779839
 20
33.35777837924304
 30
0.0
 10
-13.83453443833099
 20
33.41897701610237
 30
0.0
 10
-12.97005978994262
 20
33.4801824517188
 30
0.0
 10
-12.3250176253964
 20
33.54396211743612
 30
0.0
 10
-11.96021366158403
 20
33.60783754991636
 30
0.0
 10
-11.80985927489498
 20
33.64880548968957
 30
0.0
 10
-11.85235170549293
 20
33.66952244289604
 30
0.0
 10
-11.8529099490006
 20
33.66979461147909
 30
0.0
  0
SPLINE
  5
1D9
330
23
100
AcDbEntity
  8
0
  6
Continuous
 62
     7
370
    25
100
AcDbSpline
210
0.0
220
0.0
230
1.0
 70
     8
 71
     3
 72
    28
 73
    24
 74
     0
 42
0.000000001
 43
0.00000001
 40
0.0
 40
0.0
 40
0.0
 40
0.0
 40
0.0291496953950038
 40
0.0805119368180283
 40
0.1318741782410525
 40
0.1826022426298475
 40
0.2333303070186442
 40
0.2846925484416685
 40
0.3360547898646928
 40
0.3867828542534856
 40
0.437510918642282
 40
0.4888731600653058
 40
0.5402354014883294
 40
0.5909634658771238
 40
0.6416915302659185
 40
0.6930537716889429
 40
0.7444160131119691
 40
0.795144077500762
 40
0.8458721418895584
 40
0.8972343833125822
 40
0.9485966247356058
 40
0.9993246891244002
 40
1.0
 40
1.0
 40
1.0
 40
1.0
 10
-32.7983460516264
 20
34.94506690722356
 30
0.0
 10
-32.78217177333756
 20
34.95675962360693
 30
0.0
 10
-32.73749815140012
 20
34.9890550980513
 30
0.0
 10
-32.3783067139658
 20
35.04400917893454
 30
0.0
 10
-31.75571011991306
 20
35.10776987148884
 30
0.0
 10
-30.89284227564929
 20
35.16898032957499
 30
0.0
 10
-29.82452926594207
 20
35.23017762273572
 30
0.0
 10
-28.56643723120835
 20
35.29397830449334
 30
0.0
 10
-27.15427073272764
 20
35.3577780303985
 30
0.0
 10
-25.62998381806917
 20
35.41897815575925
 30
0.0
 10
-24.02564419155214
 20
35.48017821344095
 30
0.0
 10
-22.37318658773513
 20
35.54397814492494
 30
0.0
 10
-20.72018595309342
 20
35.60777807402636
 30
0.0
 10
-19.11423210775841
 20
35.66897813876772
 30
0.0
 10
-17.58733922671079
 20
35.73017823820403
 30
0.0
 10
-16.17148536449911
 20
35.79397806191756
 30
0.0
 10
-14.90921552779839
 20
35.85777837924304
 30
0.0
 10
-13.83453443833099
 20
35.91897701610236
 30
0.0
 10
-12.97005978994262
 20
35.98018245171882
 30
0.0
 10
-12.32501762539638
 20
36.04396211743604
 30
0.0
 10
-11.96021366158413
 20
36.10783754991669
 30
0.0
 10
-11.80985927489478
 20
36.14880548968888
 30
0.0
 10
-11.85235170549293
 20
36.16952244289605
 30
0.0
 10
-11.85290994900059
 20
36.1697946114791
 30
0.0
  0
SPLINE
  5
1DA
330
23
100
AcDbEntity
  8
0
  6
Continuous
 62
     7
370
    25
100
AcDbSpline
210
0.0
220
0.0
230
1.0
 70
     8
 71
     3
 72
    28
 73
    24
 74
     0
 42
0.000000001
 43
0.00000001
 40
0.0
 40
0.0
 40
0.0
 40
0.0
 40
0.0291496953950038
 40
0.0805119368180283
 40
0.1318741782410526
 40
0.1826022426298475
 40
0.2333303070186442
 40
0.2846925484416686
 40
0.3360547898646929
 40
0.3867828542534857
 40
0.4375109186422821
 40
0.4888731600653059
 40
0.5402354014883296
 40
0.5909634658771239
 40
0.6416915302659187
 40
0.693053771688943
 40
0.7444160131119693
 40
0.7951440775007621
 40
0.8458721418895585
 40
0.8972343833125823
 40
0.9485966247356059
 40
0.9993246891244002
 40
1.0
 40
1.0
 40
1.0
 40
1.0
 10
-32.7983460516264
 20
37.44506690722356
 30
0.0
 10
-32.78217177333757
 20
37.45675962360695
 30
0.0
 10
-32.7374981514001
 20
37.48905509805129
 30
0.0
 10
-32.37830671396581
 20
37.54400917893456
 30
0.0
 10
-31.75571011991306
 20
37.60776987148884
 30
0.0
 10
-30.89284227564929
 20
37.66898032957499
 30
0.0
 10
-29.82452926594206
 20
37.7301776227357
 30
0.0
 10
-28.56643723120835
 20
37.79397830449334
 30
0.0
 10
-27.15427073272764
 20
37.85777803039851
 30
0.0
 10
-25.62998381806917
 20
37.91897815575925
 30
0.0
 10
-24.02564419155214
 20
37.98017821344097
 30
0.0
 10
-22.37318658773513
 20
38.04397814492496
 30
0.0
 10
-20.72018595309342
 20
38.10777807402633
 30
0.0
 10
-19.11423210775841
 20
38.16897813876775
 30
0.0
 10
-17.58733922671079
 20
38.23017823820403
 30
0.0
 10
-16.17148536449912
 20
38.29397806191758
 30
0.0
 10
-14.90921552779839
 20
38.35777837924302
 30
0.0
 10
-13.83453443833099
 20
38.41897701610238
 30
0.0
 10
-12.97005978994262
 20
38.48018245171878
 30
0.0
 10
-12.32501762539639
 20
38.54396211743614
 30
0.0
 10
-11.96021366158408
 20
38.60783754991635
 30
0.0
 10
-11.80985927489488
 20
38.64880548968962
 30
0.0
 10
-11.85235170549292
 20
38.66952244289604
 30
0.0
 10
-11.85290994900059
 20
38.6697946114791
 30
0.0
  0
SPLINE
  5
1DB
330
23
100
AcDbEntity
  8
0
  6
Continuous
 62
     7
370
    25
100
AcDbSpline
210
0.0
220
0.0
230
1.0
 70
     8
 71
     3
 72
    28
 73
    24
 74
     0
 42
0.000000001
 43
0.00000001
 40
0.0
 40
0.0
 40
0.0
 40
0.0
 40
0.0291496953950038
 40
0.0805119368180282
 40
0.1318741782410525
 40
0.1826022426298473
 40
0.233330307018644
 40
0.2846925484416684
 40
0.3360547898646926
 40
0.3867828542534854
 40
0.4375109186422818
 40
0.4888731600653056
 40
0.5402354014883292
 40
0.5909634658771235
 40
0.6416915302659183
 40
0.6930537716889426
 40
0.7444160131119688
 40
0.7951440775007617
 40
0.8458721418895581
 40
0.8972343833125818
 40
0.9485966247356054
 40
0.9993246891243998
 40
1.0
 40
1.0
 40
1.0
 40
1.0
 10
-32.7983460516264
 20
39.94506690722356
 30
0.0
 10
-32.78217177333757
 20
39.95675962360694
 30
0.0
 10
-32.73749815140012
 20
39.98905509805131
 30
0.0
 10
-32.37830671396581
 20
40.04400917893452
 30
0.0
 10
-31.75571011991305
 20
40.10776987148883
 30
0.0
 10
-30.89284227564929
 20
40.16898032957499
 30
0.0
 10
-29.82452926594206
 20
40.2301776227357
 30
0.0
 10
-28.56643723120836
 20
40.29397830449334
 30
0.0
 10
-27.15427073272765
 20
40.35777803039851
 30
0.0
 10
-25.62998381806917
 20
40.41897815575925
 30
0.0
 10
-24.02564419155213
 20
40.48017821344094
 30
0.0
 10
-22.37318658773513
 20
40.54397814492496
 30
0.0
 10
-20.72018595309342
 20
40.60777807402633
 30
0.0
 10
-19.11423210775841
 20
40.66897813876773
 30
0.0
 10
-17.58733922671079
 20
40.73017823820403
 30
0.0
 10
-16.17148536449912
 20
40.79397806191757
 30
0.0
 10
-14.90921552779839
 20
40.85777837924303
 30
0.0
 10
-13.83453443833099
 20
40.91897701610237
 30
0.0
 10
-12.97005978994262
 20
40.9801824517188
 30
0.0
 10
-12.3250176253964
 20
41.04396211743611
 30
0.0
 10
-11.96021366158405
 20
41.1078375499164
 30
0.0
 10
-11.80985927489495
 20
41.14880548968951
 30
0.0
 10
-11.85235170549293
 20
41.16952244289605
 30
0.0
 10
-11.85290994900059
 20
41.1697946114791
 30
0.0
  0
SPLINE
  5
1DC
330
23
100
AcDbEntity
  8
0
  6
Continuous
 62
     7
370
    25
100
AcDbSpline
210
0.0
220
0.0
230
1.0
 70
     8
 71
     3
 72
    28
 73
    24
 74
     0
 42
0.000000001
 43
0.00000001
 40
0.0
 40
0.0
 40
0.0
 40
0.0
 40
0.0291496953950038
 40
0.0805119368180283
 40
0.1318741782410525
 40
0.1826022426298474
 40
0.2333303070186441
 40
0.2846925484416684
 40
0.3360547898646927
 40
0.3867828542534855
 40
0.4375109186422819
 40
0.4888731600653057
 40
0.5402354014883293
 40
0.5909634658771236
 40
0.6416915302659184
 40
0.6930537716889427
 40
0.744416013111969
 40
0.7951440775007618
 40
0.8458721418895583
 40
0.897234383312582
 40
0.9485966247356056
 40
0.9993246891244
 40
1.0
 40
1.0
 40
1.0
 40
1.0
 10
-32.7983460516264
 20
42.44506690722356
 30
0.0
 10
-32.78217177333757
 20
42.45675962360696
 30
0.0
 10
-32.73749815140012
 20
42.48905509805132
 30
0.0
 10
-32.37830671396579
 20
42.54400917893453
 30
0.0
 10
-31.75571011991305
 20
42.60776987148883
 30
0.0
 10
-30.89284227564928
 20
42.66898032957497
 30
0.0
 10
-29.82452926594207
 20
42.73017762273573
 30
0.0
 10
-28.56643723120835
 20
42.79397830449333
 30
0.0
 10
-27.15427073272764
 20
42.85777803039851
 30
0.0
 10
-25.62998381806917
 20
42.91897815575924
 30
0.0
 10
-24.02564419155213
 20
42.98017821344095
 30
0.0
 10
-22.37318658773513
 20
43.04397814492495
 30
0.0
 10
-20.72018595309342
 20
43.10777807402634
 30
0.0
 10
-19.11423210775841
 20
43.16897813876773
 30
0.0
 10
-17.58733922671079
 20
43.23017823820403
 30
0.0
 10
-16.17148536449911
 20
43.29397806191758
 30
0.0
 10
-14.9092155277984
 20
43.35777837924302
 30
0.0
 10
-13.83453443833099
 20
43.41897701610237
 30
0.0
 10
-12.97005978994262
 20
43.48018245171881
 30
0.0
 10
-12.32501762539638
 20
43.54396211743605
 30
0.0
 10
-11.96021366158409
 20
43.6078375499166
 30
0.0
 10
-11.80985927489486
 20
43.64880548968911
 30
0.0
 10
-11.85235170549293
 20
43.66952244289605
 30
0.0
 10
-11.85290994900059
 20
43.66979461147909
 30
0.0
  0
SPLINE
  5
1DD
330
23
100
AcDbEntity
  8
0
  6
Continuous
 62
     7
370
    25
100
AcDbSpline
210
0.0
220
0.0
230
1.0
 70
     8
 71
     3
 72
    18
 73
    14
 74
     0
 42
0.000000001
 43
0.00000001
 40
0.0
 40
0.0
 40
0.0
 40
0.0
 40
0.0552512945802759
 40
0.1526049819074226
 40
0.249958669234569
 40
0.3461103164834421
 40
0.4422619637323186
 40
0.5396156510594652
 40
0.6369693383866116
 40
0.7331209856354809
 40
0.8292726328843568
 40
0.9266263202115024
 40
1.0
 40
1.0
 40
1.0
 40
1.0
 10
-32.7983460516264
 20
44.94506690722356
 30
0.0
 10
-32.7821717746458
 20
44.95675962351885
 30
0.0
 10
-32.73749815632176
 20
44.9890550977199
 30
0.0
 10
-32.37830667576454
 20
45.04400918150678
 30
0.0
 10
-31.75571025979691
 20
45.10776986206986
 30
0.0
 10
-30.89284176127418
 20
45.16898036421006
 30
0.0
 10
-29.82453119641959
 20
45.23017749274841
 30
0.0
 10
-28.56642992604469
 20
45.29397879638127
 30
0.0
 10
-27.15429784250894
 20
45.35777620498082
 30
0.0
 10
-25.6298840355976
 20
45.41898487454033
 30
0.0
 10
-24.02601870651875
 20
45.48015299574455
 30
0.0
 10
-22.5081547271297
 20
45.53880361055557
 30
0.0
 10
-21.541228509372
 20
45.57602999890449
 30
0.0
 10
-21.12567161372328
 20
45.59202882290407
 30
0.0
  0
SPLINE
  5
1DE
330
23
100
AcDbEntity
  8
0
  6
Continuous
 62
     7
370
    25
100
AcDbSpline
210
0.0
220
0.0
230
1.0
 70
     8
 71
     3
 72
    27
 73
    23
 74
     0
 42
0.000000001
 43
0.00000001
 40
0.0
 40
0.0
 40
0.0
 40
0.0
 40
0.0313625489280319
 40
0.0854702558200345
 40
0.1389098870180052
 40
0.1923495182159759
 40
0.2464572251079787
 40
0.3005649319999815
 40
0.354004563197952
 40
0.4074441943959227
 40
0.4615519012879254
 40
0.515659608179928
 40
0.5690992393778987
 40
0.6225388705758694
 40
0.6766465774678718
 40
0.7307542843598747
 40
0.7841939155578455
 40
0.837633546755816
 40
0.8917412536478188
 40
0.9458489605398215
 40
0.9992885917377923
 40
1.0
 40
1.0
 40
1.0
 40
1.0
 10
-12.13647969048712
 20
44.92698382520174
 30
0.0
 10
-12.20274960908287
 20
44.91469769316569
 30
0.0
 10
-12.38335058346633
 20
44.88121511971257
 30
0.0
 10
-12.95588710911295
 20
44.82624344847108
 30
0.0
 10
-13.80719030082948
 20
44.765089126022
 30
0.0
 10
-14.87859728635677
 20
44.70387681448496
 30
0.0
 10
-16.1358501918695
 20
44.64008020591962
 30
0.0
 10
-17.54824187990352
 20
44.57627938692851
 30
0.0
 10
-19.07246918364386
 20
44.51507955092337
 30
0.0
 10
-20.67682475830461
 20
44.45387941582825
 30
0.0
 10
-22.32927803676354
 20
44.39007950533983
 30
0.0
 10
-23.98227983216266
 20
44.32627957060404
 30
0.0
 10
-25.58823337022838
 20
44.26507950735417
 30
0.0
 10
-27.11512633348182
 20
44.20387940751884
 30
0.0
 10
-28.53098017339788
 20
44.14007958391352
 30
0.0
 10
-29.79325001608156
 20
44.07627926655898
 30
0.0
 10
-30.86793110396482
 20
44.0150806297074
 30
0.0
 10
-31.73240575277664
 20
43.95387519408884
 30
0.0
 10
-32.37744791720745
 20
43.89009552837214
 30
0.0
 10
-32.74225188105071
 20
43.82622009589162
 30
0.0
 10
-32.89260626773287
 20
43.78525215611876
 30
0.0
 10
-32.85011383713478
 20
43.76453520291214
 30
0.0
 10
-32.84955559362717
 20
43.76426303432911
 30
0.0
  0
SPLINE
  5
1DF
330
23
100
AcDbEntity
  8
0
  6
Continuous
 62
     7
370
    25
100
AcDbSpline
210
0.0
220
0.0
230
1.0
 70
     8
 71
     3
 72
    27
 73
    23
 74
     0
 42
0.000000001
 43
0.00000001
 40
0.0
 40
0.0
 40
0.0
 40
0.0
 40
0.0313625489280317
 40
0.0854702558200342
 40
0.1389098870180051
 40
0.1923495182159757
 40
0.2464572251079786
 40
0.3005649319999814
 40
0.3540045631979518
 40
0.4074441943959226
 40
0.4615519012879253
 40
0.5156596081799278
 40
0.5690992393778986
 40
0.6225388705758693
 40
0.6766465774678718
 40
0.7307542843598746
 40
0.7841939155578455
 40
0.837633546755816
 40
0.8917412536478188
 40
0.9458489605398215
 40
0.9992885917377923
 40
1.0
 40
1.0
 40
1.0
 40
1.0
 10
-12.13647969048713
 20
42.42698382520175
 30
0.0
 10
-12.20274960908287
 20
42.41469769316568
 30
0.0
 10
-12.38335058346633
 20
42.38121511971257
 30
0.0
 10
-12.95588710911295
 20
42.32624344847108
 30
0.0
 10
-13.80719030082948
 20
42.26508912602198
 30
0.0
 10
-14.87859728635677
 20
42.20387681448496
 30
0.0
 10
-16.13585019186951
 20
42.14008020591962
 30
0.0
 10
-17.54824187990352
 20
42.07627938692851
 30
0.0
 10
-19.07246918364386
 20
42.01507955092337
 30
0.0
 10
-20.6768247583046
 20
41.95387941582823
 30
0.0
 10
-22.32927803676355
 20
41.89007950533983
 30
0.0
 10
-23.98227983216265
 20
41.82627957060404
 30
0.0
 10
-25.58823337022838
 20
41.76507950735416
 30
0.0
 10
-27.11512633348182
 20
41.70387940751885
 30
0.0
 10
-28.53098017339787
 20
41.64007958391351
 30
0.0
 10
-29.79325001608157
 20
41.57627926655898
 30
0.0
 10
-30.86793110396482
 20
41.51508062970739
 30
0.0
 10
-31.73240575277665
 20
41.45387519408885
 30
0.0
 10
-32.37744791720745
 20
41.39009552837215
 30
0.0
 10
-32.74225188105071
 20
41.32622009589156
 30
0.0
 10
-32.89260626773287
 20
41.28525215611886
 30
0.0
 10
-32.85011383713478
 20
41.26453520291214
 30
0.0
 10
-32.84955559362718
 20
41.26426303432911
 30
0.0
  0
SPLINE
  5
1E0
330
23
100
AcDbEntity
  8
0
  6
Continuous
 62
     7
370
    25
100
AcDbSpline
210
0.0
220
0.0
230
1.0
 70
     8
 71
     3
 72
    27
 73
    23
 74
     0
 42
0.000000001
 43
0.00000001
 40
0.0
 40
0.0
 40
0.0
 40
0.0
 40
0.0313625489280316
 40
0.0854702558200342
 40
0.138909887018005
 40
0.1923495182159756
 40
0.2464572251079785
 40
0.3005649319999812
 40
0.3540045631979516
 40
0.4074441943959224
 40
0.4615519012879252
 40
0.5156596081799276
 40
0.5690992393778983
 40
0.622538870575869
 40
0.6766465774678715
 40
0.7307542843598743
 40
0.7841939155578451
 40
0.8376335467558157
 40
0.8917412536478183
 40
0.945848960539821
 40
0.9992885917377918
 40
1.0
 40
1.0
 40
1.0
 40
1.0
 10
-12.13647969048713
 20
39.92698382520174
 30
0.0
 10
-12.20274960908287
 20
39.91469769316569
 30
0.0
 10
-12.38335058346633
 20
39.88121511971258
 30
0.0
 10
-12.95588710911296
 20
39.82624344847109
 30
0.0
 10
-13.80719030082948
 20
39.765089126022
 30
0.0
 10
-14.87859728635677
 20
39.70387681448498
 30
0.0
 10
-16.1358501918695
 20
39.64008020591961
 30
0.0
 10
-17.54824187990352
 20
39.57627938692853
 30
0.0
 10
-19.07246918364386
 20
39.51507955092337
 30
0.0
 10
-20.67682475830461
 20
39.45387941582825
 30
0.0
 10
-22.32927803676354
 20
39.39007950533983
 30
0.0
 10
-23.98227983216266
 20
39.32627957060406
 30
0.0
 10
-25.58823337022839
 20
39.26507950735418
 30
0.0
 10
-27.11512633348182
 20
39.20387940751883
 30
0.0
 10
-28.53098017339789
 20
39.14007958391354
 30
0.0
 10
-29.79325001608155
 20
39.07627926655898
 30
0.0
 10
-30.86793110396482
 20
39.01508062970739
 30
0.0
 10
-31.73240575277665
 20
38.95387519408885
 30
0.0
 10
-32.37744791720742
 20
38.89009552837216
 30
0.0
 10
-32.74225188105084
 20
38.82622009589159
 30
0.0
 10
-32.8926062677326
 20
38.78525215611883
 30
0.0
 10
-32.85011383713478
 20
38.76453520291214
 30
0.0
 10
-32.84955559362718
 20
38.76426303432912
 30
0.0
  0
SPLINE
  5
1E1
330
23
100
AcDbEntity
  8
0
  6
Continuous
 62
     7
370
    25
100
AcDbSpline
210
0.0
220
0.0
230
1.0
 70
     8
 71
     3
 72
    27
 73
    23
 74
     0
 42
0.000000001
 43
0.00000001
 40
0.0
 40
0.0
 40
0.0
 40
0.0
 40
0.0313625489280319
 40
0.0854702558200345
 40
0.1389098870180053
 40
0.192349518215976
 40
0.2464572251079789
 40
0.3005649319999817
 40
0.3540045631979522
 40
0.407444194395923
 40
0.4615519012879258
 40
0.5156596081799283
 40
0.5690992393778991
 40
0.6225388705758698
 40
0.6766465774678723
 40
0.7307542843598751
 40
0.784193915557846
 40
0.8376335467558166
 40
0.8917412536478193
 40
0.945848960539822
 40
0.9992885917377929
 40
1.0
 40
1.0
 40
1.0
 40
1.0
 10
-12.13647969048712
 20
37.42698382520174
 30
0.0
 10
-12.20274960908287
 20
37.41469769316569
 30
0.0
 10
-12.38335058346633
 20
37.38121511971258
 30
0.0
 10
-12.95588710911295
 20
37.32624344847107
 30
0.0
 10
-13.80719030082948
 20
37.26508912602199
 30
0.0
 10
-14.87859728635676
 20
37.20387681448496
 30
0.0
 10
-16.13585019186951
 20
37.14008020591963
 30
0.0
 10
-17.54824187990351
 20
37.07627938692849
 30
0.0
 10
-19.07246918364387
 20
37.01507955092338
 30
0.0
 10
-20.6768247583046
 20
36.95387941582823
 30
0.0
 10
-22.32927803676355
 20
36.89007950533984
 30
0.0
 10
-23.98227983216265
 20
36.82627957060404
 30
0.0
 10
-25.58823337022838
 20
36.76507950735418
 30
0.0
 10
-27.11512633348181
 20
36.70387940751883
 30
0.0
 10
-28.53098017339788
 20
36.64007958391353
 30
0.0
 10
-29.79325001608157
 20
36.576279266559
 30
0.0
 10
-30.86793110396481
 20
36.51508062970738
 30
0.0
 10
-31.73240575277665
 20
36.45387519408887
 30
0.0
 10
-32.37744791720744
 20
36.39009552837211
 30
0.0
 10
-32.74225188105076
 20
36.32622009589169
 30
0.0
 10
-32.89260626773279
 20
36.2852521561186
 30
0.0
 10
-32.85011383713478
 20
36.26453520291214
 30
0.0
 10
-32.84955559362718
 20
36.26426303432912
 30
0.0
  0
SPLINE
  5
1E2
330
23
100
AcDbEntity
  8
0
  6
Continuous
 62
     7
370
    25
100
AcDbSpline
210
0.0
220
0.0
230
1.0
 70
     8
 71
     3
 72
    27
 73
    23
 74
     0
 42
0.000000001
 43
0.00000001
 40
0.0
 40
0.0
 40
0.0
 40
0.0
 40
0.0313625489280319
 40
0.0854702558200345
 40
0.1389098870180053
 40
0.192349518215976
 40
0.2464572251079789
 40
0.3005649319999817
 40
0.3540045631979522
 40
0.407444194395923
 40
0.4615519012879258
 40
0.5156596081799283
 40
0.5690992393778991
 40
0.6225388705758698
 40
0.6766465774678723
 40
0.7307542843598751
 40
0.784193915557846
 40
0.8376335467558166
 40
0.8917412536478193
 40
0.945848960539822
 40
0.9992885917377929
 40
1.0
 40
1.0
 40
1.0
 40
1.0
 10
-12.13647969048712
 20
34.92698382520174
 30
0.0
 10
-12.20274960908287
 20
34.91469769316569
 30
0.0
 10
-12.38335058346633
 20
34.88121511971257
 30
0.0
 10
-12.95588710911295
 20
34.82624344847107
 30
0.0
 10
-13.80719030082948
 20
34.76508912602199
 30
0.0
 10
-14.87859728635676
 20
34.70387681448495
 30
0.0
 10
-16.13585019186951
 20
34.64008020591963
 30
0.0
 10
-17.54824187990351
 20
34.57627938692849
 30
0.0
 10
-19.07246918364387
 20
34.51507955092338
 30
0.0
 10
-20.6768247583046
 20
34.45387941582824
 30
0.0
 10
-22.32927803676355
 20
34.39007950533983
 30
0.0
 10
-23.98227983216265
 20
34.32627957060404
 30
0.0
 10
-25.58823337022838
 20
34.26507950735417
 30
0.0
 10
-27.11512633348181
 20
34.20387940751883
 30
0.0
 10
-28.53098017339788
 20
34.14007958391353
 30
0.0
 10
-29.79325001608157
 20
34.07627926655899
 30
0.0
 10
-30.86793110396481
 20
34.01508062970737
 30
0.0
 10
-31.73240575277665
 20
33.95387519408887
 30
0.0
 10
-32.37744791720744
 20
33.89009552837214
 30
0.0
 10
-32.74225188105076
 20
33.82622009589159
 30
0.0
 10
-32.89260626773279
 20
33.78525215611881
 30
0.0
 10
-32.85011383713478
 20
33.76453520291214
 30
0.0
 10
-32.84955559362718
 20
33.76426303432911
 30
0.0
  0
SPLINE
  5
1E3
330
23
100
AcDbEntity
  8
0
  6
Continuous
 62
     7
370
    25
100
AcDbSpline
210
0.0
220
0.0
230
1.0
 70
     8
 71
     3
 72
    27
 73
    23
 74
     0
 42
0.000000001
 43
0.00000001
 40
0.0
 40
0.0
 40
0.0
 40
0.0
 40
0.031362548928031
 40
0.0854702558200337
 40
0.1389098870180045
 40
0.1923495182159753
 40
0.2464572251079782
 40
0.3005649319999811
 40
0.3540045631979516
 40
0.4074441943959224
 40
0.4615519012879253
 40
0.5156596081799278
 40
0.5690992393778986
 40
0.6225388705758694
 40
0.6766465774678719
 40
0.7307542843598749
 40
0.7841939155578458
 40
0.8376335467558165
 40
0.8917412536478192
 40
0.945848960539822
 40
0.9992885917377928
 40
1.0
 40
1.0
 40
1.0
 40
1.0
 10
-12.13647969048713
 20
32.42698382520173
 30
0.0
 10
-12.20274960908288
 20
32.41469769316569
 30
0.0
 10
-12.38335058346633
 20
32.38121511971257
 30
0.0
 10
-12.95588710911295
 20
32.32624344847107
 30
0.0
 10
-13.80719030082948
 20
32.26508912602201
 30
0.0
 10
-14.87859728635676
 20
32.20387681448494
 30
0.0
 10
-16.13585019186951
 20
32.14008020591963
 30
0.0
 10
-17.54824187990352
 20
32.07627938692853
 30
0.0
 10
-19.07246918364387
 20
32.01507955092339
 30
0.0
 10
-20.67682475830461
 20
31.95387941582824
 30
0.0
 10
-22.32927803676355
 20
31.89007950533984
 30
0.0
 10
-23.98227983216265
 20
31.82627957060404
 30
0.0
 10
-25.58823337022839
 20
31.76507950735419
 30
0.0
 10
-27.11512633348181
 20
31.70387940751883
 30
0.0
 10
-28.53098017339789
 20
31.64007958391353
 30
0.0
 10
-29.79325001608157
 20
31.576279266559
 30
0.0
 10
-30.86793110396482
 20
31.51508062970738
 30
0.0
 10
-31.73240575277665
 20
31.45387519408887
 30
0.0
 10
-32.37744791720741
 20
31.3900955283721
 30
0.0
 10
-32.74225188105086
 20
31.32622009589175
 30
0.0
 10
-32.89260626773252
 20
31.28525215611847
 30
0.0
 10
-32.85011383713478
 20
31.26453520291215
 30
0.0
 10
-32.84955559362718
 20
31.26426303432912
 30
0.0
  0
SPLINE
  5
1E4
330
23
100
AcDbEntity
  8
0
  6
Continuous
 62
     7
370
    25
100
AcDbSpline
210
0.0
220
0.0
230
1.0
 70
     8
 71
     3
 72
    27
 73
    23
 74
     0
 42
0.000000001
 43
0.00000001
 40
0.0
 40
0.0
 40
0.0
 40
0.0
 40
0.0313625489280309
 40
0.0854702558200335
 40
0.1389098870180042
 40
0.1923495182159748
 40
0.2464572251079777
 40
0.3005649319999804
 40
0.3540045631979508
 40
0.4074441943959215
 40
0.4615519012879242
 40
0.5156596081799267
 40
0.5690992393778974
 40
0.6225388705758681
 40
0.6766465774678705
 40
0.7307542843598733
 40
0.784193915557844
 40
0.8376335467558146
 40
0.8917412536478173
 40
0.9458489605398199
 40
0.9992885917377907
 40
1.0
 40
1.0
 40
1.0
 40
1.0
 10
-12.13647969048713
 20
29.92698382520174
 30
0.0
 10
-12.20274960908288
 20
29.91469769316569
 30
0.0
 10
-12.38335058346633
 20
29.88121511971258
 30
0.0
 10
-12.95588710911295
 20
29.82624344847109
 30
0.0
 10
-13.80719030082948
 20
29.76508912602198
 30
0.0
 10
-14.87859728635677
 20
29.70387681448497
 30
0.0
 10
-16.1358501918695
 20
29.64008020591962
 30
0.0
 10
-17.54824187990351
 20
29.57627938692851
 30
0.0
 10
-19.07246918364388
 20
29.51507955092339
 30
0.0
 10
-20.6768247583046
 20
29.45387941582824
 30
0.0
 10
-22.32927803676355
 20
29.39007950533983
 30
0.0
 10
-23.98227983216265
 20
29.32627957060406
 30
0.0
 10
-25.58823337022838
 20
29.26507950735418
 30
0.0
 10
-27.11512633348181
 20
29.20387940751883
 30
0.0
 10
-28.53098017339788
 20
29.14007958391353
 30
0.0
 10
-29.79325001608156
 20
29.07627926655899
 30
0.0
 10
-30.86793110396484
 20
29.01508062970739
 30
0.0
 10
-31.73240575277663
 20
28.95387519408884
 30
0.0
 10
-32.37744791720748
 20
28.89009552837219
 30
0.0
 10
-32.74225188105064
 20
28.82622009589149
 30
0.0
 10
-32.89260626773302
 20
28.78525215611902
 30
0.0
 10
-32.85011383713477
 20
28.76453520291213
 30
0.0
 10
-32.84955559362717
 20
28.76426303432912
 30
0.0
  0
SPLINE
  5
1E5
330
23
100
AcDbEntity
  8
0
  6
Continuous
 62
     7
370
    25
100
AcDbSpline
210
0.0
220
0.0
230
1.0
 70
     8
 71
     3
 72
    27
 73
    23
 74
     0
 42
0.000000001
 43
0.00000001
 40
0.0
 40
0.0
 40
0.0
 40
0.0
 40
0.031362548928035
 40
0.0854702558200373
 40
0.1389098870180079
 40
0.1923495182159782
 40
0.2464572251079808
 40
0.3005649319999834
 40
0.3540045631979535
 40
0.4074441943959241
 40
0.4615519012879266
 40
0.5156596081799288
 40
0.5690992393778992
 40
0.6225388705758695
 40
0.6766465774678718
 40
0.7307542843598743
 40
0.7841939155578449
 40
0.8376335467558153
 40
0.8917412536478176
 40
0.94584896053982
 40
0.9992885917377906
 40
1.0
 40
1.0
 40
1.0
 40
1.0
 10
-12.1364796904871
 20
27.42698382520174
 30
0.0
 10
-12.20274960908285
 20
27.41469769316569
 30
0.0
 10
-12.38335058346632
 20
27.38121511971258
 30
0.0
 10
-12.95588710911295
 20
27.32624344847108
 30
0.0
 10
-13.80719030082948
 20
27.26508912602198
 30
0.0
 10
-14.87859728635677
 20
27.20387681448496
 30
0.0
 10
-16.1358501918695
 20
27.14008020591962
 30
0.0
 10
-17.54824187990351
 20
27.07627938692851
 30
0.0
 10
-19.07246918364386
 20
27.01507955092337
 30
0.0
 10
-20.67682475830461
 20
26.95387941582824
 30
0.0
 10
-22.32927803676355
 20
26.89007950533984
 30
0.0
 10
-23.98227983216265
 20
26.82627957060404
 30
0.0
 10
-25.58823337022839
 20
26.76507950735419
 30
0.0
 10
-27.11512633348182
 20
26.70387940751883
 30
0.0
 10
-28.53098017339789
 20
26.64007958391353
 30
0.0
 10
-29.79325001608156
 20
26.57627926655898
 30
0.0
 10
-30.86793110396482
 20
26.51508062970739
 30
0.0
 10
-31.73240575277663
 20
26.45387519408885
 30
0.0
 10
-32.37744791720748
 20
26.39009552837215
 30
0.0
 10
-32.74225188105068
 20
26.32622009589157
 30
0.0
 10
-32.89260626773295
 20
26.28525215611886
 30
0.0
 10
-32.85011383713478
 20
26.26453520291214
 30
0.0
 10
-32.84955559362717
 20
26.26426303432911
 30
0.0
  0
SPLINE
  5
1E7
330
23
100
AcDbEntity
  8
0
  6
Continuous
 62
     7
370
    25
100
AcDbSpline
210
0.0
220
0.0
230
1.0
 70
     8
 71
     3
 72
     8
 73
     4
 74
     0
 42
0.000000001
 43
0.00000001
 40
0.0022004178475365
 40
0.0022004178475365
 40
0.0022004178475365
 40
0.0022004178475365
 40
0.0157610808679147
 40
0.0157610808679147
 40
0.0157610808679147
 40
0.0157610808679147
 10
-30.37801673617876
 20
-43.46844098982517
 30
0.0
 10
-30.53575505025505
 20
-43.53103166923403
 30
0.0
 10
-30.69349374163871
 20
-43.59284580601294
 30
0.0
 10
-30.85123277131379
 20
-43.65393786951079
 30
0.0
  0
SPLINE
  5
1E9
330
23
100
AcDbEntity
  8
0
  6
Continuous
 62
     7
370
    25
100
AcDbSpline
210
0.0
220
0.0
230
1.0
 70
     8
 71
     3
 72
     8
 73
     4
 74
     0
 42
0.000000001
 43
0.00000001
 40
0.0022004178475365
 40
0.0022004178475365
 40
0.0022004178475365
 40
0.0022004178475365
 40
0.0157610808679147
 40
0.0157610808679147
 40
0.0157610808679147
 40
0.0157610808679147
 10
-14.32444880644882
 20
-43.46844098982517
 30
0.0
 10
-14.16671049237253
 20
-43.53103166923403
 30
0.0
 10
-14.00897180098887
 20
-43.59284580601293
 30
0.0
 10
-13.85123277131379
 20
-43.65393786951078
 30
0.0
  0
LINE
  5
1EB
330
23
100
AcDbEntity
  8
0
  6
Continuous
 62
     7
370
    25
100
AcDbLine
 10
-47.3512327713
 20
25.5920288229
 30
0.0
 11
-47.3512327713
 21
20.5920288229
 31
0.0
  0
LINE
  5
1EC
330
23
100
AcDbEntity
  8
0
  6
Continuous
 62
     7
370
    25
100
AcDbLine
 10
2.6487672287
 20
20.5920288229
 30
0.0
 11
2.6487672287
 21
25.5920288229
 31
0.0
  0
LINE
  5
1ED
330
23
100
AcDbEntity
  8
0
  6
Continuous
 62
     7
370
    25
100
AcDbLine
 10
-38.1012327713
 20
20.5920288229
 30
0.0
 11
-38.1012327713
 21
-48.4079711771
 31
0.0
  0
LINE
  5
1EE
330
23
100
AcDbEntity
  8
0
  6
Continuous
 62
     7
370
    25
100
AcDbLine
 10
-6.6012327713
 20
-48.4079711771
 30
0.0
 11
-6.6012327713
 21
20.5920288229
 31
0.0
  0
LINE
  5
1EF
330
23
100
AcDbEntity
  8
0
  6
Continuous
 62
     7
370
    25
100
AcDbLine
 10
-11.8512327713
 20
43.6697946115
 30
0.0
 11
-11.8512327713
 21
45.0142630343
 31
0.0
  0
LINE
  5
1F0
330
23
100
AcDbEntity
  8
0
  6
Continuous
 62
     7
370
    25
100
AcDbLine
 10
-11.8512327713
 20
41.1697946115
 30
0.0
 11
-11.8512327713
 21
42.5142630343
 31
0.0
  0
LINE
  5
1F1
330
23
100
AcDbEntity
  8
0
  6
Continuous
 62
     7
370
    25
100
AcDbLine
 10
-11.8512327713
 20
38.6697946115
 30
0.0
 11
-11.8512327713
 21
40.0142630343
 31
0.0
  0
LINE
  5
1F2
330
23
100
AcDbEntity
  8
0
  6
Continuous
 62
     7
370
    25
100
AcDbLine
 10
-11.8512327713
 20
36.1697946115
 30
0.0
 11
-11.8512327713
 21
37.5142630343
 31
0.0
  0
LINE
  5
1F3
330
23
100
AcDbEntity
  8
0
  6
Continuous
 62
     7
370
    25
100
AcDbLine
 10
-11.8512327713
 20
33.6697946115
 30
0.0
 11
-11.8512327713
 21
35.0142630343
 31
0.0
  0
LINE
  5
1F4
330
23
100
AcDbEntity
  8
0
  6
Continuous
 62
     7
370
    25
100
AcDbLine
 10
-11.8512327713
 20
31.1697946115
 30
0.0
 11
-11.8512327713
 21
32.5142630343
 31
0.0
  0
LINE
  5
1F5
330
23
100
AcDbEntity
  8
0
  6
Continuous
 62
     7
370
    25
100
AcDbLine
 10
-11.8512327713
 20
28.6697946115
 30
0.0
 11
-11.8512327713
 21
30.0142630343
 31
0.0
  0
LINE
  5
1F6
330
23
100
AcDbEntity
  8
0
  6
Continuous
 62
     7
370
    25
100
AcDbLine
 10
-11.8512327713
 20
26.1697946115
 30
0.0
 11
-11.8512327713
 21
27.5142630343
 31
0.0
  0
LINE
  5
1F7
330
23
100
AcDbEntity
  8
0
  6
Continuous
 62
     7
370
    25
100
AcDbLine
 10
-32.8512327713
 20
26.2642630343
 30
0.0
 11
-32.8512327713
 21
25.5920288229
 31
0.0
  0
LINE
  5
1F8
330
23
100
AcDbEntity
  8
0
  6
Continuous
 62
     7
370
    25
100
AcDbLine
 10
-32.8512327713
 20
28.7642630343
 30
0.0
 11
-32.8512327713
 21
27.432234116
 31
0.0
  0
LINE
  5
1F9
330
23
100
AcDbEntity
  8
0
  6
Continuous
 62
     7
370
    25
100
AcDbLine
 10
-32.8512327713
 20
31.2642630343
 30
0.0
 11
-32.8512327713
 21
29.932234116
 31
0.0
  0
LINE
  5
1FA
330
23
100
AcDbEntity
  8
0
  6
Continuous
 62
     7
370
    25
100
AcDbLine
 10
-32.8512327713
 20
33.7642630343
 30
0.0
 11
-32.8512327713
 21
32.432234116
 31
0.0
  0
LINE
  5
1FB
330
23
100
AcDbEntity
  8
0
  6
Continuous
 62
     7
370
    25
100
AcDbLine
 10
-32.8512327713
 20
36.2642630343
 30
0.0
 11
-32.8512327713
 21
34.932234116
 31
0.0
  0
LINE
  5
1FC
330
23
100
AcDbEntity
  8
0
  6
Continuous
 62
     7
370
    25
100
AcDbLine
 10
-32.8512327713
 20
38.7642630343
 30
0.0
 11
-32.8512327713
 21
37.432234116
 31
0.0
  0
LINE
  5
1FD
330
23
100
AcDbEntity
  8
0
  6
Continuous
 62
     7
370
    25
100
AcDbLine
 10
-32.8512327713
 20
41.2642630343
 30
0.0
 11
-32.8512327713
 21
39.932234116
 31
0.0
  0
LINE
  5
1FE
330
23
100
AcDbEntity
  8
0
  6
Continuous
 62
     7
370
    25
100
AcDbLine
 10
-32.8512327713
 20
43.7642630343
 30
0.0
 11
-32.8512327713
 21
42.432234116
 31
0.0
  0
LINE
  5
1FF
330
23
100
AcDbEntity
  8
0
  6
Continuous
 62
     7
370
    25
100
AcDbLine
 10
-32.8512327713
 20
45.5920288229
 30
0.0
 11
-32.8512327713
 21
44.932234116
 31
0.0
  0
LINE
  5
200
330
23
100
AcDbEntity
  8
0
  6
Continuous
 62
     7
370
    25
100
AcDbLine
 10
2.6487672287
 20
20.5920288229
 30
0.0
 11
-47.3512327713
 21
20.5920288229
 31
0.0
  0
LINE
  5
201
330
23
100
AcDbEntity
  8
0
  6
Continuous
 62
     7
370
    25
100
AcDbLine
 10
2.6487672287
 20
25.5920288229
 30
0.0
 11
-47.3512327713
 21
25.5920288229
 31
0.0
  0
LINE
  5
202
330
23
100
AcDbEntity
  8
0
  6
Continuous
 62
     7
370
    25
100
AcDbLine
 10
-30.8512327713
 20
-43.6539378695
 30
0.0
 11
-30.8512327713
 21
-48.4079711771
 31
0.0
  0
LINE
  5
203
330
23
100
AcDbEntity
  8
0
  6
Continuous
 62
     7
370
    25
100
AcDbLine
 10
-30.3780167362
 20
-48.4079711771
 30
0.0
 11
-38.1012327713
 21
-48.4079711771
 31
0.0
  0
LINE
  5
204
330
23
100
AcDbEntity
  8
0
  6
Continuous
 62
     7
370
    25
100
AcDbLine
 10
-30.3780167362
 20
-43.4684409898
 30
0.0
 11
-30.3780167362
 21
-48.4079711771
 31
0.0
  0
LINE
  5
205
330
23
100
AcDbEntity
  8
0
  6
Continuous
 62
     7
370
    25
100
AcDbLine
 10
-14.3244488064
 20
-48.4079711771
 30
0.0
 11
-14.3244488064
 21
-43.4684409898
 31
0.0
  0
LINE
  5
206
330
23
100
AcDbEntity
  8
0
  6
Continuous
 62
     7
370
    25
100
AcDbLine
 10
-6.6012327713
 20
-48.4079711771
 30
0.0
 11
-14.3244488064
 21
-48.4079711771
 31
0.0
  0
LINE
  5
207
330
23
100
AcDbEntity
  8
0
  6
Continuous
 62
     7
370
    25
100
AcDbLine
 10
-13.8512327713
 20
-48.4079711771
 30
0.0
 11
-13.8512327713
 21
-43.6539378695
 31
0.0
  0
LINE
  5
208
330
23
100
AcDbEntity
  8
0
  6
Continuous
 62
     7
370
    25
100
AcDbLine
 10
-10.8512327713
 20
45.5920288229
 30
0.0
 11
-12.3512327713
 21
46.4574331076
 31
0.0
  0
LINE
  5
209
330
23
100
AcDbEntity
  8
0
  6
Continuous
 62
     7
370
    25
100
AcDbLine
 10
-32.8512327713
 20
45.5920288229
 30
0.0
 11
-21.1256716137
 21
45.5920288229
 31
0.0
  0
VIEWPORT
  5
256
330
23
100
AcDbEntity
  8
0
100
AcDbViewport
 10
0.0
 20
0.0
 30
0.0
 40
205.6
 41
156.0
 68
     1
 69
     1
 12
-22.3512327713
 22
20.5504439222
 13
0.0
 23
0.0
 14
10.0
 24
10.0
 15
10.0
 25
10.0
 16
0.0
 26
0.0
 36
1.0
 17
0.0
 27
0.0
 37
0.0
 42
50.0
 43
0.0
 44
0.0
 45
57.2376811243
 50
0.0
 51
0.0
 72
   100
 90
   557152
  1

281
     0
 71
     1
 74
     0
110
0.0
120
0.0
130
0.0
111
1.0
121
0.0
131
0.0
112
0.0
122
1.0
132
0.0
 79
     0
146
0.0
  0
ENDBLK
  5
25
330
23
100
AcDbEntity
  8
0
100
AcDbBlockEnd
  0
BLOCK
  5
20C
330
20A
100
AcDbEntity
  8
0
100
AcDbBlockBegin
  2
*Paper_Space1
 70
     0
 10
0.0
 20
0.0
 30
0.0
  3
*Paper_Space1
  1

  0
LWPOLYLINE
  5
214
330
20A
100
AcDbEntity
  8
0
  6
Continuous
 62
     7
370
    25
100
AcDbPolyline
 90
       84
 70
   128
 43
0.0
 10
-0.6795845421
 20
16.0777025987
 10
0.3374045578
 20
15.5620417197
 10
1.3491405733
 20
15.1169531794
 10
2.3522626192
 20
14.7439155171
 10
3.3434384249
 20
14.4441679264
 10
4.3193754041
 20
14.2187061386
 10
5.2768315922
 20
14.0682791152
 10
6.2126264161
 20
13.9933865595
 10
7.1236512595
 20
13.9942772572
 10
8.0068797895
 20
14.0709482494
 10
8.8593780098
 20
14.2231448428
 10
9.6783140068
 20
14.4503614556
 10
10.4609673578
 20
14.751843297
 10
11.2047381669
 20
15.1265888748
 10
11.9071557022
 20
15.5733533218
 10
12.5658866035
 20
16.0906525314
 10
13.1787426328
 20
16.6767680876
 10
13.7436879441
 20
17.3297529736
 10
14.2588458458
 20
18.0474380393
 10
14.7225050353
 20
18.8274392069
 10
15.1331252833
 20
19.6671653911
 10
15.4893425507
 20
20.5638271059
 10
15.7899735194
 20
21.5144457314
 10
16.0340195238
 20
22.5158634079
 10
16.2206698674
 20
23.5647535267
 10
16.3493045167
 20
24.6576317804
 10
16.4194961602
 20
25.7908677372
 10
16.4310116283
 20
26.9606969012
 10
16.3838126679
 20
28.1632332177
 10
16.2780560692
 20
29.394481982
 10
16.1140931449
 20
30.6503531094
 10
15.8924685633
 20
31.9266747223
 10
15.6139185391
 20
33.2192070088
 10
15.2793683874
 20
34.5236563065
 10
14.8899294501
 20
35.8356893661
 10
14.4468954044
 20
37.1509477456
 10
13.9517379646
 20
38.4650622891
 10
13.406101994
 20
39.7736676402
 10
12.8118000405
 20
41.0724167434
 10
12.1708063154
 20
42.3569952849
 10
11.4852501353
 20
43.623136024
 10
10.7574088489
 20
44.8666329684
 10
9.9897002719
 20
46.0833553464
 10
9.1846746548
 20
47.2692613285
 10
8.3450062119
 20
48.4204114543
 10
7.4734842372
 20
49.532981719
 10
6.5730038392
 20
50.6032762759
 10
5.6465563231
 20
51.6277397143
 10
4.6972192544
 20
52.6029688695
 10
3.7281462354
 20
53.5257241284
 10
2.7425564292
 20
54.3929401908
 10
1.743723866
 20
55.2017362522
 10
0.7349665671
 20
55.9494255733
 10
-0.2803644771
 20
56.6335244056
 10
-1.298896439
 20
57.2517602414
 10
-2.3172458579
 20
57.8020793634
 10
-3.3320298794
 20
58.2826536669
 10
-4.3398774931
 20
58.6918867324
 10
-5.3374407306
 20
59.0284191288
 10
-6.321405787
 20
59.2911329293
 10
-7.2885040294
 20
59.4791554251
 10
-8.2355228548
 20
59.5918620244
 10
-9.1593163618
 20
59.6288783271
 10
-10.0568158012
 20
59.5900813689
 10
-10.9250397703
 20
59.4756000293
 10
-11.7611041163
 20
59.2858146038
 10
-12.5622315175
 20
59.0213555406
 10
-13.3257607092
 20
58.683101346
 10
-14.0491553244
 20
58.2721756665
 10
-14.7300123187
 20
57.7899435558
 10
-15.3660699538
 20
57.2380069405
 10
-15.9552153101
 20
56.6181992986
 10
-16.495491306
 20
55.9325795686
 10
-16.9851031991
 20
55.1834253105
 10
-17.4224245477
 20
54.3732251393
 10
-17.8060026144
 20
53.5046704584
 10
-18.1345631915
 20
52.5806465193
 10
-18.4070148337
 20
51.6042228364
 10
-18.622452484
 20
50.5786429912
 10
-18.7801604803
 20
49.5073138566
 10
-18.8796149325
 20
48.3937942803
 10
-18.9204854628
 20
47.2417832624
 10
-18.9026363035
 20
46.0551076677
 10
-18.8265330525
 20
44.8424446616
  0
LWPOLYLINE
  5
216
330
20A
100
AcDbEntity
  8
0
  6
Continuous
 62
     7
370
    25
100
AcDbPolyline
 90
       56
 70
   128
 43
0.0
 10
14.7905730225
 20
17.1964145248
 10
15.4426896082
 20
17.6143736013
 10
16.1014205094
 20
18.1316728109
 10
16.7142765387
 20
18.7177883672
 10
17.27922185
 20
19.3707732532
 10
17.7943797518
 20
20.0884583188
 10
18.2580389412
 20
20.8684594865
 10
18.6686591892
 20
21.7081856707
 10
19.0248764566
 20
22.6048473855
 10
19.3255074254
 20
23.5554660109
 10
19.5695534297
 20
24.5568836874
 10
19.7562037734
 20
25.6057738063
 10
19.8848384226
 20
26.6986520599
 10
19.9550300661
 20
27.8318880167
 10
19.9665455343
 20
29.0017171808
 10
19.9193465739
 20
30.2042534973
 10
19.8135899751
 20
31.4355022615
 10
19.6496270508
 20
32.6913733889
 10
19.4280024692
 20
33.9676950019
 10
19.149452445
 20
35.2602272883
 10
18.8149022933
 20
36.564676586
 10
18.4254633561
 20
37.8767096456
 10
17.9824293103
 20
39.1919680252
 10
17.4872718705
 20
40.5060825687
 10
16.9416359
 20
41.8146879197
 10
16.3473339464
 20
43.113437023
 10
15.7063402213
 20
44.3980155645
 10
15.0207840412
 20
45.6641563036
 10
14.2929427549
 20
46.907653248
 10
13.5252341778
 20
48.1243756259
 10
12.7202085608
 20
49.310281608
 10
11.8805401178
 20
50.4614317339
 10
11.0090181432
 20
51.5740019986
 10
10.1085377451
 20
52.6442965555
 10
9.182090229
 20
53.6687599938
 10
8.2327531603
 20
54.643989149
 10
7.2636801413
 20
55.5667444079
 10
6.2780903351
 20
56.4339604703
 10
5.2792577719
 20
57.2427565317
 10
4.2705004731
 20
57.9904458529
 10
3.2551694289
 20
58.6745446851
 10
2.2366374669
 20
59.2927805209
 10
1.218288048
 20
59.843099643
 10
0.2035040265
 20
60.3236739465
 10
-0.8043435872
 20
60.732907012
 10
-1.8019068246
 20
61.0694394084
 10
-2.7858718811
 20
61.3321532089
 10
-3.7529701235
 20
61.5201757047
 10
-4.6999889489
 20
61.6328823039
 10
-5.6237824558
 20
61.6698986067
 10
-6.5212818953
 20
61.6311016484
 10
-7.3895058644
 20
61.5166203088
 10
-8.2255702104
 20
61.3268348834
 10
-9.0266976116
 20
61.0623758201
 10
-9.7902268033
 20
60.7241216256
 10
-10.2073952934
 20
60.4988576438
  0
LWPOLYLINE
  5
218
330
20A
100
AcDbEntity
  8
0
  6
Continuous
 62
     7
370
    25
100
AcDbPolyline
 90
       29
 70
   128
 43
0.0
 10
-56.0447205834
 20
22.9371366544
 10
-56.7102394288
 20
22.7882744517
 10
-57.3404490766
 20
22.5645843887
 10
-57.932016327
 20
22.2672495696
 10
-58.4818123611
 20
21.8978426083
 10
-58.9869292894
 20
21.4583173103
 10
-59.4446955316
 20
20.9509983398
 10
-59.8526899468
 20
20.3785689236
 10
-60.208754639
 20
19.7440566599
 10
-60.5110063701
 20
19.0508175053
 10
-60.7578465207
 20
18.3025180247
 10
-60.9479695449
 20
17.5031159991
 10
-61.0803698758
 20
16.6568394923
 10
-61.1543472437
 20
15.7681644891
 10
-61.1695103796
 20
14.841791221
 10
-61.1257790854
 20
13.8826193072
 10
-61.0233846573
 20
12.8957218399
 10
-60.8628686628
 20
11.8863185526
 10
-60.6450800764
 20
10.8597482131
 10
-60.3711707892
 20
9.8214403859
 10
-60.0425895164
 20
8.7768867158
 10
-59.6610741355
 20
7.7316118819
 10
-59.2286424939
 20
6.6911443777
 10
-58.747581737
 20
5.6609872705
 10
-58.2204362112
 20
4.6465890954
 10
-57.6499940068
 20
3.6533150384
 10
-57.0392722115
 20
2.6864185588
 10
-56.3915009533
 20
1.7510136044
 10
-55.710106316
 20
0.8520475632
  0
SPLINE
  5
21A
330
20A
100
AcDbEntity
  8
0
  6
Continuous
 62
     7
370
    25
100
AcDbSpline
210
0.0
220
0.0
230
1.0
 70
     8
 71
     3
 72
    21
 73
    17
 74
     0
 42
0.000000001
 43
0.00000001
 40
0.0
 40
0.0
 40
0.0
 40
0.0
 40
0.0078197208013914
 40
0.0797326745143655
 40
0.1522896335836072
 40
0.246233758616098
 40
0.3425710809824677
 40
0.4366544328091023
 40
0.534003244713832
 40
0.6211433443660273
 40
0.710054937823132
 40
0.7777966345960273
 40
0.8460506937892861
 40
0.9157512594991445
 40
0.985906729140978
 40
1.0
 40
1.0
 40
1.0
 40
1.0
 10
-44.02390530319684
 20
9.695580932998833
 30
0.0
 10
-44.05891117197378
 20
9.70309979478232
 30
0.0
 10
-44.41584355001827
 20
9.77976480297477
 30
0.0
 10
-45.0856790385376
 20
9.862204872137077
 30
0.0
 10
-46.11921031612533
 20
9.924473787034259
 30
0.0
 10
-47.22288967367415
 20
9.842936206966291
 30
0.0
 10
-48.34965393867126
 20
9.545335133745711
 30
0.0
 10
-49.3833084961386
 20
9.007324885306831
 30
0.0
 10
-50.24452665974323
 20
8.269401843061232
 30
0.0
 10
-50.93731345915765
 20
7.382345103910986
 30
0.0
 10
-51.42362265243059
 20
6.490506294966558
 30
0.0
 10
-51.76684442675428
 20
5.613365487308293
 30
0.0
 10
-51.9997529052502
 20
4.781215264659487
 30
0.0
 10
-52.15326547434614
 20
3.920804379281141
 30
0.0
 10
-52.20790247289341
 20
3.278131886000947
 30
0.0
 10
-52.2159798306814
 20
2.927104303703756
 30
0.0
 10
-52.21733102466311
 20
2.868383819968432
 30
0.0
  0
LWPOLYLINE
  5
21B
330
20A
100
AcDbEntity
  8
0
  6
Continuous
 62
     7
370
    25
100
AcDbPolyline
 90
       29
 70
   128
 43
0.0
 10
-44.3585195706
 20
-5.7010839775
 10
-43.6771249332
 20
-5.5888394388
 10
-43.029353675
 20
-5.4013352597
 10
-42.4186318798
 20
-5.1395631559
 10
-41.8481896753
 20
-4.804907649
 10
-41.3210441495
 20
-4.399138743
 10
-40.8399833927
 20
-3.9244025631
 10
-40.4075517511
 20
-3.3832100049
 10
-40.0260363702
 20
-2.7784234539
 10
-39.6974550974
 20
-2.1132416461
 10
-39.4235458101
 20
-1.3911827505
 10
-39.2057572237
 20
-0.6160657604
 10
-39.0452412292
 20
0.2080097044
 10
-38.9428468011
 20
1.0766850814
 10
-38.8991155069
 20
1.9853659177
 10
-38.9142786429
 20
2.9292461699
 10
-38.9882560107
 20
3.903333624
 10
-39.1206563416
 20
4.902476299
 10
-39.3107793659
 20
5.921389696
 10
-39.5576195164
 20
6.9546847481
 10
-39.8598712476
 20
7.9968963233
 10
-40.2159359397
 20
9.04251213
 10
-40.6239303549
 20
10.0860018713
 10
-41.0816965971
 20
11.1218464951
 10
-41.5868135254
 20
12.1445673847
 10
-42.1366095596
 20
13.1487553354
 10
-42.72817681
 20
14.1290991635
 10
-43.3583864578
 20
15.080413798
 10
-44.0239053032
 20
15.9976677039
  0
SPLINE
  5
21D
330
20A
100
AcDbEntity
  8
0
  6
Continuous
 62
     7
370
    25
100
AcDbSpline
210
0.0
220
0.0
230
1.0
 70
     8
 71
     3
 72
    80
 73
    76
 74
     0
 42
0.000000001
 43
0.00000001
 40
0.0
 40
0.0
 40
0.0
 40
0.0
 40
0.0312500000000009
 40
0.0312500000000009
 40
0.0625000000000018
 40
0.0625000000000018
 40
0.0937500000000027
 40
0.0937500000000027
 40
0.1250000000000036
 40
0.1250000000000036
 40
0.1406250000000039
 40
0.1406250000000039
 40
0.1562500000000041
 40
0.1562500000000041
 40
0.1875000000000043
 40
0.1875000000000043
 40
0.2187500000000044
 40
0.2187500000000044
 40
0.2500000000000046
 40
0.2500000000000046
 40
0.2812500000000047
 40
0.2812500000000047
 40
0.3125000000000048
 40
0.3125000000000048
 40
0.3750000000000052
 40
0.3750000000000052
 40
0.4062500000000053
 40
0.4062500000000053
 40
0.4375000000000053
 40
0.4375000000000053
 40
0.4687500000000054
 40
0.4687500000000054
 40
0.5000000000000054
 40
0.5000000000000054
 40
0.5312500000000056
 40
0.5312500000000056
 40
0.5625000000000056
 40
0.5625000000000056
 40
0.5781250000000056
 40
0.5781250000000056
 40
0.5937500000000056
 40
0.5937500000000056
 40
0.6250000000000056
 40
0.6250000000000056
 40
0.6406250000000056
 40
0.6406250000000056
 40
0.6562500000000054
 40
0.6562500000000054
 40
0.6875000000000052
 40
0.6875000000000052
 40
0.718750000000005
 40
0.718750000000005
 40
0.7500000000000048
 40
0.7500000000000048
 40
0.7812500000000046
 40
0.7812500000000046
 40
0.8125000000000043
 40
0.8125000000000043
 40
0.8281250000000041
 40
0.8281250000000041
 40
0.8437500000000039
 40
0.8437500000000039
 40
0.875000000000003
 40
0.875000000000003
 40
0.8906250000000028
 40
0.8906250000000028
 40
0.9062500000000024
 40
0.9062500000000024
 40
0.9375000000000017
 40
0.9375000000000017
 40
0.9531250000000012
 40
0.9531250000000012
 40
0.9687500000000008
 40
0.9687500000000008
 40
1.0
 40
1.0
 40
1.0
 40
1.0
 10
-40.66229611341665
 20
17.93828338203085
 30
0.0
 10
-40.12771230095159
 20
17.76392399322937
 30
0.0
 10
-39.60120106257288
 20
17.61046774976337
 30
0.0
 10
-38.55912300558163
 20
17.35387387066121
 30
0.0
 10
-38.04358894910657
 20
17.2506282940164
 30
0.0
 10
-37.0184240994072
 20
17.10997622561552
 30
0.0
 10
-36.50755540787434
 20
17.07321362195096
 30
0.0
 10
-35.51964015426922
 20
17.0891038569109
 30
0.0
 10
-35.03862984607045
 20
17.14093425693251
 30
0.0
 10
-34.3359251670437
 20
17.30281065050877
 30
0.0
 10
-34.10457949675602
 20
17.37122125033053
 30
0.0
 10
-33.66003897071365
 20
17.53488815933988
 30
0.0
 10
-33.44533690903938
 20
17.63041370730657
 30
0.0
 10
-32.82369733726983
 20
17.95842829566661
 30
0.0
 10
-32.43909505352635
 20
18.23245786685625
 30
0.0
 10
-31.73138508566704
 20
18.89068910106489
 30
0.0
 10
-31.42052382017232
 20
19.26316658950286
 30
0.0
 10
-30.87619057583283
 20
20.07412946123537
 30
0.0
 10
-30.64135368110351
 20
20.51643446709408
 30
0.0
 10
-30.25442945432185
 20
21.4278689939563
 30
0.0
 10
-30.10041865655822
 20
21.89877216384022
 30
0.0
 10
-29.86442950335811
 20
22.86051086328479
 30
0.0
 10
-29.78245198691043
 20
23.35200465861123
 30
0.0
 10
-29.64621286616379
 20
24.84258766128751
 30
0.0
 10
-29.70140446359201
 20
25.82217839388478
 30
0.0
 10
-30.01470457225256
 20
27.23705807112854
 30
0.0
 10
-30.15981732621255
 20
27.70145194479135
 30
0.0
 10
-30.52611098746571
 20
28.57646700875499
 30
0.0
 10
-30.747677034498
 20
28.99075292388338
 30
0.0
 10
-31.27349173518813
 20
29.76635998107961
 30
0.0
 10
-31.58084083711413
 20
30.12936946229366
 30
0.0
 10
-32.25905623838589
 20
30.76720000243693
 30
0.0
 10
-32.63179461173436
 20
31.0460109869996
 30
0.0
 10
-33.44591591297123
 20
31.52099536254472
 30
0.0
 10
-33.89177358749066
 20
31.71773258073126
 30
0.0
 10
-34.81709634144085
 20
32.01217659491756
 30
0.0
 10
-35.29957993159194
 20
32.11264712603032
 30
0.0
 10
-36.05216625302433
 20
32.19777874923945
 30
0.0
 10
-36.30899460574633
 20
32.21518444211848
 30
0.0
 10
-36.82561406748859
 20
32.22834933965235
 30
0.0
 10
-37.08541912073208
 20
32.22424128535332
 30
0.0
 10
-37.8693659559619
 20
32.18229483441245
 30
0.0
 10
-38.3979920191522
 20
32.11496295885127
 30
0.0
 10
-39.20093115191088
 20
31.96166152197763
 30
0.0
 10
-39.47067564681679
 20
31.90165000977814
 30
0.0
 10
-40.0067818943896
 20
31.76687031039681
 30
0.0
 10
-40.27399503328388
 20
31.69196708478127
 30
0.0
 10
-41.07384840592429
 20
31.44679672295059
 30
0.0
 10
-41.60467801854516
 20
31.25614343017798
 30
0.0
 10
-42.66570344800103
 20
30.8289795613091
 30
0.0
 10
-43.19718648323644
 20
30.59151908794822
 30
0.0
 10
-44.23636992346656
 20
30.09206455115244
 30
0.0
 10
-44.7475427805439
 20
29.82875264424125
 30
0.0
 10
-45.75775916806628
 20
29.28510770482314
 30
0.0
 10
-46.25710324263745
 20
29.00456903319604
 30
0.0
 10
-47.24664418996628
 20
28.43729468175201
 30
0.0
 10
-47.7218459561234
 20
28.15939549871492
 30
0.0
 10
-48.40551075404158
 20
27.76017261258146
 30
0.0
 10
-48.62851099308109
 20
27.63001316291375
 30
0.0
 10
-49.06433970403623
 20
27.37663387360274
 30
0.0
 10
-49.27597655260661
 20
27.25412078225404
 30
0.0
 10
-49.8798229338099
 20
26.90643279515841
 30
0.0
 10
-50.24623658181794
 20
26.69832346148442
 30
0.0
 10
-50.74377972584379
 20
26.41546594651694
 30
0.0
 10
-50.90137123994751
 20
26.32573807013654
 30
0.0
 10
-51.19321775401387
 20
26.15776010156562
 30
0.0
 10
-51.32834007641893
 20
26.07901549758224
 30
0.0
 10
-51.70378374737214
 20
25.85465660792514
 30
0.0
 10
-51.9144212343464
 20
25.72081401509499
 30
0.0
 10
-52.1756627276478
 20
25.53048298306247
 30
0.0
 10
-52.25364764939415
 20
25.46869191413853
 30
0.0
 10
-52.38991811781732
 20
25.34811695141899
 30
0.0
 10
-52.44847391368142
 20
25.28915841697038
 30
0.0
 10
-52.59639758477428
 20
25.11350147597827
 30
0.0
 10
-52.65823831325926
 20
24.99797347986771
 30
0.0
 10
-52.68311139358794
 20
24.87775233252389
 30
0.0
  0
LWPOLYLINE
  5
21E
330
20A
100
AcDbEntity
  8
0
  6
Continuous
 62
     7
370
    25
100
AcDbPolyline
 90
       34
 70
   128
 43
0.0
 10
9.8929867623
 20
30.3774019242
 10
9.8632765874
 20
31.3333107856
 10
9.7743045793
 20
32.3184220975
 10
9.6265454422
 20
33.3274798648
 10
9.4207875349
 20
34.3551003276
 10
9.1581286651
 20
35.3958006862
 10
8.8399702313
 20
36.4440283539
 10
8.4680097465
 20
37.4941905825
 10
8.0442317809
 20
38.5406843022
 10
7.5708973731
 20
39.5779260161
 10
7.0505319671
 20
40.600381591
 10
6.4859119375
 20
41.602595784
 10
5.8800497763
 20
42.5792213487
 10
5.2361780205
 20
43.5250475652
 10
4.5577320044
 20
44.4350280413
 10
3.848331531
 20
45.3043076376
 10
3.1117615588
 20
46.1282483712
 10
2.3519520073
 20
46.9024541618
 10
1.5729567892
 20
47.6227942866
 10
0.778932181
 20
48.2854254194
 10
-0.0258853524
 20
48.8868121363
 10
-0.8372017613
 20
49.423745779
 10
-1.6506883215
 20
49.8933615741
 10
-2.4620047304
 20
50.2931539184
 10
-3.2668222638
 20
50.6209897465
 10
-4.060846872
 20
50.8751199125
 10
-4.8398420901
 20
51.0541885221
 10
-5.5996516416
 20
51.1572401667
 10
-6.3362216138
 20
51.1837250212
 10
-7.0456220872
 20
51.1335017774
 10
-7.7240681033
 20
51.0068383981
 10
-8.3679398592
 20
50.8044106872
 10
-8.9738020203
 20
50.5272986842
 10
-9.1183050609
 20
50.4468853873
  0
LWPOLYLINE
  5
222
330
20A
100
AcDbEntity
  8
0
  6
Continuous
 62
     7
370
    25
100
AcDbPolyline
 90
       29
 70
   128
 43
0.0
 10
-32.5867616253
 20
18.1448817648
 10
-33.0637501948
 20
18.4374332887
 10
-33.7882987055
 20
18.8213712576
 10
-34.5670241662
 20
19.1681660774
 10
-35.3942308904
 20
19.4752812516
 10
-36.2638685946
 20
19.7404705051
 10
-37.1695766501
 20
19.9617942134
 10
-38.1047306055
 20
20.1376335901
 10
-39.0624906387
 20
20.2667025259
 10
-40.0358515846
 20
20.348056996
 10
-41.0176941707
 20
20.3811019647
 10
-42.0008370892
 20
20.3655957372
 10
-42.9780895213
 20
20.3016517279
 10
-43.9423037322
 20
20.1897376306
 10
-44.8864273497
 20
20.0306719975
 10
-45.8035549468
 20
19.8256182528
 10
-46.6869785483
 20
19.5760761828
 10
-47.530236694
 20
19.2838709664
 10
-48.3271616981
 20
18.9511398257
 10
-49.071924761
 20
18.5803163941
 10
-49.7590786011
 20
18.1741129159
 10
-50.3835972976
 20
17.7355004097
 10
-50.9409130498
 20
17.2676869368
 10
-51.4269495872
 20
16.774094138
 10
-51.8381519835
 20
16.2583322071
 10
-52.1715126577
 20
15.7241734851
 10
-52.4245933723
 20
15.1755248695
 10
-52.595543066
 20
14.6163992385
 10
-52.6831113936
 20
14.0508861002
  0
SPLINE
  5
224
330
20A
100
AcDbEntity
  8
0
  6
Continuous
 62
     7
370
    25
100
AcDbSpline
210
0.0
220
0.0
230
1.0
 70
     8
 71
     3
 72
     8
 73
     4
 74
     0
 42
0.000000001
 43
0.00000001
 40
0.0022004178475365
 40
0.0022004178475365
 40
0.0022004178475365
 40
0.0022004178475365
 40
0.0157610808679147
 40
0.0157610808679147
 40
0.0157610808679147
 40
0.0157610808679147
 10
-52.21733102466311
 20
2.868383819968435
 30
0.0
 10
-52.37312715004847
 20
6.595566336671466
 30
0.0
 10
-52.52837444367091
 20
10.3230748176975
 30
0.0
 10
-52.68311139358795
 20
14.05088610021408
 30
0.0
  0
SPLINE
  5
228
330
20A
100
AcDbEntity
  8
0
  6
Continuous
 62
     7
370
    25
100
AcDbSpline
210
0.0
220
0.0
230
1.0
 70
     8
 71
     3
 72
    21
 73
    17
 74
     0
 42
0.000000001
 43
0.00000001
 40
0.0
 40
0.0
 40
0.0
 40
0.0
 40
0.0704255997877014
 40
0.1417282422013326
 40
0.2131355048276968
 40
0.2838681738509308
 40
0.3540493858093056
 40
0.4251922048378746
 40
0.4966483954036851
 40
0.5676355574674575
 40
0.6377500305588355
 40
0.7086785660568113
 40
0.7801277628108901
 40
0.8513156766175839
 40
0.935546501926849
 40
1.0
 40
1.0
 40
1.0
 40
1.0
 10
-23.71040400082027
 20
-0.3739838448810137
 30
0.0
 10
-23.34279841658265
 20
-0.5542877775853057
 30
0.0
 10
-22.60300928543649
 20
-0.9171410514118711
 30
0.0
 10
-21.31500414535531
 20
-1.33365902258472
 30
0.0
 10
-19.93004421674675
 20
-1.642946450759617
 30
0.0
 10
-18.47397687934529
 20
-1.828839998337516
 30
0.0
 10
-16.9771070845077
 20
-1.89153583626088
 30
0.0
 10
-15.46336780759872
 20
-1.824064862004753
 30
0.0
 10
-13.96539176858908
 20
-1.6269817013395
 30
0.0
 10
-12.52862756449228
 20
-1.306062766912482
 30
0.0
 10
-11.17949933613539
 20
-0.8702633718020227
 30
0.0
 10
-9.941202977977948
 20
-0.3216280649137766
 30
0.0
 10
-8.836476143149929
 20
0.3304283756070184
 30
0.0
 10
-7.847919916669926
 20
1.117092845314284
 30
0.0
 10
-7.066823921636841
 20
1.952862681985388
 30
0.0
 10
-6.760460556981635
 20
2.570228625435586
 30
0.0
 10
-6.627654420569385
 20
2.83785196151691
 30
0.0
  0
SPLINE
  5
229
330
20A
100
AcDbEntity
  8
0
  6
Continuous
 62
     7
370
    25
100
AcDbSpline
210
0.0
220
0.0
230
1.0
 70
     8
 71
     3
 72
    25
 73
    21
 74
     0
 42
0.000000001
 43
0.00000001
 40
0.0
 40
0.0
 40
0.0
 40
0.0
 40
0.0489227475437759
 40
0.10606423304928
 40
0.1629135578904801
 40
0.2003675482427738
 40
0.2566821432674867
 40
0.3136980500374674
 40
0.3707976145246591
 40
0.4273577520750401
 40
0.4834769266606089
 40
0.5403650334653441
 40
0.5975037223207148
 40
0.6542673607650568
 40
0.7103331687867813
 40
0.7670499275265773
 40
0.8241830239031257
 40
0.8811071899558544
 40
0.9484608913114366
 40
1.0
 40
1.0
 40
1.0
 40
1.0
 10
-26.33199232934596
 20
4.137553522915061
 30
0.0
 10
-26.20892356176726
 20
3.910772813012945
 30
0.0
 10
-25.94211118713776
 20
3.419113548687774
 30
0.0
 10
-25.27708397637734
 20
2.720188281058564
 30
0.0
 10
-24.50664207479393
 20
2.125736298982338
 30
0.0
 10
-23.60951625044936
 20
1.594265690035034
 30
0.0
 10
-22.59597626949695
 20
1.12823420287457
 30
0.0
 10
-21.31690220867273
 20
0.7066072233004074
 30
0.0
 10
-19.92954055074472
 20
0.398693700217792
 30
0.0
 10
-18.4741100659445
 20
0.2124358422137471
 30
0.0
 10
-16.97707097687706
 20
0.1498368487609855
 30
0.0
 10
-15.46337758831083
 20
0.2172815726702235
 30
0.0
 10
-13.96538916116051
 20
0.4143718199498617
 30
0.0
 10
-12.52862825139451
 20
0.7352888698606598
 30
0.0
 10
-11.17949915072272
 20
1.171088763977344
 30
0.0
 10
-9.941203028296298
 20
1.71972393601607
 30
0.0
 10
-8.836476129752176
 20
2.371780412985553
 30
0.0
 10
-7.847919921007957
 20
3.158444872547097
 30
0.0
 10
-7.066823920787511
 20
3.994214712185619
 30
0.0
 10
-6.760460556724798
 20
4.611580655296887
 30
0.0
 10
-6.627654420569385
 20
4.879203991231283
 30
0.0
  0
SPLINE
  5
22A
330
20A
100
AcDbEntity
  8
0
  6
Continuous
 62
     7
370
    25
100
AcDbSpline
210
0.0
220
0.0
230
1.0
 70
     8
 71
     3
 72
    23
 73
    19
 74
     0
 42
0.000000001
 43
0.00000001
 40
0.0
 40
0.0
 40
0.0
 40
0.0
 40
0.063242873477724
 40
0.1051564568476686
 40
0.1681763500903234
 40
0.2319810592638609
 40
0.2958793871592457
 40
0.3591740593246175
 40
0.4219752636961743
 40
0.4856369559455441
 40
0.5495790666916222
 40
0.6131014703110971
 40
0.6758429538384446
 40
0.7393128958540592
 40
0.8032487482328671
 40
0.8669507932532717
 40
0.9423242034156596
 40
1.0
 40
1.0
 40
1.0
 40
1.0
 10
-25.24197112290305
 20
4.766809371307218
 30
0.0
 10
-24.96685959111407
 20
4.540484414227275
 30
0.0
 10
-24.50942063665142
 20
4.164164850077326
 30
0.0
 10
-23.6078478860134
 20
3.63622534853747
 30
0.0
 10
-22.59650412468979
 20
3.169393984418123
 30
0.0
 10
-21.3167597516405
 20
2.748011136759112
 30
0.0
 10
-19.92957835283658
 20
2.440031962173295
 30
0.0
 10
-18.47410006977236
 20
2.253791512596689
 30
0.0
 10
-16.97707368689514
 20
2.191187891469784
 30
0.0
 10
-15.46337685423035
 20
2.258633869741313
 30
0.0
 10
-13.96538935685817
 20
2.455723778389922
 30
0.0
 10
-12.52862819983983
 20
2.776640918351576
 30
0.0
 10
-11.17949916463867
 20
3.212440788623441
 30
0.0
 10
-9.941203024519712
 20
3.761075967105905
 30
0.0
 10
-8.836476130757728
 20
4.413132442333698
 30
0.0
 10
-7.84791992068237
 20
5.199796902380053
 30
0.0
 10
-7.066823920851256
 20
6.035566741876774
 30
0.0
 10
-6.760460556744074
 20
6.652932685004241
 30
0.0
 10
-6.627654420569387
 20
6.920556020945663
 30
0.0
  0
SPLINE
  5
22B
330
20A
100
AcDbEntity
  8
0
  6
Continuous
 62
     7
370
    25
100
AcDbSpline
210
0.0
220
0.0
230
1.0
 70
     8
 71
     3
 72
    21
 73
    17
 74
     0
 42
0.000000001
 43
0.00000001
 40
0.0
 40
0.0
 40
0.0
 40
0.0
 40
0.064861128445709
 40
0.136590591466952
 40
0.2084253009619088
 40
0.2795813787081374
 40
0.3501826983443908
 40
0.4217513812710864
 40
0.4936353115901867
 40
0.5650474057829669
 40
0.635581587050567
 40
0.706934703736469
 40
0.7788115983785874
 40
0.8504256460226406
 40
0.9351606805844827
 40
1.0
 40
1.0
 40
1.0
 40
1.0
 10
-23.6147899539455
 20
5.706161065483384
 30
0.0
 10
-23.27788076229506
 20
5.541358923609005
 30
0.0
 10
-22.56838607940951
 20
5.194303259098261
 30
0.0
 10
-21.31463034582062
 20
4.790672171355467
 30
0.0
 10
-19.93014340738779
 20
4.481036637165897
 30
0.0
 10
-18.47395064993116
 20
4.2952353948362
 30
0.0
 10
-16.97711419544831
 20
4.232515019451773
 30
0.0
 10
-15.46336588141133
 20
4.299992644752206
 30
0.0
 10
-13.96539228208911
 20
4.497074009883619
 30
0.0
 10
-12.52862742921558
 20
4.817993421790074
 30
0.0
 10
-11.17949937265006
 20
5.25379269046744
 30
0.0
 10
-9.941202968068387
 20
5.802428031522478
 30
0.0
 10
-8.836476145788442
 20
6.454484462808278
 30
0.0
 10
-7.847919915815607
 20
7.241148935086157
 30
0.0
 10
-7.066823921804102
 20
8.076918771005412
 30
0.0
 10
-6.760460557032217
 20
8.694284714541485
 30
0.0
 10
-6.627654420569385
 20
8.961908050660035
 30
0.0
  0
SPLINE
  5
22C
330
20A
100
AcDbEntity
  8
0
  6
Continuous
 62
     7
370
    25
100
AcDbSpline
210
0.0
220
0.0
230
1.0
 70
     8
 71
     3
 72
    22
 73
    18
 74
     0
 42
0.000000001
 43
0.00000001
 40
0.0
 40
0.0
 40
0.0
 40
0.0
 40
0.0117756331023912
 40
0.0827931218698015
 40
0.1531396992779072
 40
0.2229378297288139
 40
0.2936923183538674
 40
0.3647584679894056
 40
0.4353581492973542
 40
0.5050899051728609
 40
0.5756312799259184
 40
0.6466904739251834
 40
0.7174898111802104
 40
0.8012608656956354
 40
0.8858958283446005
 40
0.9711262148096552
 40
1.0
 40
1.0
 40
1.0
 40
1.0
 10
-21.51215151903051
 20
6.919988396918598
 30
0.0
 10
-21.44175069481209
 20
6.896246952022713
 30
0.0
 10
-20.94677059747309
 20
6.729323583780939
 30
0.0
 10
-19.92283185238852
 20
6.529126272817036
 30
0.0
 10
-18.47588397836452
 20
6.33480574877164
 30
0.0
 10
-16.97659042358504
 20
6.274350150372025
 30
0.0
 10
-15.46350637352476
 20
6.341213513366449
 30
0.0
 10
-13.9653600077654
 20
6.538462128290289
 30
0.0
 10
-12.52861685004322
 20
6.859331808379353
 30
0.0
 10
-11.17957271492878
 20
7.295163680728089
 30
0.0
 10
-9.940915249189583
 20
7.843716867035513
 30
0.0
 10
-8.837559195641855
 20
8.496071463805027
 30
0.0
 10
-7.843583186386613
 20
9.281560911631528
 30
0.0
 10
-7.013087148481746
 20
10.20099953417223
 30
0.0
 10
-6.447005633488933
 20
11.25210639540703
 30
0.0
 10
-6.184157993874437
 20
12.11180102755414
 30
0.0
 10
-6.222841184718326
 20
12.60709370412678
 30
0.0
 10
-6.232629872780289
 20
12.73242632029878
 30
0.0
  0
SPLINE
  5
22E
330
20A
100
AcDbEntity
  8
0
  6
Continuous
 62
     7
370
    25
100
AcDbSpline
210
0.0
220
0.0
230
1.0
 70
     8
 71
     3
 72
    25
 73
    21
 74
     0
 42
0.000000001
 43
0.00000001
 40
0.0
 40
0.0
 40
0.0
 40
0.0
 40
0.0583568239727685
 40
0.1174400168612687
 40
0.176609855237754
 40
0.2352209968231067
 40
0.2933754153579212
 40
0.3523262434928836
 40
0.4115366034430817
 40
0.4703585168361022
 40
0.5284576612117324
 40
0.5872310200660252
 40
0.6464355878229138
 40
0.7054237632407948
 40
0.7636150138976913
 40
0.8221666166798225
 40
0.8813191056379632
 40
0.9404282655214063
 40
0.9988526915175451
 40
0.9999999999999999
 40
0.9999999999999999
 40
0.9999999999999999
 40
0.9999999999999999
 10
-24.40169212527012
 20
-1.262426585883675
 30
0.0
 10
-23.99741079082136
 20
-1.46132635238129
 30
0.0
 10
-23.18381602157013
 20
-1.861601595977178
 30
0.0
 10
-21.76821810583755
 20
-2.321731616100331
 30
0.0
 10
-20.24665146131825
 20
-2.664043251664729
 30
0.0
 10
-18.64756226920673
 20
-2.870699065820399
 30
0.0
 10
-17.00422034648605
 20
-2.941936597551605
 30
0.0
 10
-15.34287383537471
 20
-2.870523167076502
 30
0.0
 10
-13.69937826888058
 20
-2.656907217084257
 30
0.0
 10
-12.12354129323676
 20
-2.307398288152945
 30
0.0
 10
-10.64455053615443
 20
-1.831678383090864
 30
0.0
 10
-9.287051848717573
 20
-1.232571427154563
 30
0.0
 10
-8.078829415020016
 20
-0.5198501988580052
 30
0.0
 10
-7.057082749796349
 20
0.2857294162935848
 30
0.0
 10
-6.240742712180733
 20
1.164016422255373
 30
0.0
 10
-5.644699788582095
 20
2.103886924992231
 30
0.0
 10
-5.272809055378868
 20
3.092005264404254
 30
0.0
 10
-5.173811627923644
 20
4.097021405150572
 30
0.0
 10
-5.200410032113072
 20
4.779065386368019
 30
0.0
 10
-5.323457334208672
 20
5.110046942969348
 30
0.0
 10
-5.325827136173867
 20
5.11642140815403
 30
0.0
  0
SPLINE
  5
22F
330
20A
100
AcDbEntity
  8
0
  6
Continuous
 62
     7
370
    25
100
AcDbSpline
210
0.0
220
0.0
230
1.0
 70
     8
 71
     3
 72
    29
 73
    25
 74
     0
 42
0.000000001
 43
0.00000001
 40
0.0
 40
0.0
 40
0.0
 40
0.0
 40
0.0452473237308633
 40
0.0941126059293044
 40
0.1427281734104286
 40
0.1747577297709547
 40
0.222916247669599
 40
0.2716741959012856
 40
0.3205036476521819
 40
0.3688720391947944
 40
0.4168635235703148
 40
0.4655122388122935
 40
0.5143751306786739
 40
0.5629174600263465
 40
0.6108633298292565
 40
0.6593655899191594
 40
0.7082237018227835
 40
0.7569032376213048
 40
0.8049251174208695
 40
0.8532443750263448
 40
0.9020595093038594
 40
0.9508388865974036
 40
0.999053192543286
 40
1.0
 40
1.0
 40
1.0
 40
1.0
 10
-27.32643981333781
 20
3.563471210092192
 30
0.0
 10
-27.17982360242706
 20
3.29288665497162
 30
0.0
 10
-26.87486780520984
 20
2.730081708582087
 30
0.0
 10
-26.12647286600637
 20
1.939891485875308
 30
0.0
 10
-25.27756888806745
 20
1.284452760404453
 30
0.0
 10
-24.29066979572725
 20
0.6983235079875312
 30
0.0
 10
-23.17610337381208
 20
0.1841759554779762
 30
0.0
 10
-21.77029957981961
 20
-0.2815739373597734
 30
0.0
 10
-20.246099123076
 20
-0.6223742899477482
 30
0.0
 10
-18.64770832740329
 20
-0.8294308443836211
 30
0.0
 10
-17.00418074953035
 20
-0.9005618470811563
 30
0.0
 10
-15.34288456120342
 20
-0.8291772918488372
 30
0.0
 10
-13.69937540948646
 20
-0.6155535466478845
 30
0.0
 10
-12.12354204652507
 20
-0.2660466906758349
 30
0.0
 10
-10.64455033281726
 20
0.2096737632984944
 30
0.0
 10
-9.28705190392264
 20
0.8087805708831102
 30
0.0
 10
-8.078829400236057
 20
1.521501839339416
 30
0.0
 10
-7.057082753691224
 20
2.327081443773082
 30
0.0
 10
-6.240742711136277
 20
3.205368452569059
 30
0.0
 10
-5.644699788866002
 20
4.1452389545437
 30
0.0
 10
-5.272809055302143
 20
5.133357294162651
 30
0.0
 10
-5.173811627945265
 20
6.138373434852566
 30
0.0
 10
-5.20041003211291
 20
6.820417416082434
 30
0.0
 10
-5.323457334208672
 20
7.151398972683725
 30
0.0
 10
-5.325827136173865
 20
7.157773437868401
 30
0.0
  0
SPLINE
  5
230
330
20A
100
AcDbEntity
  8
0
  6
Continuous
 62
     7
370
    25
100
AcDbSpline
210
0.0
220
0.0
230
1.0
 70
     8
 71
     3
 72
    28
 73
    24
 74
     0
 42
0.000000001
 43
0.00000001
 40
0.0
 40
0.0
 40
0.0
 40
0.0
 40
0.0121628024928609
 40
0.0651763075378655
 40
0.1001033717620421
 40
0.1526184808898125
 40
0.2057872469557067
 40
0.2590339850040907
 40
0.3117779536939272
 40
0.3641109188505459
 40
0.4171605703210338
 40
0.470443773596973
 40
0.5233774151258573
 40
0.5756606392529972
 40
0.6285505867161948
 40
0.6818285776169045
 40
0.7349118377813648
 40
0.7872779480404558
 40
0.8399683379620241
 40
0.8931994633273379
 40
0.9463915970044268
 40
0.9989675409650902
 40
1.0
 40
1.0
 40
1.0
 40
1.0
 10
-26.26422987949514
 20
4.176671952554758
 30
0.0
 10
-26.20854350659196
 20
4.114509960453261
 30
0.0
 10
-25.91013923930764
 20
3.781405059937813
 30
0.0
 10
-25.26986024744954
 20
3.328049466273617
 30
0.0
 10
-24.29335409417579
 20
2.738893897848861
 30
0.0
 10
-23.17525409277131
 20
2.225775287018374
 30
0.0
 10
-21.77052878209167
 20
1.759711351031423
 30
0.0
 10
-20.24603830214758
 20
1.418995450189843
 30
0.0
 10
-18.64772441065526
 20
1.211916502054676
 30
0.0
 10
-17.00417638929702
 20
1.140791452287917
 30
0.0
 10
-15.34288574228198
 20
1.212174393947715
 30
0.0
 10
-13.69937509462324
 20
1.425798574751398
 30
0.0
 10
-12.12354212947369
 20
1.775305314884762
 30
0.0
 10
-10.6445503104267
 20
2.251025799532766
 30
0.0
 10
-9.287051910001571
 20
2.850132598827364
 30
0.0
 10
-8.07882939860811
 20
3.562853869527826
 30
0.0
 10
-7.057082754120106
 20
4.368433473362569
 30
0.0
 10
-6.240742711021272
 20
5.246720482316926
 30
0.0
 10
-5.644699788897258
 20
6.186590984248966
 30
0.0
 10
-5.272809055293721
 20
7.174709323879497
 30
0.0
 10
-5.173811627947551
 20
8.179725464566225
 30
0.0
 10
-5.200410032113103
 20
8.86176944579687
 30
0.0
 10
-5.323457334208666
 20
9.192751002398099
 30
0.0
 10
-5.325827136173865
 20
9.199125467582776
 30
0.0
  0
SPLINE
  5
231
330
20A
100
AcDbEntity
  8
0
  6
Continuous
 62
     7
370
    25
100
AcDbSpline
210
0.0
220
0.0
230
1.0
 70
     8
 71
     3
 72
    26
 73
    22
 74
     0
 42
0.000000001
 43
0.00000001
 40
0.0
 40
0.0
 40
0.0
 40
0.0
 40
0.0172944775319159
 40
0.0746420507236534
 40
0.1327034306602295
 40
0.1908499575963455
 40
0.2484474501104305
 40
0.305596118360513
 40
0.3635274227228074
 40
0.4217137704331901
 40
0.4795183895666507
 40
0.5366127395952529
 40
0.594369643915365
 40
0.6525502996053951
 40
0.7105183053488628
 40
0.7677031687287195
 40
0.8252421521320775
 40
0.8833716296989748
 40
0.9414585275448832
 40
0.9988725336183166
 40
0.9999999999999999
 40
0.9999999999999999
 40
0.9999999999999999
 40
0.9999999999999999
 10
-24.73483393954676
 20
5.059573435600484
 30
0.0
 10
-24.62518991110337
 20
4.992817973957682
 30
0.0
 10
-24.15197208087321
 20
4.70470493065658
 30
0.0
 10
-23.17124149657597
 20
4.269391694700541
 30
0.0
 10
-21.77161169354351
 20
3.800452274939675
 30
0.0
 10
-20.24575094164586
 20
3.460509642443696
 30
0.0
 10
-18.6478003991591
 20
3.25322565013194
 30
0.0
 10
-17.00415578851259
 20
3.182155107383993
 30
0.0
 10
-15.34289132252119
 20
3.253523274635843
 30
0.0
 10
-13.69937360698963
 20
3.467151443963337
 30
0.0
 10
-12.12354252138084
 20
3.816657123439104
 30
0.0
 10
-10.64455020463813
 20
4.292377888945473
 30
0.0
 10
-9.287051938722664
 20
4.891484612333925
 30
0.0
 10
-8.078829390916582
 20
5.604205903582668
 30
0.0
 10
-7.05708275614646
 20
6.409785501933437
 30
0.0
 10
-6.240742710477878
 20
7.288072512337942
 30
0.0
 10
-5.644699789044968
 20
8.227943013879992
 30
0.0
 10
-5.272809055253788
 20
9.216061353616384
 30
0.0
 10
-5.173811627958846
 20
10.22107749427429
 30
0.0
 10
-5.200410032112919
 20
10.90312147551121
 30
0.0
 10
-5.323457334208672
 20
11.23410303211248
 30
0.0
 10
-5.325827136173871
 20
11.24047749729716
 30
0.0
  0
SPLINE
  5
232
330
20A
100
AcDbEntity
  8
0
  6
Continuous
 62
     7
370
    25
100
AcDbSpline
210
0.0
220
0.0
230
1.0
 70
     8
 71
     3
 72
    25
 73
    21
 74
     0
 42
0.000000001
 43
0.00000001
 40
0.0
 40
0.0
 40
0.0
 40
0.0
 40
0.0410909099206974
 40
0.0983470146328778
 40
0.1550624925180607
 40
0.2113360191739754
 40
0.2683801971061318
 40
0.3256755128003136
 40
0.3825949454878303
 40
0.438814985720037
 40
0.4956874342712113
 40
0.5529771451093423
 40
0.6100574623989852
 40
0.6663666299134278
 40
0.7230244946625057
 40
0.7802638110896294
 40
0.8374611998369412
 40
0.8939960010865143
 40
0.9504031119012045
 40
1.0
 40
1.0
 40
1.0
 40
1.0
 10
-22.76190277448172
 20
6.198522353983112
 30
0.0
 10
-22.430396237049
 20
6.081602117136618
 30
0.0
 10
-21.63696824164296
 20
5.801765134548186
 30
0.0
 10
-20.24312101209977
 20
5.504300169837144
 30
0.0
 10
-18.64849584523134
 20
5.293932853200775
 30
0.0
 10
-17.00396725911577
 20
5.223681951096962
 30
0.0
 10
-15.34294235701256
 20
5.294827955623457
 30
0.0
 10
-13.69936012668223
 20
5.508516081289626
 30
0.0
 10
-12.12354561231355
 20
5.858005887264986
 30
0.0
 10
-10.6445510708731
 20
6.333730595203705
 30
0.0
 10
-9.287045242426803
 20
6.932837237339527
 30
0.0
 10
-8.078855454879102
 20
7.64555484773807
 30
0.0
 10
-7.056986217114352
 20
8.451149155693477
 30
0.0
 10
-6.24109861179787
 20
9.32938163764438
 30
0.0
 10
-5.64335594424367
 20
10.2694570600443
 30
0.0
 10
-5.27787923613671
 20
11.25680210899385
 30
0.0
 10
-5.155004080524574
 20
12.26469701236308
 30
0.0
 10
-5.282437259420083
 20
13.26453410276823
 30
0.0
 10
-5.612240820085927
 20
14.20487311868652
 30
0.0
 10
-6.010434817172009
 20
14.7837615296212
 30
0.0
 10
-6.1967408369214
 20
15.05461040356085
 30
0.0
  0
SPLINE
  5
234
330
20A
100
AcDbEntity
  8
0
  6
Continuous
 62
     7
370
    25
100
AcDbSpline
210
0.0
220
0.0
230
1.0
 70
     8
 71
     3
 72
    23
 73
    19
 74
     0
 42
0.000000001
 43
0.00000001
 40
0.0
 40
0.0
 40
0.0
 40
0.0
 40
0.0623614797814314
 40
0.1255021948459042
 40
0.188642909910377
 40
0.2510043896918086
 40
0.31336586947324
 40
0.3765065845377129
 40
0.4396472996021858
 40
0.5020087793836172
 40
0.5643702591650488
 40
0.6275109742295216
 40
0.6906516892939943
 40
0.7530131690754257
 40
0.8153746488568571
 40
0.8785153639213302
 40
0.941656078985803
 40
1.0
 40
1.0
 40
1.0
 40
1.0
 10
24.56545247189834
 20
42.31737055956143
 30
0.0
 10
24.53196389105938
 20
42.80873554026947
 30
0.0
 10
24.46456827420912
 20
43.79760533241377
 30
0.0
 10
24.10891328323891
 20
45.3927181256547
 30
0.0
 10
23.57492939273703
 20
47.01843626382369
 30
0.0
 10
22.86225651386592
 20
48.6383973397663
 30
0.0
 10
21.98930328087293
 20
50.2155513314311
 30
0.0
 10
20.96819892418282
 20
51.71641067109105
 30
0.0
 10
19.82800831552479
 20
53.09662422071471
 30
0.0
 10
18.60323961945431
 20
54.31805201688446
 30
0.0
 10
17.3168570694513
 20
55.35607642125072
 30
0.0
 10
15.9917943412096
 20
56.18597049205133
 30
0.0
 10
14.6666623518733
 20
56.78186223958051
 30
0.0
 10
13.38048502437985
 20
57.12884450161462
 30
0.0
 10
12.1549627107912
 20
57.22266772380988
 30
0.0
 10
11.01761535425574
 20
57.05059272105592
 30
0.0
 10
10.00788933068309
 20
56.64861489628755
 30
0.0
 10
9.464634916056466
 20
56.18579303017226
 30
0.0
 10
9.203732849090024
 20
55.96351930674613
 30
0.0
  0
SPLINE
  5
235
330
20A
100
AcDbEntity
  8
0
  6
Continuous
 62
     7
370
    25
100
AcDbSpline
210
0.0
220
0.0
230
1.0
 70
     8
 71
     3
 72
    30
 73
    26
 74
     0
 42
0.000000001
 43
0.00000001
 40
0.0
 40
0.0
 40
0.0
 40
0.0
 40
0.0015703705294572
 40
0.0473685973265329
 40
0.0926016168055645
 40
0.1378346362845958
 40
0.183632863081672
 40
0.2294310898787485
 40
0.2746641093577796
 40
0.319897128836811
 40
0.3656953556338871
 40
0.4114935824309631
 40
0.4567266019099946
 40
0.501959621389026
 40
0.5477578481861021
 40
0.5935560749831782
 40
0.6387890944622096
 40
0.684022113941241
 40
0.7298203407383171
 40
0.775618567535393
 40
0.8208515870144245
 40
0.866084606493456
 40
0.9118828332905322
 40
0.9576810600876083
 40
1.0
 40
1.0
 40
1.0
 40
1.0
 10
19.67482807306487
 20
35.78419460229004
 30
0.0
 10
19.68684911873601
 20
35.78547472714465
 30
0.0
 10
20.04945148624017
 20
35.8240883648992
 30
0.0
 10
20.65363617465164
 20
36.13766683812938
 30
0.0
 10
21.45033349658365
 20
36.73312758704389
 30
0.0
 10
22.07294995103328
 20
37.58701125913439
 30
0.0
 10
22.5205010060708
 20
38.64480799857307
 30
0.0
 10
22.77431890956868
 20
39.88842665958528
 30
0.0
 10
22.83078990101987
 20
41.27773033754373
 30
0.0
 10
22.68780729107809
 20
42.78229258723577
 30
0.0
 10
22.34356990796599
 20
44.37080746915723
 30
0.0
 10
21.80652197911277
 20
45.99829622807032
 30
0.0
 10
21.09466020006749
 20
47.61778859245894
 30
0.0
 10
20.2214899674634
 20
49.19506798203616
 30
0.0
 10
19.20044446374024
 20
50.69589331223795
 30
0.0
 10
18.06023806125308
 20
52.07611598866692
 30
0.0
 10
16.8354735460611
 20
53.29754136882574
 30
0.0
 10
15.54908987751633
 20
54.33556641956547
 30
0.0
 10
14.22402745263693
 20
55.16546031506166
 30
0.0
 10
12.89889538189011
 20
55.76135210963566
 30
0.0
 10
11.61271807594722
 20
56.10833435921628
 30
0.0
 10
10.38719575659329
 20
56.20215758474318
 30
0.0
 10
9.249848401620357
 20
56.03008258108623
 30
0.0
 10
8.240122377641265
 20
55.62810475655277
 30
0.0
 10
7.69686796306561
 20
55.16528289040802
 30
0.0
 10
7.43596589612365
 20
54.94300916696775
 30
0.0
  0
SPLINE
  5
236
330
20A
100
AcDbEntity
  8
0
  6
Continuous
 62
     7
370
    25
100
AcDbSpline
210
0.0
220
0.0
230
1.0
 70
     8
 71
     3
 72
    26
 73
    22
 74
     0
 42
0.000000001
 43
0.00000001
 40
0.0
 40
0.0
 40
0.0
 40
0.0
 40
0.0367197665438714
 40
0.0907529962099452
 40
0.1454613958553085
 40
0.2001697955006723
 40
0.2542030251667459
 40
0.3082362548328197
 40
0.3629446544781829
 40
0.4176530541235461
 40
0.4716862837896201
 40
0.5257195134556939
 40
0.5804279131010572
 40
0.6351363127464206
 40
0.6891695424124944
 40
0.7432027720785683
 40
0.7979111717239316
 40
0.8526195713692947
 40
0.9066528010353685
 40
0.9606860307014423
 40
1.0
 40
1.0
 40
1.0
 40
1.0
 10
19.12378303901686
 20
35.3384011481152
 30
0.0
 10
19.30654101054738
 20
35.46836579235088
 30
0.0
 10
19.75822780103472
 20
35.78957374043672
 30
0.0
 10
20.30221804638632
 20
36.5708577870139
 30
0.0
 10
20.75353300427628
 20
37.62312388863747
 30
0.0
 10
21.00634082370615
 20
38.868226756262
 30
0.0
 10
21.06307920087771
 20
40.25713754018124
 30
0.0
 10
20.92002505390136
 20
41.76180490702748
 30
0.0
 10
20.57580707753801
 20
43.3502912675348
 30
0.0
 10
20.03875392195775
 20
44.97778772647654
 30
0.0
 10
19.3268935955375
 20
46.5972778828981
 30
0.0
 10
18.45372271623239
 20
48.17455849744234
 30
0.0
 10
17.43267836256532
 20
49.67538110000442
 30
0.0
 10
16.29246802040991
 20
51.05561343237122
 30
0.0
 10
15.06771793950867
 20
52.2770033446195
 30
0.0
 10
13.7812803432137
 20
53.31516093087325
 30
0.0
 10
12.45642163097724
 20
54.14455416548666
 30
0.0
 10
11.13053046215643
 20
54.74231158344661
 30
0.0
 10
9.847152062836589
 20
55.08241500381514
 30
0.0
 10
8.728061184764377
 20
55.1906448660965
 30
0.0
 10
8.089501749459803
 20
55.06837082343444
 30
0.0
 10
7.820566994980664
 20
55.01687406710383
 30
0.0
  0
SPLINE
  5
237
330
20A
100
AcDbEntity
  8
0
  6
Continuous
 62
     7
370
    25
100
AcDbSpline
210
0.0
220
0.0
230
1.0
 70
     8
 71
     3
 72
    22
 73
    18
 74
     0
 42
0.000000001
 43
0.00000001
 40
0.0
 40
0.0
 40
0.0
 40
0.0
 40
0.0185245640787874
 40
0.0931053494560919
 40
0.1667657147946993
 40
0.240426080133307
 40
0.3150068655106107
 40
0.3895876508879145
 40
0.4632480162265224
 40
0.5369083815651301
 40
0.6114891669424339
 40
0.6860699523197378
 40
0.7597303176583455
 40
0.8333906829969534
 40
0.9079714683742571
 40
0.9825522537515607
 40
1.0
 40
1.0
 40
1.0
 40
1.0
 10
18.84154459432308
 20
36.37171893942603
 30
0.0
 10
18.8799376451282
 20
36.45805859542905
 30
0.0
 10
19.07290296386352
 20
36.89200585647611
 30
0.0
 10
19.22945296182137
 20
37.85695629098604
 30
0.0
 10
19.29774235294063
 20
39.23416563451838
 30
0.0
 10
19.15159785918318
 20
40.74196367807161
 30
0.0
 10
18.80821808905273
 20
42.32960057254147
 30
0.0
 10
18.27093974542675
 20
43.95732644018172
 30
0.0
 10
17.55913993843095
 20
45.576750538088
 30
0.0
 10
16.68594947111568
 20
47.15406875427679
 30
0.0
 10
15.66492325879599
 20
48.65480589384152
 30
0.0
 10
14.52466025527352
 20
50.03534155551718
 30
0.0
 10
13.30010037673306
 20
51.25561706721918
 30
0.0
 10
12.01295290825644
 20
52.29793897414086
 30
0.0
 10
10.69077554546299
 20
53.11160122070068
 30
0.0
 10
9.691903961672937
 20
53.60238943650126
 30
0.0
 10
9.161748208321777
 20
53.73710402758006
 30
0.0
 10
9.06123565103967
 20
53.76264465024983
 30
0.0
  0
SPLINE
  5
238
330
20A
100
AcDbEntity
  8
0
  6
Continuous
 62
     7
370
    25
100
AcDbSpline
210
0.0
220
0.0
230
1.0
 70
     8
 71
     3
 72
    12
 73
     8
 74
     0
 42
0.000000001
 43
0.00000001
 40
0.0
 40
0.0
 40
0.0
 40
0.0
 40
0.0785494625375385
 40
0.3723246933939205
 40
0.6660999242503015
 40
0.9635460113142216
 40
1.0
 40
1.0
 40
1.0
 40
1.0
 10
16.61286103355904
 20
42.51349048545461
 30
0.0
 10
16.56706788690829
 20
42.65667060099215
 30
0.0
 10
16.35000823130427
 20
43.33534478787339
 30
0.0
 10
15.78427056772266
 20
44.55925426319563
 30
0.0
 10
14.91401909981827
 20
46.12510574868877
 30
0.0
 10
14.21289635991002
 20
47.21310146147995
 30
0.0
 10
13.78427388130895
 20
47.7272064365672
 30
0.0
 10
13.73747844722493
 20
47.78333453687703
 30
0.0
  0
SPLINE
  5
23A
330
20A
100
AcDbEntity
  8
0
  6
Continuous
 62
     7
370
    25
100
AcDbSpline
210
0.0
220
0.0
230
1.0
 70
     8
 71
     3
 72
    21
 73
    17
 74
     0
 42
0.000000001
 43
0.00000001
 40
0.0
 40
0.0
 40
0.0
 40
0.0
 40
0.0752338992804315
 40
0.1514083353563042
 40
0.2275827714321767
 40
0.3028166707126083
 40
0.3780505699930397
 40
0.4542250060689126
 40
0.5303994421447855
 40
0.6056333414252166
 40
0.6808672407056481
 40
0.757041676781521
 40
0.8332161128573936
 40
0.908450012137825
 40
0.9836839114182563
 40
1.0
 40
1.0
 40
1.0
 40
1.0
 10
23.45036481828039
 20
42.47221887307808
 30
0.0
 10
23.41934345509321
 20
42.9197126754955
 30
0.0
 10
23.35691291506302
 20
43.82029462531226
 30
0.0
 10
23.03063638539302
 20
45.27374064475453
 30
0.0
 10
22.54142087612074
 20
46.75559055094087
 30
0.0
 10
21.88902810262884
 20
48.23278811866783
 30
0.0
 10
21.09006777394584
 20
49.67138314461944
 30
0.0
 10
20.15542545456719
 20
51.04068132477325
 30
0.0
 10
19.11173106929941
 20
52.30029513650343
 30
0.0
 10
17.99065952087884
 20
53.41531805306211
 30
0.0
 10
16.81282489267866
 20
54.36361037795505
 30
0.0
 10
15.59969673676696
 20
55.12062883792157
 30
0.0
 10
14.38406293625148
 20
55.66960613119856
 30
0.0
 10
13.21137339324596
 20
55.9716386449345
 30
0.0
 10
12.36804309898929
 20
56.07846667353192
 30
0.0
 10
11.95171934157309
 20
56.00985092244026
 30
0.0
 10
11.87752189531112
 20
55.99762218599739
 30
0.0
  0
SPLINE
  5
23B
330
20A
100
AcDbEntity
  8
0
  6
Continuous
 62
     7
370
    25
100
AcDbSpline
210
0.0
220
0.0
230
1.0
 70
     8
 71
     3
 72
    25
 73
    21
 74
     0
 42
0.000000001
 43
0.00000001
 40
0.0
 40
0.0
 40
0.0
 40
0.0
 40
0.026940646426657
 40
0.0873212979409552
 40
0.1477019494552538
 40
0.2073370723196863
 40
0.266972195184119
 40
0.3273528466984171
 40
0.3877334982127152
 40
0.447368621077148
 40
0.5070037439415805
 40
0.5673843954558789
 40
0.6277650469701772
 40
0.6874001698346096
 40
0.7470352926990422
 40
0.8074159442133406
 40
0.8677965957276387
 40
0.9274317185920713
 40
0.9870668414565039
 40
0.9999999999999999
 40
0.9999999999999999
 40
0.9999999999999999
 40
0.9999999999999999
 10
20.74159821637496
 20
37.75953947305589
 30
0.0
 10
20.82978396384774
 20
37.87046169043154
 30
0.0
 10
21.11561578121635
 20
38.22998802986439
 30
0.0
 10
21.42666020827551
 20
39.04575009397333
 30
0.0
 10
21.66412076390364
 20
40.16749074445351
 30
0.0
 10
21.71241924415276
 20
41.43469503287306
 30
0.0
 10
21.58104382727292
 20
42.80440691749624
 30
0.0
 10
21.26505268130943
 20
44.25198491728388
 30
0.0
 10
20.77307697622732
 20
45.73540957106594
 30
0.0
 10
20.12141486632365
 20
47.2121902804219
 30
0.0
 10
19.32225905788324
 20
48.65089683153304
 30
0.0
 10
18.38766975533032
 20
50.02016476451432
 30
0.0
 10
17.34396114241413
 20
51.27978669340604
 30
0.0
 10
16.22289336025809
 20
52.39480746123449
 30
0.0
 10
15.04505772443766
 20
53.34310036099519
 30
0.0
 10
13.83192984182183
 20
54.1001186650409
 30
0.0
 10
12.61629596790755
 20
54.64909600019338
 30
0.0
 10
11.44360644454138
 20
54.95112850272468
 30
0.0
 10
10.60027614584143
 20
55.0579565338571
 30
0.0
 10
10.18395238857926
 20
54.98934078267754
 30
0.0
 10
10.10975494234475
 20
54.97711204621901
 30
0.0
  0
SPLINE
  5
23C
330
20A
100
AcDbEntity
  8
0
  6
Continuous
 62
     7
370
    25
100
AcDbSpline
210
0.0
220
0.0
230
1.0
 70
     8
 71
     3
 72
    24
 73
    20
 74
     0
 42
0.000000001
 43
0.00000001
 40
0.0
 40
0.0
 40
0.0
 40
0.0
 40
0.0277544475010693
 40
0.0899590284897344
 40
0.1521636094783999
 40
0.2136001414957987
 40
0.2750366735131977
 40
0.3372412545018627
 40
0.3994458354905276
 40
0.4608823675079267
 40
0.5223188995253255
 40
0.5845234805139908
 40
0.6467280615026558
 40
0.7081645935200546
 40
0.7696011255374536
 40
0.8318057065261188
 40
0.8940102875147837
 40
0.9554468195321827
 40
0.9999999999999999
 40
0.9999999999999999
 40
0.9999999999999999
 40
0.9999999999999999
 10
18.97383126340859
 20
36.7390293332775
 30
0.0
 10
19.06201701088388
 20
36.84995155064575
 30
0.0
 10
19.3478488282606
 20
37.20947789005459
 30
0.0
 10
19.65889325519998
 20
38.02523995451776
 30
0.0
 10
19.89635381133406
 20
39.14698060350171
 30
0.0
 10
19.94465228972808
 20
40.41418489740725
 30
0.0
 10
19.81327687977948
 20
41.78389676153319
 30
0.0
 10
19.49728570763289
 20
43.23147483875012
 30
0.0
 10
19.0053101001173
 20
44.71489920400609
 30
0.0
 10
18.35364763047356
 20
46.19168097719419
 30
0.0
 10
17.5544931666684
 20
47.6303835519172
 30
0.0
 10
16.61989878454578
 20
48.99966650632555
 30
0.0
 10
15.57620909975173
 20
50.25923246051403
 30
0.0
 10
14.45507152720974
 20
51.37445961416952
 30
0.0
 10
13.27749675366229
 20
52.3219810856713
 30
0.0
 10
12.06338342307223
 20
53.08191358043639
 30
0.0
 10
10.85142164752925
 20
53.62003169696523
 30
0.0
 10
9.77340408819222
 20
53.93089867274669
 30
0.0
 10
9.138950582445547
 20
53.95559758436186
 30
0.0
 10
8.872255628028018
 20
53.96597986619608
 30
0.0
  0
SPLINE
  5
23D
330
20A
100
AcDbEntity
  8
0
  6
Continuous
 62
     7
370
    25
100
AcDbSpline
210
0.0
220
0.0
230
1.0
 70
     8
 71
     3
 72
    18
 73
    14
 74
     0
 42
0.000000001
 43
0.00000001
 40
0.0
 40
0.0
 40
0.0
 40
0.0
 40
0.0540286562325844
 40
0.1533352862002312
 40
0.2538833982711472
 40
0.3544315103420632
 40
0.4537381403097099
 40
0.5530447702773564
 40
0.653592882348273
 40
0.7541409944191894
 40
0.8534476243868355
 40
0.952754254354482
 40
1.0
 40
1.0
 40
1.0
 40
1.0
 10
18.12023317860358
 20
38.72832910114746
 30
0.0
 10
18.13415537771444
 20
38.95269530116209
 30
0.0
 10
18.17366708379892
 20
39.58945471536634
 30
0.0
 10
18.0399030117494
 20
40.76726498326255
 30
0.0
 10
17.73102944416927
 20
42.20991714899237
 30
0.0
 10
17.23714460960781
 20
43.69467503413475
 30
0.0
 10
16.58598436669338
 20
45.17106103411014
 30
0.0
 10
15.78670740195907
 20
46.61002940086706
 30
0.0
 10
14.85210143828021
 20
47.97863633342106
 30
0.0
 10
13.80858178118417
 20
49.24063362266318
 30
0.0
 10
12.68678359775052
 20
50.3469194400258
 30
0.0
 10
11.72105712413501
 20
51.15307959285094
 30
0.0
 10
11.12984057144932
 20
51.50794336908682
 30
0.0
 10
10.93924340949448
 20
51.62234481526401
 30
0.0
  0
LINE
  5
23F
330
20A
100
AcDbEntity
  8
0
  6
Continuous
 62
     7
370
    25
100
AcDbLine
 10
-10.2073952934
 20
60.4988576438
 30
0.0
 11
-13.7429291994
 21
58.4578373643
 31
0.0
  0
LINE
  5
240
330
20A
100
AcDbEntity
  8
0
  6
Continuous
 62
     7
370
    25
100
AcDbLine
 10
11.2550391165
 20
15.1553942452
 30
0.0
 11
14.7905730225
 21
17.1964145248
 31
0.0
  0
LINE
  5
241
330
20A
100
AcDbEntity
  8
0
  6
Continuous
 62
     7
370
    25
100
AcDbLine
 10
-51.0359378412
 20
26.2483510635
 30
0.0
 11
-57.9086729628
 21
22.2808055294
 31
0.0
  0
LINE
  5
242
330
20A
100
AcDbEntity
  8
0
  6
Continuous
 62
     7
370
    25
100
AcDbLine
 10
-9.1183050609
 20
50.4468853873
 30
0.0
 11
-47.0864358103
 21
28.5283500548
 31
0.0
  0
LINE
  5
243
330
20A
100
AcDbEntity
  8
0
  6
Continuous
 62
     7
370
    25
100
AcDbLine
 10
-42.1599529238
 20
-4.9997336356
 30
0.0
 11
6.6304149781
 21
23.1663462223
 31
0.0
  0
LINE
  5
244
330
20A
100
AcDbEntity
  8
0
  6
Continuous
 62
     7
370
    25
100
AcDbLine
 10
-6.1967408369
 20
12.7330044997
 30
0.0
 11
-6.1967408369
 21
15.7613867892
 31
0.0
  0
LINE
  5
245
330
20A
100
AcDbEntity
  8
0
  6
Continuous
 62
     7
370
    25
100
AcDbLine
 10
-52.6831113936
 20
24.8777523325
 30
0.0
 11
-56.0447205834
 21
22.9371366544
 31
0.0
  0
LINE
  5
246
330
20A
100
AcDbEntity
  8
0
  6
Continuous
 62
     7
370
    25
100
AcDbLine
 10
-52.2173310247
 20
2.86838382
 30
0.0
 11
-55.710106316
 21
0.8520475632
 31
0.0
  0
LINE
  5
247
330
20A
100
AcDbEntity
  8
0
  6
Continuous
 62
     7
370
    25
100
AcDbLine
 10
-44.0239053032
 20
15.9976677039
 30
0.0
 11
-40.6622961134
 21
17.938283382
 31
0.0
  0
LINE
  5
248
330
20A
100
AcDbEntity
  8
0
  6
Continuous
 62
     7
370
    25
100
AcDbLine
 10
-44.3585195706
 20
-5.7010839775
 30
0.0
 11
-44.0239053032
 21
5.1708014716
 31
0.0
  0
LINE
  5
249
330
20A
100
AcDbEntity
  8
0
  6
Continuous
 62
     7
370
    25
100
AcDbLine
 10
-44.0239053032
 20
15.9976677039
 30
0.0
 11
-44.0239053032
 21
5.1708014716
 31
0.0
  0
LINE
  5
24A
330
20A
100
AcDbEntity
  8
0
  6
Continuous
 62
     7
370
    25
100
AcDbLine
 10
-52.6831113936
 20
24.8777523325
 30
0.0
 11
-52.6831113936
 21
14.0508861002
 31
0.0
  0
LINE
  5
24B
330
20A
100
AcDbEntity
  8
0
  6
Continuous
 62
     7
370
    25
100
AcDbLine
 10
-56.0447205834
 20
12.1102704221
 30
0.0
 11
-56.0447205834
 21
22.9371366544
 31
0.0
  0
LINE
  5
24C
330
20A
100
AcDbEntity
  8
0
  6
Continuous
 62
     7
370
    25
100
AcDbLine
 10
-56.0447205834
 20
12.1102704221
 30
0.0
 11
-55.710106316
 21
0.8520475632
 31
0.0
  0
LINE
  5
24D
330
20A
100
AcDbEntity
  8
0
  6
Continuous
 62
     7
370
    25
100
AcDbLine
 10
-52.6831113936
 20
14.0508861002
 30
0.0
 11
-56.0447205834
 21
12.1102704221
 31
0.0
  0
LINE
  5
24E
330
20A
100
AcDbEntity
  8
0
  6
Continuous
 62
     7
370
    25
100
AcDbLine
 10
-23.7104040008
 20
-0.3739838449
 30
0.0
 11
-24.4016921253
 21
-1.2624265859
 31
0.0
  0
LINE
  5
24F
330
20A
100
AcDbEntity
  8
0
  6
Continuous
 62
     7
370
    25
100
AcDbLine
 10
23.4503648183
 20
42.4722188731
 30
0.0
 11
24.5654524719
 21
42.3173705596
 31
0.0
  0
ARC
  5
250
330
20A
100
AcDbEntity
  8
0
  6
Continuous
 62
     7
370
    25
100
AcDbCircle
 10
11.285757409
 20
38.0914062538
 30
0.0
 40
25.05538977185888
100
AcDbArc
 50
235.0212436083
 51
241.474123609
  0
ARC
  5
251
330
20A
100
AcDbEntity
  8
0
  6
Continuous
 62
     7
370
    25
100
AcDbCircle
 10
1.8907232597
 20
29.6543607227
 30
0.0
 40
8.034862148413607
100
AcDbArc
 50
306.149263464
 51
5.1629169293
  0
ARC
  5
252
330
20A
100
AcDbEntity
  8
0
  6
Continuous
 62
     7
370
    25
100
AcDbCircle
 10
-21.126454756
 20
4.3369484358
 30
0.0
 40
5.775041348069662
100
AcDbArc
 50
199.2874934806
 51
240.6140028077
  0
ARC
  5
253
330
20A
100
AcDbEntity
  8
0
  6
Continuous
 62
     7
370
    25
100
AcDbCircle
 10
18.1622411774
 20
42.2583675023
 30
0.0
 40
5.693370943030306
100
AcDbArc
 50
319.0706542937
 51
1.5890455204
  0
VIEWPORT
  5
258
330
20A
100
AcDbEntity
  8
0
100
AcDbViewport
 10
0.0
 20
0.0
 30
0.0
 40
205.6
 41
156.0
 68
     1
 69
     1
 12
-22.3512327713
 22
20.5504439222
 13
0.0
 23
0.0
 14
10.0
 24
10.0
 15
10.0
 25
10.0
 16
0.0
 26
0.0
 36
1.0
 17
0.0
 27
0.0
 37
0.0
 42
50.0
 43
0.0
 44
0.0
 45
57.2376811243
 50
0.0
 51
0.0
 72
   100
 90
   557152
  1

281
     0
 71
     1
 74
     0
110
0.0
120
0.0
130
0.0
111
1.0
121
0.0
131
0.0
112
0.0
122
1.0
132
0.0
 79
     0
146
0.0
  0
ENDBLK
  5
20D
330
20A
100
AcDbEntity
  8
0
100
AcDbBlockEnd
  0
ENDSEC
  0
SECTION
  2
ENTITIES
  0
SPLINE
  5
73
330
1F
100
AcDbEntity
  8
0
  6
Continuous
 62
     7
370
    25
100
AcDbSpline
210
0.0
220
0.0
230
1.0
 70
     8
 71
     3
 72
     9
 73
     5
 74
     0
 42
0.000000001
 43
0.00000001
 40
0.0
 40
0.0
 40
0.0
 40
0.0
 40
0.2581189313820422
 40
1.0
 40
1.0
 40
1.0
 40
1.0
 10
-12.13768839755463
 20
-4.129576390207186
 30
0.0
 10
-12.05049935490593
 20
-4.079061633079573
 30
0.0
 10
-11.71271303996242
 20
-3.883358215057735
 30
0.0
 10
-11.37484490924968
 20
-3.687786958005878
 30
0.0
 10
-11.12418693938456
 20
-3.542696344833288
 30
0.0
  0
SPLINE
  5
74
330
1F
100
AcDbEntity
  8
0
  6
Continuous
 62
     7
370
    25
100
AcDbSpline
210
0.0
220
0.0
230
1.0
 70
     8
 71
     3
 72
     9
 73
     5
 74
     0
 42
0.000000001
 43
0.00000001
 40
0.0
 40
0.0
 40
0.0
 40
0.0
 40
0.2581189313820432
 40
1.0
 40
1.0
 40
1.0
 40
1.0
 10
-12.13768839755463
 20
-1.629576390207183
 30
0.0
 10
-12.05049935490593
 20
-1.579061633079575
 30
0.0
 10
-11.71271303996242
 20
-1.383358215057737
 30
0.0
 10
-11.37484490924968
 20
-1.187786958005879
 30
0.0
 10
-11.12418693938456
 20
-1.04269634483329
 30
0.0
  0
SPLINE
  5
75
330
1F
100
AcDbEntity
  8
0
  6
Continuous
 62
     7
370
    25
100
AcDbSpline
210
0.0
220
0.0
230
1.0
 70
     8
 71
     3
 72
     9
 73
     5
 74
     0
 42
0.000000001
 43
0.00000001
 40
0.0
 40
0.0
 40
0.0
 40
0.0
 40
0.2581189313820436
 40
1.0
 40
1.0
 40
1.0
 40
1.0
 10
-12.13768839755463
 20
0.8704236097928155
 30
0.0
 10
-12.05049935490593
 20
0.9209383669204276
 30
0.0
 10
-11.71271303996241
 20
1.116641784942262
 30
0.0
 10
-11.37484490924968
 20
1.31221304199412
 30
0.0
 10
-11.12418693938456
 20
1.457303655166709
 30
0.0
  0
SPLINE
  5
76
330
1F
100
AcDbEntity
  8
0
  6
Continuous
 62
     7
370
    25
100
AcDbSpline
210
0.0
220
0.0
230
1.0
 70
     8
 71
     3
 72
     9
 73
     5
 74
     0
 42
0.000000001
 43
0.00000001
 40
0.0
 40
0.0
 40
0.0
 40
0.0
 40
0.2581189313820438
 40
1.0
 40
1.0
 40
1.0
 40
1.0
 10
-12.13768839755463
 20
3.370423609792818
 30
0.0
 10
-12.05049935490593
 20
3.420938366920427
 30
0.0
 10
-11.71271303996242
 20
3.616641784942264
 30
0.0
 10
-11.37484490924968
 20
3.812213041994122
 30
0.0
 10
-11.12418693938456
 20
3.957303655166712
 30
0.0
  0
SPLINE
  5
77
330
1F
100
AcDbEntity
  8
0
  6
Continuous
 62
     7
370
    25
100
AcDbSpline
210
0.0
220
0.0
230
1.0
 70
     8
 71
     3
 72
     9
 73
     5
 74
     0
 42
0.000000001
 43
0.00000001
 40
0.0
 40
0.0
 40
0.0
 40
0.0
 40
0.7695656447573386
 40
1.0
 40
1.0
 40
1.0
 40
1.0
 10
-33.57827860324301
 20
-2.292696344833291
 30
0.0
 10
-33.32762007324907
 20
-2.437786053202676
 30
0.0
 10
-33.00190578012596
 20
-2.626320597796505
 30
0.0
 10
-32.67627035950805
 20
-2.814982548963525
 30
0.0
 10
-32.6012327713138
 20
-2.85845674403952
 30
0.0
  0
SPLINE
  5
78
330
1F
100
AcDbEntity
  8
0
  6
Continuous
 62
     7
370
    25
100
AcDbSpline
210
0.0
220
0.0
230
1.0
 70
     8
 71
     3
 72
     9
 73
     5
 74
     0
 42
0.000000001
 43
0.00000001
 40
0.0
 40
0.0
 40
0.0
 40
0.0
 40
0.769565644757335
 40
1.0
 40
1.0
 40
1.0
 40
1.0
 10
-33.57827860324301
 20
0.207303655166708
 30
0.0
 10
-33.32762007324906
 20
0.062213946797323
 30
0.0
 10
-33.00190578012597
 20
-0.1263205977965129
 30
0.0
 10
-32.67627035950805
 20
-0.3149825489635258
 30
0.0
 10
-32.60123277131378
 20
-0.358456744039521
 30
0.0
  0
SPLINE
  5
79
330
1F
100
AcDbEntity
  8
0
  6
Continuous
 62
     7
370
    25
100
AcDbSpline
210
0.0
220
0.0
230
1.0
 70
     8
 71
     3
 72
     9
 73
     5
 74
     0
 42
0.000000001
 43
0.00000001
 40
0.0
 40
0.0
 40
0.0
 40
0.0
 40
0.7695656447573326
 40
1.0
 40
1.0
 40
1.0
 40
1.0
 10
-33.57827860324302
 20
2.70730365516671
 30
0.0
 10
-33.32762007324907
 20
2.562213946797325
 30
0.0
 10
-33.00190578012598
 20
2.373679402203489
 30
0.0
 10
-32.67627035950806
 20
2.185017451036476
 30
0.0
 10
-32.60123277131379
 20
2.141543255960481
 30
0.0
  0
SPLINE
  5
7A
330
1F
100
AcDbEntity
  8
0
  6
Continuous
 62
     7
370
    25
100
AcDbSpline
210
0.0
220
0.0
230
1.0
 70
     8
 71
     3
 72
     9
 73
     5
 74
     0
 42
0.000000001
 43
0.00000001
 40
0.0
 40
0.0
 40
0.0
 40
0.0
 40
0.7695656447573384
 40
1.0
 40
1.0
 40
1.0
 40
1.0
 10
-33.57827860324301
 20
-4.792696344833289
 30
0.0
 10
-33.32762007324906
 20
-4.937786053202674
 30
0.0
 10
-33.00190578012596
 20
-5.126320597796507
 30
0.0
 10
-32.67627035950805
 20
-5.314982548963523
 30
0.0
 10
-32.60123277131379
 20
-5.358456744039518
 30
0.0
  0
SPLINE
  5
7B
330
1F
100
AcDbEntity
  8
0
  6
Continuous
 62
     7
370
    25
100
AcDbSpline
210
0.0
220
0.0
230
1.0
 70
     8
 71
     3
 72
     9
 73
     5
 74
     0
 42
0.000000001
 43
0.00000001
 40
0.0
 40
0.0
 40
0.0
 40
0.0
 40
0.252986978376923
 40
1.0
 40
1.0
 40
1.0
 40
1.0
 10
-12.13072651240772
 20
-6.625543197909475
 30
0.0
 10
-12.04585801461653
 20
-6.576372973136062
 30
0.0
 10
-11.71039214069818
 20
-6.382014255193854
 30
0.0
 10
-11.37484501308204
 20
-6.187786790280446
 30
0.0
 10
-11.12418693938456
 20
-6.04269634483329
 30
0.0
  0
SPLINE
  5
7D
330
1F
100
AcDbEntity
  8
0
  6
Continuous
 62
     7
370
    25
100
AcDbSpline
210
0.0
220
0.0
230
1.0
 70
     8
 71
     3
 72
     9
 73
     5
 74
     0
 42
0.000000001
 43
0.00000001
 40
0.0
 40
0.0
 40
0.0
 40
0.0
 40
0.5129441121816141
 40
1.0
 40
1.0
 40
1.0
 40
1.0
 10
-11.12418693938456
 20
-3.491042159514096
 30
0.0
 10
-11.29125589151743
 20
-3.394331522151618
 30
0.0
 10
-11.61696184693294
 20
-3.20579122104326
 30
0.0
 10
-11.942619361454
 20
-3.017171993997172
 30
0.0
 10
-12.10123277131379
 20
-2.925303888908617
 30
0.0
  0
SPLINE
  5
7E
330
1F
100
AcDbEntity
  8
0
  6
Continuous
 62
     7
370
    25
100
AcDbSpline
210
0.0
220
0.0
230
1.0
 70
     8
 71
     3
 72
     9
 73
     5
 74
     0
 42
0.000000001
 43
0.00000001
 40
0.0
 40
0.0
 40
0.0
 40
0.0
 40
0.5129441121816146
 40
1.0
 40
1.0
 40
1.0
 40
1.0
 10
-11.12418693938456
 20
-0.9910421595140974
 30
0.0
 10
-11.29125589151743
 20
-0.8943315221516153
 30
0.0
 10
-11.61696184693294
 20
-0.7057912210432609
 30
0.0
 10
-11.942619361454
 20
-0.5171719939971696
 30
0.0
 10
-12.10123277131379
 20
-0.4253038889086187
 30
0.0
  0
SPLINE
  5
7F
330
1F
100
AcDbEntity
  8
0
  6
Continuous
 62
     7
370
    25
100
AcDbSpline
210
0.0
220
0.0
230
1.0
 70
     8
 71
     3
 72
     9
 73
     5
 74
     0
 42
0.000000001
 43
0.00000001
 40
0.0
 40
0.0
 40
0.0
 40
0.0
 40
0.5129441121816137
 40
1.0
 40
1.0
 40
1.0
 40
1.0
 10
-11.12418693938456
 20
1.508957840485901
 30
0.0
 10
-11.29125589151743
 20
1.60566847784838
 30
0.0
 10
-11.61696184693294
 20
1.794208778956738
 30
0.0
 10
-11.942619361454
 20
1.982828006002829
 30
0.0
 10
-12.10123277131379
 20
2.07469611109138
 30
0.0
  0
SPLINE
  5
80
330
1F
100
AcDbEntity
  8
0
  6
Continuous
 62
     7
370
    25
100
AcDbSpline
210
0.0
220
0.0
230
1.0
 70
     8
 71
     3
 72
     9
 73
     5
 74
     0
 42
0.000000001
 43
0.00000001
 40
0.0
 40
0.0
 40
0.0
 40
0.0
 40
0.5129441121816132
 40
1.0
 40
1.0
 40
1.0
 40
1.0
 10
-11.12418693938456
 20
4.008957840485904
 30
0.0
 10
-11.29125589151744
 20
4.105668477848382
 30
0.0
 10
-11.61696184693294
 20
4.294208778956737
 30
0.0
 10
-11.942619361454
 20
4.482828006002828
 30
0.0
 10
-12.10123277131379
 20
4.574696111091383
 30
0.0
  0
SPLINE
  5
81
330
1F
100
AcDbEntity
  8
0
  6
Continuous
 62
     7
370
    25
100
AcDbSpline
210
0.0
220
0.0
230
1.0
 70
     8
 71
     3
 72
     9
 73
     5
 74
     0
 42
0.000000001
 43
0.00000001
 40
0.0
 40
0.0
 40
0.0
 40
0.0
 40
0.4999296240127365
 40
1.0
 40
1.0
 40
1.0
 40
1.0
 10
-32.57608113039601
 20
-1.660737523899624
 30
0.0
 10
-32.74307811150329
 20
-1.757461587547648
 30
0.0
 10
-33.07711909064526
 20
-1.950936946882538
 30
0.0
 10
-33.41120975773674
 20
-2.144331348422287
 30
0.0
 10
-33.57827860324301
 20
-2.241042159514099
 30
0.0
  0
SPLINE
  5
82
330
1F
100
AcDbEntity
  8
0
  6
Continuous
 62
     7
370
    25
100
AcDbSpline
210
0.0
220
0.0
230
1.0
 70
     8
 71
     3
 72
     9
 73
     5
 74
     0
 42
0.000000001
 43
0.00000001
 40
0.0
 40
0.0
 40
0.0
 40
0.0
 40
0.4999296240127376
 40
1.0
 40
1.0
 40
1.0
 40
1.0
 10
-32.57608113039601
 20
0.8392624761003747
 30
0.0
 10
-32.74307811150329
 20
0.742538412452351
 30
0.0
 10
-33.07711909064526
 20
0.5490630531174573
 30
0.0
 10
-33.41120975773674
 20
0.3556686515777119
 30
0.0
 10
-33.57827860324301
 20
0.2589578404859003
 30
0.0
  0
SPLINE
  5
83
330
1F
100
AcDbEntity
  8
0
  6
Continuous
 62
     7
370
    25
100
AcDbSpline
210
0.0
220
0.0
230
1.0
 70
     8
 71
     3
 72
     9
 73
     5
 74
     0
 42
0.000000001
 43
0.00000001
 40
0.0
 40
0.0
 40
0.0
 40
0.0
 40
0.4999296240127317
 40
1.0
 40
1.0
 40
1.0
 40
1.0
 10
-32.576081130396
 20
3.339262476100374
 30
0.0
 10
-32.74307811150329
 20
3.242538412452353
 30
0.0
 10
-33.07711909064526
 20
3.049063053117456
 30
0.0
 10
-33.41120975773674
 20
2.855668651577711
 30
0.0
 10
-33.57827860324301
 20
2.758957840485899
 30
0.0
  0
SPLINE
  5
84
330
1F
100
AcDbEntity
  8
0
  6
Continuous
 62
     7
370
    25
100
AcDbSpline
210
0.0
220
0.0
230
1.0
 70
     8
 71
     3
 72
     9
 73
     5
 74
     0
 42
0.000000001
 43
0.00000001
 40
0.0
 40
0.0
 40
0.0
 40
0.0
 40
0.4999296240127312
 40
1.0
 40
1.0
 40
1.0
 40
1.0
 10
-32.576081130396
 20
-4.160737523899626
 30
0.0
 10
-32.74307811150329
 20
-4.257461587547646
 30
0.0
 10
-33.07711909064525
 20
-4.450936946882543
 30
0.0
 10
-33.41120975773674
 20
-4.644331348422286
 30
0.0
 10
-33.57827860324301
 20
-4.741042159514101
 30
0.0
  0
SPLINE
  5
85
330
1F
100
AcDbEntity
  8
0
  6
Continuous
 62
     7
370
    25
100
AcDbSpline
210
0.0
220
0.0
230
1.0
 70
     8
 71
     3
 72
     9
 73
     5
 74
     0
 42
0.000000001
 43
0.00000001
 40
0.0
 40
0.0
 40
0.0
 40
0.0
 40
0.5129441121816143
 40
1.0
 40
1.0
 40
1.0
 40
1.0
 10
-11.12418693938456
 20
-5.991042159514098
 30
0.0
 10
-11.29125589151743
 20
-5.894331522151616
 30
0.0
 10
-11.61696184693294
 20
-5.705791221043258
 30
0.0
 10
-11.942619361454
 20
-5.51717199399717
 30
0.0
 10
-12.10123277131379
 20
-5.42530388890862
 30
0.0
  0
SPLINE
  5
99
330
1F
100
AcDbEntity
  8
0
  6
Continuous
 62
     7
370
    25
100
AcDbSpline
210
0.0
220
0.0
230
1.0
 70
     8
 71
     3
 72
    21
 73
    17
 74
     0
 42
0.000000001
 43
0.00000001
 40
0.0
 40
0.0
 40
0.0
 40
0.0
 40
0.0454680749902469
 40
0.1169908030241694
 40
0.1882647244717104
 40
0.2764121108593033
 40
0.3644878336095508
 40
0.4235346731609453
 40
0.482807103133953
 40
0.5418362966486355
 40
0.6213022909632419
 40
0.7008062029767306
 40
0.7827324927708411
 40
0.864709117649492
 40
0.959941443370588
 40
1.0
 40
1.0
 40
1.0
 40
1.0
 10
-13.85123277131379
 20
36.85756489806849
 30
0.0
 10
-14.03745687969854
 20
36.9776419453971
 30
0.0
 10
-14.51661743327522
 20
37.28660400712413
 30
0.0
 10
-15.41397310710031
 20
37.76184292406069
 30
0.0
 10
-16.61051541391364
 20
38.2980464694203
 30
0.0
 10
-18.03096605346121
 20
38.78202568207048
 30
0.0
 10
-19.49388466715508
 20
39.12013157209717
 30
0.0
 10
-20.83679867809899
 20
39.29834790094608
 30
0.0
 10
-22.0140836080639
 20
39.36787849467225
 30
0.0
 10
-23.33318765668663
 20
39.3487376472165
 30
0.0
 10
-24.76806441116065
 20
39.19607010907747
 30
0.0
 10
-26.2859741414911
 20
38.88468802835768
 30
0.0
 10
-27.71783099725147
 20
38.43968180924562
 30
0.0
 10
-29.0991125612161
 20
37.86257202053563
 30
0.0
 10
-30.15745475578345
 20
37.3140753650318
 30
0.0
 10
-30.69273927350144
 20
36.95581455745143
 30
0.0
 10
-30.8512327713138
 20
36.84973637539496
 30
0.0
  0
SPLINE
  5
9A
330
1F
100
AcDbEntity
  8
0
  6
Continuous
 62
     7
370
    25
100
AcDbSpline
210
0.0
220
0.0
230
1.0
 70
     8
 71
     3
 72
    12
 73
     8
 74
     0
 42
0.000000001
 43
0.00000001
 40
0.0
 40
0.0
 40
0.0
 40
0.0
 40
0.1425518570242042
 40
0.3957005290812228
 40
0.6490744174825621
 40
0.8881675726807757
 40
1.0
 40
1.0
 40
1.0
 40
1.0
 10
-11.26126639879873
 20
12.42414171526508
 30
0.0
 10
-11.25829709459734
 20
12.42722464749865
 30
0.0
 10
-11.25005479408983
 20
12.43578236075062
 30
0.0
 10
-11.41370359298953
 20
12.27256600644855
 30
0.0
 10
-11.72181176585845
 20
11.98399185215289
 30
0.0
 10
-12.06335645343797
 20
11.67548231869119
 30
0.0
 10
-12.32719680186651
 20
11.46357257084797
 30
0.0
 10
-12.41127704012628
 20
11.39604149686953
 30
0.0
  0
SPLINE
  5
9B
330
1F
100
AcDbEntity
  8
0
  6
Continuous
 62
     7
370
    25
100
AcDbSpline
210
0.0
220
0.0
230
1.0
 70
     8
 71
     3
 72
    21
 73
    17
 74
     0
 42
0.000000001
 43
0.00000001
 40
0.0
 40
0.0
 40
0.0
 40
0.0
 40
0.0123818529809522
 40
0.1148516159208746
 40
0.1798369820863897
 40
0.2449943837397748
 40
0.3099220535678079
 40
0.3753249368698572
 40
0.4409859856336917
 40
0.5063505830992295
 40
0.591703684324205
 40
0.677089137274218
 40
0.7618874306252534
 40
0.8467356752698005
 40
0.943122812328105
 40
1.0
 40
1.0
 40
1.0
 40
1.0
 10
-14.32417232789606
 20
10.06491381802661
 30
0.0
 10
-14.36987390359609
 20
10.03548919476516
 30
0.0
 10
-14.79379266820692
 20
9.762552217186744
 30
0.0
 10
-15.62543003392686
 20
9.349663740018189
 30
0.0
 10
-16.76146810805907
 20
8.870564859638213
 30
0.0
 10
-17.79752944612403
 20
8.518112728355318
 30
0.0
 10
-18.89773244211068
 20
8.22619817630067
 30
0.0
 10
-20.05779758670084
 20
8.012293631946603
 30
0.0
 10
-21.25792060421917
 20
7.882066745663054
 30
0.0
 10
-22.60127314266072
 20
7.838170001002778
 30
0.0
 10
-24.06493695280341
 20
7.926923485070863
 30
0.0
 10
-25.5985872394718
 20
8.170834122103482
 30
0.0
 10
-27.04088219585209
 20
8.549780505921133
 30
0.0
 10
-28.42096450143731
 20
9.052155586388995
 30
0.0
 10
-29.55133608909449
 20
9.57530165382351
 30
0.0
 10
-30.15469568451024
 20
9.938918365165542
 30
0.0
 10
-30.37860556701233
 20
10.07385841705332
 30
0.0
  0
SPLINE
  5
9C
330
1F
100
AcDbEntity
  8
0
  6
Continuous
 62
     7
370
    25
100
AcDbSpline
210
0.0
220
0.0
230
1.0
 70
     8
 71
     3
 72
    11
 73
     7
 74
     0
 42
0.000000001
 43
0.00000001
 40
0.0
 40
0.0
 40
0.0
 40
0.0
 40
0.2386864068253006
 40
0.5224399793953357
 40
0.805872315911243
 40
1.0
 40
1.0
 40
1.0
 40
1.0
 10
-32.37951602226614
 20
11.46649300296514
 30
0.0
 10
-32.53579426180868
 20
11.5976876486676
 30
0.0
 10
-32.87785814945314
 20
11.88484823275456
 30
0.0
 10
-33.22360539664749
 20
12.21075736840605
 30
0.0
 10
-33.44076440657145
 20
12.42391675898028
 30
0.0
 10
-33.44042625986555
 20
12.42330901504903
 30
0.0
 10
-33.44028880355836
 20
12.42306196773184
 30
0.0
  0
SPLINE
  5
9E
330
1F
100
AcDbEntity
  8
0
  6
Continuous
 62
     7
370
    25
100
AcDbSpline
210
0.0
220
0.0
230
1.0
 70
     8
 71
     3
 72
    16
 73
    12
 74
     0
 42
0.000000001
 43
0.00000001
 40
0.0
 40
0.0
 40
0.0
 40
0.0
 40
0.117686106294625
 40
0.2368207415758216
 40
0.3555378875861779
 40
0.4726424483998973
 40
0.5911980261790077
 40
0.7103792303831773
 40
0.8283157121845409
 40
0.9457694642894492
 40
1.0
 40
1.0
 40
1.0
 40
1.0
 10
-22.31764045564982
 20
-7.507242903452921
 30
0.0
 10
-21.7464128137287
 20
-7.484323232443746
 30
0.0
 10
-20.5969266251917
 20
-7.43820178569048
 30
0.0
 10
-18.92606251316626
 20
-7.366227202688983
 30
0.0
 10
-17.36525530341423
 20
-7.294902909332431
 30
0.0
 10
-15.96142038290407
 20
-7.227270496885797
 30
0.0
 10
-14.75503016595553
 20
-7.156257127707653
 30
0.0
 10
-13.77935098009106
 20
-7.084264187887331
 30
0.0
 10
-13.09125762337166
 20
-7.014558165247112
 30
0.0
 10
-12.71116384105341
 20
-6.958816090190869
 30
0.0
 10
-12.67661626556977
 20
-6.92419950386422
 30
0.0
 10
-12.66570359819748
 20
-6.913265037787848
 30
0.0
  0
SPLINE
  5
A0
330
1F
100
AcDbEntity
  8
0
  6
Continuous
 62
     7
370
    25
100
AcDbSpline
210
0.0
220
0.0
230
1.0
 70
     8
 71
     3
 72
    18
 73
    14
 74
     0
 42
0.000000001
 43
0.00000001
 40
0.0
 40
0.0
 40
0.0
 40
0.0
 40
0.0970734952928817
 40
0.195355266922993
 40
0.2937811687472697
 40
0.3912777079600813
 40
0.4880145124944382
 40
0.5860761023462284
 40
0.6845694096687364
 40
0.7824165566543262
 40
0.8790614155434935
 40
0.9768277946177104
 40
1.0
 40
1.0
 40
1.0
 40
1.0
 10
-22.35123277131387
 20
-6.641869252173697
 30
0.0
 10
-21.8027158313488
 20
-6.622853240235878
 30
0.0
 10
-20.69885454670711
 20
-6.584584523561824
 30
0.0
 10
-19.07452883895458
 20
-6.524851922677922
 30
0.0
 10
-17.51948085900763
 20
-6.465007671635947
 30
0.0
 10
-16.07730819334107
 20
-6.406721314592228
 30
0.0
 10
-14.7716430309853
 20
-6.350259297150426
 30
0.0
 10
-13.6246121507625
 20
-6.290822949895737
 30
0.0
 10
-12.66540138910921
 20
-6.23093946702841
 30
0.0
 10
-11.9159045073437
 20
-6.171904060406085
 30
0.0
 10
-11.41232399129509
 20
-6.115644430068998
 30
0.0
 10
-11.15643175394117
 20
-6.071972306323492
 30
0.0
 10
-11.14811436653075
 20
-6.047412995707366
 30
0.0
 10
-11.14652072947782
 20
-6.042707356128388
 30
0.0
  0
SPLINE
  5
A1
330
1F
100
AcDbEntity
  8
0
  6
Continuous
 62
     7
370
    25
100
AcDbSpline
210
0.0
220
0.0
230
1.0
 70
     8
 71
     3
 72
    29
 73
    25
 74
     0
 42
0.000000001
 43
0.00000001
 40
0.0
 40
0.0
 40
0.0
 40
0.0
 40
0.0279179603375081
 40
0.076565579025174
 40
0.1250035282219119
 40
0.1740947387738875
 40
0.2233299972119882
 40
0.2721711414503323
 40
0.3205018697207784
 40
0.3694641558155347
 40
0.418713865541837
 40
0.4677118960228973
 40
0.4999934317564303
 40
0.5485308170052323
 40
0.5976723483589026
 40
0.6468859457563376
 40
0.6956348557437602
 40
0.744003893401833
 40
0.7930353324201351
 40
0.8422826330094215
 40
0.8912068491861104
 40
0.939529913417667
 40
0.9884137451081663
 40
1.0
 40
1.0
 40
1.0
 40
1.0
 10
-33.54790586098984
 20
-4.741042621413709
 30
0.0
 10
-33.5318386483598
 20
-4.729700188338653
 30
0.0
 10
-33.48777398806702
 20
-4.698593332914856
 30
0.0
 10
-33.14799780731007
 20
-4.649275566297864
 30
0.0
 10
-32.56134476715593
 20
-4.592447453431608
 30
0.0
 10
-31.7401435652658
 20
-4.532837575473257
 30
0.0
 10
-30.71446965323819
 20
-4.472967008766441
 30
0.0
 10
-29.51189991093261
 20
-4.414271273702024
 30
0.0
 10
-28.15824606564528
 20
-4.357996879464418
 30
0.0
 10
-26.67550862318363
 20
-4.298809029534424
 30
0.0
 10
-25.09166585911499
 20
-4.238916918921327
 30
0.0
 10
-23.63375500714542
 20
-4.186121427929314
 30
0.0
 10
-22.16781311340531
 20
-4.135583704594197
 30
0.0
 10
-20.69876395177828
 20
-4.084558206080849
 30
0.0
 10
-19.07455328853315
 20
-4.02485902518716
 30
0.0
 10
-17.51947437108733
 20
-3.965005786919867
 30
0.0
 10
-16.07730990898184
 20
-3.906721812979321
 30
0.0
 10
-14.77164256586783
 20
-3.850259162035574
 30
0.0
 10
-13.62461227675302
 20
-3.790822986495499
 30
0.0
 10
-12.6654013555148
 20
-3.73093945726936
 30
0.0
 10
-11.91590451621844
 20
-3.671904062984163
 30
0.0
 10
-11.41232398880899
 20
-3.615644429346792
 30
0.0
 10
-11.15643175405882
 20
-3.571972306357671
 30
0.0
 10
-11.14811436654967
 20
-3.547412995712863
 30
0.0
 10
-11.14652072947782
 20
-3.542707356128386
 30
0.0
  0
SPLINE
  5
A2
330
1F
100
AcDbEntity
  8
0
  6
Continuous
 62
     7
370
    25
100
AcDbSpline
210
0.0
220
0.0
230
1.0
 70
     8
 71
     3
 72
    29
 73
    25
 74
     0
 42
0.000000001
 43
0.00000001
 40
0.0
 40
0.0
 40
0.0
 40
0.0
 40
0.0279179603375078
 40
0.0765655790251738
 40
0.1250035282219116
 40
0.1740947387738873
 40
0.2233299972119879
 40
0.2721711414503321
 40
0.3205018697207782
 40
0.3694641558155345
 40
0.4187138655418368
 40
0.4677118960228971
 40
0.4999934317564301
 40
0.5485308170052322
 40
0.5976723483589024
 40
0.6468859457563375
 40
0.69563485574376
 40
0.7440038934018329
 40
0.793035332420135
 40
0.8422826330094214
 40
0.8912068491861103
 40
0.9395299134176669
 40
0.988413745108166
 40
1.0
 40
1.0
 40
1.0
 40
1.0
 10
-33.54790586098984
 20
-2.241042621413711
 30
0.0
 10
-33.53183864835979
 20
-2.229700188338652
 30
0.0
 10
-33.48777398806701
 20
-2.198593332914858
 30
0.0
 10
-33.14799780731007
 20
-2.149275566297862
 30
0.0
 10
-32.56134476715592
 20
-2.092447453431606
 30
0.0
 10
-31.7401435652658
 20
-2.032837575473255
 30
0.0
 10
-30.71446965323819
 20
-1.972967008766441
 30
0.0
 10
-29.5118999109326
 20
-1.914271273702022
 30
0.0
 10
-28.15824606564529
 20
-1.857996879464419
 30
0.0
 10
-26.67550862318362
 20
-1.798809029534422
 30
0.0
 10
-25.091665859115
 20
-1.738916918921328
 30
0.0
 10
-23.63375500714542
 20
-1.686121427929316
 30
0.0
 10
-22.16781311340531
 20
-1.635583704594199
 30
0.0
 10
-20.69876395177828
 20
-1.58455820608085
 30
0.0
 10
-19.07455328853315
 20
-1.524859025187158
 30
0.0
 10
-17.51947437108733
 20
-1.465005786919868
 30
0.0
 10
-16.07730990898184
 20
-1.406721812979322
 30
0.0
 10
-14.77164256586783
 20
-1.350259162035575
 30
0.0
 10
-13.62461227675302
 20
-1.2908229864955
 30
0.0
 10
-12.6654013555148
 20
-1.230939457269362
 30
0.0
 10
-11.91590451621843
 20
-1.171904062984164
 30
0.0
 10
-11.41232398880899
 20
-1.115644429346793
 30
0.0
 10
-11.15643175405882
 20
-1.071972306357673
 30
0.0
 10
-11.14811436654967
 20
-1.04741299571286
 30
0.0
 10
-11.14652072947782
 20
-1.042707356128387
 30
0.0
  0
SPLINE
  5
A3
330
1F
100
AcDbEntity
  8
0
  6
Continuous
 62
     7
370
    25
100
AcDbSpline
210
0.0
220
0.0
230
1.0
 70
     8
 71
     3
 72
    29
 73
    25
 74
     0
 42
0.000000001
 43
0.00000001
 40
0.0
 40
0.0
 40
0.0
 40
0.0
 40
0.0279179603375081
 40
0.0765655790251741
 40
0.125003528221912
 40
0.1740947387738876
 40
0.2233299972119883
 40
0.2721711414503324
 40
0.3205018697207785
 40
0.3694641558155348
 40
0.4187138655418371
 40
0.4677118960228974
 40
0.4999934317564304
 40
0.5485308170052325
 40
0.5976723483589027
 40
0.6468859457563378
 40
0.6956348557437604
 40
0.7440038934018333
 40
0.7930353324201354
 40
0.8422826330094217
 40
0.8912068491861106
 40
0.9395299134176672
 40
0.9884137451081665
 40
1.0
 40
1.0
 40
1.0
 40
1.0
 10
-33.54790586098984
 20
0.258957378586288
 30
0.0
 10
-33.5318386483598
 20
0.2702998116613474
 30
0.0
 10
-33.48777398806701
 20
0.3014066670851412
 30
0.0
 10
-33.14799780731006
 20
0.3507244337021369
 30
0.0
 10
-32.56134476715594
 20
0.4075525465683932
 30
0.0
 10
-31.7401435652658
 20
0.4671624245267437
 30
0.0
 10
-30.71446965323818
 20
0.5270329912335607
 30
0.0
 10
-29.51189991093262
 20
0.5857287262979772
 30
0.0
 10
-28.15824606564528
 20
0.6420031205355802
 30
0.0
 10
-26.67550862318363
 20
0.7011909704655768
 30
0.0
 10
-25.091665859115
 20
0.7610830810786707
 30
0.0
 10
-23.63375500714543
 20
0.8138785720706865
 30
0.0
 10
-22.16781311340531
 20
0.8644162954058003
 30
0.0
 10
-20.69876395177829
 20
0.9154417939191521
 30
0.0
 10
-19.07455328853315
 20
0.9751409748128409
 30
0.0
 10
-17.51947437108733
 20
1.034994213080134
 30
0.0
 10
-16.07730990898184
 20
1.093278187020676
 30
0.0
 10
-14.77164256586783
 20
1.149740837964423
 30
0.0
 10
-13.62461227675302
 20
1.209177013504502
 30
0.0
 10
-12.6654013555148
 20
1.269060542730637
 30
0.0
 10
-11.91590451621844
 20
1.328095937015838
 30
0.0
 10
-11.41232398880899
 20
1.384355570653206
 30
0.0
 10
-11.15643175405883
 20
1.428027693642326
 30
0.0
 10
-11.14811436654966
 20
1.452587004287138
 30
0.0
 10
-11.14652072947782
 20
1.457292643871611
 30
0.0
  0
SPLINE
  5
A4
330
1F
100
AcDbEntity
  8
0
  6
Continuous
 62
     7
370
    25
100
AcDbSpline
210
0.0
220
0.0
230
1.0
 70
     8
 71
     3
 72
    29
 73
    25
 74
     0
 42
0.000000001
 43
0.00000001
 40
0.0
 40
0.0
 40
0.0
 40
0.0
 40
0.0279179603375086
 40
0.0765655790251746
 40
0.1250035282219124
 40
0.174094738773888
 40
0.2233299972119887
 40
0.2721711414503328
 40
0.3205018697207788
 40
0.3694641558155352
 40
0.4187138655418374
 40
0.4677118960228977
 40
0.4999934317564307
 40
0.5485308170052328
 40
0.5976723483589029
 40
0.646885945756338
 40
0.6956348557437605
 40
0.7440038934018334
 40
0.7930353324201355
 40
0.8422826330094219
 40
0.8912068491861107
 40
0.9395299134176672
 40
0.9884137451081664
 40
1.0
 40
1.0
 40
1.0
 40
1.0
 10
-33.54790586098984
 20
2.75895737858629
 30
0.0
 10
-33.5318386483598
 20
2.770299811661346
 30
0.0
 10
-33.48777398806701
 20
2.80140666708514
 30
0.0
 10
-33.14799780731006
 20
2.850724433702139
 30
0.0
 10
-32.56134476715594
 20
2.907552546568392
 30
0.0
 10
-31.74014356526581
 20
2.967162424526746
 30
0.0
 10
-30.71446965323819
 20
3.027032991233559
 30
0.0
 10
-29.51189991093261
 20
3.085728726297976
 30
0.0
 10
-28.15824606564528
 20
3.142003120535582
 30
0.0
 10
-26.67550862318364
 20
3.201190970465579
 30
0.0
 10
-25.091665859115
 20
3.261083081078669
 30
0.0
 10
-23.63375500714542
 20
3.313878572070685
 30
0.0
 10
-22.16781311340531
 20
3.364416295405802
 30
0.0
 10
-20.69876395177828
 20
3.415441793919151
 30
0.0
 10
-19.07455328853315
 20
3.475140974812839
 30
0.0
 10
-17.51947437108733
 20
3.534994213080133
 30
0.0
 10
-16.07730990898184
 20
3.593278187020679
 30
0.0
 10
-14.77164256586783
 20
3.649740837964425
 30
0.0
 10
-13.62461227675302
 20
3.709177013504504
 30
0.0
 10
-12.6654013555148
 20
3.769060542730639
 30
0.0
 10
-11.91590451621844
 20
3.82809593701584
 30
0.0
 10
-11.41232398880899
 20
3.884355570653208
 30
0.0
 10
-11.15643175405882
 20
3.928027693642328
 30
0.0
 10
-11.14811436654967
 20
3.952587004287137
 30
0.0
 10
-11.14652072947782
 20
3.957292643871614
 30
0.0
  0
SPLINE
  5
A5
330
1F
100
AcDbEntity
  8
0
  6
Continuous
 62
     7
370
    25
100
AcDbSpline
210
0.0
220
0.0
230
1.0
 70
     8
 71
     3
 72
    28
 73
    24
 74
     0
 42
0.000000001
 43
0.00000001
 40
0.0
 40
0.0
 40
0.0
 40
0.0
 40
0.0405930838520426
 40
0.0975640074455247
 40
0.1551224567010913
 40
0.213085841109121
 40
0.2705439383055695
 40
0.3275714641465677
 40
0.3757746544696072
 40
0.4240839613612969
 40
0.4719715817358224
 40
0.5194172482103875
 40
0.5675030768535767
 40
0.6158360287067487
 40
0.6638867602415607
 40
0.7113173786547828
 40
0.7592491624262545
 40
0.8075679245249013
 40
0.8557452461351103
 40
0.9032811416621946
 40
0.9510229062286484
 40
0.9992897104572382
 40
1.0
 40
1.0
 40
1.0
 40
1.0
 10
-12.14143083267774
 20
3.376886160417716
 30
0.0
 10
-12.18107626898751
 20
3.36010493926233
 30
0.0
 10
-12.27636263987288
 20
3.319771881746512
 30
0.0
 10
-12.75327843470057
 20
3.258865100403591
 30
0.0
 10
-13.55153212735871
 20
3.188212324411531
 30
0.0
 10
-14.63597128924892
 20
3.11619262434901
 30
0.0
 10
-15.95564393390826
 20
3.046017617132364
 30
0.0
 10
-17.3882740065492
 20
2.981803112637175
 30
0.0
 10
-18.86295912840821
 20
2.918166821949952
 30
0.0
 10
-20.32636702853524
 20
2.858319481255859
 30
0.0
 10
-21.82585168848593
 20
2.799817372572871
 30
0.0
 10
-23.33422133525854
 20
2.743468656698288
 30
0.0
 10
-24.82617668155602
 20
2.684147012327248
 30
0.0
 10
-26.27038021322216
 20
2.624262806762739
 30
0.0
 10
-27.62275310435388
 20
2.565073033619941
 30
0.0
 10
-28.85806536579924
 20
2.508798820069855
 30
0.0
 10
-29.95574150747174
 20
2.450102736358144
 30
0.0
 10
-30.89386300564824
 20
2.390233408220733
 30
0.0
 10
-31.64121243683812
 20
2.330619867749375
 30
0.0
 10
-32.19256388841445
 20
2.273805651879884
 30
0.0
 10
-32.50638042669834
 20
2.216044996577005
 30
0.0
 10
-32.63753864497741
 20
2.175818486156417
 30
0.0
 10
-32.60014555320816
 20
2.155614823794876
 30
0.0
 10
-32.59960326047477
 20
2.155321820494847
 30
0.0
  0
SPLINE
  5
A6
330
1F
100
AcDbEntity
  8
0
  6
Continuous
 62
     7
370
    25
100
AcDbSpline
210
0.0
220
0.0
230
1.0
 70
     8
 71
     3
 72
    28
 73
    24
 74
     0
 42
0.000000001
 43
0.00000001
 40
0.0
 40
0.0
 40
0.0
 40
0.0
 40
0.0405930838520426
 40
0.0975640074455248
 40
0.1551224567010915
 40
0.2130858411091212
 40
0.2705439383055698
 40
0.3275714641465681
 40
0.3757746544696076
 40
0.4240839613612973
 40
0.4719715817358229
 40
0.519417248210388
 40
0.5675030768535773
 40
0.6158360287067495
 40
0.6638867602415613
 40
0.7113173786547836
 40
0.7592491624262554
 40
0.8075679245249023
 40
0.8557452461351113
 40
0.9032811416621956
 40
0.9510229062286495
 40
0.9992897104572395
 40
1.0
 40
1.0
 40
1.0
 40
1.0
 10
-12.14143083267774
 20
0.8768861604177176
 30
0.0
 10
-12.18107626898751
 20
0.8601049392623316
 30
0.0
 10
-12.27636263987288
 20
0.8197718817465095
 30
0.0
 10
-12.75327843470058
 20
0.7588651004035927
 30
0.0
 10
-13.5515321273587
 20
0.6882123244115295
 30
0.0
 10
-14.63597128924892
 20
0.6161926243490115
 30
0.0
 10
-15.95564393390826
 20
0.5460176171323654
 30
0.0
 10
-17.3882740065492
 20
0.4818031126371768
 30
0.0
 10
-18.86295912840821
 20
0.4181668219499536
 30
0.0
 10
-20.32636702853524
 20
0.3583194812558609
 30
0.0
 10
-21.82585168848593
 20
0.2998173725728692
 30
0.0
 10
-23.33422133525855
 20
0.2434686566982862
 30
0.0
 10
-24.82617668155604
 20
0.1841470123272494
 30
0.0
 10
-26.27038021322215
 20
0.1242628067627399
 30
0.0
 10
-27.62275310435388
 20
0.065073033619939
 30
0.0
 10
-28.85806536579923
 20
0.0087988200698566
 30
0.0
 10
-29.95574150747174
 20
-0.0498972636418585
 30
0.0
 10
-30.89386300564824
 20
-0.1097665917792652
 30
0.0
 10
-31.64121243683811
 20
-0.1693801322506239
 30
0.0
 10
-32.19256388841446
 20
-0.2261943481201151
 30
0.0
 10
-32.50638042669836
 20
-0.283955003422997
 30
0.0
 10
-32.63753864497732
 20
-0.3241815138435786
 30
0.0
 10
-32.60014555320817
 20
-0.3443851762051225
 30
0.0
 10
-32.59960326047477
 20
-0.3446781795051513
 30
0.0
  0
SPLINE
  5
A7
330
1F
100
AcDbEntity
  8
0
  6
Continuous
 62
     7
370
    25
100
AcDbSpline
210
0.0
220
0.0
230
1.0
 70
     8
 71
     3
 72
    28
 73
    24
 74
     0
 42
0.000000001
 43
0.00000001
 40
0.0
 40
0.0
 40
0.0
 40
0.0
 40
0.0405930838520426
 40
0.0975640074455247
 40
0.1551224567010915
 40
0.2130858411091212
 40
0.2705439383055697
 40
0.327571464146568
 40
0.3757746544696074
 40
0.4240839613612972
 40
0.4719715817358227
 40
0.5194172482103878
 40
0.567503076853577
 40
0.6158360287067491
 40
0.6638867602415611
 40
0.7113173786547834
 40
0.759249162426255
 40
0.8075679245249019
 40
0.8557452461351108
 40
0.9032811416621952
 40
0.951022906228649
 40
0.999289710457239
 40
1.0
 40
1.0
 40
1.0
 40
1.0
 10
-12.14143083267774
 20
-1.623113839582285
 30
0.0
 10
-12.18107626898751
 20
-1.639895060737667
 30
0.0
 10
-12.27636263987288
 20
-1.680228118253489
 30
0.0
 10
-12.75327843470058
 20
-1.741134899596406
 30
0.0
 10
-13.5515321273587
 20
-1.811787675588469
 30
0.0
 10
-14.63597128924892
 20
-1.883807375650987
 30
0.0
 10
-15.95564393390826
 20
-1.953982382867637
 30
0.0
 10
-17.3882740065492
 20
-2.018196887362826
 30
0.0
 10
-18.86295912840821
 20
-2.081833178050049
 30
0.0
 10
-20.32636702853524
 20
-2.141680518744141
 30
0.0
 10
-21.82585168848593
 20
-2.20018262742713
 30
0.0
 10
-23.33422133525855
 20
-2.256531343301713
 30
0.0
 10
-24.82617668155602
 20
-2.315852987672753
 30
0.0
 10
-26.27038021322215
 20
-2.375737193237259
 30
0.0
 10
-27.62275310435388
 20
-2.43492696638006
 30
0.0
 10
-28.85806536579923
 20
-2.491201179930142
 30
0.0
 10
-29.95574150747174
 20
-2.549897263641857
 30
0.0
 10
-30.89386300564824
 20
-2.609766591779267
 30
0.0
 10
-31.6412124368381
 20
-2.669380132250623
 30
0.0
 10
-32.19256388841449
 20
-2.726194348120117
 30
0.0
 10
-32.50638042669824
 20
-2.783955003422992
 30
0.0
 10
-32.63753864497758
 20
-2.824181513843588
 30
0.0
 10
-32.60014555320816
 20
-2.844385176205121
 30
0.0
 10
-32.59960326047477
 20
-2.844678179505153
 30
0.0
  0
SPLINE
  5
A8
330
1F
100
AcDbEntity
  8
0
  6
Continuous
 62
     7
370
    25
100
AcDbSpline
210
0.0
220
0.0
230
1.0
 70
     8
 71
     3
 72
    28
 73
    24
 74
     0
 42
0.000000001
 43
0.00000001
 40
0.0
 40
0.0
 40
0.0
 40
0.0
 40
0.0405930838520418
 40
0.097564007445524
 40
0.1551224567010907
 40
0.2130858411091205
 40
0.270543938305569
 40
0.3275714641465673
 40
0.3757746544696069
 40
0.4240839613612967
 40
0.4719715817358223
 40
0.5194172482103875
 40
0.5675030768535767
 40
0.6158360287067488
 40
0.6638867602415608
 40
0.7113173786547831
 40
0.7592491624262548
 40
0.8075679245249018
 40
0.8557452461351107
 40
0.9032811416621952
 40
0.951022906228649
 40
0.999289710457239
 40
1.0
 40
1.0
 40
1.0
 40
1.0
 10
-12.14143083267775
 20
-4.123113839582284
 30
0.0
 10
-12.18107626898751
 20
-4.139895060737669
 30
0.0
 10
-12.27636263987288
 20
-4.180228118253488
 30
0.0
 10
-12.75327843470058
 20
-4.241134899596409
 30
0.0
 10
-13.5515321273587
 20
-4.311787675588468
 30
0.0
 10
-14.63597128924892
 20
-4.383807375650989
 30
0.0
 10
-15.95564393390826
 20
-4.453982382867635
 30
0.0
 10
-17.3882740065492
 20
-4.518196887362825
 30
0.0
 10
-18.86295912840821
 20
-4.581833178050047
 30
0.0
 10
-20.32636702853524
 20
-4.64168051874414
 30
0.0
 10
-21.82585168848593
 20
-4.700182627427128
 30
0.0
 10
-23.33422133525854
 20
-4.756531343301711
 30
0.0
 10
-24.82617668155602
 20
-4.815852987672751
 30
0.0
 10
-26.27038021322215
 20
-4.875737193237257
 30
0.0
 10
-27.62275310435388
 20
-4.934926966380062
 30
0.0
 10
-28.85806536579923
 20
-4.991201179930145
 30
0.0
 10
-29.95574150747174
 20
-5.049897263641859
 30
0.0
 10
-30.89386300564824
 20
-5.109766591779266
 30
0.0
 10
-31.6412124368381
 20
-5.169380132250621
 30
0.0
 10
-32.19256388841448
 20
-5.226194348120116
 30
0.0
 10
-32.50638042669825
 20
-5.283955003422994
 30
0.0
 10
-32.63753864497758
 20
-5.324181513843587
 30
0.0
 10
-32.60014555320816
 20
-5.344385176205123
 30
0.0
 10
-32.59960326047477
 20
-5.344678179505152
 30
0.0
  0
SPLINE
  5
AB
330
1F
100
AcDbEntity
  8
0
  6
Continuous
 62
     7
370
    25
100
AcDbSpline
210
0.0
220
0.0
230
1.0
 70
     8
 71
     3
 72
    18
 73
    14
 74
     0
 42
0.000000001
 43
0.00000001
 40
0.0
 40
0.0
 40
0.0
 40
0.0
 40
0.0929877864479492
 40
0.1871335928865203
 40
0.2814175366221694
 40
0.3748107678030638
 40
0.4674758721105355
 40
0.5614106526885623
 40
0.655759199364027
 40
0.7494884552941238
 40
0.8420654396632381
 40
0.9357172868868856
 40
1.0
 40
1.0
 40
1.0
 40
1.0
 10
-22.37362819633919
 20
-6.064939369758187
 30
0.0
 10
-21.8738224581983
 20
-6.045923326767917
 30
0.0
 10
-20.86798666947394
 20
-6.007654425192913
 30
0.0
 10
-19.38730319419959
 20
-5.947922021043113
 30
0.0
 10
-17.96929812488669
 20
-5.88807794686443
 30
0.0
 10
-16.65370099501645
 20
-5.829791560052564
 30
0.0
 10
-15.46202267457819
 20
-5.773329239117556
 30
0.0
 10
-14.41471371636663
 20
-5.713892729022996
 30
0.0
 10
-13.5374876544603
 20
-5.654010726754016
 30
0.0
 10
-12.8537602765321
 20
-5.59497055078477
 30
0.0
 10
-12.38405397772362
 20
-5.538728604462979
 30
0.0
 10
-12.12706015696721
 20
-5.486177235982961
 30
0.0
 10
-12.12610612903995
 20
-5.452669872875113
 30
0.0
 10
-12.12571781945514
 20
-5.439031665979508
 30
0.0
  0
SPLINE
  5
AC
330
1F
100
AcDbEntity
  8
0
  6
Continuous
 62
     7
370
    25
100
AcDbSpline
210
0.0
220
0.0
230
1.0
 70
     8
 71
     3
 72
    29
 73
    25
 74
     0
 42
0.000000001
 43
0.00000001
 40
0.0
 40
0.0
 40
0.0
 40
0.0
 40
0.0247492237325544
 40
0.072476747919933
 40
0.1199984644744083
 40
0.1681614157879007
 40
0.216465765401065
 40
0.2643832521146702
 40
0.3117997229572672
 40
0.3598361219545595
 40
0.4081546570897365
 40
0.4562261427266653
 40
0.4878970370476672
 40
0.5355163580060407
 40
0.5837287044327698
 40
0.6320117913786268
 40
0.6798387417860551
 40
0.7272928162641983
 40
0.7753970957224832
 40
0.8237132660252352
 40
0.8717122957023553
 40
0.9191212436989705
 40
0.9670806321481596
 40
1.0
 40
1.0
 40
1.0
 40
1.0
 10
-32.54808220151457
 20
-4.160843462917996
 30
0.0
 10
-32.53506065394705
 20
-4.150596811793586
 30
0.0
 10
-32.49692776417332
 20
-4.120590054466886
 30
0.0
 10
-32.19414492479101
 20
-4.07234962675923
 30
0.0
 10
-31.66353206765419
 20
-4.015516281653659
 30
0.0
 10
-30.91798986405896
 20
-3.955907939671859
 30
0.0
 10
-29.98616844202338
 20
-3.896037173638875
 30
0.0
 10
-28.89275816232305
 20
-3.837341608411878
 30
0.0
 10
-27.66132512047785
 20
-3.78106675086785
 30
0.0
 10
-26.31188044152975
 20
-3.721879065818196
 30
0.0
 10
-24.86987296298857
 20
-3.661987107559543
 30
0.0
 10
-23.54206153295668
 20
-3.609191727954653
 30
0.0
 10
-22.2065647434391
 20
-3.558653772053649
 30
0.0
 10
-20.86788257551852
 20
-3.507628113804558
 30
0.0
 10
-19.3873312869723
 20
-3.447929121934322
 30
0.0
 10
-17.9692906702489
 20
-3.388076062587196
 30
0.0
 10
-16.65370296627889
 20
-3.329792058320225
 30
0.0
 10
-15.46202214015782
 20
-3.27332910403438
 30
0.0
 10
-14.41471386112903
 20
-3.213892765613974
 30
0.0
 10
-13.53748761586667
 20
-3.154010716998865
 30
0.0
 10
-12.85376028670509
 20
-3.094970553356152
 30
0.0
 10
-12.38405397495598
 20
-3.038728603763415
 30
0.0
 10
-12.12706015741493
 20
-2.986177236096129
 30
0.0
 10
-12.12610612916946
 20
-2.952669872907848
 30
0.0
 10
-12.12571781945514
 20
-2.939031665979509
 30
0.0
  0
SPLINE
  5
AD
330
1F
100
AcDbEntity
  8
0
  6
Continuous
 62
     7
370
    25
100
AcDbSpline
210
0.0
220
0.0
230
1.0
 70
     8
 71
     3
 72
    29
 73
    25
 74
     0
 42
0.000000001
 43
0.00000001
 40
0.0
 40
0.0
 40
0.0
 40
0.0
 40
0.0247492237325543
 40
0.0724767479199329
 40
0.1199984644744083
 40
0.1681614157879006
 40
0.2164657654010648
 40
0.26438325211467
 40
0.311799722957267
 40
0.3598361219545593
 40
0.4081546570897363
 40
0.456226142726665
 40
0.4878970370476669
 40
0.5355163580060404
 40
0.5837287044327695
 40
0.6320117913786264
 40
0.6798387417860546
 40
0.7272928162641978
 40
0.7753970957224826
 40
0.8237132660252346
 40
0.8717122957023546
 40
0.9191212436989699
 40
0.9670806321481591
 40
1.0
 40
1.0
 40
1.0
 40
1.0
 10
-32.54808220151457
 20
-1.660843462917994
 30
0.0
 10
-32.53506065394706
 20
-1.650596811793588
 30
0.0
 10
-32.49692776417332
 20
-1.620590054466887
 30
0.0
 10
-32.19414492479101
 20
-1.572349626759232
 30
0.0
 10
-31.6635320676542
 20
-1.51551628165366
 30
0.0
 10
-30.91798986405897
 20
-1.455907939671857
 30
0.0
 10
-29.98616844202337
 20
-1.396037173638877
 30
0.0
 10
-28.89275816232304
 20
-1.337341608411879
 30
0.0
 10
-27.66132512047786
 20
-1.281066750867848
 30
0.0
 10
-26.31188044152974
 20
-1.221879065818197
 30
0.0
 10
-24.86987296298858
 20
-1.161987107559544
 30
0.0
 10
-23.54206153295668
 20
-1.10919172795465
 30
0.0
 10
-22.2065647434391
 20
-1.058653772053646
 30
0.0
 10
-20.86788257551852
 20
-1.007628113804556
 30
0.0
 10
-19.38733128697231
 20
-0.9479291219343239
 30
0.0
 10
-17.96929067024891
 20
-0.8880760625871974
 30
0.0
 10
-16.65370296627889
 20
-0.8297920583202265
 30
0.0
 10
-15.46202214015783
 20
-0.7733291040343815
 30
0.0
 10
-14.41471386112902
 20
-0.7138927656139757
 30
0.0
 10
-13.53748761586668
 20
-0.6540107169988665
 30
0.0
 10
-12.8537602867051
 20
-0.5949705533561528
 30
0.0
 10
-12.38405397495597
 20
-0.538728603763413
 30
0.0
 10
-12.12706015741493
 20
-0.4861772360961261
 30
0.0
 10
-12.12610612916945
 20
-0.452669872907846
 30
0.0
 10
-12.12571781945514
 20
-0.4390316659795071
 30
0.0
  0
SPLINE
  5
AE
330
1F
100
AcDbEntity
  8
0
  6
Continuous
 62
     7
370
    25
100
AcDbSpline
210
0.0
220
0.0
230
1.0
 70
     8
 71
     3
 72
    29
 73
    25
 74
     0
 42
0.000000001
 43
0.00000001
 40
0.0
 40
0.0
 40
0.0
 40
0.0
 40
0.0247492237325549
 40
0.0724767479199335
 40
0.1199984644744088
 40
0.1681614157879011
 40
0.2164657654010653
 40
0.2643832521146705
 40
0.3117997229572674
 40
0.3598361219545597
 40
0.4081546570897366
 40
0.4562261427266654
 40
0.4878970370476672
 40
0.5355163580060407
 40
0.5837287044327697
 40
0.6320117913786266
 40
0.6798387417860549
 40
0.7272928162641981
 40
0.7753970957224828
 40
0.8237132660252349
 40
0.8717122957023549
 40
0.9191212436989701
 40
0.9670806321481592
 40
1.0
 40
1.0
 40
1.0
 40
1.0
 10
-32.54808220151457
 20
0.8391565370820044
 30
0.0
 10
-32.53506065394706
 20
0.8494031882064108
 30
0.0
 10
-32.49692776417331
 20
0.8794099455331148
 30
0.0
 10
-32.19414492479103
 20
0.9276503732407703
 30
0.0
 10
-31.6635320676542
 20
0.984483718346342
 30
0.0
 10
-30.91798986405896
 20
1.044092060328142
 30
0.0
 10
-29.98616844202339
 20
1.103962826361125
 30
0.0
 10
-28.89275816232303
 20
1.162658391588123
 30
0.0
 10
-27.66132512047787
 20
1.218933249132151
 30
0.0
 10
-26.31188044152975
 20
1.278120934181805
 30
0.0
 10
-24.86987296298857
 20
1.338012892440458
 30
0.0
 10
-23.54206153295669
 20
1.390808272045348
 30
0.0
 10
-22.20656474343909
 20
1.441346227946352
 30
0.0
 10
-20.86788257551853
 20
1.492371886195443
 30
0.0
 10
-19.3873312869723
 20
1.552070878065675
 30
0.0
 10
-17.96929067024891
 20
1.611923937412805
 30
0.0
 10
-16.65370296627889
 20
1.670207941679772
 30
0.0
 10
-15.46202214015783
 20
1.726670895965617
 30
0.0
 10
-14.41471386112902
 20
1.786107234386026
 30
0.0
 10
-13.53748761586668
 20
1.845989283001132
 30
0.0
 10
-12.8537602867051
 20
1.905029446643846
 30
0.0
 10
-12.38405397495598
 20
1.961271396236586
 30
0.0
 10
-12.12706015741493
 20
2.013822763903873
 30
0.0
 10
-12.12610612916946
 20
2.047330127092153
 30
0.0
 10
-12.12571781945514
 20
2.060968334020492
 30
0.0
  0
SPLINE
  5
AF
330
1F
100
AcDbEntity
  8
0
  6
Continuous
 62
     7
370
    25
100
AcDbSpline
210
0.0
220
0.0
230
1.0
 70
     8
 71
     3
 72
    29
 73
    25
 74
     0
 42
0.000000001
 43
0.00000001
 40
0.0
 40
0.0
 40
0.0
 40
0.0
 40
0.0247492237325555
 40
0.072476747919934
 40
0.1199984644744092
 40
0.1681614157879015
 40
0.2164657654010657
 40
0.2643832521146708
 40
0.3117997229572677
 40
0.3598361219545599
 40
0.4081546570897369
 40
0.4562261427266656
 40
0.4878970370476675
 40
0.5355163580060409
 40
0.5837287044327699
 40
0.6320117913786268
 40
0.679838741786055
 40
0.7272928162641982
 40
0.7753970957224828
 40
0.8237132660252349
 40
0.8717122957023548
 40
0.91912124369897
 40
0.9670806321481591
 40
1.0
 40
1.0
 40
1.0
 40
1.0
 10
-32.54808220151457
 20
3.339156537082003
 30
0.0
 10
-32.53506065394705
 20
3.34940318820641
 30
0.0
 10
-32.49692776417332
 20
3.379409945533113
 30
0.0
 10
-32.19414492479101
 20
3.427650373240766
 30
0.0
 10
-31.6635320676542
 20
3.484483718346341
 30
0.0
 10
-30.91798986405896
 20
3.54409206032814
 30
0.0
 10
-29.98616844202338
 20
3.603962826361124
 30
0.0
 10
-28.89275816232304
 20
3.662658391588122
 30
0.0
 10
-27.66132512047787
 20
3.718933249132153
 30
0.0
 10
-26.31188044152975
 20
3.778120934181804
 30
0.0
 10
-24.86987296298857
 20
3.838012892440457
 30
0.0
 10
-23.54206153295668
 20
3.890808272045347
 30
0.0
 10
-22.2065647434391
 20
3.941346227946351
 30
0.0
 10
-20.86788257551853
 20
3.992371886195441
 30
0.0
 10
-19.3873312869723
 20
4.052070878065677
 30
0.0
 10
-17.9692906702489
 20
4.111923937412803
 30
0.0
 10
-16.65370296627889
 20
4.170207941679775
 30
0.0
 10
-15.46202214015782
 20
4.226670895965616
 30
0.0
 10
-14.41471386112902
 20
4.286107234386026
 30
0.0
 10
-13.53748761586668
 20
4.345989283001135
 30
0.0
 10
-12.85376028670509
 20
4.405029446643844
 30
0.0
 10
-12.38405397495598
 20
4.461271396236588
 30
0.0
 10
-12.12706015741492
 20
4.513822763903875
 30
0.0
 10
-12.12610612916946
 20
4.547330127092155
 30
0.0
 10
-12.12571781945514
 20
4.560968334020494
 30
0.0
  0
LINE
  5
B1
330
1F
100
AcDbEntity
  8
0
  6
Continuous
 62
     7
370
    25
100
AcDbLine
 10
-12.6275816168
 20
-6.9133836517
 30
0.0
 11
-12.1732224738
 21
-6.6501621596
 31
0.0
  0
LINE
  5
B2
330
1F
100
AcDbEntity
  8
0
  6
Continuous
 62
     7
370
    25
100
AcDbLine
 10
-32.6012327713
 20
-5.3446781795
 30
0.0
 11
-32.6012327713
 21
-6.6418692522
 31
0.0
  0
LINE
  5
B3
330
1F
100
AcDbEntity
  8
0
  6
Continuous
 62
     7
370
    25
100
AcDbLine
 10
-32.6012327713
 20
-2.8446781795
 30
0.0
 11
-32.6012327713
 21
-4.1753038889
 31
0.0
  0
LINE
  5
B4
330
1F
100
AcDbEntity
  8
0
  6
Continuous
 62
     7
370
    25
100
AcDbLine
 10
-32.6012327713
 20
-0.3446781795
 30
0.0
 11
-32.6012327713
 21
-1.6753038889
 31
0.0
  0
LINE
  5
B5
330
1F
100
AcDbEntity
  8
0
  6
Continuous
 62
     7
370
    25
100
AcDbLine
 10
-32.6012327713
 20
2.1553218205
 30
0.0
 11
-32.6012327713
 21
0.8246961111
 31
0.0
  0
LINE
  5
B6
330
1F
100
AcDbEntity
  8
0
  6
Continuous
 62
     7
370
    25
100
AcDbLine
 10
-32.6012327713
 20
11.632061501
 30
0.0
 11
-32.6012327713
 21
3.3246961111
 31
0.0
  0
LINE
  5
B7
330
1F
100
AcDbEntity
  8
0
  6
Continuous
 62
     7
370
    25
100
AcDbLine
 10
-12.1012327713
 20
4.560968334
 30
0.0
 11
-12.1012327713
 21
11.6315261628
 31
0.0
  0
LINE
  5
B8
330
1F
100
AcDbEntity
  8
0
  6
Continuous
 62
     7
370
    25
100
AcDbLine
 10
-12.1012327713
 20
2.060968334
 30
0.0
 11
-12.1012327713
 21
3.391543256
 31
0.0
  0
LINE
  5
B9
330
1F
100
AcDbEntity
  8
0
  6
Continuous
 62
     7
370
    25
100
AcDbLine
 10
-12.1012327713
 20
-0.439031666
 30
0.0
 11
-12.1012327713
 21
0.891543256
 31
0.0
  0
LINE
  5
BA
330
1F
100
AcDbEntity
  8
0
  6
Continuous
 62
     7
370
    25
100
AcDbLine
 10
-12.1012327713
 20
-2.939031666
 30
0.0
 11
-12.1012327713
 21
-1.608456744
 31
0.0
  0
LINE
  5
BB
330
1F
100
AcDbEntity
  8
0
  6
Continuous
 62
     7
370
    25
100
AcDbLine
 10
-12.1012327713
 20
-5.439031666
 30
0.0
 11
-12.1012327713
 21
-4.108456744
 31
0.0
  0
LINE
  5
BC
330
1F
100
AcDbEntity
  8
0
  6
Continuous
 62
     7
370
    25
100
AcDbLine
 10
-12.1012327713
 20
-6.6418692522
 30
0.0
 11
-12.1012327713
 21
-6.608456744
 31
0.0
  0
LINE
  5
BD
330
1F
100
AcDbEntity
  8
0
  6
Continuous
 62
     7
370
    25
100
AcDbLine
 10
-14.3244488064
 20
10.0569965082
 30
0.0
 11
-13.8512327713
 21
23.6081307478
 31
0.0
  0
LINE
  5
BE
330
1F
100
AcDbEntity
  8
0
  6
Continuous
 62
     7
370
    25
100
AcDbLine
 10
-13.8512327713
 20
36.867561354
 30
0.0
 11
-13.8512327713
 21
23.6081307478
 31
0.0
  0
LINE
  5
BF
330
1F
100
AcDbEntity
  8
0
  6
Continuous
 62
     7
370
    25
100
AcDbLine
 10
-30.8512327713
 20
23.6081307478
 30
0.0
 11
-30.8512327713
 21
36.867561354
 31
0.0
  0
LINE
  5
C0
330
1F
100
AcDbEntity
  8
0
  6
Continuous
 62
     7
370
    25
100
AcDbLine
 10
-30.8512327713
 20
23.6081307478
 30
0.0
 11
-30.3780167362
 21
10.0569965082
 31
0.0
  0
LINE
  5
C1
330
1F
100
AcDbEntity
  8
0
  6
Continuous
 62
     7
370
    25
100
AcDbLine
 10
-13.8512327713
 20
23.6081307478
 30
0.0
 11
-30.8512327713
 21
23.6081307478
 31
0.0
  0
LINE
  5
C2
330
1F
100
AcDbEntity
  8
0
  6
Continuous
 62
     7
370
    25
100
AcDbLine
 10
-12.1712280848
 20
-6.6418692522
 30
0.0
 11
-12.1780272666
 21
-6.6418692522
 31
0.0
  0
LINE
  5
C3
330
1F
100
AcDbEntity
  8
0
  6
Continuous
 62
     7
370
    25
100
AcDbLine
 10
-22.3736281963
 20
-6.0649393698
 30
0.0
 11
-22.3176404556
 21
-7.5072429035
 31
0.0
  0
LINE
  5
C4
330
1F
100
AcDbEntity
  8
0
  6
Continuous
 62
     7
370
    25
100
AcDbLine
 10
-12.1321279764
 20
-6.6231238113
 30
0.0
 11
-12.1712280848
 21
-6.6418692522
 31
0.0
  0
LINE
  5
C5
330
1F
100
AcDbEntity
  8
0
  6
Continuous
 62
     7
370
    25
100
AcDbLine
 10
-32.6012327713
 20
-6.6418692522
 30
0.0
 11
-22.3512327713
 21
-6.6418692522
 31
0.0
  0
ARC
  5
C6
330
1F
100
AcDbEntity
  8
0
  6
Continuous
 62
     7
370
    25
100
AcDbCircle
 10
-22.3512327713
 20
23.6081307478
 30
0.0
 40
25.00000000000001
100
AcDbArc
 50
294.2048348015
 51
245.8058862759
  0
ARC
  5
C7
330
1F
100
AcDbEntity
  8
0
  6
Continuous
 62
     7
370
    25
100
AcDbCircle
 10
-22.3512327713
 20
23.6081307478
 30
0.0
 40
15.74999999999999
100
AcDbArc
 50
300.639658657
 51
57.3379694375
  0
ARC
  5
C8
330
1F
100
AcDbEntity
  8
0
  6
Continuous
 62
     7
370
    25
100
AcDbCircle
 10
-22.3512327713
 20
23.6081307478
 30
0.0
 40
15.74999999999999
100
AcDbArc
 50
122.6620305625
 51
239.360341343
  0
SPLINE
  5
CE
330
1B
100
AcDbEntity
 67
     1
  8
0
  6
Continuous
 62
     7
370
    25
100
AcDbSpline
210
0.0
220
0.0
230
1.0
 70
     8
 71
     3
 72
     9
 73
     5
 74
     0
 42
0.000000001
 43
0.00000001
 40
0.0
 40
0.0
 40
0.0
 40
0.0
 40
0.5000114424617335
 40
1.0
 40
1.0
 40
1.0
 40
1.0
 10
11.88704930954525
 20
-4.054939253960745
 30
0.0
 10
11.72385821516126
 20
-3.958558705540152
 30
0.0
 10
11.39748349545377
 20
-3.765802019920966
 30
0.0
 10
11.07146419277224
 20
-3.573031940369675
 30
0.0
 10
10.90845827189486
 20
-3.476649106358288
 30
0.0
  0
SPLINE
  5
CF
330
1B
100
AcDbEntity
 67
     1
  8
0
  6
Continuous
 62
     7
370
    25
100
AcDbSpline
210
0.0
220
0.0
230
1.0
 70
     8
 71
     3
 72
     9
 73
     5
 74
     0
 42
0.000000001
 43
0.00000001
 40
0.0
 40
0.0
 40
0.0
 40
0.0
 40
0.5000114424617336
 40
1.0
 40
1.0
 40
1.0
 40
1.0
 10
11.88704930954525
 20
-1.554939253960747
 30
0.0
 10
11.72385821516126
 20
-1.458558705540153
 30
0.0
 10
11.39748349545377
 20
-1.265802019920961
 30
0.0
 10
11.07146419277224
 20
-1.073031940369673
 30
0.0
 10
10.90845827189486
 20
-0.9766491063582898
 30
0.0
  0
SPLINE
  5
D0
330
1B
100
AcDbEntity
 67
     1
  8
0
  6
Continuous
 62
     7
370
    25
100
AcDbSpline
210
0.0
220
0.0
230
1.0
 70
     8
 71
     3
 72
     9
 73
     5
 74
     0
 42
0.000000001
 43
0.00000001
 40
0.0
 40
0.0
 40
0.0
 40
0.0
 40
0.5000114424617349
 40
1.0
 40
1.0
 40
1.0
 40
1.0
 10
11.88704930954525
 20
0.9450607460392523
 30
0.0
 10
11.72385821516126
 20
1.041441294459846
 30
0.0
 10
11.39748349545376
 20
1.234197980079038
 30
0.0
 10
11.07146419277223
 20
1.426968059630326
 30
0.0
 10
10.90845827189486
 20
1.523350893641709
 30
0.0
  0
SPLINE
  5
D1
330
1B
100
AcDbEntity
 67
     1
  8
0
  6
Continuous
 62
     7
370
    25
100
AcDbSpline
210
0.0
220
0.0
230
1.0
 70
     8
 71
     3
 72
     9
 73
     5
 74
     0
 42
0.000000001
 43
0.00000001
 40
0.0
 40
0.0
 40
0.0
 40
0.0
 40
0.5000114424617326
 40
1.0
 40
1.0
 40
1.0
 40
1.0
 10
11.88704930954525
 20
3.445060746039255
 30
0.0
 10
11.72385821516126
 20
3.541441294459848
 30
0.0
 10
11.39748349545377
 20
3.734197980079037
 30
0.0
 10
11.07146419277223
 20
3.926968059630324
 30
0.0
 10
10.90845827189486
 20
4.023350893641712
 30
0.0
  0
SPLINE
  5
D2
330
1B
100
AcDbEntity
 67
     1
  8
0
  6
Continuous
 62
     7
370
    25
100
AcDbSpline
210
0.0
220
0.0
230
1.0
 70
     8
 71
     3
 72
     9
 73
     5
 74
     0
 42
0.000000001
 43
0.00000001
 40
0.0
 40
0.0
 40
0.0
 40
0.0
 40
0.4999367019773466
 40
1.0
 40
1.0
 40
1.0
 40
1.0
 10
-9.320115359139056
 20
-2.288672673806284
 30
0.0
 10
-9.48707574098315
 20
-2.385357546174433
 30
0.0
 10
-9.821038783071748
 20
-2.57875177385514
 30
0.0
 10
-10.15504551950478
 20
-2.772070166356128
 30
0.0
 10
-10.32207002968727
 20
-2.86874159927861
 30
0.0
  0
SPLINE
  5
D3
330
1B
100
AcDbEntity
 67
     1
  8
0
  6
Continuous
 62
     7
370
    25
100
AcDbSpline
210
0.0
220
0.0
230
1.0
 70
     8
 71
     3
 72
     9
 73
     5
 74
     0
 42
0.000000001
 43
0.00000001
 40
0.0
 40
0.0
 40
0.0
 40
0.0
 40
0.499936701977345
 40
0.9999999999999999
 40
0.9999999999999999
 40
0.9999999999999999
 40
0.9999999999999999
 10
-9.320115359139056
 20
0.2113273261937186
 30
0.0
 10
-9.487075740983151
 20
0.114642453825569
 30
0.0
 10
-9.821038783071746
 20
-0.0787517738551381
 30
0.0
 10
-10.15504551950478
 20
-0.272070166356126
 30
0.0
 10
-10.32207002968727
 20
-0.3687415992786082
 30
0.0
  0
SPLINE
  5
D4
330
1B
100
AcDbEntity
 67
     1
  8
0
  6
Continuous
 62
     7
370
    25
100
AcDbSpline
210
0.0
220
0.0
230
1.0
 70
     8
 71
     3
 72
     9
 73
     5
 74
     0
 42
0.000000001
 43
0.00000001
 40
0.0
 40
0.0
 40
0.0
 40
0.0
 40
0.4999367019773456
 40
0.9999999999999999
 40
0.9999999999999999
 40
0.9999999999999999
 40
0.9999999999999999
 10
-9.320115359139056
 20
2.711327326193717
 30
0.0
 10
-9.487075740983148
 20
2.614642453825568
 30
0.0
 10
-9.82103878307175
 20
2.42124822614486
 30
0.0
 10
-10.15504551950478
 20
2.227929833643873
 30
0.0
 10
-10.32207002968727
 20
2.131258400721391
 30
0.0
  0
SPLINE
  5
D5
330
1B
100
AcDbEntity
 67
     1
  8
0
  6
Continuous
 62
     7
370
    25
100
AcDbSpline
210
0.0
220
0.0
230
1.0
 70
     8
 71
     3
 72
     9
 73
     5
 74
     0
 42
0.000000001
 43
0.00000001
 40
0.0
 40
0.0
 40
0.0
 40
0.0
 40
0.499936701977349
 40
1.0
 40
1.0
 40
1.0
 40
1.0
 10
-9.320115359139056
 20
-4.788672673806282
 30
0.0
 10
-9.487075740983151
 20
-4.885357546174432
 30
0.0
 10
-9.82103878307175
 20
-5.078751773855139
 30
0.0
 10
-10.15504551950478
 20
-5.272070166356127
 30
0.0
 10
-10.32207002968727
 20
-5.368741599278609
 30
0.0
  0
SPLINE
  5
D6
330
1B
100
AcDbEntity
 67
     1
  8
0
  6
Continuous
 62
     7
370
    25
100
AcDbSpline
210
0.0
220
0.0
230
1.0
 70
     8
 71
     3
 72
     9
 73
     5
 74
     0
 42
0.000000001
 43
0.00000001
 40
0.0
 40
0.0
 40
0.0
 40
0.0
 40
0.2577393442533188
 40
1.0
 40
1.0
 40
1.0
 40
1.0
 10
10.89796105623024
 20
-2.313189441708142
 30
0.0
 10
10.98285174666538
 20
-2.262979365946972
 30
0.0
 10
11.31221818732686
 20
-2.06816985439711
 30
0.0
 10
11.64215224186822
 20
-1.873382350649558
 30
0.0
 10
11.88704930954525
 20
-1.728799250386642
 30
0.0
  0
SPLINE
  5
D7
330
1B
100
AcDbEntity
 67
     1
  8
0
  6
Continuous
 62
     7
370
    25
100
AcDbSpline
210
0.0
220
0.0
230
1.0
 70
     8
 71
     3
 72
     9
 73
     5
 74
     0
 42
0.000000001
 43
0.00000001
 40
0.0
 40
0.0
 40
0.0
 40
0.0
 40
0.2577393442533188
 40
1.0
 40
1.0
 40
1.0
 40
1.0
 10
10.89796105623024
 20
0.1868105582918562
 30
0.0
 10
10.98285174666538
 20
0.2370206340530298
 30
0.0
 10
11.31221818732686
 20
0.4318301456028885
 30
0.0
 10
11.64215224186822
 20
0.626617649350441
 30
0.0
 10
11.88704930954525
 20
0.7712007496133572
 30
0.0
  0
SPLINE
  5
D8
330
1B
100
AcDbEntity
 67
     1
  8
0
  6
Continuous
 62
     7
370
    25
100
AcDbSpline
210
0.0
220
0.0
230
1.0
 70
     8
 71
     3
 72
     9
 73
     5
 74
     0
 42
0.000000001
 43
0.00000001
 40
0.0
 40
0.0
 40
0.0
 40
0.0
 40
0.257739344253319
 40
1.0
 40
1.0
 40
1.0
 40
1.0
 10
10.89796105623024
 20
2.686810558291858
 30
0.0
 10
10.98285174666538
 20
2.737020634053029
 30
0.0
 10
11.31221818732686
 20
2.931830145602891
 30
0.0
 10
11.64215224186822
 20
3.126617649350443
 30
0.0
 10
11.88704930954525
 20
3.271200749613356
 30
0.0
  0
SPLINE
  5
D9
330
1B
100
AcDbEntity
 67
     1
  8
0
  6
Continuous
 62
     7
370
    25
100
AcDbSpline
210
0.0
220
0.0
230
1.0
 70
     8
 71
     3
 72
     9
 73
     5
 74
     0
 42
0.000000001
 43
0.00000001
 40
0.0
 40
0.0
 40
0.0
 40
0.0
 40
0.7670021946397787
 40
1.0
 40
1.0
 40
1.0
 40
1.0
 10
-10.32207002968727
 20
-2.914996905068776
 30
0.0
 10
-10.07148359014491
 20
-3.060026645199085
 30
0.0
 10
-9.744774695054913
 20
-3.249113118671851
 30
0.0
 10
-9.418135125706144
 20
-3.438319666614977
 30
0.0
 10
-9.342028822904073
 20
-3.482404377045511
 30
0.0
  0
SPLINE
  5
DA
330
1B
100
AcDbEntity
 67
     1
  8
0
  6
Continuous
 62
     7
370
    25
100
AcDbSpline
210
0.0
220
0.0
230
1.0
 70
     8
 71
     3
 72
     9
 73
     5
 74
     0
 42
0.000000001
 43
0.00000001
 40
0.0
 40
0.0
 40
0.0
 40
0.0
 40
0.7670021946397805
 40
1.0
 40
1.0
 40
1.0
 40
1.0
 10
-10.32207002968727
 20
-0.4149969050687742
 30
0.0
 10
-10.07148359014491
 20
-0.5600266451990833
 30
0.0
 10
-9.744774695054913
 20
-0.7491131186718493
 30
0.0
 10
-9.418135125706142
 20
-0.9383196666149785
 30
0.0
 10
-9.342028822904071
 20
-0.9824043770455086
 30
0.0
  0
SPLINE
  5
DB
330
1B
100
AcDbEntity
 67
     1
  8
0
  6
Continuous
 62
     7
370
    25
100
AcDbSpline
210
0.0
220
0.0
230
1.0
 70
     8
 71
     3
 72
     9
 73
     5
 74
     0
 42
0.000000001
 43
0.00000001
 40
0.0
 40
0.0
 40
0.0
 40
0.0
 40
0.7670021946397786
 40
1.0
 40
1.0
 40
1.0
 40
1.0
 10
-10.32207002968727
 20
2.085003094931225
 30
0.0
 10
-10.07148359014491
 20
1.939973354800915
 30
0.0
 10
-9.744774695054913
 20
1.75088688132815
 30
0.0
 10
-9.418135125706144
 20
1.561680333385024
 30
0.0
 10
-9.342028822904071
 20
1.51759562295449
 30
0.0
  0
SPLINE
  5
DC
330
1B
100
AcDbEntity
 67
     1
  8
0
  6
Continuous
 62
     7
370
    25
100
AcDbSpline
210
0.0
220
0.0
230
1.0
 70
     8
 71
     3
 72
     9
 73
     5
 74
     0
 42
0.000000001
 43
0.00000001
 40
0.0
 40
0.0
 40
0.0
 40
0.0
 40
0.7670021946397809
 40
1.0
 40
1.0
 40
1.0
 40
1.0
 10
-10.32207002968727
 20
4.585003094931223
 30
0.0
 10
-10.07148359014491
 20
4.439973354800914
 30
0.0
 10
-9.74477469505491
 20
4.250886881328149
 30
0.0
 10
-9.418135125706144
 20
4.061680333385023
 30
0.0
 10
-9.342028822904073
 20
4.017595622954489
 30
0.0
  0
SPLINE
  5
DD
330
1B
100
AcDbEntity
 67
     1
  8
0
  6
Continuous
 62
     7
370
    25
100
AcDbSpline
210
0.0
220
0.0
230
1.0
 70
     8
 71
     3
 72
     9
 73
     5
 74
     0
 42
0.000000001
 43
0.00000001
 40
0.0
 40
0.0
 40
0.0
 40
0.0
 40
0.7670021946397776
 40
1.0
 40
1.0
 40
1.0
 40
1.0
 10
-10.32207002968727
 20
-5.414996905068775
 30
0.0
 10
-10.07148359014491
 20
-5.560026645199084
 30
0.0
 10
-9.744774695054915
 20
-5.74911311867185
 30
0.0
 10
-9.418135125706144
 20
-5.938319666614979
 30
0.0
 10
-9.342028822904071
 20
-5.982404377045513
 30
0.0
  0
SPLINE
  5
DE
330
1B
100
AcDbEntity
 67
     1
  8
0
  6
Continuous
 62
     7
370
    25
100
AcDbSpline
210
0.0
220
0.0
230
1.0
 70
     8
 71
     3
 72
     9
 73
     5
 74
     0
 42
0.000000001
 43
0.00000001
 40
0.0
 40
0.0
 40
0.0
 40
0.0
 40
0.2577393442533168
 40
1.0
 40
1.0
 40
1.0
 40
1.0
 10
10.89796105623024
 20
-4.813189441708142
 30
0.0
 10
10.98285174666538
 20
-4.762979365946971
 30
0.0
 10
11.31221818732686
 20
-4.568169854397112
 30
0.0
 10
11.64215224186822
 20
-4.37338235064956
 30
0.0
 10
11.88704930954525
 20
-4.228799250386643
 30
0.0
  0
SPLINE
  5
DF
330
1B
100
AcDbEntity
 67
     1
  8
0
  6
Continuous
 62
     7
370
    25
100
AcDbSpline
210
0.0
220
0.0
230
1.0
 70
     8
 71
     3
 72
     9
 73
     5
 74
     0
 42
0.000000001
 43
0.00000001
 40
0.0
 40
0.0
 40
0.0
 40
0.0
 40
0.2676874130387187
 40
1.0
 40
1.0
 40
1.0
 40
1.0
 10
-41.8367024809002
 20
13.15722104327304
 30
0.0
 10
-41.78364529412374
 20
13.06562817552911
 30
0.0
 10
-41.58543953549595
 20
12.72346465463664
 30
0.0
 10
-41.38735861276358
 20
12.38122430322182
 30
0.0
 10
-41.24230145980976
 20
12.1305973861147
 30
0.0
  0
SPLINE
  5
E0
330
1B
100
AcDbEntity
 67
     1
  8
0
  6
Continuous
 62
     7
370
    25
100
AcDbSpline
210
0.0
220
0.0
230
1.0
 70
     8
 71
     3
 72
     9
 73
     5
 74
     0
 42
0.000000001
 43
0.00000001
 40
0.0
 40
0.0
 40
0.0
 40
0.0
 40
0.2676874130387168
 40
1.0
 40
1.0
 40
1.0
 40
1.0
 10
-39.3367024809002
 20
13.15722104327303
 30
0.0
 10
-39.28364529412375
 20
13.06562817552911
 30
0.0
 10
-39.08543953549594
 20
12.72346465463663
 30
0.0
 10
-38.88735861276358
 20
12.38122430322182
 30
0.0
 10
-38.74230145980976
 20
12.1305973861147
 30
0.0
  0
SPLINE
  5
E1
330
1B
100
AcDbEntity
 67
     1
  8
0
  6
Continuous
 62
     7
370
    25
100
AcDbSpline
210
0.0
220
0.0
230
1.0
 70
     8
 71
     3
 72
     9
 73
     5
 74
     0
 42
0.000000001
 43
0.00000001
 40
0.0
 40
0.0
 40
0.0
 40
0.0
 40
0.2676874130387149
 40
1.0
 40
1.0
 40
1.0
 40
1.0
 10
-36.8367024809002
 20
13.15722104327304
 30
0.0
 10
-36.78364529412375
 20
13.06562817552911
 30
0.0
 10
-36.58543953549594
 20
12.72346465463664
 30
0.0
 10
-36.38735861276357
 20
12.38122430322182
 30
0.0
 10
-36.24230145980976
 20
12.1305973861147
 30
0.0
  0
SPLINE
  5
E2
330
1B
100
AcDbEntity
 67
     1
  8
0
  6
Continuous
 62
     7
370
    25
100
AcDbSpline
210
0.0
220
0.0
230
1.0
 70
     8
 71
     3
 72
     9
 73
     5
 74
     0
 42
0.000000001
 43
0.00000001
 40
0.0
 40
0.0
 40
0.0
 40
0.0
 40
0.2676874130387162
 40
1.0
 40
1.0
 40
1.0
 40
1.0
 10
-34.3367024809002
 20
13.15722104327304
 30
0.0
 10
-34.28364529412375
 20
13.06562817552911
 30
0.0
 10
-34.08543953549595
 20
12.72346465463664
 30
0.0
 10
-33.88735861276358
 20
12.38122430322182
 30
0.0
 10
-33.74230145980975
 20
12.1305973861147
 30
0.0
  0
SPLINE
  5
E3
330
1B
100
AcDbEntity
 67
     1
  8
0
  6
Continuous
 62
     7
370
    25
100
AcDbSpline
210
0.0
220
0.0
230
1.0
 70
     8
 71
     3
 72
     9
 73
     5
 74
     0
 42
0.000000001
 43
0.00000001
 40
0.0
 40
0.0
 40
0.0
 40
0.0
 40
0.2676874130387184
 40
0.9999999999999999
 40
0.9999999999999999
 40
0.9999999999999999
 40
0.9999999999999999
 10
-31.8367024809002
 20
13.15722104327303
 30
0.0
 10
-31.78364529412374
 20
13.06562817552911
 30
0.0
 10
-31.58543953549595
 20
12.72346465463664
 30
0.0
 10
-31.38735861276357
 20
12.38122430322182
 30
0.0
 10
-31.24230145980976
 20
12.1305973861147
 30
0.0
  0
SPLINE
  5
E4
330
1B
100
AcDbEntity
 67
     1
  8
0
  6
Continuous
 62
     7
370
    25
100
AcDbSpline
210
0.0
220
0.0
230
1.0
 70
     8
 71
     3
 72
     9
 73
     5
 74
     0
 42
0.000000001
 43
0.00000001
 40
0.0
 40
0.0
 40
0.0
 40
0.0
 40
0.2676874130387146
 40
1.0
 40
1.0
 40
1.0
 40
1.0
 10
-29.3367024809002
 20
13.15722104327304
 30
0.0
 10
-29.28364529412375
 20
13.06562817552911
 30
0.0
 10
-29.08543953549595
 20
12.72346465463664
 30
0.0
 10
-28.88735861276358
 20
12.38122430322182
 30
0.0
 10
-28.74230145980976
 20
12.1305973861147
 30
0.0
  0
SPLINE
  5
E5
330
1B
100
AcDbEntity
 67
     1
  8
0
  6
Continuous
 62
     7
370
    25
100
AcDbSpline
210
0.0
220
0.0
230
1.0
 70
     8
 71
     3
 72
     9
 73
     5
 74
     0
 42
0.000000001
 43
0.00000001
 40
0.0
 40
0.0
 40
0.0
 40
0.0
 40
0.2676874130387104
 40
1.0
 40
1.0
 40
1.0
 40
1.0
 10
-26.8367024809002
 20
13.15722104327304
 30
0.0
 10
-26.78364529412375
 20
13.06562817552911
 30
0.0
 10
-26.58543953549596
 20
12.72346465463664
 30
0.0
 10
-26.38735861276358
 20
12.38122430322182
 30
0.0
 10
-26.24230145980976
 20
12.1305973861147
 30
0.0
  0
SPLINE
  5
E6
330
1B
100
AcDbEntity
 67
     1
  8
0
  6
Continuous
 62
     7
370
    25
100
AcDbSpline
210
0.0
220
0.0
230
1.0
 70
     8
 71
     3
 72
     9
 73
     5
 74
     0
 42
0.000000001
 43
0.00000001
 40
0.0
 40
0.0
 40
0.0
 40
0.0
 40
0.7690924877065342
 40
1.0
 40
1.0
 40
1.0
 40
1.0
 10
-42.49230145980976
 20
35.08566410953789
 30
0.0
 10
-42.63735749197092
 20
34.8350365026365
 30
0.0
 10
-42.82596423885741
 20
34.50916203252072
 30
0.0
 10
-43.01468985167874
 20
34.1833607187021
 30
0.0
 10
-43.05826801344136
 20
34.10813074782629
 30
0.0
  0
SPLINE
  5
E7
330
1B
100
AcDbEntity
 67
     1
  8
0
  6
Continuous
 62
     7
370
    25
100
AcDbSpline
210
0.0
220
0.0
230
1.0
 70
     8
 71
     3
 72
     9
 73
     5
 74
     0
 42
0.000000001
 43
0.00000001
 40
0.0
 40
0.0
 40
0.0
 40
0.0
 40
0.7690924877065327
 40
1.0
 40
1.0
 40
1.0
 40
1.0
 10
-39.99230145980977
 20
35.08566410953789
 30
0.0
 10
-40.13735749197093
 20
34.83503650263651
 30
0.0
 10
-40.3259642388574
 20
34.50916203252073
 30
0.0
 10
-40.51468985167872
 20
34.18336071870209
 30
0.0
 10
-40.55826801344136
 20
34.1081307478263
 30
0.0
  0
SPLINE
  5
E8
330
1B
100
AcDbEntity
 67
     1
  8
0
  6
Continuous
 62
     7
370
    25
100
AcDbSpline
210
0.0
220
0.0
230
1.0
 70
     8
 71
     3
 72
     9
 73
     5
 74
     0
 42
0.000000001
 43
0.00000001
 40
0.0
 40
0.0
 40
0.0
 40
0.0
 40
0.7690924877065294
 40
1.0
 40
1.0
 40
1.0
 40
1.0
 10
-37.49230145980976
 20
35.08566410953789
 30
0.0
 10
-37.63735749197092
 20
34.83503650263649
 30
0.0
 10
-37.82596423885741
 20
34.50916203252071
 30
0.0
 10
-38.01468985167872
 20
34.18336071870209
 30
0.0
 10
-38.05826801344135
 20
34.10813074782629
 30
0.0
  0
SPLINE
  5
E9
330
1B
100
AcDbEntity
 67
     1
  8
0
  6
Continuous
 62
     7
370
    25
100
AcDbSpline
210
0.0
220
0.0
230
1.0
 70
     8
 71
     3
 72
     9
 73
     5
 74
     0
 42
0.000000001
 43
0.00000001
 40
0.0
 40
0.0
 40
0.0
 40
0.0
 40
0.7690924877065453
 40
1.0
 40
1.0
 40
1.0
 40
1.0
 10
-34.99230145980976
 20
35.08566410953789
 30
0.0
 10
-35.13735749197092
 20
34.83503650263649
 30
0.0
 10
-35.32596423885739
 20
34.50916203252071
 30
0.0
 10
-35.51468985167872
 20
34.1833607187021
 30
0.0
 10
-35.55826801344135
 20
34.10813074782631
 30
0.0
  0
SPLINE
  5
EA
330
1B
100
AcDbEntity
 67
     1
  8
0
  6
Continuous
 62
     7
370
    25
100
AcDbSpline
210
0.0
220
0.0
230
1.0
 70
     8
 71
     3
 72
     9
 73
     5
 74
     0
 42
0.000000001
 43
0.00000001
 40
0.0
 40
0.0
 40
0.0
 40
0.0
 40
0.7690924877065244
 40
1.0
 40
1.0
 40
1.0
 40
1.0
 10
-32.49230145980976
 20
35.08566410953789
 30
0.0
 10
-32.63735749197092
 20
34.83503650263648
 30
0.0
 10
-32.8259642388574
 20
34.5091620325207
 30
0.0
 10
-33.01468985167871
 20
34.1833607187021
 30
0.0
 10
-33.05826801344135
 20
34.10813074782629
 30
0.0
  0
SPLINE
  5
EB
330
1B
100
AcDbEntity
 67
     1
  8
0
  6
Continuous
 62
     7
370
    25
100
AcDbSpline
210
0.0
220
0.0
230
1.0
 70
     8
 71
     3
 72
     9
 73
     5
 74
     0
 42
0.000000001
 43
0.00000001
 40
0.0
 40
0.0
 40
0.0
 40
0.0
 40
0.7690924877065287
 40
1.0
 40
1.0
 40
1.0
 40
1.0
 10
-29.99230145980976
 20
35.08566410953789
 30
0.0
 10
-30.13735749197093
 20
34.8350365026365
 30
0.0
 10
-30.32596423885741
 20
34.50916203252072
 30
0.0
 10
-30.51468985167871
 20
34.18336071870208
 30
0.0
 10
-30.55826801344135
 20
34.10813074782629
 30
0.0
  0
SPLINE
  5
EC
330
1B
100
AcDbEntity
 67
     1
  8
0
  6
Continuous
 62
     7
370
    25
100
AcDbSpline
210
0.0
220
0.0
230
1.0
 70
     8
 71
     3
 72
     9
 73
     5
 74
     0
 42
0.000000001
 43
0.00000001
 40
0.0
 40
0.0
 40
0.0
 40
0.0
 40
0.7690924877065344
 40
1.0
 40
1.0
 40
1.0
 40
1.0
 10
-27.49230145980976
 20
35.08566410953789
 30
0.0
 10
-27.63735749197092
 20
34.83503650263649
 30
0.0
 10
-27.8259642388574
 20
34.5091620325207
 30
0.0
 10
-28.01468985167871
 20
34.18336071870209
 30
0.0
 10
-28.05826801344134
 20
34.10813074782629
 30
0.0
  0
SPLINE
  5
EE
330
1B
100
AcDbEntity
 67
     1
  8
0
  6
Continuous
 62
     7
370
    25
100
AcDbSpline
210
0.0
220
0.0
230
1.0
 70
     8
 71
     3
 72
     9
 73
     5
 74
     0
 42
0.000000001
 43
0.00000001
 40
0.0
 40
0.0
 40
0.0
 40
0.0
 40
0.7690924877065358
 40
1.0
 40
1.0
 40
1.0
 40
1.0
 10
-44.99230145980976
 20
35.08566410953789
 30
0.0
 10
-45.13735749197092
 20
34.83503650263649
 30
0.0
 10
-45.3259642388574
 20
34.5091620325207
 30
0.0
 10
-45.51468985167872
 20
34.18336071870209
 30
0.0
 10
-45.55826801344134
 20
34.10813074782629
 30
0.0
  0
SPLINE
  5
EF
330
1B
100
AcDbEntity
 67
     1
  8
0
  6
Continuous
 62
     7
370
    25
100
AcDbSpline
210
0.0
220
0.0
230
1.0
 70
     8
 71
     3
 72
     9
 73
     5
 74
     0
 42
0.000000001
 43
0.00000001
 40
0.0
 40
0.0
 40
0.0
 40
0.0
 40
0.2676874130387165
 40
1.0
 40
1.0
 40
1.0
 40
1.0
 10
-44.3367024809002
 20
13.15722104327304
 30
0.0
 10
-44.28364529412376
 20
13.06562817552911
 30
0.0
 10
-44.08543953549596
 20
12.72346465463664
 30
0.0
 10
-43.88735861276358
 20
12.38122430322183
 30
0.0
 10
-43.74230145980976
 20
12.1305973861147
 30
0.0
  0
SPLINE
  5
F0
330
1B
100
AcDbEntity
 67
     1
  8
0
  6
Continuous
 62
     7
370
    25
100
AcDbSpline
210
0.0
220
0.0
230
1.0
 70
     8
 71
     3
 72
     9
 73
     5
 74
     0
 42
0.000000001
 43
0.00000001
 40
0.0
 40
0.0
 40
0.0
 40
0.0
 40
0.5126354132960431
 40
1.0
 40
1.0
 40
1.0
 40
1.0
 10
-41.19175618599844
 20
12.1305973861147
 30
0.0
 10
-41.09506696096167
 20
12.29764823661551
 30
0.0
 10
-40.90645489373225
 20
12.62351501477417
 30
0.0
 10
-40.71776906724461
 20
12.94933676512661
 30
0.0
 10
-40.62581027740158
 20
13.10813074782629
 30
0.0
  0
SPLINE
  5
F1
330
1B
100
AcDbEntity
 67
     1
  8
0
  6
Continuous
 62
     7
370
    25
100
AcDbSpline
210
0.0
220
0.0
230
1.0
 70
     8
 71
     3
 72
     9
 73
     5
 74
     0
 42
0.000000001
 43
0.00000001
 40
0.0
 40
0.0
 40
0.0
 40
0.0
 40
0.5126354132960478
 40
1.0
 40
1.0
 40
1.0
 40
1.0
 10
-38.69175618599844
 20
12.1305973861147
 30
0.0
 10
-38.59506696096166
 20
12.29764823661551
 30
0.0
 10
-38.40645489373224
 20
12.62351501477417
 30
0.0
 10
-38.21776906724462
 20
12.94933676512661
 30
0.0
 10
-38.12581027740158
 20
13.10813074782629
 30
0.0
  0
SPLINE
  5
F2
330
1B
100
AcDbEntity
 67
     1
  8
0
  6
Continuous
 62
     7
370
    25
100
AcDbSpline
210
0.0
220
0.0
230
1.0
 70
     8
 71
     3
 72
     9
 73
     5
 74
     0
 42
0.000000001
 43
0.00000001
 40
0.0
 40
0.0
 40
0.0
 40
0.0
 40
0.5126354132960431
 40
1.0
 40
1.0
 40
1.0
 40
1.0
 10
-36.19175618599844
 20
12.1305973861147
 30
0.0
 10
-36.09506696096167
 20
12.29764823661551
 30
0.0
 10
-35.90645489373225
 20
12.62351501477417
 30
0.0
 10
-35.71776906724462
 20
12.94933676512661
 30
0.0
 10
-35.62581027740158
 20
13.10813074782629
 30
0.0
  0
SPLINE
  5
F3
330
1B
100
AcDbEntity
 67
     1
  8
0
  6
Continuous
 62
     7
370
    25
100
AcDbSpline
210
0.0
220
0.0
230
1.0
 70
     8
 71
     3
 72
     9
 73
     5
 74
     0
 42
0.000000001
 43
0.00000001
 40
0.0
 40
0.0
 40
0.0
 40
0.0
 40
0.5126354132960463
 40
1.0
 40
1.0
 40
1.0
 40
1.0
 10
-33.69175618599844
 20
12.1305973861147
 30
0.0
 10
-33.59506696096166
 20
12.29764823661551
 30
0.0
 10
-33.40645489373224
 20
12.62351501477417
 30
0.0
 10
-33.21776906724461
 20
12.94933676512661
 30
0.0
 10
-33.12581027740158
 20
13.10813074782629
 30
0.0
  0
SPLINE
  5
F4
330
1B
100
AcDbEntity
 67
     1
  8
0
  6
Continuous
 62
     7
370
    25
100
AcDbSpline
210
0.0
220
0.0
230
1.0
 70
     8
 71
     3
 72
     9
 73
     5
 74
     0
 42
0.000000001
 43
0.00000001
 40
0.0
 40
0.0
 40
0.0
 40
0.0
 40
0.5126354132960443
 40
1.0
 40
1.0
 40
1.0
 40
1.0
 10
-31.19175618599844
 20
12.1305973861147
 30
0.0
 10
-31.09506696096166
 20
12.29764823661551
 30
0.0
 10
-30.90645489373225
 20
12.62351501477417
 30
0.0
 10
-30.71776906724461
 20
12.94933676512661
 30
0.0
 10
-30.62581027740158
 20
13.10813074782629
 30
0.0
  0
SPLINE
  5
F5
330
1B
100
AcDbEntity
 67
     1
  8
0
  6
Continuous
 62
     7
370
    25
100
AcDbSpline
210
0.0
220
0.0
230
1.0
 70
     8
 71
     3
 72
     9
 73
     5
 74
     0
 42
0.000000001
 43
0.00000001
 40
0.0
 40
0.0
 40
0.0
 40
0.0
 40
0.512635413296044
 40
1.0
 40
1.0
 40
1.0
 40
1.0
 10
-28.69175618599844
 20
12.1305973861147
 30
0.0
 10
-28.59506696096166
 20
12.29764823661551
 30
0.0
 10
-28.40645489373225
 20
12.62351501477417
 30
0.0
 10
-28.21776906724461
 20
12.94933676512661
 30
0.0
 10
-28.12581027740158
 20
13.10813074782629
 30
0.0
  0
SPLINE
  5
F6
330
1B
100
AcDbEntity
 67
     1
  8
0
  6
Continuous
 62
     7
370
    25
100
AcDbSpline
210
0.0
220
0.0
230
1.0
 70
     8
 71
     3
 72
     9
 73
     5
 74
     0
 42
0.000000001
 43
0.00000001
 40
0.0
 40
0.0
 40
0.0
 40
0.0
 40
0.5126354132960378
 40
1.0
 40
1.0
 40
1.0
 40
1.0
 10
-26.19175618599844
 20
12.1305973861147
 30
0.0
 10
-26.09506696096166
 20
12.29764823661551
 30
0.0
 10
-25.90645489373224
 20
12.62351501477417
 30
0.0
 10
-25.71776906724462
 20
12.94933676512661
 30
0.0
 10
-25.62581027740157
 20
13.10813074782629
 30
0.0
  0
SPLINE
  5
F7
330
1B
100
AcDbEntity
 67
     1
  8
0
  6
Continuous
 62
     7
370
    25
100
AcDbSpline
210
0.0
220
0.0
230
1.0
 70
     8
 71
     3
 72
     9
 73
     5
 74
     0
 42
0.000000001
 43
0.00000001
 40
0.0
 40
0.0
 40
0.0
 40
0.0
 40
0.4999342813980148
 40
1.0
 40
1.0
 40
1.0
 40
1.0
 10
-41.86158271174272
 20
34.08356054602238
 30
0.0
 10
-41.95828448305159
 20
34.25054431543055
 30
0.0
 10
-42.15171344943185
 20
34.58455575577669
 30
0.0
 10
-42.34506680253486
 20
34.91861335575185
 30
0.0
 10
-42.44175618599843
 20
35.08566410953789
 30
0.0
  0
SPLINE
  5
F8
330
1B
100
AcDbEntity
 67
     1
  8
0
  6
Continuous
 62
     7
370
    25
100
AcDbSpline
210
0.0
220
0.0
230
1.0
 70
     8
 71
     3
 72
     9
 73
     5
 74
     0
 42
0.000000001
 43
0.00000001
 40
0.0
 40
0.0
 40
0.0
 40
0.0
 40
0.4999342813980199
 40
1.0
 40
1.0
 40
1.0
 40
1.0
 10
-39.36158271174273
 20
34.08356054602238
 30
0.0
 10
-39.45828448305159
 20
34.25054431543056
 30
0.0
 10
-39.65171344943185
 20
34.5845557557767
 30
0.0
 10
-39.84506680253488
 20
34.91861335575187
 30
0.0
 10
-39.94175618599844
 20
35.08566410953789
 30
0.0
  0
SPLINE
  5
F9
330
1B
100
AcDbEntity
 67
     1
  8
0
  6
Continuous
 62
     7
370
    25
100
AcDbSpline
210
0.0
220
0.0
230
1.0
 70
     8
 71
     3
 72
     9
 73
     5
 74
     0
 42
0.000000001
 43
0.00000001
 40
0.0
 40
0.0
 40
0.0
 40
0.0
 40
0.4999342813980117
 40
1.0
 40
1.0
 40
1.0
 40
1.0
 10
-36.86158271174273
 20
34.08356054602238
 30
0.0
 10
-36.95828448305159
 20
34.25054431543056
 30
0.0
 10
-37.15171344943184
 20
34.5845557557767
 30
0.0
 10
-37.34506680253486
 20
34.91861335575185
 30
0.0
 10
-37.44175618599843
 20
35.08566410953789
 30
0.0
  0
SPLINE
  5
FA
330
1B
100
AcDbEntity
 67
     1
  8
0
  6
Continuous
 62
     7
370
    25
100
AcDbSpline
210
0.0
220
0.0
230
1.0
 70
     8
 71
     3
 72
     9
 73
     5
 74
     0
 42
0.000000001
 43
0.00000001
 40
0.0
 40
0.0
 40
0.0
 40
0.0
 40
0.4999342813980147
 40
1.0
 40
1.0
 40
1.0
 40
1.0
 10
-34.36158271174272
 20
34.08356054602238
 30
0.0
 10
-34.4582844830516
 20
34.25054431543055
 30
0.0
 10
-34.65171344943186
 20
34.58455575577671
 30
0.0
 10
-34.84506680253487
 20
34.91861335575186
 30
0.0
 10
-34.94175618599843
 20
35.08566410953789
 30
0.0
  0
SPLINE
  5
FB
330
1B
100
AcDbEntity
 67
     1
  8
0
  6
Continuous
 62
     7
370
    25
100
AcDbSpline
210
0.0
220
0.0
230
1.0
 70
     8
 71
     3
 72
     9
 73
     5
 74
     0
 42
0.000000001
 43
0.00000001
 40
0.0
 40
0.0
 40
0.0
 40
0.0
 40
0.4999342813980207
 40
1.0
 40
1.0
 40
1.0
 40
1.0
 10
-31.86158271174272
 20
34.08356054602238
 30
0.0
 10
-31.95828448305161
 20
34.25054431543056
 30
0.0
 10
-32.15171344943187
 20
34.58455575577669
 30
0.0
 10
-32.34506680253487
 20
34.91861335575186
 30
0.0
 10
-32.44175618599843
 20
35.08566410953789
 30
0.0
  0
SPLINE
  5
FC
330
1B
100
AcDbEntity
 67
     1
  8
0
  6
Continuous
 62
     7
370
    25
100
AcDbSpline
210
0.0
220
0.0
230
1.0
 70
     8
 71
     3
 72
     9
 73
     5
 74
     0
 42
0.000000001
 43
0.00000001
 40
0.0
 40
0.0
 40
0.0
 40
0.0
 40
0.4999342813980214
 40
1.0
 40
1.0
 40
1.0
 40
1.0
 10
-29.36158271174272
 20
34.08356054602238
 30
0.0
 10
-29.4582844830516
 20
34.25054431543056
 30
0.0
 10
-29.65171344943186
 20
34.58455575577671
 30
0.0
 10
-29.84506680253488
 20
34.91861335575187
 30
0.0
 10
-29.94175618599843
 20
35.08566410953789
 30
0.0
  0
SPLINE
  5
FD
330
1B
100
AcDbEntity
 67
     1
  8
0
  6
Continuous
 62
     7
370
    25
100
AcDbSpline
210
0.0
220
0.0
230
1.0
 70
     8
 71
     3
 72
     9
 73
     5
 74
     0
 42
0.000000001
 43
0.00000001
 40
0.0
 40
0.0
 40
0.0
 40
0.0
 40
0.4999342813980244
 40
1.0
 40
1.0
 40
1.0
 40
1.0
 10
-26.86158271174272
 20
34.08356054602238
 30
0.0
 10
-26.9582844830516
 20
34.25054431543056
 30
0.0
 10
-27.15171344943186
 20
34.5845557557767
 30
0.0
 10
-27.34506680253487
 20
34.91861335575186
 30
0.0
 10
-27.44175618599843
 20
35.08566410953789
 30
0.0
  0
SPLINE
  5
FE
330
1B
100
AcDbEntity
 67
     1
  8
0
  6
Continuous
 62
     7
370
    25
100
AcDbSpline
210
0.0
220
0.0
230
1.0
 70
     8
 71
     3
 72
     9
 73
     5
 74
     0
 42
0.000000001
 43
0.00000001
 40
0.0
 40
0.0
 40
0.0
 40
0.0
 40
0.4999342813980148
 40
1.0
 40
1.0
 40
1.0
 40
1.0
 10
-44.36158271174273
 20
34.08356054602238
 30
0.0
 10
-44.45828448305159
 20
34.25054431543055
 30
0.0
 10
-44.65171344943185
 20
34.58455575577669
 30
0.0
 10
-44.84506680253486
 20
34.91861335575185
 30
0.0
 10
-44.94175618599843
 20
35.08566410953789
 30
0.0
  0
SPLINE
  5
FF
330
1B
100
AcDbEntity
 67
     1
  8
0
  6
Continuous
 62
     7
370
    25
100
AcDbSpline
210
0.0
220
0.0
230
1.0
 70
     8
 71
     3
 72
     9
 73
     5
 74
     0
 42
0.000000001
 43
0.00000001
 40
0.0
 40
0.0
 40
0.0
 40
0.0
 40
0.5126354132960478
 40
1.0
 40
1.0
 40
1.0
 40
1.0
 10
-43.69175618599844
 20
12.1305973861147
 30
0.0
 10
-43.59506696096166
 20
12.29764823661551
 30
0.0
 10
-43.40645489373223
 20
12.62351501477416
 30
0.0
 10
-43.21776906724462
 20
12.94933676512661
 30
0.0
 10
-43.12581027740158
 20
13.10813074782629
 30
0.0
  0
SPLINE
  5
122
330
1B
100
AcDbEntity
 67
     1
  8
0
  6
Continuous
 62
     7
370
    25
100
AcDbSpline
210
0.0
220
0.0
230
1.0
 70
     8
 71
     3
 72
    29
 73
    25
 74
     0
 42
0.000000001
 43
0.00000001
 40
0.0
 40
0.0
 40
0.0
 40
0.0
 40
0.0046919169379138
 40
0.0630950332961523
 40
0.1232290326623408
 40
0.1814543553987933
 40
0.241003373978272
 40
0.3072259961747046
 40
0.3748575935238581
 40
0.4135577639025983
 40
0.4522551209596821
 40
0.4921391001662517
 40
0.5320114000528898
 40
0.5838743763990158
 40
0.6370585459190168
 40
0.6889983840798539
 40
0.7427409584813116
 40
0.7908476913451054
 40
0.8399323985236266
 40
0.8774679980536316
 40
0.9150104571261022
 40
0.9536143845707795
 40
0.9922196414842523
 40
1.0
 40
1.0
 40
1.0
 40
1.0
 10
24.96249937063132
 20
7.861357056345326
 30
0.0
 10
24.96107930997285
 20
7.860344633236106
 30
0.0
 10
24.94198289890788
 20
7.846729969841332
 30
0.0
 10
25.05936817899229
 20
7.93050128561369
 30
0.0
 10
25.39445434372264
 20
8.167113703035069
 30
0.0
 10
25.94550059283973
 20
8.547869441401513
 30
0.0
 10
26.69449464734138
 20
9.047922231523433
 30
0.0
 10
27.66318295458747
 20
9.661626205392555
 30
0.0
 10
28.67800975608765
 20
10.25334219509126
 30
0.0
 10
29.62205756263848
 20
10.75138076902646
 30
0.0
 10
30.43817707870958
 20
11.143588877956
 30
0.0
 10
31.31514957852307
 20
11.51661048581298
 30
0.0
 10
32.34714915945175
 20
11.88752821238516
 30
0.0
 10
33.55322455901996
 20
12.21650456816297
 30
0.0
 10
34.92910679549031
 20
12.43045358748229
 30
0.0
 10
36.35502942501419
 20
12.46663796082344
 30
0.0
 10
37.7206587295652
 20
12.31940547994212
 30
0.0
 10
39.00574472048508
 20
12.02814649208446
 30
0.0
 10
40.08957362466705
 20
11.67426847139845
 30
0.0
 10
41.02949901277556
 20
11.29725197905408
 30
0.0
 10
41.8424807063003
 20
10.92500468562386
 30
0.0
 10
42.61270567389649
 20
10.53438596978734
 30
0.0
 10
43.14569568235677
 20
10.24160682014458
 30
0.0
 10
43.42208210400636
 20
10.08351379029218
 30
0.0
 10
43.46844098982517
 20
10.05699650816257
 30
0.0
  0
SPLINE
  5
123
330
1B
100
AcDbEntity
 67
     1
  8
0
  6
Continuous
 62
     7
370
    25
100
AcDbSpline
210
0.0
220
0.0
230
1.0
 70
     8
 71
     3
 72
    26
 73
    22
 74
     0
 42
0.000000001
 43
0.00000001
 40
0.0
 40
0.0
 40
0.0
 40
0.0
 40
0.0303806436446019
 40
0.0867107335723714
 40
0.1445935222267184
 40
0.2028364737790618
 40
0.2623466510978844
 40
0.3300623376302678
 40
0.399203803756297
 40
0.4389198086232662
 40
0.4786311281569384
 40
0.5196781408581367
 40
0.5607086557531119
 40
0.6108653034123975
 40
0.6623441763199727
 40
0.7125591785543623
 40
0.7643712205396815
 40
0.8259175349600157
 40
0.8892153193887447
 40
0.9442383826177809
 40
0.9999999999999999
 40
0.9999999999999999
 40
0.9999999999999999
 40
0.9999999999999999
 10
24.41016541151029
 20
39.35651227981707
 30
0.0
 10
24.41552206657819
 20
39.35260693840493
 30
0.0
 10
24.43081073181734
 20
39.34146053141444
 30
0.0
 10
24.62891415248734
 20
39.19701762159441
 30
0.0
 10
25.05915832233225
 20
38.88764282704103
 30
0.0
 10
25.69410533210606
 20
38.44202742471968
 30
0.0
 10
26.54457753728574
 20
37.86699293466259
 30
0.0
 10
27.62620203402316
 20
37.17619028399733
 30
0.0
 10
28.75285479306008
 20
36.51971260968354
 30
0.0
 10
29.79503845298123
 20
35.97706028137606
 30
0.0
 10
30.69544685408525
 20
35.5559204851586
 30
0.0
 10
31.661370849123
 20
35.16477835509941
 30
0.0
 10
32.7691928213895
 20
34.7993184507846
 30
0.0
 10
34.0300782411854
 20
34.50411379725827
 30
0.0
 10
35.42805627796943
 20
34.34917472426416
 30
0.0
 10
36.85697589595622
 20
34.38066492575079
 30
0.0
 10
38.34666440952226
 20
34.60915281682677
 30
0.0
 10
39.87196132198493
 20
35.0455196809057
 30
0.0
 10
41.30041206761874
 20
35.62594907179333
 30
0.0
 10
42.57366187348797
 20
36.25211433267779
 30
0.0
 10
43.29224903293406
 20
36.66150260796246
 30
0.0
 10
43.65393786951078
 20
36.86756135400241
 30
0.0
  0
SPLINE
  5
124
330
1B
100
AcDbEntity
 67
     1
  8
0
  6
Continuous
 62
     7
370
    25
100
AcDbSpline
210
0.0
220
0.0
230
1.0
 70
     8
 71
     3
 72
    31
 73
    27
 74
     0
 42
0.000000001
 43
0.00000001
 40
0.0
 40
0.0
 40
0.0
 40
0.0
 40
0.0018189273216618
 40
0.0491039927502572
 40
0.0923013377958617
 40
0.1366051768434104
 40
0.1828949116838297
 40
0.2301996877951431
 40
0.28364575401981
 40
0.3384020509728875
 40
0.3854830661057188
 40
0.4337870343058761
 40
0.4736094637574182
 40
0.5145694104512119
 40
0.5544032908616606
 40
0.595317485034814
 40
0.6467972630929646
 40
0.699756218286758
 40
0.7522142383158766
 40
0.8059147993370139
 40
0.834628605606388
 40
0.8633385856385823
 40
0.8931594487338312
 40
0.9229752545404222
 40
0.9610756725339261
 40
1.0
 40
1.0
 40
1.0
 40
1.0
 10
-9.337725783958728
 20
7.860923239217932
 30
0.0
 10
-9.339151921958386
 20
7.859997763497849
 30
0.0
 10
-9.377652124337073
 20
7.835013503539589
 30
0.0
 10
-9.240032672881053
 20
7.924656133652907
 30
0.0
 10
-8.921809984516631
 20
8.129365049026681
 30
0.0
 10
-8.392694268011619
 20
8.46142156420262
 30
0.0
 10
-7.673917135280345
 20
8.894053232011142
 30
0.0
 10
-6.730837886850352
 20
9.427349600855512
 30
0.0
 10
-5.557159620395325
 20
10.03032512507036
 30
0.0
 10
-4.213950651174907
 20
10.62053033750751
 30
0.0
 10
-2.773444396539395
 20
11.12094242689797
 30
0.0
 10
-1.368155468238012
 20
11.46201338540335
 30
0.0
 10
0.0408529492726588
 20
11.64344179170757
 30
0.0
 10
1.384057067580654
 20
11.66576799252303
 30
0.0
 10
2.724234908312593
 20
11.53602723941102
 30
0.0
 10
4.125192158155439
 20
11.25070791145034
 30
0.0
 10
5.564187410145295
 20
10.80000687751896
 30
0.0
 10
6.968018724622751
 20
10.21943949039505
 30
0.0
 10
8.225497301957732
 20
9.600402453951355
 30
0.0
 10
9.136549925451739
 20
9.096590305175075
 30
0.0
 10
9.77324352909784
 20
8.72369694287673
 30
0.0
 10
10.20662288561006
 20
8.4611061175222
 30
0.0
 10
10.57104267655908
 20
8.234380943241431
 30
0.0
 10
10.88174407985871
 20
8.036970271951958
 30
0.0
 10
11.11100485792098
 20
7.888770571557589
 30
0.0
 10
11.14220449314311
 20
7.868416595762175
 30
0.0
 10
11.15797117709593
 20
7.858130747826292
 30
0.0
  0
SPLINE
  5
127
330
1B
100
AcDbEntity
 67
     1
  8
0
  6
Continuous
 62
     7
370
    25
100
AcDbSpline
210
0.0
220
0.0
230
1.0
 70
     8
 71
     3
 72
     9
 73
     5
 74
     0
 42
0.000000001
 43
0.00000001
 40
0.0
 40
0.0
 40
0.0
 40
0.0
 40
0.6649371428435318
 40
1.0
 40
1.0
 40
1.0
 40
1.0
 10
12.15797117709591
 20
-6.641869252173697
 30
0.0
 10
12.14442986718092
 20
-6.622894108857878
 30
0.0
 10
12.12406507020615
 20
-6.59435736140732
 30
0.0
 10
11.9238706883106
 20
-6.56473266279977
 30
0.0
 10
11.85679298672601
 20
-6.554806526641924
 30
0.0
  0
SPLINE
  5
128
330
1B
100
AcDbEntity
 67
     1
  8
0
  6
Continuous
 62
     7
370
    25
100
AcDbSpline
210
0.0
220
0.0
230
1.0
 70
     8
 71
     3
 72
    31
 73
    27
 74
     0
 42
0.000000001
 43
0.00000001
 40
0.0
 40
0.0
 40
0.0
 40
0.0
 40
0.0113756149104436
 40
0.0560943433876571
 40
0.1010427704001143
 40
0.1457288762700508
 40
0.1898385821788929
 40
0.2344141262623468
 40
0.2793493641072618
 40
0.3241531346616744
 40
0.3683606972280767
 40
0.4127596175478973
 40
0.4576465612497586
 40
0.5025335049516199
 40
0.5469324252714407
 40
0.5911399878378434
 40
0.6359437583922553
 40
0.6808789962371705
 40
0.7254545403206245
 40
0.7695642462294667
 40
0.8142503520994034
 40
0.8591987791118605
 40
0.9039175075890739
 40
0.9333796965203887
 40
0.9776780107714906
 40
1.0
 40
1.0
 40
1.0
 40
1.0
 10
-10.29918344250014
 20
-5.36855372938512
 30
0.0
 10
-10.2975937573311
 20
-5.363692725172717
 30
0.0
 10
-10.28975485398811
 20
-5.339722606489378
 30
0.0
 10
-10.03357821018032
 20
-5.294773931898481
 30
0.0
 10
-9.525492230764971
 20
-5.234942201180152
 30
0.0
 10
-8.773704743984903
 20
-5.175738244199861
 30
0.0
 10
-7.821201135193109
 20
-5.119468249518568
 30
0.0
 10
-6.677858695356075
 20
-5.06077081032779
 30
0.0
 10
-5.363457465570076
 20
-5.000902649142724
 30
0.0
 10
-3.91585509150852
 20
-4.941284915271963
 30
0.0
 10
-2.37029135263926
 20
-4.884485481369143
 30
0.0
 10
-0.7533800888195575
 20
-4.826670759898112
 30
0.0
 10
0.9079710952848958
 20
-4.766869252530233
 30
0.0
 10
2.569322768476135
 20
-4.707067743030892
 30
0.0
 10
4.186232583046076
 20
-4.649253027875739
 30
0.0
 10
5.731801624989377
 20
-4.592453570861979
 30
0.0
 10
7.179383971197868
 20
-4.532835924273146
 30
0.0
 10
8.493860162421186
 20
-4.472967436404071
 30
0.0
 10
9.636925835408343
 20
-4.41427120337087
 30
0.0
 10
10.59045458583417
 20
-4.357996741093991
 30
0.0
 10
11.33836839151741
 20
-4.298809665723029
 30
0.0
 10
11.86100898371731
 20
-4.23891450559976
 30
0.0
 10
12.11507365948592
 20
-4.186129097848521
 30
0.0
 10
12.17973247698035
 20
-4.135562018338406
 30
0.0
 10
12.1206013830683
 20
-4.094351064398399
 30
0.0
 10
11.92300140121862
 20
-4.064731082429384
 30
0.0
 10
11.856792986726
 20
-4.054806526641922
 30
0.0
  0
SPLINE
  5
129
330
1B
100
AcDbEntity
 67
     1
  8
0
  6
Continuous
 62
     7
370
    25
100
AcDbSpline
210
0.0
220
0.0
230
1.0
 70
     8
 71
     3
 72
    31
 73
    27
 74
     0
 42
0.000000001
 43
0.00000001
 40
0.0
 40
0.0
 40
0.0
 40
0.0
 40
0.0113756149104436
 40
0.0560943433876572
 40
0.1010427704001143
 40
0.1457288762700508
 40
0.1898385821788929
 40
0.2344141262623468
 40
0.2793493641072617
 40
0.3241531346616743
 40
0.3683606972280766
 40
0.4127596175478971
 40
0.4576465612497584
 40
0.5025335049516197
 40
0.5469324252714404
 40
0.591139987837843
 40
0.6359437583922549
 40
0.6808789962371702
 40
0.7254545403206242
 40
0.7695642462294664
 40
0.814250352099403
 40
0.85919877911186
 40
0.9039175075890733
 40
0.9333796965203882
 40
0.9776780107714901
 40
1.0
 40
1.0
 40
1.0
 40
1.0
 10
-10.29918344250013
 20
-2.868553729385118
 30
0.0
 10
-10.2975937573311
 20
-2.863692725172718
 30
0.0
 10
-10.2897548539881
 20
-2.839722606489375
 30
0.0
 10
-10.03357821018032
 20
-2.794773931898483
 30
0.0
 10
-9.52549223076497
 20
-2.73494220118015
 30
0.0
 10
-8.773704743984906
 20
-2.675738244199866
 30
0.0
 10
-7.821201135193107
 20
-2.619468249518569
 30
0.0
 10
-6.677858695356075
 20
-2.560770810327788
 30
0.0
 10
-5.363457465570078
 20
-2.500902649142728
 30
0.0
 10
-3.915855091508518
 20
-2.441284915271961
 30
0.0
 10
-2.370291352639259
 20
-2.384485481369141
 30
0.0
 10
-0.7533800888195578
 20
-2.326670759898112
 30
0.0
 10
0.9079710952848966
 20
-2.266869252530231
 30
0.0
 10
2.56932276847613
 20
-2.207067743030894
 30
0.0
 10
4.186232583046079
 20
-2.149253027875737
 30
0.0
 10
5.731801624989376
 20
-2.092453570861977
 30
0.0
 10
7.179383971197866
 20
-2.032835924273144
 30
0.0
 10
8.493860162421187
 20
-1.972967436404068
 30
0.0
 10
9.636925835408338
 20
-1.914271203370871
 30
0.0
 10
10.59045458583418
 20
-1.857996741093996
 30
0.0
 10
11.33836839151742
 20
-1.798809665723031
 30
0.0
 10
11.86100898371731
 20
-1.738914505599758
 30
0.0
 10
12.11507365948592
 20
-1.686129097848522
 30
0.0
 10
12.17973247698035
 20
-1.635562018338411
 30
0.0
 10
12.1206013830683
 20
-1.594351064398401
 30
0.0
 10
11.92300140121862
 20
-1.564731082429383
 30
0.0
 10
11.856792986726
 20
-1.554806526641923
 30
0.0
  0
SPLINE
  5
12A
330
1B
100
AcDbEntity
 67
     1
  8
0
  6
Continuous
 62
     7
370
    25
100
AcDbSpline
210
0.0
220
0.0
230
1.0
 70
     8
 71
     3
 72
    31
 73
    27
 74
     0
 42
0.000000001
 43
0.00000001
 40
0.0
 40
0.0
 40
0.0
 40
0.0
 40
0.011375614910443
 40
0.0560943433876566
 40
0.1010427704001138
 40
0.1457288762700503
 40
0.1898385821788924
 40
0.2344141262623463
 40
0.2793493641072614
 40
0.3241531346616739
 40
0.3683606972280762
 40
0.4127596175478969
 40
0.4576465612497582
 40
0.5025335049516195
 40
0.5469324252714404
 40
0.591139987837843
 40
0.6359437583922549
 40
0.6808789962371703
 40
0.7254545403206243
 40
0.7695642462294665
 40
0.8142503520994031
 40
0.8591987791118603
 40
0.9039175075890736
 40
0.9333796965203885
 40
0.9776780107714904
 40
1.0
 40
1.0
 40
1.0
 40
1.0
 10
-10.29918344250013
 20
-0.3685537293851189
 30
0.0
 10
-10.2975937573311
 20
-0.3636927251727158
 30
0.0
 10
-10.28975485398811
 20
-0.3397226064893732
 30
0.0
 10
-10.03357821018032
 20
-0.2947739318984802
 30
0.0
 10
-9.525492230764963
 20
-0.2349422011801508
 30
0.0
 10
-8.773704743984904
 20
-0.1757382441998634
 30
0.0
 10
-7.821201135193109
 20
-0.11946824951857
 30
0.0
 10
-6.677858695356078
 20
-0.0607708103277892
 30
0.0
 10
-5.363457465570078
 20
-0.0009026491427262
 30
0.0
 10
-3.915855091508518
 20
0.0587150847280414
 30
0.0
 10
-2.370291352639259
 20
0.1155145186308576
 30
0.0
 10
-0.753380088819559
 20
0.1733292401018861
 30
0.0
 10
0.9079710952848972
 20
0.2331307474697682
 30
0.0
 10
2.569322768476134
 20
0.292932256969105
 30
0.0
 10
4.186232583046075
 20
0.350746972124262
 30
0.0
 10
5.731801624989375
 20
0.407546429138022
 30
0.0
 10
7.17938397119787
 20
0.4671640757268544
 30
0.0
 10
8.493860162421182
 20
0.5270325635959305
 30
0.0
 10
9.63692583540834
 20
0.5857287966291279
 30
0.0
 10
10.59045458583417
 20
0.6420032589060064
 30
0.0
 10
11.33836839151742
 20
0.7011903342769681
 30
0.0
 10
11.8610089837173
 20
0.7610854944002411
 30
0.0
 10
12.11507365948592
 20
0.8138709021514798
 30
0.0
 10
12.17973247698034
 20
0.8644379816615915
 30
0.0
 10
12.1206013830683
 20
0.9056489356016016
 30
0.0
 10
11.92300140121863
 20
0.9352689175706163
 30
0.0
 10
11.85679298672601
 20
0.9451934733580789
 30
0.0
  0
SPLINE
  5
12B
330
1B
100
AcDbEntity
 67
     1
  8
0
  6
Continuous
 62
     7
370
    25
100
AcDbSpline
210
0.0
220
0.0
230
1.0
 70
     8
 71
     3
 72
    31
 73
    27
 74
     0
 42
0.000000001
 43
0.00000001
 40
0.0
 40
0.0
 40
0.0
 40
0.0
 40
0.0113756149104439
 40
0.0560943433876574
 40
0.1010427704001146
 40
0.1457288762700511
 40
0.1898385821788932
 40
0.234414126262347
 40
0.279349364107262
 40
0.3241531346616746
 40
0.3683606972280768
 40
0.4127596175478974
 40
0.4576465612497587
 40
0.50253350495162
 40
0.5469324252714408
 40
0.5911399878378434
 40
0.6359437583922554
 40
0.6808789962371705
 40
0.7254545403206245
 40
0.7695642462294667
 40
0.8142503520994033
 40
0.8591987791118604
 40
0.9039175075890737
 40
0.9333796965203885
 40
0.9776780107714904
 40
1.0
 40
1.0
 40
1.0
 40
1.0
 10
-10.29918344250013
 20
2.13144627061488
 30
0.0
 10
-10.2975937573311
 20
2.136307274827283
 30
0.0
 10
-10.28975485398811
 20
2.160277393510626
 30
0.0
 10
-10.03357821018032
 20
2.205226068101519
 30
0.0
 10
-9.525492230764968
 20
2.265057798819848
 30
0.0
 10
-8.773704743984904
 20
2.324261755800135
 30
0.0
 10
-7.821201135193107
 20
2.380531750481429
 30
0.0
 10
-6.677858695356075
 20
2.43922918967221
 30
0.0
 10
-5.363457465570078
 20
2.499097350857272
 30
0.0
 10
-3.915855091508518
 20
2.55871508472804
 30
0.0
 10
-2.370291352639259
 20
2.615514518630856
 30
0.0
 10
-0.7533800888195573
 20
2.673329240101888
 30
0.0
 10
0.907971095284894
 20
2.733130747469767
 30
0.0
 10
2.569322768476138
 20
2.792932256969107
 30
0.0
 10
4.18623258304607
 20
2.850746972124261
 30
0.0
 10
5.731801624989382
 20
2.907546429138024
 30
0.0
 10
7.179383971197864
 20
2.967164075726853
 30
0.0
 10
8.493860162421187
 20
3.027032563595933
 30
0.0
 10
9.636925835408338
 20
3.08572879662913
 30
0.0
 10
10.59045458583418
 20
3.142003258906009
 30
0.0
 10
11.33836839151741
 20
3.20119033427697
 30
0.0
 10
11.86100898371731
 20
3.261085494400243
 30
0.0
 10
12.11507365948592
 20
3.313870902151479
 30
0.0
 10
12.17973247698034
 20
3.364437981661593
 30
0.0
 10
12.1206013830683
 20
3.4056489356016
 30
0.0
 10
11.92300140121863
 20
3.435268917570618
 30
0.0
 10
11.85679298672601
 20
3.445193473358078
 30
0.0
  0
SPLINE
  5
12C
330
1B
100
AcDbEntity
 67
     1
  8
0
  6
Continuous
 62
     7
370
    25
100
AcDbSpline
210
0.0
220
0.0
230
1.0
 70
     8
 71
     3
 72
     9
 73
     5
 74
     0
 42
0.000000001
 43
0.00000001
 40
0.0
 40
0.0
 40
0.0
 40
0.0
 40
0.1874100559384798
 40
1.0
 40
1.0
 40
1.0
 40
1.0
 10
-10.31352415453191
 20
4.584911160790988
 30
0.0
 10
-10.31900610746964
 20
4.586393506248117
 30
0.0
 10
-10.34825722161226
 20
4.594303142952008
 30
0.0
 10
-10.34482103422271
 20
4.601931787764694
 30
0.0
 10
-10.34202882290405
 20
4.608130747826303
 30
0.0
  0
SPLINE
  5
12E
330
1B
100
AcDbEntity
 67
     1
  8
0
  6
Continuous
 62
     7
370
    25
100
AcDbSpline
210
0.0
220
0.0
230
1.0
 70
     8
 71
     3
 72
    30
 73
    26
 74
     0
 42
0.000000001
 43
0.00000001
 40
0.0
 40
0.0
 40
0.0
 40
0.0
 40
0.0096444617947681
 40
0.0576440171821132
 40
0.105890252402991
 40
0.1538547736514844
 40
0.2012002943552014
 40
0.2490460812506486
 40
0.297278152175571
 40
0.345369036377703
 40
0.3928196453122005
 40
0.4404757539258488
 40
0.4886559602009987
 40
0.5368361664761485
 40
0.584492275089797
 40
0.6319428840242948
 40
0.6800337682264261
 40
0.7282658391513486
 40
0.776111626046796
 40
0.8234571467505131
 40
0.8714216679990066
 40
0.9196679032198839
 40
0.9676674586072287
 40
0.9992909631855823
 40
1.0
 40
1.0
 40
1.0
 40
1.0
 10
-9.302507042181752
 20
-4.788551092390392
 30
0.0
 10
-9.301358257000027
 20
-4.784709688806385
 30
0.0
 10
-9.29449207885935
 20
-4.761749990389606
 30
0.0
 10
-9.065375263504928
 20
-4.717835555139701
 30
0.0
 10
-8.606940231373576
 20
-4.658014649517927
 30
0.0
 10
-7.924579766709801
 20
-4.598808010605564
 30
0.0
 10
-7.059527413208977
 20
-4.542538329433095
 30
0.0
 10
-6.020186837674132
 20
-4.483840761895945
 30
0.0
 10
-4.824677161781982
 20
-4.423972815183156
 30
0.0
 10
-3.507386879627275
 20
-4.364355271014999
 30
0.0
 10
-2.100388369745275
 20
-4.307555517867916
 30
0.0
 10
-0.6279281073260836
 20
-4.249740693698334
 30
0.0
 10
0.8854934847527937
 20
-4.189939369975717
 30
0.0
 10
2.399406890952926
 20
-4.130138044952658
 30
0.0
 10
3.873314783502306
 20
-4.072323224636507
 30
0.0
 10
5.282692484251085
 20
-4.015523457389026
 30
0.0
 10
6.603212509767769
 20
-3.955905966473484
 30
0.0
 10
7.802921285189875
 20
-3.896037820443333
 30
0.0
 10
8.846632281642005
 20
-3.837340988806341
 30
0.0
 10
9.7186181360341
 20
-3.781068581877569
 30
0.0
 10
10.40104825529059
 20
-3.721872242788669
 30
0.0
 10
10.88770816454874
 20
-3.662012637423866
 30
0.0
 10
11.09794832990145
 20
-3.609110672011435
 30
0.0
 10
11.18139476402127
 20
-3.577382566167575
 30
0.0
 10
11.15690034060684
 20
-3.564368712064888
 30
0.0
 10
11.15636318988497
 20
-3.564083324611295
 30
0.0
  0
SPLINE
  5
12F
330
1B
100
AcDbEntity
 67
     1
  8
0
  6
Continuous
 62
     7
370
    25
100
AcDbSpline
210
0.0
220
0.0
230
1.0
 70
     8
 71
     3
 72
    30
 73
    26
 74
     0
 42
0.000000001
 43
0.00000001
 40
0.0
 40
0.0
 40
0.0
 40
0.0
 40
0.0096444617947682
 40
0.0576440171821133
 40
0.1058902524029911
 40
0.1538547736514844
 40
0.2012002943552015
 40
0.2490460812506486
 40
0.297278152175571
 40
0.3453690363777031
 40
0.3928196453122006
 40
0.4404757539258488
 40
0.4886559602009987
 40
0.5368361664761485
 40
0.5844922750897968
 40
0.6319428840242947
 40
0.6800337682264261
 40
0.7282658391513486
 40
0.7761116260467958
 40
0.823457146750513
 40
0.8714216679990064
 40
0.9196679032198838
 40
0.9676674586072286
 40
0.9992909631855821
 40
1.0
 40
1.0
 40
1.0
 40
1.0
 10
-9.302507042181752
 20
-2.288551092390394
 30
0.0
 10
-9.301358257000029
 20
-2.284709688806386
 30
0.0
 10
-9.294492078859347
 20
-2.261749990389608
 30
0.0
 10
-9.06537526350493
 20
-2.217835555139703
 30
0.0
 10
-8.606940231373574
 20
-2.158014649517925
 30
0.0
 10
-7.924579766709801
 20
-2.098808010605566
 30
0.0
 10
-7.059527413208978
 20
-2.042538329433092
 30
0.0
 10
-6.020186837674133
 20
-1.983840761895946
 30
0.0
 10
-4.824677161781979
 20
-1.923972815183157
 30
0.0
 10
-3.507386879627275
 20
-1.864355271014997
 30
0.0
 10
-2.100388369745276
 20
-1.807555517867918
 30
0.0
 10
-0.6279281073260825
 20
-1.749740693698331
 30
0.0
 10
0.885493484752794
 20
-1.689939369975718
 30
0.0
 10
2.399406890952923
 20
-1.630138044952656
 30
0.0
 10
3.873314783502309
 20
-1.572323224636508
 30
0.0
 10
5.282692484251086
 20
-1.515523457389027
 30
0.0
 10
6.603212509767769
 20
-1.455905966473485
 30
0.0
 10
7.802921285189877
 20
-1.396037820443334
 30
0.0
 10
8.846632281642009
 20
-1.337340988806342
 30
0.0
 10
9.718618136034099
 20
-1.28106858187757
 30
0.0
 10
10.40104825529059
 20
-1.221872242788667
 30
0.0
 10
10.88770816454876
 20
-1.162012637423875
 30
0.0
 10
11.0979483299014
 20
-1.109110672011412
 30
0.0
 10
11.18139476402134
 20
-1.077382566167608
 30
0.0
 10
11.15690034060684
 20
-1.064368712064889
 30
0.0
 10
11.15636318988497
 20
-1.064083324611293
 30
0.0
  0
SPLINE
  5
130
330
1B
100
AcDbEntity
 67
     1
  8
0
  6
Continuous
 62
     7
370
    25
100
AcDbSpline
210
0.0
220
0.0
230
1.0
 70
     8
 71
     3
 72
    30
 73
    26
 74
     0
 42
0.000000001
 43
0.00000001
 40
0.0
 40
0.0
 40
0.0
 40
0.0
 40
0.0096444617947683
 40
0.0576440171821134
 40
0.1058902524029912
 40
0.1538547736514845
 40
0.2012002943552016
 40
0.2490460812506487
 40
0.297278152175571
 40
0.3453690363777031
 40
0.3928196453122006
 40
0.4404757539258488
 40
0.4886559602009987
 40
0.5368361664761485
 40
0.5844922750897968
 40
0.6319428840242947
 40
0.680033768226426
 40
0.7282658391513486
 40
0.7761116260467957
 40
0.8234571467505128
 40
0.8714216679990064
 40
0.9196679032198838
 40
0.9676674586072285
 40
0.9992909631855821
 40
1.0
 40
1.0
 40
1.0
 40
1.0
 10
-9.302507042181752
 20
0.2114489076096085
 30
0.0
 10
-9.301358257000029
 20
0.2152903111936159
 30
0.0
 10
-9.294492078859353
 20
0.2382500096103947
 30
0.0
 10
-9.06537526350493
 20
0.2821644448602958
 30
0.0
 10
-8.606940231373576
 20
0.3419853504820735
 30
0.0
 10
-7.924579766709803
 20
0.4011919893944331
 30
0.0
 10
-7.059527413208974
 20
0.4574616705669103
 30
0.0
 10
-6.020186837674133
 20
0.5161592381040525
 30
0.0
 10
-4.824677161781978
 20
0.5760271848168457
 30
0.0
 10
-3.507386879627278
 20
0.635644728985002
 30
0.0
 10
-2.100388369745273
 20
0.6924444821320846
 30
0.0
 10
-0.627928107326085
 20
0.7502593063016677
 30
0.0
 10
0.8854934847527954
 20
0.8100606300242806
 30
0.0
 10
2.399406890952923
 20
0.8698619550473429
 30
0.0
 10
3.873314783502308
 20
0.9276767753634945
 30
0.0
 10
5.282692484251086
 20
0.9844765426109715
 30
0.0
 10
6.60321250976777
 20
1.044094033526517
 30
0.0
 10
7.802921285189873
 20
1.103962179556665
 30
0.0
 10
8.846632281642007
 20
1.162659011193661
 30
0.0
 10
9.7186181360341
 20
1.218931418122432
 30
0.0
 10
10.40104825529059
 20
1.278127757211332
 30
0.0
 10
10.88770816454876
 20
1.337987362576128
 30
0.0
 10
11.09794832990137
 20
1.390889327988583
 30
0.0
 10
11.18139476402137
 20
1.422617433832398
 30
0.0
 10
11.15690034060684
 20
1.435631287935113
 30
0.0
 10
11.15636318988497
 20
1.435916675388706
 30
0.0
  0
SPLINE
  5
131
330
1B
100
AcDbEntity
 67
     1
  8
0
  6
Continuous
 62
     7
370
    25
100
AcDbSpline
210
0.0
220
0.0
230
1.0
 70
     8
 71
     3
 72
    30
 73
    26
 74
     0
 42
0.000000001
 43
0.00000001
 40
0.0
 40
0.0
 40
0.0
 40
0.0
 40
0.009644461794768
 40
0.0576440171821132
 40
0.1058902524029911
 40
0.1538547736514844
 40
0.2012002943552015
 40
0.2490460812506488
 40
0.2972781521755712
 40
0.3453690363777033
 40
0.3928196453122009
 40
0.4404757539258491
 40
0.4886559602009991
 40
0.536836166476149
 40
0.5844922750897975
 40
0.6319428840242953
 40
0.6800337682264268
 40
0.7282658391513493
 40
0.7761116260467966
 40
0.8234571467505138
 40
0.8714216679990074
 40
0.9196679032198849
 40
0.9676674586072297
 40
0.9992909631855832
 40
1.0
 40
1.0
 40
1.0
 40
1.0
 10
-9.302507042181752
 20
2.711448907609607
 30
0.0
 10
-9.301358257000027
 20
2.715290311193615
 30
0.0
 10
-9.29449207885935
 20
2.738250009610393
 30
0.0
 10
-9.06537526350493
 20
2.782164444860295
 30
0.0
 10
-8.606940231373573
 20
2.841985350482072
 30
0.0
 10
-7.924579766709806
 20
2.901191989394435
 30
0.0
 10
-7.059527413208977
 20
2.957461670566909
 30
0.0
 10
-6.020186837674133
 20
3.016159238104055
 30
0.0
 10
-4.824677161781981
 20
3.076027184816844
 30
0.0
 10
-3.507386879627274
 20
3.135644728985001
 30
0.0
 10
-2.100388369745275
 20
3.192444482132083
 30
0.0
 10
-0.6279281073260832
 20
3.250259306301666
 30
0.0
 10
0.885493484752792
 20
3.310060630024283
 30
0.0
 10
2.39940689095293
 20
3.369861955047345
 30
0.0
 10
3.873314783502301
 20
3.42767677536349
 30
0.0
 10
5.282692484251088
 20
3.484476542610974
 30
0.0
 10
6.603212509767769
 20
3.544094033526516
 30
0.0
 10
7.802921285189875
 20
3.603962179556667
 30
0.0
 10
8.846632281642007
 20
3.662659011193659
 30
0.0
 10
9.7186181360341
 20
3.718931418122431
 30
0.0
 10
10.40104825529059
 20
3.778127757211335
 30
0.0
 10
10.88770816454876
 20
3.837987362576123
 30
0.0
 10
11.09794832990138
 20
3.890889327988589
 30
0.0
 10
11.18139476402137
 20
3.92261743383239
 30
0.0
 10
11.15690034060684
 20
3.935631287935112
 30
0.0
 10
11.15636318988497
 20
3.935916675388704
 30
0.0
  0
SPLINE
  5
132
330
1B
100
AcDbEntity
 67
     1
  8
0
  6
Continuous
 62
     7
370
    25
100
AcDbSpline
210
0.0
220
0.0
230
1.0
 70
     8
 71
     3
 72
    28
 73
    24
 74
     0
 42
0.000000001
 43
0.00000001
 40
0.0
 40
0.0
 40
0.0
 40
0.0
 40
0.1249999999999997
 40
0.1249999999999997
 40
0.2499999999999993
 40
0.2499999999999993
 40
0.3124999999999994
 40
0.3124999999999994
 40
0.3749999999999996
 40
0.3749999999999996
 40
0.4999999999999996
 40
0.4999999999999996
 40
0.5624999999999996
 40
0.5624999999999996
 40
0.6249999999999997
 40
0.6249999999999997
 40
0.7499999999999998
 40
0.7499999999999998
 40
0.8124999999999998
 40
0.8124999999999998
 40
0.8749999999999999
 40
0.8749999999999999
 40
1.0
 40
1.0
 40
1.0
 40
1.0
 10
10.65797117709591
 20
-7.507242903452921
 30
0.0
 10
10.65497600169091
 20
-7.472941152246153
 30
0.0
 10
10.53348009083584
 20
-7.436377075445953
 30
0.0
 10
10.04965419794539
 20
-7.362533988121787
 30
0.0
 10
9.687554819884989
 20
-7.325304849773503
 30
0.0
 10
9.000135899214403
 20
-7.272029757569989
 30
0.0
 10
8.749371070049595
 20
-7.255057586729091
 30
0.0
 10
8.196880789548304
 20
-7.219974877250509
 30
0.0
 10
7.895154973007723
 20
-7.201955648963969
 30
0.0
 10
6.9232560136927
 20
-7.147171844558594
 30
0.0
 10
6.185446070561063
 20
-7.109687119358263
 30
0.0
 10
5.005279773872374
 20
-7.055114049503316
 30
0.0
 10
4.599920117135762
 20
-7.037199320244908
 30
0.0
 10
3.777271495382563
 20
-7.00238481980876
 30
0.0
 10
3.358266224320162
 20
-6.985250075424762
 30
0.0
 10
2.065172764152017
 20
-6.931641912902884
 30
0.0
 10
1.165368265234308
 20
-6.894320666160018
 30
0.0
 10
-0.1672968662759578
 20
-6.839019288620449
 30
0.0
 10
-0.6085713208253433
 20
-6.820703411201445
 30
0.0
 10
-1.473223250720122
 20
-6.784805900717662
 30
0.0
 10
-1.894685845306321
 20
-6.767466719052242
 30
0.0
 10
-3.129276112885214
 20
-6.715570153620412
 30
0.0
 10
-3.929875461572652
 20
-6.678825306791373
 30
0.0
 10
-4.661237160874419
 20
-6.641869252173711
 30
0.0
  0
SPLINE
  5
135
330
1B
100
AcDbEntity
 67
     1
  8
0
  6
Continuous
 62
     7
370
    25
100
AcDbSpline
210
0.0
220
0.0
230
1.0
 70
     8
 71
     3
 72
    29
 73
    25
 74
     0
 42
0.000000001
 43
0.00000001
 40
0.0
 40
0.0
 40
0.0
 40
0.0
 40
0.0073516414195539
 40
0.0581727186694527
 40
0.1086970472199457
 40
0.1585693399305479
 40
0.2089685974221124
 40
0.2597747544450599
 40
0.3104321897840719
 40
0.3604151791546358
 40
0.4106146354685996
 40
0.4613661598894265
 40
0.5121176843102535
 40
0.5623171406242174
 40
0.6123001299947787
 40
0.6629575653337945
 40
0.7137637223567431
 40
0.7641629798483078
 40
0.8140352725589098
 40
0.8645596011094031
 40
0.915380678359299
 40
0.9659419107773982
 40
0.9992531227658842
 40
0.9999999999999999
 40
0.9999999999999999
 40
0.9999999999999999
 40
0.9999999999999999
 10
10.89450321485544
 20
2.692785032194958
 30
0.0
 10
10.88278406829645
 20
2.689924644133503
 30
0.0
 10
10.79005176853972
 20
2.667290712404728
 30
0.0
 10
10.40655301930162
 20
2.624188679604317
 30
0.0
 10
9.744822504006722
 20
2.565092540271263
 30
0.0
 10
8.874310618828538
 20
2.508793616372945
 30
0.0
 10
7.83644400788598
 20
2.450103943788157
 30
0.0
 10
6.640535113717901
 20
2.390233858754486
 30
0.0
 10
5.32335148291433
 20
2.330616885839756
 30
0.0
 10
3.916324769665998
 20
2.273816981627829
 30
0.0
 10
2.443872079493028
 20
2.216002198017243
 30
0.0
 10
0.9304484337390797
 20
2.156200863294592
 30
0.0
 10
-0.583464421415636
 20
2.096399541223079
 30
0.0
 10
-2.057372459912633
 20
2.038584720125188
 30
0.0
 10
-3.466750121752018
 20
1.981784953086121
 30
0.0
 10
-4.787270157822465
 20
1.922167462114047
 30
0.0
 10
-5.986978930400603
 20
1.862299316099134
 30
0.0
 10
-7.030689927607845
 20
1.803602484458093
 30
0.0
 10
-7.90267578179964
 20
1.747330077530397
 30
0.0
 10
-8.585105901110348
 20
1.688133738441205
 30
0.0
 10
-9.071765810353758
 20
1.62827413307649
 30
0.0
 10
-9.282005975710183
 20
1.57537216766401
 30
0.0
 10
-9.365452409829407
 20
1.543644061820202
 30
0.0
 10
-9.340957986414988
 20
1.530630207717487
 30
0.0
 10
-9.340420835693127
 20
1.530344820263898
 30
0.0
  0
SPLINE
  5
136
330
1B
100
AcDbEntity
 67
     1
  8
0
  6
Continuous
 62
     7
370
    25
100
AcDbSpline
210
0.0
220
0.0
230
1.0
 70
     8
 71
     3
 72
    29
 73
    25
 74
     0
 42
0.000000001
 43
0.00000001
 40
0.0
 40
0.0
 40
0.0
 40
0.0
 40
0.0073516414195539
 40
0.0581727186694527
 40
0.1086970472199456
 40
0.1585693399305478
 40
0.2089685974221122
 40
0.2597747544450596
 40
0.3104321897840716
 40
0.3604151791546354
 40
0.4106146354685992
 40
0.461366159889426
 40
0.512117684310253
 40
0.5623171406242168
 40
0.612300129994778
 40
0.6629575653337938
 40
0.7137637223567423
 40
0.764162979848307
 40
0.814035272558909
 40
0.8645596011094022
 40
0.915380678359298
 40
0.9659419107773972
 40
0.9992531227658831
 40
1.0
 40
1.0
 40
1.0
 40
1.0
 10
10.89450321485544
 20
0.1927850321949594
 30
0.0
 10
10.88278406829645
 20
0.189924644133501
 30
0.0
 10
10.79005176853972
 20
0.1672907124047295
 30
0.0
 10
10.40655301930161
 20
0.1241886796043146
 30
0.0
 10
9.744822504006724
 20
0.0650925402712645
 30
0.0
 10
8.874310618828538
 20
0.0087936163729457
 30
0.0
 10
7.83644400788598
 20
-0.0498960562118449
 30
0.0
 10
6.640535113717901
 20
-0.1097661412455125
 30
0.0
 10
5.32335148291433
 20
-0.1693831141602424
 30
0.0
 10
3.916324769665996
 20
-0.2261830183721697
 30
0.0
 10
2.443872079493028
 20
-0.2839978019827556
 30
0.0
 10
0.9304484337390794
 20
-0.3437991367054097
 30
0.0
 10
-0.5834644214156347
 20
-0.4036004587769232
 30
0.0
 10
-2.057372459912636
 20
-0.4614152798748106
 30
0.0
 10
-3.466750121752018
 20
-0.518215046913878
 30
0.0
 10
-4.787270157822463
 20
-0.5778325378859515
 30
0.0
 10
-5.986978930400602
 20
-0.637700683900868
 30
0.0
 10
-7.030689927607848
 20
-0.6963975155419057
 30
0.0
 10
-7.90267578179964
 20
-0.7526699224696052
 30
0.0
 10
-8.585105901110344
 20
-0.8118662615587968
 30
0.0
 10
-9.07176581035377
 20
-0.8717258669235124
 30
0.0
 10
-9.282005975710135
 20
-0.9246278323359925
 30
0.0
 10
-9.365452409829475
 20
-0.9563559381797968
 30
0.0
 10
-9.340957986414983
 20
-0.9693697922825116
 30
0.0
 10
-9.340420835693124
 20
-0.9696551797361043
 30
0.0
  0
SPLINE
  5
137
330
1B
100
AcDbEntity
 67
     1
  8
0
  6
Continuous
 62
     7
370
    25
100
AcDbSpline
210
0.0
220
0.0
230
1.0
 70
     8
 71
     3
 72
    29
 73
    25
 74
     0
 42
0.000000001
 43
0.00000001
 40
0.0
 40
0.0
 40
0.0
 40
0.0
 40
0.0073516414195532
 40
0.058172718669452
 40
0.108697047219945
 40
0.1585693399305472
 40
0.2089685974221116
 40
0.259774754445059
 40
0.3104321897840711
 40
0.3604151791546349
 40
0.4106146354685987
 40
0.4613661598894256
 40
0.5121176843102526
 40
0.5623171406242164
 40
0.6123001299947778
 40
0.6629575653337935
 40
0.7137637223567421
 40
0.7641629798483068
 40
0.8140352725589088
 40
0.864559601109402
 40
0.9153806783592979
 40
0.9659419107773971
 40
0.999253122765883
 40
0.9999999999999999
 40
0.9999999999999999
 40
0.9999999999999999
 40
0.9999999999999999
 10
10.89450321485543
 20
-2.307214967805043
 30
0.0
 10
10.88278406829645
 20
-2.310075355866497
 30
0.0
 10
10.79005176853972
 20
-2.332709287595269
 30
0.0
 10
10.40655301930161
 20
-2.375811320395684
 30
0.0
 10
9.744822504006725
 20
-2.434907459728738
 30
0.0
 10
8.874310618828536
 20
-2.491206383627056
 30
0.0
 10
7.83644400788598
 20
-2.549896056211844
 30
0.0
 10
6.6405351137179
 20
-2.609766141245515
 30
0.0
 10
5.32335148291433
 20
-2.669383114160245
 30
0.0
 10
3.916324769665996
 20
-2.726183018372168
 30
0.0
 10
2.443872079493028
 20
-2.783997801982758
 30
0.0
 10
0.9304484337390792
 20
-2.843799136705409
 30
0.0
 10
-0.5834644214156334
 20
-2.903600458776922
 30
0.0
 10
-2.057372459912638
 20
-2.961415279874809
 30
0.0
 10
-3.466750121752013
 20
-3.018215046913877
 30
0.0
 10
-4.787270157822468
 20
-3.07783253788595
 30
0.0
 10
-5.986978930400602
 20
-3.137700683900867
 30
0.0
 10
-7.030689927607848
 20
-3.196397515541908
 30
0.0
 10
-7.902675781799635
 20
-3.252669922469604
 30
0.0
 10
-8.58510590111035
 20
-3.311866261558799
 30
0.0
 10
-9.07176581035377
 20
-3.371725866923511
 30
0.0
 10
-9.282005975710135
 20
-3.424627832335995
 30
0.0
 10
-9.365452409829475
 20
-3.456355938179792
 30
0.0
 10
-9.340957986414983
 20
-3.469369792282514
 30
0.0
 10
-9.340420835693124
 20
-3.469655179736103
 30
0.0
  0
SPLINE
  5
138
330
1B
100
AcDbEntity
 67
     1
  8
0
  6
Continuous
 62
     7
370
    25
100
AcDbSpline
210
0.0
220
0.0
230
1.0
 70
     8
 71
     3
 72
    29
 73
    25
 74
     0
 42
0.000000001
 43
0.00000001
 40
0.0
 40
0.0
 40
0.0
 40
0.0
 40
0.0073516414195537
 40
0.0581727186694525
 40
0.1086970472199455
 40
0.1585693399305476
 40
0.2089685974221121
 40
0.2597747544450595
 40
0.3104321897840715
 40
0.3604151791546354
 40
0.4106146354685992
 40
0.4613661598894261
 40
0.5121176843102531
 40
0.5623171406242169
 40
0.6123001299947782
 40
0.6629575653337939
 40
0.7137637223567426
 40
0.7641629798483073
 40
0.8140352725589093
 40
0.8645596011094026
 40
0.9153806783592984
 40
0.9659419107773975
 40
0.9992531227658835
 40
1.0
 40
1.0
 40
1.0
 40
1.0
 10
10.89450321485543
 20
-4.807214967805042
 30
0.0
 10
10.88278406829645
 20
-4.810075355866497
 30
0.0
 10
10.79005176853972
 20
-4.832709287595268
 30
0.0
 10
10.40655301930161
 20
-4.875811320395687
 30
0.0
 10
9.744822504006725
 20
-4.934907459728737
 30
0.0
 10
8.874310618828538
 20
-4.991206383627059
 30
0.0
 10
7.836444007885978
 20
-5.049896056211843
 30
0.0
 10
6.640535113717902
 20
-5.109766141245514
 30
0.0
 10
5.323351482914329
 20
-5.16938311416024
 30
0.0
 10
3.916324769665997
 20
-5.22618301837217
 30
0.0
 10
2.443872079493028
 20
-5.283997801982757
 30
0.0
 10
0.9304484337390798
 20
-5.34379913670541
 30
0.0
 10
-0.5834644214156343
 20
-5.40360045877692
 30
0.0
 10
-2.057372459912638
 20
-5.461415279874812
 30
0.0
 10
-3.466750121752013
 20
-5.518215046913879
 30
0.0
 10
-4.787270157822468
 20
-5.577832537885953
 30
0.0
 10
-5.986978930400603
 20
-5.637700683900869
 30
0.0
 10
-7.030689927607845
 20
-5.696397515541907
 30
0.0
 10
-7.902675781799639
 20
-5.752669922469603
 30
0.0
 10
-8.585105901110344
 20
-5.811866261558798
 30
0.0
 10
-9.071765810353773
 20
-5.871725866923503
 30
0.0
 10
-9.282005975710128
 20
-5.924627832336004
 30
0.0
 10
-9.365452409829485
 20
-5.956355938179777
 30
0.0
 10
-9.340957986414983
 20
-5.969369792282513
 30
0.0
 10
-9.340420835693124
 20
-5.969655179736105
 30
0.0
  0
SPLINE
  5
139
330
1B
100
AcDbEntity
 67
     1
  8
0
  6
Continuous
 62
     7
370
    25
100
AcDbSpline
210
0.0
220
0.0
230
1.0
 70
     8
 71
     3
 72
    17
 73
    13
 74
     0
 42
0.000000001
 43
0.00000001
 40
0.0
 40
0.0
 40
0.0
 40
0.0
 40
0.1043632887449727
 40
0.210031663905536
 40
0.3157000390660987
 40
0.4200633278110715
 40
0.5244266165560441
 40
0.6300949917166074
 40
0.7357633668771706
 40
0.8401266556221432
 40
0.944489944367116
 40
0.9999999999999999
 40
0.9999999999999999
 40
0.9999999999999999
 40
0.9999999999999999
 10
-46.45743310755956
 20
23.6409244072741
 30
0.0
 10
-46.43711772284802
 20
24.16119658818594
 30
0.0
 10
-46.39623290496662
 20
25.20824707073354
 30
0.0
 10
-46.3324330942404
 20
26.74249958927631
 30
0.0
 10
-46.26863336310001
 20
28.19901183664208
 30
0.0
 10
-46.20743292469463
 20
29.5365029609134
 30
0.0
 10
-46.14623358805241
 20
30.72945973376794
 30
0.0
 10
-46.0824305102318
 20
31.75085038135032
 30
0.0
 10
-46.01864295221978
 20
32.57341858756044
 30
0.0
 10
-45.95739763040419
 20
33.15992610609124
 30
0.0
 10
-45.90610298698347
 20
33.49539721086289
 30
0.0
 10
-45.87385277519977
 20
33.5369770420095
 30
0.0
 10
-45.86265509207598
 20
33.55141408746656
 30
0.0
  0
SPLINE
  5
13A
330
1B
100
AcDbEntity
 67
     1
  8
0
  6
Continuous
 62
     7
370
    25
100
AcDbSpline
210
0.0
220
0.0
230
1.0
 70
     8
 71
     3
 72
    12
 73
     8
 74
     0
 42
0.000000001
 43
0.00000001
 40
0.0
 40
0.0
 40
0.0
 40
0.0
 40
0.0054665488738278
 40
0.2557639166230583
 40
0.5031932226519935
 40
0.7499632497018143
 40
1.0
 40
1.0
 40
1.0
 40
1.0
 10
-45.83377187596654
 20
33.60561832270744
 30
0.0
 10
-45.83332565029818
 20
33.6064724981641
 30
0.0
 10
-45.81244804959025
 20
33.64643688251725
 30
0.0
 10
-45.77097954595246
 20
33.5092907946956
 30
0.0
 10
-45.71185842767018
 20
33.18283190438251
 30
0.0
 10
-45.65330679891817
 20
32.62540172607495
 30
0.0
 10
-45.61254415900894
 20
32.08752426358269
 30
0.0
 10
-45.59202882290406
 20
31.81681714179559
 30
0.0
  0
SPLINE
  5
13B
330
1B
100
AcDbEntity
 67
     1
  8
0
  6
Continuous
 62
     7
370
    25
100
AcDbSpline
210
0.0
220
0.0
230
1.0
 70
     8
 71
     3
 72
    27
 73
    23
 74
     0
 42
0.000000001
 43
0.00000001
 40
0.0
 40
0.0
 40
0.0
 40
0.0
 40
0.0316044025867154
 40
0.0833610157020267
 40
0.135117628817338
 40
0.1875209645442926
 40
0.239924300271247
 40
0.2916809133865583
 40
0.3434375265018695
 40
0.3958408622288239
 40
0.4482441979557783
 40
0.5000008110710898
 40
0.5517574241864014
 40
0.6041607599133558
 40
0.6565640956403103
 40
0.7083207087556214
 40
0.7600773218709328
 40
0.8124806575978875
 40
0.8648839933248419
 40
0.9166406064401531
 40
0.9683972195554647
 40
1.0
 40
1.0
 40
1.0
 40
1.0
 10
-44.94175871150419
 20
35.05123761269228
 30
0.0
 10
-44.92889828533308
 20
35.03172316213576
 30
0.0
 10
-44.89497711928534
 20
34.98025107957402
 30
0.0
 10
-44.84205691620835
 20
34.58212491458767
 30
0.0
 10
-44.78082133606024
 20
33.90072822692229
 30
0.0
 10
-44.71703087961959
 20
32.95008222865388
 30
0.0
 10
-44.65322813365064
 20
31.77084421204885
 30
0.0
 10
-44.59202896770938
 20
30.39513069566699
 30
0.0
 10
-44.53082892931731
 20
28.85391341125841
 30
0.0
 10
-44.4670288334509
 20
27.17665019488494
 30
0.0
 10
-44.40322867456369
 20
25.41080880166178
 30
0.0
 10
-44.34202882290398
 20
23.60813074783624
 30
0.0
 10
-44.28082897124472
 20
21.80545269394263
 30
0.0
 10
-44.21702881235613
 20
20.03961130092644
 30
0.0
 10
-44.15322871649466
 20
18.36234808379569
 30
0.0
 10
-44.09202867808438
 20
16.82113080217654
 30
0.0
 10
-44.03082951221135
 20
15.44541727537054
 30
0.0
 10
-43.96702676598446
 20
14.26617929814503
 30
0.0
 10
-43.90323631050513
 20
13.3155331531374
 30
0.0
 10
-43.84200072681244
 20
12.63413700652297
 30
0.0
 10
-43.78908117054559
 20
12.23601386866466
 30
0.0
 10
-43.7551606694169
 20
12.18454204911021
 30
0.0
 10
-43.74230090516047
 20
12.16502832014706
 30
0.0
  0
SPLINE
  5
13C
330
1B
100
AcDbEntity
 67
     1
  8
0
  6
Continuous
 62
     7
370
    25
100
AcDbSpline
210
0.0
220
0.0
230
1.0
 70
     8
 71
     3
 72
    27
 73
    23
 74
     0
 42
0.000000001
 43
0.00000001
 40
0.0
 40
0.0
 40
0.0
 40
0.0
 40
0.0316044025867154
 40
0.0833610157020268
 40
0.1351176288173382
 40
0.1875209645442927
 40
0.2399243002712472
 40
0.2916809133865585
 40
0.3434375265018698
 40
0.3958408622288242
 40
0.4482441979557786
 40
0.5000008110710903
 40
0.5517574241864018
 40
0.6041607599133563
 40
0.6565640956403107
 40
0.7083207087556219
 40
0.7600773218709334
 40
0.8124806575978881
 40
0.8648839933248426
 40
0.9166406064401538
 40
0.9683972195554654
 40
1.0
 40
1.0
 40
1.0
 40
1.0
 10
-42.44175871150419
 20
35.05123761269228
 30
0.0
 10
-42.42889828533309
 20
35.03172316213577
 30
0.0
 10
-42.39497711928534
 20
34.98025107957402
 30
0.0
 10
-42.34205691620832
 20
34.58212491458765
 30
0.0
 10
-42.28082133606024
 20
33.9007282269223
 30
0.0
 10
-42.21703087961957
 20
32.95008222865388
 30
0.0
 10
-42.15322813365065
 20
31.77084421204886
 30
0.0
 10
-42.09202896770937
 20
30.39513069566698
 30
0.0
 10
-42.03082892931732
 20
28.85391341125841
 30
0.0
 10
-41.96702883345088
 20
27.17665019488494
 30
0.0
 10
-41.90322867456368
 20
25.41080880166177
 30
0.0
 10
-41.84202882290397
 20
23.60813074783624
 30
0.0
 10
-41.78082897124472
 20
21.80545269394262
 30
0.0
 10
-41.71702881235613
 20
20.03961130092645
 30
0.0
 10
-41.65322871649467
 20
18.36234808379569
 30
0.0
 10
-41.59202867808436
 20
16.82113080217653
 30
0.0
 10
-41.53082951221135
 20
15.44541727537055
 30
0.0
 10
-41.46702676598447
 20
14.26617929814503
 30
0.0
 10
-41.40323631050513
 20
13.31553315313741
 30
0.0
 10
-41.34200072681243
 20
12.63413700652296
 30
0.0
 10
-41.28908117054558
 20
12.23601386866467
 30
0.0
 10
-41.2551606694169
 20
12.18454204911021
 30
0.0
 10
-41.24230090516047
 20
12.16502832014706
 30
0.0
  0
SPLINE
  5
13D
330
1B
100
AcDbEntity
 67
     1
  8
0
  6
Continuous
 62
     7
370
    25
100
AcDbSpline
210
0.0
220
0.0
230
1.0
 70
     8
 71
     3
 72
    27
 73
    23
 74
     0
 42
0.000000001
 43
0.00000001
 40
0.0
 40
0.0
 40
0.0
 40
0.0
 40
0.031604402586716
 40
0.0833610157020274
 40
0.1351176288173387
 40
0.1875209645442933
 40
0.2399243002712477
 40
0.291680913386559
 40
0.3434375265018703
 40
0.3958408622288247
 40
0.4482441979557791
 40
0.5000008110710906
 40
0.5517574241864022
 40
0.6041607599133566
 40
0.6565640956403112
 40
0.7083207087556223
 40
0.7600773218709337
 40
0.8124806575978883
 40
0.8648839933248428
 40
0.916640606440154
 40
0.9683972195554656
 40
1.0
 40
1.0
 40
1.0
 40
1.0
 10
-39.9417587115042
 20
35.05123761269228
 30
0.0
 10
-39.9288982853331
 20
35.03172316213576
 30
0.0
 10
-39.89497711928533
 20
34.98025107957402
 30
0.0
 10
-39.84205691620834
 20
34.58212491458765
 30
0.0
 10
-39.78082133606025
 20
33.9007282269223
 30
0.0
 10
-39.71703087961958
 20
32.95008222865388
 30
0.0
 10
-39.65322813365065
 20
31.77084421204886
 30
0.0
 10
-39.59202896770938
 20
30.39513069566697
 30
0.0
 10
-39.53082892931733
 20
28.85391341125843
 30
0.0
 10
-39.46702883345088
 20
27.17665019488493
 30
0.0
 10
-39.40322867456369
 20
25.41080880166178
 30
0.0
 10
-39.34202882290397
 20
23.60813074783623
 30
0.0
 10
-39.28082897124473
 20
21.80545269394263
 30
0.0
 10
-39.21702881235613
 20
20.03961130092643
 30
0.0
 10
-39.15322871649467
 20
18.3623480837957
 30
0.0
 10
-39.09202867808438
 20
16.82113080217653
 30
0.0
 10
-39.03082951221136
 20
15.44541727537055
 30
0.0
 10
-38.96702676598446
 20
14.26617929814503
 30
0.0
 10
-38.90323631050514
 20
13.31553315313741
 30
0.0
 10
-38.84200072681242
 20
12.63413700652296
 30
0.0
 10
-38.78908117054559
 20
12.23601386866467
 30
0.0
 10
-38.75516066941691
 20
12.18454204911022
 30
0.0
 10
-38.74230090516047
 20
12.16502832014706
 30
0.0
  0
SPLINE
  5
13E
330
1B
100
AcDbEntity
 67
     1
  8
0
  6
Continuous
 62
     7
370
    25
100
AcDbSpline
210
0.0
220
0.0
230
1.0
 70
     8
 71
     3
 72
    27
 73
    23
 74
     0
 42
0.000000001
 43
0.00000001
 40
0.0
 40
0.0
 40
0.0
 40
0.0
 40
0.031604402586716
 40
0.0833610157020273
 40
0.1351176288173386
 40
0.1875209645442932
 40
0.2399243002712476
 40
0.2916809133865589
 40
0.34343752650187
 40
0.3958408622288244
 40
0.4482441979557788
 40
0.5000008110710904
 40
0.5517574241864018
 40
0.6041607599133563
 40
0.6565640956403107
 40
0.7083207087556218
 40
0.7600773218709332
 40
0.8124806575978879
 40
0.8648839933248422
 40
0.9166406064401534
 40
0.9683972195554651
 40
1.0
 40
1.0
 40
1.0
 40
1.0
 10
-37.44175871150419
 20
35.05123761269228
 30
0.0
 10
-37.42889828533308
 20
35.03172316213577
 30
0.0
 10
-37.39497711928534
 20
34.98025107957402
 30
0.0
 10
-37.34205691620835
 20
34.58212491458767
 30
0.0
 10
-37.28082133606022
 20
33.90072822692228
 30
0.0
 10
-37.21703087961959
 20
32.95008222865389
 30
0.0
 10
-37.15322813365066
 20
31.77084421204887
 30
0.0
 10
-37.09202896770936
 20
30.39513069566697
 30
0.0
 10
-37.03082892931732
 20
28.85391341125841
 30
0.0
 10
-36.96702883345089
 20
27.17665019488494
 30
0.0
 10
-36.90322867456367
 20
25.41080880166178
 30
0.0
 10
-36.84202882290398
 20
23.60813074783625
 30
0.0
 10
-36.78082897124472
 20
21.80545269394262
 30
0.0
 10
-36.71702881235614
 20
20.03961130092645
 30
0.0
 10
-36.65322871649465
 20
18.36234808379569
 30
0.0
 10
-36.59202867808438
 20
16.82113080217653
 30
0.0
 10
-36.53082951221135
 20
15.44541727537055
 30
0.0
 10
-36.46702676598448
 20
14.26617929814503
 30
0.0
 10
-36.40323631050516
 20
13.31553315313741
 30
0.0
 10
-36.34200072681242
 20
12.63413700652296
 30
0.0
 10
-36.28908117054559
 20
12.23601386866466
 30
0.0
 10
-36.25516066941691
 20
12.18454204911022
 30
0.0
 10
-36.24230090516046
 20
12.16502832014706
 30
0.0
  0
SPLINE
  5
13F
330
1B
100
AcDbEntity
 67
     1
  8
0
  6
Continuous
 62
     7
370
    25
100
AcDbSpline
210
0.0
220
0.0
230
1.0
 70
     8
 71
     3
 72
    27
 73
    23
 74
     0
 42
0.000000001
 43
0.00000001
 40
0.0
 40
0.0
 40
0.0
 40
0.0
 40
0.031604402586716
 40
0.0833610157020272
 40
0.1351176288173385
 40
0.187520964544293
 40
0.2399243002712473
 40
0.2916809133865585
 40
0.3434375265018697
 40
0.395840862228824
 40
0.4482441979557784
 40
0.5000008110710898
 40
0.5517574241864013
 40
0.6041607599133556
 40
0.65656409564031
 40
0.7083207087556211
 40
0.7600773218709325
 40
0.8124806575978871
 40
0.8648839933248414
 40
0.9166406064401525
 40
0.9683972195554641
 40
1.0
 40
1.0
 40
1.0
 40
1.0
 10
-34.94175871150419
 20
35.05123761269228
 30
0.0
 10
-34.92889828533308
 20
35.03172316213577
 30
0.0
 10
-34.89497711928532
 20
34.98025107957401
 30
0.0
 10
-34.84205691620833
 20
34.58212491458765
 30
0.0
 10
-34.78082133606024
 20
33.9007282269223
 30
0.0
 10
-34.71703087961956
 20
32.95008222865387
 30
0.0
 10
-34.65322813365067
 20
31.77084421204888
 30
0.0
 10
-34.59202896770936
 20
30.39513069566696
 30
0.0
 10
-34.53082892931732
 20
28.85391341125842
 30
0.0
 10
-34.4670288334509
 20
27.17665019488495
 30
0.0
 10
-34.40322867456366
 20
25.41080880166177
 30
0.0
 10
-34.34202882290397
 20
23.60813074783624
 30
0.0
 10
-34.28082897124474
 20
21.80545269394263
 30
0.0
 10
-34.21702881235613
 20
20.03961130092644
 30
0.0
 10
-34.15322871649467
 20
18.36234808379569
 30
0.0
 10
-34.09202867808437
 20
16.82113080217653
 30
0.0
 10
-34.03082951221135
 20
15.44541727537054
 30
0.0
 10
-33.96702676598447
 20
14.26617929814504
 30
0.0
 10
-33.90323631050515
 20
13.31553315313741
 30
0.0
 10
-33.84200072681242
 20
12.63413700652296
 30
0.0
 10
-33.78908117054559
 20
12.23601386866467
 30
0.0
 10
-33.7551606694169
 20
12.18454204911021
 30
0.0
 10
-33.74230090516046
 20
12.16502832014706
 30
0.0
  0
SPLINE
  5
140
330
1B
100
AcDbEntity
 67
     1
  8
0
  6
Continuous
 62
     7
370
    25
100
AcDbSpline
210
0.0
220
0.0
230
1.0
 70
     8
 71
     3
 72
    27
 73
    23
 74
     0
 42
0.000000001
 43
0.00000001
 40
0.0
 40
0.0
 40
0.0
 40
0.0
 40
0.0316044025867149
 40
0.0833610157020262
 40
0.1351176288173375
 40
0.1875209645442921
 40
0.2399243002712465
 40
0.2916809133865578
 40
0.343437526501869
 40
0.3958408622288234
 40
0.4482441979557778
 40
0.5000008110710894
 40
0.5517574241864008
 40
0.6041607599133553
 40
0.6565640956403098
 40
0.7083207087556209
 40
0.7600773218709322
 40
0.812480657597887
 40
0.8648839933248413
 40
0.9166406064401524
 40
0.9683972195554641
 40
1.0
 40
1.0
 40
1.0
 40
1.0
 10
-32.44175871150419
 20
35.05123761269228
 30
0.0
 10
-32.4288982853331
 20
35.03172316213575
 30
0.0
 10
-32.39497711928534
 20
34.98025107957401
 30
0.0
 10
-32.34205691620834
 20
34.58212491458767
 30
0.0
 10
-32.28082133606024
 20
33.9007282269223
 30
0.0
 10
-32.21703087961956
 20
32.95008222865388
 30
0.0
 10
-32.15322813365065
 20
31.77084421204885
 30
0.0
 10
-32.09202896770937
 20
30.39513069566699
 30
0.0
 10
-32.03082892931733
 20
28.85391341125841
 30
0.0
 10
-31.9670288334509
 20
27.17665019488495
 30
0.0
 10
-31.90322867456367
 20
25.41080880166177
 30
0.0
 10
-31.84202882290398
 20
23.60813074783625
 30
0.0
 10
-31.78082897124472
 20
21.80545269394262
 30
0.0
 10
-31.71702881235613
 20
20.03961130092644
 30
0.0
 10
-31.65322871649469
 20
18.3623480837957
 30
0.0
 10
-31.59202867808436
 20
16.82113080217653
 30
0.0
 10
-31.53082951221137
 20
15.44541727537055
 30
0.0
 10
-31.46702676598445
 20
14.26617929814503
 30
0.0
 10
-31.40323631050516
 20
13.31553315313741
 30
0.0
 10
-31.3420007268124
 20
12.63413700652296
 30
0.0
 10
-31.28908117054559
 20
12.23601386866466
 30
0.0
 10
-31.25516066941691
 20
12.18454204911021
 30
0.0
 10
-31.24230090516047
 20
12.16502832014706
 30
0.0
  0
SPLINE
  5
141
330
1B
100
AcDbEntity
 67
     1
  8
0
  6
Continuous
 62
     7
370
    25
100
AcDbSpline
210
0.0
220
0.0
230
1.0
 70
     8
 71
     3
 72
    27
 73
    23
 74
     0
 42
0.000000001
 43
0.00000001
 40
0.0
 40
0.0
 40
0.0
 40
0.0
 40
0.0316044025867149
 40
0.0833610157020262
 40
0.1351176288173375
 40
0.1875209645442921
 40
0.2399243002712465
 40
0.2916809133865578
 40
0.343437526501869
 40
0.3958408622288234
 40
0.4482441979557778
 40
0.5000008110710894
 40
0.5517574241864008
 40
0.6041607599133553
 40
0.6565640956403098
 40
0.7083207087556209
 40
0.7600773218709322
 40
0.812480657597887
 40
0.8648839933248413
 40
0.9166406064401524
 40
0.9683972195554641
 40
1.0
 40
1.0
 40
1.0
 40
1.0
 10
-29.94175871150419
 20
35.05123761269228
 30
0.0
 10
-29.92889828533309
 20
35.03172316213575
 30
0.0
 10
-29.89497711928534
 20
34.98025107957402
 30
0.0
 10
-29.84205691620834
 20
34.58212491458767
 30
0.0
 10
-29.78082133606023
 20
33.90072822692229
 30
0.0
 10
-29.71703087961958
 20
32.95008222865388
 30
0.0
 10
-29.65322813365065
 20
31.77084421204885
 30
0.0
 10
-29.59202896770938
 20
30.39513069566699
 30
0.0
 10
-29.53082892931732
 20
28.85391341125841
 30
0.0
 10
-29.4670288334509
 20
27.17665019488495
 30
0.0
 10
-29.40322867456367
 20
25.41080880166177
 30
0.0
 10
-29.34202882290398
 20
23.60813074783625
 30
0.0
 10
-29.28082897124472
 20
21.80545269394262
 30
0.0
 10
-29.21702881235613
 20
20.03961130092644
 30
0.0
 10
-29.15322871649468
 20
18.3623480837957
 30
0.0
 10
-29.09202867808436
 20
16.82113080217653
 30
0.0
 10
-29.03082951221137
 20
15.44541727537055
 30
0.0
 10
-28.96702676598446
 20
14.26617929814503
 30
0.0
 10
-28.90323631050515
 20
13.31553315313741
 30
0.0
 10
-28.84200072681241
 20
12.63413700652296
 30
0.0
 10
-28.7890811705456
 20
12.23601386866466
 30
0.0
 10
-28.7551606694169
 20
12.18454204911021
 30
0.0
 10
-28.74230090516047
 20
12.16502832014706
 30
0.0
  0
SPLINE
  5
142
330
1B
100
AcDbEntity
 67
     1
  8
0
  6
Continuous
 62
     7
370
    25
100
AcDbSpline
210
0.0
220
0.0
230
1.0
 70
     8
 71
     3
 72
    27
 73
    23
 74
     0
 42
0.000000001
 43
0.00000001
 40
0.0
 40
0.0
 40
0.0
 40
0.0
 40
0.0316044025867149
 40
0.0833610157020262
 40
0.1351176288173375
 40
0.1875209645442921
 40
0.2399243002712465
 40
0.2916809133865578
 40
0.343437526501869
 40
0.3958408622288234
 40
0.4482441979557778
 40
0.5000008110710894
 40
0.5517574241864008
 40
0.6041607599133553
 40
0.6565640956403098
 40
0.7083207087556209
 40
0.7600773218709322
 40
0.812480657597887
 40
0.8648839933248413
 40
0.9166406064401524
 40
0.9683972195554641
 40
1.0
 40
1.0
 40
1.0
 40
1.0
 10
-27.44175871150419
 20
35.05123761269228
 30
0.0
 10
-27.42889828533308
 20
35.03172316213575
 30
0.0
 10
-27.39497711928534
 20
34.98025107957402
 30
0.0
 10
-27.34205691620834
 20
34.58212491458767
 30
0.0
 10
-27.28082133606023
 20
33.90072822692229
 30
0.0
 10
-27.21703087961957
 20
32.95008222865388
 30
0.0
 10
-27.15322813365065
 20
31.77084421204885
 30
0.0
 10
-27.09202896770938
 20
30.39513069566699
 30
0.0
 10
-27.03082892931731
 20
28.85391341125841
 30
0.0
 10
-26.9670288334509
 20
27.17665019488495
 30
0.0
 10
-26.90322867456367
 20
25.41080880166177
 30
0.0
 10
-26.84202882290398
 20
23.60813074783625
 30
0.0
 10
-26.78082897124471
 20
21.80545269394262
 30
0.0
 10
-26.71702881235613
 20
20.03961130092644
 30
0.0
 10
-26.65322871649468
 20
18.3623480837957
 30
0.0
 10
-26.59202867808436
 20
16.82113080217653
 30
0.0
 10
-26.53082951221136
 20
15.44541727537055
 30
0.0
 10
-26.46702676598446
 20
14.26617929814503
 30
0.0
 10
-26.40323631050516
 20
13.31553315313741
 30
0.0
 10
-26.3420007268124
 20
12.63413700652296
 30
0.0
 10
-26.2890811705456
 20
12.23601386866466
 30
0.0
 10
-26.2551606694169
 20
12.18454204911021
 30
0.0
 10
-26.24230090516047
 20
12.16502832014706
 30
0.0
  0
SPLINE
  5
143
330
1B
100
AcDbEntity
 67
     1
  8
0
  6
Continuous
 62
     7
370
    25
100
AcDbSpline
210
0.0
220
0.0
230
1.0
 70
     8
 71
     3
 72
    28
 73
    24
 74
     0
 42
0.000000001
 43
0.00000001
 40
0.0
 40
0.0
 40
0.0
 40
0.0
 40
0.0283316223817386
 40
0.0791356195411916
 40
0.1299396167006444
 40
0.1813787401680648
 40
0.2328178636354873
 40
0.2836218607949383
 40
0.3344258579543928
 40
0.3858649814218128
 40
0.4373041048892327
 40
0.4881081020486851
 40
0.5389120992081379
 40
0.5903512226755585
 40
0.6417903461429788
 40
0.692594343302432
 40
0.7433983404618868
 40
0.7948374639293073
 40
0.8462765873967276
 40
0.8970805845561788
 40
0.9478845817156333
 40
0.9993237051830532
 40
1.0
 40
1.0
 40
1.0
 40
1.0
 10
-26.82257935757411
 20
13.16540094518937
 30
0.0
 10
-26.83432118033671
 20
13.18144831550056
 30
0.0
 10
-26.8671183285671
 20
13.22627167840127
 30
0.0
 10
-26.9189451728798
 20
13.58231698883828
 30
0.0
 10
-26.98018717441568
 20
14.20041931055955
 30
0.0
 10
-27.04397573064367
 20
15.06568724581746
 30
0.0
 10
-27.10777871055776
 20
16.13968912116043
 30
0.0
 10
-27.16897797457341
 20
17.39356200261032
 30
0.0
 10
-27.23017826255519
 20
18.7989606197425
 30
0.0
 10
-27.29397813211446
 20
20.32904514359291
 30
0.0
 10
-27.35777807583775
 20
21.94052114694881
 30
0.0
 10
-27.41897814407081
 20
23.58617917721783
 30
0.0
 10
-27.48017821504766
 20
25.23237122373104
 30
0.0
 10
-27.54397815043652
 20
26.84546195555036
 30
0.0
 10
-27.60777805050948
 20
28.37816875574612
 30
0.0
 10
-27.66897822612768
 20
29.78724695214676
 30
0.0
 10
-27.73017791009675
 20
31.04526674420699
 30
0.0
 10
-27.79397930358176
 20
32.12570865626852
 30
0.0
 10
-27.8577737713555
 20
32.9924222848317
 30
0.0
 10
-27.91899397627354
 20
33.63325893209498
 30
0.0
 10
-27.98011879486632
 20
33.99807555293465
 30
0.0
 10
-28.02303532943543
 20
34.15055779482731
 30
0.0
 10
-28.04453621154079
 20
34.10699777946871
 30
0.0
 10
-28.0448152256139
 20
34.10643250697195
 30
0.0
  0
SPLINE
  5
144
330
1B
100
AcDbEntity
 67
     1
  8
0
  6
Continuous
 62
     7
370
    25
100
AcDbSpline
210
0.0
220
0.0
230
1.0
 70
     8
 71
     3
 72
    28
 73
    24
 74
     0
 42
0.000000001
 43
0.00000001
 40
0.0
 40
0.0
 40
0.0
 40
0.0
 40
0.0283316223817386
 40
0.0791356195411916
 40
0.1299396167006444
 40
0.1813787401680648
 40
0.2328178636354873
 40
0.2836218607949383
 40
0.3344258579543928
 40
0.3858649814218128
 40
0.4373041048892327
 40
0.4881081020486851
 40
0.5389120992081379
 40
0.5903512226755585
 40
0.6417903461429788
 40
0.692594343302432
 40
0.7433983404618868
 40
0.7948374639293073
 40
0.8462765873967276
 40
0.8970805845561788
 40
0.9478845817156333
 40
0.9993237051830532
 40
1.0
 40
1.0
 40
1.0
 40
1.0
 10
-29.32257935757411
 20
13.16540094518937
 30
0.0
 10
-29.33432118033672
 20
13.18144831550056
 30
0.0
 10
-29.36711832856711
 20
13.22627167840127
 30
0.0
 10
-29.41894517287981
 20
13.58231698883828
 30
0.0
 10
-29.48018717441568
 20
14.20041931055955
 30
0.0
 10
-29.54397573064367
 20
15.06568724581746
 30
0.0
 10
-29.60777871055776
 20
16.13968912116043
 30
0.0
 10
-29.66897797457341
 20
17.39356200261032
 30
0.0
 10
-29.73017826255519
 20
18.7989606197425
 30
0.0
 10
-29.79397813211446
 20
20.32904514359291
 30
0.0
 10
-29.85777807583775
 20
21.94052114694881
 30
0.0
 10
-29.91897814407082
 20
23.58617917721783
 30
0.0
 10
-29.98017821504766
 20
25.23237122373104
 30
0.0
 10
-30.04397815043653
 20
26.84546195555036
 30
0.0
 10
-30.10777805050948
 20
28.37816875574612
 30
0.0
 10
-30.16897822612768
 20
29.78724695214676
 30
0.0
 10
-30.23017791009676
 20
31.04526674420699
 30
0.0
 10
-30.29397930358177
 20
32.12570865626852
 30
0.0
 10
-30.3577737713555
 20
32.9924222848317
 30
0.0
 10
-30.41899397627354
 20
33.63325893209498
 30
0.0
 10
-30.4801187948663
 20
33.99807555293465
 30
0.0
 10
-30.5230353294355
 20
34.15055779482731
 30
0.0
 10
-30.54453621154079
 20
34.10699777946871
 30
0.0
 10
-30.54481522561391
 20
34.10643250697195
 30
0.0
  0
SPLINE
  5
145
330
1B
100
AcDbEntity
 67
     1
  8
0
  6
Continuous
 62
     7
370
    25
100
AcDbSpline
210
0.0
220
0.0
230
1.0
 70
     8
 71
     3
 72
    28
 73
    24
 74
     0
 42
0.000000001
 43
0.00000001
 40
0.0
 40
0.0
 40
0.0
 40
0.0
 40
0.0283316223817407
 40
0.0791356195411936
 40
0.1299396167006463
 40
0.1813787401680666
 40
0.232817863635489
 40
0.2836218607949398
 40
0.3344258579543942
 40
0.3858649814218141
 40
0.4373041048892339
 40
0.4881081020486862
 40
0.5389120992081389
 40
0.5903512226755594
 40
0.6417903461429796
 40
0.6925943433024326
 40
0.7433983404618874
 40
0.7948374639293078
 40
0.846276587396728
 40
0.8970805845561789
 40
0.9478845817156334
 40
0.9993237051830531
 40
1.0
 40
1.0
 40
1.0
 40
1.0
 10
-31.82257935757411
 20
13.16540094518936
 30
0.0
 10
-31.83432118033672
 20
13.18144831550056
 30
0.0
 10
-31.86711832856712
 20
13.22627167840127
 30
0.0
 10
-31.91894517287981
 20
13.58231698883828
 30
0.0
 10
-31.98018717441568
 20
14.20041931055955
 30
0.0
 10
-32.04397573064368
 20
15.06568724581746
 30
0.0
 10
-32.10777871055775
 20
16.13968912116043
 30
0.0
 10
-32.16897797457344
 20
17.39356200261034
 30
0.0
 10
-32.23017826255517
 20
18.79896061974249
 30
0.0
 10
-32.29397813211446
 20
20.32904514359291
 30
0.0
 10
-32.35777807583776
 20
21.9405211469488
 30
0.0
 10
-32.41897814407081
 20
23.58617917721782
 30
0.0
 10
-32.48017821504765
 20
25.23237122373104
 30
0.0
 10
-32.54397815043651
 20
26.84546195555034
 30
0.0
 10
-32.60777805050947
 20
28.37816875574612
 30
0.0
 10
-32.6689782261277
 20
29.78724695214678
 30
0.0
 10
-32.73017791009675
 20
31.04526674420698
 30
0.0
 10
-32.79397930358177
 20
32.12570865626853
 30
0.0
 10
-32.8577737713555
 20
32.9924222848317
 30
0.0
 10
-32.91899397627355
 20
33.633258932095
 30
0.0
 10
-32.98011879486627
 20
33.99807555293462
 30
0.0
 10
-33.02303532943554
 20
34.15055779482737
 30
0.0
 10
-33.0445362115408
 20
34.10699777946871
 30
0.0
 10
-33.04481522561391
 20
34.10643250697194
 30
0.0
  0
SPLINE
  5
146
330
1B
100
AcDbEntity
 67
     1
  8
0
  6
Continuous
 62
     7
370
    25
100
AcDbSpline
210
0.0
220
0.0
230
1.0
 70
     8
 71
     3
 72
    28
 73
    24
 74
     0
 42
0.000000001
 43
0.00000001
 40
0.0
 40
0.0
 40
0.0
 40
0.0
 40
0.0283316223817407
 40
0.0791356195411936
 40
0.1299396167006463
 40
0.1813787401680666
 40
0.232817863635489
 40
0.2836218607949398
 40
0.3344258579543942
 40
0.3858649814218141
 40
0.4373041048892339
 40
0.4881081020486862
 40
0.5389120992081389
 40
0.5903512226755594
 40
0.6417903461429796
 40
0.6925943433024326
 40
0.7433983404618874
 40
0.7948374639293078
 40
0.846276587396728
 40
0.8970805845561789
 40
0.9478845817156334
 40
0.9993237051830531
 40
1.0
 40
1.0
 40
1.0
 40
1.0
 10
-34.32257935757411
 20
13.16540094518936
 30
0.0
 10
-34.33432118033671
 20
13.18144831550055
 30
0.0
 10
-34.36711832856711
 20
13.22627167840126
 30
0.0
 10
-34.4189451728798
 20
13.58231698883827
 30
0.0
 10
-34.48018717441568
 20
14.20041931055955
 30
0.0
 10
-34.54397573064366
 20
15.06568724581746
 30
0.0
 10
-34.60777871055776
 20
16.13968912116043
 30
0.0
 10
-34.66897797457344
 20
17.39356200261034
 30
0.0
 10
-34.73017826255517
 20
18.79896061974249
 30
0.0
 10
-34.79397813211447
 20
20.32904514359291
 30
0.0
 10
-34.85777807583774
 20
21.9405211469488
 30
0.0
 10
-34.91897814407082
 20
23.58617917721782
 30
0.0
 10
-34.98017821504765
 20
25.23237122373104
 30
0.0
 10
-35.04397815043651
 20
26.84546195555034
 30
0.0
 10
-35.10777805050947
 20
28.37816875574612
 30
0.0
 10
-35.16897822612771
 20
29.78724695214678
 30
0.0
 10
-35.23017791009674
 20
31.04526674420698
 30
0.0
 10
-35.29397930358177
 20
32.12570865626853
 30
0.0
 10
-35.35777377135551
 20
32.9924222848317
 30
0.0
 10
-35.41899397627355
 20
33.633258932095
 30
0.0
 10
-35.48011879486631
 20
33.99807555293462
 30
0.0
 10
-35.52303532943545
 20
34.15055779482737
 30
0.0
 10
-35.54453621154079
 20
34.10699777946871
 30
0.0
 10
-35.5448152256139
 20
34.10643250697194
 30
0.0
  0
SPLINE
  5
147
330
1B
100
AcDbEntity
 67
     1
  8
0
  6
Continuous
 62
     7
370
    25
100
AcDbSpline
210
0.0
220
0.0
230
1.0
 70
     8
 71
     3
 72
    28
 73
    24
 74
     0
 42
0.000000001
 43
0.00000001
 40
0.0
 40
0.0
 40
0.0
 40
0.0
 40
0.0283316223817396
 40
0.0791356195411926
 40
0.1299396167006454
 40
0.1813787401680657
 40
0.2328178636354881
 40
0.2836218607949391
 40
0.3344258579543936
 40
0.3858649814218135
 40
0.4373041048892333
 40
0.4881081020486857
 40
0.5389120992081384
 40
0.590351222675559
 40
0.6417903461429793
 40
0.6925943433024323
 40
0.7433983404618871
 40
0.7948374639293075
 40
0.8462765873967278
 40
0.8970805845561789
 40
0.9478845817156334
 40
0.9993237051830532
 40
1.0
 40
1.0
 40
1.0
 40
1.0
 10
-36.82257935757411
 20
13.16540094518936
 30
0.0
 10
-36.8343211803367
 20
13.18144831550055
 30
0.0
 10
-36.86711832856709
 20
13.22627167840126
 30
0.0
 10
-36.91894517287982
 20
13.58231698883828
 30
0.0
 10
-36.98018717441568
 20
14.20041931055955
 30
0.0
 10
-37.04397573064368
 20
15.06568724581746
 30
0.0
 10
-37.10777871055777
 20
16.13968912116044
 30
0.0
 10
-37.16897797457342
 20
17.39356200261033
 30
0.0
 10
-37.23017826255518
 20
18.79896061974249
 30
0.0
 10
-37.29397813211446
 20
20.32904514359291
 30
0.0
 10
-37.35777807583775
 20
21.9405211469488
 30
0.0
 10
-37.41897814407081
 20
23.58617917721782
 30
0.0
 10
-37.48017821504768
 20
25.23237122373104
 30
0.0
 10
-37.5439781504365
 20
26.84546195555034
 30
0.0
 10
-37.60777805050948
 20
28.37816875574611
 30
0.0
 10
-37.66897822612771
 20
29.78724695214678
 30
0.0
 10
-37.73017791009674
 20
31.04526674420698
 30
0.0
 10
-37.79397930358177
 20
32.12570865626853
 30
0.0
 10
-37.8577737713555
 20
32.9924222848317
 30
0.0
 10
-37.91899397627357
 20
33.63325893209498
 30
0.0
 10
-37.98011879486625
 20
33.99807555293469
 30
0.0
 10
-38.02303532943559
 20
34.15055779482723
 30
0.0
 10
-38.04453621154079
 20
34.10699777946871
 30
0.0
 10
-38.0448152256139
 20
34.10643250697195
 30
0.0
  0
SPLINE
  5
148
330
1B
100
AcDbEntity
 67
     1
  8
0
  6
Continuous
 62
     7
370
    25
100
AcDbSpline
210
0.0
220
0.0
230
1.0
 70
     8
 71
     3
 72
    28
 73
    24
 74
     0
 42
0.000000001
 43
0.00000001
 40
0.0
 40
0.0
 40
0.0
 40
0.0
 40
0.0283316223817396
 40
0.0791356195411927
 40
0.1299396167006454
 40
0.1813787401680658
 40
0.2328178636354883
 40
0.2836218607949393
 40
0.3344258579543938
 40
0.3858649814218137
 40
0.4373041048892336
 40
0.488108102048686
 40
0.5389120992081389
 40
0.5903512226755594
 40
0.6417903461429797
 40
0.6925943433024329
 40
0.7433983404618877
 40
0.7948374639293081
 40
0.8462765873967284
 40
0.8970805845561795
 40
0.947884581715634
 40
0.9993237051830538
 40
1.0
 40
1.0
 40
1.0
 40
1.0
 10
-39.32257935757411
 20
13.16540094518936
 30
0.0
 10
-39.33432118033671
 20
13.18144831550055
 30
0.0
 10
-39.3671183285671
 20
13.22627167840126
 30
0.0
 10
-39.41894517287979
 20
13.58231698883828
 30
0.0
 10
-39.48018717441569
 20
14.20041931055955
 30
0.0
 10
-39.54397573064367
 20
15.06568724581746
 30
0.0
 10
-39.60777871055778
 20
16.13968912116044
 30
0.0
 10
-39.6689779745734
 20
17.39356200261032
 30
0.0
 10
-39.7301782625552
 20
18.79896061974251
 30
0.0
 10
-39.79397813211446
 20
20.3290451435929
 30
0.0
 10
-39.85777807583774
 20
21.94052114694882
 30
0.0
 10
-39.91897814407081
 20
23.58617917721782
 30
0.0
 10
-39.98017821504767
 20
25.23237122373104
 30
0.0
 10
-40.04397815043651
 20
26.84546195555035
 30
0.0
 10
-40.10777805050946
 20
28.37816875574611
 30
0.0
 10
-40.16897822612769
 20
29.78724695214677
 30
0.0
 10
-40.23017791009675
 20
31.04526674420698
 30
0.0
 10
-40.29397930358176
 20
32.12570865626853
 30
0.0
 10
-40.35777377135549
 20
32.99242228483168
 30
0.0
 10
-40.41899397627356
 20
33.63325893209505
 30
0.0
 10
-40.48011879486622
 20
33.99807555293442
 30
0.0
 10
-40.52303532943565
 20
34.15055779482781
 30
0.0
 10
-40.54453621154079
 20
34.1069977794687
 30
0.0
 10
-40.5448152256139
 20
34.10643250697194
 30
0.0
  0
SPLINE
  5
149
330
1B
100
AcDbEntity
 67
     1
  8
0
  6
Continuous
 62
     7
370
    25
100
AcDbSpline
210
0.0
220
0.0
230
1.0
 70
     8
 71
     3
 72
    28
 73
    24
 74
     0
 42
0.000000001
 43
0.00000001
 40
0.0
 40
0.0
 40
0.0
 40
0.0
 40
0.0283316223817386
 40
0.0791356195411917
 40
0.1299396167006445
 40
0.1813787401680649
 40
0.2328178636354875
 40
0.2836218607949385
 40
0.3344258579543931
 40
0.3858649814218131
 40
0.437304104889233
 40
0.4881081020486855
 40
0.5389120992081384
 40
0.590351222675559
 40
0.6417903461429794
 40
0.6925943433024325
 40
0.7433983404618875
 40
0.794837463929308
 40
0.8462765873967283
 40
0.8970805845561793
 40
0.947884581715634
 40
0.9993237051830539
 40
1.0
 40
1.0
 40
1.0
 40
1.0
 10
-41.82257935757411
 20
13.16540094518937
 30
0.0
 10
-41.8343211803367
 20
13.18144831550056
 30
0.0
 10
-41.86711832856711
 20
13.22627167840127
 30
0.0
 10
-41.91894517287981
 20
13.58231698883827
 30
0.0
 10
-41.98018717441568
 20
14.20041931055955
 30
0.0
 10
-42.04397573064366
 20
15.06568724581746
 30
0.0
 10
-42.10777871055777
 20
16.13968912116043
 30
0.0
 10
-42.16897797457341
 20
17.39356200261032
 30
0.0
 10
-42.2301782625552
 20
18.7989606197425
 30
0.0
 10
-42.29397813211446
 20
20.32904514359291
 30
0.0
 10
-42.35777807583776
 20
21.94052114694882
 30
0.0
 10
-42.4189781440708
 20
23.58617917721782
 30
0.0
 10
-42.48017821504769
 20
25.23237122373105
 30
0.0
 10
-42.54397815043652
 20
26.84546195555035
 30
0.0
 10
-42.60777805050947
 20
28.37816875574611
 30
0.0
 10
-42.66897822612771
 20
29.78724695214678
 30
0.0
 10
-42.73017791009675
 20
31.04526674420698
 30
0.0
 10
-42.79397930358176
 20
32.12570865626853
 30
0.0
 10
-42.85777377135551
 20
32.99242228483169
 30
0.0
 10
-42.91899397627353
 20
33.63325893209502
 30
0.0
 10
-42.9801187948663
 20
33.99807555293449
 30
0.0
 10
-43.02303532943549
 20
34.15055779482768
 30
0.0
 10
-43.04453621154079
 20
34.1069977794687
 30
0.0
 10
-43.0448152256139
 20
34.10643250697194
 30
0.0
  0
SPLINE
  5
14A
330
1B
100
AcDbEntity
 67
     1
  8
0
  6
Continuous
 62
     7
370
    25
100
AcDbSpline
210
0.0
220
0.0
230
1.0
 70
     8
 71
     3
 72
    28
 73
    24
 74
     0
 42
0.000000001
 43
0.00000001
 40
0.0
 40
0.0
 40
0.0
 40
0.0
 40
0.028331596798971
 40
0.0791355480836476
 40
0.1299394993683241
 40
0.1813785763874644
 40
0.2328176534066069
 40
0.2836216046912815
 40
0.3344255559759597
 40
0.3858646329950996
 40
0.4373037100142395
 40
0.4881076612989155
 40
0.5389116125835919
 40
0.5903506896027324
 40
0.6417897666218727
 40
0.6925937179065494
 40
0.7433976691912281
 40
0.7948367462103685
 40
0.8462758232295088
 40
0.8970797745141834
 40
0.9478837257988616
 40
0.9993228028180015
 40
1.0
 40
1.0
 40
1.0
 40
1.0
 10
-44.32257935757411
 20
13.16540094518937
 30
0.0
 10
-44.33432118033672
 20
13.18144831550059
 30
0.0
 10
-44.36711832856712
 20
13.22627167840139
 30
0.0
 10
-44.4189451728798
 20
13.58231698883735
 30
0.0
 10
-44.4801871744157
 20
14.20041931056298
 30
0.0
 10
-44.54397573064363
 20
15.0656872458045
 30
0.0
 10
-44.60777871055788
 20
16.13968912120852
 30
0.0
 10
-44.66897797457293
 20
17.39356200243333
 30
0.0
 10
-44.73017826255698
 20
18.7989606204068
 30
0.0
 10
-44.79397813210773
 20
20.32904514107909
 30
0.0
 10
-44.85777807586265
 20
21.94052115627773
 30
0.0
 10
-44.91897814397917
 20
23.58617914288104
 30
0.0
 10
-44.98017821539163
 20
25.23237135260777
 30
0.0
 10
-45.04397814913492
 20
26.84546146786255
 30
0.0
 10
-45.10777805533968
 20
28.37817056557744
 30
0.0
 10
-45.16897820834929
 20
29.78724029073388
 30
0.0
 10
-45.23017797682461
 20
31.04529174658255
 30
0.0
 10
-45.2939790510741
 20
32.12561404373836
 30
0.0
 10
-45.35777470842275
 20
32.99277339618758
 30
0.0
 10
-45.41899052722736
 20
33.6319666029761
 30
0.0
 10
-45.48013174022037
 20
34.00292607016629
 30
0.0
 10
-45.52300717546426
 20
34.1398689881594
 30
0.0
 10
-45.54453770912464
 20
34.10727823105856
 30
0.0
 10
-45.54481747618291
 20
34.10685474781448
 30
0.0
  0
SPLINE
  5
14B
330
1B
100
AcDbEntity
 67
     1
  8
0
  6
Continuous
 62
     7
370
    25
100
AcDbSpline
210
0.0
220
0.0
230
1.0
 70
     8
 71
     3
 72
    28
 73
    24
 74
     0
 42
0.000000001
 43
0.00000001
 40
0.0
 40
0.0
 40
0.0
 40
0.0
 40
0.0285044279289229
 40
0.0792993898941403
 40
0.1300943518593577
 40
0.1815243271790371
 40
0.2329543024987168
 40
0.2837492644639343
 40
0.3345442264291516
 40
0.3859742017488311
 40
0.4374041770685106
 40
0.4881991390337282
 40
0.5389941009989458
 40
0.5904240763186255
 40
0.6418540516383051
 40
0.6926490136035225
 40
0.74344397556874
 40
0.7948739508884195
 40
0.8463039262080991
 40
0.8970988881733164
 40
0.947893850138534
 40
0.9993238254582132
 40
1.0
 40
1.0
 40
1.0
 40
1.0
 10
-44.36169845325699
 20
34.05130122698409
 30
0.0
 10
-44.34988270917586
 20
34.03518128083287
 30
0.0
 10
-44.3170112795469
 20
33.99033555026406
 30
0.0
 10
-44.2651121388598
 20
33.63399108803878
 30
0.0
 10
-44.2038705621551
 20
33.01582952949441
 30
0.0
 10
-44.14008189070698
 20
32.15057766008538
 30
0.0
 10
-44.07627894171353
 20
31.07657147329486
 30
0.0
 10
-44.01507966951272
 20
29.8226997331469
 30
0.0
 10
-43.95387938372077
 20
28.41730081067364
 30
0.0
 10
-43.8900795135676
 20
26.88721636963577
 30
0.0
 10
-43.82627957000366
 20
25.27574034405606
 30
0.0
 10
-43.76507950172845
 20
23.63008231966994
 30
0.0
 10
-43.70387943076285
 20
21.98389027158283
 30
0.0
 10
-43.64007949537095
 20
20.37079954019048
 30
0.0
 10
-43.57627959529881
 20
18.8380927398803
 30
0.0
 10
-43.51507941968037
 20
17.4290145435102
 30
0.0
 10
-43.4538797357114
 20
16.17099475144216
 30
0.0
 10
-43.39007834222633
 20
15.09055283938308
 30
0.0
 10
-43.32628387445264
 20
14.22383921081965
 30
0.0
 10
-43.2650636695345
 20
13.58300256355684
 30
0.0
 10
-43.20393885094205
 20
13.21818594271764
 30
0.0
 10
-43.16102231637216
 20
13.06570370082501
 30
0.0
 10
-43.13952143426739
 20
13.10926371618375
 30
0.0
 10
-43.13924242019431
 20
13.10982898868044
 30
0.0
  0
SPLINE
  5
14C
330
1B
100
AcDbEntity
 67
     1
  8
0
  6
Continuous
 62
     7
370
    25
100
AcDbSpline
210
0.0
220
0.0
230
1.0
 70
     8
 71
     3
 72
    28
 73
    24
 74
     0
 42
0.000000001
 43
0.00000001
 40
0.0
 40
0.0
 40
0.0
 40
0.0
 40
0.0285044279289231
 40
0.0792993898941405
 40
0.1300943518593579
 40
0.1815243271790372
 40
0.2329543024987168
 40
0.2837492644639343
 40
0.3345442264291517
 40
0.3859742017488311
 40
0.4374041770685107
 40
0.4881991390337282
 40
0.5389941009989458
 40
0.5904240763186254
 40
0.641854051638305
 40
0.6926490136035223
 40
0.7434439755687398
 40
0.7948739508884193
 40
0.8463039262080989
 40
0.8970988881733162
 40
0.9478938501385337
 40
0.9993238254582127
 40
1.0
 40
1.0
 40
1.0
 40
1.0
 10
-41.86169845325699
 20
34.0513012269841
 30
0.0
 10
-41.84988270917586
 20
34.03518128083287
 30
0.0
 10
-41.81701127954689
 20
33.99033555026406
 30
0.0
 10
-41.76511213885982
 20
33.63399108803879
 30
0.0
 10
-41.70387056215511
 20
33.01582952949443
 30
0.0
 10
-41.64008189070699
 20
32.15057766008539
 30
0.0
 10
-41.5762789417135
 20
31.07657147329485
 30
0.0
 10
-41.51507966951273
 20
29.8226997331469
 30
0.0
 10
-41.45387938372075
 20
28.41730081067364
 30
0.0
 10
-41.39007951356759
 20
26.88721636963576
 30
0.0
 10
-41.32627957000366
 20
25.27574034405606
 30
0.0
 10
-41.26507950172843
 20
23.63008231966993
 30
0.0
 10
-41.20387943076285
 20
21.98389027158284
 30
0.0
 10
-41.14007949537093
 20
20.37079954019048
 30
0.0
 10
-41.07627959529881
 20
18.83809273988031
 30
0.0
 10
-41.01507941968038
 20
17.4290145435102
 30
0.0
 10
-40.9538797357114
 20
16.17099475144216
 30
0.0
 10
-40.89007834222633
 20
15.09055283938309
 30
0.0
 10
-40.82628387445261
 20
14.22383921081965
 30
0.0
 10
-40.76506366953462
 20
13.58300256355685
 30
0.0
 10
-40.70393885094162
 20
13.21818594271761
 30
0.0
 10
-40.66102231637308
 20
13.06570370082506
 30
0.0
 10
-40.63952143426739
 20
13.10926371618375
 30
0.0
 10
-40.63924242019431
 20
13.10982898868045
 30
0.0
  0
SPLINE
  5
14D
330
1B
100
AcDbEntity
 67
     1
  8
0
  6
Continuous
 62
     7
370
    25
100
AcDbSpline
210
0.0
220
0.0
230
1.0
 70
     8
 71
     3
 72
    28
 73
    24
 74
     0
 42
0.000000001
 43
0.00000001
 40
0.0
 40
0.0
 40
0.0
 40
0.0
 40
0.0285044279289233
 40
0.0792993898941408
 40
0.1300943518593582
 40
0.1815243271790375
 40
0.2329543024987172
 40
0.2837492644639347
 40
0.334544226429152
 40
0.3859742017488315
 40
0.4374041770685111
 40
0.4881991390337286
 40
0.5389941009989463
 40
0.5904240763186258
 40
0.6418540516383056
 40
0.6926490136035228
 40
0.7434439755687403
 40
0.7948739508884198
 40
0.8463039262080995
 40
0.8970988881733167
 40
0.9478938501385343
 40
0.9993238254582134
 40
1.0
 40
1.0
 40
1.0
 40
1.0
 10
-39.361698453257
 20
34.0513012269841
 30
0.0
 10
-39.34988270917586
 20
34.03518128083288
 30
0.0
 10
-39.31701127954691
 20
33.99033555026408
 30
0.0
 10
-39.26511213885981
 20
33.63399108803878
 30
0.0
 10
-39.2038705621551
 20
33.01582952949441
 30
0.0
 10
-39.140081890707
 20
32.1505776600854
 30
0.0
 10
-39.07627894171349
 20
31.07657147329484
 30
0.0
 10
-39.01507966951274
 20
29.82269973314691
 30
0.0
 10
-38.95387938372075
 20
28.41730081067363
 30
0.0
 10
-38.89007951356761
 20
26.88721636963576
 30
0.0
 10
-38.82627957000368
 20
25.27574034405607
 30
0.0
 10
-38.76507950172842
 20
23.63008231966993
 30
0.0
 10
-38.70387943076285
 20
21.98389027158284
 30
0.0
 10
-38.64007949537096
 20
20.37079954019048
 30
0.0
 10
-38.57627959529881
 20
18.83809273988031
 30
0.0
 10
-38.51507941968039
 20
17.42901454351019
 30
0.0
 10
-38.45387973571139
 20
16.17099475144216
 30
0.0
 10
-38.39007834222634
 20
15.09055283938308
 30
0.0
 10
-38.32628387445263
 20
14.22383921081965
 30
0.0
 10
-38.26506366953451
 20
13.58300256355683
 30
0.0
 10
-38.20393885094203
 20
13.21818594271769
 30
0.0
 10
-38.16102231637218
 20
13.06570370082491
 30
0.0
 10
-38.1395214342674
 20
13.10926371618375
 30
0.0
 10
-38.13924242019431
 20
13.10982898868044
 30
0.0
  0
SPLINE
  5
14E
330
1B
100
AcDbEntity
 67
     1
  8
0
  6
Continuous
 62
     7
370
    25
100
AcDbSpline
210
0.0
220
0.0
230
1.0
 70
     8
 71
     3
 72
    28
 73
    24
 74
     0
 42
0.000000001
 43
0.00000001
 40
0.0
 40
0.0
 40
0.0
 40
0.0
 40
0.0285044279289233
 40
0.0792993898941407
 40
0.130094351859358
 40
0.1815243271790373
 40
0.232954302498717
 40
0.2837492644639344
 40
0.3345442264291517
 40
0.3859742017488311
 40
0.4374041770685106
 40
0.4881991390337281
 40
0.5389941009989457
 40
0.5904240763186253
 40
0.6418540516383049
 40
0.6926490136035222
 40
0.7434439755687396
 40
0.794873950888419
 40
0.8463039262080986
 40
0.8970988881733158
 40
0.9478938501385333
 40
0.9993238254582124
 40
1.0
 40
1.0
 40
1.0
 40
1.0
 10
-36.861698453257
 20
34.0513012269841
 30
0.0
 10
-36.84988270917587
 20
34.03518128083288
 30
0.0
 10
-36.8170112795469
 20
33.99033555026406
 30
0.0
 10
-36.7651121388598
 20
33.63399108803878
 30
0.0
 10
-36.70387056215511
 20
33.01582952949442
 30
0.0
 10
-36.64008189070699
 20
32.15057766008538
 30
0.0
 10
-36.5762789417135
 20
31.07657147329485
 30
0.0
 10
-36.51507966951273
 20
29.8226997331469
 30
0.0
 10
-36.45387938372075
 20
28.41730081067364
 30
0.0
 10
-36.3900795135676
 20
26.88721636963576
 30
0.0
 10
-36.32627957000368
 20
25.27574034405607
 30
0.0
 10
-36.26507950172843
 20
23.63008231966993
 30
0.0
 10
-36.20387943076287
 20
21.98389027158284
 30
0.0
 10
-36.14007949537094
 20
20.37079954019047
 30
0.0
 10
-36.07627959529882
 20
18.83809273988031
 30
0.0
 10
-36.01507941968038
 20
17.42901454351019
 30
0.0
 10
-35.95387973571138
 20
16.17099475144216
 30
0.0
 10
-35.89007834222635
 20
15.09055283938309
 30
0.0
 10
-35.82628387445259
 20
14.22383921081965
 30
0.0
 10
-35.76506366953464
 20
13.58300256355686
 30
0.0
 10
-35.70393885094154
 20
13.21818594271758
 30
0.0
 10
-35.66102231637326
 20
13.06570370082513
 30
0.0
 10
-35.63952143426739
 20
13.10926371618375
 30
0.0
 10
-35.63924242019431
 20
13.10982898868045
 30
0.0
  0
SPLINE
  5
14F
330
1B
100
AcDbEntity
 67
     1
  8
0
  6
Continuous
 62
     7
370
    25
100
AcDbSpline
210
0.0
220
0.0
230
1.0
 70
     8
 71
     3
 72
    28
 73
    24
 74
     0
 42
0.000000001
 43
0.00000001
 40
0.0
 40
0.0
 40
0.0
 40
0.0
 40
0.0285044279289233
 40
0.0792993898941406
 40
0.1300943518593579
 40
0.1815243271790371
 40
0.2329543024987167
 40
0.2837492644639341
 40
0.3345442264291513
 40
0.3859742017488307
 40
0.4374041770685101
 40
0.4881991390337276
 40
0.5389941009989451
 40
0.5904240763186246
 40
0.6418540516383041
 40
0.6926490136035213
 40
0.7434439755687388
 40
0.7948739508884181
 40
0.8463039262080976
 40
0.8970988881733148
 40
0.9478938501385322
 40
0.9993238254582113
 40
1.0
 40
1.0
 40
1.0
 40
1.0
 10
-34.361698453257
 20
34.0513012269841
 30
0.0
 10
-34.34988270917586
 20
34.03518128083287
 30
0.0
 10
-34.31701127954689
 20
33.99033555026406
 30
0.0
 10
-34.26511213885981
 20
33.63399108803878
 30
0.0
 10
-34.20387056215511
 20
33.01582952949443
 30
0.0
 10
-34.14008189070699
 20
32.15057766008539
 30
0.0
 10
-34.0762789417135
 20
31.07657147329484
 30
0.0
 10
-34.01507966951274
 20
29.82269973314692
 30
0.0
 10
-33.95387938372075
 20
28.41730081067363
 30
0.0
 10
-33.8900795135676
 20
26.88721636963577
 30
0.0
 10
-33.82627957000367
 20
25.27574034405606
 30
0.0
 10
-33.76507950172843
 20
23.63008231966993
 30
0.0
 10
-33.70387943076286
 20
21.98389027158283
 30
0.0
 10
-33.64007949537093
 20
20.37079954019048
 30
0.0
 10
-33.57627959529881
 20
18.83809273988031
 30
0.0
 10
-33.51507941968038
 20
17.42901454351019
 30
0.0
 10
-33.45387973571138
 20
16.17099475144215
 30
0.0
 10
-33.39007834222632
 20
15.09055283938308
 30
0.0
 10
-33.32628387445263
 20
14.22383921081965
 30
0.0
 10
-33.26506366953453
 20
13.58300256355684
 30
0.0
 10
-33.20393885094191
 20
13.21818594271766
 30
0.0
 10
-33.16102231637244
 20
13.06570370082495
 30
0.0
 10
-33.13952143426739
 20
13.10926371618376
 30
0.0
 10
-33.13924242019431
 20
13.10982898868045
 30
0.0
  0
SPLINE
  5
150
330
1B
100
AcDbEntity
 67
     1
  8
0
  6
Continuous
 62
     7
370
    25
100
AcDbSpline
210
0.0
220
0.0
230
1.0
 70
     8
 71
     3
 72
    28
 73
    24
 74
     0
 42
0.000000001
 43
0.00000001
 40
0.0
 40
0.0
 40
0.0
 40
0.0
 40
0.0285044279289242
 40
0.0792993898941415
 40
0.1300943518593587
 40
0.1815243271790379
 40
0.2329543024987174
 40
0.2837492644639347
 40
0.3345442264291519
 40
0.3859742017488312
 40
0.4374041770685106
 40
0.488199139033728
 40
0.5389941009989455
 40
0.5904240763186249
 40
0.6418540516383044
 40
0.6926490136035216
 40
0.743443975568739
 40
0.7948739508884182
 40
0.8463039262080977
 40
0.8970988881733148
 40
0.9478938501385322
 40
0.9993238254582113
 40
1.0
 40
1.0
 40
1.0
 40
1.0
 10
-31.861698453257
 20
34.0513012269841
 30
0.0
 10
-31.84988270917586
 20
34.03518128083287
 30
0.0
 10
-31.81701127954689
 20
33.99033555026406
 30
0.0
 10
-31.76511213885982
 20
33.63399108803878
 30
0.0
 10
-31.70387056215512
 20
33.01582952949443
 30
0.0
 10
-31.64008189070699
 20
32.15057766008539
 30
0.0
 10
-31.57627894171349
 20
31.07657147329484
 30
0.0
 10
-31.51507966951273
 20
29.8226997331469
 30
0.0
 10
-31.45387938372075
 20
28.41730081067364
 30
0.0
 10
-31.39007951356759
 20
26.88721636963577
 30
0.0
 10
-31.32627957000368
 20
25.27574034405606
 30
0.0
 10
-31.26507950172844
 20
23.63008231966993
 30
0.0
 10
-31.20387943076286
 20
21.98389027158284
 30
0.0
 10
-31.14007949537095
 20
20.37079954019048
 30
0.0
 10
-31.07627959529881
 20
18.83809273988031
 30
0.0
 10
-31.01507941968038
 20
17.42901454351019
 30
0.0
 10
-30.95387973571139
 20
16.17099475144216
 30
0.0
 10
-30.89007834222634
 20
15.09055283938308
 30
0.0
 10
-30.82628387445262
 20
14.22383921081965
 30
0.0
 10
-30.76506366953453
 20
13.58300256355683
 30
0.0
 10
-30.70393885094188
 20
13.21818594271766
 30
0.0
 10
-30.66102231637252
 20
13.06570370082495
 30
0.0
 10
-30.63952143426739
 20
13.10926371618376
 30
0.0
 10
-30.63924242019431
 20
13.10982898868045
 30
0.0
  0
SPLINE
  5
151
330
1B
100
AcDbEntity
 67
     1
  8
0
  6
Continuous
 62
     7
370
    25
100
AcDbSpline
210
0.0
220
0.0
230
1.0
 70
     8
 71
     3
 72
    28
 73
    24
 74
     0
 42
0.000000001
 43
0.00000001
 40
0.0
 40
0.0
 40
0.0
 40
0.0
 40
0.0285044279289243
 40
0.0792993898941416
 40
0.130094351859359
 40
0.1815243271790383
 40
0.2329543024987179
 40
0.2837492644639354
 40
0.3345442264291527
 40
0.3859742017488321
 40
0.4374041770685116
 40
0.4881991390337291
 40
0.5389941009989467
 40
0.5904240763186263
 40
0.6418540516383058
 40
0.692649013603523
 40
0.7434439755687405
 40
0.79487395088842
 40
0.8463039262080996
 40
0.8970988881733168
 40
0.9478938501385343
 40
0.9993238254582135
 40
1.0
 40
1.0
 40
1.0
 40
1.0
 10
-29.361698453257
 20
34.0513012269841
 30
0.0
 10
-29.34988270917587
 20
34.03518128083288
 30
0.0
 10
-29.3170112795469
 20
33.99033555026407
 30
0.0
 10
-29.26511213885981
 20
33.63399108803877
 30
0.0
 10
-29.20387056215512
 20
33.01582952949444
 30
0.0
 10
-29.14008189070698
 20
32.15057766008537
 30
0.0
 10
-29.0762789417135
 20
31.07657147329484
 30
0.0
 10
-29.01507966951273
 20
29.82269973314691
 30
0.0
 10
-28.95387938372075
 20
28.41730081067363
 30
0.0
 10
-28.8900795135676
 20
26.88721636963576
 30
0.0
 10
-28.82627957000367
 20
25.27574034405607
 30
0.0
 10
-28.76507950172844
 20
23.63008231966993
 30
0.0
 10
-28.70387943076286
 20
21.98389027158284
 30
0.0
 10
-28.64007949537094
 20
20.37079954019048
 30
0.0
 10
-28.57627959529881
 20
18.83809273988031
 30
0.0
 10
-28.51507941968038
 20
17.4290145435102
 30
0.0
 10
-28.45387973571139
 20
16.17099475144216
 30
0.0
 10
-28.39007834222634
 20
15.09055283938308
 30
0.0
 10
-28.32628387445262
 20
14.22383921081965
 30
0.0
 10
-28.26506366953453
 20
13.58300256355684
 30
0.0
 10
-28.20393885094197
 20
13.21818594271767
 30
0.0
 10
-28.1610223163723
 20
13.06570370082493
 30
0.0
 10
-28.1395214342674
 20
13.10926371618375
 30
0.0
 10
-28.13924242019431
 20
13.10982898868044
 30
0.0
  0
SPLINE
  5
152
330
1B
100
AcDbEntity
 67
     1
  8
0
  6
Continuous
 62
     7
370
    25
100
AcDbSpline
210
0.0
220
0.0
230
1.0
 70
     8
 71
     3
 72
    28
 73
    24
 74
     0
 42
0.000000001
 43
0.00000001
 40
0.0
 40
0.0
 40
0.0
 40
0.0
 40
0.0285044279289243
 40
0.0792993898941416
 40
0.130094351859359
 40
0.1815243271790383
 40
0.2329543024987179
 40
0.2837492644639354
 40
0.3345442264291527
 40
0.3859742017488321
 40
0.4374041770685116
 40
0.4881991390337291
 40
0.5389941009989467
 40
0.5904240763186263
 40
0.6418540516383058
 40
0.692649013603523
 40
0.7434439755687405
 40
0.79487395088842
 40
0.8463039262080996
 40
0.8970988881733168
 40
0.9478938501385343
 40
0.9993238254582135
 40
1.0
 40
1.0
 40
1.0
 40
1.0
 10
-26.861698453257
 20
34.0513012269841
 30
0.0
 10
-26.84988270917587
 20
34.03518128083288
 30
0.0
 10
-26.8170112795469
 20
33.99033555026407
 30
0.0
 10
-26.76511213885981
 20
33.63399108803877
 30
0.0
 10
-26.70387056215512
 20
33.01582952949444
 30
0.0
 10
-26.64008189070699
 20
32.15057766008537
 30
0.0
 10
-26.57627894171349
 20
31.07657147329484
 30
0.0
 10
-26.51507966951273
 20
29.82269973314691
 30
0.0
 10
-26.45387938372075
 20
28.41730081067363
 30
0.0
 10
-26.39007951356759
 20
26.88721636963576
 30
0.0
 10
-26.32627957000367
 20
25.27574034405607
 30
0.0
 10
-26.26507950172843
 20
23.63008231966993
 30
0.0
 10
-26.20387943076285
 20
21.98389027158284
 30
0.0
 10
-26.14007949537094
 20
20.37079954019048
 30
0.0
 10
-26.07627959529881
 20
18.83809273988031
 30
0.0
 10
-26.01507941968038
 20
17.4290145435102
 30
0.0
 10
-25.95387973571138
 20
16.17099475144216
 30
0.0
 10
-25.89007834222634
 20
15.09055283938308
 30
0.0
 10
-25.82628387445262
 20
14.22383921081965
 30
0.0
 10
-25.76506366953455
 20
13.58300256355684
 30
0.0
 10
-25.7039388509419
 20
13.21818594271767
 30
0.0
 10
-25.66102231637247
 20
13.06570370082493
 30
0.0
 10
-25.63952143426739
 20
13.10926371618375
 30
0.0
 10
-25.63924242019431
 20
13.10982898868044
 30
0.0
  0
LINE
  5
159
330
1B
100
AcDbEntity
 67
     1
  8
0
  6
Continuous
 62
     7
370
    25
100
AcDbLine
 10
-25.5920288229
 20
-1.3918692522
 30
0.0
 11
-20.5920288229
 21
-1.3918692522
 31
0.0
  0
LINE
  5
15A
330
1B
100
AcDbEntity
 67
     1
  8
0
  6
Continuous
 62
     7
370
    25
100
AcDbLine
 10
-20.5920288229
 20
48.6081307478
 30
0.0
 11
-25.5920288229
 21
48.6081307478
 31
0.0
  0
LINE
  5
15B
330
1B
100
AcDbEntity
 67
     1
  8
0
  6
Continuous
 62
     7
370
    25
100
AcDbLine
 10
11.1579711771
 20
7.8581307478
 30
0.0
 11
24.9624993706
 21
7.8581307478
 31
0.0
  0
LINE
  5
15C
330
1B
100
AcDbEntity
 67
     1
  8
0
  6
Continuous
 62
     7
370
    25
100
AcDbLine
 10
-20.5920288229
 20
7.8581307478
 30
0.0
 11
-9.337725784
 21
7.8581307478
 31
0.0
  0
LINE
  5
15D
330
1B
100
AcDbEntity
 67
     1
  8
0
  6
Continuous
 62
     7
370
    25
100
AcDbLine
 10
24.4101654115
 20
39.3581307478
 30
0.0
 11
-20.5920288229
 21
39.3581307478
 31
0.0
  0
LINE
  5
15E
330
1B
100
AcDbEntity
 67
     1
  8
0
  6
Continuous
 62
     7
370
    25
100
AcDbLine
 10
-45.5944211537
 20
34.0457146559
 30
0.0
 11
-45.862776626
 21
33.5824160398
 31
0.0
  0
LINE
  5
15F
330
1B
100
AcDbEntity
 67
     1
  8
0
  6
Continuous
 62
     7
370
    25
100
AcDbLine
 10
-9.3420288229
 20
-5.9696551797
 30
0.0
 11
-9.3420288229
 21
-6.6418692522
 31
0.0
  0
LINE
  5
160
330
1B
100
AcDbEntity
 67
     1
  8
0
  6
Continuous
 62
     7
370
    25
100
AcDbLine
 10
-9.3420288229
 20
-3.4696551797
 30
0.0
 11
-9.3420288229
 21
-4.8013614074
 31
0.0
  0
LINE
  5
161
330
1B
100
AcDbEntity
 67
     1
  8
0
  6
Continuous
 62
     7
370
    25
100
AcDbLine
 10
-9.3420288229
 20
-0.9696551797
 30
0.0
 11
-9.3420288229
 21
-2.3013614074
 31
0.0
  0
LINE
  5
162
330
1B
100
AcDbEntity
 67
     1
  8
0
  6
Continuous
 62
     7
370
    25
100
AcDbLine
 10
-9.3420288229
 20
1.5303448203
 30
0.0
 11
-9.3420288229
 21
0.1986385926
 31
0.0
  0
LINE
  5
163
330
1B
100
AcDbEntity
 67
     1
  8
0
  6
Continuous
 62
     7
370
    25
100
AcDbLine
 10
-9.3420288229
 20
4.0303448203
 30
0.0
 11
-9.3420288229
 21
2.6986385926
 31
0.0
  0
LINE
  5
164
330
1B
100
AcDbEntity
 67
     1
  8
0
  6
Continuous
 62
     7
370
    25
100
AcDbLine
 10
-9.3420288229
 20
7.8609157018
 30
0.0
 11
-9.3420288229
 21
4.6081307478
 31
0.0
  0
LINE
  5
165
330
1B
100
AcDbEntity
 67
     1
  8
0
  6
Continuous
 62
     7
370
    25
100
AcDbLine
 10
11.1579711771
 20
3.9359166754
 30
0.0
 11
11.1579711771
 21
7.8581307478
 31
0.0
  0
LINE
  5
166
330
1B
100
AcDbEntity
 67
     1
  8
0
  6
Continuous
 62
     7
370
    25
100
AcDbLine
 10
11.1579711771
 20
1.4359166754
 30
0.0
 11
11.1579711771
 21
2.7802734512
 31
0.0
  0
LINE
  5
167
330
1B
100
AcDbEntity
 67
     1
  8
0
  6
Continuous
 62
     7
370
    25
100
AcDbLine
 10
11.1579711771
 20
-1.0640833246
 30
0.0
 11
11.1579711771
 21
0.2802734512
 31
0.0
  0
LINE
  5
168
330
1B
100
AcDbEntity
 67
     1
  8
0
  6
Continuous
 62
     7
370
    25
100
AcDbLine
 10
11.1579711771
 20
-3.5640833246
 30
0.0
 11
11.1579711771
 21
-2.2197265488
 31
0.0
  0
LINE
  5
169
330
1B
100
AcDbEntity
 67
     1
  8
0
  6
Continuous
 62
     7
370
    25
100
AcDbLine
 10
11.1579711771
 20
-6.0640833246
 30
0.0
 11
11.1579711771
 21
-4.7197265488
 31
0.0
  0
LINE
  5
16A
330
1B
100
AcDbEntity
 67
     1
  8
0
  6
Continuous
 62
     7
370
    25
100
AcDbLine
 10
-45.5448174762
 20
34.1081307478
 30
0.0
 11
-45.5920288229
 21
34.1081307478
 31
0.0
  0
LINE
  5
16B
330
1B
100
AcDbEntity
 67
     1
  8
0
  6
Continuous
 62
     7
370
    25
100
AcDbLine
 10
-43.0448152256
 20
34.1081307478
 30
0.0
 11
-44.3758102774
 21
34.1081307478
 31
0.0
  0
LINE
  5
16C
330
1B
100
AcDbEntity
 67
     1
  8
0
  6
Continuous
 62
     7
370
    25
100
AcDbLine
 10
-40.5448152256
 20
34.1081307478
 30
0.0
 11
-41.8758102774
 21
34.1081307478
 31
0.0
  0
LINE
  5
16D
330
1B
100
AcDbEntity
 67
     1
  8
0
  6
Continuous
 62
     7
370
    25
100
AcDbLine
 10
-38.0448152256
 20
34.1081307478
 30
0.0
 11
-39.3758102774
 21
34.1081307478
 31
0.0
  0
LINE
  5
16E
330
1B
100
AcDbEntity
 67
     1
  8
0
  6
Continuous
 62
     7
370
    25
100
AcDbLine
 10
-35.5448152256
 20
34.1081307478
 30
0.0
 11
-36.8758102774
 21
34.1081307478
 31
0.0
  0
LINE
  5
16F
330
1B
100
AcDbEntity
 67
     1
  8
0
  6
Continuous
 62
     7
370
    25
100
AcDbLine
 10
-33.0448152256
 20
34.1081307478
 30
0.0
 11
-34.3758102774
 21
34.1081307478
 31
0.0
  0
LINE
  5
170
330
1B
100
AcDbEntity
 67
     1
  8
0
  6
Continuous
 62
     7
370
    25
100
AcDbLine
 10
-30.5448152256
 20
34.1081307478
 30
0.0
 11
-31.8758102774
 21
34.1081307478
 31
0.0
  0
LINE
  5
171
330
1B
100
AcDbEntity
 67
     1
  8
0
  6
Continuous
 62
     7
370
    25
100
AcDbLine
 10
-28.0448152256
 20
34.1081307478
 30
0.0
 11
-29.3758102774
 21
34.1081307478
 31
0.0
  0
LINE
  5
172
330
1B
100
AcDbEntity
 67
     1
  8
0
  6
Continuous
 62
     7
370
    25
100
AcDbLine
 10
-25.5920288229
 20
34.1081307478
 30
0.0
 11
-26.8758102774
 21
34.1081307478
 31
0.0
  0
LINE
  5
173
330
1B
100
AcDbEntity
 67
     1
  8
0
  6
Continuous
 62
     7
370
    25
100
AcDbLine
 10
-25.6392424202
 20
13.1081307478
 30
0.0
 11
-25.5920288229
 21
13.1081307478
 31
0.0
  0
LINE
  5
174
330
1B
100
AcDbEntity
 67
     1
  8
0
  6
Continuous
 62
     7
370
    25
100
AcDbLine
 10
-28.1392424202
 20
13.1081307478
 30
0.0
 11
-26.8082680134
 21
13.1081307478
 31
0.0
  0
LINE
  5
175
330
1B
100
AcDbEntity
 67
     1
  8
0
  6
Continuous
 62
     7
370
    25
100
AcDbLine
 10
-30.6392424202
 20
13.1081307478
 30
0.0
 11
-29.3082680134
 21
13.1081307478
 31
0.0
  0
LINE
  5
176
330
1B
100
AcDbEntity
 67
     1
  8
0
  6
Continuous
 62
     7
370
    25
100
AcDbLine
 10
-33.1392424202
 20
13.1081307478
 30
0.0
 11
-31.8082680134
 21
13.1081307478
 31
0.0
  0
LINE
  5
177
330
1B
100
AcDbEntity
 67
     1
  8
0
  6
Continuous
 62
     7
370
    25
100
AcDbLine
 10
-35.6392424202
 20
13.1081307478
 30
0.0
 11
-34.3082680134
 21
13.1081307478
 31
0.0
  0
LINE
  5
178
330
1B
100
AcDbEntity
 67
     1
  8
0
  6
Continuous
 62
     7
370
    25
100
AcDbLine
 10
-38.1392424202
 20
13.1081307478
 30
0.0
 11
-36.8082680134
 21
13.1081307478
 31
0.0
  0
LINE
  5
179
330
1B
100
AcDbEntity
 67
     1
  8
0
  6
Continuous
 62
     7
370
    25
100
AcDbLine
 10
-40.6392424202
 20
13.1081307478
 30
0.0
 11
-39.3082680134
 21
13.1081307478
 31
0.0
  0
LINE
  5
17A
330
1B
100
AcDbEntity
 67
     1
  8
0
  6
Continuous
 62
     7
370
    25
100
AcDbLine
 10
-43.1392424202
 20
13.1081307478
 30
0.0
 11
-41.8082680134
 21
13.1081307478
 31
0.0
  0
LINE
  5
17B
330
1B
100
AcDbEntity
 67
     1
  8
0
  6
Continuous
 62
     7
370
    25
100
AcDbLine
 10
-45.5920288229
 20
13.1081307478
 30
0.0
 11
-44.3082680134
 21
13.1081307478
 31
0.0
  0
LINE
  5
17C
330
1B
100
AcDbEntity
 67
     1
  8
0
  6
Continuous
 62
     7
370
    25
100
AcDbLine
 10
-20.5920288229
 20
48.6081307478
 30
0.0
 11
-20.5920288229
 21
-1.3918692522
 31
0.0
  0
LINE
  5
17D
330
1B
100
AcDbEntity
 67
     1
  8
0
  6
Continuous
 62
     7
370
    25
100
AcDbLine
 10
-25.5920288229
 20
48.6081307478
 30
0.0
 11
-25.5920288229
 21
-1.3918692522
 31
0.0
  0
LINE
  5
17E
330
1B
100
AcDbEntity
 67
     1
  8
0
  6
Continuous
 62
     7
370
    25
100
AcDbLine
 10
43.6539378695
 20
36.867561354
 30
0.0
 11
48.4079711771
 21
36.867561354
 31
0.0
  0
LINE
  5
17F
330
1B
100
AcDbEntity
 67
     1
  8
0
  6
Continuous
 62
     7
370
    25
100
AcDbLine
 10
43.4684409898
 20
10.0569965082
 30
0.0
 11
48.4079711771
 21
10.0569965082
 31
0.0
  0
LINE
  5
180
330
1B
100
AcDbEntity
 67
     1
  8
0
  6
Continuous
 62
     7
370
    25
100
AcDbLine
 10
48.4079711771
 20
36.867561354
 30
0.0
 11
48.4079711771
 21
10.0569965082
 31
0.0
  0
LINE
  5
181
330
1B
100
AcDbEntity
 67
     1
  8
0
  6
Continuous
 62
     7
370
    25
100
AcDbLine
 10
-10.3420288229
 20
4.6081307478
 30
0.0
 11
-9.3420043568
 21
5.1850606302
 31
0.0
  0
LINE
  5
182
330
1B
100
AcDbEntity
 67
     1
  8
0
  6
Continuous
 62
     7
370
    25
100
AcDbLine
 10
11.157946711
 20
-6.0649393698
 30
0.0
 11
12.1579711771
 21
-6.6418692522
 31
0.0
  0
LINE
  5
183
330
1B
100
AcDbEntity
 67
     1
  8
0
  6
Continuous
 62
     7
370
    25
100
AcDbLine
 10
12.1579711771
 20
-6.6418692522
 30
0.0
 11
10.6579711771
 21
-7.5072429035
 31
0.0
  0
LINE
  5
184
330
1B
100
AcDbEntity
 67
     1
  8
0
  6
Continuous
 62
     7
370
    25
100
AcDbLine
 10
-9.3420043568
 20
4.0312008654
 30
0.0
 11
-10.3420288229
 21
4.6081307478
 31
0.0
  0
LINE
  5
185
330
1B
100
AcDbEntity
 67
     1
  8
0
  6
Continuous
 62
     7
370
    25
100
AcDbLine
 10
11.1579711771
 20
-6.6418692522
 30
0.0
 11
11.157946711
 21
-6.0649393698
 31
0.0
  0
LINE
  5
186
330
1B
100
AcDbEntity
 67
     1
  8
0
  6
Continuous
 62
     7
370
    25
100
AcDbLine
 10
-9.3420288229
 20
-6.6418692522
 30
0.0
 11
11.1579711771
 21
-6.6418692522
 31
0.0
  0
LINE
  5
187
330
1B
100
AcDbEntity
 67
     1
  8
0
  6
Continuous
 62
     7
370
    25
100
AcDbLine
 10
-9.3420043568
 20
4.0312008654
 30
0.0
 11
-9.3420288229
 21
4.6081307478
 31
0.0
  0
LINE
  5
188
330
1B
100
AcDbEntity
 67
     1
  8
0
  6
Continuous
 62
     7
370
    25
100
AcDbLine
 10
-45.5920288229
 20
13.1081307478
 30
0.0
 11
-45.5920288229
 21
34.1081307478
 31
0.0
  0
LINE
  5
189
330
1B
100
AcDbEntity
 67
     1
  8
0
  6
Continuous
 62
     7
370
    25
100
AcDbLine
 10
-46.4574331076
 20
23.6409244073
 30
0.0
 11
-45.5920288229
 21
23.6081307478
 31
0.0
  0
LINE
  5
18A
330
1B
100
AcDbEntity
 67
     1
  8
0
  6
Continuous
 62
     7
370
    25
100
AcDbLine
 10
10.6579711771
 20
-7.5072429035
 30
0.0
 11
10.6579711771
 21
-6.6418692522
 31
0.0
  0
VIEWPORT
  5
254
330
1B
100
AcDbEntity
 67
     1
  8
0
100
AcDbViewport
 10
0.0
 20
0.0
 30
0.0
 40
205.6
 41
156.0
 68
     1
 69
     1
 12
-22.3512327713
 22
20.5504439222
 13
0.0
 23
0.0
 14
10.0
 24
10.0
 15
10.0
 25
10.0
 16
0.0
 26
0.0
 36
1.0
 17
0.0
 27
0.0
 37
0.0
 42
50.0
 43
0.0
 44
0.0
 45
57.2376811243
 50
0.0
 51
0.0
 72
   100
 90
   557152
  1

281
     0
 71
     1
 74
     0
110
0.0
120
0.0
130
0.0
111
1.0
121
0.0
131
0.0
112
0.0
122
1.0
132
0.0
 79
     0
146
0.0
  0
ENDSEC
  0
SECTION
  2
OBJECTS
  0
DICTIONARY
  5
C
330
0
100
AcDbDictionary
281
     1
  3
ACAD_GROUP
350
D
  3
ACAD_LAYOUT
350
1A
  3
ACAD_MLINESTYLE
350
17
  3
ACAD_PLOTSETTINGS
350
19
  3
ACAD_PLOTSTYLENAME
350
E
  3
ACAD_SCALELIST
350
47
  0
DICTIONARY
  5
D
102
{ACAD_REACTORS
330
C
102
}
330
C
100
AcDbDictionary
281
     1
  0
DICTIONARY
  5
1A
102
{ACAD_REACTORS
330
C
102
}
330
C
100
AcDbDictionary
281
     1
  3
_Isometric
350
20B
  3
_Left
350
1E
  3
_Top
350
26
  3
Model
350
22
  0
DICTIONARY
  5
17
102
{ACAD_REACTORS
330
C
102
}
330
C
100
AcDbDictionary
281
     1
  3
Standard
350
18
  0
DICTIONARY
  5
19
102
{ACAD_REACTORS
330
C
102
}
330
C
100
AcDbDictionary
281
     1
  0
ACDBDICTIONARYWDFLT
  5
E
102
{ACAD_REACTORS
330
C
102
}
330
C
100
AcDbDictionary
281
     1
  3
Normal
350
F
100
AcDbDictionaryWithDefault
340
F
  0
DICTIONARY
  5
47
102
{ACAD_REACTORS
330
C
102
}
330
C
100
AcDbDictionary
281
     1
  3
A0
350
48
  3
A1
350
49
  3
A2
350
4A
  3
A3
350
4B
  3
A4
350
4C
  3
A5
350
4D
  3
A6
350
4E
  3
A7
350
4F
  3
A8
350
50
  3
A9
350
51
  3
B0
350
52
  3
B1
350
53
  3
B2
350
54
  3
B3
350
55
  3
B4
350
56
  3
B5
350
57
  3
B6
350
58
  3
B7
350
59
  3
B8
350
5A
  3
B9
350
5B
  3
C0
350
5C
  3
C1
350
5D
  3
C2
350
5E
  3
C3
350
5F
  3
C4
350
60
  3
C5
350
61
  3
C6
350
62
  3
C7
350
63
  3
C8
350
64
  3
C9
350
65
  3
D0
350
66
  3
D1
350
67
  3
D2
350
68
  0
LAYOUT
  5
20B
102
{ACAD_REACTORS
330
1A
102
}
330
1A
100
AcDbPlotSettings
  1

  2
none_device
  4
ISO_A4_(210.00_x_297.00_MM)
  6

 40
7.5
 41
20.0
 42
7.5
 43
20.0
 44
210.0
 45
297.0
 46
0.0
 47
0.0
 48
0.0
 49
0.0
140
0.0
141
0.0
142
1.0
143
0.3691260867
 70
   688
 72
     1
 73
     1
 74
     1
  7

 75
     0
147
2.7091014046
148
46.4574331076
149
7.5072429035
100
AcDbLayout
  1
_Isometric
 70
     1
 71
     3
 10
0.0
 20
0.0
 11
0.0
 21
0.0
 12
0.0
 22
0.0
 32
0.0
 14
0.0
 24
0.0
 34
0.0
 15
0.0
 25
0.0
 35
0.0
146
0.0
 13
0.0
 23
0.0
 33
0.0
 16
1.0
 26
0.0
 36
0.0
 17
0.0
 27
1.0
 37
0.0
 76
     0
330
20A
331
258
  0
LAYOUT
  5
1E
102
{ACAD_REACTORS
330
1A
102
}
330
1A
100
AcDbPlotSettings
  1

  2
none_device
  4
ISO_A4_(210.00_x_297.00_MM)
  6

 40
7.5
 41
20.0
 42
7.5
 43
20.0
 44
210.0
 45
297.0
 46
0.0
 47
0.0
 48
0.0
 49
0.0
140
0.0
141
0.0
142
1.0
143
0.3691260867
 70
   688
 72
     1
 73
     1
 74
     1
  7

 75
     0
147
2.7091014046
148
46.4574331076
149
7.5072429035
100
AcDbLayout
  1
_Left
 70
     1
 71
     1
 10
-53.8399548418
 20
-10.2756885538
 11
55.7904929113
 21
67.2407896555
 12
0.0
 22
0.0
 32
0.0
 14
-46.4574331076
 24
-7.5072429035
 34
0.0
 15
48.4079711771
 25
48.6081307478
 35
0.0
146
0.0
 13
0.0
 23
0.0
 33
0.0
 16
1.0
 26
0.0
 36
0.0
 17
0.0
 27
1.0
 37
0.0
 76
     0
330
1B
331
254
  0
LAYOUT
  5
26
102
{ACAD_REACTORS
330
1A
102
}
330
1A
100
AcDbPlotSettings
  1

  2
none_device
  4
ISO_A4_(210.00_x_297.00_MM)
  6

 40
7.5
 41
20.0
 42
7.5
 43
20.0
 44
210.0
 45
297.0
 46
0.0
 47
0.0
 48
0.0
 49
0.0
140
0.0
141
0.0
142
1.0
143
0.3691260867
 70
   688
 72
     1
 73
     1
 74
     1
  7

 75
     0
147
2.7091014046
148
46.4574331076
149
7.5072429035
100
AcDbLayout
  1
_Top
 70
     1
 71
     2
 10
0.0
 20
0.0
 11
0.0
 21
0.0
 12
0.0
 22
0.0
 32
0.0
 14
0.0
 24
0.0
 34
0.0
 15
0.0
 25
0.0
 35
0.0
146
0.0
 13
0.0
 23
0.0
 33
0.0
 16
1.0
 26
0.0
 36
0.0
 17
0.0
 27
1.0
 37
0.0
 76
     0
330
23
331
256
  0
LAYOUT
  5
22
102
{ACAD_REACTORS
330
1A
102
}
330
1A
100
AcDbPlotSettings
  1

  2
none_device
  4
ANSI_A_(11.00_x_8.50_Inches)
  6

 40
6.35
 41
19.05
 42
6.35000508
 43
19.05000254
 44
279.4
 45
215.9
 46
218.4848639488
 47
10.6242580806
 48
0.0
 49
0.0
140
0.0
141
0.0
142
0.1499589052
143
1.0
 70
  1696
 72
     0
 73
     0
 74
     0
  7

 75
     0
147
0.0179189148
148
-1300.4909072572
149
0.0
100
AcDbLayout
  1
Model
 70
     1
 71
     0
 10
0.0
 20
0.0
 11
420.0
 21
297.0
 12
0.0
 22
0.0
 32
0.0
 14
-47.3512327713
 24
-7.5072429035
 34
0.0
 15
2.6487672287
 25
48.6081307478
 35
0.0
146
0.0
 13
0.0
 23
0.0
 33
0.0
 16
1.0
 26
0.0
 36
0.0
 17
0.0
 27
1.0
 37
0.0
 76
     0
330
1F
331
29
  0
MLINESTYLE
  5
18
102
{ACAD_REACTORS
330
17
102
}
330
17
100
AcDbMlineStyle
  2
Standard
 70
     0
  3

 62
   256
 51
90.0
 52
90.0
 71
     2
 49
0.5
 62
   256
  6
BYLAYER
 49
-0.5
 62
   256
  6
BYLAYER
  0
ACDBPLACEHOLDER
  5
F
102
{ACAD_REACTORS
330
E
102
}
330
E
  0
SCALE
  5
48
102
{ACAD_REACTORS
330
47
102
}
330
47
100
AcDbScale
 70
     0
300
1:1
140
1.0
141
1.0
290
     1
  0
SCALE
  5
49
102
{ACAD_REACTORS
330
47
102
}
330
47
100
AcDbScale
 70
     0
300
1:2
140
1.0
141
2.0
290
     0
  0
SCALE
  5
4A
102
{ACAD_REACTORS
330
47
102
}
330
47
100
AcDbScale
 70
     0
300
1:4
140
1.0
141
4.0
290
     0
  0
SCALE
  5
4B
102
{ACAD_REACTORS
330
47
102
}
330
47
100
AcDbScale
 70
     0
300
1:5
140
1.0
141
5.0
290
     0
  0
SCALE
  5
4C
102
{ACAD_REACTORS
330
47
102
}
330
47
100
AcDbScale
 70
     0
300
1:8
140
1.0
141
8.0
290
     0
  0
SCALE
  5
4D
102
{ACAD_REACTORS
330
47
102
}
330
47
100
AcDbScale
 70
     0
300
1:10
140
1.0
141
10.0
290
     0
  0
SCALE
  5
4E
102
{ACAD_REACTORS
330
47
102
}
330
47
100
AcDbScale
 70
     0
300
1:16
140
1.0
141
16.0
290
     0
  0
SCALE
  5
4F
102
{ACAD_REACTORS
330
47
102
}
330
47
100
AcDbScale
 70
     0
300
1:20
140
1.0
141
20.0
290
     0
  0
SCALE
  5
50
102
{ACAD_REACTORS
330
47
102
}
330
47
100
AcDbScale
 70
     0
300
1:30
140
1.0
141
30.0
290
     0
  0
SCALE
  5
51
102
{ACAD_REACTORS
330
47
102
}
330
47
100
AcDbScale
 70
     0
300
1:40
140
1.0
141
40.0
290
     0
  0
SCALE
  5
52
102
{ACAD_REACTORS
330
47
102
}
330
47
100
AcDbScale
 70
     0
300
1:50
140
1.0
141
50.0
290
     0
  0
SCALE
  5
53
102
{ACAD_REACTORS
330
47
102
}
330
47
100
AcDbScale
 70
     0
300
1:100
140
1.0
141
100.0
290
     0
  0
SCALE
  5
54
102
{ACAD_REACTORS
330
47
102
}
330
47
100
AcDbScale
 70
     0
300
2:1
140
2.0
141
1.0
290
     0
  0
SCALE
  5
55
102
{ACAD_REACTORS
330
47
102
}
330
47
100
AcDbScale
 70
     0
300
4:1
140
4.0
141
1.0
290
     0
  0
SCALE
  5
56
102
{ACAD_REACTORS
330
47
102
}
330
47
100
AcDbScale
 70
     0
300
8:1
140
8.0
141
1.0
290
     0
  0
SCALE
  5
57
102
{ACAD_REACTORS
330
47
102
}
330
47
100
AcDbScale
 70
     0
300
10:1
140
10.0
141
1.0
290
     0
  0
SCALE
  5
58
102
{ACAD_REACTORS
330
47
102
}
330
47
100
AcDbScale
 70
     0
300
100:1
140
100.0
141
1.0
290
     0
  0
SCALE
  5
59
102
{ACAD_REACTORS
330
47
102
}
330
47
100
AcDbScale
 70
     0
300
1/128" = 1'-0"
140
0.0078125
141
12.0
290
     0
  0
SCALE
  5
5A
102
{ACAD_REACTORS
330
47
102
}
330
47
100
AcDbScale
 70
     0
300
1/64" = 1'-0"
140
0.015625
141
12.0
290
     0
  0
SCALE
  5
5B
102
{ACAD_REACTORS
330
47
102
}
330
47
100
AcDbScale
 70
     0
300
1/32" = 1'-0"
140
0.03125
141
12.0
290
     0
  0
SCALE
  5
5C
102
{ACAD_REACTORS
330
47
102
}
330
47
100
AcDbScale
 70
     0
300
1/16" = 1'-0"
140
0.0625
141
12.0
290
     0
  0
SCALE
  5
5D
102
{ACAD_REACTORS
330
47
102
}
330
47
100
AcDbScale
 70
     0
300
3/32" = 1'-0"
140
0.09375
141
12.0
290
     0
  0
SCALE
  5
5E
102
{ACAD_REACTORS
330
47
102
}
330
47
100
AcDbScale
 70
     0
300
1/8" = 1'-0"
140
0.125
141
12.0
290
     0
  0
SCALE
  5
5F
102
{ACAD_REACTORS
330
47
102
}
330
47
100
AcDbScale
 70
     0
300
3/16" = 1'-0"
140
0.1875
141
12.0
290
     0
  0
SCALE
  5
60
102
{ACAD_REACTORS
330
47
102
}
330
47
100
AcDbScale
 70
     0
300
1/4" = 1'-0"
140
0.25
141
12.0
290
     0
  0
SCALE
  5
61
102
{ACAD_REACTORS
330
47
102
}
330
47
100
AcDbScale
 70
     0
300
3/8" = 1'-0"
140
0.375
141
12.0
290
     0
  0
SCALE
  5
62
102
{ACAD_REACTORS
330
47
102
}
330
47
100
AcDbScale
 70
     0
300
1/2" = 1'-0"
140
0.5
141
12.0
290
     0
  0
SCALE
  5
63
102
{ACAD_REACTORS
330
47
102
}
330
47
100
AcDbScale
 70
     0
300
3/4" = 1'-0"
140
0.75
141
12.0
290
     0
  0
SCALE
  5
64
102
{ACAD_REACTORS
330
47
102
}
330
47
100
AcDbScale
 70
     0
300
1" = 1'-0"
140
1.0
141
12.0
290
     0
  0
SCALE
  5
65
102
{ACAD_REACTORS
330
47
102
}
330
47
100
AcDbScale
 70
     0
300
1-1/2" = 1'-0"
140
1.5
141
12.0
290
     0
  0
SCALE
  5
66
102
{ACAD_REACTORS
330
47
102
}
330
47
100
AcDbScale
 70
     0
300
3" = 1'-0"
140
3.0
141
12.0
290
     0
  0
SCALE
  5
67
102
{ACAD_REACTORS
330
47
102
}
330
47
100
AcDbScale
 70
     0
300
6" = 1'-0"
140
6.0
141
12.0
290
     0
  0
SCALE
  5
68
102
{ACAD_REACTORS
330
47
102
}
330
47
100
AcDbScale
 70
     0
300
1'-0" = 1'-0"
140
12.0
141
12.0
290
     0
  0
ENDSEC
  0
EOF
