  0
SECTION
  2
HEADER
  9
$ACADVER
  1
AC1015
  9
$ACADMAINTVER
 70
     6
  9
$DWGCODEPAGE
  3
ANSI_1252
  9
$INSBASE
 10
0.0
 20
0.0
 30
0.0
  9
$EXTMIN
 10
-100.0
 20
-5.0017676952
 30
0.0
  9
$EXTMAX
 10
100.0
 20
54.8
 30
0.0
  9
$LIMMIN
 10
0.0
 20
0.0
  9
$LIMMAX
 10
420.0
 20
297.0
  9
$ORTHOMODE
 70
     0
  9
$REGENMODE
 70
     1
  9
$FILLMODE
 70
     1
  9
$QTEXTMODE
 70
     0
  9
$MIRRTEXT
 70
     1
  9
$LTSCALE
 40
1.0
  9
$ATTMODE
 70
     1
  9
$TEXTSIZE
 40
3.5
  9
$TRACEWID
 40
1.0
  9
$TEXTSTYLE
  7
Standard
  9
$CLAYER
  8
0
  9
$CELTYPE
  6
ByLayer
  9
$CECOLOR
 62
   256
  9
$CELTSCALE
 40
1.0
  9
$DISPSILH
 70
     0
  9
$DIMSCALE
 40
1.0
  9
$DIMASZ
 40
3.302
  9
$DIMEXO
 40
1.0
  9
$DIMDLI
 40
3.75
  9
$DIMRND
 40
0.0
  9
$DIMDLE
 40
0.0
  9
$DIMEXE
 40
1.0
  9
$DIMTP
 40
0.0
  9
$DIMTM
 40
0.0
  9
$DIMTXT
 40
3.5
  9
$DIMCEN
 40
2.5
  9
$DIMTSZ
 40
0.0
  9
$DIMTOL
 70
     0
  9
$DIMLIM
 70
     0
  9
$DIMTIH
 70
     1
  9
$DIMTOH
 70
     1
  9
$DIMSE1
 70
     0
  9
$DIMSE2
 70
     0
  9
$DIMTAD
 70
     1
  9
$DIMZIN
 70
     1
  9
$DIMBLK
  1

  9
$DIMASO
 70
     1
  9
$DIMSHO
 70
     1
  9
$DIMPOST
  1

  9
$DIMAPOST
  1

  9
$DIMALT
 70
     0
  9
$DIMALTD
 70
     3
  9
$DIMALTF
 40
0.0393700787
  9
$DIMLFAC
 40
1.0
  9
$DIMTOFL
 70
     1
  9
$DIMTVP
 40
0.0
  9
$DIMTIX
 70
     0
  9
$DIMSOXD
 70
     0
  9
$DIMSAH
 70
     0
  9
$DIMBLK1
  1

  9
$DIMBLK2
  1

  9
$DIMSTYLE
  2
ISO-25
  9
$DIMCLRD
 70
     0
  9
$DIMCLRE
 70
     0
  9
$DIMCLRT
 70
     0
  9
$DIMTFAC
 40
1.0
  9
$DIMGAP
 40
1.524
  9
$DIMJUST
 70
     0
  9
$DIMSD1
 70
     0
  9
$DIMSD2
 70
     0
  9
$DIMTOLJ
 70
     0
  9
$DIMTZIN
 70
     1
  9
$DIMALTZ
 70
     0
  9
$DIMALTTZ
 70
     0
  9
$DIMUPT
 70
     0
  9
$DIMDEC
 70
     2
  9
$DIMTDEC
 70
     2
  9
$DIMALTU
 70
     2
  9
$DIMALTTD
 70
     3
  9
$DIMTXSTY
  7
Standard
  9
$DIMAUNIT
 70
     0
  9
$DIMADEC
 70
     2
  9
$DIMALTRND
 40
0.0
  9
$DIMAZIN
 70
     0
  9
$DIMDSEP
 70
    44
  9
$DIMATFIT
 70
     3
  9
$DIMFRAC
 70
     0
  9
$DIMLDRBLK
  1

  9
$DIMLUNIT
 70
     2
  9
$DIMLWD
 70
    -2
  9
$DIMLWE
 70
    -2
  9
$DIMTMOVE
 70
     0
  9
$LUNITS
 70
     2
  9
$LUPREC
 70
     2
  9
$SKETCHINC
 40
1.0
  9
$FILLETRAD
 40
10.0
  9
$AUNITS
 70
     0
  9
$AUPREC
 70
     2
  9
$MENU
  1
.
  9
$ELEVATION
 40
0.0
  9
$PELEVATION
 40
0.0
  9
$THICKNESS
 40
0.0
  9
$LIMCHECK
 70
     0
  9
$CHAMFERA
 40
0.0
  9
$CHAMFERB
 40
0.0
  9
$CHAMFERC
 40
0.0
  9
$CHAMFERD
 40
0.0
  9
$SKPOLY
 70
     0
  9
$TDCREATE
 40
2459261.710279491
  9
$TDUCREATE
 40
2459261.710279491
  9
$TDUPDATE
 40
2459261.710309873
  9
$TDUUPDATE
 40
2459261.710309873
  9
$TDINDWG
 40
0.0000000116
  9
$TDUSRTIMER
 40
0.0000000116
  9
$USRTIMER
 70
     1
  9
$ANGBASE
 50
0.0
  9
$ANGDIR
 70
     0
  9
$PDMODE
 70
     0
  9
$PDSIZE
 40
-1.0
  9
$PLINEWID
 40
0.0
  9
$SPLFRAME
 70
     0
  9
$SPLINETYPE
 70
     6
  9
$SPLINESEGS
 70
     8
  9
$HANDSEED
  5
1AD
  9
$SURFTAB1
 70
     6
  9
$SURFTAB2
 70
     6
  9
$SURFTYPE
 70
     6
  9
$SURFU
 70
     6
  9
$SURFV
 70
     6
  9
$UCSBASE
  2

  9
$UCSNAME
  2

  9
$UCSORG
 10
0.0
 20
0.0
 30
0.0
  9
$UCSXDIR
 10
1.0
 20
0.0
 30
0.0
  9
$UCSYDIR
 10
0.0
 20
1.0
 30
0.0
  9
$UCSORTHOREF
  2

  9
$UCSORTHOVIEW
 70
     0
  9
$UCSORGTOP
 10
0.0
 20
0.0
 30
0.0
  9
$UCSORGBOTTOM
 10
0.0
 20
0.0
 30
0.0
  9
$UCSORGLEFT
 10
0.0
 20
0.0
 30
0.0
  9
$UCSORGRIGHT
 10
0.0
 20
0.0
 30
0.0
  9
$UCSORGFRONT
 10
0.0
 20
0.0
 30
0.0
  9
$UCSORGBACK
 10
0.0
 20
0.0
 30
0.0
  9
$PUCSBASE
  2

  9
$PUCSNAME
  2

  9
$PUCSORG
 10
0.0
 20
0.0
 30
0.0
  9
$PUCSXDIR
 10
1.0
 20
0.0
 30
0.0
  9
$PUCSYDIR
 10
0.0
 20
1.0
 30
0.0
  9
$PUCSORTHOREF
  2

  9
$PUCSORTHOVIEW
 70
     0
  9
$PUCSORGTOP
 10
0.0
 20
0.0
 30
0.0
  9
$PUCSORGBOTTOM
 10
0.0
 20
0.0
 30
0.0
  9
$PUCSORGLEFT
 10
0.0
 20
0.0
 30
0.0
  9
$PUCSORGRIGHT
 10
0.0
 20
0.0
 30
0.0
  9
$PUCSORGFRONT
 10
0.0
 20
0.0
 30
0.0
  9
$PUCSORGBACK
 10
0.0
 20
0.0
 30
0.0
  9
$USERI1
 70
     0
  9
$USERI2
 70
     0
  9
$USERI3
 70
     0
  9
$USERI4
 70
     0
  9
$USERI5
 70
     0
  9
$USERR1
 40
0.0
  9
$USERR2
 40
0.0
  9
$USERR3
 40
0.0
  9
$USERR4
 40
0.0
  9
$USERR5
 40
0.0
  9
$WORLDVIEW
 70
     1
  9
$SHADEDGE
 70
     3
  9
$SHADEDIF
 70
    70
  9
$TILEMODE
 70
     1
  9
$MAXACTVP
 70
    64
  9
$PINSBASE
 10
0.0
 20
0.0
 30
0.0
  9
$PLIMCHECK
 70
     0
  9
$PEXTMIN
 10
-100.0
 20
-100.0
 30
0.0
  9
$PEXTMAX
 10
100.0
 20
100.0
 30
0.0
  9
$PLIMMIN
 10
-120.5128205128
 20
-107.6923076923
  9
$PLIMMAX
 10
184.1025641026
 20
107.6923076923
  9
$UNITMODE
 70
     0
  9
$VISRETAIN
 70
     1
  9
$PLINEGEN
 70
     0
  9
$PSLTSCALE
 70
     1
  9
$TREEDEPTH
 70
  3020
  9
$CMLSTYLE
  2
Standard
  9
$CMLJUST
 70
     0
  9
$CMLSCALE
 40
20.0
  9
$PROXYGRAPHICS
 70
     1
  9
$MEASUREMENT
 70
     1
  9
$CELWEIGHT
370
    -1
  9
$ENDCAPS
280
     0
  9
$JOINSTYLE
280
     0
  9
$LWDISPLAY
290
     1
  9
$INSUNITS
 70
     4
  9
$HYPERLINKBASE
  1

  9
$STYLESHEET
  1

  9
$XEDIT
290
     1
  9
$CEPSNTYPE
380
     0
  9
$PSTYLEMODE
290
     1
  9
$FINGERPRINTGUID
  2
{c9a1c8d3-ed2b-433b-a343-0fcd0202ad8f}
  9
$VERSIONGUID
  2
{FAEB1C32-E019-11D5-929B-00C0DF256EC4}
  9
$EXTNAMES
290
     1
  9
$PSVPSCALE
 40
0.0
  9
$OLESTARTUP
290
     0
  0
ENDSEC
  0
SECTION
  2
CLASSES
  0
CLASS
  1
ACDBDICTIONARYWDFLT
  2
AcDbDictionaryWithDefault
  3
ObjectDBX Classes
 90
        0
280
     0
281
     0
  0
CLASS
  1
VISUALSTYLE
  2
AcDbVisualStyle
  3
ObjectDBX Classes
 90
     4095
280
     0
281
     0
  0
CLASS
  1
MATERIAL
  2
AcDbMaterial
  3
ObjectDBX Classes
 90
     1153
280
     0
281
     0
  0
CLASS
  1
SCALE
  2
AcDbScale
  3
ObjectDBX Classes
 90
     1153
280
     0
281
     0
  0
CLASS
  1
TABLESTYLE
  2
AcDbTableStyle
  3
ObjectDBX Classes
 90
     4095
280
     0
281
     0
  0
CLASS
  1
MLEADERSTYLE
  2
AcDbMLeaderStyle
  3
ACDB_MLEADERSTYLE_CLASS
 90
     4095
280
     0
281
     0
  0
CLASS
  1
SUN
  2
AcDbSun
  3
SCENEOE
 90
     1153
280
     0
281
     0
  0
CLASS
  1
ACDBPLACEHOLDER
  2
AcDbPlaceHolder
  3
ObjectDBX Classes
 90
        0
280
     0
281
     0
  0
CLASS
  1
LAYOUT
  2
AcDbLayout
  3
ObjectDBX Classes
 90
        0
280
     0
281
     0
  0
ENDSEC
  0
SECTION
  2
TABLES
  0
TABLE
  2
VPORT
  5
8
330
0
100
AcDbSymbolTable
 70
     1
  0
VPORT
  5
29
330
8
100
AcDbSymbolTableRecord
100
AcDbViewportTableRecord
  2
*Active
 70
     0
 10
0.0
 20
0.0
 11
1.0
 21
1.0
 12
0.0
 22
24.8991161524
 13
0.0
 23
0.0
 14
10.0
 24
10.0
 15
10.0
 25
10.0
 16
0.0
 26
0.0
 36
1.0
 17
0.0
 27
0.0
 37
0.0
 40
60.9978030491
 41
3.344382745
 42
50.0
 43
0.0
 44
0.0
 50
0.0
 51
0.0
 71
     0
 72
   100
 73
     1
 74
     3
 75
     0
 76
     0
 77
     0
 78
     0
281
     0
 65
     1
110
0.0
120
0.0
130
0.0
111
1.0
121
0.0
131
0.0
112
0.0
122
1.0
132
0.0
 79
     0
146
0.0
  0
ENDTAB
  0
TABLE
  2
LTYPE
  5
5
330
0
100
AcDbSymbolTable
 70
     6
  0
LTYPE
  5
14
330
5
100
AcDbSymbolTableRecord
100
AcDbLinetypeTableRecord
  2
ByBlock
 70
     0
  3

 72
    65
 73
     0
 40
0.0
  0
LTYPE
  5
15
330
5
100
AcDbSymbolTableRecord
100
AcDbLinetypeTableRecord
  2
ByLayer
 70
     0
  3

 72
    65
 73
     0
 40
0.0
  0
LTYPE
  5
16
330
5
100
AcDbSymbolTableRecord
100
AcDbLinetypeTableRecord
  2
Continuous
 70
     0
  3
Solid line
 72
    65
 73
     0
 40
0.0
  0
LTYPE
  5
6E
330
5
100
AcDbSymbolTableRecord
100
AcDbLinetypeTableRecord
  2
HIDDEN
 70
     0
  3
Hidden __ __ __ __ __ __ __ __ __ __ __ __ __ __
 72
    65
 73
     2
 40
1.905
 49
1.27
 74
     0
 49
-0.635
 74
     0
  0
LTYPE
  5
6F
330
5
100
AcDbSymbolTableRecord
100
AcDbLinetypeTableRecord
  2
PHANTOM
 70
     0
  3
Phantom ______  __  __  ______  __  __  ______
 72
    65
 73
     6
 40
12.7
 49
6.35
 74
     0
 49
-1.27
 74
     0
 49
1.27
 74
     0
 49
-1.27
 74
     0
 49
1.27
 74
     0
 49
-1.27
 74
     0
  0
LTYPE
  5
70
330
5
100
AcDbSymbolTableRecord
100
AcDbLinetypeTableRecord
  2
CENTER
 70
     0
  3
Center ____ _ ____ _ ____ _ ____ _ ____ _ ____
 72
    65
 73
     4
 40
10.16
 49
6.35
 74
     0
 49
-1.27
 74
     0
 49
1.27
 74
     0
 49
-1.27
 74
     0
  0
LTYPE
  5
71
330
5
100
AcDbSymbolTableRecord
100
AcDbLinetypeTableRecord
  2
CENTERX2
 70
     0
  3
Center (2x) ________  __  ________  __  _____
 72
    65
 73
     4
 40
20.32
 49
12.7
 74
     0
 49
-2.54
 74
     0
 49
2.54
 74
     0
 49
-2.54
 74
     0
  0
LTYPE
  5
72
330
5
100
AcDbSymbolTableRecord
100
AcDbLinetypeTableRecord
  2
DOT2
 70
     0
  3
Dot (.5x) ........................................
 72
    65
 73
     2
 40
0.635
 49
0.0
 74
     0
 49
-0.635
 74
     0
  0
ENDTAB
  0
TABLE
  2
LAYER
  5
2
330
0
100
AcDbSymbolTable
 70
     1
  0
LAYER
  5
10
330
2
100
AcDbSymbolTableRecord
100
AcDbLayerTableRecord
  2
0
 70
     0
 62
     7
  6
Continuous
370
    -3
390
F
  0
ENDTAB
  0
TABLE
  2
STYLE
  5
3
330
0
100
AcDbSymbolTable
 70
     1
  0
STYLE
  5
11
330
3
100
AcDbSymbolTableRecord
100
AcDbTextStyleTableRecord
  2
Standard
 70
     0
 40
0.0
 41
1.0
 50
0.0
 71
     0
 42
3.5
  3
txt
  4

  0
ENDTAB
  0
TABLE
  2
VIEW
  5
6
330
0
100
AcDbSymbolTable
 70
     0
  0
ENDTAB
  0
TABLE
  2
UCS
  5
7
330
0
100
AcDbSymbolTable
 70
     0
  0
ENDTAB
  0
TABLE
  2
APPID
  5
9
330
0
100
AcDbSymbolTable
 70
     1
  0
APPID
  5
12
330
9
100
AcDbSymbolTableRecord
100
AcDbRegAppTableRecord
  2
ACAD
 70
     0
  0
ENDTAB
  0
TABLE
  2
DIMSTYLE
  5
A
330
0
100
AcDbSymbolTable
 70
     1
100
AcDbDimStyleTable
  0
DIMSTYLE
105
27
330
A
100
AcDbSymbolTableRecord
100
AcDbDimStyleTableRecord
  2
ISO-25
 70
     0
 41
2.5
 42
0.625
 43
3.75
 44
1.25
 73
     0
 74
     0
 77
     1
 78
     8
140
2.5
141
2.5
143
0.0393700787
147
0.625
171
     3
172
     1
178
     0
271
     2
272
     2
274
     3
278
    44
283
     0
284
     8
340
11
  0
ENDTAB
  0
TABLE
  2
BLOCK_RECORD
  5
1
330
0
100
AcDbSymbolTable
 70
     1
  0
BLOCK_RECORD
  5
1F
330
1
100
AcDbSymbolTableRecord
100
AcDbBlockTableRecord
  2
*Model_Space
340
22
  0
BLOCK_RECORD
  5
1B
330
1
100
AcDbSymbolTableRecord
100
AcDbBlockTableRecord
  2
*Paper_Space
340
1E
  0
BLOCK_RECORD
  5
23
330
1
100
AcDbSymbolTableRecord
100
AcDbBlockTableRecord
  2
*Paper_Space0
340
26
  0
ENDTAB
  0
ENDSEC
  0
SECTION
  2
BLOCKS
  0
BLOCK
  5
20
330
1F
100
AcDbEntity
  8
0
100
AcDbBlockBegin
  2
*Model_Space
 70
     0
 10
0.0
 20
0.0
 30
0.0
  3
*Model_Space
  1

  0
ENDBLK
  5
21
330
1F
100
AcDbEntity
  8
0
100
AcDbBlockEnd
  0
BLOCK
  5
1C
330
1B
100
AcDbEntity
 67
     1
  8
0
100
AcDbBlockBegin
  2
*Paper_Space
 70
     0
 10
0.0
 20
0.0
 30
0.0
  3
*Paper_Space
  1

  0
ENDBLK
  5
1D
330
1B
100
AcDbEntity
 67
     1
  8
0
100
AcDbBlockEnd
  0
BLOCK
  5
24
330
23
100
AcDbEntity
  8
0
100
AcDbBlockBegin
  2
*Paper_Space0
 70
     0
 10
0.0
 20
0.0
 30
0.0
  3
*Paper_Space0
  1

  0
ENDBLK
  5
25
330
23
100
AcDbEntity
  8
0
100
AcDbBlockEnd
  0
ENDSEC
  0
SECTION
  2
ENTITIES
  0
SPLINE
  5
7B
330
1F
100
AcDbEntity
  8
0
  6
Continuous
 62
     7
370
    25
100
AcDbSpline
210
0.0
220
0.0
230
1.0
 70
     8
 71
     3
 72
    11
 73
     7
 74
     0
 42
0.000000001
 43
0.00000001
 40
0.0
 40
0.0
 40
0.0
 40
0.0
 40
0.2439754005050109
 40
0.6281519585664401
 40
0.9638495960722895
 40
1.0
 40
1.0
 40
1.0
 40
1.0
 10
1.289972258994784
 20
-5.0012532735677
 30
0.0
 10
1.289382397486175
 20
-4.584630905168755
 30
0.0
 10
1.287863708875975
 20
-3.511972939854699
 30
0.0
 10
1.648167260347552
 20
-1.915241681788242
 30
0.0
 10
2.061234074719263
 20
-0.6510198759646473
 30
0.0
 10
2.47334562161248
 20
-0.1696857716755977
 30
0.0
 10
2.513410371788461
 20
-0.1228913278292637
 30
0.0
  0
SPLINE
  5
7C
330
1F
100
AcDbEntity
  8
0
  6
Continuous
 62
     7
370
    25
100
AcDbSpline
210
0.0
220
0.0
230
1.0
 70
     8
 71
     3
 72
    11
 73
     7
 74
     0
 42
0.000000001
 43
0.00000001
 40
0.0
 40
0.0
 40
0.0
 40
0.0
 40
0.033475654015336
 40
0.3700833976246417
 40
0.7553014924478255
 40
1.0
 40
1.0
 40
1.0
 40
1.0
 10
-2.504367390201093
 20
-0.1337312521234105
 30
0.0
 10
-2.467409070757926
 20
-0.1769743049055937
 30
0.0
 10
-2.058823762050947
 20
-0.6550392260557327
 30
0.0
 10
-1.648618200301948
 20
-1.915546083219938
 30
0.0
 10
-1.287778238258785
 20
-3.512028516262412
 30
0.0
 10
-1.289352267645566
 20
-4.584826237903887
 30
0.0
 10
-1.289963717860303
 20
-5.001567121381376
 30
0.0
  0
SPLINE
  5
7F
330
1F
100
AcDbEntity
  8
0
  6
Continuous
 62
     7
370
    25
100
AcDbSpline
210
0.0
220
0.0
230
1.0
 70
     8
 71
     3
 72
    11
 73
     7
 74
     0
 42
0.000000001
 43
0.00000001
 40
0.0
 40
0.0
 40
0.0
 40
0.0
 40
0.2451212434285132
 40
0.6309476542032212
 40
0.9680869508797186
 40
1.0
 40
1.0
 40
1.0
 40
1.0
 10
20.32490678609124
 20
-5.001751678653684
 30
0.0
 10
20.32428260392495
 20
-4.584941078079906
 30
0.0
 10
20.32267594483613
 20
-3.512061114676172
 30
0.0
 10
20.68383213356198
 20
-1.915725536202655
 30
0.0
 10
21.09236731105517
 20
-0.6573756444131184
 30
0.0
 10
21.49890098174784
 20
-0.1812121364622062
 30
0.0
 10
21.53405515201563
 20
-0.1400368679898845
 30
0.0
  0
SPLINE
  5
80
330
1F
100
AcDbEntity
  8
0
  6
Continuous
 62
     7
370
    25
100
AcDbSpline
210
0.0
220
0.0
230
1.0
 70
     8
 71
     3
 72
    11
 73
     7
 74
     0
 42
0.000000001
 43
0.00000001
 40
0.0
 40
0.0
 40
0.0
 40
0.0
 40
0.03195864857867
 40
0.3690824350613701
 40
0.754891095777084
 40
1.0
 40
1.0
 40
1.0
 40
1.0
 10
16.53568775963866
 20
-0.139853141627809
 30
0.0
 10
16.57089446703287
 20
-0.181088679353722
 30
0.0
 10
16.97748792055649
 20
-0.6573075857158259
 30
0.0
 10
17.38607183103476
 20
-1.915720282382995
 30
0.0
 10
17.74721876166338
 20
-3.512060162076998
 30
0.0
 10
17.74561305791835
 20
-4.584937719302813
 30
0.0
 10
17.74498924855351
 20
-5.001746280406286
 30
0.0
  0
SPLINE
  5
81
330
1F
100
AcDbEntity
  8
0
  6
Continuous
 62
     7
370
    25
100
AcDbSpline
210
0.0
220
0.0
230
1.0
 70
     8
 71
     3
 72
    11
 73
     7
 74
     0
 42
0.000000001
 43
0.00000001
 40
0.0
 40
0.0
 40
0.0
 40
0.0
 40
0.244792395945102
 40
0.6301456327208429
 40
0.9668714648320257
 40
1.0
 40
1.0
 40
1.0
 40
1.0
 10
-17.74498548668251
 20
-5.001608042504276
 30
0.0
 10
-17.74559975751194
 20
-4.584851702543937
 30
0.0
 10
-17.74718101610856
 20
-3.512035749577716
 30
0.0
 10
-17.38627099003646
 20
-1.915585843215238
 30
0.0
 10
-16.97643656155406
 20
-0.6555589851784637
 30
0.0
 10
-16.5683075401499
 20
-0.17791698379813
 30
0.0
 10
-16.53175067389434
 20
-0.1351337122179226
 30
0.0
  0
SPLINE
  5
82
330
1F
100
AcDbEntity
  8
0
  6
Continuous
 62
     7
370
    25
100
AcDbSpline
210
0.0
220
0.0
230
1.0
 70
     8
 71
     3
 72
    11
 73
     7
 74
     0
 42
0.000000001
 43
0.00000001
 40
0.0
 40
0.0
 40
0.0
 40
0.0
 40
0.0355859427893811
 40
0.3714756674547269
 40
0.7558720524542694
 40
1.0
 40
1.0
 40
1.0
 40
1.0
 10
-21.54644600488667
 20
-0.1251838125956861
 30
0.0
 10
-21.50703873348937
 20
-0.1712275351068819
 30
0.0
 10
-21.09567285984862
 20
-0.6518702049717711
 30
0.0
 10
-20.68321008611233
 20
-1.915305631511832
 30
0.0
 10
-20.32279384333683
 20
-3.511984644282432
 30
0.0
 10
-20.32432415725292
 20
-4.584671995808035
 30
0.0
 10
-20.32491855332654
 20
-5.001319288404853
 30
0.0
  0
SPLINE
  5
87
330
1F
100
AcDbEntity
  8
0
  6
Continuous
 62
     7
370
    25
100
AcDbSpline
210
0.0
220
0.0
230
1.0
 70
     8
 71
     3
 72
    11
 73
     7
 74
     0
 42
0.000000001
 43
0.00000001
 40
0.0
 40
0.0
 40
0.0
 40
0.0
 40
0.245070898863725
 40
0.6308248862512059
 40
0.9679008985865752
 40
1.0
 40
1.0
 40
1.0
 40
1.0
 10
-35.48273663146332
 20
-5.001729657766601
 30
0.0
 10
-35.48335929303226
 20
-4.584927376633033
 30
0.0
 10
-35.48496205539702
 20
-3.512057228425302
 30
0.0
 10
-35.12384362958468
 20
-1.915704106343626
 30
0.0
 10
-34.71510961024931
 20
-0.6570979092023511
 30
0.0
 10
-34.30833198410186
 20
-0.180708334618012
 30
0.0
 10
-34.27296341296002
 20
-0.1392871317866459
 30
0.0
  0
SPLINE
  5
88
330
1F
100
AcDbEntity
  8
0
  6
Continuous
 62
     7
370
    25
100
AcDbSpline
210
0.0
220
0.0
230
1.0
 70
     8
 71
     3
 72
    11
 73
     7
 74
     0
 42
0.000000001
 43
0.00000001
 40
0.0
 40
0.0
 40
0.0
 40
0.0
 40
0.0318287224054424
 40
0.3689967017336417
 40
0.7548559372922353
 40
1.0
 40
1.0
 40
1.0
 40
1.0
 10
-39.27151958367379
 20
-0.1403765870698626
 30
0.0
 10
-39.23646255232723
 20
-0.1814404114950027
 30
0.0
 10
-38.83003942372446
 20
-0.6575014855284347
 30
0.0
 10
-38.42159436594289
 20
-1.915735254763861
 30
0.0
 10
-38.06042105152187
 20
-3.51206287651857
 30
0.0
 10
-38.06202947780533
 20
-4.58494729063479
 30
0.0
 10
-38.06265434958458
 20
-5.001761663578478
 30
0.0
  0
SPLINE
  5
89
330
1F
100
AcDbEntity
  8
0
  6
Continuous
 62
     7
370
    25
100
AcDbSpline
210
0.0
220
0.0
230
1.0
 70
     8
 71
     3
 72
    11
 73
     7
 74
     0
 42
0.000000001
 43
0.00000001
 40
0.0
 40
0.0
 40
0.0
 40
0.0
 40
0.2446574003778147
 40
0.6298163193608292
 40
0.9663723544800573
 40
1.0
 40
1.0
 40
1.0
 40
1.0
 10
38.06266013115413
 20
-5.001549217214796
 30
0.0
 10
38.06204991462151
 20
-4.584815096108176
 30
0.0
 10
38.06047904723719
 20
-3.512025350520569
 30
0.0
 10
38.42128836339341
 20
-1.915528692284941
 30
0.0
 10
38.8316564450087
 20
-0.6548115072347732
 30
0.0
 10
39.24044164258461
 20
-0.1765613071058117
 30
0.0
 10
39.27757586658429
 20
-0.1331168522556922
 30
0.0
  0
SPLINE
  5
8A
330
1F
100
AcDbEntity
  8
0
  6
Continuous
 62
     7
370
    25
100
AcDbSpline
210
0.0
220
0.0
230
1.0
 70
     8
 71
     3
 72
    11
 73
     7
 74
     0
 42
0.000000001
 43
0.00000001
 40
0.0
 40
0.0
 40
0.0
 40
0.0
 40
0.0363901836929035
 40
0.3720062197367385
 40
0.7560893920696232
 40
1.0
 40
1.0
 40
1.0
 40
1.0
 10
34.25847248958262
 20
-0.121916697990887
 30
0.0
 10
34.29881684392073
 20
-0.1690302487785851
 30
0.0
 10
34.71124539530422
 20
-0.6506583184473953
 30
0.0
 10
35.12456883960321
 20
-1.915214562833979
 30
0.0
 10
35.48482460244492
 20
-3.511967971847756
 30
0.0
 10
35.48331084357639
 20
-4.584613471392256
 30
0.0
 10
35.4827229048778
 20
-5.001225266142842
 30
0.0
  0
SPLINE
  5
8F
330
1F
100
AcDbEntity
  8
0
  6
Continuous
 62
     7
370
    25
100
AcDbSpline
210
0.0
220
0.0
230
1.0
 70
     8
 71
     3
 72
    11
 73
     7
 74
     0
 42
0.000000001
 43
0.00000001
 40
0.0
 40
0.0
 40
0.0
 40
0.0
 40
0.2441869079119869
 40
0.6286682424922749
 40
0.9646321970213753
 40
1.0
 40
1.0
 40
1.0
 40
1.0
 10
53.29441507099413
 20
-5.001344831499752
 30
0.0
 10
53.29381891945671
 20
-4.584687894385282
 30
0.0
 10
53.29228410523393
 20
-3.511989171027099
 30
0.0
 10
53.65274397100168
 20
-1.915330386576496
 30
0.0
 10
54.06497334157209
 20
-0.6521985171442958
 30
0.0
 10
54.47605126305779
 20
-0.1718228373514229
 30
0.0
 10
54.5152047225775
 20
-0.1260690550391637
 30
0.0
  0
SPLINE
  5
90
330
1F
100
AcDbEntity
  8
0
  6
Continuous
 62
     7
370
    25
100
AcDbSpline
210
0.0
220
0.0
230
1.0
 70
     8
 71
     3
 72
    11
 73
     7
 74
     0
 42
0.000000001
 43
0.00000001
 40
0.0
 40
0.0
 40
0.0
 40
0.0
 40
0.0329989255273097
 40
0.3697688490687366
 40
0.7551725446264848
 40
0.9999999999999999
 40
0.9999999999999999
 40
0.9999999999999999
 40
0.9999999999999999
 10
49.50168452846803
 20
-0.135657119815686
 30
0.0
 10
49.53809159660667
 20
-0.1782687798382414
 30
0.0
 10
49.94605032460984
 20
-0.6557529473275419
 30
0.0
 10
50.35574618750027
 20
-1.915600704257205
 30
0.0
 10
50.71668240129248
 20
-3.512038451603781
 30
0.0
 10
50.71509844059942
 20
-4.584861217465933
 30
0.0
 10
50.71448311546781
 20
-5.00162333315109
 30
0.0
  0
SPLINE
  5
91
330
1F
100
AcDbEntity
  8
0
  6
Continuous
 62
     7
370
    25
100
AcDbSpline
210
0.0
220
0.0
230
1.0
 70
     8
 71
     3
 72
    11
 73
     7
 74
     0
 42
0.000000001
 43
0.00000001
 40
0.0
 40
0.0
 40
0.0
 40
0.0
 40
0.2437437693773409
 40
0.6275864306756931
 40
0.962992305573476
 40
1.0
 40
1.0
 40
1.0
 40
1.0
 10
-50.71447032218013
 20
-5.001153234927984
 30
0.0
 10
-50.71505331840272
 20
-4.584568632291306
 30
0.0
 10
-50.7165544050535
 20
-3.511955188628405
 30
0.0
 10
-50.35642148942118
 20
-1.915144849991671
 30
0.0
 10
-49.94243703640844
 20
-0.649726248478203
 30
0.0
 10
-49.52919141666525
 20
-0.1673404404423512
 30
0.0
 10
-49.48812613634718
 20
-0.1194045217488594
 30
0.0
  0
SPLINE
  5
92
330
1F
100
AcDbEntity
  8
0
  6
Continuous
 62
     7
370
    25
100
AcDbSpline
210
0.0
220
0.0
230
1.0
 70
     8
 71
     3
 72
    11
 73
     7
 74
     0
 42
0.000000001
 43
0.00000001
 40
0.0
 40
0.0
 40
0.0
 40
0.0
 40
0.0340297571065909
 40
0.3704489866821498
 40
0.7554513436968531
 40
1.0
 40
1.0
 40
1.0
 40
1.0
 10
-54.51068201830355
 20
-0.1314904717646184
 30
0.0
 10
-54.47308205971651
 20
-0.1754679937521209
 30
0.0
 10
-54.06376774947229
 20
-0.6542086561092779
 30
0.0
 10
-53.65296966284733
 20
-1.915482737055888
 30
0.0
 10
-53.29224132792728
 20
-3.512016979546409
 30
0.0
 10
-53.29380383999683
 20
-4.584785643568935
 30
0.0
 10
-53.29441079673106
 20
-5.001501890165422
 30
0.0
  0
SPLINE
  5
97
330
1F
100
AcDbEntity
  8
0
  6
Continuous
 62
     7
370
    25
100
AcDbSpline
210
0.0
220
0.0
230
1.0
 70
     8
 71
     3
 72
    11
 73
     7
 74
     0
 42
0.000000001
 43
0.00000001
 40
0.0
 40
0.0
 40
0.0
 40
0.0
 40
0.2440836842549178
 40
0.6284162902499516
 40
0.964250284130356
 40
1.0
 40
1.0
 40
1.0
 40
1.0
 10
21.79397352324004
 20
-5.001300120712672
 30
0.0
 10
21.79338044401183
 20
-4.58466006510785
 30
0.0
 10
21.79185350602929
 20
-3.51198124631687
 30
0.0
 10
22.15223702448842
 20
-1.915287061257886
 30
0.0
 10
22.56487504237942
 20
-0.6516236066280088
 30
0.0
 10
22.97645718211871
 20
-0.170780407974306
 30
0.0
 10
23.01605510895623
 20
-0.1245189404269695
 30
0.0
  0
SPLINE
  5
98
330
1F
100
AcDbEntity
  8
0
  6
Continuous
 62
     7
370
    25
100
AcDbSpline
210
0.0
220
0.0
230
1.0
 70
     8
 71
     3
 72
    11
 73
     7
 74
     0
 42
0.000000001
 43
0.00000001
 40
0.0
 40
0.0
 40
0.0
 40
0.0
 40
0.0337430663426002
 40
0.3702598340621097
 40
0.7553738149437546
 40
1.0
 40
1.0
 40
1.0
 40
1.0
 10
-23.00927181063348
 20
-0.132650156837489
 30
0.0
 10
-22.97200395688558
 20
-0.1762475867813813
 30
0.0
 10
-22.56306692655034
 20
-0.6546385253126813
 30
0.0
 10
-22.15257542357645
 20
-1.915515493349434
 30
0.0
 10
-21.79178936634975
 20
-3.512022946400562
 30
0.0
 10
-21.79335783393626
 20
-4.584806637119629
 30
0.0
 10
-21.79396711418043
 20
-5.001535624479549
 30
0.0
  0
SPLINE
  5
9B
330
1F
100
AcDbEntity
  8
0
  6
Continuous
 62
     7
370
    25
100
AcDbSpline
210
0.0
220
0.0
230
1.0
 70
     8
 71
     3
 72
    11
 73
     7
 74
     0
 42
0.000000001
 43
0.00000001
 40
0.0
 40
0.0
 40
0.0
 40
0.0
 40
0.2441869075960242
 40
0.6286682423302546
 40
0.9646321969938713
 40
1.0
 40
1.0
 40
1.0
 40
1.0
 10
39.17642632836723
 20
-5.001344829389677
 30
0.0
 10
39.17583017684876
 20
-4.584687892982959
 30
0.0
 10
39.17429536267309
 20
-3.511989170335378
 30
0.0
 10
39.53475522834425
 20
-1.915330386577103
 30
0.0
 10
39.94698459891472
 20
-0.6521985171248739
 30
0.0
 10
40.35806252041753
 20
-0.1718228373162739
 30
0.0
 10
40.39721597995226
 20
-0.1260690549868999
 30
0.0
  0
SPLINE
  5
9C
330
1F
100
AcDbEntity
  8
0
  6
Continuous
 62
     7
370
    25
100
AcDbSpline
210
0.0
220
0.0
230
1.0
 70
     8
 71
     3
 72
    11
 73
     7
 74
     0
 42
0.000000001
 43
0.00000001
 40
0.0
 40
0.0
 40
0.0
 40
0.0
 40
0.0340297571238634
 40
0.3704489868375197
 40
0.7554513440102563
 40
1.0
 40
1.0
 40
1.0
 40
1.0
 10
-40.39269327573086
 20
-0.1314904717516913
 30
0.0
 10
-40.3550933171401
 20
-0.1754679937434264
 30
0.0
 10
-39.94577900689148
 20
-0.6542086561044727
 30
0.0
 10
-39.53498092027684
 20
-1.915482737057564
 30
0.0
 10
-39.17425258545143
 20
-3.51201697885542
 30
0.0
 10
-39.17581509747406
 20
-4.584785642168312
 30
0.0
 10
-39.17642205418941
 20
-5.001501888057942
 30
0.0
  0
SPLINE
  5
9F
330
1F
100
AcDbEntity
  8
0
  6
Continuous
 62
     7
370
    25
100
AcDbSpline
210
0.0
220
0.0
230
1.0
 70
     8
 71
     3
 72
    11
 73
     7
 74
     0
 42
0.000000001
 43
0.00000001
 40
0.0
 40
0.0
 40
0.0
 40
0.0
 40
0.2449063879394859
 40
0.6304236753504422
 40
0.9672928566835359
 40
1.0
 40
1.0
 40
1.0
 40
1.0
 10
-62.40221642441061
 20
-5.001657778380832
 30
0.0
 10
-62.40283412526315
 20
-4.584882651258185
 30
0.0
 10
-62.40442417460817
 20
-3.512044536883526
 30
0.0
 10
-62.04342895273994
 20
-1.915634190263142
 30
0.0
 10
-61.63404501291986
 20
-0.6561893853796914
 30
0.0
 10
-61.22646950027669
 20
-0.1790603828875255
 30
0.0
 10
-61.19039946598285
 20
-0.1368349327595976
 30
0.0
  0
SPLINE
  5
A0
330
1F
100
AcDbEntity
  8
0
  6
Continuous
 62
     7
370
    25
100
AcDbSpline
210
0.0
220
0.0
230
1.0
 70
     8
 71
     3
 72
    11
 73
     7
 74
     0
 42
0.000000001
 43
0.00000001
 40
0.0
 40
0.0
 40
0.0
 40
0.0
 40
0.0348569632991493
 40
0.3709947416141607
 40
0.7556750023003269
 40
1.0
 40
1.0
 40
1.0
 40
1.0
 10
-66.20120896552828
 20
-0.1281405822897742
 30
0.0
 10
-66.16264928252583
 20
-0.1732157770480657
 30
0.0
 10
-65.75224521176825
 20
-0.6529666976616209
 30
0.0
 10
-65.34056235494579
 20
-1.915388448233329
 30
0.0
 10
-64.98000017390888
 20
-3.51199977930074
 30
0.0
 10
-64.98154554363241
 20
-4.584725166662331
 30
0.0
 10
-64.98214581278616
 20
-5.001404716324747
 30
0.0
  0
SPLINE
  5
A5
330
1F
100
AcDbEntity
  8
0
  6
Continuous
 62
     7
370
    25
100
AcDbSpline
210
0.0
220
0.0
230
1.0
 70
     8
 71
     3
 72
    11
 73
     7
 74
     0
 42
0.000000001
 43
0.00000001
 40
0.0
 40
0.0
 40
0.0
 40
0.0
 40
0.245150235566603
 40
0.6310183503675927
 40
0.9681940884739625
 40
1.0
 40
1.0
 40
1.0
 40
1.0
 10
64.98213602510164
 20
-5.001764365001368
 30
0.0
 10
64.98151096672525
 20
-4.584948971432839
 30
0.0
 10
64.9799020622727
 20
-3.512063353152565
 30
0.0
 10
65.34108001037426
 20
-1.915737884298462
 30
0.0
 10
65.74950069063561
 20
-0.6575355219982821
 30
0.0
 10
66.15589392002644
 20
-0.1815021538455024
 30
0.0
 10
66.1909246786337
 20
-0.1404684731570668
 30
0.0
  0
SPLINE
  5
A6
330
1F
100
AcDbEntity
  8
0
  6
Continuous
 62
     7
370
    25
100
AcDbSpline
210
0.0
220
0.0
230
1.0
 70
     8
 71
     3
 72
    11
 73
     7
 74
     0
 42
0.000000001
 43
0.00000001
 40
0.0
 40
0.0
 40
0.0
 40
0.0
 40
0.0321674448252482
 40
0.3692202102857533
 40
0.7549475936589808
 40
1.0
 40
1.0
 40
1.0
 40
1.0
 10
61.19221535306095
 20
-0.1390116570334915
 30
0.0
 10
61.22766270890837
 20
-0.1805232181305988
 30
0.0
 10
61.63452997023929
 20
-0.6569958568754322
 30
0.0
 10
62.04333703392891
 20
-1.915696238716774
 30
0.0
 10
62.4044415956279
 20
-3.512055801206043
 30
0.0
 10
62.40284026389699
 20
-4.584922345515531
 30
0.0
 10
62.40221816058867
 20
-5.001721571890421
 30
0.0
  0
SPLINE
  5
A7
330
1F
100
AcDbEntity
  8
0
  6
Continuous
 62
     7
370
    25
100
AcDbSpline
210
0.0
220
0.0
230
1.0
 70
     8
 71
     3
 72
    11
 73
     7
 74
     0
 42
0.000000001
 43
0.00000001
 40
0.0
 40
0.0
 40
0.0
 40
0.0
 40
0.0327897273775021
 40
0.3696308159575648
 40
0.7551159536720019
 40
1.0
 40
1.0
 40
1.0
 40
1.0
 10
46.99898476402718
 20
-0.136501643179316
 30
0.0
 10
47.03515016234434
 20
-0.1788363854563768
 30
0.0
 10
47.44283411578188
 20
-0.6560658894125271
 30
0.0
 10
47.85230633720996
 20
-1.915624708359973
 30
0.0
 10
48.21328485025866
 20
-3.512042813523054
 30
0.0
 10
48.21169652502075
 20
-4.584876581495849
 30
0.0
 10
48.21107949690295
 20
-5.00164802399201
 30
0.0
  0
SPLINE
  5
A8
330
1F
100
AcDbEntity
  8
0
  6
Continuous
 62
     7
370
    25
100
AcDbSpline
210
0.0
220
0.0
230
1.0
 70
     8
 71
     3
 72
    11
 73
     7
 74
     0
 42
0.000000001
 43
0.00000001
 40
0.0
 40
0.0
 40
0.0
 40
0.0
 40
0.2436204852412469
 40
0.6272853805578793
 40
0.9625359216154321
 40
1.0
 40
1.0
 40
1.0
 40
1.0
 10
-48.21106458519414
 20
-5.001100086570245
 30
0.0
 10
-48.21164393726195
 20
-4.584535545902716
 30
0.0
 10
-48.21313567996976
 20
-3.511945750505202
 30
0.0
 10
-47.85309335012683
 20
-1.915093444798653
 30
0.0
 10
-47.43862026809212
 20
-0.6490365101094603
 30
0.0
 10
-47.02477014776379
 20
-0.1660900477173585
 30
0.0
 10
-46.9831712607369
 20
-0.1175458179533406
 30
0.0
  0
SPLINE
  5
AB
330
1F
100
AcDbEntity
  8
0
  6
Continuous
 62
     7
370
    25
100
AcDbSpline
210
0.0
220
0.0
230
1.0
 70
     8
 71
     3
 72
    11
 73
     7
 74
     0
 42
0.000000001
 43
0.00000001
 40
0.0
 40
0.0
 40
0.0
 40
0.0
 40
0.2445015452995294
 40
0.6294360664988315
 40
0.9657960204041538
 40
1.0
 40
1.0
 40
1.0
 40
1.0
 10
72.32935944500564
 20
-5.001481403105561
 30
0.0
 10
72.32875389882985
 20
-4.584772893703078
 30
0.0
 10
72.32719500233077
 20
-3.512013354643441
 30
0.0
 10
72.68788829381218
 20
-1.915462850626042
 30
0.0
 10
73.09887270619818
 20
-0.6539472817773638
 30
0.0
 10
73.5084163921694
 20
-0.1749939889541044
 30
0.0
 10
73.54621830059104
 20
-0.1307853998982061
 30
0.0
  0
SPLINE
  5
AC
330
1F
100
AcDbEntity
  8
0
  6
Continuous
 62
     7
370
    25
100
AcDbSpline
210
0.0
220
0.0
230
1.0
 70
     8
 71
     3
 72
    11
 73
     7
 74
     0
 42
0.000000001
 43
0.00000001
 40
0.0
 40
0.0
 40
0.0
 40
0.0
 40
0.0374359750857177
 40
0.3726948855416097
 40
0.7563693589019626
 40
1.0
 40
1.0
 40
1.0
 40
1.0
 10
68.5216187285789
 20
-0.117659799233838
 30
0.0
 10
68.56318488790777
 20
-0.1661667290081131
 30
0.0
 10
68.97699793693364
 20
-0.6490788102028398
 30
0.0
 10
69.39144119757762
 20
-1.915096575349617
 30
0.0
 10
69.75148978241766
 20
-3.511952090969227
 30
0.0
 10
69.74999721237086
 20
-4.584549244699907
 30
0.0
 10
69.74941753305848
 20
-5.001120903658808
 30
0.0
  0
SPLINE
  5
AD
330
1F
100
AcDbEntity
  8
0
  6
Continuous
 62
     7
370
    25
100
AcDbSpline
210
0.0
220
0.0
230
1.0
 70
     8
 71
     3
 72
    11
 73
     7
 74
     0
 42
0.000000001
 43
0.00000001
 40
0.0
 40
0.0
 40
0.0
 40
0.0
 40
0.244999255083779
 40
0.6306501685994984
 40
0.9676361138702599
 40
1.0
 40
1.0
 40
1.0
 40
1.0
 10
-69.74943324764028
 20
-5.00169833987324
 30
0.0
 10
-69.7500537472914
 20
-4.584907890108021
 30
0.0
 10
-69.75165096932973
 20
-3.512051699891383
 30
0.0
 10
-69.39058623484094
 20
-1.91567363745742
 30
0.0
 10
-68.98156920914803
 20
-0.6567024334827621
 30
0.0
 10
-68.57444424130578
 20
-0.17999097503155
 30
0.0
 10
-68.5387703490236
 20
-0.138219640523133
 30
0.0
  0
SPLINE
  5
AE
330
1F
100
AcDbEntity
  8
0
  6
Continuous
 62
     7
370
    25
100
AcDbSpline
210
0.0
220
0.0
230
1.0
 70
     8
 71
     3
 72
    11
 73
     7
 74
     0
 42
0.000000001
 43
0.00000001
 40
0.0
 40
0.0
 40
0.0
 40
0.0
 40
0.031777793455034
 40
0.368963095471429
 40
0.7548421553301852
 40
1.0
 40
1.0
 40
1.0
 40
1.0
 10
-73.5380459143699
 20
-0.1405817316814419
 30
0.0
 10
-73.50304753883584
 20
-0.1815782568647117
 30
0.0
 10
-73.09669116321783
 20
-0.6575774748908068
 30
0.0
 10
-72.68830053192583
 20
-1.915741125976936
 30
0.0
 10
-72.32711687145532
 20
-3.512063940708604
 30
0.0
 10
-72.32872636537364
 20
-4.584951043443638
 30
0.0
 10
-72.32935165377944
 20
-5.001767695200419
 30
0.0
  0
SPLINE
  5
C3
330
1F
100
AcDbEntity
  8
0
  6
Continuous
 62
     7
370
    25
100
AcDbSpline
210
0.0
220
0.0
230
1.0
 70
     8
 71
     3
 72
    10
 73
     6
 74
     0
 42
0.000000001
 43
0.00000001
 40
0.0
 40
0.0
 40
0.0
 40
0.0
 40
0.0568461230552389
 40
0.4721943471472744
 40
1.0
 40
1.0
 40
1.0
 40
1.0
 10
11.22361816426608
 20
35.8
 30
0.0
 10
11.2743899220931
 20
35.88708532136724
 30
0.0
 10
11.69612733798245
 20
36.6104626470145
 30
0.0
 10
12.30801131647406
 20
38.28908823717152
 30
0.0
 10
12.75170252377685
 20
39.8990415471065
 30
0.0
 10
13.0
 20
40.79999999999999
 30
0.0
  0
SPLINE
  5
C4
330
1F
100
AcDbEntity
  8
0
  6
Continuous
 62
     7
370
    25
100
AcDbSpline
210
0.0
220
0.0
230
1.0
 70
     8
 71
     3
 72
    10
 73
     6
 74
     0
 42
0.000000001
 43
0.00000001
 40
0.0
 40
0.0
 40
0.0
 40
0.0
 40
0.4543108055235204
 40
0.827252155839968
 40
1.0
 40
1.0
 40
1.0
 40
1.0
 10
-13.0
 20
40.79999999999999
 30
0.0
 10
-12.78802106112312
 20
40.02202603264527
 30
0.0
 10
-12.40202972645412
 20
38.60541732808245
 30
0.0
 10
-11.82257334883258
 20
36.91631468090824
 30
0.0
 10
-11.3508018043214
 20
36.068417333963
 30
0.0
 10
-11.20145393730245
 20
35.8
 30
0.0
  0
SPLINE
  5
C5
330
1F
100
AcDbEntity
  8
0
  6
Continuous
 62
     7
370
    25
100
AcDbSpline
210
0.0
220
0.0
230
1.0
 70
     8
 71
     3
 72
    11
 73
     7
 74
     0
 42
0.000000001
 43
0.00000001
 40
0.0
 40
0.0
 40
0.0
 40
0.0
 40
0.2438450853972501
 40
0.627833809716286
 40
0.9633673160626347
 40
1.0
 40
1.0
 40
1.0
 40
1.0
 10
33.24618916582788
 20
-5.001196962377375
 30
0.0
 10
33.24560316968197
 20
-4.584595852744052
 30
0.0
 10
33.24409439130259
 20
-3.511962949903229
 30
0.0
 10
33.60430187283713
 20
-1.915187164333386
 30
0.0
 10
34.01788488145845
 20
-0.6502924507454343
 30
0.0
 10
34.43063418389855
 20
-0.1683669298105303
 30
0.0
 10
34.47126150345741
 20
-0.1209305270671764
 30
0.0
  0
SPLINE
  5
C6
330
1F
100
AcDbEntity
  8
0
  6
Continuous
 62
     7
370
    25
100
AcDbSpline
210
0.0
220
0.0
230
1.0
 70
     8
 71
     3
 72
    11
 73
     7
 74
     0
 42
0.000000001
 43
0.00000001
 40
0.0
 40
0.0
 40
0.0
 40
0.0
 40
0.0356926616047364
 40
0.3715460706670177
 40
0.7559008956380336
 40
0.9999999999999999
 40
0.9999999999999999
 40
0.9999999999999999
 40
0.9999999999999999
 10
29.44435605293541
 20
-0.1247505895886972
 30
0.0
 10
29.48388755059107
 20
-0.1709361940047567
 30
0.0
 10
29.89539434109595
 20
-0.6517095258509811
 30
0.0
 10
30.30797130736508
 20
-1.915293529175056
 30
0.0
 10
30.66836622358231
 20
-3.511982430405541
 30
0.0
 10
30.66683810976503
 20
-4.584664221693475
 30
0.0
 10
30.66624457188303
 20
-5.001306798495698
 30
0.0
  0
SPLINE
  5
C7
330
1F
100
AcDbEntity
  8
0
  6
Continuous
 62
     7
370
    25
100
AcDbSpline
210
0.0
220
0.0
230
1.0
 70
     8
 71
     3
 72
    11
 73
     7
 74
     0
 42
0.000000001
 43
0.00000001
 40
0.0
 40
0.0
 40
0.0
 40
0.0
 40
0.2446151664641111
 40
0.6297132834161232
 40
0.9662161890620945
 40
1.0
 40
1.0
 40
1.0
 40
1.0
 10
-30.66625066885072
 20
-5.001530830127867
 30
0.0
 10
-30.66685961870635
 20
-4.584803653610574
 30
0.0
 10
-30.66842723946581
 20
-3.51202209878439
 30
0.0
 10
-30.30764939000048
 20
-1.915510835558527
 30
0.0
 10
-29.89711431700171
 20
-0.6545774498502785
 30
0.0
 10
-29.48812368022396
 20
-0.1761368212360725
 30
0.0
 10
-29.45080864371455
 20
-0.1324853829905021
 30
0.0
  0
SPLINE
  5
C8
330
1F
100
AcDbEntity
  8
0
  6
Continuous
 62
     7
370
    25
100
AcDbSpline
210
0.0
220
0.0
230
1.0
 70
     8
 71
     3
 72
    11
 73
     7
 74
     0
 42
0.000000001
 43
0.00000001
 40
0.0
 40
0.0
 40
0.0
 40
0.0
 40
0.0321664445117748
 40
0.3692195502280384
 40
0.7549473229952727
 40
1.0
 40
1.0
 40
1.0
 40
1.0
 10
-34.45617433252221
 20
-0.1390156893148198
 30
0.0
 10
-34.42072812992105
 20
-0.1805259278062285
 30
0.0
 10
-34.01386218062708
 20
-0.6569973506905767
 30
0.0
 10
-33.60505618607898
 20
-1.915696353858902
 30
0.0
 10
-33.24395142143494
 20
-3.512055822090733
 30
0.0
 10
-33.24555277412229
 20
-4.584922419145359
 30
0.0
 10
-33.24617488560816
 20
-5.001721690226502
 30
0.0
  0
SPLINE
  5
CD
330
1F
100
AcDbEntity
  8
0
  6
Continuous
 62
     7
370
    25
100
AcDbSpline
210
0.0
220
0.0
230
1.0
 70
     8
 71
     3
 72
    10
 73
     6
 74
     0
 42
0.000000001
 43
0.00000001
 40
0.0
 40
0.0
 40
0.0
 40
0.0
 40
0.2451398960816938
 40
0.5137143691210911
 40
1.0
 40
1.0
 40
1.0
 40
1.0
 10
11.0
 20
-0.0999999999999994
 30
0.0
 10
11.20751315895997
 20
-0.4642110159347075
 30
0.0
 10
11.64237706011754
 20
-1.227450436642866
 30
0.0
 10
12.11995290891827
 20
-2.881870411993708
 30
0.0
 10
12.19904705389736
 20
-4.170108751849995
 30
0.0
 10
12.25
 20
-5.000000000000008
 30
0.0
  0
SPLINE
  5
CE
330
1F
100
AcDbEntity
  8
0
  6
Continuous
 62
     7
370
    25
100
AcDbSpline
210
0.0
220
0.0
230
1.0
 70
     8
 71
     3
 72
    10
 73
     6
 74
     0
 42
0.000000001
 43
0.00000001
 40
0.0
 40
0.0
 40
0.0
 40
0.0
 40
0.3199108967076886
 40
0.6055147282009645
 40
1.0
 40
1.0
 40
1.0
 40
1.0
 10
14.75
 20
-5.000000000000008
 30
0.0
 10
14.77693360177175
 20
-4.455470906961703
 30
0.0
 10
14.82791246096077
 20
-3.424807715548491
 30
0.0
 10
15.14768166664295
 20
-1.734239833429293
 30
0.0
 10
15.68710678647527
 20
-0.699943158723064
 30
0.0
 10
16.0
 20
-0.0999999999999994
 30
0.0
  0
SPLINE
  5
D1
330
1F
100
AcDbEntity
  8
0
  6
Continuous
 62
     7
370
    25
100
AcDbSpline
210
0.0
220
0.0
230
1.0
 70
     8
 71
     3
 72
    10
 73
     6
 74
     0
 42
0.000000001
 43
0.00000001
 40
0.0
 40
0.0
 40
0.0
 40
0.0
 40
0.2451398960816938
 40
0.513714369121091
 40
1.0
 40
1.0
 40
1.0
 40
1.0
 10
-16.0
 20
-0.0999999999999994
 30
0.0
 10
-15.79248684104003
 20
-0.4642110159347075
 30
0.0
 10
-15.35762293988246
 20
-1.227450436642866
 30
0.0
 10
-14.88004709108174
 20
-2.881870411993708
 30
0.0
 10
-14.80095294610264
 20
-4.170108751849995
 30
0.0
 10
-14.75
 20
-5.000000000000008
 30
0.0
  0
SPLINE
  5
D2
330
1F
100
AcDbEntity
  8
0
  6
Continuous
 62
     7
370
    25
100
AcDbSpline
210
0.0
220
0.0
230
1.0
 70
     8
 71
     3
 72
    10
 73
     6
 74
     0
 42
0.000000001
 43
0.00000001
 40
0.0
 40
0.0
 40
0.0
 40
0.0
 40
0.3199108967076886
 40
0.6055147282009642
 40
1.0
 40
1.0
 40
1.0
 40
1.0
 10
-12.25
 20
-5.000000000000008
 30
0.0
 10
-12.22306639822825
 20
-4.455470906961703
 30
0.0
 10
-12.17208753903922
 20
-3.424807715548494
 30
0.0
 10
-11.85231833335706
 20
-1.734239833429289
 30
0.0
 10
-11.31289321352473
 20
-0.699943158723064
 30
0.0
 10
-11.0
 20
-0.0999999999999994
 30
0.0
  0
SPLINE
  5
D3
330
1F
100
AcDbEntity
  8
0
  6
Continuous
 62
     7
370
    25
100
AcDbSpline
210
0.0
220
0.0
230
1.0
 70
     8
 71
     3
 72
    11
 73
     7
 74
     0
 42
0.000000001
 43
0.00000001
 40
0.0
 40
0.0
 40
0.0
 40
0.0
 40
0.2443780619764891
 40
0.6291347526422506
 40
0.9653393163012627
 40
1.0
 40
1.0
 40
1.0
 40
1.0
 10
74.83535936272482
 20
-5.001427751165625
 30
0.0
 10
74.83475750897037
 20
-4.584739503030049
 30
0.0
 10
74.833208077283
 20
-3.512003858105722
 30
0.0
 10
75.1938096302161
 20
-1.91541079093463
 30
0.0
 10
75.60528252609232
 20
-0.6532616090803162
 30
0.0
 10
76.01542786063293
 20
-0.1737505612890052
 30
0.0
 10
76.05375962078651
 20
-0.1289359530830432
 30
0.0
  0
SPLINE
  5
D4
330
1F
100
AcDbEntity
  8
0
  6
Continuous
 62
     7
370
    25
100
AcDbSpline
210
0.0
220
0.0
230
1.0
 70
     8
 71
     3
 72
    11
 73
     7
 74
     0
 42
0.000000001
 43
0.00000001
 40
0.0
 40
0.0
 40
0.0
 40
0.0
 40
0.0346606836987372
 40
0.3708652473577494
 40
0.755621938023511
 40
1.0
 40
1.0
 40
1.0
 40
1.0
 10
-76.05375962078651
 20
-0.1289359530830432
 30
0.0
 10
-76.01542786063291
 20
-0.1737505612890052
 30
0.0
 10
-75.60528252609238
 20
-0.6532616090803196
 30
0.0
 10
-75.19380963021607
 20
-1.91541079093463
 30
0.0
 10
-74.83320807728296
 20
-3.512003858105722
 30
0.0
 10
-74.83475750897038
 20
-4.584739503030049
 30
0.0
 10
-74.83535936272482
 20
-5.001427751165625
 30
0.0
  0
SPLINE
  5
D7
330
1F
100
AcDbEntity
  8
0
  6
Continuous
 62
     7
370
    25
100
AcDbSpline
210
0.0
220
0.0
230
1.0
 70
     8
 71
     3
 72
    11
 73
     7
 74
     0
 42
0.000000001
 43
0.00000001
 40
0.0
 40
0.0
 40
0.0
 40
0.0
 40
0.2443780616667433
 40
0.6291347524953774
 40
0.9653393162967081
 40
1.0
 40
1.0
 40
1.0
 40
1.0
 10
54.86950820970789
 20
-5.001427749060216
 30
0.0
 10
54.86890635596593
 20
-4.584739501630703
 30
0.0
 10
54.8673569243091
 20
-3.512003857414833
 30
0.0
 10
55.22795847715905
 20
-1.915410790937884
 30
0.0
 10
55.639431373009
 20
-0.6532616090949364
 30
0.0
 10
56.04957670753689
 20
-0.1737505613156366
 30
0.0
 10
56.08790846767916
 20
-0.1289359531226539
 30
0.0
  0
SPLINE
  5
D8
330
1F
100
AcDbEntity
  8
0
  6
Continuous
 62
     7
370
    25
100
AcDbSpline
210
0.0
220
0.0
230
1.0
 70
     8
 71
     3
 72
    11
 73
     7
 74
     0
 42
0.000000001
 43
0.00000001
 40
0.0
 40
0.0
 40
0.0
 40
0.0
 40
0.034660683716948
 40
0.3708652475137344
 40
0.7556219383371711
 40
1.0
 40
1.0
 40
1.0
 40
1.0
 10
-56.08790846761165
 20
-0.1289359530673648
 30
0.0
 10
-56.04957670745354
 20
-0.1737505612784615
 30
0.0
 10
-55.63943137290772
 20
-0.6532616090744493
 30
0.0
 10
-55.22795847704311
 20
-1.915410790936333
 30
0.0
 10
-54.86735692419587
 20
-3.512003857414046
 30
0.0
 10
-54.86890635585242
 20
-4.584739501628701
 30
0.0
 10
-54.86950820959427
 20
-5.0014277490571
 30
0.0
  0
LINE
  5
11E
330
1F
100
AcDbEntity
  8
0
  6
Continuous
 62
     7
370
    25
100
AcDbLine
 10
100.0
 20
0.5
 30
0.0
 11
100.0
 21
7.5
 31
0.0
  0
LINE
  5
11F
330
1F
100
AcDbEntity
  8
0
  6
Continuous
 62
     7
370
    25
100
AcDbLine
 10
-100.0
 20
7.5
 30
0.0
 11
-100.0
 21
0.5
 31
0.0
  0
LINE
  5
120
330
1F
100
AcDbEntity
  8
0
  6
Continuous
 62
     7
370
    25
100
AcDbLine
 10
86.0
 20
8.0
 30
0.0
 11
76.0
 21
11.0
 31
0.0
  0
LINE
  5
121
330
1F
100
AcDbEntity
  8
0
  6
Continuous
 62
     7
370
    25
100
AcDbLine
 10
-76.0
 20
11.0
 30
0.0
 11
-86.0
 21
8.0
 31
0.0
  0
LINE
  5
122
330
1F
100
AcDbEntity
  8
0
  6
Continuous
 62
     7
370
    25
100
AcDbLine
 10
2.5
 20
-0.1
 30
0.0
 11
2.5
 21
0.0
 31
0.0
  0
LINE
  5
123
330
1F
100
AcDbEntity
  8
0
  6
Continuous
 62
     7
370
    25
100
AcDbLine
 10
-2.5
 20
0.0
 30
0.0
 11
-2.5
 21
-0.1
 31
0.0
  0
LINE
  5
124
330
1F
100
AcDbEntity
  8
0
  6
Continuous
 62
     7
370
    25
100
AcDbLine
 10
21.5349480908
 20
-0.1
 30
0.0
 11
21.5349480908
 21
0.0
 31
0.0
  0
LINE
  5
125
330
1F
100
AcDbEntity
  8
0
  6
Continuous
 62
     7
370
    25
100
AcDbLine
 10
16.5349480908
 20
0.0
 30
0.0
 11
16.5349480908
 21
-0.1
 31
0.0
  0
LINE
  5
126
330
1F
100
AcDbEntity
  8
0
  6
Continuous
 62
     7
370
    25
100
AcDbLine
 10
-16.5349480908
 20
-0.1
 30
0.0
 11
-16.5349480908
 21
0.0
 31
0.0
  0
LINE
  5
127
330
1F
100
AcDbEntity
  8
0
  6
Continuous
 62
     7
370
    25
100
AcDbLine
 10
-21.5349480908
 20
0.0
 30
0.0
 11
-21.5349480908
 21
-0.1
 31
0.0
  0
LINE
  5
128
330
1F
100
AcDbEntity
  8
0
  6
Continuous
 62
     7
370
    25
100
AcDbLine
 10
39.272695926
 20
-0.1
 30
0.0
 11
39.272695926
 21
0.0
 31
0.0
  0
LINE
  5
129
330
1F
100
AcDbEntity
  8
0
  6
Continuous
 62
     7
370
    25
100
AcDbLine
 10
34.272695926
 20
0.0
 30
0.0
 11
34.272695926
 21
-0.1
 31
0.0
  0
LINE
  5
12A
330
1F
100
AcDbEntity
  8
0
  6
Continuous
 62
     7
370
    25
100
AcDbLine
 10
-34.272695926
 20
-0.1
 30
0.0
 11
-34.272695926
 21
0.0
 31
0.0
  0
LINE
  5
12B
330
1F
100
AcDbEntity
  8
0
  6
Continuous
 62
     7
370
    25
100
AcDbLine
 10
-39.272695926
 20
0.0
 30
0.0
 11
-39.272695926
 21
-0.1
 31
0.0
  0
LINE
  5
12C
330
1F
100
AcDbEntity
  8
0
  6
Continuous
 62
     7
370
    25
100
AcDbLine
 10
54.5044453036
 20
-0.1
 30
0.0
 11
54.5044453036
 21
0.0
 31
0.0
  0
LINE
  5
12D
330
1F
100
AcDbEntity
  8
0
  6
Continuous
 62
     7
370
    25
100
AcDbLine
 10
49.5044453036
 20
0.0
 30
0.0
 11
49.5044453036
 21
-0.1
 31
0.0
  0
LINE
  5
12E
330
1F
100
AcDbEntity
  8
0
  6
Continuous
 62
     7
370
    25
100
AcDbLine
 10
-49.5044453036
 20
-0.1
 30
0.0
 11
-49.5044453036
 21
0.0
 31
0.0
  0
LINE
  5
12F
330
1F
100
AcDbEntity
  8
0
  6
Continuous
 62
     7
370
    25
100
AcDbLine
 10
-54.5044453036
 20
0.0
 30
0.0
 11
-54.5044453036
 21
-0.1
 31
0.0
  0
LINE
  5
130
330
1F
100
AcDbEntity
  8
0
  6
Continuous
 62
     7
370
    25
100
AcDbLine
 10
23.0040025392
 20
-0.1
 30
0.0
 11
23.0040025392
 21
0.0
 31
0.0
  0
LINE
  5
131
330
1F
100
AcDbEntity
  8
0
  6
Continuous
 62
     7
370
    25
100
AcDbLine
 10
-23.0040025392
 20
0.0
 30
0.0
 11
-23.0040025392
 21
-0.1
 31
0.0
  0
LINE
  5
132
330
1F
100
AcDbEntity
  8
0
  6
Continuous
 62
     7
370
    25
100
AcDbLine
 10
40.386456561
 20
-0.1
 30
0.0
 11
40.386456561
 21
0.0
 31
0.0
  0
LINE
  5
133
330
1F
100
AcDbEntity
  8
0
  6
Continuous
 62
     7
370
    25
100
AcDbLine
 10
-40.386456561
 20
0.0
 30
0.0
 11
-40.386456561
 21
-0.1
 31
0.0
  0
LINE
  5
134
330
1F
100
AcDbEntity
  8
0
  6
Continuous
 62
     7
370
    25
100
AcDbLine
 10
66.1921776752
 20
-0.1
 30
0.0
 11
66.1921776752
 21
0.0
 31
0.0
  0
LINE
  5
135
330
1F
100
AcDbEntity
  8
0
  6
Continuous
 62
     7
370
    25
100
AcDbLine
 10
61.1921776752
 20
0.0
 30
0.0
 11
61.1921776752
 21
-0.1
 31
0.0
  0
LINE
  5
136
330
1F
100
AcDbEntity
  8
0
  6
Continuous
 62
     7
370
    25
100
AcDbLine
 10
-61.1921776752
 20
-0.1
 30
0.0
 11
-61.1921776752
 21
0.0
 31
0.0
  0
LINE
  5
137
330
1F
100
AcDbEntity
  8
0
  6
Continuous
 62
     7
370
    25
100
AcDbLine
 10
-66.1921776752
 20
0.0
 30
0.0
 11
-66.1921776752
 21
-0.1
 31
0.0
  0
LINE
  5
138
330
1F
100
AcDbEntity
  8
0
  6
Continuous
 62
     7
370
    25
100
AcDbLine
 10
47.0010410131
 20
0.0
 30
0.0
 11
47.0010410131
 21
-0.1
 31
0.0
  0
LINE
  5
139
330
1F
100
AcDbEntity
  8
0
  6
Continuous
 62
     7
370
    25
100
AcDbLine
 10
-47.0010410131
 20
-0.1
 30
0.0
 11
-47.0010410131
 21
0.0
 31
0.0
  0
LINE
  5
13A
330
1F
100
AcDbEntity
  8
0
  6
Continuous
 62
     7
370
    25
100
AcDbLine
 10
73.5393933944
 20
-0.1
 30
0.0
 11
73.5393933944
 21
0.0
 31
0.0
  0
LINE
  5
13B
330
1F
100
AcDbEntity
  8
0
  6
Continuous
 62
     7
370
    25
100
AcDbLine
 10
68.5393933944
 20
0.0
 30
0.0
 11
68.5393933944
 21
-0.1
 31
0.0
  0
LINE
  5
13C
330
1F
100
AcDbEntity
  8
0
  6
Continuous
 62
     7
370
    25
100
AcDbLine
 10
-68.5393933944
 20
-0.1
 30
0.0
 11
-68.5393933944
 21
0.0
 31
0.0
  0
LINE
  5
13D
330
1F
100
AcDbEntity
  8
0
  6
Continuous
 62
     7
370
    25
100
AcDbLine
 10
-73.5393933944
 20
0.0
 30
0.0
 11
-73.5393933944
 21
-0.1
 31
0.0
  0
LINE
  5
13E
330
1F
100
AcDbEntity
  8
0
  6
Continuous
 62
     7
370
    25
100
AcDbLine
 10
19.0
 20
11.0
 30
0.0
 11
17.0
 21
12.8
 31
0.0
  0
LINE
  5
13F
330
1F
100
AcDbEntity
  8
0
  6
Continuous
 62
     7
370
    25
100
AcDbLine
 10
-17.0
 20
12.8
 30
0.0
 11
-19.0
 21
11.0
 31
0.0
  0
LINE
  5
140
330
1F
100
AcDbEntity
  8
0
  6
Continuous
 62
     7
370
    25
100
AcDbLine
 10
16.75
 20
12.8
 30
0.0
 11
16.75
 21
19.8
 31
0.0
  0
LINE
  5
141
330
1F
100
AcDbEntity
  8
0
  6
Continuous
 62
     7
370
    25
100
AcDbLine
 10
-16.75
 20
19.8
 30
0.0
 11
-16.75
 21
12.8
 31
0.0
  0
LINE
  5
142
330
1F
100
AcDbEntity
  8
0
  6
Continuous
 62
     7
370
    25
100
AcDbLine
 10
15.25
 20
20.3
 30
0.0
 11
15.25
 21
35.3
 31
0.0
  0
LINE
  5
143
330
1F
100
AcDbEntity
  8
0
  6
Continuous
 62
     7
370
    25
100
AcDbLine
 10
-15.25
 20
35.3
 30
0.0
 11
-15.25
 21
20.3
 31
0.0
  0
LINE
  5
144
330
1F
100
AcDbEntity
  8
0
  6
Continuous
 62
     7
370
    25
100
AcDbLine
 10
13.0
 20
40.862145265
 30
0.0
 11
13.0
 21
54.3
 31
0.0
  0
LINE
  5
145
330
1F
100
AcDbEntity
  8
0
  6
Continuous
 62
     7
370
    25
100
AcDbLine
 10
-13.0
 20
54.3
 30
0.0
 11
-13.0
 21
40.862145265
 31
0.0
  0
LINE
  5
146
330
1F
100
AcDbEntity
  8
0
  6
Continuous
 62
     7
370
    25
100
AcDbLine
 10
29.4562153743
 20
0.0
 30
0.0
 11
29.4562153743
 21
-0.1
 31
0.0
  0
LINE
  5
147
330
1F
100
AcDbEntity
  8
0
  6
Continuous
 62
     7
370
    25
100
AcDbLine
 10
-29.4562153743
 20
-0.1
 30
0.0
 11
-29.4562153743
 21
0.0
 31
0.0
  0
LINE
  5
148
330
1F
100
AcDbEntity
  8
0
  6
Continuous
 62
     7
370
    25
100
AcDbLine
 10
11.0
 20
0.0
 30
0.0
 11
11.0
 21
-0.1
 31
0.0
  0
LINE
  5
149
330
1F
100
AcDbEntity
  8
0
  6
Continuous
 62
     7
370
    25
100
AcDbLine
 10
16.0
 20
-0.1
 30
0.0
 11
16.0
 21
0.0
 31
0.0
  0
LINE
  5
14A
330
1F
100
AcDbEntity
  8
0
  6
Continuous
 62
     7
370
    25
100
AcDbLine
 10
-16.0
 20
0.0
 30
0.0
 11
-16.0
 21
-0.1
 31
0.0
  0
LINE
  5
14B
330
1F
100
AcDbEntity
  8
0
  6
Continuous
 62
     7
370
    25
100
AcDbLine
 10
-11.0
 20
-0.1
 30
0.0
 11
-11.0
 21
0.0
 31
0.0
  0
LINE
  5
14C
330
1F
100
AcDbEntity
  8
0
  6
Continuous
 62
     7
370
    25
100
AcDbLine
 10
76.045391852
 20
-0.1
 30
0.0
 11
76.045391852
 21
0.0
 31
0.0
  0
LINE
  5
14D
330
1F
100
AcDbEntity
  8
0
  6
Continuous
 62
     7
370
    25
100
AcDbLine
 10
-76.045391852
 20
0.0
 30
0.0
 11
-76.045391852
 21
-0.1
 31
0.0
  0
LINE
  5
14E
330
1F
100
AcDbEntity
  8
0
  6
Continuous
 62
     7
370
    25
100
AcDbLine
 10
56.0795406989
 20
-0.1
 30
0.0
 11
56.0795406989
 21
0.0
 31
0.0
  0
LINE
  5
14F
330
1F
100
AcDbEntity
  8
0
  6
Continuous
 62
     7
370
    25
100
AcDbLine
 10
-56.0795406989
 20
0.0
 30
0.0
 11
-56.0795406989
 21
-0.1
 31
0.0
  0
LINE
  5
150
330
1F
100
AcDbEntity
  8
0
  6
Continuous
 62
     7
370
    25
100
AcDbLine
 10
-99.5
 20
8.0
 30
0.0
 11
99.5
 21
8.0
 31
0.0
  0
LINE
  5
151
330
1F
100
AcDbEntity
  8
0
  6
Continuous
 62
     7
370
    25
100
AcDbLine
 10
99.5
 20
0.0
 30
0.0
 11
-99.5
 21
0.0
 31
0.0
  0
LINE
  5
152
330
1F
100
AcDbEntity
  8
0
  6
Continuous
 62
     7
370
    25
100
AcDbLine
 10
76.0
 20
11.0
 30
0.0
 11
-76.0
 21
11.0
 31
0.0
  0
LINE
  5
153
330
1F
100
AcDbEntity
  8
0
  6
Continuous
 62
     7
370
    25
100
AcDbLine
 10
1.2499794902
 20
-5.0000000021
 30
0.0
 11
-1.2500000001
 21
-5.0000000021
 31
0.0
  0
LINE
  5
154
330
1F
100
AcDbEntity
  8
0
  6
Continuous
 62
     7
370
    25
100
AcDbLine
 10
2.4999980886
 20
-0.1
 30
0.0
 11
-2.4999993963
 21
-0.1
 31
0.0
  0
LINE
  5
155
330
1F
100
AcDbEntity
  8
0
  6
Continuous
 62
     7
370
    25
100
AcDbLine
 10
21.7539834265
 20
-5.0
 30
0.0
 11
17.7849491845
 21
-5.0000000021
 31
0.0
  0
LINE
  5
156
330
1F
100
AcDbEntity
  8
0
  6
Continuous
 62
     7
370
    25
100
AcDbLine
 10
21.5349480486
 20
-0.1
 30
0.0
 11
16.5349481475
 21
-0.1
 31
0.0
  0
LINE
  5
157
330
1F
100
AcDbEntity
  8
0
  6
Continuous
 62
     7
370
    25
100
AcDbLine
 10
-17.7849557074
 20
-5.0000000021
 30
0.0
 11
-20.2849295758
 21
-5.0000000021
 31
0.0
  0
LINE
  5
158
330
1F
100
AcDbEntity
  8
0
  6
Continuous
 62
     7
370
    25
100
AcDbLine
 10
-16.5349485574
 20
-0.1
 30
0.0
 11
-23.004001825
 21
-0.1
 31
0.0
  0
LINE
  5
159
330
1F
100
AcDbEntity
  8
0
  6
Continuous
 62
     7
370
    25
100
AcDbLine
 10
-35.5226978502
 20
-5.0000000021
 30
0.0
 11
-39.136456561
 21
-5.0
 31
0.0
  0
LINE
  5
15A
330
1F
100
AcDbEntity
  8
0
  6
Continuous
 62
     7
370
    25
100
AcDbLine
 10
-34.2726960277
 20
-0.1
 30
0.0
 11
-39.2726959101
 21
-0.1
 31
0.0
  0
LINE
  5
15B
330
1F
100
AcDbEntity
  8
0
  6
Continuous
 62
     7
370
    25
100
AcDbLine
 10
38.0226857949
 20
-5.0000000021
 30
0.0
 11
35.5227172283
 21
-5.0000000021
 31
0.0
  0
LINE
  5
15C
330
1F
100
AcDbEntity
  8
0
  6
Continuous
 62
     7
370
    25
100
AcDbLine
 10
39.2726952601
 20
-0.1
 30
0.0
 11
34.2726979772
 21
-0.1
 31
0.0
  0
LINE
  5
15D
330
1F
100
AcDbEntity
  8
0
  6
Continuous
 62
     7
370
    25
100
AcDbLine
 10
53.2544276089
 20
-5.0000000021
 30
0.0
 11
50.7544453035
 21
-5.0000000021
 31
0.0
  0
LINE
  5
15E
330
1F
100
AcDbEntity
  8
0
  6
Continuous
 62
     7
370
    25
100
AcDbLine
 10
54.5044438221
 20
-0.1
 30
0.0
 11
47.0010413527
 21
-0.1
 31
0.0
  0
LINE
  5
15F
330
1F
100
AcDbEntity
  8
0
  6
Continuous
 62
     7
370
    25
100
AcDbLine
 10
-50.7544684987
 20
-5.0000000021
 30
0.0
 11
-54.8295406989
 21
-5.0
 31
0.0
  0
LINE
  5
160
330
1F
100
AcDbEntity
  8
0
  6
Continuous
 62
     7
370
    25
100
AcDbLine
 10
-49.5044477324
 20
-0.1
 30
0.0
 11
-56.0795406989
 21
-0.1
 31
0.0
  0
LINE
  5
161
330
1F
100
AcDbEntity
  8
0
  6
Continuous
 62
     7
370
    25
100
AcDbLine
 10
23.0040008529
 20
-0.1
 30
0.0
 11
21.536281269
 21
-0.1
 31
0.0
  0
LINE
  5
162
330
1F
100
AcDbEntity
  8
0
  6
Continuous
 62
     7
370
    25
100
AcDbLine
 10
-20.2849472696
 20
-5.0
 30
0.0
 11
-21.7540025392
 21
-5.0
 31
0.0
  0
LINE
  5
163
330
1F
100
AcDbEntity
  8
0
  6
Continuous
 62
     7
370
    25
100
AcDbLine
 10
39.1364388663
 20
-5.0
 30
0.0
 11
38.0226956123
 21
-5.0
 31
0.0
  0
LINE
  5
164
330
1F
100
AcDbEntity
  8
0
  6
Continuous
 62
     7
370
    25
100
AcDbLine
 10
40.3864550796
 20
-0.1
 30
0.0
 11
39.2837525098
 21
-0.1
 31
0.0
  0
LINE
  5
165
330
1F
100
AcDbEntity
  8
0
  6
Continuous
 62
     7
370
    25
100
AcDbLine
 10
-39.2836012835
 20
-0.1
 30
0.0
 11
-40.3864557234
 21
-0.1
 31
0.0
  0
LINE
  5
166
330
1F
100
AcDbEntity
  8
0
  6
Continuous
 62
     7
370
    25
100
AcDbLine
 10
-62.4421830448
 20
-5.0000000021
 30
0.0
 11
-64.9421620111
 21
-5.0000000021
 31
0.0
  0
LINE
  5
167
330
1F
100
AcDbEntity
  8
0
  6
Continuous
 62
     7
370
    25
100
AcDbLine
 10
-61.1921779849
 20
-0.1
 30
0.0
 11
-66.1921764529
 21
-0.1
 31
0.0
  0
LINE
  5
168
330
1F
100
AcDbEntity
  8
0
  6
Continuous
 62
     7
370
    25
100
AcDbLine
 10
66.1921776752
 20
-0.1
 30
0.0
 11
61.1921776752
 21
-0.1
 31
0.0
  0
LINE
  5
169
330
1F
100
AcDbEntity
  8
0
  6
Continuous
 62
     7
370
    25
100
AcDbLine
 10
64.9421774995
 20
-5.0000000021
 30
0.0
 11
62.4421799987
 21
-5.0000000021
 31
0.0
  0
LINE
  5
16A
330
1F
100
AcDbEntity
  8
0
  6
Continuous
 62
     7
370
    25
100
AcDbLine
 10
50.7510247455
 20
-5.0
 30
0.0
 11
48.2510410131
 21
-5.0
 31
0.0
  0
LINE
  5
16B
330
1F
100
AcDbEntity
  8
0
  6
Continuous
 62
     7
370
    25
100
AcDbLine
 10
-48.251065473
 20
-5.0
 30
0.0
 11
-50.7510410131
 21
-5.0
 31
0.0
  0
LINE
  5
16C
330
1F
100
AcDbEntity
  8
0
  6
Continuous
 62
     7
370
    25
100
AcDbLine
 10
-47.0010437376
 20
-0.1
 30
0.0
 11
-49.4720672777
 21
-0.1
 31
0.0
  0
LINE
  5
16D
330
1F
100
AcDbEntity
  8
0
  6
Continuous
 62
     7
370
    25
100
AcDbLine
 10
72.2893805539
 20
-5.0000000021
 30
0.0
 11
69.7894037421
 21
-5.0000000021
 31
0.0
  0
LINE
  5
16E
330
1F
100
AcDbEntity
  8
0
  6
Continuous
 62
     7
370
    25
100
AcDbLine
 10
76.0453907249
 20
-0.1
 30
0.0
 11
68.5393945294
 21
-0.1
 31
0.0
  0
LINE
  5
16F
330
1F
100
AcDbEntity
  8
0
  6
Continuous
 62
     7
370
    25
100
AcDbLine
 10
-69.7893968488
 20
-5.0000000021
 30
0.0
 11
-72.2893933895
 21
-5.0000000021
 31
0.0
  0
LINE
  5
170
330
1F
100
AcDbEntity
  8
0
  6
Continuous
 62
     7
370
    25
100
AcDbLine
 10
-68.5393935841
 20
-0.1
 30
0.0
 11
-76.045391852
 21
-0.1
 31
0.0
  0
LINE
  5
171
330
1F
100
AcDbEntity
  8
0
  6
Continuous
 62
     7
370
    25
100
AcDbLine
 10
17.0
 20
12.8
 30
0.0
 11
-17.0
 21
12.8
 31
0.0
  0
LINE
  5
172
330
1F
100
AcDbEntity
  8
0
  6
Continuous
 62
     7
370
    25
100
AcDbLine
 10
16.25
 20
20.3
 30
0.0
 11
-16.25
 21
20.3
 31
0.0
  0
LINE
  5
173
330
1F
100
AcDbEntity
  8
0
  6
Continuous
 62
     7
370
    25
100
AcDbLine
 10
-14.7499999916
 20
35.8
 30
0.0
 11
14.75
 21
35.8
 31
0.0
  0
LINE
  5
174
330
1F
100
AcDbEntity
  8
0
  6
Continuous
 62
     7
370
    25
100
AcDbLine
 10
-12.5
 20
54.8
 30
0.0
 11
12.5
 21
54.8
 31
0.0
  0
LINE
  5
175
330
1F
100
AcDbEntity
  8
0
  6
Continuous
 62
     7
370
    25
100
AcDbLine
 10
33.2061933035
 20
-5.0000000021
 30
0.0
 11
30.7062342805
 21
-5.0000000021
 31
0.0
  0
LINE
  5
176
330
1F
100
AcDbEntity
  8
0
  6
Continuous
 62
     7
370
    25
100
AcDbLine
 10
34.272695926
 20
-0.1
 30
0.0
 11
29.4562170293
 21
-0.1
 31
0.0
  0
LINE
  5
177
330
1F
100
AcDbEntity
  8
0
  6
Continuous
 62
     7
370
    25
100
AcDbLine
 10
-30.70622626
 20
-5.0000000021
 30
0.0
 11
-33.2062130565
 21
-5.0000000021
 31
0.0
  0
LINE
  5
178
330
1F
100
AcDbEntity
  8
0
  6
Continuous
 62
     7
370
    25
100
AcDbLine
 10
-29.4562161057
 20
-0.1
 30
0.0
 11
-34.272695926
 21
-0.1
 31
0.0
  0
LINE
  5
179
330
1F
100
AcDbEntity
  8
0
  6
Continuous
 62
     7
370
    25
100
AcDbLine
 10
11.0
 20
-0.1
 30
0.0
 11
16.0
 21
-0.1
 31
0.0
  0
LINE
  5
17A
330
1F
100
AcDbEntity
  8
0
  6
Continuous
 62
     7
370
    25
100
AcDbLine
 10
12.2500009204
 20
-5.0
 30
0.0
 11
14.75
 21
-5.0
 31
0.0
  0
LINE
  5
17B
330
1F
100
AcDbEntity
  8
0
  6
Continuous
 62
     7
370
    25
100
AcDbLine
 10
-16.0
 20
-0.1
 30
0.0
 11
-11.0
 21
-0.1
 31
0.0
  0
LINE
  5
17C
330
1F
100
AcDbEntity
  8
0
  6
Continuous
 62
     7
370
    25
100
AcDbLine
 10
-14.75
 20
-5.0
 30
0.0
 11
-12.25
 21
-5.0
 31
0.0
  0
LINE
  5
17D
330
1F
100
AcDbEntity
  8
0
  6
Continuous
 62
     7
370
    25
100
AcDbLine
 10
74.7953770095
 20
-5.0000000021
 30
0.0
 11
72.295391852
 21
-5.0000000021
 31
0.0
  0
LINE
  5
17E
330
1F
100
AcDbEntity
  8
0
  6
Continuous
 62
     7
370
    25
100
AcDbLine
 10
-72.295391852
 20
-5.0000000021
 30
0.0
 11
-74.7953918521
 21
-5.0000000021
 31
0.0
  0
LINE
  5
17F
330
1F
100
AcDbEntity
  8
0
  6
Continuous
 62
     7
370
    25
100
AcDbLine
 10
54.8295258563
 20
-5.0
 30
0.0
 11
53.2544332604
 21
-5.0
 31
0.0
  0
LINE
  5
180
330
1F
100
AcDbEntity
  8
0
  6
Continuous
 62
     7
370
    25
100
AcDbLine
 10
56.0795395718
 20
-0.1
 30
0.0
 11
54.5113764515
 21
-0.1
 31
0.0
  0
LINE
  5
181
330
1F
100
AcDbEntity
  8
0
  6
Continuous
 62
     8
370
    25
100
AcDbLine
 10
100.0
 20
7.5
 30
0.0
 11
-100.0
 21
7.5
 31
0.0
  0
LINE
  5
182
330
1F
100
AcDbEntity
  8
0
  6
Continuous
 62
     8
370
    25
100
AcDbLine
 10
-100.0
 20
0.5
 30
0.0
 11
100.0
 21
0.5
 31
0.0
  0
LINE
  5
183
330
1F
100
AcDbEntity
  8
0
  6
Continuous
 62
     8
370
    25
100
AcDbLine
 10
16.75
 20
19.8
 30
0.0
 11
-16.75
 21
19.8
 31
0.0
  0
LINE
  5
184
330
1F
100
AcDbEntity
  8
0
  6
Continuous
 62
     8
370
    25
100
AcDbLine
 10
15.25
 20
35.3
 30
0.0
 11
-15.25
 21
35.3
 31
0.0
  0
LINE
  5
185
330
1F
100
AcDbEntity
  8
0
  6
Continuous
 62
     8
370
    25
100
AcDbLine
 10
-13.0
 20
40.862145265
 30
0.0
 11
13.0
 21
40.862145265
 31
0.0
  0
LINE
  5
186
330
1F
100
AcDbEntity
  8
0
  6
Continuous
 62
     8
370
    25
100
AcDbLine
 10
13.0
 20
54.3
 30
0.0
 11
-13.0
 21
54.3
 31
0.0
  0
LINE
  5
187
330
1F
100
AcDbEntity
  8
0
  6
Continuous
 62
     8
370
    25
100
AcDbLine
 10
12.9847030522
 20
40.7394140498
 30
0.0
 11
-12.9847030522
 21
40.7394140498
 31
0.0
  0
ARC
  5
188
330
1F
100
AcDbEntity
  8
0
  6
Continuous
 62
     7
370
    25
100
AcDbCircle
 10
99.5
 20
7.5
 30
0.0
 40
0.5
100
AcDbArc
 50
0.0
 51
90.0
  0
ARC
  5
189
330
1F
100
AcDbEntity
  8
0
  6
Continuous
 62
     7
370
    25
100
AcDbCircle
 10
-99.5
 20
7.5
 30
0.0
 40
0.5
100
AcDbArc
 50
90.0
 51
180.0
  0
ARC
  5
18A
330
1F
100
AcDbEntity
  8
0
  6
Continuous
 62
     7
370
    25
100
AcDbCircle
 10
-99.5
 20
0.5
 30
0.0
 40
0.5
100
AcDbArc
 50
180.0
 51
270.0
  0
ARC
  5
18B
330
1F
100
AcDbEntity
  8
0
  6
Continuous
 62
     7
370
    25
100
AcDbCircle
 10
99.5
 20
0.5
 30
0.0
 40
0.5000000000000017
100
AcDbArc
 50
270.0
 51
0.0
  0
ARC
  5
18C
330
1F
100
AcDbEntity
  8
0
  6
Continuous
 62
     7
370
    25
100
AcDbCircle
 10
16.25
 20
19.8
 30
0.0
 40
0.4999999999999964
100
AcDbArc
 50
0.0
 51
90.0
  0
ARC
  5
18D
330
1F
100
AcDbEntity
  8
0
  6
Continuous
 62
     7
370
    25
100
AcDbCircle
 10
-16.25
 20
19.8
 30
0.0
 40
0.4999999999999964
100
AcDbArc
 50
90.0
 51
180.0
  0
ARC
  5
18E
330
1F
100
AcDbEntity
  8
0
  6
Continuous
 62
     7
370
    25
100
AcDbCircle
 10
14.75
 20
35.3
 30
0.0
 40
0.4999999999999947
100
AcDbArc
 50
0.0
 51
90.0
  0
ARC
  5
18F
330
1F
100
AcDbEntity
  8
0
  6
Continuous
 62
     7
370
    25
100
AcDbCircle
 10
-14.75
 20
35.3
 30
0.0
 40
0.4999999999999947
100
AcDbArc
 50
90.0
 51
180.0
  0
ARC
  5
190
330
1F
100
AcDbEntity
  8
0
  6
Continuous
 62
     7
370
    25
100
AcDbCircle
 10
12.5
 20
54.3
 30
0.0
 40
0.5000000000000089
100
AcDbArc
 50
0.0
 51
90.0
  0
ARC
  5
191
330
1F
100
AcDbEntity
  8
0
  6
Continuous
 62
     7
370
    25
100
AcDbCircle
 10
-12.5
 20
54.3
 30
0.0
 40
0.5000000000000089
100
AcDbArc
 50
90.0
 51
180.0
  0
ARC
  5
192
330
1F
100
AcDbEntity
  8
0
  6
Continuous
 62
     7
370
    25
100
AcDbCircle
 10
-12.5
 20
40.862145265
 30
0.0
 40
0.5000000000000746
100
AcDbArc
 50
180.0
 51
194.2091635659
  0
ARC
  5
193
330
1F
100
AcDbEntity
  8
0
  6
Continuous
 62
     7
370
    25
100
AcDbCircle
 10
12.5
 20
40.862145265
 30
0.0
 40
0.500000000000151
100
AcDbArc
 50
345.7908364341
 51
360.0
  0
SPLINE
  5
194
330
1B
100
AcDbEntity
 67
     1
  8
0
  6
Continuous
 62
     7
370
    25
100
AcDbSpline
210
0.0
220
0.0
230
1.0
 70
     8
 71
     3
 72
    17
 73
    13
 74
     0
 42
0.000000001
 43
0.00000001
 40
0.0
 40
0.0
 40
0.0
 40
0.0
 40
0.1010350440157064
 40
0.2038260065145683
 40
0.3048610505302785
 40
0.4058960945459874
 40
0.5086870570448482
 40
0.6097221010605567
 40
0.7107571450762659
 40
0.8135481075751266
 40
0.9145831515908349
 40
0.9999999999999999
 40
0.9999999999999999
 40
0.9999999999999999
 40
0.9999999999999999
 10
9.67389033434124
 20
0.0000000000003621
 30
0.0
 10
9.610409121104336
 20
-0.8392823883603783
 30
0.0
 10
9.482343435491657
 20
-2.532433306679228
 30
0.0
 10
8.466563530635973
 20
-4.893103745646728
 30
0.0
 10
6.920231958494238
 20
-6.918140690962939
 30
0.0
 10
4.892577076480116
 20
-8.474474621128898
 30
0.0
 10
2.532402854060674
 20
-9.452451194554632
 30
0.0
 10
0.0006280476269552
 20
-9.783271743847433
 30
0.0
 10
-2.53493687462436
 20
-9.454001891133656
 30
0.0
 10
-4.88360901046078
 20
-8.4681909847442
 30
0.0
 10
-6.846882157441008
 20
-7.019468609251221
 30
0.0
 10
-7.729597145789707
 20
-5.742417585102609
 30
0.0
 10
-8.133984204390677
 20
-5.157378343495432
 30
0.0
  0
SPLINE
  5
195
330
1B
100
AcDbEntity
 67
     1
  8
0
  6
Continuous
 62
     7
370
    25
100
AcDbSpline
210
0.0
220
0.0
230
1.0
 70
     8
 71
     3
 72
    44
 73
    40
 74
     0
 42
0.000000001
 43
0.00000001
 40
0.0
 40
0.0
 40
0.0
 40
0.0
 40
0.0625
 40
0.0625
 40
0.1250000000000001
 40
0.1250000000000001
 40
0.1562500000000001
 40
0.1562500000000001
 40
0.1875000000000001
 40
0.1875000000000001
 40
0.2500000000000001
 40
0.2500000000000001
 40
0.3125000000000001
 40
0.3125000000000001
 40
0.3750000000000002
 40
0.3750000000000002
 40
0.4375000000000002
 40
0.4375000000000002
 40
0.5000000000000002
 40
0.5000000000000002
 40
0.5625000000000002
 40
0.5625000000000002
 40
0.5937500000000002
 40
0.5937500000000002
 40
0.6250000000000002
 40
0.6250000000000002
 40
0.6875000000000003
 40
0.6875000000000003
 40
0.7500000000000003
 40
0.7500000000000003
 40
0.7812500000000003
 40
0.7812500000000003
 40
0.8125000000000003
 40
0.8125000000000003
 40
0.8750000000000002
 40
0.8750000000000002
 40
0.9375000000000002
 40
0.9375000000000002
 40
1.0
 40
1.0
 40
1.0
 40
1.0
 10
-7.851840186592598
 20
-5.650907881488634
 30
0.0
 10
-8.29471717306204
 20
-5.035537857236579
 30
0.0
 10
-8.670348977005752
 20
-4.358853827305935
 30
0.0
 10
-9.249724568764051
 20
-2.935498845662699
 30
0.0
 10
-9.453248120757959
 20
-2.189388254845395
 30
0.0
 10
-9.622378019449783
 20
-1.066436656451066
 30
0.0
 10
-9.656307038931361
 20
-0.6915204599169825
 30
0.0
 10
-9.680897412631408
 20
0.0518793090328036
 30
0.0
 10
-9.671988125015625
 20
0.4212278036860426
 30
0.0
 10
-9.579536532053927
 20
1.542454485755683
 30
0.0
 10
-9.42861346633975
 20
2.296557240697255
 30
0.0
 10
-8.948677593987076
 20
3.754210486416004
 30
0.0
 10
-8.61976677494624
 20
4.457170051425388
 30
0.0
 10
-7.814114039845691
 20
5.753813161206832
 30
0.0
 10
-7.338627616379679
 20
6.346327880111606
 30
0.0
 10
-6.288405968508843
 20
7.388320731329601
 30
0.0
 10
-5.690576851285323
 20
7.860332986053629
 30
0.0
 10
-4.386588132069873
 20
8.65594270496351
 30
0.0
 10
-3.680817286722283
 20
8.979094212724549
 30
0.0
 10
-2.219765236886189
 20
9.446967294975078
 30
0.0
 10
-1.465076702219718
 20
9.591601327015306
 30
0.0
 10
-0.3445656734338578
 20
9.675004216396184
 30
0.0
 10
0.024248566951426
 20
9.68102641441009
 30
0.0
 10
0.7684887702335483
 20
9.650507004273399
 30
0.0
 10
1.143573786050697
 20
9.613530186262073
 30
0.0
 10
2.266212612841024
 20
9.435184808792844
 30
0.0
 10
3.011002134205771
 20
9.225423246705343
 30
0.0
 10
4.429585594616647
 20
8.634427566029366
 30
0.0
 10
5.102824674363586
 20
8.253427235743395
 30
0.0
 10
6.019620881442322
 20
7.582331454941835
 30
0.0
 10
6.309857897006997
 20
7.342231100479368
 30
0.0
 10
6.855306368920433
 20
6.835747128259423
 30
0.0
 10
7.110990246670868
 20
6.569507463243077
 30
0.0
 10
7.841401985845257
 20
5.714752373044529
 30
0.0
 10
8.270352006521724
 20
5.076812038004745
 30
0.0
 10
8.967179124145845
 20
3.709776453708621
 30
0.0
 10
9.234704732562115
 20
2.981166716897315
 30
0.0
 10
9.588036574623874
 20
1.495553788807461
 30
0.0
 10
9.673890334341221
 20
0.739139747244245
 30
0.0
 10
9.67389033434124
 20
0.0000000000002847
 30
0.0
  0
SPLINE
  5
196
330
1B
100
AcDbEntity
 67
     1
  8
0
  6
Continuous
 62
     7
370
    25
100
AcDbSpline
210
0.0
220
0.0
230
1.0
 70
     8
 71
     3
 72
   101
 73
    97
 74
     0
 42
0.000000001
 43
0.00000001
 40
0.0
 40
0.0
 40
0.0
 40
0.0
 40
0.0312500000000001
 40
0.0312500000000001
 40
0.0468750000000002
 40
0.0468750000000002
 40
0.0625000000000003
 40
0.0625000000000003
 40
0.0937500000000004
 40
0.0937500000000004
 40
0.1093750000000005
 40
0.1093750000000005
 40
0.1250000000000006
 40
0.1250000000000006
 40
0.1562500000000007
 40
0.1562500000000007
 40
0.1718750000000007
 40
0.1718750000000007
 40
0.1875000000000008
 40
0.1875000000000008
 40
0.218750000000001
 40
0.218750000000001
 40
0.2343750000000011
 40
0.2343750000000011
 40
0.2500000000000012
 40
0.2656250000000013
 40
0.2656250000000013
 40
0.2812500000000014
 40
0.2812500000000014
 40
0.3125000000000015
 40
0.3125000000000015
 40
0.3281250000000016
 40
0.3281250000000016
 40
0.3437500000000016
 40
0.3437500000000016
 40
0.3750000000000017
 40
0.3750000000000017
 40
0.3906250000000016
 40
0.3906250000000016
 40
0.4062500000000016
 40
0.4062500000000016
 40
0.4375000000000017
 40
0.4375000000000017
 40
0.4531250000000017
 40
0.4531250000000017
 40
0.4687500000000016
 40
0.4843750000000017
 40
0.4843750000000017
 40
0.5000000000000017
 40
0.5000000000000017
 40
0.5312500000000018
 40
0.5312500000000018
 40
0.5468750000000018
 40
0.5468750000000018
 40
0.5625000000000019
 40
0.5625000000000019
 40
0.5937500000000017
 40
0.5937500000000017
 40
0.6093750000000017
 40
0.6093750000000017
 40
0.6250000000000016
 40
0.6250000000000016
 40
0.6562500000000014
 40
0.6562500000000014
 40
0.6875000000000013
 40
0.6875000000000013
 40
0.7031250000000012
 40
0.7031250000000012
 40
0.7187500000000012
 40
0.7187500000000012
 40
0.750000000000001
 40
0.750000000000001
 40
0.765625000000001
 40
0.765625000000001
 40
0.7812500000000009
 40
0.7812500000000009
 40
0.8125000000000008
 40
0.8125000000000008
 40
0.8281250000000008
 40
0.8281250000000008
 40
0.8437500000000007
 40
0.8593750000000006
 40
0.8593750000000006
 40
0.8750000000000006
 40
0.8750000000000006
 40
0.9062500000000004
 40
0.9062500000000004
 40
0.9218750000000003
 40
0.9218750000000003
 40
0.9375000000000002
 40
0.9375000000000002
 40
0.9687500000000001
 40
0.9687500000000001
 40
0.9843750000000001
 40
0.9843750000000001
 40
1.0
 40
1.0
 40
1.0
 40
1.0
 10
-8.570781839528381
 20
-6.132490941723053
 30
0.0
 10
-8.175126303131059
 20
-6.670484899069456
 30
0.0
 10
-7.735380603977211
 20
-7.162787582968477
 30
0.0
 10
-7.011948664747346
 20
-7.835110869155192
 30
0.0
 10
-6.760037962367694
 20
-8.048060920804172
 30
0.0
 10
-6.23427409267181
 20
-8.451221730281366
 30
0.0
 10
-5.958892761812828
 20
-8.642290533575572
 30
0.0
 10
-5.114398278486951
 20
-9.170303326854302
 30
0.0
 10
-4.52522486437735
 20
-9.4647976102478
 30
0.0
 10
-3.603018919319957
 20
-9.822068897809304
 30
0.0
 10
-3.289166611355911
 20
-9.9269871779135
 30
0.0
 10
-2.64816801966183
 20
-10.10761526116521
 30
0.0
 10
-2.322833359066404
 20
-10.1826502668811
 30
0.0
 10
-1.346955320961067
 20
-10.35958791759465
 30
0.0
 10
-0.6908929113163321
 20
-10.4154035458093
 30
0.0
 10
0.3014305128094005
 20
-10.40575128827048
 30
0.0
 10
0.6353312034110438
 20
-10.38650784797857
 30
0.0
 10
1.29696280809006
 20
-10.31608339634855
 30
0.0
 10
1.623754328035946
 20
-10.2652133553119
 30
0.0
 10
2.592391364690554
 20
-10.06693447658748
 30
0.0
 10
3.222606117902301
 20
-9.874272267513541
 30
0.0
 10
4.143987601582838
 20
-9.492129871200683
 30
0.0
 10
4.446611637837522
 20
-9.349081085271981
 30
0.0
 10
5.030746068864222
 20
-9.037866504611634
 30
0.0
 10
5.597165696026488
 20
-8.700217869030606
 30
0.0
 10
6.128691542771806
 20
-8.310500685867373
 30
0.0
 10
6.642556814196911
 20
-7.894430367692329
 30
0.0
 10
6.891701212859845
 20
-7.672173906962679
 30
0.0
 10
7.604114295488674
 20
-6.971735860473785
 30
0.0
 10
8.027129669330009
 20
-6.465988666781219
 30
0.0
 10
8.58578132223981
 20
-5.650693008294696
 30
0.0
 10
8.759288931220766
 20
-5.369433890997525
 30
0.0
 10
9.08021491530063
 20
-4.787427367902882
 30
0.0
 10
9.2274416170449
 20
-4.48652909090516
 30
0.0
 10
9.620163196302542
 20
-3.574291746599389
 30
0.0
 10
9.820938863901363
 20
-2.947107032156767
 30
0.0
 10
10.03095862751788
 20
-1.977919387799273
 30
0.0
 10
10.08582243900064
 20
-1.6486522751836
 30
0.0
 10
10.16297912072327
 20
-0.9869691102028897
 30
0.0
 10
10.18517653095126
 20
-0.6567178610153692
 30
0.0
 10
10.20409230148683
 20
0.33231773006289
 30
0.0
 10
10.15330588123765
 20
0.9893901024303992
 30
0.0
 10
9.978779740281325
 20
1.971454465495235
 30
0.0
 10
9.903960299274042
 20
2.297876394611508
 30
0.0
 10
9.724645072317633
 20
2.935075597308823
 30
0.0
 10
9.515091245598352
 20
3.560347653481565
 30
0.0
 10
9.245984692091408
 20
4.162130060533472
 30
0.0
 10
8.946706044403262
 20
4.7520115531557
 30
0.0
 10
8.781044606801297
 20
5.042422038858728
 30
0.0
 10
8.243933593191509
 20
5.884252143588462
 30
0.0
 10
7.836249870395957
 20
6.40248442134869
 30
0.0
 10
7.152400866564073
 20
7.117163173296752
 30
0.0
 10
6.912318590986257
 20
7.344876280955131
 30
0.0
 10
6.406795873484092
 20
7.77832914669728
 30
0.0
 10
6.142475823138434
 20
7.98293210296331
 30
0.0
 10
5.328973125465436
 20
8.5507074031844
 30
0.0
 10
4.754470396163483
 20
8.872675182925688
 30
0.0
 10
3.844277219123229
 20
9.270473277561377
 30
0.0
 10
3.530914900206607
 20
9.389301736260927
 30
0.0
 10
2.898420545872598
 20
9.593656151204126
 30
0.0
 10
2.579222940093835
 20
9.679470499186165
 30
0.0
 10
1.612999171572183
 20
9.889046924382134
 30
0.0
 10
0.9574275586127428
 20
9.965416564913554
 30
0.0
 10
-0.37744366790682
 20
9.986562104561713
 30
0.0
 10
-1.036800519217789
 20
9.930419397777833
 30
0.0
 10
-2.008208279110428
 20
9.749757018294936
 30
0.0
 10
-2.32939381420708
 20
9.673384500867119
 30
0.0
 10
-2.966414380646047
 20
9.487617624370905
 30
0.0
 10
-3.283379576857173
 20
9.37759601244521
 30
0.0
 10
-4.205532463990138
 20
9.004577948993902
 30
0.0
 10
-4.78852652866533
 20
8.697740720911494
 30
0.0
 10
-5.615808509772377
 20
8.151075652564423
 30
0.0
 10
-5.884694997664227
 20
7.953472460711871
 30
0.0
 10
-6.401115904515087
 20
7.532071410093812
 30
0.0
 10
-6.646726063262562
 20
7.310037087626377
 30
0.0
 10
-7.34692187982822
 20
6.610981732017621
 30
0.0
 10
-7.764855733958244
 20
6.100992889860027
 30
0.0
 10
-8.31600361242605
 20
5.267870900060939
 30
0.0
 10
-8.485976069988924
 20
4.979941192197811
 30
0.0
 10
-8.793049070308168
 20
4.394103956926667
 30
0.0
 10
-9.069185188471172
 20
3.795448806113201
 30
0.0
 10
-9.284187266219405
 20
3.171464310123936
 30
0.0
 10
-9.46804893732616
 20
2.534577573363632
 30
0.0
 10
-9.544622556863379
 20
2.207913065831022
 30
0.0
 10
-9.722241619675184
 20
1.227894158136038
 30
0.0
 10
-9.773589757197689
 20
0.5708897369135332
 30
0.0
 10
-9.751180321108295
 20
-0.4200410547079027
 30
0.0
 10
-9.726732859627518
 20
-0.7522556948153346
 30
0.0
 10
-9.643335890492077
 20
-1.414314972750326
 30
0.0
 10
-9.584960879761605
 20
-1.74045495718699
 30
0.0
 10
-9.36145717645934
 20
-2.704690002555951
 30
0.0
 10
-9.14844857506768
 20
-3.328746395553851
 30
0.0
 10
-8.730251300241695
 20
-4.235896152605665
 30
0.0
 10
-8.574592343885625
 20
-4.532341497044973
 30
0.0
 10
-8.235189739196455
 20
-5.104995775099579
 30
0.0
 10
-8.050899772162667
 20
-5.382445560999865
 30
0.0
 10
-7.851840186592639
 20
-5.650907881488576
 30
0.0
  0
CIRCLE
  5
197
330
1B
100
AcDbEntity
 67
     1
  8
0
  6
Continuous
 62
     7
370
    25
100
AcDbCircle
 10
0.0
 20
0.0
 30
0.0
 40
12.5
  0
SPLINE
  5
198
330
1B
100
AcDbEntity
 67
     1
  8
0
  6
Continuous
 62
     7
370
    25
100
AcDbSpline
210
0.0
220
0.0
230
1.0
 70
     8
 71
     3
 72
    14
 73
    10
 74
     0
 42
0.000000001
 43
0.00000001
 40
0.0
 40
0.0
 40
0.0
 40
0.0
 40
0.0002340358156817
 40
0.0002340358156817
 40
0.0002340358156817
 40
0.0004680716312995
 40
0.0004680716312995
 40
0.0004680716312995
 40
0.0008653330740052
 40
0.0008653330740052
 40
0.0008653330740052
 40
0.0008653330740052
 10
-7.851840186592599
 20
-5.650907881488638
 30
0.0
 10
-7.916535088155617
 20
-5.694501829115901
 30
0.0
 10
-7.981262424332929
 20
-5.738047681245898
 30
0.0
 10
-8.046022078181704
 20
-5.781545379936337
 30
0.0
 10
-8.110781732019866
 20
-5.825043078619647
 30
0.0
 10
-8.175573739317047
 20
-5.868492647901252
 30
0.0
 10
-8.240397983116456
 20
-5.911894030043038
 30
0.0
 10
-8.350433103919324
 20
-5.985565176007511
 30
0.0
 10
-8.460561246760017
 20
-6.059097573578457
 30
0.0
 10
-8.570781839528577
 20
-6.132490941722778
 30
0.0
  0
CIRCLE
  5
199
330
1B
100
AcDbEntity
 67
     1
  8
0
  6
Continuous
 62
     7
370
    25
100
AcDbCircle
 10
0.0
 20
0.0
 30
0.0
 40
12.99999999999999
  0
SPLINE
  5
19B
330
1B
100
AcDbEntity
 67
     1
  8
0
  6
Continuous
 62
     7
370
    25
100
AcDbSpline
210
0.0
220
0.0
230
1.0
 70
     8
 71
     3
 72
    10
 73
     6
 74
     0
 42
0.000000001
 43
0.00000001
 40
0.0
 40
0.0
 40
0.0
 40
0.0
 40
0.5
 40
0.5
 40
1.0
 40
1.0
 40
1.0
 40
1.0
 10
8.521567784179773
 20
3.79272479701625
 30
0.0
 10
8.78946361042839
 20
3.190811248141734
 30
0.0
 10
8.993201958864024
 20
2.559493511713341
 30
0.0
 10
9.262184901628634
 20
1.280866643121335
 30
0.0
 10
9.327479771421217
 20
0.6338704324462051
 30
0.0
 10
9.327479771421238
 20
0.0000000000003624
 30
0.0
  0
SPLINE
  5
19C
330
1B
100
AcDbEntity
 67
     1
  8
0
  6
Continuous
 62
     7
370
    25
100
AcDbSpline
210
0.0
220
0.0
230
1.0
 70
     8
 71
     3
 72
    20
 73
    16
 74
     0
 42
0.000000001
 43
0.00000001
 40
0.0
 40
0.0
 40
0.0
 40
0.0
 40
0.2500000000000001
 40
0.2500000000000001
 40
0.3750000000000001
 40
0.3750000000000001
 40
0.5000000000000001
 40
0.5000000000000001
 40
0.6250000000000001
 40
0.6250000000000001
 40
0.7500000000000002
 40
0.7500000000000002
 40
0.8750000000000002
 40
0.8750000000000002
 40
1.0
 40
1.0
 40
1.0
 40
1.0
 10
-0.9627779411557691
 20
9.451087695922824
 30
0.0
 10
0.0206954822389629
 20
9.537097867515113
 30
0.0
 10
1.015812394753347
 20
9.469139452539057
 30
0.0
 10
2.45580222960524
 20
9.139277920548246
 30
0.0
 10
2.928165777321863
 20
8.991107264751186
 30
0.0
 10
3.83523323306641
 20
8.627184871610607
 30
0.0
 10
4.272886828073886
 20
8.410918680915184
 30
0.0
 10
5.11604963383017
 20
7.908946520742997
 30
0.0
 10
5.520953931627288
 20
7.622894788498326
 30
0.0
 10
6.277874444609368
 20
6.99358264924133
 30
0.0
 10
6.632761134811905
 20
6.648312374716916
 30
0.0
 10
7.28165726415745
 20
5.908322368939648
 30
0.0
 10
7.577762855107906
 20
5.510976560169753
 30
0.0
 10
8.09984100840961
 20
4.681111499447498
 30
0.0
 10
8.327671188154852
 20
4.246812626400934
 30
0.0
 10
8.521567784179668
 20
3.792724797016481
 30
0.0
  0
SPLINE
  5
19E
330
1B
100
AcDbEntity
 67
     1
  8
0
  6
Continuous
 62
     7
370
    25
100
AcDbSpline
210
0.0
220
0.0
230
1.0
 70
     8
 71
     3
 72
    12
 73
     8
 74
     0
 42
0.000000001
 43
0.00000001
 40
0.0
 40
0.0
 40
0.0
 40
0.0
 40
0.5
 40
0.5
 40
0.75
 40
0.75
 40
1.0
 40
1.0
 40
1.0
 40
1.0
 10
8.5215677841796
 20
3.79272479701662
 30
0.0
 10
8.778433075880809
 20
3.191170127444837
 30
0.0
 10
8.968134154924307
 20
2.573543182890893
 30
0.0
 10
9.155942405372487
 20
1.623952252513048
 30
0.0
 10
9.202287473646528
 20
1.303531508429388
 30
0.0
 10
9.26151285507611
 20
0.6546819647042093
 30
0.0
 10
9.27418543877468
 20
0.3270176759645886
 30
0.0
 10
9.269567361605056
 20
-0.0000000000005237
 30
0.0
  0
CIRCLE
  5
1A0
330
1B
100
AcDbEntity
 67
     1
  8
0
  6
Continuous
 62
     7
370
    25
100
AcDbCircle
 10
0.0
 20
0.0
 30
0.0
 40
15.24999999999999
  0
CIRCLE
  5
1A1
330
1B
100
AcDbEntity
 67
     1
  8
0
  6
Continuous
 62
     7
370
    25
100
AcDbCircle
 10
0.0
 20
0.0
 30
0.0
 40
14.74999999999999
  0
CIRCLE
  5
1A2
330
1B
100
AcDbEntity
 67
     1
  8
0
  6
Continuous
 62
     7
370
    25
100
AcDbCircle
 10
0.0
 20
0.0
 30
0.0
 40
16.75
  0
CIRCLE
  5
1A3
330
1B
100
AcDbEntity
 67
     1
  8
0
  6
Continuous
 62
     7
370
    25
100
AcDbCircle
 10
0.0
 20
0.0
 30
0.0
 40
16.25000000000002
  0
CIRCLE
  5
1A4
330
1B
100
AcDbEntity
 67
     1
  8
0
  6
Continuous
 62
     7
370
    25
100
AcDbCircle
 10
0.0
 20
0.0
 30
0.0
 40
17.0
  0
CIRCLE
  5
1A5
330
1B
100
AcDbEntity
 67
     1
  8
0
  6
Continuous
 62
     7
370
    25
100
AcDbCircle
 10
0.0
 20
0.0
 30
0.0
 40
19.0
  0
CIRCLE
  5
1A6
330
1B
100
AcDbEntity
 67
     1
  8
0
  6
Continuous
 62
     7
370
    25
100
AcDbCircle
 10
0.0
 20
0.0
 30
0.0
 40
75.99999999999986
  0
CIRCLE
  5
1A7
330
1B
100
AcDbEntity
 67
     1
  8
0
  6
Continuous
 62
     7
370
    25
100
AcDbCircle
 10
0.0
 20
0.0
 30
0.0
 40
85.99999999999999
  0
CIRCLE
  5
1A8
330
1B
100
AcDbEntity
 67
     1
  8
0
  6
Continuous
 62
     7
370
    25
100
AcDbCircle
 10
0.0
 20
0.0
 30
0.0
 40
99.50000000000006
  0
CIRCLE
  5
1A9
330
1B
100
AcDbEntity
 67
     1
  8
0
  6
Continuous
 62
     7
370
    25
100
AcDbCircle
 10
0.0
 20
0.0
 30
0.0
 40
100.0000000000001
  0
LINE
  5
1AA
330
1B
100
AcDbEntity
 67
     1
  8
0
  6
Continuous
 62
     7
370
    25
100
AcDbLine
 10
9.2695673616
 20
0.0
 30
0.0
 11
9.6738903343
 21
0.0
 31
0.0
  0
VIEWPORT
  5
1AB
330
1B
100
AcDbEntity
 67
     1
  8
0
100
AcDbViewport
 10
0.0
 20
0.0
 30
0.0
 40
205.6
 41
156.0
 68
     1
 69
     1
 12
0.0
 22
24.8991161524
 13
0.0
 23
0.0
 14
10.0
 24
10.0
 15
10.0
 25
10.0
 16
0.0
 26
0.0
 36
1.0
 17
0.0
 27
0.0
 37
0.0
 42
50.0
 43
0.0
 44
0.0
 45
154.7859922179
 50
0.0
 51
0.0
 72
   100
 90
   557152
  1

281
     0
 71
     1
 74
     0
110
0.0
120
0.0
130
0.0
111
1.0
121
0.0
131
0.0
112
0.0
122
1.0
132
0.0
 79
     0
146
0.0
  0
ENDSEC
  0
SECTION
  2
OBJECTS
  0
DICTIONARY
  5
C
330
0
100
AcDbDictionary
281
     1
  3
ACAD_GROUP
350
D
  3
ACAD_LAYOUT
350
1A
  3
ACAD_MLINESTYLE
350
17
  3
ACAD_PLOTSETTINGS
350
19
  3
ACAD_PLOTSTYLENAME
350
E
  3
ACAD_SCALELIST
350
47
  0
DICTIONARY
  5
D
102
{ACAD_REACTORS
330
C
102
}
330
C
100
AcDbDictionary
281
     1
  0
DICTIONARY
  5
1A
102
{ACAD_REACTORS
330
C
102
}
330
C
100
AcDbDictionary
281
     1
  3
_Top
350
1E
  3
Layout2
350
26
  3
Model
350
22
  0
DICTIONARY
  5
17
102
{ACAD_REACTORS
330
C
102
}
330
C
100
AcDbDictionary
281
     1
  3
Standard
350
18
  0
DICTIONARY
  5
19
102
{ACAD_REACTORS
330
C
102
}
330
C
100
AcDbDictionary
281
     1
  0
ACDBDICTIONARYWDFLT
  5
E
102
{ACAD_REACTORS
330
C
102
}
330
C
100
AcDbDictionary
281
     1
  3
Normal
350
F
100
AcDbDictionaryWithDefault
340
F
  0
DICTIONARY
  5
47
102
{ACAD_REACTORS
330
C
102
}
330
C
100
AcDbDictionary
281
     1
  3
A0
350
48
  3
A1
350
49
  3
A2
350
4A
  3
A3
350
4B
  3
A4
350
4C
  3
A5
350
4D
  3
A6
350
4E
  3
A7
350
4F
  3
A8
350
50
  3
A9
350
51
  3
B0
350
52
  3
B1
350
53
  3
B2
350
54
  3
B3
350
55
  3
B4
350
56
  3
B5
350
57
  3
B6
350
58
  3
B7
350
59
  3
B8
350
5A
  3
B9
350
5B
  3
C0
350
5C
  3
C1
350
5D
  3
C2
350
5E
  3
C3
350
5F
  3
C4
350
60
  3
C5
350
61
  3
C6
350
62
  3
C7
350
63
  3
C8
350
64
  3
C9
350
65
  3
D0
350
66
  3
D1
350
67
  3
D2
350
68
  0
LAYOUT
  5
1E
102
{ACAD_REACTORS
330
1A
102
}
330
1A
100
AcDbPlotSettings
  1

  2
none_device
  4
ISO_A4_(210.00_x_297.00_MM)
  6

 40
7.5
 41
20.0
 42
7.5
 43
20.0
 44
210.0
 45
297.0
 46
0.0
 47
0.0
 48
0.0
 49
0.0
140
0.0
141
0.0
142
1.0
143
1.0256410256
 70
   688
 72
     1
 73
     1
 74
     1
  7

 75
     0
147
0.975
148
100.0
149
100.0
100
AcDbLayout
  1
_Top
 70
     1
 71
     1
 10
-120.5128205128
 20
-107.6923076923
 11
184.1025641026
 21
107.6923076923
 12
0.0
 22
0.0
 32
0.0
 14
-100.0
 24
-100.0
 34
0.0
 15
100.0
 25
100.0
 35
0.0
146
0.0
 13
0.0
 23
0.0
 33
0.0
 16
1.0
 26
0.0
 36
0.0
 17
0.0
 27
1.0
 37
0.0
 76
     0
330
1B
331
1AB
  0
LAYOUT
  5
26
102
{ACAD_REACTORS
330
1A
102
}
330
1A
100
AcDbPlotSettings
  1

  2
none_device
  4

  6

 40
0.0
 41
0.0
 42
0.0
 43
0.0
 44
0.0
 45
0.0
 46
0.0
 47
0.0
 48
0.0
 49
0.0
140
0.0
141
0.0
142
1.0
143
1.0
 70
   688
 72
     1
 73
     0
 74
     5
  7

 75
    16
147
1.0
148
0.0
149
0.0
100
AcDbLayout
  1
Layout2
 70
     1
 71
     2
 10
0.0
 20
0.0
 11
0.0
 21
0.0
 12
0.0
 22
0.0
 32
0.0
 14
0.0
 24
0.0
 34
0.0
 15
0.0
 25
0.0
 35
0.0
146
0.0
 13
0.0
 23
0.0
 33
0.0
 16
1.0
 26
0.0
 36
0.0
 17
0.0
 27
1.0
 37
0.0
 76
     0
330
23
  0
LAYOUT
  5
22
102
{ACAD_REACTORS
330
1A
102
}
330
1A
100
AcDbPlotSettings
  1

  2
none_device
  4
ANSI_A_(11.00_x_8.50_Inches)
  6

 40
6.35
 41
19.05
 42
6.35000508
 43
19.05000254
 44
279.4
 45
215.9
 46
133.34999746
 47
54.4637741177
 48
0.0
 49
0.0
140
0.0
141
0.0
142
0.05445
143
1.0
 70
  1696
 72
     0
 73
     0
 74
     0
  7

 75
     0
147
0.0179189148
148
-1300.4909072572
149
0.0
100
AcDbLayout
  1
Model
 70
     1
 71
     0
 10
0.0
 20
0.0
 11
420.0
 21
297.0
 12
0.0
 22
0.0
 32
0.0
 14
-100.0
 24
-5.0017676952
 34
0.0
 15
100.0
 25
54.8
 35
0.0
146
0.0
 13
0.0
 23
0.0
 33
0.0
 16
1.0
 26
0.0
 36
0.0
 17
0.0
 27
1.0
 37
0.0
 76
     0
330
1F
331
29
  0
MLINESTYLE
  5
18
102
{ACAD_REACTORS
330
17
102
}
330
17
100
AcDbMlineStyle
  2
Standard
 70
     0
  3

 62
   256
 51
90.0
 52
90.0
 71
     2
 49
0.5
 62
   256
  6
BYLAYER
 49
-0.5
 62
   256
  6
BYLAYER
  0
ACDBPLACEHOLDER
  5
F
102
{ACAD_REACTORS
330
E
102
}
330
E
  0
SCALE
  5
48
102
{ACAD_REACTORS
330
47
102
}
330
47
100
AcDbScale
 70
     0
300
1:1
140
1.0
141
1.0
290
     1
  0
SCALE
  5
49
102
{ACAD_REACTORS
330
47
102
}
330
47
100
AcDbScale
 70
     0
300
1:2
140
1.0
141
2.0
290
     0
  0
SCALE
  5
4A
102
{ACAD_REACTORS
330
47
102
}
330
47
100
AcDbScale
 70
     0
300
1:4
140
1.0
141
4.0
290
     0
  0
SCALE
  5
4B
102
{ACAD_REACTORS
330
47
102
}
330
47
100
AcDbScale
 70
     0
300
1:5
140
1.0
141
5.0
290
     0
  0
SCALE
  5
4C
102
{ACAD_REACTORS
330
47
102
}
330
47
100
AcDbScale
 70
     0
300
1:8
140
1.0
141
8.0
290
     0
  0
SCALE
  5
4D
102
{ACAD_REACTORS
330
47
102
}
330
47
100
AcDbScale
 70
     0
300
1:10
140
1.0
141
10.0
290
     0
  0
SCALE
  5
4E
102
{ACAD_REACTORS
330
47
102
}
330
47
100
AcDbScale
 70
     0
300
1:16
140
1.0
141
16.0
290
     0
  0
SCALE
  5
4F
102
{ACAD_REACTORS
330
47
102
}
330
47
100
AcDbScale
 70
     0
300
1:20
140
1.0
141
20.0
290
     0
  0
SCALE
  5
50
102
{ACAD_REACTORS
330
47
102
}
330
47
100
AcDbScale
 70
     0
300
1:30
140
1.0
141
30.0
290
     0
  0
SCALE
  5
51
102
{ACAD_REACTORS
330
47
102
}
330
47
100
AcDbScale
 70
     0
300
1:40
140
1.0
141
40.0
290
     0
  0
SCALE
  5
52
102
{ACAD_REACTORS
330
47
102
}
330
47
100
AcDbScale
 70
     0
300
1:50
140
1.0
141
50.0
290
     0
  0
SCALE
  5
53
102
{ACAD_REACTORS
330
47
102
}
330
47
100
AcDbScale
 70
     0
300
1:100
140
1.0
141
100.0
290
     0
  0
SCALE
  5
54
102
{ACAD_REACTORS
330
47
102
}
330
47
100
AcDbScale
 70
     0
300
2:1
140
2.0
141
1.0
290
     0
  0
SCALE
  5
55
102
{ACAD_REACTORS
330
47
102
}
330
47
100
AcDbScale
 70
     0
300
4:1
140
4.0
141
1.0
290
     0
  0
SCALE
  5
56
102
{ACAD_REACTORS
330
47
102
}
330
47
100
AcDbScale
 70
     0
300
8:1
140
8.0
141
1.0
290
     0
  0
SCALE
  5
57
102
{ACAD_REACTORS
330
47
102
}
330
47
100
AcDbScale
 70
     0
300
10:1
140
10.0
141
1.0
290
     0
  0
SCALE
  5
58
102
{ACAD_REACTORS
330
47
102
}
330
47
100
AcDbScale
 70
     0
300
100:1
140
100.0
141
1.0
290
     0
  0
SCALE
  5
59
102
{ACAD_REACTORS
330
47
102
}
330
47
100
AcDbScale
 70
     0
300
1/128" = 1'-0"
140
0.0078125
141
12.0
290
     0
  0
SCALE
  5
5A
102
{ACAD_REACTORS
330
47
102
}
330
47
100
AcDbScale
 70
     0
300
1/64" = 1'-0"
140
0.015625
141
12.0
290
     0
  0
SCALE
  5
5B
102
{ACAD_REACTORS
330
47
102
}
330
47
100
AcDbScale
 70
     0
300
1/32" = 1'-0"
140
0.03125
141
12.0
290
     0
  0
SCALE
  5
5C
102
{ACAD_REACTORS
330
47
102
}
330
47
100
AcDbScale
 70
     0
300
1/16" = 1'-0"
140
0.0625
141
12.0
290
     0
  0
SCALE
  5
5D
102
{ACAD_REACTORS
330
47
102
}
330
47
100
AcDbScale
 70
     0
300
3/32" = 1'-0"
140
0.09375
141
12.0
290
     0
  0
SCALE
  5
5E
102
{ACAD_REACTORS
330
47
102
}
330
47
100
AcDbScale
 70
     0
300
1/8" = 1'-0"
140
0.125
141
12.0
290
     0
  0
SCALE
  5
5F
102
{ACAD_REACTORS
330
47
102
}
330
47
100
AcDbScale
 70
     0
300
3/16" = 1'-0"
140
0.1875
141
12.0
290
     0
  0
SCALE
  5
60
102
{ACAD_REACTORS
330
47
102
}
330
47
100
AcDbScale
 70
     0
300
1/4" = 1'-0"
140
0.25
141
12.0
290
     0
  0
SCALE
  5
61
102
{ACAD_REACTORS
330
47
102
}
330
47
100
AcDbScale
 70
     0
300
3/8" = 1'-0"
140
0.375
141
12.0
290
     0
  0
SCALE
  5
62
102
{ACAD_REACTORS
330
47
102
}
330
47
100
AcDbScale
 70
     0
300
1/2" = 1'-0"
140
0.5
141
12.0
290
     0
  0
SCALE
  5
63
102
{ACAD_REACTORS
330
47
102
}
330
47
100
AcDbScale
 70
     0
300
3/4" = 1'-0"
140
0.75
141
12.0
290
     0
  0
SCALE
  5
64
102
{ACAD_REACTORS
330
47
102
}
330
47
100
AcDbScale
 70
     0
300
1" = 1'-0"
140
1.0
141
12.0
290
     0
  0
SCALE
  5
65
102
{ACAD_REACTORS
330
47
102
}
330
47
100
AcDbScale
 70
     0
300
1-1/2" = 1'-0"
140
1.5
141
12.0
290
     0
  0
SCALE
  5
66
102
{ACAD_REACTORS
330
47
102
}
330
47
100
AcDbScale
 70
     0
300
3" = 1'-0"
140
3.0
141
12.0
290
     0
  0
SCALE
  5
67
102
{ACAD_REACTORS
330
47
102
}
330
47
100
AcDbScale
 70
     0
300
6" = 1'-0"
140
6.0
141
12.0
290
     0
  0
SCALE
  5
68
102
{ACAD_REACTORS
330
47
102
}
330
47
100
AcDbScale
 70
     0
300
1'-0" = 1'-0"
140
12.0
141
12.0
290
     0
  0
ENDSEC
  0
EOF
