  0
SECTION
  2
HEADER
  9
$ACADVER
  1
AC1015
  9
$ACADMAINTVER
 70
     6
  9
$DWGCODEPAGE
  3
ANSI_1252
  9
$INSBASE
 10
0.0
 20
0.0
 30
0.0
  9
$EXTMIN
 10
-79.0
 20
-14.0
 30
0.0
  9
$EXTMAX
 10
70.0
 20
96.1
 30
0.0
  9
$LIMMIN
 10
0.0
 20
0.0
  9
$LIMMAX
 10
420.0
 20
297.0
  9
$ORTHOMODE
 70
     0
  9
$REGENMODE
 70
     1
  9
$FILLMODE
 70
     1
  9
$QTEXTMODE
 70
     0
  9
$MIRRTEXT
 70
     1
  9
$LTSCALE
 40
1.0
  9
$ATTMODE
 70
     1
  9
$TEXTSIZE
 40
3.5
  9
$TRACEWID
 40
1.0
  9
$TEXTSTYLE
  7
Standard
  9
$CLAYER
  8
0
  9
$CELTYPE
  6
ByLayer
  9
$CECOLOR
 62
   256
  9
$CELTSCALE
 40
1.0
  9
$DISPSILH
 70
     0
  9
$DIMSCALE
 40
1.0
  9
$DIMASZ
 40
3.302
  9
$DIMEXO
 40
1.0
  9
$DIMDLI
 40
3.75
  9
$DIMRND
 40
0.0
  9
$DIMDLE
 40
0.0
  9
$DIMEXE
 40
1.0
  9
$DIMTP
 40
0.0
  9
$DIMTM
 40
0.0
  9
$DIMTXT
 40
3.5
  9
$DIMCEN
 40
2.5
  9
$DIMTSZ
 40
0.0
  9
$DIMTOL
 70
     0
  9
$DIMLIM
 70
     0
  9
$DIMTIH
 70
     1
  9
$DIMTOH
 70
     1
  9
$DIMSE1
 70
     0
  9
$DIMSE2
 70
     0
  9
$DIMTAD
 70
     1
  9
$DIMZIN
 70
     1
  9
$DIMBLK
  1

  9
$DIMASO
 70
     1
  9
$DIMSHO
 70
     1
  9
$DIMPOST
  1

  9
$DIMAPOST
  1

  9
$DIMALT
 70
     0
  9
$DIMALTD
 70
     3
  9
$DIMALTF
 40
0.0393700787
  9
$DIMLFAC
 40
1.0
  9
$DIMTOFL
 70
     1
  9
$DIMTVP
 40
0.0
  9
$DIMTIX
 70
     0
  9
$DIMSOXD
 70
     0
  9
$DIMSAH
 70
     0
  9
$DIMBLK1
  1

  9
$DIMBLK2
  1

  9
$DIMSTYLE
  2
ISO-25
  9
$DIMCLRD
 70
     0
  9
$DIMCLRE
 70
     0
  9
$DIMCLRT
 70
     0
  9
$DIMTFAC
 40
1.0
  9
$DIMGAP
 40
1.524
  9
$DIMJUST
 70
     0
  9
$DIMSD1
 70
     0
  9
$DIMSD2
 70
     0
  9
$DIMTOLJ
 70
     0
  9
$DIMTZIN
 70
     1
  9
$DIMALTZ
 70
     0
  9
$DIMALTTZ
 70
     0
  9
$DIMUPT
 70
     0
  9
$DIMDEC
 70
     2
  9
$DIMTDEC
 70
     2
  9
$DIMALTU
 70
     2
  9
$DIMALTTD
 70
     3
  9
$DIMTXSTY
  7
Standard
  9
$DIMAUNIT
 70
     0
  9
$DIMADEC
 70
     2
  9
$DIMALTRND
 40
0.0
  9
$DIMAZIN
 70
     0
  9
$DIMDSEP
 70
    44
  9
$DIMATFIT
 70
     3
  9
$DIMFRAC
 70
     0
  9
$DIMLDRBLK
  1

  9
$DIMLUNIT
 70
     2
  9
$DIMLWD
 70
    -2
  9
$DIMLWE
 70
    -2
  9
$DIMTMOVE
 70
     0
  9
$LUNITS
 70
     2
  9
$LUPREC
 70
     2
  9
$SKETCHINC
 40
1.0
  9
$FILLETRAD
 40
10.0
  9
$AUNITS
 70
     0
  9
$AUPREC
 70
     2
  9
$MENU
  1
.
  9
$ELEVATION
 40
0.0
  9
$PELEVATION
 40
0.0
  9
$THICKNESS
 40
0.0
  9
$LIMCHECK
 70
     0
  9
$CHAMFERA
 40
0.0
  9
$CHAMFERB
 40
0.0
  9
$CHAMFERC
 40
0.0
  9
$CHAMFERD
 40
0.0
  9
$SKPOLY
 70
     0
  9
$TDCREATE
 40
2459362.750309537
  9
$TDUCREATE
 40
2459362.70864287
  9
$TDUPDATE
 40
2459362.750441979
  9
$TDUUPDATE
 40
2459362.708775313
  9
$TDINDWG
 40
0.0000000116
  9
$TDUSRTIMER
 40
0.0000000116
  9
$USRTIMER
 70
     1
  9
$ANGBASE
 50
0.0
  9
$ANGDIR
 70
     0
  9
$PDMODE
 70
     0
  9
$PDSIZE
 40
-1.0
  9
$PLINEWID
 40
0.0
  9
$SPLFRAME
 70
     0
  9
$SPLINETYPE
 70
     6
  9
$SPLINESEGS
 70
     8
  9
$HANDSEED
  5
252
  9
$SURFTAB1
 70
     6
  9
$SURFTAB2
 70
     6
  9
$SURFTYPE
 70
     6
  9
$SURFU
 70
     6
  9
$SURFV
 70
     6
  9
$UCSBASE
  2

  9
$UCSNAME
  2

  9
$UCSORG
 10
0.0
 20
0.0
 30
0.0
  9
$UCSXDIR
 10
1.0
 20
0.0
 30
0.0
  9
$UCSYDIR
 10
0.0
 20
1.0
 30
0.0
  9
$UCSORTHOREF
  2

  9
$UCSORTHOVIEW
 70
     0
  9
$UCSORGTOP
 10
0.0
 20
0.0
 30
0.0
  9
$UCSORGBOTTOM
 10
0.0
 20
0.0
 30
0.0
  9
$UCSORGLEFT
 10
0.0
 20
0.0
 30
0.0
  9
$UCSORGRIGHT
 10
0.0
 20
0.0
 30
0.0
  9
$UCSORGFRONT
 10
0.0
 20
0.0
 30
0.0
  9
$UCSORGBACK
 10
0.0
 20
0.0
 30
0.0
  9
$PUCSBASE
  2

  9
$PUCSNAME
  2

  9
$PUCSORG
 10
0.0
 20
0.0
 30
0.0
  9
$PUCSXDIR
 10
1.0
 20
0.0
 30
0.0
  9
$PUCSYDIR
 10
0.0
 20
1.0
 30
0.0
  9
$PUCSORTHOREF
  2

  9
$PUCSORTHOVIEW
 70
     0
  9
$PUCSORGTOP
 10
0.0
 20
0.0
 30
0.0
  9
$PUCSORGBOTTOM
 10
0.0
 20
0.0
 30
0.0
  9
$PUCSORGLEFT
 10
0.0
 20
0.0
 30
0.0
  9
$PUCSORGRIGHT
 10
0.0
 20
0.0
 30
0.0
  9
$PUCSORGFRONT
 10
0.0
 20
0.0
 30
0.0
  9
$PUCSORGBACK
 10
0.0
 20
0.0
 30
0.0
  9
$USERI1
 70
     0
  9
$USERI2
 70
     0
  9
$USERI3
 70
     0
  9
$USERI4
 70
     0
  9
$USERI5
 70
     0
  9
$USERR1
 40
0.0
  9
$USERR2
 40
0.0
  9
$USERR3
 40
0.0
  9
$USERR4
 40
0.0
  9
$USERR5
 40
0.0
  9
$WORLDVIEW
 70
     1
  9
$SHADEDGE
 70
     3
  9
$SHADEDIF
 70
    70
  9
$TILEMODE
 70
     0
  9
$MAXACTVP
 70
    64
  9
$PINSBASE
 10
0.0
 20
0.0
 30
0.0
  9
$PLIMCHECK
 70
     0
  9
$PEXTMIN
 10
-79.0
 20
-14.0
 30
0.0
  9
$PEXTMAX
 10
70.0
 20
96.1
 30
0.0
  9
$PLIMMIN
 10
0.0
 20
0.0
  9
$PLIMMAX
 10
0.0
 20
0.0
  9
$UNITMODE
 70
     0
  9
$VISRETAIN
 70
     1
  9
$PLINEGEN
 70
     0
  9
$PSLTSCALE
 70
     1
  9
$TREEDEPTH
 70
  3020
  9
$CMLSTYLE
  2
Standard
  9
$CMLJUST
 70
     0
  9
$CMLSCALE
 40
20.0
  9
$PROXYGRAPHICS
 70
     1
  9
$MEASUREMENT
 70
     1
  9
$CELWEIGHT
370
    -1
  9
$ENDCAPS
280
     0
  9
$JOINSTYLE
280
     0
  9
$LWDISPLAY
290
     1
  9
$INSUNITS
 70
     4
  9
$HYPERLINKBASE
  1

  9
$STYLESHEET
  1

  9
$XEDIT
290
     1
  9
$CEPSNTYPE
380
     0
  9
$PSTYLEMODE
290
     1
  9
$FINGERPRINTGUID
  2
{586f027a-abdf-4b19-940b-985c692ffe87}
  9
$VERSIONGUID
  2
{FAEB1C32-E019-11D5-929B-00C0DF256EC4}
  9
$EXTNAMES
290
     1
  9
$PSVPSCALE
 40
0.0
  9
$OLESTARTUP
290
     0
  0
ENDSEC
  0
SECTION
  2
CLASSES
  0
CLASS
  1
ACDBDICTIONARYWDFLT
  2
AcDbDictionaryWithDefault
  3
ObjectDBX Classes
 90
        0
280
     0
281
     0
  0
CLASS
  1
VISUALSTYLE
  2
AcDbVisualStyle
  3
ObjectDBX Classes
 90
     4095
280
     0
281
     0
  0
CLASS
  1
MATERIAL
  2
AcDbMaterial
  3
ObjectDBX Classes
 90
     1153
280
     0
281
     0
  0
CLASS
  1
SCALE
  2
AcDbScale
  3
ObjectDBX Classes
 90
     1153
280
     0
281
     0
  0
CLASS
  1
TABLESTYLE
  2
AcDbTableStyle
  3
ObjectDBX Classes
 90
     4095
280
     0
281
     0
  0
CLASS
  1
MLEADERSTYLE
  2
AcDbMLeaderStyle
  3
ACDB_MLEADERSTYLE_CLASS
 90
     4095
280
     0
281
     0
  0
CLASS
  1
SUN
  2
AcDbSun
  3
SCENEOE
 90
     1153
280
     0
281
     0
  0
CLASS
  1
ACDBPLACEHOLDER
  2
AcDbPlaceHolder
  3
ObjectDBX Classes
 90
        0
280
     0
281
     0
  0
CLASS
  1
LAYOUT
  2
AcDbLayout
  3
ObjectDBX Classes
 90
        0
280
     0
281
     0
  0
ENDSEC
  0
SECTION
  2
TABLES
  0
TABLE
  2
VPORT
  5
8
330
0
100
AcDbSymbolTable
 70
     1
  0
VPORT
  5
29
330
8
100
AcDbSymbolTableRecord
100
AcDbViewportTableRecord
  2
*Active
 70
     0
 10
0.0
 20
0.0
 11
1.0
 21
1.0
 12
-4.5
 22
41.05
 13
0.0
 23
0.0
 14
10.0
 24
10.0
 15
10.0
 25
10.0
 16
0.0
 26
0.0
 36
1.0
 17
0.0
 27
0.0
 37
0.0
 40
112.302
 41
1.353315168
 42
50.0
 43
0.0
 44
0.0
 50
0.0
 51
0.0
 71
     0
 72
   100
 73
     1
 74
     3
 75
     0
 76
     0
 77
     0
 78
     0
281
     0
 65
     1
110
0.0
120
0.0
130
0.0
111
1.0
121
0.0
131
0.0
112
0.0
122
1.0
132
0.0
 79
     0
146
0.0
  0
ENDTAB
  0
TABLE
  2
LTYPE
  5
5
330
0
100
AcDbSymbolTable
 70
     6
  0
LTYPE
  5
14
330
5
100
AcDbSymbolTableRecord
100
AcDbLinetypeTableRecord
  2
ByBlock
 70
     0
  3

 72
    65
 73
     0
 40
0.0
  0
LTYPE
  5
15
330
5
100
AcDbSymbolTableRecord
100
AcDbLinetypeTableRecord
  2
ByLayer
 70
     0
  3

 72
    65
 73
     0
 40
0.0
  0
LTYPE
  5
16
330
5
100
AcDbSymbolTableRecord
100
AcDbLinetypeTableRecord
  2
Continuous
 70
     0
  3
Solid line
 72
    65
 73
     0
 40
0.0
  0
LTYPE
  5
6E
330
5
100
AcDbSymbolTableRecord
100
AcDbLinetypeTableRecord
  2
HIDDEN
 70
     0
  3
Hidden __ __ __ __ __ __ __ __ __ __ __ __ __ __
 72
    65
 73
     2
 40
1.905
 49
1.27
 74
     0
 49
-0.635
 74
     0
  0
LTYPE
  5
6F
330
5
100
AcDbSymbolTableRecord
100
AcDbLinetypeTableRecord
  2
PHANTOM
 70
     0
  3
Phantom ______  __  __  ______  __  __  ______
 72
    65
 73
     6
 40
12.7
 49
6.35
 74
     0
 49
-1.27
 74
     0
 49
1.27
 74
     0
 49
-1.27
 74
     0
 49
1.27
 74
     0
 49
-1.27
 74
     0
  0
LTYPE
  5
70
330
5
100
AcDbSymbolTableRecord
100
AcDbLinetypeTableRecord
  2
CENTER
 70
     0
  3
Center ____ _ ____ _ ____ _ ____ _ ____ _ ____
 72
    65
 73
     4
 40
10.16
 49
6.35
 74
     0
 49
-1.27
 74
     0
 49
1.27
 74
     0
 49
-1.27
 74
     0
  0
LTYPE
  5
71
330
5
100
AcDbSymbolTableRecord
100
AcDbLinetypeTableRecord
  2
CENTERX2
 70
     0
  3
Center (2x) ________  __  ________  __  _____
 72
    65
 73
     4
 40
20.32
 49
12.7
 74
     0
 49
-2.54
 74
     0
 49
2.54
 74
     0
 49
-2.54
 74
     0
  0
LTYPE
  5
72
330
5
100
AcDbSymbolTableRecord
100
AcDbLinetypeTableRecord
  2
DOT2
 70
     0
  3
Dot (.5x) ........................................
 72
    65
 73
     2
 40
0.635
 49
0.0
 74
     0
 49
-0.635
 74
     0
  0
ENDTAB
  0
TABLE
  2
LAYER
  5
2
330
0
100
AcDbSymbolTable
 70
     1
  0
LAYER
  5
10
330
2
100
AcDbSymbolTableRecord
100
AcDbLayerTableRecord
  2
0
 70
     0
 62
     7
  6
Continuous
370
    -3
390
F
  0
ENDTAB
  0
TABLE
  2
STYLE
  5
3
330
0
100
AcDbSymbolTable
 70
     1
  0
STYLE
  5
11
330
3
100
AcDbSymbolTableRecord
100
AcDbTextStyleTableRecord
  2
Standard
 70
     0
 40
0.0
 41
1.0
 50
0.0
 71
     0
 42
3.5
  3
txt
  4

  0
ENDTAB
  0
TABLE
  2
VIEW
  5
6
330
0
100
AcDbSymbolTable
 70
     0
  0
ENDTAB
  0
TABLE
  2
UCS
  5
7
330
0
100
AcDbSymbolTable
 70
     0
  0
ENDTAB
  0
TABLE
  2
APPID
  5
9
330
0
100
AcDbSymbolTable
 70
     1
  0
APPID
  5
12
330
9
100
AcDbSymbolTableRecord
100
AcDbRegAppTableRecord
  2
ACAD
 70
     0
  0
ENDTAB
  0
TABLE
  2
DIMSTYLE
  5
A
330
0
100
AcDbSymbolTable
 70
     1
100
AcDbDimStyleTable
  0
DIMSTYLE
105
27
330
A
100
AcDbSymbolTableRecord
100
AcDbDimStyleTableRecord
  2
ISO-25
 70
     0
 41
2.5
 42
0.625
 43
3.75
 44
1.25
 73
     0
 74
     0
 77
     1
 78
     8
140
2.5
141
2.5
143
0.0393700787
147
0.625
171
     3
172
     1
178
     0
271
     2
272
     2
274
     3
278
    44
283
     0
284
     8
340
11
  0
ENDTAB
  0
TABLE
  2
BLOCK_RECORD
  5
1
330
0
100
AcDbSymbolTable
 70
     1
  0
BLOCK_RECORD
  5
1F
330
1
100
AcDbSymbolTableRecord
100
AcDbBlockTableRecord
  2
*Model_Space
340
22
  0
BLOCK_RECORD
  5
23
330
1
100
AcDbSymbolTableRecord
100
AcDbBlockTableRecord
  2
*Paper_Space
340
26
  0
BLOCK_RECORD
  5
1B
330
1
100
AcDbSymbolTableRecord
100
AcDbBlockTableRecord
  2
*Paper_Space0
340
1E
  0
ENDTAB
  0
ENDSEC
  0
SECTION
  2
BLOCKS
  0
BLOCK
  5
20
330
1F
100
AcDbEntity
  8
0
100
AcDbBlockBegin
  2
*Model_Space
 70
     0
 10
0.0
 20
0.0
 30
0.0
  3
*Model_Space
  1

  0
ENDBLK
  5
21
330
1F
100
AcDbEntity
  8
0
100
AcDbBlockEnd
  0
BLOCK
  5
24
330
23
100
AcDbEntity
 67
     1
  8
0
100
AcDbBlockBegin
  2
*Paper_Space
 70
     0
 10
0.0
 20
0.0
 30
0.0
  3
*Paper_Space
  1

  0
ENDBLK
  5
25
330
23
100
AcDbEntity
 67
     1
  8
0
100
AcDbBlockEnd
  0
BLOCK
  5
1C
330
1B
100
AcDbEntity
  8
0
100
AcDbBlockBegin
  2
*Paper_Space0
 70
     0
 10
0.0
 20
0.0
 30
0.0
  3
*Paper_Space0
  1

  0
SPLINE
  5
149
330
1B
100
AcDbEntity
  8
0
  6
Continuous
 62
     7
370
    25
100
AcDbSpline
210
0.0
220
0.0
230
1.0
 70
     8
 71
     3
 72
    40
 73
    36
 74
     0
 42
0.000000001
 43
0.00000001
 40
0.0
 40
0.0
 40
0.0
 40
0.0
 40
0.0133657977646396
 40
0.0267498720444508
 40
0.0401532943678426
 40
0.0535771316299668
 40
0.0670224458661442
 40
0.0804902940308492
 40
0.0939817277824425
 40
0.10749779327383
 40
0.1210395309492074
 40
0.1346079753470404
 40
0.1482041549094091
 40
0.1618290917978381
 40
0.1754838017157104
 40
0.1891692937373563
 40
0.2028865701438891
 40
0.2166366262658455
 40
0.2304204503326783
 40
0.2883846915949135
 40
0.3478235225585047
 40
0.4087999448907166
 40
0.4713723129787777
 40
0.5333589465094417
 40
0.5979904535004521
 40
0.6614991938966778
 40
0.7288528591800211
 40
0.7929743532704081
 40
0.8633335042398796
 40
0.882308999852232
 40
0.9028052977721814
 40
0.9248224880811301
 40
0.9483606379348946
 40
0.9734197967663507
 40
0.9999999999999999
 40
0.9999999999999999
 40
0.9999999999999999
 40
0.9999999999999999
 10
0.0
 20
76.10000000440003
 30
0.0
 10
-0.1571065402113909
 20
76.09959224426184
 30
0.0
 10
-0.4715344495666686
 20
76.09877616641047
 30
0.0
 10
-0.9432659537260075
 20
76.09218538669005
 30
0.0
 10
-1.415187962270126
 20
76.08166776746845
 30
0.0
 10
-1.887090312828251
 20
76.06683649301726
 30
0.0
 10
-2.358761515024635
 20
76.0477954451477
 30
0.0
 10
-2.829988838476202
 20
76.02451673058984
 30
0.0
 10
-3.30055840654332
 20
75.99700784829605
 30
0.0
 10
-3.770255290994736
 20
75.96526679074886
 30
0.0
 10
-4.23886360685787
 20
75.92929410484655
 30
0.0
 10
-4.706166615051799
 20
75.88908965017909
 30
0.0
 10
-5.171946802859908
 20
75.84465347598587
 30
0.0
 10
-5.635986054530358
 20
75.7959855630274
 30
0.0
 10
-6.098065491348601
 20
75.74308597705519
 30
0.0
 10
-6.557966556061193
 20
75.68595451257616
 30
0.0
 10
-7.015467444147409
 20
75.62459196808375
 30
0.0
 10
-7.470356967875308
 20
75.558995385843
 30
0.0
 10
-8.404942100729695
 20
75.41464030224046
 30
0.0
 10
-9.805209374496243
 20
75.15951439065934
 30
0.0
 10
-11.61598749356153
 20
74.74383587664747
 30
0.0
 10
-13.36124286504233
 20
74.25075983546421
 30
0.0
 10
-14.99996981395135
 20
73.68696803125637
 30
0.0
 10
-16.52419806464875
 20
73.0523508875922
 30
0.0
 10
-17.89649867300725
 20
72.36170738720931
 30
0.0
 10
-19.1326440490742
 20
71.60315591823716
 30
0.0
 10
-20.18116892216607
 20
70.8056213698939
 30
0.0
 10
-21.06871394252316
 20
69.94431677202579
 30
0.0
 10
-21.5871613132126
 20
69.26836619212429
 30
0.0
 10
-21.88240878276769
 20
68.77711861946207
 30
0.0
 10
-22.02895915949012
 20
68.50036686997733
 30
0.0
 10
-22.16479065605413
 20
68.2015684837919
 30
0.0
 10
-22.28453267940795
 20
67.88067580618657
 30
0.0
 10
-22.38578224903579
 20
67.53778304405883
 30
0.0
 10
-22.42881653790454
 20
67.30124684761823
 30
0.0
 10
-22.45096747274191
 20
67.17949514655001
 30
0.0
  0
SPLINE
  5
14A
330
1B
100
AcDbEntity
  8
0
  6
Continuous
 62
     7
370
    25
100
AcDbSpline
210
0.0
220
0.0
230
1.0
 70
     8
 71
     3
 72
    37
 73
    33
 74
     0
 42
0.000000001
 43
0.00000001
 40
0.0
 40
0.0
 40
0.0
 40
0.0
 40
0.0146871586346571
 40
0.0289217806221559
 40
0.0427038733619479
 40
0.0560334451741456
 40
0.0689105054233933
 40
0.0813350646652906
 40
0.0933071348204781
 40
0.1048267293828975
 40
0.1158938636706127
 40
0.1265085551300619
 40
0.1366708237080079
 40
0.2070293038609871
 40
0.2711526931567176
 40
0.3385059787841337
 40
0.4020169109285673
 40
0.4666483229405663
 40
0.528637373157406
 40
0.5912099508010055
 40
0.6521871530520269
 40
0.7116273374883436
 40
0.7695935073296254
 40
0.7955994350278898
 40
0.8214880830041524
 40
0.8472661750248013
 40
0.8729405217162918
 40
0.8985180165798898
 40
0.9240056317025627
 40
0.9494104131717263
 40
0.9747394762039387
 40
1.0
 40
1.0
 40
1.0
 40
1.0
 10
22.45096747274191
 20
67.17949514655001
 30
0.0
 10
22.43950947258904
 20
67.24679274240353
 30
0.0
 10
22.4169465129974
 20
67.37931437930348
 30
0.0
 10
22.3713819397298
 20
67.57455112748407
 30
0.0
 10
22.31891328056535
 20
67.76324323660644
 30
0.0
 10
22.2595619527527
 20
67.94536228926691
 30
0.0
 10
22.19440261776445
 20
68.12091557851828
 30
0.0
 10
22.12420430970705
 20
68.28990135905754
 30
0.0
 10
22.04977621339406
 20
68.45231998430249
 30
0.0
 10
21.97187894195985
 20
68.60817203562385
 30
0.0
 10
21.89124735966852
 20
68.75745541406263
 30
0.0
 10
21.80858219811945
 20
68.90017797619863
 30
0.0
 10
21.55741226084739
 20
69.30713057510143
 30
0.0
 10
21.06872164050682
 20
69.94431692431073
 30
0.0
 10
20.18119274691007
 20
70.80559837196171
 30
0.0
 10
19.13265884575944
 20
71.60314679215863
 30
0.0
 10
17.89651674696668
 20
72.36169749810183
 30
0.0
 10
16.52419679713039
 20
73.05235194337529
 30
0.0
 10
14.99996188629819
 20
73.68697112351086
 30
0.0
 10
13.36121572995279
 20
74.25076974256433
 30
0.0
 10
11.61595987971201
 20
74.74384321592842
 30
0.0
 10
9.805124693879808
 20
75.15953156826542
 30
0.0
 10
8.274463834682571
 20
75.43840786087378
 30
0.0
 10
7.068601355430451
 20
75.61913617963957
 30
0.0
 10
6.202683030077854
 20
75.73241569983924
 30
0.0
 10
5.328827037852307
 20
75.83058701743018
 30
0.0
 10
4.448488406142033
 20
75.91366530008511
 30
0.0
 10
3.563143145675628
 20
75.98162119286755
 30
0.0
 10
2.674250883554751
 20
76.03455558335631
 30
0.0
 10
1.783261763318799
 20
76.07209513095012
 30
0.0
 10
0.8916116920458128
 20
76.09562560820375
 30
0.0
 10
0.2969353396900482
 20
76.09854318992343
 30
0.0
 10
-0.0000000000000999
 20
76.10000000440002
 30
0.0
  0
SPLINE
  5
14E
330
1B
100
AcDbEntity
  8
0
  6
Continuous
 62
     7
370
    25
100
AcDbSpline
210
0.0
220
0.0
230
1.0
 70
     8
 71
     3
 72
    11
 73
     7
 74
     0
 42
0.000000001
 43
0.00000001
 40
0.0
 40
0.0
 40
0.0
 40
0.0
 40
0.2512072228558413
 40
0.4999134262564364
 40
0.7486632477240238
 40
1.0
 40
1.0
 40
1.0
 40
1.0
 10
22.47339392267363
 20
67.10000000000001
 30
0.0
 10
22.47171339246869
 20
67.10093373259136
 30
0.0
 10
22.46836906341986
 20
67.1027919015311
 30
0.0
 10
22.46284527772569
 20
67.11842830084132
 30
0.0
 10
22.45704996429055
 20
67.14277765418339
 30
0.0
 10
22.45300195000479
 20
67.16721384656427
 30
0.0
 10
22.45096747274191
 20
67.17949514655001
 30
0.0
  0
SPLINE
  5
150
330
1B
100
AcDbEntity
  8
0
  6
Continuous
 62
     7
370
    25
100
AcDbSpline
210
0.0
220
0.0
230
1.0
 70
     8
 71
     3
 72
    11
 73
     7
 74
     0
 42
0.000000001
 43
0.00000001
 40
0.0
 40
0.0
 40
0.0
 40
0.0
 40
0.2513367522758608
 40
0.5000865737433605
 40
0.7487927771440086
 40
0.9999999999999999
 40
0.9999999999999999
 40
0.9999999999999999
 40
0.9999999999999999
 10
-22.45096747274191
 20
67.17949514655001
 30
0.0
 10
-22.45300195000478
 20
67.16721384656425
 30
0.0
 10
-22.45704996429054
 20
67.14277765418342
 30
0.0
 10
-22.4628452777257
 20
67.1184283008413
 30
0.0
 10
-22.46836906341984
 20
67.10279190153109
 30
0.0
 10
-22.47171339246869
 20
67.10093373259134
 30
0.0
 10
-22.47339392267363
 20
67.10000000000001
 30
0.0
  0
SPLINE
  5
156
330
1B
100
AcDbEntity
  8
0
  6
Continuous
 62
     7
370
    25
100
AcDbSpline
210
0.0
220
0.0
230
1.0
 70
     8
 71
     3
 72
    11
 73
     7
 74
     0
 42
0.000000001
 43
0.00000001
 40
0.0
 40
0.0
 40
0.0
 40
0.0
 40
0.2512022979784235
 40
0.499907317158284
 40
0.7486590322259258
 40
1.0
 40
1.0
 40
1.0
 40
1.0
 10
-21.72247532864669
 20
67.1
 30
0.0
 10
-21.72073669177551
 20
67.1009337495323
 30
0.0
 10
-21.71727670235351
 20
67.1027919659075
 30
0.0
 10
-21.71156183146984
 20
67.11842842770824
 30
0.0
 10
-21.70556594247782
 20
67.14277781029607
 30
0.0
 10
-21.7013777486963
 20
67.16721386154154
 30
0.0
 10
-21.69927280952325
 20
67.17949514655
 30
0.0
  0
SPLINE
  5
157
330
1B
100
AcDbEntity
  8
0
  6
Continuous
 62
     7
370
    25
100
AcDbSpline
210
0.0
220
0.0
230
1.0
 70
     8
 71
     3
 72
    11
 73
     7
 74
     0
 42
0.000000001
 43
0.00000001
 40
0.0
 40
0.0
 40
0.0
 40
0.0
 40
0.2513409677740109
 40
0.500092682841679
 40
0.7487977020215837
 40
1.0
 40
1.0
 40
1.0
 40
1.0
 10
21.69927280952325
 20
67.17949514655
 30
0.0
 10
21.7013777486963
 20
67.16721386154155
 30
0.0
 10
21.70556594247781
 20
67.14277781029604
 30
0.0
 10
21.71156183146984
 20
67.11842842770825
 30
0.0
 10
21.71727670235351
 20
67.10279196590751
 30
0.0
 10
21.72073669177551
 20
67.1009337495323
 30
0.0
 10
21.7224753286467
 20
67.1
 30
0.0
  0
SPLINE
  5
179
330
1B
100
AcDbEntity
  8
0
  6
Continuous
 62
     7
370
    25
100
AcDbSpline
210
0.0
220
0.0
230
1.0
 70
     8
 71
     3
 72
    26
 73
    22
 74
     0
 42
0.000000001
 43
0.00000001
 40
0.0
 40
0.0
 40
0.0
 40
0.0
 40
0.0625000000000001
 40
0.0625000000000001
 40
0.1250000000000001
 40
0.1250000000000001
 40
0.2500000000000002
 40
0.2500000000000002
 40
0.3750000000000002
 40
0.3750000000000002
 40
0.5000000000000002
 40
0.5000000000000002
 40
0.6250000000000002
 40
0.6250000000000002
 40
0.7500000000000002
 40
0.7500000000000002
 40
0.8750000000000003
 40
0.8750000000000003
 40
0.9375000000000001
 40
0.9375000000000001
 40
1.0
 40
1.0
 40
1.0
 40
1.0
 10
-8.001110673913999
 20
-12.63394845436
 30
0.0
 10
-8.19513682953274
 20
-12.52466839624751
 30
0.0
 10
-8.379705869429413
 20
-12.41480437198361
 30
0.0
 10
-8.729181904968602
 20
-12.19703566410142
 30
0.0
 10
-8.893968361184623
 20
-12.08921782357637
 30
0.0
 10
-9.363498836707436
 20
-11.7692257539156
 30
0.0
 10
-9.644083475125946
 20
-11.56023560879545
 30
0.0
 10
-10.14817022525002
 20
-11.16039739624115
 30
0.0
 10
-10.37092191572364
 20
-10.97029926205131
 30
0.0
 10
-10.77122458902763
 20
-10.61097131253323
 30
0.0
 10
-10.94921941463834
 20
-10.44155067188099
 30
0.0
 10
-11.28557877403834
 20
-10.10656848152942
 30
0.0
 10
-11.44492322471479
 20
-9.939953906203822
 30
0.0
 10
-11.76462030355815
 20
-9.589003699683282
 30
0.0
 10
-11.92451606491772
 20
-9.404734033747628
 30
0.0
 10
-12.23888942572202
 20
-9.022727878083684
 30
0.0
 10
-12.39439855737255
 20
-8.823816285821032
 30
0.0
 10
-12.62338727402551
 20
-8.513837429193455
 30
0.0
 10
-12.69865996084241
 20
-8.409064302499498
 30
0.0
 10
-12.84283659498869
 20
-8.202803545404889
 30
0.0
 10
-12.91191313740003
 20
-8.101087883901826
 30
0.0
 10
-12.9787845372
 20
-8.0
 30
0.0
  0
SPLINE
  5
17A
330
1B
100
AcDbEntity
  8
0
  6
Continuous
 62
     7
370
    25
100
AcDbSpline
210
0.0
220
0.0
230
1.0
 70
     8
 71
     3
 72
    10
 73
     6
 74
     0
 42
0.000000001
 43
0.00000001
 40
0.0
 40
0.0
 40
0.0
 40
0.0
 40
0.5
 40
0.5
 40
1.0
 40
1.0
 40
1.0
 40
1.0
 10
-6.583173726858
 20
-14.0
 30
0.0
 10
-6.835008655475499
 20
-13.815486685325
 30
0.0
 10
-7.07778114762621
 20
-13.60958973232958
 30
0.0
 10
-7.551398766710998
 20
-13.15261286049001
 30
0.0
 10
-7.780397415356498
 20
-12.90301750071
 30
0.0
 10
-8.001110673913999
 20
-12.63394845436
 30
0.0
  0
SPLINE
  5
181
330
1B
100
AcDbEntity
  8
0
  6
Continuous
 62
     7
370
    25
100
AcDbSpline
210
0.0
220
0.0
230
1.0
 70
     8
 71
     3
 72
    26
 73
    22
 74
     0
 42
0.000000001
 43
0.00000001
 40
0.0
 40
0.0
 40
0.0
 40
0.0
 40
0.0625000000000003
 40
0.0625000000000003
 40
0.0937500000000001
 40
0.0937500000000001
 40
0.1249999999999999
 40
0.1249999999999999
 40
0.1875000000000001
 40
0.1875000000000001
 40
0.2500000000000003
 40
0.2500000000000003
 40
0.375000000000001
 40
0.375000000000001
 40
0.5000000000000018
 40
0.5000000000000018
 40
0.7500000000000007
 40
0.7500000000000007
 40
0.8750000000000003
 40
0.8750000000000003
 40
1.0
 40
1.0
 40
1.0
 40
1.0
 10
-12.6984250992
 20
-8.0
 30
0.0
 10
-12.621500202215
 20
-8.0
 30
0.0
 10
-12.53642434095781
 20
-7.992044434247003
 30
0.0
 10
-12.38875538298658
 20
-7.952210116355711
 30
0.0
 10
-12.33633332704317
 20
-7.93383142451802
 30
0.0
 10
-12.23409118061526
 20
-7.88743684147019
 30
0.0
 10
-12.1849987543933
 20
-7.859690382569492
 30
0.0
 10
-12.05610376338418
 20
-7.773380328109883
 30
0.0
 10
-11.99479952002297
 20
-7.714076285704856
 30
0.0
 10
-11.90137608677401
 20
-7.608034092147927
 30
0.0
 10
-11.86815529967879
 20
-7.559782614373789
 30
0.0
 10
-11.78777494278493
 20
-7.426068461778929
 30
0.0
 10
-11.75931780271958
 20
-7.35092409670493
 30
0.0
 10
-11.71906965959131
 20
-7.214319870037269
 30
0.0
 10
-11.70853069054791
 20
-7.153107491260115
 30
0.0
 10
-11.69196634161918
 20
-6.980709086613267
 30
0.0
 10
-11.70055501752584
 20
-6.880195125725311
 30
0.0
 10
-11.73339647837365
 20
-6.733083836063907
 30
0.0
 10
-11.74821875960692
 20
-6.684452946020381
 30
0.0
 10
-11.7841237411811
 20
-6.591937325250457
 30
0.0
 10
-11.80475921856254
 20
-6.549735780136907
 30
0.0
 10
-11.82267171042
 20
-6.517241415881003
 30
0.0
  0
SPLINE
  5
182
330
1B
100
AcDbEntity
  8
0
  6
Continuous
 62
     7
370
    25
100
AcDbSpline
210
0.0
220
0.0
230
1.0
 70
    24
 71
     3
 72
     8
 73
     4
 74
     0
 42
0.000000001
 43
0.00000001
 40
0.0
 40
0.0
 40
0.0
 40
0.0
 40
1.0
 40
1.0
 40
1.0
 40
1.0
 10
-12.9787845372
 20
-8.0
 30
0.0
 10
-12.89832119903999
 20
-8.0
 30
0.0
 10
-12.80334626307001
 20
-8.0
 30
0.0
 10
-12.6984250992
 20
-8.0
 30
0.0
  0
SPLINE
  5
184
330
1B
100
AcDbEntity
  8
0
  6
Continuous
 62
     7
370
    25
100
AcDbSpline
210
0.0
220
0.0
230
1.0
 70
     8
 71
     3
 72
    16
 73
    12
 74
     0
 42
0.000000001
 43
0.00000001
 40
0.0
 40
0.0
 40
0.0
 40
0.0
 40
0.25
 40
0.25
 40
0.5
 40
0.5
 40
0.75
 40
0.75
 40
0.875
 40
0.875
 40
1.0
 40
1.0
 40
1.0
 40
1.0
 10
-6.461538457219
 20
12.51489290321
 30
0.0
 10
-6.109063513699003
 20
12.74864317216
 30
0.0
 10
-5.663533310595001
 20
13.016986802
 30
0.0
 10
-4.653190874796667
 20
13.52148367211667
 30
0.0
 10
-4.095303033643335
 20
13.75369195059999
 30
0.0
 10
-2.9495184704
 20
14.12557723683334
 30
0.0
 10
-2.360252379245666
 20
14.26708918917667
 30
0.0
 10
-1.475769893774417
 20
14.40716817060167
 30
0.0
 10
-1.181407175938976
 20
14.44196171406542
 30
0.0
 10
-0.5894474013645369
 20
14.48850439486541
 30
0.0
 10
-0.2932238769464683
 20
14.499999472925
 30
0.0
 10
-0.0000000000000203
 20
14.5
 30
0.0
  0
SPLINE
  5
186
330
1B
100
AcDbEntity
  8
0
  6
Continuous
 62
     7
370
    25
100
AcDbSpline
210
0.0
220
0.0
230
1.0
 70
     8
 71
     3
 72
    16
 73
    12
 74
     0
 42
0.000000001
 43
0.00000001
 40
0.0
 40
0.0
 40
0.0
 40
0.0
 40
0.1249999999999999
 40
0.1249999999999999
 40
0.2499999999999998
 40
0.2499999999999998
 40
0.4999999999999998
 40
0.4999999999999998
 40
0.7499999999999999
 40
0.7499999999999999
 40
1.0
 40
1.0
 40
1.0
 40
1.0
 10
-0.000000000000021
 20
14.5
 30
0.0
 10
0.2932288315930315
 20
14.49999949885
 30
0.0
 10
0.5894550553050665
 20
14.48850381302
 30
0.0
 10
1.181401735086317
 20
14.44196205923042
 30
0.0
 10
1.475744475941166
 20
14.407171577585
 30
0.0
 10
2.360245218283668
 20
14.26709156066001
 30
0.0
 10
2.949505179610666
 20
14.12558081093334
 30
0.0
 10
4.095290553260668
 20
13.753696744
 30
0.0
 10
4.653199060089669
 20
13.52147989432333
 30
0.0
 10
5.663530408378
 20
13.01698793889001
 30
0.0
 10
6.109046736295002
 20
12.74865433261001
 30
0.0
 10
6.461538458385
 20
12.51489290321
 30
0.0
  0
SPLINE
  5
189
330
1B
100
AcDbEntity
  8
0
  6
Continuous
 62
     7
370
    25
100
AcDbSpline
210
0.0
220
0.0
230
1.0
 70
     8
 71
     3
 72
    10
 73
     6
 74
     0
 42
0.000000001
 43
0.00000001
 40
0.0
 40
0.0
 40
0.0
 40
0.0
 40
0.5
 40
0.5
 40
1.0
 40
1.0
 40
1.0
 40
1.0
 10
8.088875471083998
 20
10.80833508937
 30
0.0
 10
8.066429745939002
 20
10.82513339556999
 30
0.0
 10
8.060002609437001
 20
10.86275714015333
 30
0.0
 10
8.084832734375334
 20
10.98349890392001
 30
0.0
 10
8.115838547256
 20
11.06653275918
 30
0.0
 10
8.173023215341
 20
11.17865776188
 30
0.0
  0
SPLINE
  5
18A
330
1B
100
AcDbEntity
  8
0
  6
Continuous
 62
     7
370
    25
100
AcDbSpline
210
0.0
220
0.0
230
1.0
 70
     8
 71
     3
 72
    48
 73
    44
 74
     0
 42
0.000000001
 43
0.00000001
 40
0.0
 40
0.0
 40
0.0
 40
0.0
 40
0.0118589344975172
 40
0.0233799620669488
 40
0.0345635979103435
 40
0.0454103276884107
 40
0.0559205685393053
 40
0.0660947522017395
 40
0.0759332077750587
 40
0.0854363398835531
 40
0.0946044181154048
 40
0.103437829894901
 40
0.1119368213109125
 40
0.1201017338221391
 40
0.1279328383453615
 40
0.1354303981301717
 40
0.1425947242165919
 40
0.1494260261248058
 40
0.1559245798267236
 40
0.1620906275691335
 40
0.1679243617090189
 40
0.1734260205967139
 40
0.209679090579283
 40
0.241426711662342
 40
0.2725849475614066
 40
0.3012924279726931
 40
0.3565014541399524
 40
0.4103303674999086
 40
0.4660379027232642
 40
0.5269873833520674
 40
0.5966043084979431
 40
0.63325701906411
 40
0.6782415282124743
 40
0.7505700745707504
 40
0.8511780654717537
 40
0.9011669773618592
 40
0.922317844918652
 40
0.9390818284142495
 40
0.9574127269482675
 40
0.9727707763116007
 40
0.9822076005668389
 40
0.9912872284887686
 40
1.0
 40
1.0
 40
1.0
 40
1.0
 10
8.17302321534108
 20
11.17865768494063
 30
0.0
 10
8.27988615721617
 20
11.10946049346479
 30
0.0
 10
8.490567102281283
 20
10.97303780623406
 30
0.0
 10
8.796636849429193
 20
10.76019084766618
 30
0.0
 10
9.089888407119448
 20
10.54578042626644
 30
0.0
 10
9.370198042414874
 20
10.32967239712258
 30
0.0
 10
9.63789818334175
 20
10.11270201677473
 30
0.0
 10
9.89320422361314
 20
9.89545075618166
 30
0.0
 10
10.13635830388018
 20
9.67855269986416
 30
0.0
 10
10.36760220183644
 20
9.462622076484267
 30
0.0
 10
10.58718057991389
 20
9.248263265993733
 30
0.0
 10
10.79534634231082
 20
9.036073722559337
 30
0.0
 10
10.99235669725758
 20
8.826635823597211
 30
0.0
 10
11.17847621571383
 20
8.620521273208594
 30
0.0
 10
11.3539754751389
 20
8.418286436264307
 30
0.0
 10
11.51913026279569
 20
8.220471521571023
 30
0.0
 10
11.67422165692525
 20
8.027600587832351
 30
0.0
 10
11.81953407175589
 20
7.840178276680189
 30
0.0
 10
11.95535484773574
 20
7.658689662750788
 30
0.0
 10
12.08197070435361
 20
7.483600264940736
 30
0.0
 10
12.19967455106919
 20
7.315349202700418
 30
0.0
 10
12.51411915041547
 20
6.851201116876225
 30
0.0
 10
12.96784285460281
 20
6.095641860950781
 30
0.0
 10
13.4950849258073
 20
4.995879155885813
 30
0.0
 10
13.89774370892756
 20
3.914789154622567
 30
0.0
 10
14.28875478452127
 20
2.491144638433293
 30
0.0
 10
14.54315736022227
 20
0.6925503184824697
 30
0.0
 10
14.47370262568323
 20
-1.493587332145281
 30
0.0
 10
14.02372051674091
 20
-3.675010067732146
 30
0.0
 10
13.15596526332049
 20
-5.853793218162144
 30
0.0
 10
12.08820459199683
 20
-7.548192138929085
 30
0.0
 10
10.97572344234909
 20
-8.877812740762451
 30
0.0
 10
9.745312481660532
 20
-10.08044017776259
 30
0.0
 10
7.840823985949352
 20
-11.48648654375031
 30
0.0
 10
5.703996253929816
 20
-12.51421719139415
 30
0.0
 10
3.912453947076634
 20
-13.04830587486995
 30
0.0
 10
2.937984428701551
 20
-13.25740247595295
 30
0.0
 10
2.289246830371238
 20
-13.36785429242002
 30
0.0
 10
1.68261584874576
 20
-13.44619551353596
 30
0.0
 10
1.141439365492556
 20
-13.49386120171207
 30
0.0
 10
0.7051382908044824
 20
-13.51864156166537
 30
0.0
 10
0.3491468862633645
 20
-13.53110482103009
 30
0.0
 10
0.1147714553606571
 20
-13.53260077461582
 30
0.0
 10
0.0000000000000192
 20
-13.53333332908847
 30
0.0
  0
LWPOLYLINE
  5
18B
330
1B
100
AcDbEntity
  8
0
  6
Continuous
 62
     7
370
    25
100
AcDbPolyline
 90
        9
 70
   128
 43
0.0
 10
-11.8226716159
 20
-6.5172413854
 10
-11.8688426341
 20
-6.4626285474
 10
-11.9383574535
 20
-6.4231369268
 10
-12.0292599812
 20
-6.399877787
 10
-12.1389922909
 20
-6.3935056222
 10
-12.2644666008
 20
-6.40419974
 10
-12.4021521616
 20
-6.4316592164
 10
-12.5481746088
 20
-6.475111363
 10
-12.6984249902
 20
-6.5333334598
  0
SPLINE
  5
18C
330
1B
100
AcDbEntity
  8
0
  6
Continuous
 62
     7
370
    25
100
AcDbSpline
210
0.0
220
0.0
230
1.0
 70
     8
 71
     3
 72
    14
 73
    10
 74
     0
 42
0.000000001
 43
0.00000001
 40
0.0
 40
0.0
 40
0.0
 40
0.0
 40
0.2499999999999999
 40
0.2499999999999999
 40
0.4999999999999998
 40
0.4999999999999998
 40
0.7499999999999999
 40
0.7499999999999999
 40
1.0
 40
1.0
 40
1.0
 40
1.0
 10
-14.39026205378
 20
1.661838730183
 30
0.0
 10
-14.4794925912875
 20
0.9887664177141952
 30
0.0
 10
-14.51420060654354
 20
0.3149405321524086
 30
0.0
 10
-14.47544230074849
 20
-1.038216751936584
 30
0.0
 10
-14.40194323202797
 20
-1.717785093478898
 30
0.0
 10
-14.13799297310203
 20
-3.084309539650686
 30
0.0
 10
-13.94769787479415
 20
-3.771001306494131
 30
0.0
 10
-13.43167024193716
 20
-5.15052348526282
 30
0.0
 10
-13.10559102914726
 20
-5.843951421985162
 30
0.0
 10
-12.6984249902
 20
-6.533333459764
 30
0.0
  0
SPLINE
  5
191
330
1B
100
AcDbEntity
  8
0
  6
Continuous
 62
     7
370
    25
100
AcDbSpline
210
0.0
220
0.0
230
1.0
 70
     8
 71
     3
 72
    14
 73
    10
 74
     0
 42
0.000000001
 43
0.00000001
 40
0.0
 40
0.0
 40
0.0
 40
0.0
 40
0.25
 40
0.25
 40
0.5
 40
0.5
 40
0.75
 40
0.75
 40
1.0
 40
1.0
 40
1.0
 40
1.0
 10
-8.688053687348
 20
10.83502624043
 30
0.0
 10
-9.631575658091222
 20
10.17597679357252
 30
0.0
 10
-10.43398289248309
 20
9.448947832441677
 30
0.0
 10
-11.7882815004682
 20
7.941409141725559
 30
0.0
 10
-12.34050596198656
 20
7.161159549018682
 30
0.0
 10
-13.23845575597552
 20
5.5923115243139
 30
0.0
 10
-13.58459182533881
 20
4.803573345536619
 30
0.0
 10
-14.10864680550458
 20
3.229841821027989
 30
0.0
 10
-14.28648773840256
 20
2.444636119416279
 30
0.0
 10
-14.39026205378
 20
1.661838730183
 30
0.0
  0
SPLINE
  5
195
330
1B
100
AcDbEntity
  8
0
  6
Continuous
 62
     7
370
    25
100
AcDbSpline
210
0.0
220
0.0
230
1.0
 70
     8
 71
     3
 72
    14
 73
    10
 74
     0
 42
0.000000001
 43
0.00000001
 40
0.0
 40
0.0
 40
0.0
 40
0.0
 40
0.25
 40
0.25
 40
0.5
 40
0.5
 40
0.75
 40
0.75
 40
1.0
 40
1.0
 40
1.0
 40
1.0
 10
-14.28571428571
 20
13.99999999687
 30
0.0
 10
-13.76448975289499
 20
13.99999970231
 30
0.0
 10
-13.24635905862777
 20
13.92686170867788
 30
0.0
 10
-12.23072597741181
 20
13.64088728651212
 30
0.0
 10
-11.7340857600817
 20
13.42806588869085
 30
0.0
 10
-10.78086684310497
 20
12.87752942023915
 30
0.0
 10
-10.32424741047263
 20
12.53988187543738
 30
0.0
 10
-9.46428621769658
 20
11.76017519588803
 30
0.0
 10
-9.060857460738848
 20
11.31817211440981
 30
0.0
 10
-8.688053687348
 20
10.83502624043
 30
0.0
  0
SPLINE
  5
198
330
1B
100
AcDbEntity
  8
0
  6
Continuous
 62
     7
370
    25
100
AcDbSpline
210
0.0
220
0.0
230
1.0
 70
     8
 71
     3
 72
    34
 73
    30
 74
     0
 42
0.000000001
 43
0.00000001
 40
0.0
 40
0.0
 40
0.0
 40
0.0
 40
0.0625000000000001
 40
0.0625000000000001
 40
0.1250000000000002
 40
0.1250000000000002
 40
0.1875000000000002
 40
0.1875000000000002
 40
0.2500000000000003
 40
0.2500000000000003
 40
0.3125000000000004
 40
0.3125000000000004
 40
0.3750000000000005
 40
0.3750000000000005
 40
0.4375000000000006
 40
0.4375000000000006
 40
0.5000000000000007
 40
0.5000000000000007
 40
0.5625000000000008
 40
0.5625000000000008
 40
0.6250000000000009
 40
0.6250000000000009
 40
0.6875000000000007
 40
0.6875000000000007
 40
0.7500000000000006
 40
0.7500000000000006
 40
0.8750000000000002
 40
0.8750000000000002
 40
1.0
 40
1.0
 40
1.0
 40
1.0
 10
-7.115712869528
 20
-11.79168503369
 30
0.0
 10
-6.860726646214403
 20
-11.92572525473248
 30
0.0
 10
-6.620158531377315
 20
-12.04276455235303
 30
0.0
 10
-6.170748952245525
 20
-12.24891016785597
 30
0.0
 10
-5.960641864446508
 20
-12.33862162679324
 30
0.0
 10
-5.565531938669718
 20
-12.49834687010167
 30
0.0
 10
-5.380976193381858
 20
-12.56815953711096
 30
0.0
 10
-5.031710209076459
 20
-12.693579757816
 30
0.0
 10
-4.866639812937605
 20
-12.74933646922107
 30
0.0
 10
-4.541569839692537
 20
-12.85337812831025
 30
0.0
 10
-4.380620277107063
 20
-12.90191422373654
 30
0.0
 10
-4.058522020466887
 20
-12.99334544094624
 30
0.0
 10
-3.897960978727085
 20
-13.03601205847463
 30
0.0
 10
-3.588220199874668
 20
-13.11326239317584
 30
0.0
 10
-3.439624804495885
 20
-13.14771639994033
 30
0.0
 10
-3.162945107087307
 20
-13.20810628737288
 30
0.0
 10
-3.034932096464453
 20
-13.23410678619426
 30
0.0
 10
-2.787011953673881
 20
-13.28152534895741
 30
0.0
 10
-2.665459528257009
 20
-13.30326244348266
 30
0.0
 10
-2.411735036236522
 20
-13.34536114201745
 30
0.0
 10
-2.279385916003184
 20
-13.36567635518474
 30
0.0
 10
-2.010169464204342
 20
-13.40325149296687
 30
0.0
 10
-1.874012860441118
 20
-13.42040385870483
 30
0.0
 10
-1.609128160057721
 20
-13.45031992472141
 30
0.0
 10
-1.48064817695437
 20
-13.46308681074293
 30
0.0
 10
-1.110758979207696
 20
-13.49555011082798
 30
0.0
 10
-0.8831259990091115
 20
-13.50977516899218
 30
0.0
 10
-0.4416467965864213
 20
-13.52863713898515
 30
0.0
 10
-0.2214279251054172
 20
-13.5333326154625
 30
0.0
 10
0.0000000000000164
 20
-13.53333334462
 30
0.0
  0
SPLINE
  5
199
330
1B
100
AcDbEntity
  8
0
  6
Continuous
 62
     7
370
    25
100
AcDbSpline
210
0.0
220
0.0
230
1.0
 70
     8
 71
     3
 72
     8
 73
     4
 74
     0
 42
0.000000001
 43
0.00000001
 40
0.0
 40
0.0
 40
0.0
 40
0.0
 40
1.0
 40
1.0
 40
1.0
 40
1.0
 10
8.242829036293
 20
11.28541075765
 30
0.0
 10
8.214097311126995
 20
11.24961709776999
 30
0.0
 10
8.190995006185004
 20
11.21389600257
 30
0.0
 10
8.173023215341
 20
11.17865776188
 30
0.0
  0
SPLINE
  5
19A
330
1B
100
AcDbEntity
  8
0
  6
Continuous
 62
     7
370
    25
100
AcDbSpline
210
0.0
220
0.0
230
1.0
 70
     8
 71
     3
 72
    12
 73
     8
 74
     0
 42
0.000000001
 43
0.00000001
 40
0.0
 40
0.0
 40
0.0
 40
0.0
 40
0.2499999999999999
 40
0.2499999999999999
 40
0.4999999999999998
 40
0.4999999999999998
 40
1.0
 40
1.0
 40
1.0
 40
1.0
 10
8.242829036293
 20
11.28541075765
 30
0.0
 10
8.580769780840008
 20
11.70641291286001
 30
0.0
 10
8.941603559264905
 20
12.08854593459428
 30
0.0
 10
9.70313832510297
 20
12.7597515498753
 30
0.0
 10
10.10359942542914
 20
13.04845193469165
 30
0.0
 10
11.34812461133673
 20
13.7517300528567
 30
0.0
 10
12.23522688710037
 20
14.00000000000001
 30
0.0
 10
13.125
 20
14.0
 30
0.0
  0
LWPOLYLINE
  5
1A7
330
1B
100
AcDbEntity
  8
0
  6
Continuous
 62
     7
370
    25
100
AcDbPolyline
 90
        9
 70
   128
 43
0.0
 10
-12.6984249902
 20
-6.5333334598
 10
-12.6984249921
 20
-6.7735039886
 10
-12.6984249979
 20
-7.0285567162
 10
-12.698425007
 20
-7.2817330896
 10
-12.6984250189
 20
-7.5163978443
 10
-12.6984250328
 20
-7.7171320442
 10
-12.6984250478
 20
-7.8707462022
 10
-12.6984250629
 20
-7.9671469112
 10
-12.6984250662
 20
-8.0
  0
SPLINE
  5
1A8
330
1B
100
AcDbEntity
  8
0
  6
Continuous
 62
     7
370
    25
100
AcDbSpline
210
0.0
220
0.0
230
1.0
 70
     8
 71
     3
 72
    12
 73
     8
 74
     0
 42
0.000000001
 43
0.00000001
 40
0.0
 40
0.0
 40
0.0
 40
0.0
 40
0.2500000000000002
 40
0.2500000000000002
 40
0.5000000000000003
 40
0.5000000000000003
 40
1.0
 40
1.0
 40
1.0
 40
1.0
 10
-25.0
 20
-7.868386233488997
 30
0.0
 10
-25.0
 20
-7.783204548328489
 30
0.0
 10
-25.04420711001866
 20
-7.668318324434834
 30
0.0
 10
-25.17618824392774
 20
-7.430237719338768
 30
0.0
 10
-25.2637477514654
 20
-7.306114851237458
 30
0.0
 10
-25.55437553662169
 20
-6.944250976067767
 30
0.0
 10
-25.78691529953485
 20
-6.715402217846167
 30
0.0
 10
-26.0
 20
-6.533333333333003
 30
0.0
  0
SPLINE
  5
1A9
330
1B
100
AcDbEntity
  8
0
  6
Continuous
 62
     7
370
    25
100
AcDbSpline
210
0.0
220
0.0
230
1.0
 70
    24
 71
     3
 72
     9
 73
     5
 74
     0
 42
0.000000001
 43
0.00000001
 40
0.0
 40
0.0
 40
0.0
 40
0.0
 40
0.7545913691540236
 40
1.0
 40
1.0
 40
1.0
 40
1.0
 10
-26.00000000000001
 20
-14.00000000000001
 30
0.0
 10
-25.91701397921266
 20
-14.00000000000001
 30
0.0
 10
-25.80703919792092
 20
-14.00000000000001
 30
0.0
 10
-25.70106841693694
 20
-14.0
 30
0.0
 10
-25.67506227266598
 20
-14.0
 30
0.0
  0
SPLINE
  5
1AB
330
1B
100
AcDbEntity
  8
0
  6
Continuous
 62
     7
370
    25
100
AcDbSpline
210
0.0
220
0.0
230
1.0
 70
     8
 71
     3
 72
    11
 73
     7
 74
     0
 42
0.000000001
 43
0.00000001
 40
0.0
 40
0.0
 40
0.0
 40
0.0
 40
0.25
 40
0.5
 40
0.75
 40
1.0
 40
1.0
 40
1.0
 40
1.0
 10
6.461538458385
 20
12.51489290321
 30
0.0
 10
6.622463219070001
 20
12.42072801133
 30
0.0
 10
6.936403821426
 20
12.22861319986
 30
0.0
 10
7.377251712053001
 20
11.93583958815
 30
0.0
 10
7.808329450366
 20
11.62670815225
 30
0.0
 10
8.098148132120004
 20
11.40212916674
 30
0.0
 10
8.242829036293
 20
11.28541075765
 30
0.0
  0
SPLINE
  5
1AD
330
1B
100
AcDbEntity
  8
0
  6
Continuous
 62
     7
370
    25
100
AcDbSpline
210
0.0
220
0.0
230
1.0
 70
     8
 71
     3
 72
    10
 73
     6
 74
     0
 42
0.000000001
 43
0.00000001
 40
0.0
 40
0.0
 40
0.0
 40
0.0
 40
0.5
 40
0.5
 40
1.0
 40
1.0
 40
1.0
 40
1.0
 10
-7.826517457208801
 20
11.60897144903651
 30
0.0
 10
-7.627075822596328
 20
11.75823039886058
 30
0.0
 10
-7.415389643295152
 20
11.90866170662835
 30
0.0
 10
-6.966342902045066
 20
12.20852676351039
 30
0.0
 10
-6.723450038949585
 20
12.36163562996361
 30
0.0
 10
-6.461538457219
 20
12.51489290321
 30
0.0
  0
SPLINE
  5
1AF
330
1B
100
AcDbEntity
  8
0
  6
Continuous
 62
     7
370
    25
100
AcDbSpline
210
0.0
220
0.0
230
1.0
 70
     8
 71
     3
 72
    14
 73
    10
 74
     0
 42
0.000000001
 43
0.00000001
 40
0.0
 40
0.0
 40
0.0
 40
0.0
 40
0.2500000000000001
 40
0.2500000000000001
 40
0.5000000000000002
 40
0.5000000000000002
 40
0.7500000000000001
 40
0.7500000000000001
 40
1.0
 40
1.0
 40
1.0
 40
1.0
 10
-13.42417582423
 20
15.0
 30
0.0
 10
-12.90264655584917
 20
14.99999936884408
 30
0.0
 10
-12.38482141496136
 20
14.92163756510833
 30
0.0
 10
-11.36918059159169
 20
14.6152340071663
 30
0.0
 10
-10.87253902808937
 20
14.38720933872353
 30
0.0
 10
-9.919318714918484
 20
13.79734597735826
 30
0.0
 10
-9.462699507314955
 20
13.43557976544798
 30
0.0
 10
-8.602737962160504
 20
12.60017661747743
 30
0.0
 10
-8.199491375981026
 20
12.12684800347461
 30
0.0
 10
-7.826518769205824
 20
11.60895662905253
 30
0.0
  0
SPLINE
  5
1B0
330
1B
100
AcDbEntity
  8
0
  6
Continuous
 62
     7
370
    25
100
AcDbSpline
210
0.0
220
0.0
230
1.0
 70
     8
 71
     3
 72
     8
 73
     4
 74
     0
 42
0.000000001
 43
0.00000001
 40
0.0
 40
0.0
 40
0.0
 40
0.0
 40
1.0
 40
1.0
 40
1.0
 40
1.0
 10
-14.71153845634
 20
14.8400625208
 30
0.0
 10
-14.28490329702996
 20
14.94664088962
 30
0.0
 10
-13.85558697661005
 20
14.99999979555
 30
0.0
 10
-13.42417582423
 20
15.0
 30
0.0
  0
SPLINE
  5
1B1
330
1B
100
AcDbEntity
  8
0
  6
Continuous
 62
     7
370
    25
100
AcDbSpline
210
0.0
220
0.0
230
1.0
 70
     8
 71
     3
 72
    35
 73
    31
 74
     0
 42
0.000000001
 43
0.00000001
 40
0.0
 40
0.0
 40
0.0
 40
0.0
 40
0.007292652078599
 40
0.015109641522207
 40
0.023447581461031
 40
0.0367475339112336
 40
0.0524476962221193
 40
0.0694030151650149
 40
0.0883784964167864
 40
0.1341434264879582
 40
0.1881612188752153
 40
0.2365297606001921
 40
0.3117762806773535
 40
0.3721719203694998
 40
0.4294285098560168
 40
0.4865318187594632
 40
0.5435673242714406
 40
0.6023079128843073
 40
0.6708199216622023
 40
0.7139573979831177
 40
0.7652975105749483
 40
0.8176708597992894
 40
0.8595069029585298
 40
0.8927657091521592
 40
0.9196145657117625
 40
0.9580841018005966
 40
0.9708466413285741
 40
0.9826893784134442
 40
0.9914280073479446
 40
1.0
 40
1.0
 40
1.0
 40
1.0
 10
1.00416447770789
 20
-7.499999999999188
 30
0.0
 10
1.033946953851396
 20
-7.471206945210765
 30
0.0
 10
1.095653248532947
 20
-7.411550632048777
 30
0.0
 10
1.185688426629455
 20
-7.313701460393812
 30
0.0
 10
1.293691489549699
 20
-7.186632135132827
 30
0.0
 10
1.421609874734908
 20
-7.018667453154285
 30
0.0
 10
1.566935269214306
 20
-6.803780203684759
 30
0.0
 10
1.716442440853772
 20
-6.554070523741185
 30
0.0
 10
1.932750524168653
 20
-6.148055173961678
 30
0.0
 10
2.202039405220388
 20
-5.535743511113772
 30
0.0
 10
2.473826672601813
 20
-4.746713333657524
 30
0.0
 10
2.738105223830127
 20
-3.779632323056635
 30
0.0
 10
2.945319741196767
 20
-2.756092872609813
 30
0.0
 10
3.091383038713357
 20
-1.66237567195222
 30
0.0
 10
3.164328054264454
 20
-0.657239805687361
 30
0.0
 10
3.174492048919082
 20
0.3355867105966984
 30
0.0
 10
3.121967569833099
 20
1.333238593072338
 30
0.0
 10
3.002607739187056
 20
2.383544227612319
 30
0.0
 10
2.832596007130097
 20
3.337907757368364
 30
0.0
 10
2.619048747548368
 20
4.234594609270357
 30
0.0
 10
2.384066225949891
 20
5.028677665133871
 30
0.0
 10
2.096179786233441
 20
5.796168081448207
 30
0.0
 10
1.786254213786592
 20
6.443741454473309
 30
0.0
 10
1.488093484306299
 20
6.936288235627655
 30
0.0
 10
1.148069076257774
 20
7.37784300184302
 30
0.0
 10
0.816130027056696
 20
7.683567391943768
 30
0.0
 10
0.496784056061421
 20
7.855990740600776
 30
0.0
 10
0.3153060704500003
 20
7.92080649082047
 30
0.0
 10
0.1497917760204981
 20
7.955319726463434
 30
0.0
 10
0.0496091311159088
 20
7.959224592828454
 30
0.0
 10
-0.0000000000000167
 20
7.961158231411032
 30
0.0
  0
SPLINE
  5
1B4
330
1B
100
AcDbEntity
  8
0
  6
Continuous
 62
     7
370
    25
100
AcDbSpline
210
0.0
220
0.0
230
1.0
 70
     8
 71
     3
 72
     8
 73
     4
 74
     0
 42
0.000000001
 43
0.00000001
 40
0.0
 40
0.0
 40
0.0
 40
0.0
 40
1.0
 40
1.0
 40
1.0
 40
1.0
 10
1.004164477708
 20
-7.5
 30
0.0
 10
0.6715682762087998
 20
-7.547645477263998
 30
0.0
 10
0.3358555244080799
 20
-7.572844696698001
 30
0.0
 10
0.0
 20
-7.572844696698001
 30
0.0
  0
SPLINE
  5
1B5
330
1B
100
AcDbEntity
  8
0
  6
Continuous
 62
     7
370
    25
100
AcDbSpline
210
0.0
220
0.0
230
1.0
 70
     8
 71
     3
 72
    35
 73
    31
 74
     0
 42
0.000000001
 43
0.00000001
 40
0.0
 40
0.0
 40
0.0
 40
0.0
 40
0.0056987802961895
 40
0.0114566238228057
 40
0.0173033236361421
 40
0.0291603700823392
 40
0.0419410618842566
 40
0.0804114209260937
 40
0.1072823830415705
 40
0.1405474748496449
 40
0.1823689664001931
 40
0.2347580333101915
 40
0.2860955864325245
 40
0.3291974367894108
 40
0.3977172020058794
 40
0.4564364201341697
 40
0.5134530064655063
 40
0.5705348292935426
 40
0.627773225246293
 40
0.6881518782076201
 40
0.7633510158201554
 40
0.8117142891947746
 40
0.8657509841365708
 40
0.911532122678843
 40
0.9305239715150139
 40
0.9474995256525481
 40
0.9632220732332372
 40
0.9765402030748608
 40
0.9888579267633002
 40
1.0
 40
1.0
 40
1.0
 40
1.0
 10
-0.0000000000000167
 20
7.961158231412635
 30
0.0
 10
-0.0329669229719451
 20
7.960308209262419
 30
0.0
 10
-0.099242444303648
 20
7.95859935517261
 30
0.0
 10
-0.198500015269776
 20
7.94486283662715
 30
0.0
 10
-0.330856497961834
 20
7.915609176856048
 30
0.0
 10
-0.4968185490732124
 20
7.85586222028653
 30
0.0
 10
-0.8162969298349658
 20
7.683565746100136
 30
0.0
 10
-1.148380576106471
 20
7.377488468917972
 30
0.0
 10
-1.488439241090273
 20
6.935791458038784
 30
0.0
 10
-1.786573636034909
 20
6.443123825824445
 30
0.0
 10
-2.096437026892055
 20
5.795480061178853
 30
0.0
 10
-2.384343576869284
 20
5.027994423269441
 30
0.0
 10
-2.619193895315088
 20
4.233999653198977
 30
0.0
 10
-2.832684940506116
 20
3.337470244248606
 30
0.0
 10
-3.002630838704478
 20
2.38337187317738
 30
0.0
 10
-3.121960451261239
 20
1.333244716433309
 30
0.0
 10
-3.174476642110803
 20
0.3359468362446397
 30
0.0
 10
-3.164350176446538
 20
-0.6565448502441444
 30
0.0
 10
-3.091480911905142
 20
-1.661369015021449
 30
0.0
 10
-2.945553931206384
 20
-2.754644101792374
 30
0.0
 10
-2.738505728007152
 20
-3.777828636622904
 30
0.0
 10
-2.474443168919225
 20
-4.744782738416012
 30
0.0
 10
-2.202700764004339
 20
-5.534017180429382
 30
0.0
 10
-1.933417657586701
 20
-6.146644960280098
 30
0.0
 10
-1.717073688627022
 20
-6.552984034984666
 30
0.0
 10
-1.567415218591169
 20
-6.802980459558128
 30
0.0
 10
-1.422015300931766
 20
-7.01826104242053
 30
0.0
 10
-1.280095511834197
 20
-7.20407029764681
 30
0.0
 10
-1.14442531841719
 20
-7.362325480961385
 30
0.0
 10
-1.049329567112557
 20
-7.455667726433115
 30
0.0
 10
-1.004164477708062
 20
-7.500000000000645
 30
0.0
  0
SPLINE
  5
1B6
330
1B
100
AcDbEntity
  8
0
  6
Continuous
 62
     7
370
    25
100
AcDbSpline
210
0.0
220
0.0
230
1.0
 70
     8
 71
     3
 72
     8
 73
     4
 74
     0
 42
0.000000001
 43
0.00000001
 40
0.0
 40
0.0
 40
0.0
 40
0.0
 40
1.0
 40
1.0
 40
1.0
 40
1.0
 10
0.0
 20
-7.572844696698001
 30
0.0
 10
-0.3358642030959199
 20
-7.572844696698001
 30
0.0
 10
-0.6715803532176008
 20
-7.547643747192002
 30
0.0
 10
-1.004164477708
 20
-7.5
 30
0.0
  0
SPLINE
  5
1BD
330
1B
100
AcDbEntity
  8
0
  6
Continuous
 62
     7
370
    25
100
AcDbSpline
210
0.0
220
0.0
230
1.0
 70
    24
 71
     3
 72
    13
 73
     9
 74
     0
 42
0.000000001
 43
0.00000001
 40
0.0
 40
0.0
 40
0.0
 40
0.0
 40
0.1671995718246143
 40
0.3842814236087999
 40
0.5737934330443305
 40
0.730492575274287
 40
0.8724289186505287
 40
1.0
 40
1.0
 40
1.0
 40
1.0
 10
-3.170757872510519
 20
-14.0
 30
0.0
 10
-3.379309298124896
 20
-14.0
 30
0.0
 10
-3.858631331406202
 20
-14.00000000000001
 30
0.0
 10
-4.559531160416222
 20
-14.0
 30
0.0
 10
-5.224173913113045
 20
-14.0
 30
0.0
 10
-5.768606302492978
 20
-14.0
 30
0.0
 10
-6.216572633247759
 20
-14.00000000000001
 30
0.0
 10
-6.465394251967706
 20
-14.0
 30
0.0
 10
-6.583173726858
 20
-14.0
 30
0.0
  0
SPLINE
  5
1C4
330
1B
100
AcDbEntity
  8
0
  6
Continuous
 62
     8
370
    25
100
AcDbSpline
210
0.0
220
0.0
230
1.0
 70
     8
 71
     3
 72
    11
 73
     7
 74
     0
 42
0.000000001
 43
0.00000001
 40
0.0
 40
0.0
 40
0.0
 40
0.0
 40
0.1522555978963598
 40
0.4350662736869323
 40
0.7176792002140804
 40
1.0
 40
1.0
 40
1.0
 40
1.0
 10
-3.380972609349647
 20
-13.93600992884669
 30
0.0
 10
-3.579623767753016
 20
-13.9187679694211
 30
0.0
 10
-4.147264107052575
 20
-13.86949953435536
 30
0.0
 10
-5.068073127551299
 20
-13.48053635702974
 30
0.0
 10
-6.128544579003497
 20
-12.81528391791131
 30
0.0
 10
-6.786770228657859
 20
-12.13276709057556
 30
0.0
 10
-7.115712869527991
 20
-11.79168514133822
 30
0.0
  0
SPLINE
  5
1C8
330
1B
100
AcDbEntity
  8
0
  6
Continuous
 62
     8
370
    25
100
AcDbSpline
210
0.0
220
0.0
230
1.0
 70
     8
 71
     3
 72
    10
 73
     6
 74
     0
 42
0.000000001
 43
0.00000001
 40
0.0
 40
0.0
 40
0.0
 40
0.0
 40
0.0209055933946519
 40
0.5135281457286458
 40
1.0
 40
1.0
 40
1.0
 40
1.0
 10
-15.6783491443037
 20
13.99999999718784
 30
0.0
 10
-15.67758659665919
 20
14.00989077750041
 30
0.0
 10
-15.65885526143585
 20
14.25284939521777
 30
0.0
 10
-15.38080288496137
 20
14.56091405609877
 30
0.0
 10
-14.93369034143766
 20
14.74740354326665
 30
0.0
 10
-14.71153845634
 20
14.8400625208
 30
0.0
  0
LINE
  5
1C9
330
1B
100
AcDbEntity
  8
0
  6
Continuous
 62
     7
370
    25
100
AcDbLine
 10
22.5
 20
67.1
 30
0.0
 11
22.5
 21
95.6
 31
0.0
  0
LINE
  5
1CA
330
1B
100
AcDbEntity
  8
0
  6
Continuous
 62
     7
370
    25
100
AcDbLine
 10
-22.5
 20
95.6
 30
0.0
 11
-22.5
 21
67.1
 31
0.0
  0
LINE
  5
1CB
330
1B
100
AcDbEntity
  8
0
  6
Continuous
 62
     7
370
    25
100
AcDbLine
 10
-21.0
 20
65.3
 30
0.0
 11
-21.0
 21
40.0
 31
0.0
  0
LINE
  5
1CC
330
1B
100
AcDbEntity
  8
0
  6
Continuous
 62
     7
370
    25
100
AcDbLine
 10
-21.0
 20
30.0
 30
0.0
 11
-21.0
 21
27.0
 31
0.0
  0
LINE
  5
1CD
330
1B
100
AcDbEntity
  8
0
  6
Continuous
 62
     7
370
    25
100
AcDbLine
 10
21.0
 20
27.0
 30
0.0
 11
21.0
 21
30.0
 31
0.0
  0
LINE
  5
1CE
330
1B
100
AcDbEntity
  8
0
  6
Continuous
 62
     7
370
    25
100
AcDbLine
 10
21.0
 20
40.0
 30
0.0
 11
21.0
 21
65.3
 31
0.0
  0
LINE
  5
1CF
330
1B
100
AcDbEntity
  8
0
  6
Continuous
 62
     7
370
    25
100
AcDbLine
 10
20.0
 20
24.45
 30
0.0
 11
20.0
 21
27.05
 31
0.0
  0
LINE
  5
1D0
330
1B
100
AcDbEntity
  8
0
  6
Continuous
 62
     7
370
    25
100
AcDbLine
 10
-20.0
 20
27.05
 30
0.0
 11
-20.0
 21
24.45
 31
0.0
  0
LINE
  5
1D1
330
1B
100
AcDbEntity
  8
0
  6
Continuous
 62
     7
370
    25
100
AcDbLine
 10
-14.1317555238
 20
14.0160967704
 30
0.0
 11
-13.5353396968
 21
13.9481412963
 31
0.0
  0
LINE
  5
1D2
330
1B
100
AcDbEntity
  8
0
  6
Continuous
 62
     7
370
    25
100
AcDbLine
 10
-15.75
 20
24.5
 30
0.0
 11
-15.75
 21
13.9999999972
 31
0.0
  0
LINE
  5
1D3
330
1B
100
AcDbEntity
  8
0
  6
Continuous
 62
     7
370
    25
100
AcDbLine
 10
15.75
 20
14.0
 30
0.0
 11
15.75
 21
24.5
 31
0.0
  0
LINE
  5
1D4
330
1B
100
AcDbEntity
  8
0
  6
Continuous
 62
     7
370
    25
100
AcDbLine
 10
-21.6992728095
 20
67.1794951465
 30
0.0
 11
-22.4509674727
 21
67.1794951465
 31
0.0
  0
LINE
  5
1D5
330
1B
100
AcDbEntity
  8
0
  6
Continuous
 62
     7
370
    25
100
AcDbLine
 10
22.4509674727
 20
67.1794951465
 30
0.0
 11
21.6992728095
 21
67.1794951465
 31
0.0
  0
LINE
  5
1D6
330
1B
100
AcDbEntity
  8
0
  6
Continuous
 62
     7
370
    25
100
AcDbLine
 10
0.0000000069
 20
76.1000000044
 30
0.0
 11
0.0
 21
96.1
 31
0.0
  0
LINE
  5
1D7
330
1B
100
AcDbEntity
  8
0
  6
Continuous
 62
     7
370
    25
100
AcDbLine
 10
-21.9999999179
 20
96.1
 30
0.0
 11
21.9999999179
 21
96.1
 31
0.0
  0
LINE
  5
1D8
330
1B
100
AcDbEntity
  8
0
  6
Continuous
 62
     7
370
    25
100
AcDbLine
 10
22.5
 20
67.1
 30
0.0
 11
19.1431037763
 21
67.1
 31
0.0
  0
LINE
  5
1D9
330
1B
100
AcDbEntity
  8
0
  6
Continuous
 62
     7
370
    25
100
AcDbLine
 10
-19.1431037763
 20
67.1
 30
0.0
 11
-22.5
 21
67.1
 31
0.0
  0
LINE
  5
1DA
330
1B
100
AcDbEntity
  8
0
  6
Continuous
 62
     7
370
    25
100
AcDbLine
 10
-70.0
 20
30.0
 30
0.0
 11
-70.0
 21
39.0
 31
0.0
  0
LINE
  5
1DB
330
1B
100
AcDbEntity
  8
0
  6
Continuous
 62
     7
370
    25
100
AcDbLine
 10
-70.0
 20
39.0
 30
0.0
 11
70.0
 21
39.0
 31
0.0
  0
LINE
  5
1DC
330
1B
100
AcDbEntity
  8
0
  6
Continuous
 62
     7
370
    25
100
AcDbLine
 10
70.0
 20
30.0
 30
0.0
 11
70.0
 21
39.0
 31
0.0
  0
LINE
  5
1DD
330
1B
100
AcDbEntity
  8
0
  6
Continuous
 62
     7
370
    25
100
AcDbLine
 10
70.0
 20
30.0
 30
0.0
 11
-70.0
 21
30.0
 31
0.0
  0
LINE
  5
1DE
330
1B
100
AcDbEntity
  8
0
  6
Continuous
 62
     7
370
    25
100
AcDbLine
 10
-69.0
 20
40.0
 30
0.0
 11
69.0
 21
40.0
 31
0.0
  0
LINE
  5
1DF
330
1B
100
AcDbEntity
  8
0
  6
Continuous
 62
     7
370
    25
100
AcDbLine
 10
0.0
 20
40.0
 30
0.0
 11
0.0
 21
75.3
 31
0.0
  0
LINE
  5
1E0
330
1B
100
AcDbEntity
  8
0
  6
Continuous
 62
     7
370
    25
100
AcDbLine
 10
-4.0284762098
 20
75.3
 30
0.0
 11
4.0284762098
 21
75.3
 31
0.0
  0
LINE
  5
1E1
330
1B
100
AcDbEntity
  8
0
  6
Continuous
 62
     7
370
    25
100
AcDbLine
 10
-21.0
 20
27.0
 30
0.0
 11
21.0
 21
27.0
 31
0.0
  0
LINE
  5
1E2
330
1B
100
AcDbEntity
  8
0
  6
Continuous
 62
     7
370
    25
100
AcDbLine
 10
-21.0
 20
65.3
 30
0.0
 11
21.0
 21
65.3
 31
0.0
  0
LINE
  5
1E3
330
1B
100
AcDbEntity
  8
0
  6
Continuous
 62
     7
370
    25
100
AcDbLine
 10
0.0
 20
-10.499999952
 30
0.0
 11
0.0
 21
-7.5728446967
 31
0.0
  0
LINE
  5
1E4
330
1B
100
AcDbEntity
  8
0
  6
Continuous
 62
     7
370
    25
100
AcDbLine
 10
0.0
 20
-7.5
 30
0.0
 11
0.0
 21
10.499999952
 31
0.0
  0
LINE
  5
1E5
330
1B
100
AcDbEntity
  8
0
  6
Continuous
 62
     7
370
    25
100
AcDbLine
 10
0.0
 20
12.4999999112
 30
0.0
 11
0.0
 21
14.5
 31
0.0
  0
LINE
  5
1E6
330
1B
100
AcDbEntity
  8
0
  6
Continuous
 62
     7
370
    25
100
AcDbLine
 10
0.0
 20
-12.4999999112
 30
0.0
 11
0.0000000004
 21
-13.5333333411
 31
0.0
  0
LINE
  5
1E7
330
1B
100
AcDbEntity
  8
0
  6
Continuous
 62
     7
370
    25
100
AcDbLine
 10
-25.0
 20
-7.8683862335
 30
0.0
 11
-25.0
 21
-14.0
 31
0.0
  0
LINE
  5
1E8
330
1B
100
AcDbEntity
  8
0
  6
Continuous
 62
     7
370
    25
100
AcDbLine
 10
-17.4584083886
 20
-8.0
 30
0.0
 11
-17.4584083886
 21
-14.0
 31
0.0
  0
LINE
  5
1E9
330
1B
100
AcDbEntity
  8
0
  6
Continuous
 62
     7
370
    25
100
AcDbLine
 10
-25.0
 20
-14.0
 30
0.0
 11
-6.5831737269
 21
-14.0
 31
0.0
  0
LINE
  5
1EA
330
1B
100
AcDbEntity
  8
0
  6
Continuous
 62
     7
370
    25
100
AcDbLine
 10
-25.0
 20
-8.0
 30
0.0
 11
-12.9787845372
 21
-8.0
 31
0.0
  0
LINE
  5
1EB
330
1B
100
AcDbEntity
  8
0
  6
Continuous
 62
     7
370
    25
100
AcDbLine
 10
0.0
 20
24.5
 30
0.0
 11
0.0
 21
30.0
 31
0.0
  0
LINE
  5
1EC
330
1B
100
AcDbEntity
  8
0
  6
Continuous
 62
     7
370
    25
100
AcDbLine
 10
19.9999999789
 20
24.5
 30
0.0
 11
-19.9999999789
 21
24.5
 31
0.0
  0
LINE
  5
1ED
330
1B
100
AcDbEntity
  8
0
  6
Continuous
 62
     7
370
    25
100
AcDbLine
 10
-6.4615384572
 20
12.5148929032
 30
0.0
 11
-6.4615384615
 21
24.5
 31
0.0
  0
LINE
  5
1EE
330
1B
100
AcDbEntity
  8
0
  6
Continuous
 62
     7
370
    25
100
AcDbLine
 10
6.4615384584
 20
12.5148929032
 30
0.0
 11
6.4615384615
 21
24.5
 31
0.0
  0
LINE
  5
1EF
330
1B
100
AcDbEntity
  8
0
  6
Continuous
 62
     7
370
    25
100
AcDbLine
 10
-26.0
 20
-14.0
 30
0.0
 11
-27.9999999978
 21
-13.9999999512
 31
0.0
  0
LINE
  5
1F0
330
1B
100
AcDbEntity
  8
0
  6
Continuous
 62
     7
370
    25
100
AcDbLine
 10
-27.9999999978
 20
-14.0
 30
0.0
 11
-27.9999999978
 21
14.0
 31
0.0
  0
LINE
  5
1F1
330
1B
100
AcDbEntity
  8
0
  6
Continuous
 62
     7
370
    25
100
AcDbLine
 10
-14.2857142857
 20
13.9999999969
 30
0.0
 11
-27.9999999978
 21
14.0
 31
0.0
  0
LINE
  5
1F2
330
1B
100
AcDbEntity
  8
0
  6
Continuous
 62
     7
370
    25
100
AcDbLine
 10
-12.6984249902
 20
-6.5333334598
 30
0.0
 11
-26.0
 21
-6.5333333333
 31
0.0
  0
LINE
  5
1F3
330
1B
100
AcDbEntity
  8
0
  6
Continuous
 62
     7
370
    25
100
AcDbLine
 10
-26.0
 20
-14.0
 30
0.0
 11
-26.0
 21
-6.5333333333
 31
0.0
  0
LINE
  5
1F4
330
1B
100
AcDbEntity
  8
0
  6
Continuous
 62
     7
370
    25
100
AcDbLine
 10
27.9999999978
 20
14.0
 30
0.0
 11
13.125
 21
14.0
 31
0.0
  0
LINE
  5
1F5
330
1B
100
AcDbEntity
  8
0
  6
Continuous
 62
     7
370
    25
100
AcDbLine
 10
27.9999999978
 20
14.0
 30
0.0
 11
27.9999999978
 21
-14.0
 31
0.0
  0
LINE
  5
1F6
330
1B
100
AcDbEntity
  8
0
  6
Continuous
 62
     7
370
    25
100
AcDbLine
 10
-2.8705642957
 20
-13.9999999977
 30
0.0
 11
27.9999999978
 21
-13.9999999512
 31
0.0
  0
LINE
  5
1F7
330
1B
100
AcDbEntity
  8
0
  6
Continuous
 62
     7
370
    25
100
AcDbLine
 10
-2.8705642957
 20
-13.9999999906
 30
0.0
 11
-3.3809726093
 21
-13.9360099288
 31
0.0
  0
LINE
  5
1F8
330
1B
100
AcDbEntity
  8
0
  6
Continuous
 62
     7
370
    25
100
AcDbLine
 10
-28.9999999104
 20
12.9999999084
 30
0.0
 11
-27.9999999978
 21
14.0
 31
0.0
  0
LINE
  5
1F9
330
1B
100
AcDbEntity
  8
0
  6
Continuous
 62
     7
370
    25
100
AcDbLine
 10
-28.9999999104
 20
-12.9999999084
 30
0.0
 11
-27.9999999978
 21
-14.0
 31
0.0
  0
LINE
  5
1FA
330
1B
100
AcDbEntity
  8
0
  6
Continuous
 62
     7
370
    25
100
AcDbLine
 10
-28.9999999104
 20
-12.9999999084
 30
0.0
 11
-28.9999999104
 21
12.9999999084
 31
0.0
  0
LINE
  5
1FB
330
1B
100
AcDbEntity
  8
0
  6
Continuous
 62
     7
370
    25
100
AcDbLine
 10
28.9999999104
 20
-12.9999999084
 30
0.0
 11
27.9999999978
 21
-14.0
 31
0.0
  0
LINE
  5
1FC
330
1B
100
AcDbEntity
  8
0
  6
Continuous
 62
     7
370
    25
100
AcDbLine
 10
28.9999999104
 20
12.9999999084
 30
0.0
 11
27.9999999978
 21
14.0
 31
0.0
  0
LINE
  5
1FD
330
1B
100
AcDbEntity
  8
0
  6
Continuous
 62
     7
370
    25
100
AcDbLine
 10
28.9999999104
 20
12.9999999084
 30
0.0
 11
28.9999999104
 21
-12.9999999084
 31
0.0
  0
LINE
  5
1FE
330
1B
100
AcDbEntity
  8
0
  6
Continuous
 62
     7
370
    25
100
AcDbLine
 10
-14.7115384563
 20
14.8400625208
 30
0.0
 11
-14.7115384615
 21
24.5
 31
0.0
  0
LINE
  5
1FF
330
1B
100
AcDbEntity
  8
0
  6
Continuous
 62
     7
370
    25
100
AcDbLine
 10
-1.0256120091
 20
-7.5
 30
0.0
 11
1.0256120091
 21
-7.5
 31
0.0
  0
LINE
  5
200
330
1B
100
AcDbEntity
  8
0
  6
Continuous
 62
     8
370
    25
100
AcDbLine
 10
-22.4999999886
 20
95.6
 30
0.0
 11
22.4999999886
 21
95.6
 31
0.0
  0
LINE
  5
201
330
1B
100
AcDbEntity
  8
0
  6
Continuous
 62
     8
370
    25
100
AcDbLine
 10
-19.248649589
 20
65.502665186
 30
0.0
 11
19.248649589
 21
65.502665186
 31
0.0
  0
LINE
  5
202
330
1B
100
AcDbEntity
  8
0
  6
Continuous
 62
     8
370
    25
100
AcDbLine
 10
14.7115384615
 20
14.0
 30
0.0
 11
14.7115384615
 21
24.5
 31
0.0
  0
ARC
  5
203
330
1B
100
AcDbEntity
  8
0
  6
Continuous
 62
     7
370
    25
100
AcDbCircle
 10
-22.0
 20
95.6
 30
0.0
 40
0.4999999999955395
100
AcDbArc
 50
89.9999952972
 51
180.0000000005
  0
ARC
  5
204
330
1B
100
AcDbEntity
  8
0
  6
Continuous
 62
     7
370
    25
100
AcDbCircle
 10
22.0
 20
95.6
 30
0.0
 40
0.5000000000022043
100
AcDbArc
 50
0.0000000003
 51
90.000004702
  0
ARC
  5
205
330
1B
100
AcDbEntity
  8
0
  6
Continuous
 62
     7
370
    25
100
AcDbCircle
 10
-19.0486673478
 20
65.5
 30
0.0
 40
0.199999999999168
100
AcDbArc
 50
179.2364578503
 51
270.0000000002
  0
ARC
  5
206
330
1B
100
AcDbEntity
  8
0
  6
Continuous
 62
     7
370
    25
100
AcDbCircle
 10
19.0486673478
 20
65.5
 30
0.0
 40
0.2000000000017412
100
AcDbArc
 50
270.0000000006
 51
0.7635421489
  0
ARC
  5
207
330
1B
100
AcDbEntity
  8
0
  6
Continuous
 62
     7
370
    25
100
AcDbCircle
 10
-4.0416666667
 20
65.3
 30
0.0
 40
15.20833333327129
100
AcDbArc
 50
154.3451018164
 51
179.2364578512
  0
ARC
  5
208
330
1B
100
AcDbEntity
  8
0
  6
Continuous
 62
     7
370
    25
100
AcDbCircle
 10
4.0416666667
 20
65.3
 30
0.0
 40
15.20833333328884
100
AcDbArc
 50
0.7635421488
 51
25.6548981836
  0
ARC
  5
209
330
1B
100
AcDbEntity
  8
0
  6
Continuous
 62
     7
370
    25
100
AcDbCircle
 10
14.4877229676
 20
65.2051377562
 30
0.0
 40
7.476933744989194
100
AcDbArc
 50
15.3110915541
 51
67.2426034679
  0
ARC
  5
20A
330
1B
100
AcDbEntity
  8
0
  6
Continuous
 62
     7
370
    25
100
AcDbCircle
 10
4.2887013053
 20
42.0171735441
 30
0.0
 40
32.80791386072654
100
AcDbArc
 50
66.4824809241
 51
77.3345565498
  0
ARC
  5
20B
330
1B
100
AcDbEntity
  8
0
  6
Continuous
 62
     7
370
    25
100
AcDbCircle
 10
0.3175092537
 20
31.4254678146
 30
0.0
 40
44.03997001173786
100
AcDbArc
 50
75.314672848
 51
90.413081521
  0
ARC
  5
20C
330
1B
100
AcDbEntity
  8
0
  6
Continuous
 62
     7
370
    25
100
AcDbCircle
 10
-0.3175092537
 20
31.4254678146
 30
0.0
 40
44.03997001173773
100
AcDbArc
 50
89.586918479
 51
104.685327152
  0
ARC
  5
20D
330
1B
100
AcDbEntity
  8
0
  6
Continuous
 62
     7
370
    25
100
AcDbCircle
 10
-4.2887013053
 20
42.0171735441
 30
0.0
 40
32.80791386071861
100
AcDbArc
 50
102.6654434502
 51
113.5175190759
  0
ARC
  5
20E
330
1B
100
AcDbEntity
  8
0
  6
Continuous
 62
     7
370
    25
100
AcDbCircle
 10
-14.0415109518
 20
64.8134502792
 30
0.0
 40
8.014953835414259
100
AcDbArc
 50
114.6160637748
 51
162.8302412032
  0
ARC
  5
20F
330
1B
100
AcDbEntity
  8
0
  6
Continuous
 62
     7
370
    25
100
AcDbCircle
 10
69.0
 20
39.0
 30
0.0
 40
0.9999999999999858
100
AcDbArc
 50
0.0
 51
90.0
  0
ARC
  5
210
330
1B
100
AcDbEntity
  8
0
  6
Continuous
 62
     7
370
    25
100
AcDbCircle
 10
-69.0
 20
39.0
 30
0.0
 40
0.9999999999999858
100
AcDbArc
 50
90.0
 51
180.0
  0
ARC
  5
211
330
1B
100
AcDbEntity
  8
0
  6
Continuous
 62
     7
370
    25
100
AcDbCircle
 10
0.0
 20
0.0
 30
0.0
 40
10.49999995198
100
AcDbArc
 50
270.0
 51
90.0
  0
ARC
  5
212
330
1B
100
AcDbEntity
  8
0
  6
Continuous
 62
     7
370
    25
100
AcDbCircle
 10
0.0
 20
0.0
 30
0.0
 40
12.4999999112
100
AcDbArc
 50
270.0
 51
90.0
  0
ARC
  5
213
330
1B
100
AcDbEntity
  8
0
  6
Continuous
 62
     7
370
    25
100
AcDbCircle
 10
0.0
 20
0.0
 30
0.0
 40
9.500000000000004
100
AcDbArc
 50
270.0
 51
90.0
  0
ARC
  5
214
330
1B
100
AcDbEntity
  8
0
  6
Continuous
 62
     7
370
    25
100
AcDbCircle
 10
0.0
 20
0.0
 30
0.0
 40
13.5
100
AcDbArc
 50
270.0
 51
90.0
  0
ARC
  5
215
330
1B
100
AcDbEntity
  8
0
  6
Continuous
 62
     7
370
    25
100
AcDbCircle
 10
-7.0043642586
 20
-12.6858184349
 30
0.0
 40
0.9980950222455921
100
AcDbArc
 50
67.6592022925
 51
177.0210585465
  0
ARC
  5
216
330
1B
100
AcDbEntity
  8
0
  6
Continuous
 62
     7
370
    25
100
AcDbCircle
 10
-7.2740173087
 20
12.3453110659
 30
0.0
 40
0.8299878954839414
100
AcDbArc
 50
303.3246065368
 51
11.789604511
  0
ARC
  5
217
330
1B
100
AcDbEntity
  8
0
  6
Continuous
 62
     7
370
    25
100
AcDbCircle
 10
7.2740173316
 20
12.3453110621
 30
0.0
 40
0.8299879004935503
100
AcDbArc
 50
168.210395344
 51
236.6753919798
  0
ARC
  5
218
330
1B
100
AcDbEntity
  8
0
  6
Continuous
 62
     7
370
    25
100
AcDbCircle
 10
-13.8852801226
 20
3.7852806474
 30
0.0
 40
2.182661752722386
100
AcDbArc
 50
256.622810849
 51
282.9045668524
  0
ARC
  5
219
330
1B
100
AcDbEntity
  8
0
  6
Continuous
 62
     7
370
    25
100
AcDbCircle
 10
-8.3672960859
 20
11.2969456835
 30
0.0
 40
0.562369177194722
100
AcDbArc
 50
235.2237001501
 51
299.6747362133
  0
ARC
  5
21A
330
1B
100
AcDbEntity
  8
0
  6
Continuous
 62
     7
370
    25
100
AcDbCircle
 10
-8.5933896597
 20
11.4169636935
 30
0.0
 40
0.7905467617904294
100
AcDbArc
 50
309.6570477743
 51
14.05617272
  0
ARC
  5
21B
330
1B
100
AcDbEntity
  8
0
  6
Continuous
 62
     7
370
    25
100
AcDbCircle
 10
-9.0505228445
 20
12.1050221054
 30
0.0
 40
1.320713066747742
100
AcDbArc
 50
285.9293188252
 51
337.9383999106
  0
ARC
  5
21C
330
1B
100
AcDbEntity
  8
0
  6
Continuous
 62
     7
370
    25
100
AcDbCircle
 10
-14.3605082486
 20
14.9355621331
 30
0.0
 40
0.9385470939911987
100
AcDbArc
 50
274.5708172756
 51
3.9368557778
  0
ARC
  5
21D
330
1B
100
AcDbEntity
  8
0
  6
Continuous
 62
     7
370
    25
100
AcDbCircle
 10
-6.8435505687
 20
-12.2298616668
 30
0.0
 40
0.515820162651289
100
AcDbArc
 50
64.9285994203
 51
121.8453870153
  0
ARC
  5
21E
330
1B
100
AcDbEntity
  8
0
  6
Continuous
 62
     7
370
    25
100
AcDbCircle
 10
-6.8238675469
 20
-12.9849789457
 30
0.0
 40
1.228463880405652
100
AcDbArc
 50
103.7431196567
 51
163.3964691012
  0
ARC
  5
21F
330
1B
100
AcDbEntity
  8
0
  6
Continuous
 62
     8
370
    25
100
AcDbCircle
 10
-15.6773322993
 20
14.7488983062
 30
0.0
 40
0.9700869348447126
100
AcDbArc
 50
309.4669894831
 51
5.3923452022
  0
VIEWPORT
  5
24E
330
1B
100
AcDbEntity
  8
0
100
AcDbViewport
 10
0.0
 20
0.0
 30
0.0
 40
205.6
 41
156.0
 68
     1
 69
     1
 12
-4.5
 22
41.05
 13
0.0
 23
0.0
 14
10.0
 24
10.0
 15
10.0
 25
10.0
 16
0.0
 26
0.0
 36
1.0
 17
0.0
 27
0.0
 37
0.0
 42
50.0
 43
0.0
 44
0.0
 45
115.3155642023
 50
0.0
 51
0.0
 72
   100
 90
   557152
  1

281
     0
 71
     1
 74
     0
110
0.0
120
0.0
130
0.0
111
1.0
121
0.0
131
0.0
112
0.0
122
1.0
132
0.0
 79
     0
146
0.0
  0
ENDBLK
  5
1D
330
1B
100
AcDbEntity
  8
0
100
AcDbBlockEnd
  0
ENDSEC
  0
SECTION
  2
ENTITIES
  0
SPLINE
  5
82
330
1F
100
AcDbEntity
  8
0
  6
Continuous
 62
     7
370
    25
100
AcDbSpline
210
0.0
220
0.0
230
1.0
 70
     8
 71
     3
 72
    33
 73
    29
 74
     0
 42
0.000000001
 43
0.00000001
 40
0.0
 40
0.0
 40
0.0
 40
0.0
 40
0.0125050753042032
 40
0.0249679719652858
 40
0.0374079207504569
 40
0.0498442588829313
 40
0.0622963404073373
 40
0.0934422456655338
 40
0.124587248875977
 40
0.1556860245426698
 40
0.186867281817343
 40
0.2490420531058719
 40
0.3112486322916843
 40
0.3735780997996592
 40
0.4361923099724505
 40
0.4988953263816799
 40
0.5615521983584907
 40
0.6241722254886926
 40
0.6867860061513958
 40
0.749399149765022
 40
0.8119937384111916
 40
0.8433539047019568
 40
0.8746397712962641
 40
0.9059724395625931
 40
0.937308473710994
 40
0.9581812415777604
 40
0.97904800162982
 40
1.0
 40
1.0
 40
1.0
 40
1.0
 10
-22.49999999999998
 20
77.50000000000001
 30
0.0
 10
-22.49982751503402
 20
77.50074919330739
 30
0.0
 10
-22.49948312688042
 20
77.50224505295157
 30
0.0
 10
-22.49670874093998
 20
77.514409470153
 30
0.0
 10
-22.49231264984568
 20
77.53384961915911
 30
0.0
 10
-22.48615834982091
 20
77.56126200669044
 30
0.0
 10
-22.47440419846617
 20
77.61407589571719
 30
0.0
 10
-22.45294517794938
 20
77.71118510353365
 30
0.0
 10
-22.41686813606633
 20
77.87907396955198
 30
0.0
 10
-22.37286336013941
 20
78.09174009248778
 30
0.0
 10
-22.30598751532986
 20
78.43221306620529
 30
0.0
 10
-22.21122145566505
 20
78.95878719532216
 30
0.0
 10
-22.09663786693077
 20
79.72835107555719
 30
0.0
 10
-21.99802085992858
 20
80.61059393208419
 30
0.0
 10
-21.93088965123995
 20
81.57437559683365
 30
0.0
 10
-21.90654523582375
 20
82.58178109100484
 30
0.0
 10
-21.92923153561387
 20
83.58995514181635
 30
0.0
 10
-21.99505677924186
 20
84.55718583130755
 30
0.0
 10
-22.09321724222995
 20
85.44601082940291
 30
0.0
 10
-22.20828349251308
 20
86.2237797283833
 30
0.0
 10
-22.30386061816893
 20
86.75653161323258
 30
0.0
 10
-22.37140114578531
 20
87.10106907715381
 30
0.0
 10
-22.41587358034662
 20
87.31622758084174
 30
0.0
 10
-22.45235355449236
 20
87.48609937660088
 30
0.0
 10
-22.47650997074358
 20
87.59547726379891
 30
0.0
 10
-22.490778586171
 20
87.65943056461397
 30
0.0
 10
-22.49854761846534
 20
87.69369180654759
 30
0.0
 10
-22.49951521541076
 20
87.6978944134867
 30
0.0
 10
-22.49999999999998
 20
87.70000000000002
 30
0.0
  0
SPLINE
  5
86
330
1F
100
AcDbEntity
  8
0
  6
Continuous
 62
     7
370
    25
100
AcDbSpline
210
0.0
220
0.0
230
1.0
 70
     8
 71
     3
 72
    40
 73
    36
 74
     0
 42
0.000000001
 43
0.00000001
 40
0.0
 40
0.0
 40
0.0
 40
0.0
 40
0.0133657977646396
 40
0.0267498720444508
 40
0.0401532943678426
 40
0.0535771316299668
 40
0.0670224458661442
 40
0.0804902940308492
 40
0.0939817277824425
 40
0.10749779327383
 40
0.1210395309492074
 40
0.1346079753470404
 40
0.1482041549094091
 40
0.1618290917978381
 40
0.1754838017157104
 40
0.1891692937373563
 40
0.2028865701438891
 40
0.2166366262658455
 40
0.2304204503326783
 40
0.2883846915949135
 40
0.3478235225585047
 40
0.4087999448907166
 40
0.4713723129787777
 40
0.5333589465094417
 40
0.5979904535004521
 40
0.6614991938966778
 40
0.7288528591800211
 40
0.7929743532704081
 40
0.8633335042398796
 40
0.882308999852232
 40
0.9028052977721814
 40
0.9248224880811301
 40
0.9483606379348946
 40
0.9734197967663507
 40
0.9999999999999999
 40
0.9999999999999999
 40
0.9999999999999999
 40
0.9999999999999999
 10
22.50000000000001
 20
76.10000000440003
 30
0.0
 10
22.49904981036006
 20
76.09959224426184
 30
0.0
 10
22.49714813178209
 20
76.09877616641047
 30
0.0
 10
22.48175390769173
 20
76.09218538669005
 30
0.0
 10
22.45714152198319
 20
76.08166776746845
 30
0.0
 10
22.42238234492308
 20
76.06683649301726
 30
0.0
 10
22.37769563478854
 20
76.0477954451477
 30
0.0
 10
22.32299806096456
 20
76.02451673058984
 30
0.0
 10
22.25829329625003
 20
75.99700784829605
 30
0.0
 10
22.18356743730487
 20
75.96526679074886
 30
0.0
 10
22.09881715371026
 20
75.92929410484655
 30
0.0
 10
22.00404217775982
 20
75.88908965017909
 30
0.0
 10
21.899247383174
 20
75.84465347598587
 30
0.0
 10
21.78444224195175
 20
75.7959855630274
 30
0.0
 10
21.65964114394429
 20
75.74308597705519
 30
0.0
 10
21.52486287983722
 20
75.68595451257616
 30
0.0
 10
21.38013260087472
 20
75.62459196808375
 30
0.0
 10
21.22547466637641
 20
75.558995385843
 30
0.0
 10
20.8852906837966
 20
75.41464030224046
 30
0.0
 10
20.28528732479039
 20
75.15951439065934
 30
0.0
 10
19.30689185543711
 20
74.74383587664747
 30
0.0
 10
18.14438870890271
 20
74.25075983546421
 30
0.0
 10
16.81495767621133
 20
73.68696803125637
 30
0.0
 10
15.32055335334297
 20
73.0523508875922
 30
0.0
 10
13.6929171464933
 20
72.36170738720931
 30
0.0
 10
11.90658767274569
 20
71.60315591823716
 30
0.0
 10
10.02685875259531
 20
70.8056213698939
 30
0.0
 10
7.998983142559639
 20
69.94431677202579
 30
0.0
 10
6.405486266130675
 20
69.26836619212429
 30
0.0
 10
5.248651842521365
 20
68.77711861946207
 30
0.0
 10
4.597160281651955
 20
68.50036686997733
 30
0.0
 10
3.89344142799667
 20
68.2015684837919
 30
0.0
 10
3.137281437968743
 20
67.88067580618657
 30
0.0
 10
2.328916879540018
 20
67.53778304405883
 30
0.0
 10
1.771516749715554
 20
67.30124684761823
 30
0.0
 10
1.484607536652131
 20
67.17949514655001
 30
0.0
  0
SPLINE
  5
87
330
1F
100
AcDbEntity
  8
0
  6
Continuous
 62
     7
370
    25
100
AcDbSpline
210
0.0
220
0.0
230
1.0
 70
     8
 71
     3
 72
    11
 73
     7
 74
     0
 42
0.000000001
 43
0.00000001
 40
0.0
 40
0.0
 40
0.0
 40
0.0
 40
0.2513367522758608
 40
0.5000865737433605
 40
0.7487927771440086
 40
0.9999999999999999
 40
0.9999999999999999
 40
0.9999999999999999
 40
0.9999999999999999
 10
1.484607536652131
 20
67.17949514655001
 30
0.0
 10
1.453285845010428
 20
67.16721384656425
 30
0.0
 10
1.390964846130993
 20
67.14277765418342
 30
0.0
 10
1.29358773329314
 20
67.1184283008413
 30
0.0
 10
1.194439502021881
 20
67.10279190153109
 30
0.0
 10
1.127509055008753
 20
67.10093373259134
 30
0.0
 10
1.093876408163122
 20
67.10000000000001
 30
0.0
  0
LWPOLYLINE
  5
94
330
1F
100
AcDbEntity
  8
0
  6
Continuous
 62
     7
370
    25
100
AcDbPolyline
 90
        3
 70
   128
 43
0.0
 10
-19.248649589
 20
65.502665186
 10
-19.1719532604
 20
66.838775607
 10
-19.1431037763
 20
67.1
  0
SPLINE
  5
A9
330
1F
100
AcDbEntity
  8
0
  6
Continuous
 62
     7
370
    25
100
AcDbSpline
210
0.0
220
0.0
230
1.0
 70
    24
 71
     3
 72
    15
 73
    11
 74
     0
 42
0.000000001
 43
0.00000001
 40
0.0
 40
0.0
 40
0.0
 40
0.0
 40
0.175315400574034
 40
0.3349302080924108
 40
0.4806948127566203
 40
0.6105963094997809
 40
0.7186823396593303
 40
0.8194908298290612
 40
0.9131924975986556
 40
1.0
 40
1.0
 40
1.0
 40
1.0
 10
0.0
 20
-14.00000000000001
 30
0.0
 10
0.3100684805617711
 20
-14.00000000000001
 30
0.0
 10
0.9024368656403853
 20
-14.00000000000001
 30
0.0
 10
1.755266152825549
 20
-13.99999999999999
 30
0.0
 10
2.531699731819562
 20
-14.00000000000001
 30
0.0
 10
3.220490658442904
 20
-14.0
 30
0.0
 10
3.832545477360949
 20
-14.00000000000001
 30
0.0
 10
4.382287376673982
 20
-14.0
 30
0.0
 10
4.8957506525086
 20
-14.00000000000001
 30
0.0
 10
5.226234127674687
 20
-14.0
 30
0.0
 10
5.385164807134996
 20
-14.0
 30
0.0
  0
SPLINE
  5
AA
330
1F
100
AcDbEntity
  8
0
  6
Continuous
 62
     7
370
    25
100
AcDbSpline
210
0.0
220
0.0
230
1.0
 70
     8
 71
     3
 72
    12
 73
     8
 74
     0
 42
0.000000001
 43
0.00000001
 40
0.0
 40
0.0
 40
0.0
 40
0.0
 40
0.2500000000000002
 40
0.2500000000000002
 40
0.5000000000000003
 40
0.5000000000000003
 40
1.0
 40
1.0
 40
1.0
 40
1.0
 10
12.77061071682
 20
-7.868386233488997
 30
0.0
 10
12.6214428877925
 20
-7.783204548328489
 30
0.0
 10
12.50910605532479
 20
-7.668318324434834
 30
0.0
 10
12.35261288905048
 20
-7.430237719338768
 30
0.0
 10
12.30662329501644
 20
-7.306114851237458
 30
0.0
 10
12.23831439858462
 20
-6.944250976067767
 30
0.0
 10
12.28599817420993
 20
-6.715402217846167
 30
0.0
 10
12.38206588399
 20
-6.533333333333003
 30
0.0
  0
SPLINE
  5
B7
330
1F
100
AcDbEntity
  8
0
  6
Continuous
 62
     7
370
    25
100
AcDbSpline
210
0.0
220
0.0
230
1.0
 70
     8
 71
     3
 72
     8
 73
     4
 74
     0
 42
0.000000001
 43
0.00000001
 40
0.0
 40
0.0
 40
0.0
 40
0.0
 40
1.0
 40
1.0
 40
1.0
 40
1.0
 10
-2.692307695369
 20
14.8400625208
 30
0.0
 10
-1.968320768607926
 20
14.94664088962
 30
0.0
 10
-1.239783970279774
 20
14.99999979555
 30
0.0
 10
-0.5076923076581009
 20
15.0
 30
0.0
  0
LWPOLYLINE
  5
B8
330
1F
100
AcDbEntity
  8
0
  6
Continuous
 62
     7
370
    25
100
AcDbPolyline
 90
        9
 70
   128
 43
0.0
 10
0.0
 20
13.9999999969
 10
-0.0990458557
 20
14.0192147166
 10
-0.1942854347
 20
14.0761204648
 10
-0.2820587333
 20
14.1685303855
 10
-0.3589926729
 20
14.2928932172
 10
-0.4221307251
 20
14.444429766
 10
-0.4690465302
 20
14.6173165672
 10
-0.4979371398
 20
14.8049096779
 10
-0.5076923077
 20
15.0
  0
SPLINE
  5
BA
330
1F
100
AcDbEntity
  8
0
  6
Continuous
 62
     7
370
    25
100
AcDbSpline
210
0.0
220
0.0
230
1.0
 70
     8
 71
     3
 72
    10
 73
     6
 74
     0
 42
0.000000001
 43
0.00000001
 40
0.0
 40
0.0
 40
0.0
 40
0.0
 40
0.5
 40
0.5
 40
1.0
 40
1.0
 40
1.0
 40
1.0
 10
8.991364270524334
 20
11.60897144903651
 30
0.0
 10
9.329810898676731
 20
11.75823039886058
 30
0.0
 10
9.68903573786794
 20
11.90866170662835
 30
0.0
 10
10.45105446896312
 20
12.20852676351039
 30
0.0
 10
10.8632362668822
 20
12.36163562996361
 30
0.0
 10
11.30769230515
 20
12.51489290321
 30
0.0
  0
SPLINE
  5
BB
330
1F
100
AcDbEntity
  8
0
  6
Continuous
 62
     7
370
    25
100
AcDbSpline
210
0.0
220
0.0
230
1.0
 70
     8
 71
     3
 72
    14
 73
    10
 74
     0
 42
0.000000001
 43
0.00000001
 40
0.0
 40
0.0
 40
0.0
 40
0.0
 40
0.2500000000000001
 40
0.2500000000000001
 40
0.5000000000000002
 40
0.5000000000000002
 40
0.7500000000000001
 40
0.7500000000000001
 40
1.0
 40
1.0
 40
1.0
 40
1.0
 10
-0.5076923076581009
 20
15.0
 30
0.0
 10
0.3773270726631257
 20
14.99999936884408
 30
0.0
 10
1.256060629060987
 20
14.92163756510833
 30
0.0
 10
2.979572329435694
 20
14.6152340071663
 30
0.0
 10
3.822358012961727
 20
14.38720933872353
 30
0.0
 10
5.439943998899986
 20
13.79734597735826
 30
0.0
 10
6.214812957109108
 20
13.43557976544798
 30
0.0
 10
7.674141641148297
 20
12.60017661747743
 30
0.0
 10
8.358438796257493
 20
12.12684800347461
 30
0.0
 10
8.991362044097263
 20
11.60895662905253
 30
0.0
  0
LWPOLYLINE
  5
BC
330
1F
100
AcDbEntity
  8
0
  6
Continuous
 62
     7
370
    25
100
AcDbPolyline
 90
        9
 70
   128
 43
0.0
 10
13.2664990855
 20
-6.5172413854
 10
13.1147595233
 20
-6.4626285474
 10
12.9672897923
 20
-6.4231369268
 10
12.8282395761
 20
-6.399877787
 10
12.7015216394
 20
-6.3935056222
 10
12.5907017262
 20
-6.40419974
 10
12.4988982226
 20
-6.4316592164
 10
12.4286944077
 20
-6.475111363
 10
12.3820657672
 20
-6.5333334598
  0
SPLINE
  5
BD
330
1F
100
AcDbEntity
  8
0
  6
Continuous
 62
     7
370
    25
100
AcDbSpline
210
0.0
220
0.0
230
1.0
 70
     8
 71
     3
 72
    14
 73
    10
 74
     0
 42
0.000000001
 43
0.00000001
 40
0.0
 40
0.0
 40
0.0
 40
0.0
 40
0.2499999999999999
 40
0.2499999999999999
 40
0.4999999999999998
 40
0.4999999999999998
 40
0.7499999999999999
 40
0.7499999999999999
 40
1.0
 40
1.0
 40
1.0
 40
1.0
 10
14.89394647457
 20
1.657745516996999
 30
0.0
 10
14.98015709812001
 20
0.9863495692921976
 30
0.0
 10
15.01372696289238
 20
0.3141678116923216
 30
0.0
 10
14.97626130444674
 20
-1.035660285219585
 30
0.0
 10
14.90519324227004
 20
-1.713554502027401
 30
0.0
 10
14.65031409093495
 20
-3.076707252541846
 30
0.0
 10
14.46663219624326
 20
-3.76170923827069
 30
0.0
 10
13.96978705975301
 20
-5.137834307436931
 30
0.0
 10
13.65621803873476
 20
-5.829578374799915
 30
0.0
 10
13.26649908555
 20
-6.517241385401003
 30
0.0
  0
SPLINE
  5
BF
330
1F
100
AcDbEntity
  8
0
  6
Continuous
 62
     7
370
    25
100
AcDbSpline
210
0.0
220
0.0
230
1.0
 70
     8
 71
     3
 72
    14
 73
    10
 74
     0
 42
0.000000001
 43
0.00000001
 40
0.0
 40
0.0
 40
0.0
 40
0.0
 40
0.2500000000000002
 40
0.2500000000000002
 40
0.5000000000000003
 40
0.5000000000000003
 40
0.7500000000000002
 40
0.7500000000000002
 40
1.0
 40
1.0
 40
1.0
 40
1.0
 10
9.499053417399997
 20
10.80833419848
 30
0.0
 10
10.36199381377622
 20
10.15092633514002
 30
0.0
 10
11.11615962393527
 20
9.425674454988403
 30
0.0
 10
12.39615588781336
 20
7.921849242000449
 30
0.0
 10
12.92367614661238
 20
7.143521520486022
 30
0.0
 10
13.78368705931052
 20
5.578537683756352
 30
0.0
 10
14.11687751628121
 20
4.79174218721427
 30
0.0
 10
14.62186734865917
 20
3.221886626549927
 30
0.0
 10
14.79368483601505
 20
2.438590473835031
 30
0.0
 10
14.89394647457
 20
1.657745516996999
 30
0.0
  0
LWPOLYLINE
  5
C0
330
1F
100
AcDbEntity
  8
0
  6
Continuous
 62
     7
370
    25
100
AcDbPolyline
 90
        9
 70
   128
 43
0.0
 10
8.9913741942
 20
11.6089580318
 10
8.9206465088
 20
11.4824280864
 10
8.8638653525
 20
11.3589488231
 10
8.8223998037
 20
11.2414975114
 10
8.7972496588
 20
11.132906078
 10
8.7890213253
 20
11.0357928245
 10
8.7979132007
 20
10.9524992966
 10
8.8237108886
 20
10.8850338257
 10
8.8657923681
 20
10.835023105
  0
SPLINE
  5
C1
330
1F
100
AcDbEntity
  8
0
  6
Continuous
 62
     7
370
    25
100
AcDbSpline
210
0.0
220
0.0
230
1.0
 70
     8
 71
     3
 72
    26
 73
    22
 74
     0
 42
0.000000001
 43
0.00000001
 40
0.0
 40
0.0
 40
0.0
 40
0.0
 40
0.0625000000000003
 40
0.0625000000000003
 40
0.0937500000000001
 40
0.0937500000000001
 40
0.1249999999999999
 40
0.1249999999999999
 40
0.1875000000000001
 40
0.1875000000000001
 40
0.2500000000000003
 40
0.2500000000000003
 40
0.375000000000001
 40
0.375000000000001
 40
0.5000000000000018
 40
0.5000000000000018
 40
0.7500000000000007
 40
0.7500000000000007
 40
0.8750000000000003
 40
0.8750000000000003
 40
1.0
 40
1.0
 40
1.0
 40
1.0
 10
16.66350098621
 20
-8.0
 30
0.0
 10
16.56303313815751
 20
-8.0
 30
0.0
 10
16.46666079055249
 20
-7.992044434247003
 30
0.0
 10
16.35225784175269
 20
-7.952210116355711
 30
0.0
 10
16.32031093974488
 20
-7.93383142451802
 30
0.0
 10
16.28054492520902
 20
-7.88743684147019
 30
0.0
 10
16.27319029783226
 20
-7.859690382569492
 30
0.0
 10
16.28376294957327
 20
-7.773380328109883
 30
0.0
 10
16.32952099200936
 20
-7.714076285704856
 30
0.0
 10
16.4353158197041
 20
-7.608034092147927
 30
0.0
 10
16.4970000667293
 20
-7.559782614373789
 30
0.0
 10
16.68498433575454
 20
-7.426068461778929
 30
0.0
 10
16.81492120189775
 20
-7.35092409670493
 30
0.0
 10
17.06662660384074
 20
-7.214319870037269
 30
0.0
 10
17.18967389215248
 20
-7.153107491260115
 30
0.0
 10
17.55245251166005
 20
-6.980709086613267
 30
0.0
 10
17.78666430473315
 20
-6.880195125725311
 30
0.0
 10
18.14922984931687
 20
-6.733083836063907
 30
0.0
 10
18.27305346167858
 20
-6.684452946020381
 30
0.0
 10
18.51555389687107
 20
-6.591937325250457
 30
0.0
 10
18.62996737557281
 20
-6.549735780136907
 30
0.0
 10
18.71973485525
 20
-6.517241415881003
 30
0.0
  0
SPLINE
  5
C3
330
1F
100
AcDbEntity
  8
0
  6
Continuous
 62
     7
370
    25
100
AcDbSpline
210
0.0
220
0.0
230
1.0
 70
     8
 71
     3
 72
     8
 73
     4
 74
     0
 42
0.000000001
 43
0.00000001
 40
0.0
 40
0.0
 40
0.0
 40
0.0
 40
1.0
 40
1.0
 40
1.0
 40
1.0
 10
11.81538461537998
 20
11.6517968392218
 30
0.0
 10
11.03448526572898
 20
11.4010975087192
 30
0.0
 10
10.26118208878879
 20
11.12125909118437
 30
0.0
 10
9.499067380411674
 20
10.80833613700869
 30
0.0
  0
SPLINE
  5
C4
330
1F
100
AcDbEntity
  8
0
  6
Continuous
 62
     7
370
    25
100
AcDbSpline
210
0.0
220
0.0
230
1.0
 70
     8
 71
     3
 72
    18
 73
    14
 74
     0
 42
0.000000001
 43
0.00000001
 40
0.0
 40
0.0
 40
0.0
 40
0.0
 40
0.1249999999999999
 40
0.1249999999999999
 40
0.2499999999999998
 40
0.2499999999999998
 40
0.5000000000000001
 40
0.5000000000000001
 40
0.7500000000000001
 40
0.7500000000000001
 40
0.8750000000000001
 40
0.8750000000000001
 40
1.0
 40
1.0
 40
1.0
 40
1.0
 10
11.81538461538
 20
11.65179683735
 30
0.0
 10
12.154579539105
 20
11.7606918652
 30
0.0
 10
12.48227304761167
 20
11.87725978627333
 30
0.0
 10
13.10473294993043
 20
12.11534981688792
 30
0.0
 10
13.39905411714001
 20
12.2366847499575
 30
0.0
 10
14.21276205289
 20
12.58896417577001
 30
0.0
 10
14.65882127935332
 20
12.80515958745999
 30
0.0
 10
15.34962723950335
 20
13.15139932001001
 30
0.0
 10
15.59737486665667
 20
13.28315232857
 30
0.0
 10
15.84091868608167
 20
13.41357092082
 30
0.0
 10
15.90067423277958
 20
13.44596491129292
 30
0.0
 10
15.98043773491292
 20
13.48929759351791
 30
0.0
 10
15.99999932082501
 20
13.49999984378
 30
0.0
 10
16.0
 20
13.49999999463
 30
0.0
  0
SPLINE
  5
CC
330
1F
100
AcDbEntity
  8
0
  6
Continuous
 62
     7
370
    25
100
AcDbSpline
210
0.0
220
0.0
230
1.0
 70
     8
 71
     3
 72
    18
 73
    14
 74
     0
 42
0.000000001
 43
0.00000001
 40
0.0
 40
0.0
 40
0.0
 40
0.0
 40
0.125
 40
0.125
 40
0.2499999999999999
 40
0.2499999999999999
 40
0.4999999999999998
 40
0.4999999999999998
 40
0.6249999999999998
 40
0.6249999999999998
 40
0.7499999999999998
 40
0.7499999999999998
 40
1.0
 40
1.0
 40
1.0
 40
1.0
 10
-1.717170207762998
 20
-5.499999999999998
 30
0.0
 10
-1.995434632977227
 20
-5.611550390585869
 30
0.0
 10
-2.247926657560674
 20
-5.702882799932175
 30
0.0
 10
-2.720386704909625
 20
-5.855228310768512
 30
0.0
 10
-2.94134064394986
 20
-5.916738366061561
 30
0.0
 10
-3.596677374204556
 20
-6.067496354804885
 30
0.0
 10
-4.024467592978483
 20
-6.121412807425751
 30
0.0
 10
-4.671294181915537
 20
-6.120844358799809
 30
0.0
 10
-4.886678670794922
 20
-6.107112673158804
 30
0.0
 10
-5.315278620393857
 20
-6.054657192285942
 30
0.0
 10
-5.526618400565047
 20
-6.016540863626588
 30
0.0
 10
-6.176222269048168
 20
-5.866722659452941
 30
0.0
 10
-6.619332143570439
 20
-5.725822785058226
 30
0.0
 10
-7.181932579889999
 20
-5.499999999999998
 30
0.0
  0
SPLINE
  5
CD
330
1F
100
AcDbEntity
  8
0
  6
Continuous
 62
     7
370
    25
100
AcDbSpline
210
0.0
220
0.0
230
1.0
 70
     8
 71
     3
 72
    22
 73
    18
 74
     0
 42
0.000000001
 43
0.00000001
 40
0.0
 40
0.0
 40
0.0
 40
0.0
 40
0.0267788427732053
 40
0.0526196347765866
 40
0.0775524663320543
 40
0.1016075907069703
 40
0.1546395014678763
 40
0.2056205193357674
 40
0.3363532877065991
 40
0.4618091856111767
 40
0.5890326368616333
 40
0.7170912443796604
 40
0.7826248920257387
 40
0.849831516859862
 40
0.8980401140981887
 40
0.9480286112192137
 40
1.0
 40
1.0
 40
1.0
 40
1.0
 10
-6.936491673104897
 20
6.491154232412838
 30
0.0
 10
-6.964875497942987
 20
6.387727049096979
 30
0.0
 10
-7.020648875052368
 20
6.184495689992211
 30
0.0
 10
-7.095418669615581
 20
5.882829687096472
 30
0.0
 10
-7.162880192743221
 20
5.59051061900602
 30
0.0
 10
-7.248499386131521
 20
5.190324631375858
 30
0.0
 10
-7.344634479450527
 20
4.685089747713027
 30
0.0
 10
-7.494386245435987
 20
3.753121079903742
 30
0.0
 10
-7.635175449781554
 20
2.521916701142428
 30
0.0
 10
-7.726385968761303
 20
0.9732144265925287
 30
0.0
 10
-7.736860373095136
 20
-0.5696219786306932
 30
0.0
 10
-7.678580031634689
 20
-1.867338864910438
 30
0.0
 10
-7.587958248101687
 20
-2.916625757578499
 30
0.0
 10
-7.503615483469908
 20
-3.64126948896961
 30
0.0
 10
-7.408127793927285
 20
-4.300029917432966
 30
0.0
 10
-7.307611975705703
 20
-4.895250870952259
 30
0.0
 10
-7.224365365269779
 20
-5.295820231039743
 30
0.0
 10
-7.181932579891671
 20
-5.500000000001289
 30
0.0
  0
SPLINE
  5
CE
330
1F
100
AcDbEntity
  8
0
  6
Continuous
 62
     7
370
    25
100
AcDbSpline
210
0.0
220
0.0
230
1.0
 70
     8
 71
     3
 72
    50
 73
    46
 74
     0
 42
0.000000001
 43
0.00000001
 40
0.0
 40
0.0
 40
0.0
 40
0.0
 40
0.03125
 40
0.03125
 40
0.0624999999999999
 40
0.0624999999999999
 40
0.125
 40
0.125
 40
0.15625
 40
0.15625
 40
0.1875000000000001
 40
0.1875000000000001
 40
0.2187500000000001
 40
0.2187500000000001
 40
0.2500000000000002
 40
0.2500000000000002
 40
0.2812500000000001
 40
0.2812500000000001
 40
0.3125000000000001
 40
0.3125000000000001
 40
0.3750000000000001
 40
0.3750000000000001
 40
0.4375
 40
0.4375
 40
0.5
 40
0.5
 40
0.6249999999999998
 40
0.6249999999999998
 40
0.6874999999999998
 40
0.6874999999999998
 40
0.7499999999999997
 40
0.7499999999999997
 40
0.8124999999999996
 40
0.8124999999999996
 40
0.8437499999999997
 40
0.8437499999999997
 40
0.8749999999999997
 40
0.8749999999999997
 40
0.9062499999999998
 40
0.9062499999999998
 40
0.9374999999999999
 40
0.9374999999999999
 40
0.9687499999999999
 40
0.9687499999999999
 40
1.0
 40
1.0
 40
1.0
 40
1.0
 10
-3.063508326895999
 20
8.992492242478999
 30
0.0
 10
-2.948951608456155
 20
8.825438831670454
 30
0.0
 10
-2.840071441836522
 20
8.642565783660398
 30
0.0
 10
-2.630460770311198
 20
8.2446421287377
 30
0.0
 10
-2.529317219112145
 20
8.028979112485429
 30
0.0
 10
-2.232376149670402
 20
7.319002007943422
 30
0.0
 10
-2.044328648528663
 20
6.751853497628877
 30
0.0
 10
-1.821883856885857
 20
5.939098206498773
 30
0.0
 10
-1.756278657949528
 20
5.673035129779707
 30
0.0
 10
-1.639742677179857
 20
5.159832309248196
 30
0.0
 10
-1.58937511397602
 20
4.915933980816099
 30
0.0
 10
-1.497091646457706
 20
4.432633406844095
 30
0.0
 10
-1.453873065929378
 20
4.185257216307741
 30
0.0
 10
-1.375447823887845
 20
3.694978892249869
 30
0.0
 10
-1.341216405557233
 20
3.458580703310253
 30
0.0
 10
-1.281362324239928
 20
3.008907890411777
 30
0.0
 10
-1.255318454113235
 20
2.792119541788204
 30
0.0
 10
-1.21113073896888
 20
2.391611626573982
 30
0.0
 10
-1.193348264080303
 20
2.211727122667325
 30
0.0
 10
-1.149990604662848
 20
1.739668438232693
 30
0.0
 10
-1.132471205185611
 20
1.498550171372213
 30
0.0
 10
-1.106416777401087
 20
1.09751587699241
 30
0.0
 10
-1.098338729150938
 20
0.9412379626230795
 30
0.0
 10
-1.086081036925545
 20
0.6666807216130916
 30
0.0
 10
-1.081824580264231
 20
0.5439261907542147
 30
0.0
 10
-1.072684225961042
 20
0.1858209074401748
 30
0.0
 10
-1.0716376287205
 20
-0.045028366194886
 30
0.0
 10
-1.077699166596988
 20
-0.3972217584344642
 30
0.0
 10
-1.080905486322465
 20
-0.5152125886354435
 30
0.0
 10
-1.090326111638607
 20
-0.7699703451426211
 30
0.0
 10
-1.096282846109319
 20
-0.9034878130074059
 30
0.0
 10
-1.115271538000222
 20
-1.241622439286414
 30
0.0
 10
-1.128086996563984
 20
-1.443546303919286
 30
0.0
 10
-1.159221120706929
 20
-1.834268627209815
 30
0.0
 10
-1.171612867952466
 20
-1.979061363670039
 30
0.0
 10
-1.202896424819331
 20
-2.308717246848512
 30
0.0
 10
-1.222078424455361
 20
-2.495894701348447
 30
0.0
 10
-1.2682842670135
 20
-2.901008792792939
 30
0.0
 10
-1.294912110208542
 20
-3.115650952017456
 30
0.0
 10
-1.356243982816283
 20
-3.563463909770352
 30
0.0
 10
-1.391604566506749
 20
-3.801225188558001
 30
0.0
 10
-1.472454277517056
 20
-4.29336226229421
 30
0.0
 10
-1.51726048105515
 20
-4.543289378880426
 30
0.0
 10
-1.612826599516177
 20
-5.030596873849532
 30
0.0
 10
-1.663638812125241
 20
-5.268789870272073
 30
0.0
 10
-1.717170207762998
 20
-5.499999999999998
 30
0.0
  0
SPLINE
  5
D3
330
1F
100
AcDbEntity
  8
0
  6
Continuous
 62
     7
370
    25
100
AcDbSpline
210
0.0
220
0.0
230
1.0
 70
     8
 71
     3
 72
    16
 73
    12
 74
     0
 42
0.000000001
 43
0.00000001
 40
0.0
 40
0.0
 40
0.0
 40
0.0
 40
0.25
 40
0.25
 40
0.5
 40
0.5
 40
0.75
 40
0.75
 40
0.875
 40
0.875
 40
1.0
 40
1.0
 40
1.0
 40
1.0
 10
11.30769230515
 20
12.51489290321
 30
0.0
 10
11.90583092055
 20
12.74864317216
 30
0.0
 10
12.46573314631
 20
13.016986802
 30
0.0
 10
13.42303180122666
 20
13.52148367211667
 30
0.0
 10
13.81661041336332
 20
13.75369195059999
 30
0.0
 10
14.42614194316335
 20
14.12557723683334
 30
0.0
 10
14.64474197765334
 20
14.26708918917667
 30
0.0
 10
14.85963321874084
 20
14.40716817060167
 30
0.0
 10
14.9123587009225
 20
14.44196171406542
 30
0.0
 10
14.98273857279125
 20
14.48850439486541
 30
0.0
 10
14.99999969577
 20
14.499999472925
 30
0.0
 10
14.99999998687
 20
14.5
 30
0.0
  0
LWPOLYLINE
  5
D6
330
1F
100
AcDbEntity
  8
0
  6
Continuous
 62
     7
370
    25
100
AcDbPolyline
 90
        9
 70
   128
 43
0.0
 10
-8.9655110834
 20
-10.7526559922
 10
-8.9281913399
 20
-10.8001072622
 10
-8.9078760649
 20
-10.8656389554
 10
-8.9050749878
 20
-10.9476068197
 10
-8.9198583904
 20
-11.0439542042
 10
-8.951855343
 20
-11.152263662
 10
-9.000263012
 20
-11.2698176066
 10
-9.0638668033
 20
-11.3936664986
 10
-9.1410708376
 20
-11.5207028525
  0
SPLINE
  5
D7
330
1F
100
AcDbEntity
  8
0
  6
Continuous
 62
     7
370
    25
100
AcDbSpline
210
0.0
220
0.0
230
1.0
 70
    24
 71
     3
 72
    18
 73
    14
 74
     0
 42
0.000000001
 43
0.00000001
 40
0.0
 40
0.0
 40
0.0
 40
0.0
 40
0.0489525558630815
 40
0.1002857885005029
 40
0.1540373017492437
 40
0.2102398456070949
 40
0.2689220665236569
 40
0.3301091282552755
 40
0.3938232267817401
 40
0.5230050460154092
 40
0.6683205612479266
 40
0.8267587476055467
 40
1.0
 40
1.0
 40
1.0
 40
1.0
 10
-4.920330908102004
 20
-14.0
 30
0.0
 10
-4.831520900702175
 20
-14.0
 30
0.0
 10
-4.649581848454567
 20
-14.0
 30
0.0
 10
-4.375802307527303
 20
-14.0
 30
0.0
 10
-4.093180967035339
 20
-14.0
 30
0.0
 10
-3.802165368292244
 20
-14.0
 30
0.0
 10
-3.502625138678696
 20
-14.0
 30
0.0
 10
-3.194591827858254
 20
-14.00000000000001
 30
0.0
 10
-2.77388489540802
 20
-14.0
 30
0.0
 10
-2.224229570344179
 20
-14.00000000000001
 30
0.0
 10
-1.534160562499189
 20
-14.0
 30
0.0
 10
-0.7856315978398247
 20
-14.0
 30
0.0
 10
-0.269554811907935
 20
-14.0
 30
0.0
 10
0.0
 20
-14.0
 30
0.0
  0
SPLINE
  5
D8
330
1F
100
AcDbEntity
  8
0
  6
Continuous
 62
     7
370
    25
100
AcDbSpline
210
0.0
220
0.0
230
1.0
 70
     8
 71
     3
 72
    10
 73
     6
 74
     0
 42
0.000000001
 43
0.00000001
 40
0.0
 40
0.0
 40
0.0
 40
0.0
 40
0.5000000000000001
 40
0.5000000000000001
 40
1.0
 40
1.0
 40
1.0
 40
1.0
 10
-4.920330908102001
 20
-14.0
 30
0.0
 10
-5.702195394685999
 20
-13.69925213888
 30
0.0
 10
-6.448859887923996
 20
-13.33690780386167
 30
0.0
 10
-7.861197585052007
 20
-12.503966160835
 30
0.0
 10
-8.525154094485995
 20
-12.03425140772
 30
0.0
 10
-9.141070837578
 20
-11.52070285252
 30
0.0
  0
SPLINE
  5
D9
330
1F
100
AcDbEntity
  8
0
  6
Continuous
 62
     7
370
    25
100
AcDbSpline
210
0.0
220
0.0
230
1.0
 70
     8
 71
     3
 72
    10
 73
     6
 74
     0
 42
0.000000001
 43
0.00000001
 40
0.0
 40
0.0
 40
0.0
 40
0.0
 40
0.5
 40
0.5
 40
1.0
 40
1.0
 40
1.0
 40
1.0
 10
-12.46694636544
 20
-7.600595809546001
 30
0.0
 10
-12.55463827304
 20
-7.717337066766
 30
0.0
 10
-12.67139638582
 20
-7.818519408982663
 30
0.0
 10
-12.94759047223667
 20
-7.960408088764331
 30
0.0
 10
-13.10606552667001
 20
-8.0
 30
0.0
 10
-13.26649916142
 20
-8.0
 30
0.0
  0
SPLINE
  5
DA
330
1F
100
AcDbEntity
  8
0
  6
Continuous
 62
     7
370
    25
100
AcDbSpline
210
0.0
220
0.0
230
1.0
 70
     8
 71
     3
 72
    10
 73
     6
 74
     0
 42
0.000000001
 43
0.00000001
 40
0.0
 40
0.0
 40
0.0
 40
0.0
 40
0.5
 40
0.5
 40
1.0
 40
1.0
 40
1.0
 40
1.0
 10
-12.46694636544
 20
-7.600595809546001
 30
0.0
 10
-12.04134389912
 20
-8.324721479317995
 30
0.0
 10
-11.55027051986167
 20
-9.02099432628517
 30
0.0
 10
-10.43936630454167
 20
-10.33631632577983
 30
0.0
 10
-9.820006537497997
 20
-10.95460928416
 30
0.0
 10
-9.141070837578
 20
-11.52070285252
 30
0.0
  0
SPLINE
  5
DE
330
1F
100
AcDbEntity
  8
0
  6
Continuous
 62
     7
370
    25
100
AcDbSpline
210
0.0
220
0.0
230
1.0
 70
     8
 71
     3
 72
    10
 73
     6
 74
     0
 42
0.000000001
 43
0.00000001
 40
0.0
 40
0.0
 40
0.0
 40
0.0
 40
0.5
 40
0.5
 40
1.0
 40
1.0
 40
1.0
 40
1.0
 10
-12.46694636544
 20
-7.600595809546001
 30
0.0
 10
-12.3361430626
 20
-7.426461816512998
 30
0.0
 10
-12.27607211176667
 20
-7.23086052041668
 30
0.0
 10
-12.25904423642667
 20
-6.861159126198321
 30
0.0
 10
-12.30193822164003
 20
-6.685192271243936
 30
0.0
 10
-12.38206587169
 20
-6.533333326839003
 30
0.0
  0
SPLINE
  5
E3
330
1F
100
AcDbEntity
  8
0
  6
Continuous
 62
     8
370
    25
100
AcDbSpline
210
0.0
220
0.0
230
1.0
 70
     8
 71
     3
 72
    17
 73
    13
 74
     0
 42
0.000000001
 43
0.00000001
 40
0.0
 40
0.0
 40
0.0
 40
0.0
 40
0.0745576244436911
 40
0.2284848974283846
 40
0.3671500841415138
 40
0.4879841473179256
 40
0.5916090562999708
 40
0.6805314872714032
 40
0.7709794170429611
 40
0.8511469281131961
 40
0.9260410136078444
 40
1.0
 40
1.0
 40
1.0
 40
1.0
 10
-13.87623601927509
 20
1.5035590148148
 30
0.0
 10
-13.85117229078645
 20
1.927783325203502
 30
0.0
 10
-13.77436346706613
 20
3.227836120192888
 30
0.0
 10
-13.20694347175068
 20
5.290060296428069
 30
0.0
 10
-12.2682258126251
 20
7.554725288242352
 30
0.0
 10
-11.09791612439192
 20
9.458843455666566
 30
0.0
 10
-9.821095674157329
 20
10.99981477293523
 30
0.0
 10
-8.44491165918718
 20
12.26829236274634
 30
0.0
 10
-6.993682392173541
 20
13.28254167941738
 30
0.0
 10
-5.490567973451921
 20
14.04700514727141
 30
0.0
 10
-4.031688091550991
 20
14.57284214846698
 30
0.0
 10
-3.136894120629351
 20
14.75136288742405
 30
0.0
 10
-2.692307695369
 20
14.8400625208
 30
0.0
  0
LINE
  5
E7
330
1F
100
AcDbEntity
  8
0
  6
Continuous
 62
     7
370
    25
100
AcDbLine
 10
70.0
 20
30.0
 30
0.0
 11
70.0
 21
39.0
 31
0.0
  0
LINE
  5
E8
330
1F
100
AcDbEntity
  8
0
  6
Continuous
 62
     7
370
    25
100
AcDbLine
 10
-70.0
 20
39.0
 30
0.0
 11
-70.0
 21
30.0
 31
0.0
  0
LINE
  5
E9
330
1F
100
AcDbEntity
  8
0
  6
Continuous
 62
     7
370
    25
100
AcDbLine
 10
27.7757280015
 20
-14.0
 30
0.0
 11
27.7757280015
 21
-8.0
 31
0.0
  0
LINE
  5
EA
330
1F
100
AcDbEntity
  8
0
  6
Continuous
 62
     7
370
    25
100
AcDbLine
 10
15.0
 20
14.5000000001
 30
0.0
 11
15.0
 21
24.5
 31
0.0
  0
LINE
  5
EB
330
1F
100
AcDbEntity
  8
0
  6
Continuous
 62
     7
370
    25
100
AcDbLine
 10
-27.7757280015
 20
-8.0
 30
0.0
 11
-27.7757280015
 21
-14.0
 31
0.0
  0
LINE
  5
EC
330
1F
100
AcDbEntity
  8
0
  6
Continuous
 62
     7
370
    25
100
AcDbLine
 10
-78.5
 20
87.6
 30
0.0
 11
-22.5
 21
87.5999913467
 31
0.0
  0
LINE
  5
ED
330
1F
100
AcDbEntity
  8
0
  6
Continuous
 62
     7
370
    25
100
AcDbLine
 10
-78.5
 20
77.6
 30
0.0
 11
-22.5
 21
77.6000086533
 31
0.0
  0
LINE
  5
EE
330
1F
100
AcDbEntity
  8
0
  6
Continuous
 62
     7
370
    25
100
AcDbLine
 10
-78.5
 20
87.6
 30
0.0
 11
-78.5
 21
77.6
 31
0.0
  0
LINE
  5
EF
330
1F
100
AcDbEntity
  8
0
  6
Continuous
 62
     7
370
    25
100
AcDbLine
 10
-79.0
 20
87.0999997578
 30
0.0
 11
-79.0
 21
78.1000002422
 31
0.0
  0
LINE
  5
F0
330
1F
100
AcDbEntity
  8
0
  6
Continuous
 62
     7
370
    25
100
AcDbLine
 10
-22.5
 20
67.1
 30
0.0
 11
1.0938764082
 21
67.1
 31
0.0
  0
LINE
  5
F1
330
1F
100
AcDbEntity
  8
0
  6
Continuous
 62
     7
370
    25
100
AcDbLine
 10
-22.5
 20
67.1
 30
0.0
 11
-22.5
 21
77.5
 31
0.0
  0
LINE
  5
F2
330
1F
100
AcDbEntity
  8
0
  6
Continuous
 62
     7
370
    25
100
AcDbLine
 10
-22.5
 20
87.7
 30
0.0
 11
-22.5
 21
95.6
 31
0.0
  0
LINE
  5
F3
330
1F
100
AcDbEntity
  8
0
  6
Continuous
 62
     7
370
    25
100
AcDbLine
 10
-22.5
 20
95.6
 30
0.0
 11
22.5
 21
95.6
 31
0.0
  0
LINE
  5
F4
330
1F
100
AcDbEntity
  8
0
  6
Continuous
 62
     7
370
    25
100
AcDbLine
 10
22.5000000104
 20
76.1000000044
 30
0.0
 11
22.5
 21
95.6
 31
0.0
  0
LINE
  5
F5
330
1F
100
AcDbEntity
  8
0
  6
Continuous
 62
     7
370
    25
100
AcDbLine
 10
-21.9999999179
 20
96.1
 30
0.0
 11
21.9999999179
 21
96.1
 31
0.0
  0
LINE
  5
F6
330
1F
100
AcDbEntity
  8
0
  6
Continuous
 62
     7
370
    25
100
AcDbLine
 10
0.0
 20
30.0
 30
0.0
 11
0.0
 21
40.0
 31
0.0
  0
LINE
  5
F7
330
1F
100
AcDbEntity
  8
0
  6
Continuous
 62
     7
370
    25
100
AcDbLine
 10
-69.9999999998
 20
30.0
 30
0.0
 11
69.9999999998
 21
30.0
 31
0.0
  0
LINE
  5
F8
330
1F
100
AcDbEntity
  8
0
  6
Continuous
 62
     7
370
    25
100
AcDbLine
 10
-69.0
 20
40.0
 30
0.0
 11
69.0
 21
40.0
 31
0.0
  0
LINE
  5
F9
330
1F
100
AcDbEntity
  8
0
  6
Continuous
 62
     7
370
    25
100
AcDbLine
 10
-19.248649589
 20
65.502665186
 30
0.0
 11
19.248649589
 21
65.502665186
 31
0.0
  0
LINE
  5
FA
330
1F
100
AcDbEntity
  8
0
  6
Continuous
 62
     7
370
    25
100
AcDbLine
 10
21.0
 20
27.0
 30
0.0
 11
-21.0
 21
27.0
 31
0.0
  0
LINE
  5
FB
330
1F
100
AcDbEntity
  8
0
  6
Continuous
 62
     7
370
    25
100
AcDbLine
 10
-21.0
 20
27.0
 30
0.0
 11
-21.0
 21
30.0
 31
0.0
  0
LINE
  5
FC
330
1F
100
AcDbEntity
  8
0
  6
Continuous
 62
     7
370
    25
100
AcDbLine
 10
-21.0
 20
40.0
 30
0.0
 11
-21.0
 21
65.3
 31
0.0
  0
LINE
  5
FD
330
1F
100
AcDbEntity
  8
0
  6
Continuous
 62
     7
370
    25
100
AcDbLine
 10
21.0
 20
27.0
 30
0.0
 11
21.0
 21
30.0
 31
0.0
  0
LINE
  5
FE
330
1F
100
AcDbEntity
  8
0
  6
Continuous
 62
     7
370
    25
100
AcDbLine
 10
21.0
 20
40.0
 30
0.0
 11
21.0
 21
65.3
 31
0.0
  0
LINE
  5
FF
330
1F
100
AcDbEntity
  8
0
  6
Continuous
 62
     7
370
    25
100
AcDbLine
 10
21.0
 20
65.3
 30
0.0
 11
-21.0
 21
65.3
 31
0.0
  0
LINE
  5
100
330
1F
100
AcDbEntity
  8
0
  6
Continuous
 62
     7
370
    25
100
AcDbLine
 10
0.0
 20
-10.5
 30
0.0
 11
0.0
 21
10.5
 31
0.0
  0
LINE
  5
101
330
1F
100
AcDbEntity
  8
0
  6
Continuous
 62
     7
370
    25
100
AcDbLine
 10
0.0
 20
12.9999999084
 30
0.0
 11
0.0
 21
14.0
 31
0.0
  0
LINE
  5
102
330
1F
100
AcDbEntity
  8
0
  6
Continuous
 62
     7
370
    25
100
AcDbLine
 10
0.0
 20
-12.9999999084
 30
0.0
 11
0.0
 21
-14.0
 31
0.0
  0
LINE
  5
103
330
1F
100
AcDbEntity
  8
0
  6
Continuous
 62
     7
370
    25
100
AcDbLine
 10
13.2664991614
 20
-8.0
 30
0.0
 11
27.7757277913
 21
-8.0
 31
0.0
  0
LINE
  5
104
330
1F
100
AcDbEntity
  8
0
  6
Continuous
 62
     7
370
    25
100
AcDbLine
 10
23.7757280015
 20
-8.0
 30
0.0
 11
23.7757280015
 21
-14.0
 31
0.0
  0
LINE
  5
105
330
1F
100
AcDbEntity
  8
0
  6
Continuous
 62
     7
370
    25
100
AcDbLine
 10
5.3851648071
 20
-14.0
 30
0.0
 11
27.7757275572
 21
-14.0
 31
0.0
  0
LINE
  5
106
330
1F
100
AcDbEntity
  8
0
  6
Continuous
 62
     7
370
    25
100
AcDbLine
 10
-20.0
 20
24.5
 30
0.0
 11
-20.0
 21
27.0
 31
0.0
  0
LINE
  5
107
330
1F
100
AcDbEntity
  8
0
  6
Continuous
 62
     7
370
    25
100
AcDbLine
 10
20.0
 20
24.5
 30
0.0
 11
20.0
 21
27.0
 31
0.0
  0
LINE
  5
108
330
1F
100
AcDbEntity
  8
0
  6
Continuous
 62
     7
370
    25
100
AcDbLine
 10
20.0
 20
24.5
 30
0.0
 11
-20.0
 21
24.5
 31
0.0
  0
LINE
  5
109
330
1F
100
AcDbEntity
  8
0
  6
Continuous
 62
     7
370
    25
100
AcDbLine
 10
-2.0389743584
 20
13.8507250154
 30
0.0
 11
-2.1328152376
 21
13.8540495587
 31
0.0
  0
LINE
  5
10A
330
1F
100
AcDbEntity
  8
0
  6
Continuous
 62
     7
370
    25
100
AcDbLine
 10
-14.0
 20
0.0
 30
0.0
 11
-14.0
 21
24.5
 31
0.0
  0
LINE
  5
10B
330
1F
100
AcDbEntity
  8
0
  6
Continuous
 62
     7
370
    25
100
AcDbLine
 10
-2.6923076954
 20
14.8400625208
 30
0.0
 11
-2.6923076923
 21
24.5
 31
0.0
  0
LINE
  5
10C
330
1F
100
AcDbEntity
  8
0
  6
Continuous
 62
     7
370
    25
100
AcDbLine
 10
11.3076923051
 20
12.5148929032
 30
0.0
 11
11.3076923077
 21
24.5
 31
0.0
  0
LINE
  5
10D
330
1F
100
AcDbEntity
  8
0
  6
Continuous
 62
     7
370
    25
100
AcDbLine
 10
18.7197348552
 20
-6.5172414159
 30
0.0
 11
13.2664990855
 21
-6.5172413854
 31
0.0
  0
LINE
  5
10E
330
1F
100
AcDbEntity
  8
0
  6
Continuous
 62
     7
370
    25
100
AcDbLine
 10
16.0
 20
13.4999999946
 30
0.0
 11
27.9999999977
 21
13.5
 31
0.0
  0
LINE
  5
10F
330
1F
100
AcDbEntity
  8
0
  6
Continuous
 62
     7
370
    25
100
AcDbLine
 10
27.9999999977
 20
13.5
 30
0.0
 11
27.9999999977
 21
-13.5
 31
0.0
  0
LINE
  5
110
330
1F
100
AcDbEntity
  8
0
  6
Continuous
 62
     7
370
    25
100
AcDbLine
 10
27.7757280015
 20
-13.499999953
 30
0.0
 11
27.9999999977
 21
-13.4999999526
 31
0.0
  0
LINE
  5
111
330
1F
100
AcDbEntity
  8
0
  6
Continuous
 62
     7
370
    25
100
AcDbLine
 10
28.9999999133
 20
-12.4999999112
 30
0.0
 11
27.9999999977
 21
-13.5
 31
0.0
  0
LINE
  5
112
330
1F
100
AcDbEntity
  8
0
  6
Continuous
 62
     7
370
    25
100
AcDbLine
 10
28.9999999133
 20
12.4999999112
 30
0.0
 11
27.9999999977
 21
13.5
 31
0.0
  0
LINE
  5
113
330
1F
100
AcDbEntity
  8
0
  6
Continuous
 62
     7
370
    25
100
AcDbLine
 10
28.9999999133
 20
12.4999999112
 30
0.0
 11
28.9999999133
 21
-12.4999999112
 31
0.0
  0
LINE
  5
114
330
1F
100
AcDbEntity
  8
0
  6
Continuous
 62
     7
370
    25
100
AcDbLine
 10
13.2664990855
 20
-6.5172413854
 30
0.0
 11
13.2664990931
 21
-8.0
 31
0.0
  0
LINE
  5
115
330
1F
100
AcDbEntity
  8
0
  6
Continuous
 62
     7
370
    25
100
AcDbLine
 10
-7.2250426206
 20
-5.5
 30
0.0
 11
-1.6518918045
 21
-5.5
 31
0.0
  0
LINE
  5
116
330
1F
100
AcDbEntity
  8
0
  6
Continuous
 62
     7
370
    25
100
AcDbLine
 10
-25.6350635974
 20
-8.0
 30
0.0
 11
-25.6350635974
 21
-14.0
 31
0.0
  0
LINE
  5
117
330
1F
100
AcDbEntity
  8
0
  6
Continuous
 62
     7
370
    25
100
AcDbLine
 10
-27.7757277913
 20
-8.0
 30
0.0
 11
-13.2664991614
 21
-8.0
 31
0.0
  0
LINE
  5
118
330
1F
100
AcDbEntity
  8
0
  6
Continuous
 62
     7
370
    25
100
AcDbLine
 10
-27.7757275572
 20
-14.0
 30
0.0
 11
-4.9203309081
 21
-14.0
 31
0.0
  0
LINE
  5
119
330
1F
100
AcDbEntity
  8
0
  6
Continuous
 62
     8
370
    25
100
AcDbLine
 10
-69.9999999998
 20
39.0
 30
0.0
 11
69.9999999998
 21
39.0
 31
0.0
  0
LINE
  5
11A
330
1F
100
AcDbEntity
  8
0
  6
Continuous
 62
     8
370
    25
100
AcDbLine
 10
16.6619987736
 20
-8.0407441754
 30
0.0
 11
18.7197348552
 21
-6.517241489
 31
0.0
  0
ARC
  5
11B
330
1F
100
AcDbEntity
  8
0
  6
Continuous
 62
     7
370
    25
100
AcDbCircle
 10
-69.0
 20
39.0
 30
0.0
 40
1.000000000002558
100
AcDbArc
 50
90.0000000001
 51
179.9999999999
  0
ARC
  5
11C
330
1F
100
AcDbEntity
  8
0
  6
Continuous
 62
     7
370
    25
100
AcDbCircle
 10
69.0
 20
39.0
 30
0.0
 40
0.9999999999987352
100
AcDbArc
 50
359.9999999999
 51
90.0000000001
  0
ARC
  5
11D
330
1F
100
AcDbEntity
  8
0
  6
Continuous
 62
     7
370
    25
100
AcDbCircle
 10
-78.5
 20
78.1
 30
0.0
 40
0.5000000000001013
100
AcDbArc
 50
179.9999722505
 51
270.0
  0
ARC
  5
11E
330
1F
100
AcDbEntity
  8
0
  6
Continuous
 62
     7
370
    25
100
AcDbCircle
 10
-78.5
 20
87.1
 30
0.0
 40
0.5000000000001013
100
AcDbArc
 50
90.0
 51
180.0000277495
  0
ARC
  5
11F
330
1F
100
AcDbEntity
  8
0
  6
Continuous
 62
     7
370
    25
100
AcDbCircle
 10
22.0
 20
95.6
 30
0.0
 40
0.5000000000000067
100
AcDbArc
 50
360.0
 51
90.0000094045
  0
ARC
  5
120
330
1F
100
AcDbEntity
  8
0
  6
Continuous
 62
     7
370
    25
100
AcDbCircle
 10
-22.0
 20
95.6
 30
0.0
 40
0.5000000000000067
100
AcDbArc
 50
89.9999905955
 51
180.0
  0
ARC
  5
121
330
1F
100
AcDbEntity
  8
0
  6
Continuous
 62
     7
370
    25
100
AcDbCircle
 10
19.0486673478
 20
65.5
 30
0.0
 40
0.2000000000004007
100
AcDbArc
 50
270.0000000002
 51
0.7635421493
  0
ARC
  5
122
330
1F
100
AcDbEntity
  8
0
  6
Continuous
 62
     7
370
    25
100
AcDbCircle
 10
-19.0486673478
 20
65.5
 30
0.0
 40
0.200000000000415
100
AcDbArc
 50
179.2364578507
 51
269.9999999998
  0
ARC
  5
123
330
1F
100
AcDbEntity
  8
0
  6
Continuous
 62
     7
370
    25
100
AcDbCircle
 10
4.0416666668
 20
65.3
 30
0.0
 40
15.20833333324625
100
AcDbArc
 50
0.7635421487
 51
33.3685479209
  0
ARC
  5
124
330
1F
100
AcDbEntity
  8
0
  6
Continuous
 62
     7
370
    25
100
AcDbCircle
 10
0.0
 20
0.0
 30
0.0
 40
9.500000000000002
100
AcDbArc
 50
90.0
 51
270.0
  0
ARC
  5
125
330
1F
100
AcDbEntity
  8
0
  6
Continuous
 62
     7
370
    25
100
AcDbCircle
 10
0.0
 20
0.0
 30
0.0
 40
10.5
100
AcDbArc
 50
90.0
 51
270.0
  0
ARC
  5
126
330
1F
100
AcDbEntity
  8
0
  6
Continuous
 62
     7
370
    25
100
AcDbCircle
 10
0.0
 20
0.0
 30
0.0
 40
12.99999990842
100
AcDbArc
 50
270.0
 51
90.0
  0
ARC
  5
127
330
1F
100
AcDbEntity
  8
0
  6
Continuous
 62
     7
370
    25
100
AcDbCircle
 10
0.0
 20
0.0
 30
0.0
 40
14.0
100
AcDbArc
 50
270.0
 51
90.0
  0
ARC
  5
128
330
1F
100
AcDbEntity
  8
0
  6
Continuous
 62
     7
370
    25
100
AcDbCircle
 10
0.0
 20
0.0
 30
0.0
 40
14.99999999999952
100
AcDbArc
 50
291.0394697813
 51
328.3614343719
  0
ARC
  5
129
330
1F
100
AcDbEntity
  8
0
  6
Continuous
 62
     7
370
    25
100
AcDbCircle
 10
13.2664991614
 20
-7.0
 30
0.0
 40
1.000000000009195
100
AcDbArc
 50
240.2716475437
 51
269.9999999999
  0
ARC
  5
12A
330
1F
100
AcDbEntity
  8
0
  6
Continuous
 62
     7
370
    25
100
AcDbCircle
 10
9.2042272465
 20
11.3389370573
 30
0.0
 40
0.6070150779022229
100
AcDbArc
 50
236.1140706059
 51
299.0586605811
  0
ARC
  5
12B
330
1F
100
AcDbEntity
  8
0
  6
Continuous
 62
     7
370
    25
100
AcDbCircle
 10
10.6904865131
 20
12.1251250667
 30
0.0
 40
1.775785149018222
100
AcDbArc
 50
196.8977820602
 51
227.8613406916
  0
ARC
  5
12C
330
1F
100
AcDbEntity
  8
0
  6
Continuous
 62
     7
370
    25
100
AcDbCircle
 10
12.8728959491
 20
12.8547145317
 30
0.0
 40
1.601668256422368
100
AcDbArc
 50
192.2493918149
 51
228.6805879784
  0
ARC
  5
12D
330
1F
100
AcDbEntity
  8
0
  6
Continuous
 62
     7
370
    25
100
AcDbCircle
 10
15.9999999806
 20
14.4999999883
 30
0.0
 40
0.9999999936840248
100
AcDbArc
 50
179.9999993304
 51
270.0000011142
  0
ARC
  5
12E
330
1F
100
AcDbEntity
  8
0
  6
Continuous
 62
     8
370
    25
100
AcDbCircle
 10
-1.6416342584
 20
14.7845025795
 30
0.0
 40
1.052141424999809
100
AcDbArc
 50
176.9730005804
 51
242.1706757347
  0
ARC
  5
12F
330
1F
100
AcDbEntity
  8
0
  6
Continuous
 62
     8
370
    25
100
AcDbCircle
 10
14.3658579953
 20
4.3039770667
 30
0.0
 40
2.698410431477226
100
AcDbArc
 50
260.4437120209
 51
281.2858254813
  0
LINE
  5
23D
330
23
100
AcDbEntity
 67
     1
  8
0
  6
Continuous
 62
     7
370
    25
100
AcDbLine
 10
-21.868676357
 20
5.0
 30
0.0
 11
-78.5
 21
5.0
 31
0.0
  0
LINE
  5
23E
330
23
100
AcDbEntity
 67
     1
  8
0
  6
Continuous
 62
     7
370
    25
100
AcDbLine
 10
-78.5
 20
-5.0
 30
0.0
 11
-21.864526914
 21
-5.0
 31
0.0
  0
LINE
  5
23F
330
23
100
AcDbEntity
 67
     1
  8
0
  6
Continuous
 62
     7
370
    25
100
AcDbLine
 10
-79.0
 20
4.4999997578
 30
0.0
 11
-79.0
 21
-4.4999997578
 31
0.0
  0
LINE
  5
240
330
23
100
AcDbEntity
 67
     1
  8
0
  6
Continuous
 62
     7
370
    25
100
AcDbLine
 10
-79.0
 20
0.0
 30
0.0
 11
-21.9999999179
 21
0.0
 31
0.0
  0
LINE
  5
241
330
23
100
AcDbEntity
 67
     1
  8
0
  6
Continuous
 62
     7
370
    25
100
AcDbLine
 10
21.9999999179
 20
0.0
 30
0.0
 11
22.5
 21
0.0
 31
0.0
  0
LINE
  5
242
330
23
100
AcDbEntity
 67
     1
  8
0
  6
Continuous
 62
     7
370
    25
100
AcDbLine
 10
0.0
 20
-69.0
 30
0.0
 11
0.0
 21
-70.0
 31
0.0
  0
LINE
  5
243
330
23
100
AcDbEntity
 67
     1
  8
0
  6
Continuous
 62
     7
370
    25
100
AcDbLine
 10
0.0
 20
69.0
 30
0.0
 11
0.0
 21
70.0
 31
0.0
  0
LINE
  5
244
330
23
100
AcDbEntity
 67
     1
  8
0
  6
Continuous
 62
     8
370
    25
100
AcDbLine
 10
-78.5
 20
4.9999998941
 30
0.0
 11
-78.5
 21
-4.9999998941
 31
0.0
  0
LINE
  5
245
330
23
100
AcDbEntity
 67
     1
  8
0
  6
Continuous
 62
     8
370
    25
100
AcDbLine
 10
0.0
 20
-22.6
 30
0.0
 11
0.0
 21
-22.5
 31
0.0
  0
LINE
  5
246
330
23
100
AcDbEntity
 67
     1
  8
0
  6
Continuous
 62
     8
370
    25
100
AcDbLine
 10
0.0
 20
22.6
 30
0.0
 11
0.0
 21
22.5
 31
0.0
  0
ARC
  5
247
330
23
100
AcDbEntity
 67
     1
  8
0
  6
Continuous
 62
     7
370
    25
100
AcDbCircle
 10
-78.5
 20
4.5
 30
0.0
 40
0.4999999999991473
100
AcDbArc
 50
89.9999999999
 51
180.0000138748
  0
ARC
  5
248
330
23
100
AcDbEntity
 67
     1
  8
0
  6
Continuous
 62
     7
370
    25
100
AcDbCircle
 10
-78.5
 20
-4.5
 30
0.0
 40
0.5000000000018194
100
AcDbArc
 50
179.9999861255
 51
269.9999999998
  0
ARC
  5
249
330
23
100
AcDbEntity
 67
     1
  8
0
  6
Continuous
 62
     7
370
    25
100
AcDbCircle
 10
0.0
 20
0.0
 30
0.0
 40
22.5
100
AcDbArc
 50
0.0
 51
180.0
  0
ARC
  5
24A
330
23
100
AcDbEntity
 67
     1
  8
0
  6
Continuous
 62
     7
370
    25
100
AcDbCircle
 10
0.0
 20
0.0
 30
0.0
 40
21.99999991793
100
AcDbArc
 50
0.0
 51
180.0
  0
ARC
  5
24B
330
23
100
AcDbEntity
 67
     1
  8
0
  6
Continuous
 62
     7
370
    25
100
AcDbCircle
 10
0.0
 20
0.0
 30
0.0
 40
22.59999999999998
100
AcDbArc
 50
192.8194241052
 51
167.2167418195
  0
ARC
  5
24C
330
23
100
AcDbEntity
 67
     1
  8
0
  6
Continuous
 62
     7
370
    25
100
AcDbCircle
 10
0.0
 20
0.0
 30
0.0
 40
69.00000000000067
100
AcDbArc
 50
184.1572640138
 51
175.8394754096
  0
ARC
  5
24D
330
23
100
AcDbEntity
 67
     1
  8
0
  6
Continuous
 62
     7
370
    25
100
AcDbCircle
 10
0.0
 20
0.0
 30
0.0
 40
70.00000000000068
100
AcDbArc
 50
184.0996464637
 51
175.8992493105
  0
VIEWPORT
  5
250
330
23
100
AcDbEntity
 67
     1
  8
0
100
AcDbViewport
 10
0.0
 20
0.0
 30
0.0
 40
205.6
 41
156.0
 68
     1
 69
     1
 12
-4.5
 22
41.05
 13
0.0
 23
0.0
 14
10.0
 24
10.0
 15
10.0
 25
10.0
 16
0.0
 26
0.0
 36
1.0
 17
0.0
 27
0.0
 37
0.0
 42
50.0
 43
0.0
 44
0.0
 45
115.3155642023
 50
0.0
 51
0.0
 72
   100
 90
   557152
  1

281
     0
 71
     1
 74
     0
110
0.0
120
0.0
130
0.0
111
1.0
121
0.0
131
0.0
112
0.0
122
1.0
132
0.0
 79
     0
146
0.0
  0
ENDSEC
  0
SECTION
  2
OBJECTS
  0
DICTIONARY
  5
C
330
0
100
AcDbDictionary
281
     1
  3
ACAD_GROUP
350
D
  3
ACAD_LAYOUT
350
1A
  3
ACAD_MLINESTYLE
350
17
  3
ACAD_PLOTSETTINGS
350
19
  3
ACAD_PLOTSTYLENAME
350
E
  3
ACAD_SCALELIST
350
47
  0
DICTIONARY
  5
D
102
{ACAD_REACTORS
330
C
102
}
330
C
100
AcDbDictionary
281
     1
  0
DICTIONARY
  5
1A
102
{ACAD_REACTORS
330
C
102
}
330
C
100
AcDbDictionary
281
     1
  3
_Right
350
1E
  3
_Top
350
26
  3
Model
350
22
  0
DICTIONARY
  5
17
102
{ACAD_REACTORS
330
C
102
}
330
C
100
AcDbDictionary
281
     1
  3
Standard
350
18
  0
DICTIONARY
  5
19
102
{ACAD_REACTORS
330
C
102
}
330
C
100
AcDbDictionary
281
     1
  0
ACDBDICTIONARYWDFLT
  5
E
102
{ACAD_REACTORS
330
C
102
}
330
C
100
AcDbDictionary
281
     1
  3
Normal
350
F
100
AcDbDictionaryWithDefault
340
F
  0
DICTIONARY
  5
47
102
{ACAD_REACTORS
330
C
102
}
330
C
100
AcDbDictionary
281
     1
  3
A0
350
48
  3
A1
350
49
  3
A2
350
4A
  3
A3
350
4B
  3
A4
350
4C
  3
A5
350
4D
  3
A6
350
4E
  3
A7
350
4F
  3
A8
350
50
  3
A9
350
51
  3
B0
350
52
  3
B1
350
53
  3
B2
350
54
  3
B3
350
55
  3
B4
350
56
  3
B5
350
57
  3
B6
350
58
  3
B7
350
59
  3
B8
350
5A
  3
B9
350
5B
  3
C0
350
5C
  3
C1
350
5D
  3
C2
350
5E
  3
C3
350
5F
  3
C4
350
60
  3
C5
350
61
  3
C6
350
62
  3
C7
350
63
  3
C8
350
64
  3
C9
350
65
  3
D0
350
66
  3
D1
350
67
  3
D2
350
68
  0
LAYOUT
  5
1E
102
{ACAD_REACTORS
330
1A
102
}
330
1A
100
AcDbPlotSettings
  1

  2
none_device
  4
ISO_A4_(210.00_x_297.00_MM)
  6

 40
7.5
 41
20.0
 42
7.5
 43
20.0
 44
210.0
 45
297.0
 46
0.0
 47
0.0
 48
0.0
 49
0.0
140
0.0
141
0.0
142
1.0
143
0.5646153846
 70
   688
 72
     1
 73
     1
 74
     1
  7

 75
     0
147
1.7711171662
148
70.0
149
14.0
100
AcDbLayout
  1
_Right
 70
     1
 71
     1
 10
-81.2923076923
 20
-18.2346153846
 11
86.3984615385
 21
100.3346153846
 12
0.0
 22
0.0
 32
0.0
 14
1.0000000000E+20
 24
1.0000000000E+20
 34
1.0000000000E+20
 15
-1.0000000000E+20
 25
-1.0000000000E+20
 35
-1.0000000000E+20
146
0.0
 13
0.0
 23
0.0
 33
0.0
 16
1.0
 26
0.0
 36
0.0
 17
0.0
 27
1.0
 37
0.0
 76
     0
330
1B
331
24E
  0
LAYOUT
  5
26
102
{ACAD_REACTORS
330
1A
102
}
330
1A
100
AcDbPlotSettings
  1

  2
none_device
  4
ANSI_A_(11.00_x_8.50_Inches)
  6

 40
6.35
 41
19.05
 42
6.35000508
 43
19.05000254
 44
279.4
 45
215.9
 46
141.7038699432
 47
12.6941175219
 48
0.0
 49
0.0
140
0.0
141
0.0
142
0.0730872483
143
1.0
 70
  1696
 72
     0
 73
     0
 74
     1
  7

 75
     0
147
0.063578564
148
2006.6
149
355.6
100
AcDbLayout
  1
_Top
 70
     1
 71
     2
 10
0.0
 20
0.0
 11
0.0
 21
0.0
 12
0.0
 22
0.0
 32
0.0
 14
-79.0
 24
-14.0
 34
0.0
 15
70.0
 25
96.1
 35
0.0
146
0.0
 13
0.0
 23
0.0
 33
0.0
 16
1.0
 26
0.0
 36
0.0
 17
0.0
 27
1.0
 37
0.0
 76
     0
330
23
331
250
  0
LAYOUT
  5
22
102
{ACAD_REACTORS
330
1A
102
}
330
1A
100
AcDbPlotSettings
  1

  2
none_device
  4
Letter_(8.50_x_11.00_Inches)
  6

 40
6.35
 41
6.35
 42
6.35000508
 43
6.35000508
 44
215.9
 45
279.4
 46
0.0
 47
0.0
 48
0.0
 49
0.0
140
0.0
141
0.0
142
1.0
143
1.0
 70
  1712
 72
     1
 73
     0
 74
     0
  7

 75
     0
147
1.0
148
0.0
149
0.0
100
AcDbLayout
  1
Model
 70
     1
 71
     0
 10
0.0
 20
0.0
 11
420.0
 21
297.0
 12
0.0
 22
0.0
 32
0.0
 14
-79.0
 24
-14.0
 34
0.0
 15
70.0
 25
96.1
 35
0.0
146
0.0
 13
0.0
 23
0.0
 33
0.0
 16
1.0
 26
0.0
 36
0.0
 17
0.0
 27
1.0
 37
0.0
 76
     0
330
1F
331
29
  0
MLINESTYLE
  5
18
102
{ACAD_REACTORS
330
17
102
}
330
17
100
AcDbMlineStyle
  2
Standard
 70
     0
  3

 62
   256
 51
90.0
 52
90.0
 71
     2
 49
0.5
 62
   256
  6
BYLAYER
 49
-0.5
 62
   256
  6
BYLAYER
  0
ACDBPLACEHOLDER
  5
F
102
{ACAD_REACTORS
330
E
102
}
330
E
  0
SCALE
  5
48
102
{ACAD_REACTORS
330
47
102
}
330
47
100
AcDbScale
 70
     0
300
1:1
140
1.0
141
1.0
290
     1
  0
SCALE
  5
49
102
{ACAD_REACTORS
330
47
102
}
330
47
100
AcDbScale
 70
     0
300
1:2
140
1.0
141
2.0
290
     0
  0
SCALE
  5
4A
102
{ACAD_REACTORS
330
47
102
}
330
47
100
AcDbScale
 70
     0
300
1:4
140
1.0
141
4.0
290
     0
  0
SCALE
  5
4B
102
{ACAD_REACTORS
330
47
102
}
330
47
100
AcDbScale
 70
     0
300
1:5
140
1.0
141
5.0
290
     0
  0
SCALE
  5
4C
102
{ACAD_REACTORS
330
47
102
}
330
47
100
AcDbScale
 70
     0
300
1:8
140
1.0
141
8.0
290
     0
  0
SCALE
  5
4D
102
{ACAD_REACTORS
330
47
102
}
330
47
100
AcDbScale
 70
     0
300
1:10
140
1.0
141
10.0
290
     0
  0
SCALE
  5
4E
102
{ACAD_REACTORS
330
47
102
}
330
47
100
AcDbScale
 70
     0
300
1:16
140
1.0
141
16.0
290
     0
  0
SCALE
  5
4F
102
{ACAD_REACTORS
330
47
102
}
330
47
100
AcDbScale
 70
     0
300
1:20
140
1.0
141
20.0
290
     0
  0
SCALE
  5
50
102
{ACAD_REACTORS
330
47
102
}
330
47
100
AcDbScale
 70
     0
300
1:30
140
1.0
141
30.0
290
     0
  0
SCALE
  5
51
102
{ACAD_REACTORS
330
47
102
}
330
47
100
AcDbScale
 70
     0
300
1:40
140
1.0
141
40.0
290
     0
  0
SCALE
  5
52
102
{ACAD_REACTORS
330
47
102
}
330
47
100
AcDbScale
 70
     0
300
1:50
140
1.0
141
50.0
290
     0
  0
SCALE
  5
53
102
{ACAD_REACTORS
330
47
102
}
330
47
100
AcDbScale
 70
     0
300
1:100
140
1.0
141
100.0
290
     0
  0
SCALE
  5
54
102
{ACAD_REACTORS
330
47
102
}
330
47
100
AcDbScale
 70
     0
300
2:1
140
2.0
141
1.0
290
     0
  0
SCALE
  5
55
102
{ACAD_REACTORS
330
47
102
}
330
47
100
AcDbScale
 70
     0
300
4:1
140
4.0
141
1.0
290
     0
  0
SCALE
  5
56
102
{ACAD_REACTORS
330
47
102
}
330
47
100
AcDbScale
 70
     0
300
8:1
140
8.0
141
1.0
290
     0
  0
SCALE
  5
57
102
{ACAD_REACTORS
330
47
102
}
330
47
100
AcDbScale
 70
     0
300
10:1
140
10.0
141
1.0
290
     0
  0
SCALE
  5
58
102
{ACAD_REACTORS
330
47
102
}
330
47
100
AcDbScale
 70
     0
300
100:1
140
100.0
141
1.0
290
     0
  0
SCALE
  5
59
102
{ACAD_REACTORS
330
47
102
}
330
47
100
AcDbScale
 70
     0
300
1/128" = 1'-0"
140
0.0078125
141
12.0
290
     0
  0
SCALE
  5
5A
102
{ACAD_REACTORS
330
47
102
}
330
47
100
AcDbScale
 70
     0
300
1/64" = 1'-0"
140
0.015625
141
12.0
290
     0
  0
SCALE
  5
5B
102
{ACAD_REACTORS
330
47
102
}
330
47
100
AcDbScale
 70
     0
300
1/32" = 1'-0"
140
0.03125
141
12.0
290
     0
  0
SCALE
  5
5C
102
{ACAD_REACTORS
330
47
102
}
330
47
100
AcDbScale
 70
     0
300
1/16" = 1'-0"
140
0.0625
141
12.0
290
     0
  0
SCALE
  5
5D
102
{ACAD_REACTORS
330
47
102
}
330
47
100
AcDbScale
 70
     0
300
3/32" = 1'-0"
140
0.09375
141
12.0
290
     0
  0
SCALE
  5
5E
102
{ACAD_REACTORS
330
47
102
}
330
47
100
AcDbScale
 70
     0
300
1/8" = 1'-0"
140
0.125
141
12.0
290
     0
  0
SCALE
  5
5F
102
{ACAD_REACTORS
330
47
102
}
330
47
100
AcDbScale
 70
     0
300
3/16" = 1'-0"
140
0.1875
141
12.0
290
     0
  0
SCALE
  5
60
102
{ACAD_REACTORS
330
47
102
}
330
47
100
AcDbScale
 70
     0
300
1/4" = 1'-0"
140
0.25
141
12.0
290
     0
  0
SCALE
  5
61
102
{ACAD_REACTORS
330
47
102
}
330
47
100
AcDbScale
 70
     0
300
3/8" = 1'-0"
140
0.375
141
12.0
290
     0
  0
SCALE
  5
62
102
{ACAD_REACTORS
330
47
102
}
330
47
100
AcDbScale
 70
     0
300
1/2" = 1'-0"
140
0.5
141
12.0
290
     0
  0
SCALE
  5
63
102
{ACAD_REACTORS
330
47
102
}
330
47
100
AcDbScale
 70
     0
300
3/4" = 1'-0"
140
0.75
141
12.0
290
     0
  0
SCALE
  5
64
102
{ACAD_REACTORS
330
47
102
}
330
47
100
AcDbScale
 70
     0
300
1" = 1'-0"
140
1.0
141
12.0
290
     0
  0
SCALE
  5
65
102
{ACAD_REACTORS
330
47
102
}
330
47
100
AcDbScale
 70
     0
300
1-1/2" = 1'-0"
140
1.5
141
12.0
290
     0
  0
SCALE
  5
66
102
{ACAD_REACTORS
330
47
102
}
330
47
100
AcDbScale
 70
     0
300
3" = 1'-0"
140
3.0
141
12.0
290
     0
  0
SCALE
  5
67
102
{ACAD_REACTORS
330
47
102
}
330
47
100
AcDbScale
 70
     0
300
6" = 1'-0"
140
6.0
141
12.0
290
     0
  0
SCALE
  5
68
102
{ACAD_REACTORS
330
47
102
}
330
47
100
AcDbScale
 70
     0
300
1'-0" = 1'-0"
140
12.0
141
12.0
290
     0
  0
ENDSEC
  0
EOF
