  0
SECTION
  2
HEADER
  9
$ACADVER
  1
AC1015
  9
$ACADMAINTVER
 70
     6
  9
$DWGCODEPAGE
  3
ANSI_1252
  9
$INSBASE
 10
0.0
 20
0.0
 30
0.0
  9
$EXTMIN
 10
-79.0
 20
27.0
 30
0.0
  9
$EXTMAX
 10
160.0
 20
230.9571166316
 30
0.0
  9
$LIMMIN
 10
0.0
 20
0.0
  9
$LIMMAX
 10
420.0
 20
297.0
  9
$ORTHOMODE
 70
     0
  9
$REGENMODE
 70
     1
  9
$FILLMODE
 70
     1
  9
$QTEXTMODE
 70
     0
  9
$MIRRTEXT
 70
     1
  9
$LTSCALE
 40
1.0
  9
$ATTMODE
 70
     1
  9
$TEXTSIZE
 40
3.5
  9
$TRACEWID
 40
1.0
  9
$TEXTSTYLE
  7
Standard
  9
$CLAYER
  8
0
  9
$CELTYPE
  6
ByLayer
  9
$CECOLOR
 62
   256
  9
$CELTSCALE
 40
1.0
  9
$DISPSILH
 70
     0
  9
$DIMSCALE
 40
1.0
  9
$DIMASZ
 40
3.302
  9
$DIMEXO
 40
1.0
  9
$DIMDLI
 40
3.75
  9
$DIMRND
 40
0.0
  9
$DIMDLE
 40
0.0
  9
$DIMEXE
 40
1.0
  9
$DIMTP
 40
0.0
  9
$DIMTM
 40
0.0
  9
$DIMTXT
 40
3.5
  9
$DIMCEN
 40
2.5
  9
$DIMTSZ
 40
0.0
  9
$DIMTOL
 70
     0
  9
$DIMLIM
 70
     0
  9
$DIMTIH
 70
     1
  9
$DIMTOH
 70
     1
  9
$DIMSE1
 70
     0
  9
$DIMSE2
 70
     0
  9
$DIMTAD
 70
     1
  9
$DIMZIN
 70
     1
  9
$DIMBLK
  1

  9
$DIMASO
 70
     1
  9
$DIMSHO
 70
     1
  9
$DIMPOST
  1

  9
$DIMAPOST
  1

  9
$DIMALT
 70
     0
  9
$DIMALTD
 70
     3
  9
$DIMALTF
 40
0.0393700787
  9
$DIMLFAC
 40
1.0
  9
$DIMTOFL
 70
     1
  9
$DIMTVP
 40
0.0
  9
$DIMTIX
 70
     0
  9
$DIMSOXD
 70
     0
  9
$DIMSAH
 70
     0
  9
$DIMBLK1
  1

  9
$DIMBLK2
  1

  9
$DIMSTYLE
  2
ISO-25
  9
$DIMCLRD
 70
     0
  9
$DIMCLRE
 70
     0
  9
$DIMCLRT
 70
     0
  9
$DIMTFAC
 40
1.0
  9
$DIMGAP
 40
1.524
  9
$DIMJUST
 70
     0
  9
$DIMSD1
 70
     0
  9
$DIMSD2
 70
     0
  9
$DIMTOLJ
 70
     0
  9
$DIMTZIN
 70
     1
  9
$DIMALTZ
 70
     0
  9
$DIMALTTZ
 70
     0
  9
$DIMUPT
 70
     0
  9
$DIMDEC
 70
     2
  9
$DIMTDEC
 70
     2
  9
$DIMALTU
 70
     2
  9
$DIMALTTD
 70
     3
  9
$DIMTXSTY
  7
Standard
  9
$DIMAUNIT
 70
     0
  9
$DIMADEC
 70
     2
  9
$DIMALTRND
 40
0.0
  9
$DIMAZIN
 70
     0
  9
$DIMDSEP
 70
    44
  9
$DIMATFIT
 70
     3
  9
$DIMFRAC
 70
     0
  9
$DIMLDRBLK
  1

  9
$DIMLUNIT
 70
     2
  9
$DIMLWD
 70
    -2
  9
$DIMLWE
 70
    -2
  9
$DIMTMOVE
 70
     0
  9
$LUNITS
 70
     2
  9
$LUPREC
 70
     2
  9
$SKETCHINC
 40
1.0
  9
$FILLETRAD
 40
10.0
  9
$AUNITS
 70
     0
  9
$AUPREC
 70
     2
  9
$MENU
  1
.
  9
$ELEVATION
 40
0.0
  9
$PELEVATION
 40
0.0
  9
$THICKNESS
 40
0.0
  9
$LIMCHECK
 70
     0
  9
$CHAMFERA
 40
0.0
  9
$CHAMFERB
 40
0.0
  9
$CHAMFERC
 40
0.0
  9
$CHAMFERD
 40
0.0
  9
$SKPOLY
 70
     0
  9
$TDCREATE
 40
2459228.635879433
  9
$TDUCREATE
 40
2459228.635879433
  9
$TDUPDATE
 40
2459228.63599375
  9
$TDUUPDATE
 40
2459228.63599375
  9
$TDINDWG
 40
0.0000000116
  9
$TDUSRTIMER
 40
0.0000000116
  9
$USRTIMER
 70
     1
  9
$ANGBASE
 50
0.0
  9
$ANGDIR
 70
     0
  9
$PDMODE
 70
     0
  9
$PDSIZE
 40
-1.0
  9
$PLINEWID
 40
0.0
  9
$SPLFRAME
 70
     0
  9
$SPLINETYPE
 70
     6
  9
$SPLINESEGS
 70
     8
  9
$HANDSEED
  5
9ED
  9
$SURFTAB1
 70
     6
  9
$SURFTAB2
 70
     6
  9
$SURFTYPE
 70
     6
  9
$SURFU
 70
     6
  9
$SURFV
 70
     6
  9
$UCSBASE
  2

  9
$UCSNAME
  2

  9
$UCSORG
 10
0.0
 20
0.0
 30
0.0
  9
$UCSXDIR
 10
1.0
 20
0.0
 30
0.0
  9
$UCSYDIR
 10
0.0
 20
1.0
 30
0.0
  9
$UCSORTHOREF
  2

  9
$UCSORTHOVIEW
 70
     0
  9
$UCSORGTOP
 10
0.0
 20
0.0
 30
0.0
  9
$UCSORGBOTTOM
 10
0.0
 20
0.0
 30
0.0
  9
$UCSORGLEFT
 10
0.0
 20
0.0
 30
0.0
  9
$UCSORGRIGHT
 10
0.0
 20
0.0
 30
0.0
  9
$UCSORGFRONT
 10
0.0
 20
0.0
 30
0.0
  9
$UCSORGBACK
 10
0.0
 20
0.0
 30
0.0
  9
$PUCSBASE
  2

  9
$PUCSNAME
  2

  9
$PUCSORG
 10
0.0
 20
0.0
 30
0.0
  9
$PUCSXDIR
 10
1.0
 20
0.0
 30
0.0
  9
$PUCSYDIR
 10
0.0
 20
1.0
 30
0.0
  9
$PUCSORTHOREF
  2

  9
$PUCSORTHOVIEW
 70
     0
  9
$PUCSORGTOP
 10
0.0
 20
0.0
 30
0.0
  9
$PUCSORGBOTTOM
 10
0.0
 20
0.0
 30
0.0
  9
$PUCSORGLEFT
 10
0.0
 20
0.0
 30
0.0
  9
$PUCSORGRIGHT
 10
0.0
 20
0.0
 30
0.0
  9
$PUCSORGFRONT
 10
0.0
 20
0.0
 30
0.0
  9
$PUCSORGBACK
 10
0.0
 20
0.0
 30
0.0
  9
$USERI1
 70
     0
  9
$USERI2
 70
     0
  9
$USERI3
 70
     0
  9
$USERI4
 70
     0
  9
$USERI5
 70
     0
  9
$USERR1
 40
0.0
  9
$USERR2
 40
0.0
  9
$USERR3
 40
0.0
  9
$USERR4
 40
0.0
  9
$USERR5
 40
0.0
  9
$WORLDVIEW
 70
     1
  9
$SHADEDGE
 70
     3
  9
$SHADEDIF
 70
    70
  9
$TILEMODE
 70
     0
  9
$MAXACTVP
 70
    64
  9
$PINSBASE
 10
0.0
 20
0.0
 30
0.0
  9
$PLIMCHECK
 70
     0
  9
$PEXTMIN
 10
-79.0
 20
27.0
 30
0.0
  9
$PEXTMAX
 10
160.0
 20
230.9571166316
 30
0.0
  9
$PLIMMIN
 10
0.0
 20
0.0
  9
$PLIMMAX
 10
0.0
 20
0.0
  9
$UNITMODE
 70
     0
  9
$VISRETAIN
 70
     1
  9
$PLINEGEN
 70
     0
  9
$PSLTSCALE
 70
     1
  9
$TREEDEPTH
 70
  3020
  9
$CMLSTYLE
  2
Standard
  9
$CMLJUST
 70
     0
  9
$CMLSCALE
 40
20.0
  9
$PROXYGRAPHICS
 70
     1
  9
$MEASUREMENT
 70
     1
  9
$CELWEIGHT
370
    -1
  9
$ENDCAPS
280
     0
  9
$JOINSTYLE
280
     0
  9
$LWDISPLAY
290
     1
  9
$INSUNITS
 70
     4
  9
$HYPERLINKBASE
  1

  9
$STYLESHEET
  1

  9
$XEDIT
290
     1
  9
$CEPSNTYPE
380
     0
  9
$PSTYLEMODE
290
     1
  9
$FINGERPRINTGUID
  2
{6e715d8a-8d50-48a3-a472-1f90ef574309}
  9
$VERSIONGUID
  2
{FAEB1C32-E019-11D5-929B-00C0DF256EC4}
  9
$EXTNAMES
290
     1
  9
$PSVPSCALE
 40
0.0
  9
$OLESTARTUP
290
     0
  0
ENDSEC
  0
SECTION
  2
CLASSES
  0
CLASS
  1
ACDBDICTIONARYWDFLT
  2
AcDbDictionaryWithDefault
  3
ObjectDBX Classes
 90
        0
280
     0
281
     0
  0
CLASS
  1
VISUALSTYLE
  2
AcDbVisualStyle
  3
ObjectDBX Classes
 90
     4095
280
     0
281
     0
  0
CLASS
  1
MATERIAL
  2
AcDbMaterial
  3
ObjectDBX Classes
 90
     1153
280
     0
281
     0
  0
CLASS
  1
SCALE
  2
AcDbScale
  3
ObjectDBX Classes
 90
     1153
280
     0
281
     0
  0
CLASS
  1
TABLESTYLE
  2
AcDbTableStyle
  3
ObjectDBX Classes
 90
     4095
280
     0
281
     0
  0
CLASS
  1
MLEADERSTYLE
  2
AcDbMLeaderStyle
  3
ACDB_MLEADERSTYLE_CLASS
 90
     4095
280
     0
281
     0
  0
CLASS
  1
SUN
  2
AcDbSun
  3
SCENEOE
 90
     1153
280
     0
281
     0
  0
CLASS
  1
ACDBPLACEHOLDER
  2
AcDbPlaceHolder
  3
ObjectDBX Classes
 90
        0
280
     0
281
     0
  0
CLASS
  1
LAYOUT
  2
AcDbLayout
  3
ObjectDBX Classes
 90
        0
280
     0
281
     0
  0
ENDSEC
  0
SECTION
  2
TABLES
  0
TABLE
  2
VPORT
  5
8
330
0
100
AcDbSymbolTable
 70
     1
  0
VPORT
  5
29
330
8
100
AcDbSymbolTableRecord
100
AcDbViewportTableRecord
  2
*Active
 70
     0
 10
0.0
 20
0.0
 11
1.0
 21
1.0
 12
40.5
 22
128.9785583158
 13
0.0
 23
0.0
 14
10.0
 24
10.0
 15
10.0
 25
10.0
 16
0.0
 26
0.0
 36
1.0
 17
0.0
 27
0.0
 37
0.0
 40
208.0362589642
 41
1.1718149577
 42
50.0
 43
0.0
 44
0.0
 50
0.0
 51
0.0
 71
     0
 72
   100
 73
     1
 74
     3
 75
     0
 76
     0
 77
     0
 78
     0
281
     0
 65
     1
110
0.0
120
0.0
130
0.0
111
1.0
121
0.0
131
0.0
112
0.0
122
1.0
132
0.0
 79
     0
146
0.0
  0
ENDTAB
  0
TABLE
  2
LTYPE
  5
5
330
0
100
AcDbSymbolTable
 70
     6
  0
LTYPE
  5
14
330
5
100
AcDbSymbolTableRecord
100
AcDbLinetypeTableRecord
  2
ByBlock
 70
     0
  3

 72
    65
 73
     0
 40
0.0
  0
LTYPE
  5
15
330
5
100
AcDbSymbolTableRecord
100
AcDbLinetypeTableRecord
  2
ByLayer
 70
     0
  3

 72
    65
 73
     0
 40
0.0
  0
LTYPE
  5
16
330
5
100
AcDbSymbolTableRecord
100
AcDbLinetypeTableRecord
  2
Continuous
 70
     0
  3
Solid line
 72
    65
 73
     0
 40
0.0
  0
LTYPE
  5
6E
330
5
100
AcDbSymbolTableRecord
100
AcDbLinetypeTableRecord
  2
HIDDEN
 70
     0
  3
Hidden __ __ __ __ __ __ __ __ __ __ __ __ __ __
 72
    65
 73
     2
 40
1.905
 49
1.27
 74
     0
 49
-0.635
 74
     0
  0
LTYPE
  5
6F
330
5
100
AcDbSymbolTableRecord
100
AcDbLinetypeTableRecord
  2
PHANTOM
 70
     0
  3
Phantom ______  __  __  ______  __  __  ______
 72
    65
 73
     6
 40
12.7
 49
6.35
 74
     0
 49
-1.27
 74
     0
 49
1.27
 74
     0
 49
-1.27
 74
     0
 49
1.27
 74
     0
 49
-1.27
 74
     0
  0
LTYPE
  5
70
330
5
100
AcDbSymbolTableRecord
100
AcDbLinetypeTableRecord
  2
CENTER
 70
     0
  3
Center ____ _ ____ _ ____ _ ____ _ ____ _ ____
 72
    65
 73
     4
 40
10.16
 49
6.35
 74
     0
 49
-1.27
 74
     0
 49
1.27
 74
     0
 49
-1.27
 74
     0
  0
LTYPE
  5
71
330
5
100
AcDbSymbolTableRecord
100
AcDbLinetypeTableRecord
  2
CENTERX2
 70
     0
  3
Center (2x) ________  __  ________  __  _____
 72
    65
 73
     4
 40
20.32
 49
12.7
 74
     0
 49
-2.54
 74
     0
 49
2.54
 74
     0
 49
-2.54
 74
     0
  0
LTYPE
  5
72
330
5
100
AcDbSymbolTableRecord
100
AcDbLinetypeTableRecord
  2
DOT2
 70
     0
  3
Dot (.5x) ........................................
 72
    65
 73
     2
 40
0.635
 49
0.0
 74
     0
 49
-0.635
 74
     0
  0
ENDTAB
  0
TABLE
  2
LAYER
  5
2
330
0
100
AcDbSymbolTable
 70
     1
  0
LAYER
  5
10
330
2
100
AcDbSymbolTableRecord
100
AcDbLayerTableRecord
  2
0
 70
     0
 62
     7
  6
Continuous
370
    -3
390
F
  0
ENDTAB
  0
TABLE
  2
STYLE
  5
3
330
0
100
AcDbSymbolTable
 70
     1
  0
STYLE
  5
11
330
3
100
AcDbSymbolTableRecord
100
AcDbTextStyleTableRecord
  2
Standard
 70
     0
 40
0.0
 41
1.0
 50
0.0
 71
     0
 42
3.5
  3
txt
  4

  0
ENDTAB
  0
TABLE
  2
VIEW
  5
6
330
0
100
AcDbSymbolTable
 70
     0
  0
ENDTAB
  0
TABLE
  2
UCS
  5
7
330
0
100
AcDbSymbolTable
 70
     0
  0
ENDTAB
  0
TABLE
  2
APPID
  5
9
330
0
100
AcDbSymbolTable
 70
     1
  0
APPID
  5
12
330
9
100
AcDbSymbolTableRecord
100
AcDbRegAppTableRecord
  2
ACAD
 70
     0
  0
ENDTAB
  0
TABLE
  2
DIMSTYLE
  5
A
330
0
100
AcDbSymbolTable
 70
     1
100
AcDbDimStyleTable
  0
DIMSTYLE
105
27
330
A
100
AcDbSymbolTableRecord
100
AcDbDimStyleTableRecord
  2
ISO-25
 70
     0
 41
2.5
 42
0.625
 43
3.75
 44
1.25
 73
     0
 74
     0
 77
     1
 78
     8
140
2.5
141
2.5
143
0.0393700787
147
0.625
171
     3
172
     1
178
     0
271
     2
272
     2
274
     3
278
    44
283
     0
284
     8
340
11
  0
ENDTAB
  0
TABLE
  2
BLOCK_RECORD
  5
1
330
0
100
AcDbSymbolTable
 70
     1
  0
BLOCK_RECORD
  5
1F
330
1
100
AcDbSymbolTableRecord
100
AcDbBlockTableRecord
  2
*Model_Space
340
22
  0
BLOCK_RECORD
  5
23
330
1
100
AcDbSymbolTableRecord
100
AcDbBlockTableRecord
  2
*Paper_Space
340
26
  0
BLOCK_RECORD
  5
1B
330
1
100
AcDbSymbolTableRecord
100
AcDbBlockTableRecord
  2
*Paper_Space0
340
1E
  0
ENDTAB
  0
ENDSEC
  0
SECTION
  2
BLOCKS
  0
BLOCK
  5
20
330
1F
100
AcDbEntity
  8
0
100
AcDbBlockBegin
  2
*Model_Space
 70
     0
 10
0.0
 20
0.0
 30
0.0
  3
*Model_Space
  1

  0
ENDBLK
  5
21
330
1F
100
AcDbEntity
  8
0
100
AcDbBlockEnd
  0
BLOCK
  5
24
330
23
100
AcDbEntity
 67
     1
  8
0
100
AcDbBlockBegin
  2
*Paper_Space
 70
     0
 10
0.0
 20
0.0
 30
0.0
  3
*Paper_Space
  1

  0
ENDBLK
  5
25
330
23
100
AcDbEntity
 67
     1
  8
0
100
AcDbBlockEnd
  0
BLOCK
  5
1C
330
1B
100
AcDbEntity
  8
0
100
AcDbBlockBegin
  2
*Paper_Space0
 70
     0
 10
0.0
 20
0.0
 30
0.0
  3
*Paper_Space0
  1

  0
LWPOLYLINE
  5
171
330
1B
100
AcDbEntity
  8
0
  6
Continuous
 62
     7
370
    25
100
AcDbPolyline
 90
        3
 70
   128
 43
0.0
 10
-19.1431037763
 20
67.1
 10
-19.1719532604
 20
66.838775607
 10
-19.248649589
 20
65.502665186
  0
LWPOLYLINE
  5
172
330
1B
100
AcDbEntity
  8
0
  6
Continuous
 62
     7
370
    25
100
AcDbPolyline
 90
        3
 70
   128
 43
0.0
 10
19.248649589
 20
65.502665186
 10
19.1719532604
 20
66.838775607
 10
19.1431037763
 20
67.1
  0
SPLINE
  5
19C
330
1B
100
AcDbEntity
  8
0
  6
Continuous
 62
     7
370
    25
100
AcDbSpline
210
0.0
220
0.0
230
1.0
 70
     8
 71
     3
 72
    33
 73
    29
 74
     0
 42
0.000000001
 43
0.00000001
 40
0.0
 40
0.0
 40
0.0
 40
0.0
 40
0.0125865516009394
 40
0.0251300879329511
 40
0.0376502160281798
 40
0.050166652926576
 40
0.0626991330900313
 40
0.0940305087962285
 40
0.1253678328672984
 40
0.1566490745176365
 40
0.1880138631522265
 40
0.2506084490897003
 40
0.3132215899938271
 40
0.3758353679470063
 40
0.4384553923674099
 40
0.5011122616328314
 40
0.5638152753286705
 40
0.6264294827919168
 40
0.6887589476026694
 40
0.7509655240965752
 40
0.8131402926945759
 40
0.8443169571470838
 40
0.8754203227703169
 40
0.9065827709123236
 40
0.9376639426226195
 40
0.9584599291185238
 40
0.9792088921067529
 40
1.0
 40
1.0
 40
1.0
 40
1.0
 10
-0.0000000000000472
 20
87.70000000000002
 30
0.0
 10
0.0673702761600757
 20
87.69924116636705
 30
0.0
 10
0.2018805866604296
 20
87.697726092459
 30
0.0
 10
0.4030790654728001
 20
87.68540452458905
 30
0.0
 10
0.6032414636685177
 20
87.6657129962745
 30
0.0
 10
0.8023594362677366
 20
87.6379459274557
 30
0.0
 10
1.099160126475184
 20
87.58446471292747
 30
0.0
 10
1.489624107802731
 20
87.48614165083278
 30
0.0
 10
1.962325342906434
 20
87.31623724278636
 30
0.0
 10
2.415792642841599
 20
87.10108331563636
 30
0.0
 10
2.987852393141493
 20
86.75654589225937
 30
0.0
 10
3.63516248424198
 20
86.22378022222014
 30
0.0
 10
4.271549915438062
 20
85.4460106971471
 30
0.0
 10
4.745260485336058
 20
84.55718586643212
 30
0.0
 10
5.036865331992229
 20
83.5899551335802
 30
0.0
 10
5.13331706023245
 20
82.58178108879899
 30
0.0
 10
5.029740772878013
 20
81.5743756139069
 30
0.0
 10
4.731668052612195
 20
80.6105938662331
 30
0.0
 10
4.253913865660556
 20
79.7283513205067
 30
0.0
 10
3.617078519381984
 20
78.95878628305223
 30
0.0
 10
2.971769798333284
 20
78.43223129416666
 30
0.0
 10
2.402146955862833
 20
78.09174699821763
 30
0.0
 10
1.950701816273928
 20
77.87906056796832
 30
0.0
 10
1.480697510170823
 20
77.7111752476082
 30
0.0
 10
1.049386651247857
 20
77.60319827766928
 30
0.0
 10
0.6658770472967737
 20
77.54017332063242
 30
0.0
 10
0.3336710492804356
 20
77.50625235675832
 30
0.0
 10
0.1112988864130679
 20
77.50208552808573
 30
0.0
 10
-0.0000000000000472
 20
77.50000000000003
 30
0.0
  0
SPLINE
  5
19F
330
1B
100
AcDbEntity
  8
0
  6
Continuous
 62
     7
370
    25
100
AcDbSpline
210
0.0
220
0.0
230
1.0
 70
     8
 71
     3
 72
    33
 73
    29
 74
     0
 42
0.000000001
 43
0.00000001
 40
0.0
 40
0.0
 40
0.0
 40
0.0
 40
0.0125812922795663
 40
0.0251196313707856
 40
0.0376345998623491
 40
0.0501458900820733
 40
0.0626732117040926
 40
0.093991892956521
 40
0.1253164344892691
 40
0.1565850759904805
 40
0.1879373107541206
 40
0.2505057420095222
 40
0.3130930430284545
 40
0.375681738970725
 40
0.4382799595046624
 40
0.5009076909545134
 40
0.5635747305036215
 40
0.6261728655899168
 40
0.6884756334842479
 40
0.7507936936013127
 40
0.8130198473840228
 40
0.8442161268413498
 40
0.875339217584568
 40
0.9065226540304349
 40
0.9376235929412569
 40
0.9584329012095799
 40
0.9791952556180685
 40
1.0
 40
1.0
 40
1.0
 40
1.0
 10
-0.0000000000000472
 20
77.50000000000003
 30
0.0
 10
-0.0673420209553423
 20
77.50075820964672
 30
0.0
 10
-0.201796153692417
 20
77.50227204037283
 30
0.0
 10
-0.4029111372311904
 20
77.51458343249145
 30
0.0
 10
-0.6029914654737709
 20
77.53425867618095
 30
0.0
 10
-0.8020288027291108
 20
77.56200278339942
 30
0.0
 10
-1.098712105350818
 20
77.61543994630883
 30
0.0
 10
-1.489026362106304
 20
77.71368279423893
 30
0.0
 10
-1.961559638531203
 20
77.8834513237969
 30
0.0
 10
-2.414882369983875
 20
78.09843667103404
 30
0.0
 10
-2.986784441430135
 20
78.44270546427809
 30
0.0
 10
-3.633973763619212
 20
78.97506690388333
 30
0.0
 10
-4.270377316220022
 20
79.75227920581129
 30
0.0
 10
-4.744293821041544
 20
80.64053831124319
 30
0.0
 10
-5.036278663505597
 20
81.60721228417519
 30
0.0
 10
-5.133296771245369
 20
82.61485369322384
 30
0.0
 10
-5.030458593314272
 20
83.62187959970927
 30
0.0
 10
-4.733336148486359
 20
84.58554078195162
 30
0.0
 10
-4.255901149701341
 20
85.46835693503861
 30
0.0
 10
-3.619372296963115
 20
86.23914695850527
 30
0.0
 10
-2.973484426673129
 20
86.76656832784418
 30
0.0
 10
-2.403577265512904
 20
87.10750868008239
 30
0.0
 10
-1.951899030940788
 20
87.32045499326864
 30
0.0
 10
-1.481628576985359
 20
87.4885516470124
 30
0.0
 10
-1.050054737643518
 20
87.59666900002458
 30
0.0
 10
-0.6663070259649574
 20
87.65977507162751
 30
0.0
 10
-0.3338883198131026
 20
87.69373969958802
 30
0.0
 10
-0.111371747130048
 20
87.69791181496007
 30
0.0
 10
-0.0000000000000472
 20
87.70000000000002
 30
0.0
  0
LINE
  5
1B4
330
1B
100
AcDbEntity
  8
0
  6
Continuous
 62
     7
370
    25
100
AcDbLine
 10
30.0
 20
43.2
 30
0.0
 11
30.0
 21
44.0
 31
0.0
  0
LINE
  5
1B5
330
1B
100
AcDbEntity
  8
0
  6
Continuous
 62
     7
370
    25
100
AcDbLine
 10
-30.0
 20
44.0
 30
0.0
 11
-30.0
 21
43.2
 31
0.0
  0
LINE
  5
1B6
330
1B
100
AcDbEntity
  8
0
  6
Continuous
 62
     7
370
    25
100
AcDbLine
 10
-24.15
 20
43.1
 30
0.0
 11
-24.15
 21
40.3
 31
0.0
  0
LINE
  5
1B7
330
1B
100
AcDbEntity
  8
0
  6
Continuous
 62
     7
370
    25
100
AcDbLine
 10
24.15
 20
40.3
 30
0.0
 11
24.15
 21
43.1
 31
0.0
  0
LINE
  5
1B8
330
1B
100
AcDbEntity
  8
0
  6
Continuous
 62
     7
370
    25
100
AcDbLine
 10
-21.0
 20
65.3
 30
0.0
 11
-21.0
 21
47.0
 31
0.0
  0
LINE
  5
1B9
330
1B
100
AcDbEntity
  8
0
  6
Continuous
 62
     7
370
    25
100
AcDbLine
 10
-21.0
 20
39.4
 30
0.0
 11
-21.0
 21
27.0
 31
0.0
  0
LINE
  5
1BA
330
1B
100
AcDbEntity
  8
0
  6
Continuous
 62
     7
370
    25
100
AcDbLine
 10
21.0
 20
27.0
 30
0.0
 11
21.0
 21
39.4
 31
0.0
  0
LINE
  5
1BB
330
1B
100
AcDbEntity
  8
0
  6
Continuous
 62
     7
370
    25
100
AcDbLine
 10
21.0
 20
47.0
 30
0.0
 11
21.0
 21
65.3
 31
0.0
  0
LINE
  5
1BC
330
1B
100
AcDbEntity
  8
0
  6
Continuous
 62
     7
370
    25
100
AcDbLine
 10
22.5
 20
67.1
 30
0.0
 11
22.5
 21
95.6
 31
0.0
  0
LINE
  5
1BD
330
1B
100
AcDbEntity
  8
0
  6
Continuous
 62
     7
370
    25
100
AcDbLine
 10
-22.5
 20
95.6
 30
0.0
 11
-22.5
 21
67.1
 31
0.0
  0
LINE
  5
1BE
330
1B
100
AcDbEntity
  8
0
  6
Continuous
 62
     7
370
    25
100
AcDbLine
 10
-50.0
 20
44.3
 30
0.0
 11
-50.0
 21
46.5
 31
0.0
  0
LINE
  5
1BF
330
1B
100
AcDbEntity
  8
0
  6
Continuous
 62
     7
370
    25
100
AcDbLine
 10
-50.0
 20
46.5
 30
0.0
 11
50.0
 21
46.5
 31
0.0
  0
LINE
  5
1C0
330
1B
100
AcDbEntity
  8
0
  6
Continuous
 62
     7
370
    25
100
AcDbLine
 10
0.0
 20
44.3
 30
0.0
 11
0.0
 21
46.5
 31
0.0
  0
LINE
  5
1C1
330
1B
100
AcDbEntity
  8
0
  6
Continuous
 62
     7
370
    25
100
AcDbLine
 10
50.0
 20
44.3
 30
0.0
 11
-50.0
 21
44.3
 31
0.0
  0
LINE
  5
1C2
330
1B
100
AcDbEntity
  8
0
  6
Continuous
 62
     7
370
    25
100
AcDbLine
 10
49.7
 20
44.0
 30
0.0
 11
-49.7
 21
44.0
 31
0.0
  0
LINE
  5
1C3
330
1B
100
AcDbEntity
  8
0
  6
Continuous
 62
     7
370
    25
100
AcDbLine
 10
50.0
 20
44.3
 30
0.0
 11
50.0
 21
46.5
 31
0.0
  0
LINE
  5
1C4
330
1B
100
AcDbEntity
  8
0
  6
Continuous
 62
     7
370
    25
100
AcDbLine
 10
-49.5
 20
47.0
 30
0.0
 11
49.5
 21
47.0
 31
0.0
  0
LINE
  5
1C5
330
1B
100
AcDbEntity
  8
0
  6
Continuous
 62
     7
370
    25
100
AcDbLine
 10
-24.558218506
 20
200.4931500563
 30
0.0
 11
-13.6624465122
 21
221.8773066369
 31
0.0
  0
LINE
  5
1C6
330
1B
100
AcDbEntity
  8
0
  6
Continuous
 62
     7
370
    25
100
AcDbLine
 10
-24.558218506
 20
200.4931500563
 30
0.0
 11
-42.3783489898
 21
209.5729600511
 31
0.0
  0
LINE
  5
1C7
330
1B
100
AcDbEntity
  8
0
  6
Continuous
 62
     7
370
    25
100
AcDbLine
 10
-42.3783489898
 20
209.5729600511
 30
0.0
 11
-31.482576996
 21
230.9571166316
 31
0.0
  0
LINE
  5
1C8
330
1B
100
AcDbEntity
  8
0
  6
Continuous
 62
     7
370
    25
100
AcDbLine
 10
-13.6624465122
 20
221.8773066369
 30
0.0
 11
-31.482576996
 21
230.9571166316
 31
0.0
  0
LINE
  5
1C9
330
1B
100
AcDbEntity
  8
0
  6
Continuous
 62
     7
370
    25
100
AcDbLine
 10
-12.0
 20
180.0
 30
0.0
 11
12.0
 21
180.0
 31
0.0
  0
LINE
  5
1CA
330
1B
100
AcDbEntity
  8
0
  6
Continuous
 62
     7
370
    25
100
AcDbLine
 10
-12.0
 20
96.1
 30
0.0
 11
-12.0
 21
180.0
 31
0.0
  0
LINE
  5
1CB
330
1B
100
AcDbEntity
  8
0
  6
Continuous
 62
     7
370
    25
100
AcDbLine
 10
12.0
 20
96.1
 30
0.0
 11
12.0
 21
180.0
 31
0.0
  0
LINE
  5
1CC
330
1B
100
AcDbEntity
  8
0
  6
Continuous
 62
     7
370
    25
100
AcDbLine
 10
0.0
 20
27.0
 30
0.0
 11
0.0
 21
44.0
 31
0.0
  0
LINE
  5
1CD
330
1B
100
AcDbEntity
  8
0
  6
Continuous
 62
     7
370
    25
100
AcDbLine
 10
30.0
 20
43.2
 30
0.0
 11
-30.0
 21
43.2
 31
0.0
  0
LINE
  5
1CE
330
1B
100
AcDbEntity
  8
0
  6
Continuous
 62
     7
370
    25
100
AcDbLine
 10
-23.25
 20
39.4
 30
0.0
 11
23.25
 21
39.4
 31
0.0
  0
LINE
  5
1CF
330
1B
100
AcDbEntity
  8
0
  6
Continuous
 62
     7
370
    25
100
AcDbLine
 10
-21.0
 20
65.3
 30
0.0
 11
21.0
 21
65.3
 31
0.0
  0
LINE
  5
1D0
330
1B
100
AcDbEntity
  8
0
  6
Continuous
 62
     7
370
    25
100
AcDbLine
 10
-21.0
 20
27.0
 30
0.0
 11
21.0
 21
27.0
 31
0.0
  0
LINE
  5
1D1
330
1B
100
AcDbEntity
  8
0
  6
Continuous
 62
     7
370
    25
100
AcDbLine
 10
22.5
 20
67.1
 30
0.0
 11
-22.5
 21
67.1
 31
0.0
  0
LINE
  5
1D2
330
1B
100
AcDbEntity
  8
0
  6
Continuous
 62
     7
370
    25
100
AcDbLine
 10
0.0
 20
47.0
 30
0.0
 11
0.0
 21
77.5
 31
0.0
  0
LINE
  5
1D3
330
1B
100
AcDbEntity
  8
0
  6
Continuous
 62
     7
370
    25
100
AcDbLine
 10
0.0
 20
87.7
 30
0.0
 11
0.0
 21
96.1
 31
0.0
  0
LINE
  5
1D4
330
1B
100
AcDbEntity
  8
0
  6
Continuous
 62
     7
370
    25
100
AcDbLine
 10
-21.9999999179
 20
96.1
 30
0.0
 11
21.9999999179
 21
96.1
 31
0.0
  0
LINE
  5
1D5
330
1B
100
AcDbEntity
  8
0
  6
Continuous
 62
     7
370
    25
100
AcDbLine
 10
0.0
 20
77.6
 30
0.0
 11
0.0
 21
78.1000002422
 31
0.0
  0
LINE
  5
1D6
330
1B
100
AcDbEntity
  8
0
  6
Continuous
 62
     7
370
    25
100
AcDbLine
 10
0.0
 20
87.6
 30
0.0
 11
0.0
 21
87.0999997578
 31
0.0
  0
LINE
  5
1D7
330
1B
100
AcDbEntity
  8
0
  6
Continuous
 62
     8
370
    25
100
AcDbLine
 10
24.15
 20
43.1
 30
0.0
 11
-24.15
 21
43.1
 31
0.0
  0
LINE
  5
1D8
330
1B
100
AcDbEntity
  8
0
  6
Continuous
 62
     8
370
    25
100
AcDbLine
 10
-24.15
 20
40.3
 30
0.0
 11
24.15
 21
40.3
 31
0.0
  0
LINE
  5
1D9
330
1B
100
AcDbEntity
  8
0
  6
Continuous
 62
     8
370
    25
100
AcDbLine
 10
-19.248649589
 20
65.502665186
 30
0.0
 11
19.248649589
 21
65.502665186
 31
0.0
  0
LINE
  5
1DA
330
1B
100
AcDbEntity
  8
0
  6
Continuous
 62
     8
370
    25
100
AcDbLine
 10
-22.5
 20
95.6
 30
0.0
 11
22.5
 21
95.6
 31
0.0
  0
ARC
  5
1DB
330
1B
100
AcDbEntity
  8
0
  6
Continuous
 62
     7
370
    25
100
AcDbCircle
 10
24.25
 20
43.1
 30
0.0
 40
0.1000000000000156
100
AcDbArc
 50
90.0
 51
180.0
  0
ARC
  5
1DC
330
1B
100
AcDbEntity
  8
0
  6
Continuous
 62
     7
370
    25
100
AcDbCircle
 10
-24.25
 20
43.1
 30
0.0
 40
0.1000000000000014
100
AcDbArc
 50
0.0
 51
90.0
  0
ARC
  5
1DD
330
1B
100
AcDbEntity
  8
0
  6
Continuous
 62
     7
370
    25
100
AcDbCircle
 10
-23.25
 20
40.3
 30
0.0
 40
0.8999999999999915
100
AcDbArc
 50
180.0
 51
270.0
  0
ARC
  5
1DE
330
1B
100
AcDbEntity
  8
0
  6
Continuous
 62
     7
370
    25
100
AcDbCircle
 10
23.25
 20
40.3
 30
0.0
 40
0.8999999999999986
100
AcDbArc
 50
270.0
 51
0.0
  0
ARC
  5
1DF
330
1B
100
AcDbEntity
  8
0
  6
Continuous
 62
     7
370
    25
100
AcDbCircle
 10
-19.0486673478
 20
65.5
 30
0.0
 40
0.2000000000000171
100
AcDbArc
 50
179.2364578512
 51
270.0
  0
ARC
  5
1E0
330
1B
100
AcDbEntity
  8
0
  6
Continuous
 62
     7
370
    25
100
AcDbCircle
 10
19.0486673478
 20
65.5
 30
0.0
 40
0.2000000000000083
100
AcDbArc
 50
270.0
 51
0.7635421488
  0
ARC
  5
1E1
330
1B
100
AcDbEntity
  8
0
  6
Continuous
 62
     7
370
    25
100
AcDbCircle
 10
22.0
 20
95.6
 30
0.0
 40
0.5000000000000067
100
AcDbArc
 50
0.0
 51
90.0000094045
  0
ARC
  5
1E2
330
1B
100
AcDbEntity
  8
0
  6
Continuous
 62
     7
370
    25
100
AcDbCircle
 10
-22.0
 20
95.6
 30
0.0
 40
0.5000000000000213
100
AcDbArc
 50
89.9999905955
 51
180.0
  0
ARC
  5
1E3
330
1B
100
AcDbEntity
  8
0
  6
Continuous
 62
     7
370
    25
100
AcDbCircle
 10
-49.7
 20
44.3
 30
0.0
 40
0.2999999999999829
100
AcDbArc
 50
180.0
 51
270.0
  0
ARC
  5
1E4
330
1B
100
AcDbEntity
  8
0
  6
Continuous
 62
     7
370
    25
100
AcDbCircle
 10
49.7
 20
44.3
 30
0.0
 40
0.2999999999999829
100
AcDbArc
 50
270.0
 51
0.0
  0
ARC
  5
1E5
330
1B
100
AcDbEntity
  8
0
  6
Continuous
 62
     7
370
    25
100
AcDbCircle
 10
49.5
 20
46.5
 30
0.0
 40
0.4999999999999787
100
AcDbArc
 50
360.0
 51
90.0
  0
ARC
  5
1E6
330
1B
100
AcDbEntity
  8
0
  6
Continuous
 62
     7
370
    25
100
AcDbCircle
 10
-49.5
 20
46.5
 30
0.0
 40
0.4999999999999787
100
AcDbArc
 50
90.0
 51
180.0
  0
ARC
  5
1E7
330
1B
100
AcDbEntity
  8
0
  6
Continuous
 62
     7
370
    25
100
AcDbCircle
 10
-34.9999999999
 20
180.0000000001
 30
0.0
 40
22.99999999985849
100
AcDbArc
 50
359.9999999999
 51
63.0000000002
  0
ARC
  5
1E8
330
1B
100
AcDbEntity
  8
0
  6
Continuous
 62
     7
370
    25
100
AcDbCircle
 10
-35.0000000002
 20
179.9999999999
 30
0.0
 40
47.00000000019606
100
AcDbArc
 50
0.0000000001
 51
62.9999999999
  0
ARC
  5
1E9
330
1B
100
AcDbEntity
  8
0
  6
Continuous
 62
     7
370
    25
100
AcDbCircle
 10
0.0
 20
82.6
 30
0.0
 40
4.49999975784101
100
AcDbArc
 50
270.0
 51
90.0
  0
ARC
  5
1EA
330
1B
100
AcDbEntity
  8
0
  6
Continuous
 62
     7
370
    25
100
AcDbCircle
 10
0.0
 20
82.6
 30
0.0
 40
5.000000000000014
100
AcDbArc
 50
270.0
 51
90.0
  0
VIEWPORT
  5
9E9
330
1B
100
AcDbEntity
  8
0
100
AcDbViewport
 10
0.0
 20
0.0
 30
0.0
 40
205.6
 41
156.0
 68
     1
 69
     1
 12
40.5
 22
128.9785583158
 13
0.0
 23
0.0
 14
10.0
 24
10.0
 15
10.0
 25
10.0
 16
0.0
 26
0.0
 36
1.0
 17
0.0
 27
0.0
 37
0.0
 42
50.0
 43
0.0
 44
0.0
 45
208.0362589642
 50
0.0
 51
0.0
 72
   100
 90
   557152
  1

281
     0
 71
     1
 74
     0
110
0.0
120
0.0
130
0.0
111
1.0
121
0.0
131
0.0
112
0.0
122
1.0
132
0.0
 79
     0
146
0.0
  0
ENDBLK
  5
1D
330
1B
100
AcDbEntity
  8
0
100
AcDbBlockEnd
  0
ENDSEC
  0
SECTION
  2
ENTITIES
  0
SPLINE
  5
7F
330
1F
100
AcDbEntity
  8
0
  6
Continuous
 62
     7
370
    25
100
AcDbSpline
210
0.0
220
0.0
230
1.0
 70
    24
 71
     3
 72
     8
 73
     4
 74
     0
 42
0.000000001
 43
0.00000001
 40
0.0
 40
0.0
 40
0.0
 40
0.0
 40
1.0
 40
1.0
 40
1.0
 40
1.0
 10
97.5
 20
41.2
 30
0.0
 10
97.5
 20
41.30933678938002
 30
0.0
 10
97.5
 20
41.40924057753999
 30
0.0
 10
97.5
 20
41.50000000000001
 30
0.0
  0
SPLINE
  5
82
330
1F
100
AcDbEntity
  8
0
  6
Continuous
 62
     7
370
    25
100
AcDbSpline
210
0.0
220
0.0
230
1.0
 70
    24
 71
     3
 72
     8
 73
     4
 74
     0
 42
0.000000001
 43
0.00000001
 40
0.0
 40
0.0
 40
0.0
 40
0.0
 40
1.0
 40
1.0
 40
1.0
 40
1.0
 10
97.5
 20
38.50000000000001
 30
0.0
 10
97.5
 20
38.59078923301001
 30
0.0
 10
97.5
 20
38.69069913279999
 30
0.0
 10
97.5
 20
38.8
 30
0.0
  0
SPLINE
  5
87
330
1F
100
AcDbEntity
  8
0
  6
Continuous
 62
     7
370
    25
100
AcDbSpline
210
0.0
220
0.0
230
1.0
 70
    24
 71
     3
 72
     8
 73
     4
 74
     0
 42
0.000000001
 43
0.00000001
 40
0.0
 40
0.0
 40
0.0
 40
0.0
 40
1.0
 40
1.0
 40
1.0
 40
1.0
 10
122.5
 20
38.8
 30
0.0
 10
122.5
 20
38.69066321061998
 30
0.0
 10
122.5
 20
38.59075942246001
 30
0.0
 10
122.5
 20
38.50000000000001
 30
0.0
  0
SPLINE
  5
8C
330
1F
100
AcDbEntity
  8
0
  6
Continuous
 62
     7
370
    25
100
AcDbSpline
210
0.0
220
0.0
230
1.0
 70
    24
 71
     3
 72
     8
 73
     4
 74
     0
 42
0.000000001
 43
0.00000001
 40
0.0
 40
0.0
 40
0.0
 40
0.0
 40
1.0
 40
1.0
 40
1.0
 40
1.0
 10
122.5
 20
41.50000000000001
 30
0.0
 10
122.5
 20
41.40921076699
 30
0.0
 10
122.5
 20
41.30930086720003
 30
0.0
 10
122.5
 20
41.2
 30
0.0
  0
LWPOLYLINE
  5
9E
330
1F
100
AcDbEntity
  8
0
  6
Continuous
 62
     7
370
    25
100
AcDbPolyline
 90
       11
 70
   128
 43
0.0
 10
110.0
 20
34.4999999986
 10
108.3730815861
 20
34.4999999986
 10
106.786223303
 20
34.4999999986
 10
105.2784988681
 20
34.4999999986
 10
103.8870334608
 20
34.4999999986
 10
102.6460895775
 20
34.4999999986
 10
101.586223375
 20
34.4999999986
 10
100.7335322768
 20
34.4999999986
 10
100.1090123675
 20
34.4999999986
 10
99.7280414
 20
34.4999999986
 10
99.6000000364
 20
34.4999999636
  0
LWPOLYLINE
  5
CC
330
1F
100
AcDbEntity
  8
0
  6
Continuous
 62
     7
370
    25
100
AcDbPolyline
 90
       12
 70
   128
 43
0.0
 10
98.0
 20
220.2650383414
 10
98.1221426974
 20
221.7866797341
 10
98.4860843166
 20
223.2773448961
 10
99.0844160557
 20
224.7066881834
 10
99.904957606
 20
226.0456122886
 10
100.9310051077
 20
227.266860578
 10
102.1416711926
 20
228.3455719583
 10
103.5123101905
 20
229.2597869764
 10
105.015019844
 20
229.9908948511
 10
106.6192093179
 20
230.5240123343
 10
108.2922219407
 20
230.8482866914
 10
110.0
 20
230.9571166316
  0
LWPOLYLINE
  5
CE
330
1F
100
AcDbEntity
  8
0
  6
Continuous
 62
     7
370
    25
100
AcDbPolyline
 90
       12
 70
   128
 43
0.0
 10
110.0
 20
230.9571166316
 10
111.7077780593
 20
230.8482866913
 10
113.3807906821
 20
230.5240123342
 10
114.984980156
 20
229.990894851
 10
116.4876898094
 20
229.2597869763
 10
117.8583288073
 20
228.3455719582
 10
119.0689948922
 20
227.2668605779
 10
120.0950423939
 20
226.0456122885
 10
120.9155839442
 20
224.7066881833
 10
121.5139156833
 20
223.277344896
 10
121.8778573025
 20
221.7866797341
 10
121.9999999999
 20
220.2650383414
  0
LWPOLYLINE
  5
E9
330
1F
100
AcDbEntity
  8
0
  6
Continuous
 62
     7
370
    25
100
AcDbPolyline
 90
        3
 70
   128
 43
0.0
 10
-19.248649589
 20
65.502665186
 10
-19.1719532604
 20
66.838775607
 10
-19.1431037763
 20
67.1
  0
SPLINE
  5
EF
330
1F
100
AcDbEntity
  8
0
  6
Continuous
 62
     7
370
    25
100
AcDbSpline
210
0.0
220
0.0
230
1.0
 70
     8
 71
     3
 72
    11
 73
     7
 74
     0
 42
0.000000001
 43
0.00000001
 40
0.0
 40
0.0
 40
0.0
 40
0.0
 40
0.2512072228688432
 40
0.4999134262736889
 40
0.7486632477367876
 40
1.0
 40
1.0
 40
1.0
 40
1.0
 10
1.093876408163122
 20
67.10000000000001
 30
0.0
 10
1.127509055010446
 20
67.1009337325913
 30
0.0
 10
1.194439502025808
 20
67.10279190153088
 30
0.0
 10
1.293587733298782
 20
67.11842830084039
 30
0.0
 10
1.390964846135087
 20
67.14277765418156
 30
0.0
 10
1.453285845012135
 20
67.16721384656215
 30
0.0
 10
1.484607536652125
 20
67.17949514654755
 30
0.0
  0
SPLINE
  5
F2
330
1F
100
AcDbEntity
  8
0
  6
Continuous
 62
     7
370
    25
100
AcDbSpline
210
0.0
220
0.0
230
1.0
 70
     8
 71
     3
 72
    33
 73
    29
 74
     0
 42
0.000000001
 43
0.00000001
 40
0.0
 40
0.0
 40
0.0
 40
0.0
 40
0.0125865516009394
 40
0.0251300879329511
 40
0.0376502160281798
 40
0.050166652926576
 40
0.0626991330900313
 40
0.0940305087962285
 40
0.1253678328672984
 40
0.1566490745176365
 40
0.1880138631522265
 40
0.2506084490897003
 40
0.3132215899938271
 40
0.3758353679470063
 40
0.4384553923674099
 40
0.5011122616328314
 40
0.5638152753286705
 40
0.6264294827919168
 40
0.6887589476026694
 40
0.7509655240965752
 40
0.8131402926945759
 40
0.8443169571470838
 40
0.8754203227703169
 40
0.9065827709123236
 40
0.9376639426226195
 40
0.9584599291185238
 40
0.9792088921067529
 40
1.0
 40
1.0
 40
1.0
 40
1.0
 10
-22.50000000000001
 20
87.70000000000002
 30
0.0
 10
-22.49982525920927
 20
87.69924116636705
 30
0.0
 10
-22.49947637481457
 20
87.697726092459
 30
0.0
 10
-22.49666591522755
 20
87.68540452458905
 30
0.0
 10
-22.4922130975532
 20
87.6657129962745
 30
0.0
 10
-22.48597998686502
 20
87.6379459274557
 30
0.0
 10
-22.47407995966541
 20
87.58446471292747
 30
0.0
 10
-22.45236211792458
 20
87.48614165083278
 30
0.0
 10
-22.41587572039316
 20
87.31623724278636
 30
0.0
 10
-22.37140402824778
 20
87.10108331563636
 30
0.0
 10
-22.30386315330061
 20
86.75654589225937
 30
0.0
 10
-22.20828359013242
 20
86.22378022222014
 30
0.0
 10
-22.09321721608165
 20
85.4460106971471
 30
0.0
 10
-21.99505678620363
 20
84.55718586643212
 30
0.0
 10
-21.9292315339165
 20
83.5899551335802
 30
0.0
 10
-21.90654523564676
 20
82.58178108879899
 30
0.0
 10
-21.93088965364799
 20
81.5743756139069
 30
0.0
 10
-21.99802085050748
 20
80.6105938662331
 30
0.0
 10
-22.09663790200919
 20
79.7283513205067
 30
0.0
 10
-22.2112213250128
 20
78.95878628305223
 30
0.0
 10
-22.30598510296304
 20
78.43223129416666
 30
0.0
 10
-22.37286033491086
 20
78.09174699821763
 30
0.0
 10
-22.41687708946429
 20
77.87906056796832
 30
0.0
 10
-22.45292353098745
 20
77.7111752476082
 30
0.0
 10
-22.47679938932128
 20
77.60319827766928
 30
0.0
 10
-22.49089763158911
 20
77.54017332063242
 30
0.0
 10
-22.49856863427967
 20
77.50625235675832
 30
0.0
 10
-22.4995225554897
 20
77.50208552808573
 30
0.0
 10
-22.50000000000001
 20
77.50000000000003
 30
0.0
  0
SPLINE
  5
F5
330
1F
100
AcDbEntity
  8
0
  6
Continuous
 62
     7
370
    25
100
AcDbSpline
210
0.0
220
0.0
230
1.0
 70
     8
 71
     3
 72
    35
 73
    31
 74
     0
 42
0.000000001
 43
0.00000001
 40
0.0
 40
0.0
 40
0.0
 40
0.0
 40
0.0146912445046861
 40
0.0289298519210683
 40
0.042715829651064
 40
0.0560491860174708
 40
0.0689299303878611
 40
0.08135807332103
 40
0.0933336267411088
 40
0.1048566041458571
 40
0.1159270208575167
 40
0.1265448943271014
 40
0.1367102445063873
 40
0.2070878129284489
 40
0.2712301516114157
 40
0.4061933707903361
 40
0.5285029041732333
 40
0.5910919791079073
 40
0.6520856826760806
 40
0.7115423876999675
 40
0.7695251124691673
 40
0.7955386061804802
 40
0.8214348230242372
 40
0.8472204891266782
 40
0.8729024174748493
 40
0.8984875039286778
 40
0.9239827229291754
 40
0.9493951229104782
 40
0.974731821425829
 40
1.0
 40
1.0
 40
1.0
 40
1.0
 10
1.484607536652125
 20
67.17949514654757
 30
0.0
 10
1.643174788068157
 20
67.24679242114051
 30
0.0
 10
1.955423835555824
 20
67.37931354200569
 30
0.0
 10
2.415638128294102
 20
67.57454969994996
 30
0.0
 10
2.860433745860084
 20
67.76324159416221
 30
0.0
 10
3.28969142287798
 20
67.94536080673439
 30
0.0
 10
3.703378370870452
 20
68.120914630725
 30
0.0
 10
4.101474697913214
 20
68.2899013212879
 30
0.0
 10
4.483988627676225
 20
68.45232123002856
 30
0.0
 10
4.850949838076817
 20
68.60817494469654
 30
0.0
 10
5.202406229494729
 20
68.7574603438013
 30
0.0
 10
5.53842785741053
 20
68.9001853629494
 30
0.0
 10
6.496945762418799
 20
69.30713558755484
 30
0.0
 10
7.999095808583823
 20
69.94433765497912
 30
0.0
 10
10.70514254844673
 20
71.09388025477989
 30
0.0
 10
13.74098238347279
 20
72.37958457587135
 30
0.0
 10
16.38328300852297
 20
73.504093820177
 30
0.0
 10
18.1443042986323
 20
74.25069077435874
 30
0.0
 10
19.30687360430383
 20
74.74383686880842
 30
0.0
 10
20.28527557292055
 20
75.15950573373031
 30
0.0
 10
20.94115807579916
 20
75.4383906534547
 30
0.0
 10
21.36721102366753
 20
75.61912312280559
 30
0.0
 10
21.63443224180908
 20
75.7324057776398
 30
0.0
 10
21.86605413002683
 20
75.83057974361384
 30
0.0
 10
22.0619828444954
 20
75.91366028281543
 30
0.0
 10
22.22209092000383
 20
75.98161801481206
 30
0.0
 10
22.34661211718986
 20
76.03455383570045
 30
0.0
 10
22.43473474465523
 20
76.0720943956355
 30
0.0
 10
22.48980486663841
 20
76.09562549881649
 30
0.0
 10
22.49660469124231
 20
76.09854315272199
 30
0.0
 10
22.5
 20
76.10000000439601
 30
0.0
  0
LWPOLYLINE
  5
FF
330
1F
100
AcDbEntity
  8
0
  6
Continuous
 62
     8
370
    25
100
AcDbPolyline
 90
       12
 70
   128
 43
0.0
 10
110.0
 20
221.8773066369
 10
111.7077780593
 20
221.7684766966
 10
113.3807906821
 20
221.4442023395
 10
114.984980156
 20
220.9110848563
 10
116.4876898095
 20
220.1799769816
 10
117.8583288074
 20
219.2657619635
 10
119.0689948923
 20
218.1870505832
 10
120.095042394
 20
216.9658022938
 10
120.9155839443
 20
215.6268781886
 10
121.5139156834
 20
214.1975349013
 10
121.8778573026
 20
212.7068697393
 10
122.0
 20
211.1852283466
  0
LWPOLYLINE
  5
101
330
1F
100
AcDbEntity
  8
0
  6
Continuous
 62
     8
370
    25
100
AcDbPolyline
 90
       12
 70
   128
 43
0.0
 10
98.0
 20
211.1852283466
 10
98.1221426974
 20
212.7068697393
 10
98.4860843166
 20
214.1975349013
 10
99.0844160557
 20
215.6268781886
 10
99.904957606
 20
216.9658022938
 10
100.9310051077
 20
218.1870505832
 10
102.1416711926
 20
219.2657619635
 10
103.5123101905
 20
220.1799769816
 10
105.015019844
 20
220.9110848563
 10
106.6192093179
 20
221.4442023395
 10
108.2922219407
 20
221.7684766966
 10
110.0
 20
221.8773066369
  0
LINE
  5
102
330
1F
100
AcDbEntity
  8
0
  6
Continuous
 62
     7
370
    25
100
AcDbLine
 10
160.0
 20
44.3
 30
0.0
 11
160.0
 21
46.5
 31
0.0
  0
LINE
  5
103
330
1F
100
AcDbEntity
  8
0
  6
Continuous
 62
     7
370
    25
100
AcDbLine
 10
122.0
 20
47.0
 30
0.0
 11
122.0
 21
220.2650383414
 31
0.0
  0
LINE
  5
104
330
1F
100
AcDbEntity
  8
0
  6
Continuous
 62
     7
370
    25
100
AcDbLine
 10
98.0
 20
220.2650383414
 30
0.0
 11
98.0
 21
47.0
 31
0.0
  0
LINE
  5
105
330
1F
100
AcDbEntity
  8
0
  6
Continuous
 62
     7
370
    25
100
AcDbLine
 10
122.5
 20
41.2
 30
0.0
 11
97.5
 21
41.2
 31
0.0
  0
LINE
  5
106
330
1F
100
AcDbEntity
  8
0
  6
Continuous
 62
     7
370
    25
100
AcDbLine
 10
122.5
 20
41.5
 30
0.0
 11
97.5
 21
41.5
 31
0.0
  0
LINE
  5
107
330
1F
100
AcDbEntity
  8
0
  6
Continuous
 62
     7
370
    25
100
AcDbLine
 10
110.0
 20
41.5
 30
0.0
 11
110.0
 21
41.2
 31
0.0
  0
LINE
  5
108
330
1F
100
AcDbEntity
  8
0
  6
Continuous
 62
     7
370
    25
100
AcDbLine
 10
122.5
 20
38.8
 30
0.0
 11
97.5
 21
38.8
 31
0.0
  0
LINE
  5
109
330
1F
100
AcDbEntity
  8
0
  6
Continuous
 62
     7
370
    25
100
AcDbLine
 10
110.0
 20
38.5
 30
0.0
 11
110.0
 21
38.8
 31
0.0
  0
LINE
  5
10A
330
1F
100
AcDbEntity
  8
0
  6
Continuous
 62
     7
370
    25
100
AcDbLine
 10
122.5
 20
38.5
 30
0.0
 11
97.5
 21
38.5
 31
0.0
  0
LINE
  5
10B
330
1F
100
AcDbEntity
  8
0
  6
Continuous
 62
     7
370
    25
100
AcDbLine
 10
122.5
 20
38.8
 30
0.0
 11
122.5
 21
41.2
 31
0.0
  0
LINE
  5
10C
330
1F
100
AcDbEntity
  8
0
  6
Continuous
 62
     7
370
    25
100
AcDbLine
 10
97.5
 20
38.8
 30
0.0
 11
97.5
 21
41.2
 31
0.0
  0
LINE
  5
10D
330
1F
100
AcDbEntity
  8
0
  6
Continuous
 62
     7
370
    25
100
AcDbLine
 10
99.7
 20
37.5
 30
0.0
 11
99.4
 21
37.8
 31
0.0
  0
LINE
  5
10E
330
1F
100
AcDbEntity
  8
0
  6
Continuous
 62
     7
370
    25
100
AcDbLine
 10
120.6
 20
37.8
 30
0.0
 11
99.4
 21
37.8
 31
0.0
  0
LINE
  5
10F
330
1F
100
AcDbEntity
  8
0
  6
Continuous
 62
     7
370
    25
100
AcDbLine
 10
110.0
 20
37.5
 30
0.0
 11
110.0
 21
37.8
 31
0.0
  0
LINE
  5
110
330
1F
100
AcDbEntity
  8
0
  6
Continuous
 62
     7
370
    25
100
AcDbLine
 10
120.3
 20
37.5
 30
0.0
 11
99.7
 21
37.5
 31
0.0
  0
LINE
  5
111
330
1F
100
AcDbEntity
  8
0
  6
Continuous
 62
     7
370
    25
100
AcDbLine
 10
99.4
 20
38.5
 30
0.0
 11
99.4
 21
37.8
 31
0.0
  0
LINE
  5
112
330
1F
100
AcDbEntity
  8
0
  6
Continuous
 62
     7
370
    25
100
AcDbLine
 10
120.6
 20
38.5
 30
0.0
 11
120.6
 21
37.8
 31
0.0
  0
LINE
  5
113
330
1F
100
AcDbEntity
  8
0
  6
Continuous
 62
     7
370
    25
100
AcDbLine
 10
120.3
 20
37.5
 30
0.0
 11
120.6
 21
37.8
 31
0.0
  0
LINE
  5
114
330
1F
100
AcDbEntity
  8
0
  6
Continuous
 62
     7
370
    25
100
AcDbLine
 10
100.6000000668
 20
28.5000000652
 30
0.0
 11
99.6
 21
29.5000000018
 31
0.0
  0
LINE
  5
115
330
1F
100
AcDbEntity
  8
0
  6
Continuous
 62
     7
370
    25
100
AcDbLine
 10
120.4
 20
29.5000000018
 30
0.0
 11
99.6
 21
29.5000000018
 31
0.0
  0
LINE
  5
116
330
1F
100
AcDbEntity
  8
0
  6
Continuous
 62
     7
370
    25
100
AcDbLine
 10
110.0
 20
28.5000000652
 30
0.0
 11
110.0
 21
29.5000000018
 31
0.0
  0
LINE
  5
117
330
1F
100
AcDbEntity
  8
0
  6
Continuous
 62
     7
370
    25
100
AcDbLine
 10
119.3999999332
 20
28.5000000652
 30
0.0
 11
100.6000000668
 21
28.5000000652
 31
0.0
  0
LINE
  5
118
330
1F
100
AcDbEntity
  8
0
  6
Continuous
 62
     7
370
    25
100
AcDbLine
 10
119.3999999332
 20
28.5000000652
 30
0.0
 11
120.4
 21
29.5000000018
 31
0.0
  0
LINE
  5
119
330
1F
100
AcDbEntity
  8
0
  6
Continuous
 62
     7
370
    25
100
AcDbLine
 10
99.6000000364
 20
34.4999999636
 30
0.0
 11
100.6000000664
 21
35.4999999349
 31
0.0
  0
LINE
  5
11A
330
1F
100
AcDbEntity
  8
0
  6
Continuous
 62
     7
370
    25
100
AcDbLine
 10
119.3999999336
 20
35.4999999349
 30
0.0
 11
100.6000000664
 21
35.4999999349
 31
0.0
  0
LINE
  5
11B
330
1F
100
AcDbEntity
  8
0
  6
Continuous
 62
     7
370
    25
100
AcDbLine
 10
110.0
 20
35.4999999349
 30
0.0
 11
110.0
 21
34.4999999986
 31
0.0
  0
LINE
  5
11C
330
1F
100
AcDbEntity
  8
0
  6
Continuous
 62
     7
370
    25
100
AcDbLine
 10
99.6000000364
 20
34.4999999636
 30
0.0
 11
99.6
 21
29.5000000018
 31
0.0
  0
LINE
  5
11D
330
1F
100
AcDbEntity
  8
0
  6
Continuous
 62
     7
370
    25
100
AcDbLine
 10
120.3999999636
 20
34.4999999636
 30
0.0
 11
110.0
 21
34.4999999986
 31
0.0
  0
LINE
  5
11E
330
1F
100
AcDbEntity
  8
0
  6
Continuous
 62
     7
370
    25
100
AcDbLine
 10
120.3999999636
 20
34.4999999636
 30
0.0
 11
120.4
 21
29.5000000018
 31
0.0
  0
LINE
  5
11F
330
1F
100
AcDbEntity
  8
0
  6
Continuous
 62
     7
370
    25
100
AcDbLine
 10
120.3999999636
 20
34.4999999636
 30
0.0
 11
119.3999999336
 21
35.4999999349
 31
0.0
  0
LINE
  5
120
330
1F
100
AcDbEntity
  8
0
  6
Continuous
 62
     7
370
    25
100
AcDbLine
 10
119.25
 20
37.5
 30
0.0
 11
119.25
 21
37.4682458366
 31
0.0
  0
LINE
  5
121
330
1F
100
AcDbEntity
  8
0
  6
Continuous
 62
     7
370
    25
100
AcDbLine
 10
119.25
 20
35.5317541634
 30
0.0
 11
119.25
 21
35.5
 31
0.0
  0
LINE
  5
122
330
1F
100
AcDbEntity
  8
0
  6
Continuous
 62
     7
370
    25
100
AcDbLine
 10
100.75
 20
37.5
 30
0.0
 11
100.75
 21
37.4682458366
 31
0.0
  0
LINE
  5
123
330
1F
100
AcDbEntity
  8
0
  6
Continuous
 62
     7
370
    25
100
AcDbLine
 10
100.75
 20
35.5317541634
 30
0.0
 11
100.75
 21
35.5
 31
0.0
  0
LINE
  5
124
330
1F
100
AcDbEntity
  8
0
  6
Continuous
 62
     7
370
    25
100
AcDbLine
 10
103.85
 20
42.5
 30
0.0
 11
116.15
 21
42.5
 31
0.0
  0
LINE
  5
125
330
1F
100
AcDbEntity
  8
0
  6
Continuous
 62
     7
370
    25
100
AcDbLine
 10
116.15
 20
43.2
 30
0.0
 11
103.85
 21
43.2
 31
0.0
  0
LINE
  5
126
330
1F
100
AcDbEntity
  8
0
  6
Continuous
 62
     7
370
    25
100
AcDbLine
 10
116.15
 20
43.2
 30
0.0
 11
116.15
 21
42.5
 31
0.0
  0
LINE
  5
127
330
1F
100
AcDbEntity
  8
0
  6
Continuous
 62
     7
370
    25
100
AcDbLine
 10
103.85
 20
43.2
 30
0.0
 11
103.85
 21
42.5
 31
0.0
  0
LINE
  5
128
330
1F
100
AcDbEntity
  8
0
  6
Continuous
 62
     7
370
    25
100
AcDbLine
 10
116.15
 20
43.2
 30
0.0
 11
115.85
 21
43.5
 31
0.0
  0
LINE
  5
129
330
1F
100
AcDbEntity
  8
0
  6
Continuous
 62
     7
370
    25
100
AcDbLine
 10
110.0
 20
43.5
 30
0.0
 11
110.0
 21
43.2
 31
0.0
  0
LINE
  5
12A
330
1F
100
AcDbEntity
  8
0
  6
Continuous
 62
     7
370
    25
100
AcDbLine
 10
115.85
 20
43.5
 30
0.0
 11
104.15
 21
43.5
 31
0.0
  0
LINE
  5
12B
330
1F
100
AcDbEntity
  8
0
  6
Continuous
 62
     7
370
    25
100
AcDbLine
 10
103.85
 20
43.2
 30
0.0
 11
104.15
 21
43.5
 31
0.0
  0
LINE
  5
12C
330
1F
100
AcDbEntity
  8
0
  6
Continuous
 62
     7
370
    25
100
AcDbLine
 10
159.7
 20
44.0
 30
0.0
 11
-49.7
 21
44.0
 31
0.0
  0
LINE
  5
12D
330
1F
100
AcDbEntity
  8
0
  6
Continuous
 62
     7
370
    25
100
AcDbLine
 10
0.0
 20
44.0
 30
0.0
 11
0.0
 21
47.0
 31
0.0
  0
LINE
  5
12E
330
1F
100
AcDbEntity
  8
0
  6
Continuous
 62
     7
370
    25
100
AcDbLine
 10
160.0
 20
44.3
 30
0.0
 11
-50.0
 21
44.3
 31
0.0
  0
LINE
  5
12F
330
1F
100
AcDbEntity
  8
0
  6
Continuous
 62
     7
370
    25
100
AcDbLine
 10
-50.0
 20
46.5
 30
0.0
 11
160.0
 21
46.5
 31
0.0
  0
LINE
  5
130
330
1F
100
AcDbEntity
  8
0
  6
Continuous
 62
     7
370
    25
100
AcDbLine
 10
-49.5
 20
47.0
 30
0.0
 11
159.5
 21
47.0
 31
0.0
  0
LINE
  5
131
330
1F
100
AcDbEntity
  8
0
  6
Continuous
 62
     7
370
    25
100
AcDbLine
 10
-50.0
 20
44.3
 30
0.0
 11
-50.0
 21
46.5
 31
0.0
  0
LINE
  5
132
330
1F
100
AcDbEntity
  8
0
  6
Continuous
 62
     7
370
    25
100
AcDbLine
 10
110.0
 20
44.0
 30
0.0
 11
110.0
 21
230.9571166316
 31
0.0
  0
LINE
  5
133
330
1F
100
AcDbEntity
  8
0
  6
Continuous
 62
     7
370
    25
100
AcDbLine
 10
-30.0
 20
44.0
 30
0.0
 11
-30.0
 21
43.2
 31
0.0
  0
LINE
  5
134
330
1F
100
AcDbEntity
  8
0
  6
Continuous
 62
     7
370
    25
100
AcDbLine
 10
30.0
 20
44.0
 30
0.0
 11
30.0
 21
43.2
 31
0.0
  0
LINE
  5
135
330
1F
100
AcDbEntity
  8
0
  6
Continuous
 62
     7
370
    25
100
AcDbLine
 10
-30.0
 20
43.2
 30
0.0
 11
30.0
 21
43.2
 31
0.0
  0
LINE
  5
136
330
1F
100
AcDbEntity
  8
0
  6
Continuous
 62
     7
370
    25
100
AcDbLine
 10
-24.15
 20
43.1
 30
0.0
 11
24.15
 21
43.1
 31
0.0
  0
LINE
  5
137
330
1F
100
AcDbEntity
  8
0
  6
Continuous
 62
     7
370
    25
100
AcDbLine
 10
-24.15
 20
40.3
 30
0.0
 11
24.15
 21
40.3
 31
0.0
  0
LINE
  5
138
330
1F
100
AcDbEntity
  8
0
  6
Continuous
 62
     7
370
    25
100
AcDbLine
 10
-23.25
 20
39.4
 30
0.0
 11
23.25
 21
39.4
 31
0.0
  0
LINE
  5
139
330
1F
100
AcDbEntity
  8
0
  6
Continuous
 62
     7
370
    25
100
AcDbLine
 10
-24.15
 20
43.1
 30
0.0
 11
-24.15
 21
40.3
 31
0.0
  0
LINE
  5
13A
330
1F
100
AcDbEntity
  8
0
  6
Continuous
 62
     7
370
    25
100
AcDbLine
 10
24.15
 20
43.1
 30
0.0
 11
24.15
 21
40.3
 31
0.0
  0
LINE
  5
13B
330
1F
100
AcDbEntity
  8
0
  6
Continuous
 62
     7
370
    25
100
AcDbLine
 10
100.0
 20
36.5
 30
0.0
 11
120.0
 21
36.5
 31
0.0
  0
LINE
  5
13C
330
1F
100
AcDbEntity
  8
0
  6
Continuous
 62
     7
370
    25
100
AcDbLine
 10
-21.0
 20
27.0
 30
0.0
 11
-21.0
 21
39.4
 31
0.0
  0
LINE
  5
13D
330
1F
100
AcDbEntity
  8
0
  6
Continuous
 62
     7
370
    25
100
AcDbLine
 10
-21.0
 20
47.0
 30
0.0
 11
-21.0
 21
65.3
 31
0.0
  0
LINE
  5
13E
330
1F
100
AcDbEntity
  8
0
  6
Continuous
 62
     7
370
    25
100
AcDbLine
 10
21.0
 20
27.0
 30
0.0
 11
21.0
 21
39.4
 31
0.0
  0
LINE
  5
13F
330
1F
100
AcDbEntity
  8
0
  6
Continuous
 62
     7
370
    25
100
AcDbLine
 10
21.0
 20
47.0
 30
0.0
 11
21.0
 21
65.3
 31
0.0
  0
LINE
  5
140
330
1F
100
AcDbEntity
  8
0
  6
Continuous
 62
     7
370
    25
100
AcDbLine
 10
-21.0
 20
65.3
 30
0.0
 11
21.0
 21
65.3
 31
0.0
  0
LINE
  5
141
330
1F
100
AcDbEntity
  8
0
  6
Continuous
 62
     7
370
    25
100
AcDbLine
 10
-21.0
 20
27.0
 30
0.0
 11
21.0
 21
27.0
 31
0.0
  0
LINE
  5
142
330
1F
100
AcDbEntity
  8
0
  6
Continuous
 62
     7
370
    25
100
AcDbLine
 10
-19.248649589
 20
65.502665186
 30
0.0
 11
19.248649589
 21
65.502665186
 31
0.0
  0
LINE
  5
143
330
1F
100
AcDbEntity
  8
0
  6
Continuous
 62
     7
370
    25
100
AcDbLine
 10
-21.9999999179
 20
96.1
 30
0.0
 11
21.9999999179
 21
96.1
 31
0.0
  0
LINE
  5
144
330
1F
100
AcDbEntity
  8
0
  6
Continuous
 62
     7
370
    25
100
AcDbLine
 10
-22.5
 20
95.6
 30
0.0
 11
22.5
 21
95.6
 31
0.0
  0
LINE
  5
145
330
1F
100
AcDbEntity
  8
0
  6
Continuous
 62
     7
370
    25
100
AcDbLine
 10
-22.5
 20
67.1
 30
0.0
 11
1.0938764082
 21
67.1
 31
0.0
  0
LINE
  5
146
330
1F
100
AcDbEntity
  8
0
  6
Continuous
 62
     7
370
    25
100
AcDbLine
 10
-22.5
 20
67.1
 30
0.0
 11
-22.5
 21
77.5
 31
0.0
  0
LINE
  5
147
330
1F
100
AcDbEntity
  8
0
  6
Continuous
 62
     7
370
    25
100
AcDbLine
 10
-22.5
 20
87.7
 30
0.0
 11
-22.5
 21
95.6
 31
0.0
  0
LINE
  5
148
330
1F
100
AcDbEntity
  8
0
  6
Continuous
 62
     7
370
    25
100
AcDbLine
 10
22.5000000104
 20
76.1000000044
 30
0.0
 11
22.5
 21
95.6
 31
0.0
  0
LINE
  5
149
330
1F
100
AcDbEntity
  8
0
  6
Continuous
 62
     7
370
    25
100
AcDbLine
 10
-78.5
 20
87.6
 30
0.0
 11
-78.5
 21
77.6
 31
0.0
  0
LINE
  5
14A
330
1F
100
AcDbEntity
  8
0
  6
Continuous
 62
     7
370
    25
100
AcDbLine
 10
-78.5
 20
87.6
 30
0.0
 11
-22.4794646654
 21
87.5999913435
 31
0.0
  0
LINE
  5
14B
330
1F
100
AcDbEntity
  8
0
  6
Continuous
 62
     7
370
    25
100
AcDbLine
 10
-78.5
 20
77.6
 30
0.0
 11
-22.4781495759
 21
77.6000086567
 31
0.0
  0
LINE
  5
14C
330
1F
100
AcDbEntity
  8
0
  6
Continuous
 62
     7
370
    25
100
AcDbLine
 10
-79.0
 20
87.0999997578
 30
0.0
 11
-79.0
 21
78.1000002422
 31
0.0
  0
LINE
  5
14D
330
1F
100
AcDbEntity
  8
0
  6
Continuous
 62
     8
370
    25
100
AcDbLine
 10
98.0
 20
180.0
 30
0.0
 11
122.0
 21
180.0
 31
0.0
  0
ARC
  5
14E
330
1F
100
AcDbEntity
  8
0
  6
Continuous
 62
     7
370
    25
100
AcDbCircle
 10
159.5
 20
46.5
 30
0.0
 40
0.4999999999999716
100
AcDbArc
 50
360.0
 51
90.0
  0
ARC
  5
14F
330
1F
100
AcDbEntity
  8
0
  6
Continuous
 62
     7
370
    25
100
AcDbCircle
 10
-49.7
 20
44.3
 30
0.0
 40
0.2999999999999829
100
AcDbArc
 50
180.0
 51
270.0
  0
ARC
  5
150
330
1F
100
AcDbEntity
  8
0
  6
Continuous
 62
     7
370
    25
100
AcDbCircle
 10
-49.5
 20
46.5
 30
0.0
 40
0.4999999999999929
100
AcDbArc
 50
90.0
 51
180.0
  0
ARC
  5
151
330
1F
100
AcDbEntity
  8
0
  6
Continuous
 62
     7
370
    25
100
AcDbCircle
 10
159.7
 20
44.3
 30
0.0
 40
0.2999999999999829
100
AcDbArc
 50
270.0
 51
0.0
  0
ARC
  5
152
330
1F
100
AcDbEntity
  8
0
  6
Continuous
 62
     7
370
    25
100
AcDbCircle
 10
102.85
 20
42.5
 30
0.0
 40
0.9999999999999787
100
AcDbArc
 50
270.0
 51
0.0
  0
ARC
  5
153
330
1F
100
AcDbEntity
  8
0
  6
Continuous
 62
     7
370
    25
100
AcDbCircle
 10
117.15
 20
42.5
 30
0.0
 40
0.9999999999999787
100
AcDbArc
 50
180.0
 51
270.0
  0
ARC
  5
154
330
1F
100
AcDbEntity
  8
0
  6
Continuous
 62
     7
370
    25
100
AcDbCircle
 10
115.7486532371
 20
44.5
 30
0.0
 40
1.000000000000036
100
AcDbArc
 50
210.0
 51
270.0
  0
ARC
  5
155
330
1F
100
AcDbEntity
  8
0
  6
Continuous
 62
     7
370
    25
100
AcDbCircle
 10
104.2513467629
 20
44.5
 30
0.0
 40
1.000000000000157
100
AcDbArc
 50
270.0
 51
330.0
  0
ARC
  5
156
330
1F
100
AcDbEntity
  8
0
  6
Continuous
 62
     7
370
    25
100
AcDbCircle
 10
-24.25
 20
43.1
 30
0.0
 40
0.0999999999999837
100
AcDbArc
 50
360.0
 51
90.0
  0
ARC
  5
157
330
1F
100
AcDbEntity
  8
0
  6
Continuous
 62
     7
370
    25
100
AcDbCircle
 10
24.25
 20
43.1
 30
0.0
 40
0.1000000000000014
100
AcDbArc
 50
90.0
 51
180.0
  0
ARC
  5
158
330
1F
100
AcDbEntity
  8
0
  6
Continuous
 62
     7
370
    25
100
AcDbCircle
 10
-23.25
 20
40.3
 30
0.0
 40
0.900000000000027
100
AcDbArc
 50
180.0
 51
270.0
  0
ARC
  5
159
330
1F
100
AcDbEntity
  8
0
  6
Continuous
 62
     7
370
    25
100
AcDbCircle
 10
23.25
 20
40.3
 30
0.0
 40
0.9000000000000199
100
AcDbArc
 50
270.0
 51
0.0
  0
ARC
  5
15A
330
1F
100
AcDbEntity
  8
0
  6
Continuous
 62
     7
370
    25
100
AcDbCircle
 10
101.0
 20
36.5
 30
0.0
 40
1.000000000000053
100
AcDbArc
 50
104.4775121859
 51
255.5224878141
  0
ARC
  5
15B
330
1F
100
AcDbEntity
  8
0
  6
Continuous
 62
     7
370
    25
100
AcDbCircle
 10
119.0
 20
36.5
 30
0.0
 40
1.000000000000042
100
AcDbArc
 50
284.4775121859
 51
75.5224878141
  0
ARC
  5
15C
330
1F
100
AcDbEntity
  8
0
  6
Continuous
 62
     7
370
    25
100
AcDbCircle
 10
19.0486673478
 20
65.5
 30
0.0
 40
0.2000000000004292
100
AcDbArc
 50
270.0000000002
 51
0.7635421487
  0
ARC
  5
15D
330
1F
100
AcDbEntity
  8
0
  6
Continuous
 62
     7
370
    25
100
AcDbCircle
 10
-19.0486673478
 20
65.5
 30
0.0
 40
0.200000000000415
100
AcDbArc
 50
179.2364578513
 51
269.9999999998
  0
ARC
  5
15E
330
1F
100
AcDbEntity
  8
0
  6
Continuous
 62
     7
370
    25
100
AcDbCircle
 10
4.0416666668
 20
65.3
 30
0.0
 40
15.20833333324848
100
AcDbArc
 50
0.7635421487
 51
33.4020058404
  0
ARC
  5
15F
330
1F
100
AcDbEntity
  8
0
  6
Continuous
 62
     7
370
    25
100
AcDbCircle
 10
22.0
 20
95.6
 30
0.0
 40
0.5000000000000067
100
AcDbArc
 50
360.0
 51
90.0000094045
  0
ARC
  5
160
330
1F
100
AcDbEntity
  8
0
  6
Continuous
 62
     7
370
    25
100
AcDbCircle
 10
-22.0
 20
95.6
 30
0.0
 40
0.5000000000000213
100
AcDbArc
 50
89.9999905955
 51
180.0
  0
ARC
  5
161
330
1F
100
AcDbEntity
  8
0
  6
Continuous
 62
     7
370
    25
100
AcDbCircle
 10
-78.5
 20
78.1
 30
0.0
 40
0.5000000000001013
100
AcDbArc
 50
179.9999722506
 51
270.0
  0
ARC
  5
162
330
1F
100
AcDbEntity
  8
0
  6
Continuous
 62
     7
370
    25
100
AcDbCircle
 10
-78.5
 20
87.1
 30
0.0
 40
0.5000000000001155
100
AcDbArc
 50
90.0
 51
180.0000277494
  0
SPLINE
  5
1FB
330
23
100
AcDbEntity
 67
     1
  8
0
  6
Continuous
 62
     7
370
    25
100
AcDbSpline
210
0.0
220
0.0
230
1.0
 70
     8
 71
     3
 72
    11
 73
     7
 74
     0
 42
0.000000001
 43
0.00000001
 40
0.0
 40
0.0
 40
0.0
 40
0.0
 40
0.2950215144630223
 40
0.6352867345446843
 40
0.9796003062200463
 40
1.0
 40
1.0
 40
1.0
 40
1.0
 10
-117.4860897336537
 20
-35.00164913662772
 30
0.0
 10
-117.4755442040671
 20
-35.22239711719811
 30
0.0
 10
-117.4528359108523
 20
-35.69774639465385
 30
0.0
 10
-117.1735214945387
 20
-36.37260816016836
 30
0.0
 10
-116.9173885858485
 20
-36.82650697680585
 30
0.0
 10
-116.7288608098532
 20
-37.01605980392423
 30
0.0
 10
-116.7183157892477
 20
-37.02666215923892
 30
0.0
  0
SPLINE
  5
1FC
330
23
100
AcDbEntity
 67
     1
  8
0
  6
Continuous
 62
     7
370
    25
100
AcDbSpline
210
0.0
220
0.0
230
1.0
 70
     8
 71
     3
 72
    11
 73
     7
 74
     0
 42
0.000000001
 43
0.00000001
 40
0.0
 40
0.0
 40
0.0
 40
0.0
 40
0.3000500367629863
 40
0.6260556109177137
 40
0.9433094639286628
 40
0.9999999999999999
 40
0.9999999999999999
 40
0.9999999999999999
 40
0.9999999999999999
 10
-103.3021841040696
 20
-37.04248916588974
 30
0.0
 10
-103.1598933488548
 20
-36.86215125703508
 30
0.0
 10
-102.8630031146627
 20
-36.485875483442
 30
0.0
 10
-102.6009951146074
 20
-35.80677088670102
 30
0.0
 10
-102.4753276775885
 20
-35.2636863295571
 30
0.0
 10
-102.5094623438821
 20
-34.9753363260644
 30
0.0
 10
-102.5146372110209
 20
-34.93162202856072
 30
0.0
  0
SPLINE
  5
20F
330
23
100
AcDbEntity
 67
     1
  8
0
  6
Continuous
 62
     7
370
    25
100
AcDbSpline
210
0.0
220
0.0
230
1.0
 70
     8
 71
     3
 72
    12
 73
     8
 74
     0
 42
0.000000001
 43
0.00000001
 40
0.0
 40
0.0
 40
0.0
 40
0.0
 40
0.1307428548496183
 40
0.2601991069630538
 40
0.5130959411304689
 40
0.759167729490138
 40
1.0
 40
1.0
 40
1.0
 40
1.0
 10
-118.1617783588483
 20
-35.61870544381948
 30
0.0
 10
-118.1618620972597
 20
-35.59940171588013
 30
0.0
 10
-118.162028750037
 20
-35.56098422242204
 30
0.0
 10
-118.1594980921756
 20
-35.47952796917846
 30
0.0
 10
-118.1523509212778
 20
-35.37903345363038
 30
0.0
 10
-118.1377115810303
 20
-35.27414847330411
 30
0.0
 10
-118.1239956306724
 20
-35.23359582943448
 30
0.0
 10
-118.1172114533654
 20
-35.21353769863768
 30
0.0
  0
SPLINE
  5
210
330
23
100
AcDbEntity
 67
     1
  8
0
  6
Continuous
 62
     7
370
    25
100
AcDbSpline
210
0.0
220
0.0
230
1.0
 70
     8
 71
     3
 72
    12
 73
     8
 74
     0
 42
0.000000001
 43
0.00000001
 40
0.0
 40
0.0
 40
0.0
 40
0.0
 40
0.2408306848171276
 40
0.4869010466678912
 40
0.7398008551720497
 40
0.8692561678382349
 40
1.0
 40
1.0
 40
1.0
 40
1.0
 10
-101.8827877677518
 20
-35.21353909656888
 30
0.0
 10
-101.8760034607677
 20
-35.23359717390383
 30
0.0
 10
-101.8622872427783
 20
-35.27414972581786
 30
0.0
 10
-101.8476488062954
 20
-35.37903361224546
 30
0.0
 10
-101.8405010697166
 20
-35.47952773967531
 30
0.0
 10
-101.8379715080789
 20
-35.56098423091022
 30
0.0
 10
-101.8381378487674
 20
-35.59940158203624
 30
0.0
 10
-101.8382214309755
 20
-35.6187053799447
 30
0.0
  0
SPLINE
  5
221
330
23
100
AcDbEntity
 67
     1
  8
0
  6
Continuous
 62
     7
370
    25
100
AcDbSpline
210
0.0
220
0.0
230
1.0
 70
     8
 71
     3
 72
    13
 73
     9
 74
     0
 42
0.000000001
 43
0.00000001
 40
0.0
 40
0.0
 40
0.0
 40
0.0
 40
0.1230614188072705
 40
0.2470369692225895
 40
0.371728265186365
 40
0.4969161768915752
 40
0.7472405993869757
 40
0.9999999999999999
 40
0.9999999999999999
 40
0.9999999999999999
 40
0.9999999999999999
 10
-117.6421802865205
 20
-38.30589229751813
 30
0.0
 10
-117.6333184306344
 20
-38.31259490944325
 30
0.0
 10
-117.6155288907363
 20
-38.32604992200449
 30
0.0
 10
-117.5886150540817
 20
-38.35747112740697
 30
0.0
 10
-117.5630414514184
 20
-38.39592804348981
 30
0.0
 10
-117.5326496497943
 20
-38.45534706922393
 30
0.0
 10
-117.5025496671396
 20
-38.54214709774691
 30
0.0
 10
-117.4984092363308
 20
-38.6099808157219
 30
0.0
 10
-117.4963290008681
 20
-38.64406183584052
 30
0.0
  0
SPLINE
  5
222
330
23
100
AcDbEntity
 67
     1
  8
0
  6
Continuous
 62
     7
370
    25
100
AcDbSpline
210
0.0
220
0.0
230
1.0
 70
     8
 71
     3
 72
    13
 73
     9
 74
     0
 42
0.000000001
 43
0.00000001
 40
0.0
 40
0.0
 40
0.0
 40
0.0
 40
0.2527603706479208
 40
0.5030814403031457
 40
0.6282702556462243
 40
0.7529604552450202
 40
0.8769332103270677
 40
1.0
 40
1.0
 40
1.0
 40
1.0
 10
-102.5036708544523
 20
-38.64406204388712
 30
0.0
 10
-102.5015906159247
 20
-38.60998084763673
 30
0.0
 10
-102.4974502145162
 20
-38.54214736071415
 30
0.0
 10
-102.467350444867
 20
-38.45534706758126
 30
0.0
 10
-102.4369585284995
 20
-38.39592872515134
 30
0.0
 10
-102.4113852162868
 20
-38.35747168028214
 30
0.0
 10
-102.3844707664184
 20
-38.32604934217663
 30
0.0
 10
-102.366681656297
 20
-38.31259488874232
 30
0.0
 10
-102.3578197201405
 20
-38.30589233270982
 30
0.0
  0
SPLINE
  5
233
330
23
100
AcDbEntity
 67
     1
  8
0
  6
Continuous
 62
     7
370
    25
100
AcDbSpline
210
0.0
220
0.0
230
1.0
 70
     8
 71
     3
 72
    12
 73
     8
 74
     0
 42
0.000000001
 43
0.00000001
 40
0.0
 40
0.0
 40
0.0
 40
0.0
 40
0.1397740408238244
 40
0.2781274307255649
 40
0.5486844526336982
 40
0.8124819326394966
 40
1.0
 40
1.0
 40
1.0
 40
1.0
 10
-111.792798567615
 20
-40.08749134823642
 30
0.0
 10
-111.7770918449858
 20
-40.08971270325382
 30
0.0
 10
-111.7458380414596
 20
-40.09413283563375
 30
0.0
 10
-111.6868131781248
 20
-40.11579114595493
 30
0.0
 10
-111.6241766070192
 20
-40.1588873527502
 30
0.0
 10
-111.5768674189672
 20
-40.22276870120756
 30
0.0
 10
-111.5720829681484
 20
-40.26699478716426
 30
0.0
 10
-111.5700950663884
 20
-40.28537037872967
 30
0.0
  0
SPLINE
  5
234
330
23
100
AcDbEntity
 67
     1
  8
0
  6
Continuous
 62
     7
370
    25
100
AcDbSpline
210
0.0
220
0.0
230
1.0
 70
     8
 71
     3
 72
    12
 73
     8
 74
     0
 42
0.000000001
 43
0.00000001
 40
0.0
 40
0.0
 40
0.0
 40
0.0
 40
0.187502740860526
 40
0.451302215347281
 40
0.721864691726983
 40
0.8602178215105872
 40
0.9999999999999999
 40
0.9999999999999999
 40
0.9999999999999999
 40
0.9999999999999999
 10
-108.4299044090704
 20
-40.28536534336519
 30
0.0
 10
-108.427916677529
 20
-40.26699151019863
 30
0.0
 10
-108.4231323866751
 20
-40.22276734806407
 30
0.0
 10
-108.3758239669179
 20
-40.15888759902191
 30
0.0
 10
-108.3131877932874
 20
-40.11579189782922
 30
0.0
 10
-108.2541628351296
 20
-40.09413230200276
 30
0.0
 10
-108.2229086268741
 20
-40.08971270593743
 30
0.0
 10
-108.2072012312757
 20
-40.08749155404595
 30
0.0
  0
LWPOLYLINE
  5
24A
330
23
100
AcDbEntity
 67
     1
  8
0
  6
Continuous
 62
     7
370
    25
100
AcDbPolyline
 90
        4
 70
   128
 43
0.0
 10
-111.256184382
 20
-33.1591395927
 10
-111.2584517567
 20
-33.1586030027
 10
-111.2640904482
 20
-33.1519040471
 10
-111.2699544915
 20
-33.1378155004
  0
LWPOLYLINE
  5
24B
330
23
100
AcDbEntity
 67
     1
  8
0
  6
Continuous
 62
     7
370
    25
100
AcDbPolyline
 90
        4
 70
   128
 43
0.0
 10
-108.743815618
 20
-33.1591395927
 10
-108.7415482433
 20
-33.1586030027
 10
-108.7359095518
 20
-33.1519040471
 10
-108.7300455085
 20
-33.1378155004
  0
SPLINE
  5
24F
330
23
100
AcDbEntity
 67
     1
  8
0
  6
Continuous
 62
     7
370
    25
100
AcDbSpline
210
0.0
220
0.0
230
1.0
 70
     8
 71
     3
 72
    10
 73
     6
 74
     0
 42
0.000000001
 43
0.00000001
 40
0.0
 40
0.0
 40
0.0
 40
0.0
 40
0.5
 40
0.5
 40
1.0
 40
1.0
 40
1.0
 40
1.0
 10
-111.624495874536
 20
-39.53334836588125
 30
0.0
 10
-111.523846280028
 20
-39.54248133334919
 30
0.0
 10
-111.426988860855
 20
-39.58734586333726
 30
0.0
 10
-111.28346610825
 20
-39.7287251398546
 30
0.0
 10
-111.239894980345
 20
-39.8228490290435
 30
0.0
 10
-111.239896343119
 20
-39.92053830042227
 30
0.0
  0
SPLINE
  5
251
330
23
100
AcDbEntity
 67
     1
  8
0
  6
Continuous
 62
     7
370
    25
100
AcDbSpline
210
0.0
220
0.0
230
1.0
 70
     8
 71
     3
 72
    10
 73
     6
 74
     0
 42
0.000000001
 43
0.00000001
 40
0.0
 40
0.0
 40
0.0
 40
0.0
 40
0.5
 40
0.5
 40
1.0
 40
1.0
 40
1.0
 40
1.0
 10
-114.890632457415
 20
-39.23402089172
 30
0.0
 10
-114.890636654175
 20
-39.13654607776214
 30
0.0
 10
-114.855262104578
 20
-39.05704632124802
 30
0.0
 10
-114.736930480305
 20
-38.96492782061269
 30
0.0
 10
-114.656201882842
 20
-38.95344120267882
 30
0.0
 10
-114.570728624872
 20
-38.97931341477197
 30
0.0
  0
SPLINE
  5
255
330
23
100
AcDbEntity
 67
     1
  8
0
  6
Continuous
 62
     7
370
    25
100
AcDbSpline
210
0.0
220
0.0
230
1.0
 70
     8
 71
     3
 72
    10
 73
     6
 74
     0
 42
0.000000001
 43
0.00000001
 40
0.0
 40
0.0
 40
0.0
 40
0.0
 40
0.5
 40
0.5
 40
1.0
 40
1.0
 40
1.0
 40
1.0
 10
-116.868111300602
 20
-37.93632189083237
 30
0.0
 10
-116.811225594893
 20
-37.97507921748893
 30
0.0
 10
-116.754966909037
 20
-38.0487370812842
 30
0.0
 10
-116.670381139311
 20
-38.23301194237628
 30
0.0
 10
-116.644111998675
 20
-38.34026922577356
 30
0.0
 10
-116.644110746625
 20
-38.43795847633051
 30
0.0
  0
SPLINE
  5
257
330
23
100
AcDbEntity
 67
     1
  8
0
  6
Continuous
 62
     7
370
    25
100
AcDbSpline
210
0.0
220
0.0
230
1.0
 70
     8
 71
     3
 72
    10
 73
     6
 74
     0
 42
0.000000001
 43
0.00000001
 40
0.0
 40
0.0
 40
0.0
 40
0.0
 40
0.5
 40
0.5
 40
1.0
 40
1.0
 40
1.0
 40
1.0
 10
-118.156295076543
 20
-36.78055892649725
 30
0.0
 10
-118.156296838161
 20
-36.68308299207268
 30
0.0
 10
-118.1498721034566
 20
-36.61144355010139
 30
0.0
 10
-118.1259835724937
 20
-36.54606941058814
 30
0.0
 10
-118.108681720109
 20
-36.55301732295061
 30
0.0
 10
-118.08848278979
 20
-36.59876108658111
 30
0.0
  0
SPLINE
  5
25E
330
23
100
AcDbEntity
 67
     1
  8
0
  6
Continuous
 62
     7
370
    25
100
AcDbSpline
210
0.0
220
0.0
230
1.0
 70
     8
 71
     3
 72
    10
 73
     6
 74
     0
 42
0.000000001
 43
0.00000001
 40
0.0
 40
0.0
 40
0.0
 40
0.0
 40
0.5
 40
0.5
 40
1.0
 40
1.0
 40
1.0
 40
1.0
 10
-101.911519725337
 20
-36.59876085775927
 30
0.0
 10
-101.891318667265
 20
-36.55302877703866
 30
0.0
 10
-101.8740230447116
 20
-36.54606891059565
 30
0.0
 10
-101.8501226348397
 20
-36.61143966191341
 30
0.0
 10
-101.843701681896
 20
-36.68286762133435
 30
0.0
 10
-101.843704815333
 20
-36.78055893395021
 30
0.0
  0
SPLINE
  5
260
330
23
100
AcDbEntity
 67
     1
  8
0
  6
Continuous
 62
     7
370
    25
100
AcDbSpline
210
0.0
220
0.0
230
1.0
 70
     8
 71
     3
 72
    10
 73
     6
 74
     0
 42
0.000000001
 43
0.00000001
 40
0.0
 40
0.0
 40
0.0
 40
0.0
 40
0.5
 40
0.5
 40
1.0
 40
1.0
 40
1.0
 40
1.0
 10
-103.355889341451
 20
-38.43795844690486
 30
0.0
 10
-103.355891046909
 20
-38.34048631249787
 30
0.0
 10
-103.329602444253
 20
-38.2329920706729
 30
0.0
 10
-103.245054304473
 20
-38.04876808457618
 30
0.0
 10
-103.18879422147
 20
-37.97508990730774
 30
0.0
 10
-103.13188656471
 20
-37.93632253662496
 30
0.0
  0
SPLINE
  5
264
330
23
100
AcDbEntity
 67
     1
  8
0
  6
Continuous
 62
     7
370
    25
100
AcDbSpline
210
0.0
220
0.0
230
1.0
 70
     8
 71
     3
 72
    10
 73
     6
 74
     0
 42
0.000000001
 43
0.00000001
 40
0.0
 40
0.0
 40
0.0
 40
0.0
 40
0.5
 40
0.5
 40
1.0
 40
1.0
 40
1.0
 40
1.0
 10
-105.42927119164
 20
-38.97931353987713
 30
0.0
 10
-105.343821692341
 20
-38.95344656577221
 30
0.0
 10
-105.263100091338
 20
-38.96492032729207
 30
0.0
 10
-105.144714037823
 20
-39.05704790891794
 30
0.0
 10
-105.10936429845
 20
-39.13633080618669
 30
0.0
 10
-105.109367477751
 20
-39.23402093169729
 30
0.0
  0
SPLINE
  5
266
330
23
100
AcDbEntity
 67
     1
  8
0
  6
Continuous
 62
     7
370
    25
100
AcDbSpline
210
0.0
220
0.0
230
1.0
 70
     8
 71
     3
 72
    10
 73
     6
 74
     0
 42
0.000000001
 43
0.00000001
 40
0.0
 40
0.0
 40
0.0
 40
0.0
 40
0.5
 40
0.5
 40
1.0
 40
1.0
 40
1.0
 40
1.0
 10
-108.760103673316
 20
-39.92053825134337
 30
0.0
 10
-108.760107846814
 20
-39.82306501140507
 30
0.0
 10
-108.716505413711
 20
-39.72871371051851
 30
0.0
 10
-108.573047756774
 20
-39.58736599153477
 30
0.0
 10
-108.476182131793
 20
-39.54248295372987
 30
0.0
 10
-108.375503621479
 20
-39.5333495078151
 30
0.0
  0
SPLINE
  5
282
330
23
100
AcDbEntity
 67
     1
  8
0
  6
Continuous
 62
     7
370
    25
100
AcDbSpline
210
0.0
220
0.0
230
1.0
 70
     8
 71
     3
 72
     8
 73
     4
 74
     0
 42
0.000000001
 43
0.00000001
 40
0.0
 40
0.0
 40
0.0
 40
0.0
 40
1.0
 40
1.0
 40
1.0
 40
1.0
 10
-116.569814151931
 20
-34.79905751566188
 30
0.0
 10
-116.623289882925
 20
-34.76149686507036
 30
0.0
 10
-116.677206751598
 20
-34.72293764727401
 30
0.0
 10
-116.731572075802
 20
-34.68338875073358
 30
0.0
  0
LWPOLYLINE
  5
283
330
23
100
AcDbEntity
 67
     1
  8
0
  6
Continuous
 62
     7
370
    25
100
AcDbPolyline
 90
        9
 70
   128
 43
0.0
 10
-102.9153634695
 20
-35.8969086867
 10
-102.9413905428
 20
-36.3047874797
 10
-103.181763022
 20
-36.8885644153
 10
-103.6543223839
 20
-37.4423494383
 10
-104.3429761862
 20
-37.947284064
 10
-105.2242731497
 20
-38.3861733492
 10
-106.2682017632
 20
-38.7440714457
 10
-107.4392122898
 20
-39.0087905632
 10
-107.6923849415
 20
-39.0508223269
  0
LWPOLYLINE
  5
284
330
23
100
AcDbEntity
 67
     1
  8
0
  6
Continuous
 62
     7
370
    25
100
AcDbPolyline
 90
        9
 70
   128
 43
0.0
 10
-112.3076150965
 20
-39.0508223209
 10
-112.5509319401
 20
-39.0105201309
 10
-113.7183132444
 20
-38.7478526025
 10
-114.760088238
 20
-38.3926263038
 10
-115.6410652885
 20
-37.9568409406
 10
-116.3314845909
 20
-37.4552175405
 10
-116.8080234674
 20
-36.9047011697
 10
-117.0545842183
 20
-36.3238885214
 10
-117.0888033257
 20
-35.9962601315
  0
LWPOLYLINE
  5
288
330
23
100
AcDbEntity
 67
     1
  8
0
  6
Continuous
 62
     7
370
    25
100
AcDbPolyline
 90
       14
 70
   128
 43
0.0
 10
-104.026038938
 20
-37.6390438862
 10
-104.3864771472
 20
-37.9012366025
 10
-105.2098043825
 20
-38.3439214735
 10
-106.1999844079
 20
-38.7094404514
 10
-107.3225271287
 20
-38.9850617259
 10
-108.5383319738
 20
-39.1611848169
 10
-109.805049852
 20
-39.2316749791
 10
-111.0785582621
 20
-39.194076889
 10
-112.3144981741
 20
-39.0497001688
 10
-113.4698191492
 20
-38.8035737694
 10
-114.5042788794
 20
-38.4642708012
 10
-115.3818449129
 20
-38.0436099146
 10
-116.0719497421
 20
-37.5562436307
 10
-116.1622522124
 20
-37.4741371974
  0
LWPOLYLINE
  5
28A
330
23
100
AcDbEntity
 67
     1
  8
0
  6
Continuous
 62
     7
370
    25
100
AcDbPolyline
 90
       17
 70
   128
 43
0.0
 10
-110.0
 20
-39.1248944194
 10
-108.7124038747
 20
-39.0673206384
 10
-107.4742893464
 20
-38.8968118235
 10
-106.3332364621
 20
-38.6199205328
 10
-105.3330952442
 20
-38.2472875434
 10
-104.5123005588
 20
-37.7932329321
 10
-103.9023950854
 20
-37.2752057629
 10
-103.5268171493
 20
-36.7131135295
 10
-103.4
 20
-36.1285571211
 10
-103.5268171493
 20
-35.5440007127
 10
-103.9023950854
 20
-34.9819084793
 10
-104.5123005588
 20
-34.4638813101
 10
-105.3330952442
 20
-34.0098266988
 10
-106.3332364621
 20
-33.6371937094
 10
-107.4742893464
 20
-33.3603024187
 10
-108.7124038747
 20
-33.1897936038
 10
-110.0
 20
-33.1322198228
  0
LWPOLYLINE
  5
28B
330
23
100
AcDbEntity
 67
     1
  8
0
  6
Continuous
 62
     7
370
    25
100
AcDbPolyline
 90
       17
 70
   128
 43
0.0
 10
-110.0
 20
-33.1322198228
 10
-111.256902846
 20
-33.1870561787
 10
-112.4678002093
 20
-33.349558112
 10
-113.5883705118
 20
-33.613777685
 10
-114.5775983499
 20
-33.9700438644
 10
-115.3992757506
 20
-34.4053165038
 10
-116.0233274655
 20
-34.9036636413
 10
-116.4269117926
 20
-35.4468446465
 10
-116.5952566339
 20
-36.0149778677
 10
-116.5222001881
 20
-36.5872683461
 10
-116.2104164862
 20
-37.1427689578
 10
-115.6713175157
 20
-37.6611471258
 10
-114.9246355164
 20
-38.1234290385
 10
-113.9977007358
 20
-38.512694134
 10
-112.9244410801
 20
-38.8146944306
 10
-111.7441402765
 20
-39.0183760356
 10
-110.5
 20
-39.1162837421
  0
LWPOLYLINE
  5
4D2
330
23
100
AcDbEntity
 67
     1
  8
0
  6
Continuous
 62
     7
370
    25
100
AcDbPolyline
 90
        3
 70
   128
 43
0.0
 10
-116.8710235533
 20
-35.0816167739
 10
-116.849437882
 20
-35.1200627932
 10
-116.8325057274
 20
-35.1502154984
  0
SPLINE
  5
4D3
330
23
100
AcDbEntity
 67
     1
  8
0
  6
Continuous
 62
     7
370
    25
100
AcDbSpline
210
0.0
220
0.0
230
1.0
 70
     8
 71
     3
 72
     8
 73
     4
 74
     0
 42
0.000000001
 43
0.00000001
 40
0.0
 40
0.0
 40
0.0
 40
0.0
 40
1.0
 40
1.0
 40
1.0
 40
1.0
 10
-116.871023553303
 20
-34.86514738106737
 30
0.0
 10
-116.871038119117
 20
-34.94004554065657
 30
0.0
 10
-116.871009392841
 20
-35.01218561715191
 30
0.0
 10
-116.871023553303
 20
-35.08161677389915
 30
0.0
  0
LWPOLYLINE
  5
4E7
330
23
100
AcDbEntity
 67
     1
  8
0
  6
Continuous
 62
     7
370
    25
100
AcDbPolyline
 90
        3
 70
   128
 43
0.0
 10
-119.1427441177
 20
-37.3899090823
 10
-119.1389457336
 20
-37.4244095194
 10
-119.1345107878
 20
-37.440228256
  0
LWPOLYLINE
  5
4E8
330
23
100
AcDbEntity
 67
     1
  8
0
  6
Continuous
 62
     7
370
    25
100
AcDbPolyline
 90
        3
 70
   128
 43
0.0
 10
-100.8572558823
 20
-37.3899090823
 10
-100.8610542664
 20
-37.4244095194
 10
-100.8654892122
 20
-37.440228256
  0
SPLINE
  5
4F2
330
23
100
AcDbEntity
 67
     1
  8
0
  6
Continuous
 62
     7
370
    25
100
AcDbSpline
210
0.0
220
0.0
230
1.0
 70
     8
 71
     3
 72
    10
 73
     6
 74
     0
 42
0.000000001
 43
0.00000001
 40
0.0
 40
0.0
 40
0.0
 40
0.0
 40
0.5
 40
0.5
 40
1.0
 40
1.0
 40
1.0
 40
1.0
 10
-118.284564644958
 20
-35.2840718488732
 30
0.0
 10
-118.295926614855
 20
-35.30691622809159
 30
0.0
 10
-118.3051135774246
 20
-35.34846516137771
 30
0.0
 10
-118.3166606125537
 20
-35.44733708021389
 30
0.0
 10
-118.319297952954
 20
-35.50405763185518
 30
0.0
 10
-118.319294320998
 20
-35.55169193079136
 30
0.0
  0
SPLINE
  5
4F3
330
23
100
AcDbEntity
 67
     1
  8
0
  6
Continuous
 62
     7
370
    25
100
AcDbSpline
210
0.0
220
0.0
230
1.0
 70
     8
 71
     3
 72
    10
 73
     6
 74
     0
 42
0.000000001
 43
0.00000001
 40
0.0
 40
0.0
 40
0.0
 40
0.0
 40
0.5
 40
0.5
 40
1.0
 40
1.0
 40
1.0
 40
1.0
 10
-101.680705673555
 20
-35.55169194483053
 30
0.0
 10
-101.68070220425
 20
-35.50417772926093
 30
0.0
 10
-101.6833425910696
 20
-35.44731844389625
 30
0.0
 10
-101.6948846967367
 20
-35.34847181231763
 30
0.0
 10
-101.704075826757
 20
-35.3069112097498
 30
0.0
 10
-101.715435354921
 20
-35.28407290139382
 30
0.0
  0
SPLINE
  5
51F
330
23
100
AcDbEntity
 67
     1
  8
0
  6
Continuous
 62
     7
370
    25
100
AcDbSpline
210
0.0
220
0.0
230
1.0
 70
     8
 71
     3
 72
    10
 73
     6
 74
     0
 42
0.000000001
 43
0.00000001
 40
0.0
 40
0.0
 40
0.0
 40
0.0
 40
0.4846538230114285
 40
0.9693076460229441
 40
1.0
 40
1.0
 40
1.0
 40
1.0
 10
-117.6925563277882
 20
-38.19332959977905
 30
0.0
 10
-117.6897502014866
 20
-38.21533903344548
 30
0.0
 10
-117.6841379488833
 20
-38.25935790077836
 30
0.0
 10
-117.6608410636278
 20
-38.29787142251462
 30
0.0
 10
-117.6415711636844
 20
-38.30552299405075
 30
0.0
 10
-117.6404235106765
 20
-38.30597869694049
 30
0.0
  0
SPLINE
  5
54C
330
23
100
AcDbEntity
 67
     1
  8
0
  6
Continuous
 62
     7
370
    25
100
AcDbSpline
210
0.0
220
0.0
230
1.0
 70
     8
 71
     3
 72
    10
 73
     6
 74
     0
 42
0.000000001
 43
0.00000001
 40
0.0
 40
0.0
 40
0.0
 40
0.0
 40
0.5
 40
0.5
 40
1.0
 40
1.0
 40
1.0
 40
1.0
 10
-117.034610968495
 20
-38.1648278435968
 30
0.0
 10
-117.007051297798
 20
-38.18462626101753
 30
0.0
 10
-116.97769743281
 20
-38.22238282802375
 30
0.0
 10
-116.93377854867
 20
-38.31516725230754
 30
0.0
 10
-116.919898461732
 20
-38.36977361645721
 30
0.0
 10
-116.91989554743
 20
-38.41740668437411
 30
0.0
  0
SPLINE
  5
54D
330
23
100
AcDbEntity
 67
     1
  8
0
  6
Continuous
 62
     7
370
    25
100
AcDbSpline
210
0.0
220
0.0
230
1.0
 70
     8
 71
     3
 72
    10
 73
     6
 74
     0
 42
0.000000001
 43
0.00000001
 40
0.0
 40
0.0
 40
0.0
 40
0.0
 40
0.5
 40
0.5
 40
1.0
 40
1.0
 40
1.0
 40
1.0
 10
-103.08010447056
 20
-38.41740669605478
 30
0.0
 10
-103.080102292506
 20
-38.36989354246474
 30
0.0
 10
-103.0662111393003
 20
-38.31514995271873
 30
0.0
 10
-103.0223076157433
 20
-38.22238885413085
 30
0.0
 10
-102.992945777836
 20
-38.18462133345794
 30
0.0
 10
-102.965389031827
 20
-38.16482889607928
 30
0.0
  0
SPLINE
  5
54E
330
23
100
AcDbEntity
 67
     1
  8
0
  6
Continuous
 62
     7
370
    25
100
AcDbSpline
210
0.0
220
0.0
230
1.0
 70
     8
 71
     3
 72
    10
 73
     6
 74
     0
 42
0.000000001
 43
0.00000001
 40
0.0
 40
0.0
 40
0.0
 40
0.0
 40
0.5
 40
0.5
 40
1.0
 40
1.0
 40
1.0
 40
1.0
 10
-117.411515380651
 20
-38.57368650364767
 30
0.0
 10
-117.41151869353
 20
-38.52762107056588
 30
0.0
 10
-117.4244415086563
 20
-38.47418786218534
 30
0.0
 10
-117.4677200755853
 20
-38.38084860420871
 30
0.0
 10
-117.497709808862
 20
-38.34145365263079
 30
0.0
 10
-117.526230785867
 20
-38.32110894063403
 30
0.0
  0
SPLINE
  5
54F
330
23
100
AcDbEntity
 67
     1
  8
0
  6
Continuous
 62
     7
370
    25
100
AcDbSpline
210
0.0
220
0.0
230
1.0
 70
     8
 71
     3
 72
    10
 73
     6
 74
     0
 42
0.000000001
 43
0.00000001
 40
0.0
 40
0.0
 40
0.0
 40
0.0
 40
0.5
 40
0.5
 40
1.0
 40
1.0
 40
1.0
 40
1.0
 10
-102.473769213758
 20
-38.32110767291887
 30
0.0
 10
-102.501783678115
 20
-38.34114098613
 30
0.0
 10
-102.5313463786329
 20
-38.3794042567248
 30
0.0
 10
-102.5750166051914
 20
-38.47248038990093
 30
0.0
 10
-102.5884764345427
 20
-38.52678933859312
 30
0.0
 10
-102.58848458659
 20
-38.57368648241253
 30
0.0
  0
LWPOLYLINE
  5
569
330
23
100
AcDbEntity
 67
     1
  8
0
  6
Continuous
 62
     7
370
    25
100
AcDbPolyline
 90
        5
 70
   128
 43
0.0
 10
-108.2094553022
 20
-40.0877126609
 10
-108.2101975806
 20
-40.0883435864
 10
-108.2169529668
 20
-40.0894168002
 10
-108.2242830409
 20
-40.0828531048
 10
-108.2319062428
 20
-40.0688977082
  0
SPLINE
  5
583
330
23
100
AcDbEntity
 67
     1
  8
0
  6
Continuous
 62
     7
370
    25
100
AcDbSpline
210
0.0
220
0.0
230
1.0
 70
     8
 71
     3
 72
    10
 73
     6
 74
     0
 42
0.000000001
 43
0.00000001
 40
0.0
 40
0.0
 40
0.0
 40
0.0
 40
0.5
 40
0.5
 40
1.0
 40
1.0
 40
1.0
 40
1.0
 10
-111.663877592707
 20
-39.80057011198026
 30
0.0
 10
-111.613540362763
 20
-39.80572009345194
 30
0.0
 10
-111.5628407661916
 20
-39.82842268524338
 30
0.0
 10
-111.4891830494667
 20
-39.89909694470096
 30
0.0
 10
-111.466916301874
 20
-39.94690593196231
 30
0.0
 10
-111.466915812382
 20
-39.99453835980028
 30
0.0
  0
SPLINE
  5
584
330
23
100
AcDbEntity
 67
     1
  8
0
  6
Continuous
 62
     7
370
    25
100
AcDbSpline
210
0.0
220
0.0
230
1.0
 70
     8
 71
     3
 72
    10
 73
     6
 74
     0
 42
0.000000001
 43
0.00000001
 40
0.0
 40
0.0
 40
0.0
 40
0.0
 40
0.5
 40
0.5
 40
1.0
 40
1.0
 40
1.0
 40
1.0
 10
-108.533084218506
 20
-39.99453836228948
 30
0.0
 10
-108.533084607579
 20
-39.94702554511593
 30
0.0
 10
-108.5107991634983
 20
-39.89908492911511
 30
0.0
 10
-108.4371680993804
 20
-39.82842609481145
 30
0.0
 10
-108.386453059967
 20
-39.80571695261558
 30
0.0
 10
-108.336122407865
 20
-39.80057116429295
 30
0.0
  0
SPLINE
  5
585
330
23
100
AcDbEntity
 67
     1
  8
0
  6
Continuous
 62
     7
370
    25
100
AcDbSpline
210
0.0
220
0.0
230
1.0
 70
     8
 71
     3
 72
    10
 73
     6
 74
     0
 42
0.000000001
 43
0.00000001
 40
0.0
 40
0.0
 40
0.0
 40
0.0
 40
0.5
 40
0.5
 40
1.0
 40
1.0
 40
1.0
 40
1.0
 10
-111.571132004989
 20
-40.2628645611106
 30
0.0
 10
-111.57113356546
 20
-40.21680004445721
 30
0.0
 10
-111.5919341335377
 20
-40.16970848531333
 30
0.0
 10
-111.6645505173277
 20
-40.09816315949446
 30
0.0
 10
-111.716220949984
 20
-40.07412432227161
 30
0.0
 10
-111.768093758071
 20
-40.06889758295097
 30
0.0
  0
SPLINE
  5
586
330
23
100
AcDbEntity
 67
     1
  8
0
  6
Continuous
 62
     7
370
    25
100
AcDbSpline
210
0.0
220
0.0
230
1.0
 70
     8
 71
     3
 72
    10
 73
     6
 74
     0
 42
0.000000001
 43
0.00000001
 40
0.0
 40
0.0
 40
0.0
 40
0.0
 40
0.5
 40
0.5
 40
1.0
 40
1.0
 40
1.0
 40
1.0
 10
-108.231906242778
 20
-40.06889770821876
 30
0.0
 10
-108.2828546846655
 20
-40.0740661731131
 30
0.0
 10
-108.3338617338321
 20
-40.0971929390094
 30
0.0
 10
-108.4071795297312
 20
-40.16826958895572
 30
0.0
 10
-108.4288641670236
 20
-40.21596965507967
 30
0.0
 10
-108.428867938766
 20
-40.26286455661273
 30
0.0
  0
LWPOLYLINE
  5
587
330
23
100
AcDbEntity
 67
     1
  8
0
  6
Continuous
 62
     7
370
    25
100
AcDbPolyline
 90
        4
 70
   128
 43
0.0
 10
-108.6119144344
 20
-41.0127507351
 10
-108.6142078542
 20
-41.0122159521
 10
-108.6199047591
 20
-41.0055210353
 10
-108.6258293425
 20
-40.9914366888
  0
LWPOLYLINE
  5
588
330
23
100
AcDbEntity
 67
     1
  8
0
  6
Continuous
 62
     7
370
    25
100
AcDbPolyline
 90
        4
 70
   128
 43
0.0
 10
-111.3880855656
 20
-41.0127507351
 10
-111.3857921458
 20
-41.0122159521
 10
-111.3800952409
 20
-41.0055210353
 10
-111.3741706575
 20
-40.9914366888
  0
LWPOLYLINE
  5
595
330
23
100
AcDbEntity
 67
     1
  8
0
  6
Continuous
 62
     7
370
    25
100
AcDbPolyline
 90
       22
 70
   128
 43
0.0
 10
-110.0
 20
-31.9365674957
 10
-111.6394649279
 20
-31.9923451824
 10
-113.2423069185
 20
-32.1584322609
 10
-114.7727211303
 20
-32.4311186204
 10
-116.1965206387
 20
-32.8043128983
 10
-117.4819001155
 20
-33.269678551
 10
-118.6001463072
 20
-33.8168200789
 10
-119.5262794416
 20
-34.4335152443
 10
-120.2396112351
 20
-35.1059880964
 10
-120.724207034
 20
-35.8192167028
 10
-120.969241769
 20
-36.557268715
 10
-120.969241769
 20
-37.3036572707
 10
-120.724207034
 20
-38.041709283
 10
-120.2396112351
 20
-38.7549378894
 10
-119.5262794416
 20
-39.4274107414
 10
-118.6001463072
 20
-40.0441059069
 10
-117.4819001155
 20
-40.5912474348
 10
-116.1965206387
 20
-41.0566130875
 10
-114.7727211303
 20
-41.4298073654
 10
-113.2423069185
 20
-41.7024937249
 10
-111.6394649279
 20
-41.8685808034
 10
-110.0
 20
-41.92435849
  0
LWPOLYLINE
  5
596
330
23
100
AcDbEntity
 67
     1
  8
0
  6
Continuous
 62
     7
370
    25
100
AcDbPolyline
 90
       22
 70
   128
 43
0.0
 10
-110.0
 20
-41.92435849
 10
-108.3605350721
 20
-41.8685808034
 10
-106.7576930815
 20
-41.7024937249
 10
-105.2272788697
 20
-41.4298073654
 10
-103.8034793613
 20
-41.0566130875
 10
-102.5180998845
 20
-40.5912474348
 10
-101.3998536928
 20
-40.0441059069
 10
-100.4737205583
 20
-39.4274107414
 10
-99.7603887649
 20
-38.7549378894
 10
-99.275792966
 20
-38.041709283
 10
-99.030758231
 20
-37.3036572707
 10
-99.030758231
 20
-36.557268715
 10
-99.275792966
 20
-35.8192167028
 10
-99.7603887649
 20
-35.1059880964
 10
-100.4737205583
 20
-34.4335152443
 10
-101.3998536928
 20
-33.8168200789
 10
-102.5180998845
 20
-33.269678551
 10
-103.8034793613
 20
-32.8043128983
 10
-105.2272788697
 20
-32.4311186204
 10
-106.7576930815
 20
-32.1584322609
 10
-108.3605350721
 20
-31.9923451824
 10
-110.0
 20
-31.9365674957
  0
LWPOLYLINE
  5
597
330
23
100
AcDbEntity
 67
     1
  8
0
  6
Continuous
 62
     7
370
    25
100
AcDbPolyline
 90
       23
 70
   128
 43
0.0
 10
-110.0
 20
-31.482576996
 10
-111.7077780593
 20
-31.5380286203
 10
-113.3807906821
 20
-31.7032546578
 10
-114.984980156
 20
-31.9748915831
 10
-116.4876898094
 20
-32.3474096516
 10
-117.8583288073
 20
-32.8132254696
 10
-119.0689948922
 20
-33.3628563705
 10
-120.0950423939
 20
-33.9851134541
 10
-120.9155839442
 20
-34.6673293607
 10
-121.5139156833
 20
-35.3956161416
 10
-121.8778573025
 20
-36.1551479783
 10
-121.9999999999
 20
-36.9304629929
 10
-121.8778573025
 20
-37.7057780075
 10
-121.5139156833
 20
-38.4653098442
 10
-120.9155839442
 20
-39.1935966251
 10
-120.0950423939
 20
-39.8758125316
 10
-119.0689948922
 20
-40.4980696152
 10
-117.8583288073
 20
-41.0477005161
 10
-116.4876898094
 20
-41.5135163342
 10
-114.984980156
 20
-41.8860344027
 10
-113.3807906821
 20
-42.1576713279
 10
-111.7077780593
 20
-42.3228973655
 10
-110.0
 20
-42.3783489898
  0
LWPOLYLINE
  5
598
330
23
100
AcDbEntity
 67
     1
  8
0
  6
Continuous
 62
     7
370
    25
100
AcDbPolyline
 90
       23
 70
   128
 43
0.0
 10
-110.0
 20
-42.3783489898
 10
-108.2922219407
 20
-42.3228973655
 10
-106.6192093179
 20
-42.1576713279
 10
-105.015019844
 20
-41.8860344027
 10
-103.5123101905
 20
-41.5135163342
 10
-102.1416711926
 20
-41.0477005162
 10
-100.9310051077
 20
-40.4980696152
 10
-99.904957606
 20
-39.8758125316
 10
-99.0844160557
 20
-39.1935966251
 10
-98.4860843166
 20
-38.4653098442
 10
-98.1221426974
 20
-37.7057780075
 10
-98.0
 20
-36.9304629929
 10
-98.1221426974
 20
-36.1551479783
 10
-98.4860843166
 20
-35.3956161416
 10
-99.0844160557
 20
-34.6673293607
 10
-99.904957606
 20
-33.9851134541
 10
-100.9310051077
 20
-33.3628563705
 10
-102.1416711926
 20
-32.8132254696
 10
-103.5123101905
 20
-32.3474096515
 10
-105.015019844
 20
-31.9748915831
 10
-106.6192093179
 20
-31.7032546578
 10
-108.2922219407
 20
-31.5380286202
 10
-110.0
 20
-31.482576996
  0
LWPOLYLINE
  5
59D
330
23
100
AcDbEntity
 67
     1
  8
0
  6
Continuous
 62
     7
370
    25
100
AcDbPolyline
 90
       22
 70
   128
 43
0.0
 10
-110.0
 20
-31.9365674957
 10
-108.3605350721
 20
-31.9923451824
 10
-106.7576930815
 20
-32.1584322609
 10
-105.2272788697
 20
-32.4311186204
 10
-103.8034793613
 20
-32.8043128983
 10
-102.5180998845
 20
-33.269678551
 10
-101.3998536929
 20
-33.8168200789
 10
-100.4737205584
 20
-34.4335152443
 10
-99.7603887649
 20
-35.1059880964
 10
-99.275792966
 20
-35.8192167028
 10
-99.030758231
 20
-36.557268715
 10
-99.030758231
 20
-37.3036572707
 10
-99.275792966
 20
-38.041709283
 10
-99.7603887649
 20
-38.7549378894
 10
-100.4737205584
 20
-39.4274107414
 10
-101.3998536929
 20
-40.0441059069
 10
-102.5180998845
 20
-40.5912474348
 10
-103.8034793613
 20
-41.0566130875
 10
-105.2272788697
 20
-41.4298073654
 10
-106.7576930815
 20
-41.7024937249
 10
-108.3605350721
 20
-41.8685808034
 10
-110.0
 20
-41.92435849
  0
LWPOLYLINE
  5
59E
330
23
100
AcDbEntity
 67
     1
  8
0
  6
Continuous
 62
     7
370
    25
100
AcDbPolyline
 90
       10
 70
   128
 43
0.0
 10
-110.0
 20
-32.5608044329
 10
-108.494318274
 20
-32.6146021808
 10
-107.0257114291
 20
-32.7746707454
 10
-105.63034144
 20
-33.0370687075
 10
-104.3425669467
 20
-33.3953349582
 10
-103.1940972311
 20
-33.8406477936
 10
-102.2132114291
 20
-34.3620421338
 10
-101.4240622047
 20
-34.9466795195
 10
-100.8460810307
 20
-35.5801642382
 10
-100.505379313
 20
-36.2136749616
  0
LWPOLYLINE
  5
59F
330
23
100
AcDbEntity
 67
     1
  8
0
  6
Continuous
 62
     7
370
    25
100
AcDbPolyline
 90
       10
 70
   128
 43
0.0
 10
-100.7132113451
 20
-38.0786355267
 10
-100.8460810307
 20
-38.2807617475
 10
-101.4240622047
 20
-38.9142464662
 10
-102.2132114291
 20
-39.498883852
 10
-103.1940972311
 20
-40.0202781921
 10
-104.3425669467
 20
-40.4655910275
 10
-105.63034144
 20
-40.8238572783
 10
-107.0257114291
 20
-41.0862552403
 10
-108.494318274
 20
-41.246323805
 10
-110.0
 20
-41.3001215529
  0
LWPOLYLINE
  5
5A0
330
23
100
AcDbEntity
 67
     1
  8
0
  6
Continuous
 62
     7
370
    25
100
AcDbPolyline
 90
        9
 70
   128
 43
0.0
 10
-110.0
 20
-41.3001215529
 10
-111.505681726
 20
-41.246323805
 10
-112.9742885709
 20
-41.0862552403
 10
-114.36965856
 20
-40.8238572783
 10
-115.6574330533
 20
-40.4655910275
 10
-116.8059027689
 20
-40.0202781921
 10
-117.7867885709
 20
-39.498883852
 10
-118.5759377953
 20
-38.9142464662
 10
-119.0534674737
 20
-38.4137932677
  0
LWPOLYLINE
  5
5A1
330
23
100
AcDbEntity
 67
     1
  8
0
  6
Continuous
 62
     7
370
    25
100
AcDbPolyline
 90
       10
 70
   128
 43
0.0
 10
-119.1837340869
 20
-35.6225563718
 10
-119.1539189693
 20
-35.5801642382
 10
-118.5759377953
 20
-34.9466795195
 10
-117.7867885709
 20
-34.3620421338
 10
-116.8059027689
 20
-33.8406477936
 10
-115.6574330533
 20
-33.3953349582
 10
-114.36965856
 20
-33.0370687075
 10
-112.9742885709
 20
-32.7746707454
 10
-111.505681726
 20
-32.6146021808
 10
-110.0
 20
-32.5608044329
  0
LWPOLYLINE
  5
5A2
330
23
100
AcDbEntity
 67
     1
  8
0
  6
Continuous
 62
     7
370
    25
100
AcDbPolyline
 90
       22
 70
   128
 43
0.0
 10
-110.0
 20
-31.9365674957
 10
-111.6394649279
 20
-31.9923451824
 10
-113.2423069185
 20
-32.1584322609
 10
-114.7727211303
 20
-32.4311186204
 10
-116.1965206387
 20
-32.8043128983
 10
-117.4819001155
 20
-33.269678551
 10
-118.6001463071
 20
-33.8168200789
 10
-119.5262794416
 20
-34.4335152443
 10
-120.2396112351
 20
-35.1059880964
 10
-120.724207034
 20
-35.8192167028
 10
-120.969241769
 20
-36.557268715
 10
-120.969241769
 20
-37.3036572707
 10
-120.724207034
 20
-38.041709283
 10
-120.2396112351
 20
-38.7549378894
 10
-119.5262794416
 20
-39.4274107414
 10
-118.6001463071
 20
-40.0441059069
 10
-117.4819001155
 20
-40.5912474348
 10
-116.1965206387
 20
-41.0566130875
 10
-114.7727211303
 20
-41.4298073654
 10
-113.2423069185
 20
-41.7024937249
 10
-111.6394649279
 20
-41.8685808034
 10
-110.0
 20
-41.92435849
  0
LWPOLYLINE
  5
5A3
330
23
100
AcDbEntity
 67
     1
  8
0
  6
Continuous
 62
     7
370
    25
100
AcDbPolyline
 90
       10
 70
   128
 43
0.0
 10
-117.4726982307
 20
-39.2778512288
 10
-117.5845343223
 20
-39.2094199908
 10
-118.3531861643
 20
-38.6399679917
 10
-118.9161548403
 20
-38.0229374216
 10
-119.2595781931
 20
-37.3735216208
 10
-119.375
 20
-36.7077113618
 10
-119.2595781931
 20
-36.0419011028
 10
-118.9161548403
 20
-35.3924853021
 10
-118.3531861643
 20
-34.775454732
 10
-118.1888747302
 20
-34.6355564981
  0
LWPOLYLINE
  5
5A4
330
23
100
AcDbEntity
 67
     1
  8
0
  6
Continuous
 62
     7
370
    25
100
AcDbPolyline
 90
       10
 70
   128
 43
0.0
 10
-101.7857790335
 20
-34.6563373712
 10
-101.6468138357
 20
-34.775454732
 10
-101.0838451597
 20
-35.3924853021
 10
-100.7404218069
 20
-36.0419011028
 10
-100.625
 20
-36.7077113618
 10
-100.7404218069
 20
-37.3735216208
 10
-101.0838451597
 20
-38.0229374216
 10
-101.6468138357
 20
-38.6399679917
 10
-102.4154656777
 20
-39.2094199908
 10
-102.5273017693
 20
-39.2778512288
  0
SPLINE
  5
5B4
330
23
100
AcDbEntity
 67
     1
  8
0
  6
Continuous
 62
     8
370
    25
100
AcDbSpline
210
0.0
220
0.0
230
1.0
 70
     8
 71
     3
 72
     9
 73
     5
 74
     0
 42
0.000000001
 43
0.00000001
 40
0.0
 40
0.0
 40
0.0
 40
0.0
 40
0.7369535435193112
 40
1.0
 40
1.0
 40
1.0
 40
1.0
 10
-102.3074436715209
 20
-38.19332959911418
 30
0.0
 10
-102.3384310457462
 20
-38.2172134754586
 30
0.0
 10
-102.3804789801077
 20
-38.24962240619034
 30
0.0
 10
-102.4147528925641
 20
-38.31031339146245
 30
0.0
 10
-102.4237685237855
 20
-38.3262779400786
 30
0.0
  0
LWPOLYLINE
  5
5C5
330
23
100
AcDbEntity
 67
     1
  8
0
  6
Continuous
 62
     8
370
    25
100
AcDbPolyline
 90
        3
 70
   128
 43
0.0
 10
-117.4999094866
 20
-34.9869767774
 10
-117.5
 20
-34.9702486397
 10
-117.4213255478
 20
-34.4783593894
  0
LWPOLYLINE
  5
5C9
330
23
100
AcDbEntity
 67
     1
  8
0
  6
Continuous
 62
     8
370
    25
100
AcDbPolyline
 90
        3
 70
   128
 43
0.0
 10
-116.5698141519
 20
-34.7990575157
 10
-116.1045794792
 20
-34.3718453255
 10
-115.7197293909
 20
-34.1066860357
  0
LWPOLYLINE
  5
5CD
330
23
100
AcDbEntity
 67
     1
  8
0
  6
Continuous
 62
     8
370
    25
100
AcDbPolyline
 90
        3
 70
   128
 43
0.0
 10
-117.0888033257
 20
-35.9962601315
 10
-117.0628379095
 20
-35.7323997107
 10
-116.8325057274
 20
-35.1502154984
  0
LWPOLYLINE
  5
5DD
330
23
100
AcDbEntity
 67
     1
  8
0
  6
Continuous
 62
     8
370
    25
100
AcDbPolyline
 90
        9
 70
   128
 43
0.0
 10
-118.154023916
 20
-36.1757144138
 10
-118.154204757
 20
-36.1718540609
 10
-118.1595639402
 20
-36.1544915462
 10
-118.1721732794
 20
-36.1379202951
 10
-118.1915626539
 20
-36.1227581426
 10
-118.2170091593
 20
-36.1095703873
 10
-118.2475640597
 20
-36.0988487153
 10
-118.2820881603
 20
-36.0909928686
 10
-118.3192942805
 20
-36.0862957412
  0
LWPOLYLINE
  5
5E0
330
23
100
AcDbEntity
 67
     1
  8
0
  6
Continuous
 62
     8
370
    25
100
AcDbPolyline
 90
        9
 70
   128
 43
0.0
 10
-101.845976084
 20
-36.1757144138
 10
-101.845795243
 20
-36.1718540609
 10
-101.8404360598
 20
-36.1544915462
 10
-101.8278267206
 20
-36.1379202951
 10
-101.8084373461
 20
-36.1227581426
 10
-101.7829908407
 20
-36.1095703873
 10
-101.7524359403
 20
-36.0988487153
 10
-101.7179118397
 20
-36.0909928686
 10
-101.6807057195
 20
-36.086295741
  0
LWPOLYLINE
  5
5E7
330
23
100
AcDbEntity
 67
     1
  8
0
  6
Continuous
 62
     8
370
    25
100
AcDbPolyline
 90
        4
 70
   128
 43
0.0
 10
-118.354023916
 20
-37.5070102671
 10
-118.3472485002
 20
-37.5210308967
 10
-118.3407334599
 20
-37.5276645451
 10
-118.3380648135
 20
-37.5281712131
  0
LWPOLYLINE
  5
5E9
330
23
100
AcDbEntity
 67
     1
  8
0
  6
Continuous
 62
     8
370
    25
100
AcDbPolyline
 90
        4
 70
   128
 43
0.0
 10
-101.6619351865
 20
-37.5281712131
 10
-101.6592665401
 20
-37.5276645451
 10
-101.6527514997
 20
-37.5210308967
 10
-101.645976084
 20
-37.5070102671
  0
LWPOLYLINE
  5
5EB
330
23
100
AcDbEntity
 67
     1
  8
0
  6
Continuous
 62
     8
370
    25
100
AcDbPolyline
 90
        4
 70
   128
 43
0.0
 10
-101.0549368362
 20
-37.5543234164
 10
-101.061712252
 20
-37.568344046
 10
-101.0682272924
 20
-37.5749776944
 10
-101.0708959387
 20
-37.5754843624
  0
LWPOLYLINE
  5
5EC
330
23
100
AcDbEntity
 67
     1
  8
0
  6
Continuous
 62
     8
370
    25
100
AcDbPolyline
 90
        4
 70
   128
 43
0.0
 10
-118.9291040613
 20
-37.5754843624
 10
-118.9317727077
 20
-37.5749776944
 10
-118.938287748
 20
-37.568344046
 10
-118.9450631638
 20
-37.5543234164
  0
SPLINE
  5
5F4
330
23
100
AcDbEntity
 67
     1
  8
0
  6
Continuous
 62
     8
370
    25
100
AcDbSpline
210
0.0
220
0.0
230
1.0
 70
     8
 71
     3
 72
     9
 73
     5
 74
     0
 42
0.000000001
 43
0.00000001
 40
0.0
 40
0.0
 40
0.0
 40
0.0
 40
0.4836501950069192
 40
0.9999999999999999
 40
0.9999999999999999
 40
0.9999999999999999
 40
0.9999999999999999
 10
-117.6404235106764
 20
-38.30597869694048
 30
0.0
 10
-117.6243075856249
 20
-38.31504640227329
 30
0.0
 10
-117.5909861371527
 20
-38.33379488087709
 30
0.0
 10
-117.5482813792713
 20
-38.32542794096985
 30
0.0
 10
-117.526230785867
 20
-38.32110767318037
 30
0.0
  0
LWPOLYLINE
  5
5FC
330
23
100
AcDbEntity
 67
     1
  8
0
  6
Continuous
 62
     8
370
    25
100
AcDbPolyline
 90
        6
 70
   128
 43
0.0
 10
-114.8906327349
 20
-39.7686249774
 10
-114.8618874055
 20
-39.780332719
 10
-114.8386341696
 20
-39.7943302745
 10
-114.8217399903
 20
-39.8100957656
 10
-114.8118347422
 20
-39.8270413989
 10
-114.8091935285
 20
-39.8417489359
  0
LWPOLYLINE
  5
5FE
330
23
100
AcDbEntity
 67
     1
  8
0
  6
Continuous
 62
     8
370
    25
100
AcDbPolyline
 90
        6
 70
   128
 43
0.0
 10
-105.1093672651
 20
-39.7686249774
 10
-105.1381125945
 20
-39.780332719
 10
-105.1613658304
 20
-39.7943302745
 10
-105.1782600097
 20
-39.8100957656
 10
-105.1881652578
 20
-39.8270413989
 10
-105.1908064715
 20
-39.8417489359
  0
SPLINE
  5
603
330
23
100
AcDbEntity
 67
     1
  8
0
  6
Continuous
 62
     8
370
    25
100
AcDbSpline
210
0.0
220
0.0
230
1.0
 70
     8
 71
     3
 72
     9
 73
     5
 74
     0
 42
0.000000001
 43
0.00000001
 40
0.0
 40
0.0
 40
0.0
 40
0.0
 40
0.5641213715816578
 40
1.0
 40
1.0
 40
1.0
 40
1.0
 10
-105.318467288104
 20
-39.23310419949395
 30
0.0
 10
-105.2936886334854
 20
-39.22848323879514
 30
0.0
 10
-105.2497643011222
 20
-39.22029180884476
 30
0.0
 10
-105.2187087507321
 20
-39.24147105865684
 30
0.0
 10
-105.2051723000234
 20
-39.25070264101588
 30
0.0
  0
SPLINE
  5
604
330
23
100
AcDbEntity
 67
     1
  8
0
  6
Continuous
 62
     8
370
    25
100
AcDbSpline
210
0.0
220
0.0
230
1.0
 70
     8
 71
     3
 72
    10
 73
     6
 74
     0
 42
0.000000001
 43
0.00000001
 40
0.0
 40
0.0
 40
0.0
 40
0.0
 40
0.101948466522893
 40
0.5520099226145253
 40
1.0
 40
1.0
 40
1.0
 40
1.0
 10
-114.7939796092767
 20
-39.24932754758728
 30
0.0
 10
-114.7915183256399
 20
-39.2464484407731
 30
0.0
 10
-114.7781914651558
 20
-39.23085923591402
 30
0.0
 10
-114.7380192636298
 20
-39.22346524184354
 30
0.0
 10
-114.7003325869505
 20
-39.22989607148189
 30
0.0
 10
-114.68153271125
 20
-39.23310406986499
 30
0.0
  0
LWPOLYLINE
  5
60D
330
23
100
AcDbEntity
 67
     1
  8
0
  6
Continuous
 62
     8
370
    25
100
AcDbPolyline
 90
       12
 70
   128
 43
0.0
 10
-110.0
 20
-13.6624465122
 10
-111.7077780593
 20
-13.7178981365
 10
-113.3807906821
 20
-13.8831241741
 10
-114.984980156
 20
-14.1547610993
 10
-116.4876898095
 20
-14.5272791678
 10
-117.8583288074
 20
-14.9930949858
 10
-119.0689948923
 20
-15.5427258868
 10
-120.095042394
 20
-16.1649829704
 10
-120.9155839443
 20
-16.8471988769
 10
-121.5139156834
 20
-17.5754856578
 10
-121.8778573026
 20
-18.3350174945
 10
-122.0
 20
-19.1103325091
  0
LWPOLYLINE
  5
60E
330
23
100
AcDbEntity
 67
     1
  8
0
  6
Continuous
 62
     8
370
    25
100
AcDbPolyline
 90
       12
 70
   128
 43
0.0
 10
-98.0
 20
-19.1103325091
 10
-98.1221426974
 20
-18.3350174945
 10
-98.4860843166
 20
-17.5754856578
 10
-99.0844160557
 20
-16.8471988769
 10
-99.904957606
 20
-16.1649829704
 10
-100.9310051077
 20
-15.5427258868
 10
-102.1416711926
 20
-14.9930949859
 10
-103.5123101905
 20
-14.5272791678
 10
-105.015019844
 20
-14.1547610993
 10
-106.6192093179
 20
-13.8831241741
 10
-108.2922219407
 20
-13.7178981365
 10
-110.0
 20
-13.6624465122
  0
LINE
  5
617
330
23
100
AcDbEntity
 67
     1
  8
0
  6
Continuous
 62
     7
370
    25
100
AcDbLine
 10
-119.25
 20
-36.0150038263
 30
0.0
 11
-119.25
 21
-36.752261688
 31
0.0
  0
LINE
  5
618
330
23
100
AcDbEntity
 67
     1
  8
0
  6
Continuous
 62
     7
370
    25
100
AcDbLine
 10
-100.75
 20
-36.752261688
 30
0.0
 11
-100.75
 21
-36.0150038263
 31
0.0
  0
LINE
  5
619
330
23
100
AcDbEntity
 67
     1
  8
0
  6
Continuous
 62
     7
370
    25
100
AcDbLine
 10
-111.5741706575
 20
-32.6196418268
 30
0.0
 11
-111.5741706575
 21
-32.6912879921
 31
0.0
  0
LINE
  5
61A
330
23
100
AcDbEntity
 67
     1
  8
0
  6
Continuous
 62
     7
370
    25
100
AcDbLine
 10
-108.4258293425
 20
-32.6912879921
 30
0.0
 11
-108.4258293425
 21
-32.6196418268
 31
0.0
  0
LINE
  5
61B
330
23
100
AcDbEntity
 67
     1
  8
0
  6
Continuous
 62
     7
370
    25
100
AcDbLine
 10
-108.5436133963
 20
-33.032023225
 30
0.0
 11
-108.4393972303
 21
-32.7636970215
 31
0.0
  0
LINE
  5
61C
330
23
100
AcDbEntity
 67
     1
  8
0
  6
Continuous
 62
     7
370
    25
100
AcDbLine
 10
-111.5606027697
 20
-32.7636970215
 30
0.0
 11
-111.4563866037
 21
-33.032023225
 31
0.0
  0
LINE
  5
61D
330
23
100
AcDbEntity
 67
     1
  8
0
  6
Continuous
 62
     7
370
    25
100
AcDbLine
 10
-114.8091935285
 20
-33.6627744402
 30
0.0
 11
-114.8091935285
 21
-33.1453614066
 31
0.0
  0
LINE
  5
61E
330
23
100
AcDbEntity
 67
     1
  8
0
  6
Continuous
 62
     7
370
    25
100
AcDbLine
 10
-105.1908064715
 20
-33.1453614066
 30
0.0
 11
-105.1908064715
 21
-33.6627744402
 31
0.0
  0
LINE
  5
61F
330
23
100
AcDbEntity
 67
     1
  8
0
  6
Continuous
 62
     7
370
    25
100
AcDbLine
 10
-103.3186200397
 20
-37.0832299724
 30
0.0
 11
-103.208965012
 21
-36.942811752
 31
0.0
  0
LINE
  5
620
330
23
100
AcDbEntity
 67
     1
  8
0
  6
Continuous
 62
     7
370
    25
100
AcDbLine
 10
-117.5
 20
-34.3009207915
 30
0.0
 11
-117.5
 21
-34.9702486397
 31
0.0
  0
LINE
  5
621
330
23
100
AcDbEntity
 67
     1
  8
0
  6
Continuous
 62
     7
370
    25
100
AcDbLine
 10
-102.5
 20
-34.9702486397
 30
0.0
 11
-102.5
 21
-34.3009207915
 31
0.0
  0
LINE
  5
622
330
23
100
AcDbEntity
 67
     1
  8
0
  6
Continuous
 62
     7
370
    25
100
AcDbLine
 10
-117.4968002117
 20
-34.189976441
 30
0.0
 11
-117.4968002117
 21
-34.3218555854
 31
0.0
  0
LINE
  5
623
330
23
100
AcDbEntity
 67
     1
  8
0
  6
Continuous
 62
     7
370
    25
100
AcDbLine
 10
-102.5031997883
 20
-34.3218555854
 30
0.0
 11
-102.5031997883
 21
-34.189976441
 31
0.0
  0
LINE
  5
624
330
23
100
AcDbEntity
 67
     1
  8
0
  6
Continuous
 62
     7
370
    25
100
AcDbLine
 10
-117.3573900129
 20
-34.512456939
 30
0.0
 11
-116.8657701951
 21
-34.6687367684
 31
0.0
  0
LINE
  5
625
330
23
100
AcDbEntity
 67
     1
  8
0
  6
Continuous
 62
     7
370
    25
100
AcDbLine
 10
-103.1342298049
 20
-34.6687367684
 30
0.0
 11
-102.6426099871
 21
-34.512456939
 31
0.0
  0
LINE
  5
626
330
23
100
AcDbEntity
 67
     1
  8
0
  6
Continuous
 62
     7
370
    25
100
AcDbLine
 10
-116.791034988
 20
-36.942811752
 30
0.0
 11
-116.6813799603
 21
-37.0832299724
 31
0.0
  0
LINE
  5
627
330
23
100
AcDbEntity
 67
     1
  8
0
  6
Continuous
 62
     7
370
    25
100
AcDbLine
 10
-118.154023916
 20
-36.1757144138
 30
0.0
 11
-118.154023916
 21
-35.6411104993
 31
0.0
  0
LINE
  5
628
330
23
100
AcDbEntity
 67
     1
  8
0
  6
Continuous
 62
     7
370
    25
100
AcDbLine
 10
-101.845976084
 20
-35.6411106554
 30
0.0
 11
-101.845976084
 21
-36.1757144138
 31
0.0
  0
LINE
  5
629
330
23
100
AcDbEntity
 67
     1
  8
0
  6
Continuous
 62
     7
370
    25
100
AcDbLine
 10
-101.6619351865
 20
-37.5281712131
 30
0.0
 11
-101.0708959387
 21
-37.5754843624
 31
0.0
  0
LINE
  5
62A
330
23
100
AcDbEntity
 67
     1
  8
0
  6
Continuous
 62
     7
370
    25
100
AcDbLine
 10
-118.9291040613
 20
-37.5754843624
 30
0.0
 11
-118.3380648135
 21
-37.5281712131
 31
0.0
  0
LINE
  5
62B
330
23
100
AcDbEntity
 67
     1
  8
0
  6
Continuous
 62
     7
370
    25
100
AcDbLine
 10
-101.845976084
 20
-36.7942050478
 30
0.0
 11
-101.845976084
 21
-37.3288089623
 31
0.0
  0
LINE
  5
62C
330
23
100
AcDbEntity
 67
     1
  8
0
  6
Continuous
 62
     7
370
    25
100
AcDbLine
 10
-118.154023916
 20
-37.3288089623
 30
0.0
 11
-118.154023916
 21
-36.7942052039
 31
0.0
  0
LINE
  5
62D
330
23
100
AcDbEntity
 67
     1
  8
0
  6
Continuous
 62
     7
370
    25
100
AcDbLine
 10
-102.5
 20
-34.5625357629
 30
0.0
 11
-102.2618453796
 21
-34.5625357629
 31
0.0
  0
LINE
  5
62E
330
23
100
AcDbEntity
 67
     1
  8
0
  6
Continuous
 62
     7
370
    25
100
AcDbLine
 10
-117.7381546204
 20
-34.5625357629
 30
0.0
 11
-117.5
 21
-34.5625357629
 31
0.0
  0
LINE
  5
62F
330
23
100
AcDbEntity
 67
     1
  8
0
  6
Continuous
 62
     7
370
    25
100
AcDbLine
 10
-102.5031997883
 20
-39.1826677906
 30
0.0
 11
-102.5031997883
 21
-38.6480638761
 31
0.0
  0
LINE
  5
630
330
23
100
AcDbEntity
 67
     1
  8
0
  6
Continuous
 62
     7
370
    25
100
AcDbLine
 10
-117.4968002117
 20
-38.6480637744
 30
0.0
 11
-117.4968002117
 21
-39.1826677906
 31
0.0
  0
LINE
  5
631
330
23
100
AcDbEntity
 67
     1
  8
0
  6
Continuous
 62
     7
370
    25
100
AcDbLine
 10
-105.1908064715
 20
-39.3071450214
 30
0.0
 11
-105.1908064715
 21
-39.8417489359
 31
0.0
  0
LINE
  5
632
330
23
100
AcDbEntity
 67
     1
  8
0
  6
Continuous
 62
     7
370
    25
100
AcDbLine
 10
-114.8091935285
 20
-39.8417489359
 30
0.0
 11
-114.8091935285
 21
-39.3071451399
 31
0.0
  0
LINE
  5
633
330
23
100
AcDbEntity
 67
     1
  8
0
  6
Continuous
 62
     7
370
    25
100
AcDbLine
 10
-115.2446246415
 20
-40.2327536008
 30
0.0
 11
-114.9003887392
 21
-40.009562874
 31
0.0
  0
LINE
  5
634
330
23
100
AcDbEntity
 67
     1
  8
0
  6
Continuous
 62
     7
370
    25
100
AcDbLine
 10
-105.0996112608
 20
-40.009562874
 30
0.0
 11
-104.7553753585
 21
-40.2327536008
 31
0.0
  0
LINE
  5
635
330
23
100
AcDbEntity
 67
     1
  8
0
  6
Continuous
 62
     7
370
    25
100
AcDbLine
 10
-105.2047927481
 20
-39.2467010476
 30
0.0
 11
-105.1902446367
 21
-39.3023653707
 31
0.0
  0
LINE
  5
636
330
23
100
AcDbEntity
 67
     1
  8
0
  6
Continuous
 62
     7
370
    25
100
AcDbLine
 10
-114.8097554544
 20
-39.3023655521
 30
0.0
 11
-114.7952075597
 21
-39.2467014773
 31
0.0
  0
LINE
  5
637
330
23
100
AcDbEntity
 67
     1
  8
0
  6
Continuous
 62
     7
370
    25
100
AcDbLine
 10
-108.4258293425
 20
-40.813235384
 30
0.0
 11
-108.4258293425
 21
-40.2786314694
 31
0.0
  0
LINE
  5
638
330
23
100
AcDbEntity
 67
     1
  8
0
  6
Continuous
 62
     7
370
    25
100
AcDbLine
 10
-111.5741706575
 20
-40.2786315535
 30
0.0
 11
-111.5741706575
 21
-40.813235384
 31
0.0
  0
LINE
  5
639
330
23
100
AcDbEntity
 67
     1
  8
0
  6
Continuous
 62
     7
370
    25
100
AcDbLine
 10
-122.0
 20
0.0
 30
0.0
 11
-122.0
 21
-36.9304629929
 31
0.0
  0
LINE
  5
63A
330
23
100
AcDbEntity
 67
     1
  8
0
  6
Continuous
 62
     7
370
    25
100
AcDbLine
 10
-98.0
 20
-36.9304629929
 30
0.0
 11
-98.0
 21
0.0
 31
0.0
  0
LINE
  5
63B
330
23
100
AcDbEntity
 67
     1
  8
0
  6
Continuous
 62
     7
370
    25
100
AcDbLine
 10
21.9374109685
 20
-5.0
 30
0.0
 11
78.5
 21
-5.0
 31
0.0
  0
LINE
  5
63C
330
23
100
AcDbEntity
 67
     1
  8
0
  6
Continuous
 62
     7
370
    25
100
AcDbLine
 10
78.5
 20
5.0
 30
0.0
 11
21.937404113
 21
5.0
 31
0.0
  0
LINE
  5
63D
330
23
100
AcDbEntity
 67
     1
  8
0
  6
Continuous
 62
     7
370
    25
100
AcDbLine
 10
-100.8572556414
 20
-35.7662035175
 30
0.0
 11
-100.8572558823
 21
-36.1146142938
 31
0.0
  0
LINE
  5
63E
330
23
100
AcDbEntity
 67
     1
  8
0
  6
Continuous
 62
     7
370
    25
100
AcDbLine
 10
-111.3741706575
 20
-32.869489297
 30
0.0
 11
-111.2699544915
 21
-33.1378155004
 31
0.0
  0
LINE
  5
63F
330
23
100
AcDbEntity
 67
     1
  8
0
  6
Continuous
 62
     7
370
    25
100
AcDbLine
 10
-108.7300455085
 20
-33.1378155004
 30
0.0
 11
-108.6258293425
 21
-32.869489297
 31
0.0
  0
LINE
  5
640
330
23
100
AcDbEntity
 67
     1
  8
0
  6
Continuous
 62
     7
370
    25
100
AcDbLine
 10
-110.0514470036
 20
-40.4976104848
 30
0.0
 11
-110.0
 21
-40.4976833109
 31
0.0
  0
LINE
  5
641
330
23
100
AcDbEntity
 67
     1
  8
0
  6
Continuous
 62
     7
370
    25
100
AcDbLine
 10
-111.2398963431
 20
-39.9205383004
 30
0.0
 11
-111.239896397
 21
-40.455142376
 31
0.0
  0
LINE
  5
642
330
23
100
AcDbEntity
 67
     1
  8
0
  6
Continuous
 62
     7
370
    25
100
AcDbLine
 10
-114.8906327349
 20
-39.7686249774
 30
0.0
 11
-114.8906324574
 21
-39.2340208917
 31
0.0
  0
LINE
  5
643
330
23
100
AcDbEntity
 67
     1
  8
0
  6
Continuous
 62
     7
370
    25
100
AcDbLine
 10
-116.6441107466
 20
-38.4379584763
 30
0.0
 11
-116.6441110355
 21
-38.9725624874
 31
0.0
  0
LINE
  5
644
330
23
100
AcDbEntity
 67
     1
  8
0
  6
Continuous
 62
     7
370
    25
100
AcDbLine
 10
-118.1562955393
 20
-37.315162873
 30
0.0
 11
-118.1562950765
 21
-36.7805589265
 31
0.0
  0
LINE
  5
645
330
23
100
AcDbEntity
 67
     1
  8
0
  6
Continuous
 62
     7
370
    25
100
AcDbLine
 10
-101.8437048153
 20
-36.780558934
 30
0.0
 11
-101.8437044607
 21
-37.315162873
 31
0.0
  0
LINE
  5
646
330
23
100
AcDbEntity
 67
     1
  8
0
  6
Continuous
 62
     7
370
    25
100
AcDbLine
 10
-103.3558889645
 20
-38.9725624874
 30
0.0
 11
-103.3558893415
 21
-38.4379584469
 31
0.0
  0
LINE
  5
647
330
23
100
AcDbEntity
 67
     1
  8
0
  6
Continuous
 62
     7
370
    25
100
AcDbLine
 10
-105.1093674778
 20
-39.2340209317
 30
0.0
 11
-105.1093672651
 21
-39.7686249774
 31
0.0
  0
LINE
  5
648
330
23
100
AcDbEntity
 67
     1
  8
0
  6
Continuous
 62
     7
370
    25
100
AcDbLine
 10
-108.760103603
 20
-40.455142376
 30
0.0
 11
-108.7601036733
 21
-39.9205382513
 31
0.0
  0
LINE
  5
649
330
23
100
AcDbEntity
 67
     1
  8
0
  6
Continuous
 62
     7
370
    25
100
AcDbLine
 10
-115.0091935285
 20
-33.840975745
 30
0.0
 11
-115.3534294308
 21
-33.6177850183
 31
0.0
  0
LINE
  5
64A
330
23
100
AcDbEntity
 67
     1
  8
0
  6
Continuous
 62
     7
370
    25
100
AcDbLine
 10
-114.8453631196
 20
-33.6106947898
 30
0.0
 11
-115.1895990219
 21
-33.3875040628
 31
0.0
  0
LINE
  5
64B
330
23
100
AcDbEntity
 67
     1
  8
0
  6
Continuous
 62
     7
370
    25
100
AcDbLine
 10
-104.8104009781
 20
-33.387504063
 30
0.0
 11
-105.1546368804
 21
-33.6106947896
 31
0.0
  0
LINE
  5
64C
330
23
100
AcDbEntity
 67
     1
  8
0
  6
Continuous
 62
     7
370
    25
100
AcDbLine
 10
-104.6465705692
 20
-33.6177850183
 30
0.0
 11
-104.9908064715
 21
-33.840975745
 31
0.0
  0
LINE
  5
64D
330
23
100
AcDbEntity
 67
     1
  8
0
  6
Continuous
 62
     7
370
    25
100
AcDbLine
 10
-117.2968002117
 20
-34.5000568903
 30
0.0
 11
-116.805180394
 21
-34.6563367196
 31
0.0
  0
LINE
  5
64E
330
23
100
AcDbEntity
 67
     1
  8
0
  6
Continuous
 62
     7
370
    25
100
AcDbLine
 10
-103.194819606
 20
-34.6563367196
 30
0.0
 11
-102.7031997883
 21
-34.5000568903
 31
0.0
  0
LINE
  5
64F
330
23
100
AcDbEntity
 67
     1
  8
0
  6
Continuous
 62
     7
370
    25
100
AcDbLine
 10
-116.791034988
 20
-36.942811752
 30
0.0
 11
-116.7447416405
 21
-37.0003746946
 31
0.0
  0
LINE
  5
650
330
23
100
AcDbEntity
 67
     1
  8
0
  6
Continuous
 62
     7
370
    25
100
AcDbLine
 10
-107.1011578235
 20
-37.9850990625
 30
0.0
 11
-107.1011578235
 21
-38.3749041526
 31
0.0
  0
LINE
  5
651
330
23
100
AcDbEntity
 67
     1
  8
0
  6
Continuous
 62
     7
370
    25
100
AcDbLine
 10
-105.3862187217
 20
-37.5355937383
 30
0.0
 11
-105.3862187217
 21
-37.8256303775
 31
0.0
  0
LINE
  5
652
330
23
100
AcDbEntity
 67
     1
  8
0
  6
Continuous
 62
     7
370
    25
100
AcDbLine
 10
-104.5506579327
 20
-36.9889441939
 30
0.0
 11
-104.5506579327
 21
-37.3735008224
 31
0.0
  0
LINE
  5
653
330
23
100
AcDbEntity
 67
     1
  8
0
  6
Continuous
 62
     7
370
    25
100
AcDbLine
 10
-103.9352305061
 20
-36.4986165145
 30
0.0
 11
-103.9352305061
 21
-36.8650494023
 31
0.0
  0
LINE
  5
654
330
23
100
AcDbEntity
 67
     1
  8
0
  6
Continuous
 62
     7
370
    25
100
AcDbLine
 10
-116.0658129743
 20
-36.4997206352
 30
0.0
 11
-116.0658129743
 21
-36.8639452816
 31
0.0
  0
LINE
  5
655
330
23
100
AcDbEntity
 67
     1
  8
0
  6
Continuous
 62
     7
370
    25
100
AcDbLine
 10
-115.4493420673
 20
-36.9889441939
 30
0.0
 11
-115.4493420673
 21
-37.3735008224
 31
0.0
  0
LINE
  5
656
330
23
100
AcDbEntity
 67
     1
  8
0
  6
Continuous
 62
     7
370
    25
100
AcDbLine
 10
-114.6157322553
 20
-37.5364599937
 30
0.0
 11
-114.6157322553
 21
-37.8247641221
 31
0.0
  0
LINE
  5
657
330
23
100
AcDbEntity
 67
     1
  8
0
  6
Continuous
 62
     7
370
    25
100
AcDbLine
 10
-112.9016873259
 20
-37.985730945
 30
0.0
 11
-112.9016873259
 21
-38.3742722701
 31
0.0
  0
LINE
  5
658
330
23
100
AcDbEntity
 67
     1
  8
0
  6
Continuous
 62
     7
370
    25
100
AcDbLine
 10
-110.5
 20
-38.5483353887
 30
0.0
 11
-110.5
 21
-39.1162837421
 31
0.0
  0
LINE
  5
659
330
23
100
AcDbEntity
 67
     1
  8
0
  6
Continuous
 62
     7
370
    25
100
AcDbLine
 10
-110.5
 20
-36.5507771898
 30
0.0
 11
-110.5
 21
-36.8128887271
 31
0.0
  0
LINE
  5
65A
330
23
100
AcDbEntity
 67
     1
  8
0
  6
Continuous
 62
     7
370
    25
100
AcDbLine
 10
-110.5
 20
-36.8128887271
 30
0.0
 11
-110.0
 21
-36.9439444957
 31
0.0
  0
LINE
  5
65B
330
23
100
AcDbEntity
 67
     1
  8
0
  6
Continuous
 62
     7
370
    25
100
AcDbLine
 10
-110.0
 20
-36.9439444957
 30
0.0
 11
-109.5
 21
-36.8128887271
 31
0.0
  0
LINE
  5
65C
330
23
100
AcDbEntity
 67
     1
  8
0
  6
Continuous
 62
     7
370
    25
100
AcDbLine
 10
-109.5
 20
-36.8128887271
 30
0.0
 11
-109.5
 21
-36.5507771898
 31
0.0
  0
LINE
  5
65D
330
23
100
AcDbEntity
 67
     1
  8
0
  6
Continuous
 62
     7
370
    25
100
AcDbLine
 10
-109.5
 20
-36.5507771898
 30
0.0
 11
-110.0
 21
-36.4197214212
 31
0.0
  0
LINE
  5
65E
330
23
100
AcDbEntity
 67
     1
  8
0
  6
Continuous
 62
     7
370
    25
100
AcDbLine
 10
-110.0
 20
-36.4197214212
 30
0.0
 11
-110.5
 21
-36.5507771898
 31
0.0
  0
LINE
  5
65F
330
23
100
AcDbEntity
 67
     1
  8
0
  6
Continuous
 62
     7
370
    25
100
AcDbLine
 10
-115.565767665
 20
-36.5507771898
 30
0.0
 11
-115.565767665
 21
-36.8128887271
 31
0.0
  0
LINE
  5
660
330
23
100
AcDbEntity
 67
     1
  8
0
  6
Continuous
 62
     7
370
    25
100
AcDbLine
 10
-115.565767665
 20
-36.8128887271
 30
0.0
 11
-115.065767665
 21
-36.9439444957
 31
0.0
  0
LINE
  5
661
330
23
100
AcDbEntity
 67
     1
  8
0
  6
Continuous
 62
     7
370
    25
100
AcDbLine
 10
-115.065767665
 20
-36.9439444957
 30
0.0
 11
-114.565767665
 21
-36.8128887271
 31
0.0
  0
LINE
  5
662
330
23
100
AcDbEntity
 67
     1
  8
0
  6
Continuous
 62
     7
370
    25
100
AcDbLine
 10
-114.565767665
 20
-36.8128887271
 30
0.0
 11
-114.565767665
 21
-36.5507771898
 31
0.0
  0
LINE
  5
663
330
23
100
AcDbEntity
 67
     1
  8
0
  6
Continuous
 62
     7
370
    25
100
AcDbLine
 10
-114.565767665
 20
-36.5507771898
 30
0.0
 11
-115.065767665
 21
-36.4197214212
 31
0.0
  0
LINE
  5
664
330
23
100
AcDbEntity
 67
     1
  8
0
  6
Continuous
 62
     7
370
    25
100
AcDbLine
 10
-115.065767665
 20
-36.4197214212
 30
0.0
 11
-115.565767665
 21
-36.5507771898
 31
0.0
  0
LINE
  5
665
330
23
100
AcDbEntity
 67
     1
  8
0
  6
Continuous
 62
     7
370
    25
100
AcDbLine
 10
-115.565767665
 20
-35.5519980904
 30
0.0
 11
-115.565767665
 21
-35.8141096276
 31
0.0
  0
LINE
  5
666
330
23
100
AcDbEntity
 67
     1
  8
0
  6
Continuous
 62
     7
370
    25
100
AcDbLine
 10
-115.565767665
 20
-35.8141096276
 30
0.0
 11
-115.065767665
 21
-35.9451653963
 31
0.0
  0
LINE
  5
667
330
23
100
AcDbEntity
 67
     1
  8
0
  6
Continuous
 62
     7
370
    25
100
AcDbLine
 10
-115.065767665
 20
-35.9451653963
 30
0.0
 11
-114.565767665
 21
-35.8141096276
 31
0.0
  0
LINE
  5
668
330
23
100
AcDbEntity
 67
     1
  8
0
  6
Continuous
 62
     7
370
    25
100
AcDbLine
 10
-114.565767665
 20
-35.8141096276
 30
0.0
 11
-114.565767665
 21
-35.5519980904
 31
0.0
  0
LINE
  5
669
330
23
100
AcDbEntity
 67
     1
  8
0
  6
Continuous
 62
     7
370
    25
100
AcDbLine
 10
-114.565767665
 20
-35.5519980904
 30
0.0
 11
-115.065767665
 21
-35.4209423218
 31
0.0
  0
LINE
  5
66A
330
23
100
AcDbEntity
 67
     1
  8
0
  6
Continuous
 62
     7
370
    25
100
AcDbLine
 10
-115.065767665
 20
-35.4209423218
 30
0.0
 11
-115.565767665
 21
-35.5519980904
 31
0.0
  0
LINE
  5
66B
330
23
100
AcDbEntity
 67
     1
  8
0
  6
Continuous
 62
     7
370
    25
100
AcDbLine
 10
-115.565767665
 20
-34.553218991
 30
0.0
 11
-115.565767665
 21
-34.8153305282
 31
0.0
  0
LINE
  5
66C
330
23
100
AcDbEntity
 67
     1
  8
0
  6
Continuous
 62
     7
370
    25
100
AcDbLine
 10
-115.565767665
 20
-34.8153305282
 30
0.0
 11
-115.065767665
 21
-34.9463862968
 31
0.0
  0
LINE
  5
66D
330
23
100
AcDbEntity
 67
     1
  8
0
  6
Continuous
 62
     7
370
    25
100
AcDbLine
 10
-115.065767665
 20
-34.9463862968
 30
0.0
 11
-114.565767665
 21
-34.8153305282
 31
0.0
  0
LINE
  5
66E
330
23
100
AcDbEntity
 67
     1
  8
0
  6
Continuous
 62
     7
370
    25
100
AcDbLine
 10
-114.565767665
 20
-34.8153305282
 30
0.0
 11
-114.565767665
 21
-34.553218991
 31
0.0
  0
LINE
  5
66F
330
23
100
AcDbEntity
 67
     1
  8
0
  6
Continuous
 62
     7
370
    25
100
AcDbLine
 10
-114.565767665
 20
-34.553218991
 30
0.0
 11
-115.065767665
 21
-34.4221632224
 31
0.0
  0
LINE
  5
670
330
23
100
AcDbEntity
 67
     1
  8
0
  6
Continuous
 62
     7
370
    25
100
AcDbLine
 10
-115.065767665
 20
-34.4221632224
 30
0.0
 11
-115.565767665
 21
-34.553218991
 31
0.0
  0
LINE
  5
671
330
23
100
AcDbEntity
 67
     1
  8
0
  6
Continuous
 62
     7
370
    25
100
AcDbLine
 10
-113.6605117767
 20
-34.0538294413
 30
0.0
 11
-113.6605117767
 21
-34.3159409785
 31
0.0
  0
LINE
  5
672
330
23
100
AcDbEntity
 67
     1
  8
0
  6
Continuous
 62
     7
370
    25
100
AcDbLine
 10
-113.6605117767
 20
-34.3159409785
 30
0.0
 11
-113.1605117767
 21
-34.4469967471
 31
0.0
  0
LINE
  5
673
330
23
100
AcDbEntity
 67
     1
  8
0
  6
Continuous
 62
     7
370
    25
100
AcDbLine
 10
-113.1605117767
 20
-34.4469967471
 30
0.0
 11
-112.6605117767
 21
-34.3159409785
 31
0.0
  0
LINE
  5
674
330
23
100
AcDbEntity
 67
     1
  8
0
  6
Continuous
 62
     7
370
    25
100
AcDbLine
 10
-112.6605117767
 20
-34.3159409785
 30
0.0
 11
-112.6605117767
 21
-34.0538294413
 31
0.0
  0
LINE
  5
675
330
23
100
AcDbEntity
 67
     1
  8
0
  6
Continuous
 62
     7
370
    25
100
AcDbLine
 10
-112.6605117767
 20
-34.0538294413
 30
0.0
 11
-113.1605117767
 21
-33.9227736726
 31
0.0
  0
LINE
  5
676
330
23
100
AcDbEntity
 67
     1
  8
0
  6
Continuous
 62
     7
370
    25
100
AcDbLine
 10
-113.1605117767
 20
-33.9227736726
 30
0.0
 11
-113.6605117767
 21
-34.0538294413
 31
0.0
  0
LINE
  5
677
330
23
100
AcDbEntity
 67
     1
  8
0
  6
Continuous
 62
     7
370
    25
100
AcDbLine
 10
-111.7552558883
 20
-33.5544398915
 30
0.0
 11
-111.7552558883
 21
-33.8165514288
 31
0.0
  0
LINE
  5
678
330
23
100
AcDbEntity
 67
     1
  8
0
  6
Continuous
 62
     7
370
    25
100
AcDbLine
 10
-111.7552558883
 20
-33.8165514288
 30
0.0
 11
-111.2552558883
 21
-33.9476071974
 31
0.0
  0
LINE
  5
679
330
23
100
AcDbEntity
 67
     1
  8
0
  6
Continuous
 62
     7
370
    25
100
AcDbLine
 10
-111.2552558883
 20
-33.9476071974
 30
0.0
 11
-110.7552558883
 21
-33.8165514288
 31
0.0
  0
LINE
  5
67A
330
23
100
AcDbEntity
 67
     1
  8
0
  6
Continuous
 62
     7
370
    25
100
AcDbLine
 10
-110.7552558883
 20
-33.8165514288
 30
0.0
 11
-110.7552558883
 21
-33.5544398915
 31
0.0
  0
LINE
  5
67B
330
23
100
AcDbEntity
 67
     1
  8
0
  6
Continuous
 62
     7
370
    25
100
AcDbLine
 10
-110.7552558883
 20
-33.5544398915
 30
0.0
 11
-111.2552558883
 21
-33.4233841229
 31
0.0
  0
LINE
  5
67C
330
23
100
AcDbEntity
 67
     1
  8
0
  6
Continuous
 62
     7
370
    25
100
AcDbLine
 10
-111.2552558883
 20
-33.4233841229
 30
0.0
 11
-111.7552558883
 21
-33.5544398915
 31
0.0
  0
LINE
  5
67D
330
23
100
AcDbEntity
 67
     1
  8
0
  6
Continuous
 62
     7
370
    25
100
AcDbLine
 10
-109.85
 20
-33.1329937702
 30
0.0
 11
-109.85
 21
-33.3171618791
 31
0.0
  0
LINE
  5
67E
330
23
100
AcDbEntity
 67
     1
  8
0
  6
Continuous
 62
     7
370
    25
100
AcDbLine
 10
-109.85
 20
-33.3171618791
 30
0.0
 11
-109.35
 21
-33.4482176477
 31
0.0
  0
LINE
  5
67F
330
23
100
AcDbEntity
 67
     1
  8
0
  6
Continuous
 62
     7
370
    25
100
AcDbLine
 10
-109.35
 20
-33.4482176477
 30
0.0
 11
-108.85
 21
-33.3171618791
 31
0.0
  0
LINE
  5
680
330
23
100
AcDbEntity
 67
     1
  8
0
  6
Continuous
 62
     7
370
    25
100
AcDbLine
 10
-108.85
 20
-33.3171618791
 30
0.0
 11
-108.85
 21
-33.1780554344
 31
0.0
  0
LINE
  5
681
330
23
100
AcDbEntity
 67
     1
  8
0
  6
Continuous
 62
     7
370
    25
100
AcDbLine
 10
-107.9447441117
 20
-33.5544398915
 30
0.0
 11
-107.9447441117
 21
-33.8165514288
 31
0.0
  0
LINE
  5
682
330
23
100
AcDbEntity
 67
     1
  8
0
  6
Continuous
 62
     7
370
    25
100
AcDbLine
 10
-107.9447441117
 20
-33.8165514288
 30
0.0
 11
-107.4447441117
 21
-33.9476071974
 31
0.0
  0
LINE
  5
683
330
23
100
AcDbEntity
 67
     1
  8
0
  6
Continuous
 62
     7
370
    25
100
AcDbLine
 10
-107.4447441117
 20
-33.9476071974
 30
0.0
 11
-106.9447441117
 21
-33.8165514288
 31
0.0
  0
LINE
  5
684
330
23
100
AcDbEntity
 67
     1
  8
0
  6
Continuous
 62
     7
370
    25
100
AcDbLine
 10
-106.9447441117
 20
-33.8165514288
 30
0.0
 11
-106.9447441117
 21
-33.5544398915
 31
0.0
  0
LINE
  5
685
330
23
100
AcDbEntity
 67
     1
  8
0
  6
Continuous
 62
     7
370
    25
100
AcDbLine
 10
-106.9447441117
 20
-33.5544398915
 30
0.0
 11
-107.4447441117
 21
-33.4233841229
 31
0.0
  0
LINE
  5
686
330
23
100
AcDbEntity
 67
     1
  8
0
  6
Continuous
 62
     7
370
    25
100
AcDbLine
 10
-107.4447441117
 20
-33.4233841229
 30
0.0
 11
-107.9447441117
 21
-33.5544398915
 31
0.0
  0
LINE
  5
687
330
23
100
AcDbEntity
 67
     1
  8
0
  6
Continuous
 62
     7
370
    25
100
AcDbLine
 10
-106.0394882233
 20
-34.0538294413
 30
0.0
 11
-106.0394882233
 21
-34.3159409785
 31
0.0
  0
LINE
  5
688
330
23
100
AcDbEntity
 67
     1
  8
0
  6
Continuous
 62
     7
370
    25
100
AcDbLine
 10
-106.0394882233
 20
-34.3159409785
 30
0.0
 11
-105.5394882233
 21
-34.4469967471
 31
0.0
  0
LINE
  5
689
330
23
100
AcDbEntity
 67
     1
  8
0
  6
Continuous
 62
     7
370
    25
100
AcDbLine
 10
-105.5394882233
 20
-34.4469967471
 30
0.0
 11
-105.0394882233
 21
-34.3159409785
 31
0.0
  0
LINE
  5
68A
330
23
100
AcDbEntity
 67
     1
  8
0
  6
Continuous
 62
     7
370
    25
100
AcDbLine
 10
-105.0394882233
 20
-34.3159409785
 30
0.0
 11
-105.0394882233
 21
-34.1520906753
 31
0.0
  0
LINE
  5
68B
330
23
100
AcDbEntity
 67
     1
  8
0
  6
Continuous
 62
     7
370
    25
100
AcDbLine
 10
-105.522299492
 20
-33.9272790374
 30
0.0
 11
-105.5394882233
 21
-33.9227736726
 31
0.0
  0
LINE
  5
68C
330
23
100
AcDbEntity
 67
     1
  8
0
  6
Continuous
 62
     7
370
    25
100
AcDbLine
 10
-105.5394882233
 20
-33.9227736726
 30
0.0
 11
-106.0394882233
 21
-34.0538294413
 31
0.0
  0
LINE
  5
68D
330
23
100
AcDbEntity
 67
     1
  8
0
  6
Continuous
 62
     7
370
    25
100
AcDbLine
 10
-111.7552558883
 20
-37.5495562893
 30
0.0
 11
-111.7552558883
 21
-37.8116678265
 31
0.0
  0
LINE
  5
68E
330
23
100
AcDbEntity
 67
     1
  8
0
  6
Continuous
 62
     7
370
    25
100
AcDbLine
 10
-111.7552558883
 20
-37.8116678265
 30
0.0
 11
-111.2552558883
 21
-37.9427235951
 31
0.0
  0
LINE
  5
68F
330
23
100
AcDbEntity
 67
     1
  8
0
  6
Continuous
 62
     7
370
    25
100
AcDbLine
 10
-111.2552558883
 20
-37.9427235951
 30
0.0
 11
-110.7552558883
 21
-37.8116678265
 31
0.0
  0
LINE
  5
690
330
23
100
AcDbEntity
 67
     1
  8
0
  6
Continuous
 62
     7
370
    25
100
AcDbLine
 10
-110.7552558883
 20
-37.8116678265
 30
0.0
 11
-110.7552558883
 21
-37.5495562893
 31
0.0
  0
LINE
  5
691
330
23
100
AcDbEntity
 67
     1
  8
0
  6
Continuous
 62
     7
370
    25
100
AcDbLine
 10
-110.7552558883
 20
-37.5495562893
 30
0.0
 11
-111.2552558883
 21
-37.4185005206
 31
0.0
  0
LINE
  5
692
330
23
100
AcDbEntity
 67
     1
  8
0
  6
Continuous
 62
     7
370
    25
100
AcDbLine
 10
-111.2552558883
 20
-37.4185005206
 30
0.0
 11
-111.7552558883
 21
-37.5495562893
 31
0.0
  0
LINE
  5
693
330
23
100
AcDbEntity
 67
     1
  8
0
  6
Continuous
 62
     7
370
    25
100
AcDbLine
 10
-113.6605117767
 20
-37.0501667395
 30
0.0
 11
-113.6605117767
 21
-37.3122782768
 31
0.0
  0
LINE
  5
694
330
23
100
AcDbEntity
 67
     1
  8
0
  6
Continuous
 62
     7
370
    25
100
AcDbLine
 10
-113.6605117767
 20
-37.3122782768
 30
0.0
 11
-113.1605117767
 21
-37.4433340454
 31
0.0
  0
LINE
  5
695
330
23
100
AcDbEntity
 67
     1
  8
0
  6
Continuous
 62
     7
370
    25
100
AcDbLine
 10
-113.1605117767
 20
-37.4433340454
 30
0.0
 11
-112.6605117767
 21
-37.3122782768
 31
0.0
  0
LINE
  5
696
330
23
100
AcDbEntity
 67
     1
  8
0
  6
Continuous
 62
     7
370
    25
100
AcDbLine
 10
-112.6605117767
 20
-37.3122782768
 30
0.0
 11
-112.6605117767
 21
-37.0501667395
 31
0.0
  0
LINE
  5
697
330
23
100
AcDbEntity
 67
     1
  8
0
  6
Continuous
 62
     7
370
    25
100
AcDbLine
 10
-112.6605117767
 20
-37.0501667395
 30
0.0
 11
-113.1605117767
 21
-36.9191109709
 31
0.0
  0
LINE
  5
698
330
23
100
AcDbEntity
 67
     1
  8
0
  6
Continuous
 62
     7
370
    25
100
AcDbLine
 10
-113.1605117767
 20
-36.9191109709
 30
0.0
 11
-113.6605117767
 21
-37.0501667395
 31
0.0
  0
LINE
  5
699
330
23
100
AcDbEntity
 67
     1
  8
0
  6
Continuous
 62
     7
370
    25
100
AcDbLine
 10
-113.6605117767
 20
-36.0513876401
 30
0.0
 11
-113.6605117767
 21
-36.3134991773
 31
0.0
  0
LINE
  5
69A
330
23
100
AcDbEntity
 67
     1
  8
0
  6
Continuous
 62
     7
370
    25
100
AcDbLine
 10
-113.6605117767
 20
-36.3134991773
 30
0.0
 11
-113.1605117767
 21
-36.444554946
 31
0.0
  0
LINE
  5
69B
330
23
100
AcDbEntity
 67
     1
  8
0
  6
Continuous
 62
     7
370
    25
100
AcDbLine
 10
-113.1605117767
 20
-36.444554946
 30
0.0
 11
-112.6605117767
 21
-36.3134991773
 31
0.0
  0
LINE
  5
69C
330
23
100
AcDbEntity
 67
     1
  8
0
  6
Continuous
 62
     7
370
    25
100
AcDbLine
 10
-112.6605117767
 20
-36.3134991773
 30
0.0
 11
-112.6605117767
 21
-36.0513876401
 31
0.0
  0
LINE
  5
69D
330
23
100
AcDbEntity
 67
     1
  8
0
  6
Continuous
 62
     7
370
    25
100
AcDbLine
 10
-112.6605117767
 20
-36.0513876401
 30
0.0
 11
-113.1605117767
 21
-35.9203318715
 31
0.0
  0
LINE
  5
69E
330
23
100
AcDbEntity
 67
     1
  8
0
  6
Continuous
 62
     7
370
    25
100
AcDbLine
 10
-113.1605117767
 20
-35.9203318715
 30
0.0
 11
-113.6605117767
 21
-36.0513876401
 31
0.0
  0
LINE
  5
69F
330
23
100
AcDbEntity
 67
     1
  8
0
  6
Continuous
 62
     7
370
    25
100
AcDbLine
 10
-113.6605117767
 20
-35.0526085407
 30
0.0
 11
-113.6605117767
 21
-35.3147200779
 31
0.0
  0
LINE
  5
6A0
330
23
100
AcDbEntity
 67
     1
  8
0
  6
Continuous
 62
     7
370
    25
100
AcDbLine
 10
-113.6605117767
 20
-35.3147200779
 30
0.0
 11
-113.1605117767
 21
-35.4457758465
 31
0.0
  0
LINE
  5
6A1
330
23
100
AcDbEntity
 67
     1
  8
0
  6
Continuous
 62
     7
370
    25
100
AcDbLine
 10
-113.1605117767
 20
-35.4457758465
 30
0.0
 11
-112.6605117767
 21
-35.3147200779
 31
0.0
  0
LINE
  5
6A2
330
23
100
AcDbEntity
 67
     1
  8
0
  6
Continuous
 62
     7
370
    25
100
AcDbLine
 10
-112.6605117767
 20
-35.3147200779
 30
0.0
 11
-112.6605117767
 21
-35.0526085407
 31
0.0
  0
LINE
  5
6A3
330
23
100
AcDbEntity
 67
     1
  8
0
  6
Continuous
 62
     7
370
    25
100
AcDbLine
 10
-112.6605117767
 20
-35.0526085407
 30
0.0
 11
-113.1605117767
 21
-34.9215527721
 31
0.0
  0
LINE
  5
6A4
330
23
100
AcDbEntity
 67
     1
  8
0
  6
Continuous
 62
     7
370
    25
100
AcDbLine
 10
-113.1605117767
 20
-34.9215527721
 30
0.0
 11
-113.6605117767
 21
-35.0526085407
 31
0.0
  0
LINE
  5
6A5
330
23
100
AcDbEntity
 67
     1
  8
0
  6
Continuous
 62
     7
370
    25
100
AcDbLine
 10
-111.7552558883
 20
-34.553218991
 30
0.0
 11
-111.7552558883
 21
-34.8153305282
 31
0.0
  0
LINE
  5
6A6
330
23
100
AcDbEntity
 67
     1
  8
0
  6
Continuous
 62
     7
370
    25
100
AcDbLine
 10
-111.7552558883
 20
-34.8153305282
 30
0.0
 11
-111.2552558883
 21
-34.9463862968
 31
0.0
  0
LINE
  5
6A7
330
23
100
AcDbEntity
 67
     1
  8
0
  6
Continuous
 62
     7
370
    25
100
AcDbLine
 10
-111.2552558883
 20
-34.9463862968
 30
0.0
 11
-110.7552558883
 21
-34.8153305282
 31
0.0
  0
LINE
  5
6A8
330
23
100
AcDbEntity
 67
     1
  8
0
  6
Continuous
 62
     7
370
    25
100
AcDbLine
 10
-110.7552558883
 20
-34.8153305282
 30
0.0
 11
-110.7552558883
 21
-34.553218991
 31
0.0
  0
LINE
  5
6A9
330
23
100
AcDbEntity
 67
     1
  8
0
  6
Continuous
 62
     7
370
    25
100
AcDbLine
 10
-110.7552558883
 20
-34.553218991
 30
0.0
 11
-111.2552558883
 21
-34.4221632224
 31
0.0
  0
LINE
  5
6AA
330
23
100
AcDbEntity
 67
     1
  8
0
  6
Continuous
 62
     7
370
    25
100
AcDbLine
 10
-111.2552558883
 20
-34.4221632224
 30
0.0
 11
-111.7552558883
 21
-34.553218991
 31
0.0
  0
LINE
  5
6AB
330
23
100
AcDbEntity
 67
     1
  8
0
  6
Continuous
 62
     7
370
    25
100
AcDbLine
 10
-109.85
 20
-34.0538294413
 30
0.0
 11
-109.85
 21
-34.3159409785
 31
0.0
  0
LINE
  5
6AC
330
23
100
AcDbEntity
 67
     1
  8
0
  6
Continuous
 62
     7
370
    25
100
AcDbLine
 10
-109.85
 20
-34.3159409785
 30
0.0
 11
-109.35
 21
-34.4469967471
 31
0.0
  0
LINE
  5
6AD
330
23
100
AcDbEntity
 67
     1
  8
0
  6
Continuous
 62
     7
370
    25
100
AcDbLine
 10
-109.35
 20
-34.4469967471
 30
0.0
 11
-108.85
 21
-34.3159409785
 31
0.0
  0
LINE
  5
6AE
330
23
100
AcDbEntity
 67
     1
  8
0
  6
Continuous
 62
     7
370
    25
100
AcDbLine
 10
-108.85
 20
-34.3159409785
 30
0.0
 11
-108.85
 21
-34.0538294413
 31
0.0
  0
LINE
  5
6AF
330
23
100
AcDbEntity
 67
     1
  8
0
  6
Continuous
 62
     7
370
    25
100
AcDbLine
 10
-108.85
 20
-34.0538294413
 30
0.0
 11
-109.35
 21
-33.9227736726
 31
0.0
  0
LINE
  5
6B0
330
23
100
AcDbEntity
 67
     1
  8
0
  6
Continuous
 62
     7
370
    25
100
AcDbLine
 10
-109.35
 20
-33.9227736726
 30
0.0
 11
-109.85
 21
-34.0538294413
 31
0.0
  0
LINE
  5
6B1
330
23
100
AcDbEntity
 67
     1
  8
0
  6
Continuous
 62
     7
370
    25
100
AcDbLine
 10
-107.9447441117
 20
-34.553218991
 30
0.0
 11
-107.9447441117
 21
-34.8153305282
 31
0.0
  0
LINE
  5
6B2
330
23
100
AcDbEntity
 67
     1
  8
0
  6
Continuous
 62
     7
370
    25
100
AcDbLine
 10
-107.9447441117
 20
-34.8153305282
 30
0.0
 11
-107.4447441117
 21
-34.9463862968
 31
0.0
  0
LINE
  5
6B3
330
23
100
AcDbEntity
 67
     1
  8
0
  6
Continuous
 62
     7
370
    25
100
AcDbLine
 10
-107.4447441117
 20
-34.9463862968
 30
0.0
 11
-106.9447441117
 21
-34.8153305282
 31
0.0
  0
LINE
  5
6B4
330
23
100
AcDbEntity
 67
     1
  8
0
  6
Continuous
 62
     7
370
    25
100
AcDbLine
 10
-106.9447441117
 20
-34.8153305282
 30
0.0
 11
-106.9447441117
 21
-34.553218991
 31
0.0
  0
LINE
  5
6B5
330
23
100
AcDbEntity
 67
     1
  8
0
  6
Continuous
 62
     7
370
    25
100
AcDbLine
 10
-106.9447441117
 20
-34.553218991
 30
0.0
 11
-107.4447441117
 21
-34.4221632224
 31
0.0
  0
LINE
  5
6B6
330
23
100
AcDbEntity
 67
     1
  8
0
  6
Continuous
 62
     7
370
    25
100
AcDbLine
 10
-107.4447441117
 20
-34.4221632224
 30
0.0
 11
-107.9447441117
 21
-34.553218991
 31
0.0
  0
LINE
  5
6B7
330
23
100
AcDbEntity
 67
     1
  8
0
  6
Continuous
 62
     7
370
    25
100
AcDbLine
 10
-106.0394882233
 20
-35.0526085407
 30
0.0
 11
-106.0394882233
 21
-35.3147200779
 31
0.0
  0
LINE
  5
6B8
330
23
100
AcDbEntity
 67
     1
  8
0
  6
Continuous
 62
     7
370
    25
100
AcDbLine
 10
-106.0394882233
 20
-35.3147200779
 30
0.0
 11
-105.5394882233
 21
-35.4457758465
 31
0.0
  0
LINE
  5
6B9
330
23
100
AcDbEntity
 67
     1
  8
0
  6
Continuous
 62
     7
370
    25
100
AcDbLine
 10
-105.5394882233
 20
-35.4457758465
 30
0.0
 11
-105.0394882233
 21
-35.3147200779
 31
0.0
  0
LINE
  5
6BA
330
23
100
AcDbEntity
 67
     1
  8
0
  6
Continuous
 62
     7
370
    25
100
AcDbLine
 10
-105.0394882233
 20
-35.3147200779
 30
0.0
 11
-105.0394882233
 21
-35.0526085407
 31
0.0
  0
LINE
  5
6BB
330
23
100
AcDbEntity
 67
     1
  8
0
  6
Continuous
 62
     7
370
    25
100
AcDbLine
 10
-105.0394882233
 20
-35.0526085407
 30
0.0
 11
-105.5394882233
 21
-34.9215527721
 31
0.0
  0
LINE
  5
6BC
330
23
100
AcDbEntity
 67
     1
  8
0
  6
Continuous
 62
     7
370
    25
100
AcDbLine
 10
-105.5394882233
 20
-34.9215527721
 30
0.0
 11
-106.0394882233
 21
-35.0526085407
 31
0.0
  0
LINE
  5
6BD
330
23
100
AcDbEntity
 67
     1
  8
0
  6
Continuous
 62
     7
370
    25
100
AcDbLine
 10
-106.0394882233
 20
-36.0513876401
 30
0.0
 11
-106.0394882233
 21
-36.3134991773
 31
0.0
  0
LINE
  5
6BE
330
23
100
AcDbEntity
 67
     1
  8
0
  6
Continuous
 62
     7
370
    25
100
AcDbLine
 10
-106.0394882233
 20
-36.3134991773
 30
0.0
 11
-105.5394882233
 21
-36.444554946
 31
0.0
  0
LINE
  5
6BF
330
23
100
AcDbEntity
 67
     1
  8
0
  6
Continuous
 62
     7
370
    25
100
AcDbLine
 10
-105.5394882233
 20
-36.444554946
 30
0.0
 11
-105.0394882233
 21
-36.3134991773
 31
0.0
  0
LINE
  5
6C0
330
23
100
AcDbEntity
 67
     1
  8
0
  6
Continuous
 62
     7
370
    25
100
AcDbLine
 10
-105.0394882233
 20
-36.3134991773
 30
0.0
 11
-105.0394882233
 21
-36.0513876401
 31
0.0
  0
LINE
  5
6C1
330
23
100
AcDbEntity
 67
     1
  8
0
  6
Continuous
 62
     7
370
    25
100
AcDbLine
 10
-105.0394882233
 20
-36.0513876401
 30
0.0
 11
-105.5394882233
 21
-35.9203318715
 31
0.0
  0
LINE
  5
6C2
330
23
100
AcDbEntity
 67
     1
  8
0
  6
Continuous
 62
     7
370
    25
100
AcDbLine
 10
-105.5394882233
 20
-35.9203318715
 30
0.0
 11
-106.0394882233
 21
-36.0513876401
 31
0.0
  0
LINE
  5
6C3
330
23
100
AcDbEntity
 67
     1
  8
0
  6
Continuous
 62
     7
370
    25
100
AcDbLine
 10
-106.0394882233
 20
-37.0501667395
 30
0.0
 11
-106.0394882233
 21
-37.3122782768
 31
0.0
  0
LINE
  5
6C4
330
23
100
AcDbEntity
 67
     1
  8
0
  6
Continuous
 62
     7
370
    25
100
AcDbLine
 10
-106.0394882233
 20
-37.3122782768
 30
0.0
 11
-105.5394882233
 21
-37.4433340454
 31
0.0
  0
LINE
  5
6C5
330
23
100
AcDbEntity
 67
     1
  8
0
  6
Continuous
 62
     7
370
    25
100
AcDbLine
 10
-105.5394882233
 20
-37.4433340454
 30
0.0
 11
-105.0394882233
 21
-37.3122782768
 31
0.0
  0
LINE
  5
6C6
330
23
100
AcDbEntity
 67
     1
  8
0
  6
Continuous
 62
     7
370
    25
100
AcDbLine
 10
-105.0394882233
 20
-37.3122782768
 30
0.0
 11
-105.0394882233
 21
-37.0501667395
 31
0.0
  0
LINE
  5
6C7
330
23
100
AcDbEntity
 67
     1
  8
0
  6
Continuous
 62
     7
370
    25
100
AcDbLine
 10
-105.0394882233
 20
-37.0501667395
 30
0.0
 11
-105.5394882233
 21
-36.9191109709
 31
0.0
  0
LINE
  5
6C8
330
23
100
AcDbEntity
 67
     1
  8
0
  6
Continuous
 62
     7
370
    25
100
AcDbLine
 10
-105.5394882233
 20
-36.9191109709
 30
0.0
 11
-106.0394882233
 21
-37.0501667395
 31
0.0
  0
LINE
  5
6C9
330
23
100
AcDbEntity
 67
     1
  8
0
  6
Continuous
 62
     7
370
    25
100
AcDbLine
 10
-107.9447441117
 20
-37.5495562893
 30
0.0
 11
-107.9447441117
 21
-37.8116678265
 31
0.0
  0
LINE
  5
6CA
330
23
100
AcDbEntity
 67
     1
  8
0
  6
Continuous
 62
     7
370
    25
100
AcDbLine
 10
-107.9447441117
 20
-37.8116678265
 30
0.0
 11
-107.4447441117
 21
-37.9427235951
 31
0.0
  0
LINE
  5
6CB
330
23
100
AcDbEntity
 67
     1
  8
0
  6
Continuous
 62
     7
370
    25
100
AcDbLine
 10
-107.4447441117
 20
-37.9427235951
 30
0.0
 11
-106.9447441117
 21
-37.8116678265
 31
0.0
  0
LINE
  5
6CC
330
23
100
AcDbEntity
 67
     1
  8
0
  6
Continuous
 62
     7
370
    25
100
AcDbLine
 10
-106.9447441117
 20
-37.8116678265
 30
0.0
 11
-106.9447441117
 21
-37.5495562893
 31
0.0
  0
LINE
  5
6CD
330
23
100
AcDbEntity
 67
     1
  8
0
  6
Continuous
 62
     7
370
    25
100
AcDbLine
 10
-106.9447441117
 20
-37.5495562893
 30
0.0
 11
-107.4447441117
 21
-37.4185005206
 31
0.0
  0
LINE
  5
6CE
330
23
100
AcDbEntity
 67
     1
  8
0
  6
Continuous
 62
     7
370
    25
100
AcDbLine
 10
-107.4447441117
 20
-37.4185005206
 30
0.0
 11
-107.9447441117
 21
-37.5495562893
 31
0.0
  0
LINE
  5
6CF
330
23
100
AcDbEntity
 67
     1
  8
0
  6
Continuous
 62
     7
370
    25
100
AcDbLine
 10
-109.85
 20
-38.048945839
 30
0.0
 11
-109.85
 21
-38.3110573762
 31
0.0
  0
LINE
  5
6D0
330
23
100
AcDbEntity
 67
     1
  8
0
  6
Continuous
 62
     7
370
    25
100
AcDbLine
 10
-109.85
 20
-38.3110573762
 30
0.0
 11
-109.35
 21
-38.4421131448
 31
0.0
  0
LINE
  5
6D1
330
23
100
AcDbEntity
 67
     1
  8
0
  6
Continuous
 62
     7
370
    25
100
AcDbLine
 10
-109.35
 20
-38.4421131448
 30
0.0
 11
-108.85
 21
-38.3110573762
 31
0.0
  0
LINE
  5
6D2
330
23
100
AcDbEntity
 67
     1
  8
0
  6
Continuous
 62
     7
370
    25
100
AcDbLine
 10
-108.85
 20
-38.3110573762
 30
0.0
 11
-108.85
 21
-38.048945839
 31
0.0
  0
LINE
  5
6D3
330
23
100
AcDbEntity
 67
     1
  8
0
  6
Continuous
 62
     7
370
    25
100
AcDbLine
 10
-108.85
 20
-38.048945839
 30
0.0
 11
-109.35
 21
-37.9178900703
 31
0.0
  0
LINE
  5
6D4
330
23
100
AcDbEntity
 67
     1
  8
0
  6
Continuous
 62
     7
370
    25
100
AcDbLine
 10
-109.35
 20
-37.9178900703
 30
0.0
 11
-109.85
 21
-38.048945839
 31
0.0
  0
LINE
  5
6D5
330
23
100
AcDbEntity
 67
     1
  8
0
  6
Continuous
 62
     7
370
    25
100
AcDbLine
 10
-111.7552558883
 20
-36.5507771898
 30
0.0
 11
-111.7552558883
 21
-36.8128887271
 31
0.0
  0
LINE
  5
6D6
330
23
100
AcDbEntity
 67
     1
  8
0
  6
Continuous
 62
     7
370
    25
100
AcDbLine
 10
-111.7552558883
 20
-36.8128887271
 30
0.0
 11
-111.2552558883
 21
-36.9439444957
 31
0.0
  0
LINE
  5
6D7
330
23
100
AcDbEntity
 67
     1
  8
0
  6
Continuous
 62
     7
370
    25
100
AcDbLine
 10
-111.2552558883
 20
-36.9439444957
 30
0.0
 11
-110.7552558883
 21
-36.8128887271
 31
0.0
  0
LINE
  5
6D8
330
23
100
AcDbEntity
 67
     1
  8
0
  6
Continuous
 62
     7
370
    25
100
AcDbLine
 10
-110.7552558883
 20
-36.8128887271
 30
0.0
 11
-110.7552558883
 21
-36.5507771898
 31
0.0
  0
LINE
  5
6D9
330
23
100
AcDbEntity
 67
     1
  8
0
  6
Continuous
 62
     7
370
    25
100
AcDbLine
 10
-110.7552558883
 20
-36.5507771898
 30
0.0
 11
-111.2552558883
 21
-36.4197214212
 31
0.0
  0
LINE
  5
6DA
330
23
100
AcDbEntity
 67
     1
  8
0
  6
Continuous
 62
     7
370
    25
100
AcDbLine
 10
-111.2552558883
 20
-36.4197214212
 30
0.0
 11
-111.7552558883
 21
-36.5507771898
 31
0.0
  0
LINE
  5
6DB
330
23
100
AcDbEntity
 67
     1
  8
0
  6
Continuous
 62
     7
370
    25
100
AcDbLine
 10
-111.7552558883
 20
-35.5519980904
 30
0.0
 11
-111.7552558883
 21
-35.8141096276
 31
0.0
  0
LINE
  5
6DC
330
23
100
AcDbEntity
 67
     1
  8
0
  6
Continuous
 62
     7
370
    25
100
AcDbLine
 10
-111.7552558883
 20
-35.8141096276
 30
0.0
 11
-111.2552558883
 21
-35.9451653963
 31
0.0
  0
LINE
  5
6DD
330
23
100
AcDbEntity
 67
     1
  8
0
  6
Continuous
 62
     7
370
    25
100
AcDbLine
 10
-111.2552558883
 20
-35.9451653963
 30
0.0
 11
-110.7552558883
 21
-35.8141096276
 31
0.0
  0
LINE
  5
6DE
330
23
100
AcDbEntity
 67
     1
  8
0
  6
Continuous
 62
     7
370
    25
100
AcDbLine
 10
-110.7552558883
 20
-35.8141096276
 30
0.0
 11
-110.7552558883
 21
-35.5519980904
 31
0.0
  0
LINE
  5
6DF
330
23
100
AcDbEntity
 67
     1
  8
0
  6
Continuous
 62
     7
370
    25
100
AcDbLine
 10
-110.7552558883
 20
-35.5519980904
 30
0.0
 11
-111.2552558883
 21
-35.4209423218
 31
0.0
  0
LINE
  5
6E0
330
23
100
AcDbEntity
 67
     1
  8
0
  6
Continuous
 62
     7
370
    25
100
AcDbLine
 10
-111.2552558883
 20
-35.4209423218
 30
0.0
 11
-111.7552558883
 21
-35.5519980904
 31
0.0
  0
LINE
  5
6E1
330
23
100
AcDbEntity
 67
     1
  8
0
  6
Continuous
 62
     7
370
    25
100
AcDbLine
 10
-109.85
 20
-35.0526085407
 30
0.0
 11
-109.85
 21
-35.3147200779
 31
0.0
  0
LINE
  5
6E2
330
23
100
AcDbEntity
 67
     1
  8
0
  6
Continuous
 62
     7
370
    25
100
AcDbLine
 10
-109.85
 20
-35.3147200779
 30
0.0
 11
-109.35
 21
-35.4457758465
 31
0.0
  0
LINE
  5
6E3
330
23
100
AcDbEntity
 67
     1
  8
0
  6
Continuous
 62
     7
370
    25
100
AcDbLine
 10
-109.35
 20
-35.4457758465
 30
0.0
 11
-108.85
 21
-35.3147200779
 31
0.0
  0
LINE
  5
6E4
330
23
100
AcDbEntity
 67
     1
  8
0
  6
Continuous
 62
     7
370
    25
100
AcDbLine
 10
-108.85
 20
-35.3147200779
 30
0.0
 11
-108.85
 21
-35.0526085407
 31
0.0
  0
LINE
  5
6E5
330
23
100
AcDbEntity
 67
     1
  8
0
  6
Continuous
 62
     7
370
    25
100
AcDbLine
 10
-108.85
 20
-35.0526085407
 30
0.0
 11
-109.35
 21
-34.9215527721
 31
0.0
  0
LINE
  5
6E6
330
23
100
AcDbEntity
 67
     1
  8
0
  6
Continuous
 62
     7
370
    25
100
AcDbLine
 10
-109.35
 20
-34.9215527721
 30
0.0
 11
-109.85
 21
-35.0526085407
 31
0.0
  0
LINE
  5
6E7
330
23
100
AcDbEntity
 67
     1
  8
0
  6
Continuous
 62
     7
370
    25
100
AcDbLine
 10
-107.9447441117
 20
-35.5519980904
 30
0.0
 11
-107.9447441117
 21
-35.8141096276
 31
0.0
  0
LINE
  5
6E8
330
23
100
AcDbEntity
 67
     1
  8
0
  6
Continuous
 62
     7
370
    25
100
AcDbLine
 10
-107.9447441117
 20
-35.8141096276
 30
0.0
 11
-107.4447441117
 21
-35.9451653963
 31
0.0
  0
LINE
  5
6E9
330
23
100
AcDbEntity
 67
     1
  8
0
  6
Continuous
 62
     7
370
    25
100
AcDbLine
 10
-107.4447441117
 20
-35.9451653963
 30
0.0
 11
-106.9447441117
 21
-35.8141096276
 31
0.0
  0
LINE
  5
6EA
330
23
100
AcDbEntity
 67
     1
  8
0
  6
Continuous
 62
     7
370
    25
100
AcDbLine
 10
-106.9447441117
 20
-35.8141096276
 30
0.0
 11
-106.9447441117
 21
-35.5519980904
 31
0.0
  0
LINE
  5
6EB
330
23
100
AcDbEntity
 67
     1
  8
0
  6
Continuous
 62
     7
370
    25
100
AcDbLine
 10
-106.9447441117
 20
-35.5519980904
 30
0.0
 11
-107.4447441117
 21
-35.4209423218
 31
0.0
  0
LINE
  5
6EC
330
23
100
AcDbEntity
 67
     1
  8
0
  6
Continuous
 62
     7
370
    25
100
AcDbLine
 10
-107.4447441117
 20
-35.4209423218
 30
0.0
 11
-107.9447441117
 21
-35.5519980904
 31
0.0
  0
LINE
  5
6ED
330
23
100
AcDbEntity
 67
     1
  8
0
  6
Continuous
 62
     7
370
    25
100
AcDbLine
 10
-107.9447441117
 20
-36.5507771898
 30
0.0
 11
-107.9447441117
 21
-36.8128887271
 31
0.0
  0
LINE
  5
6EE
330
23
100
AcDbEntity
 67
     1
  8
0
  6
Continuous
 62
     7
370
    25
100
AcDbLine
 10
-107.9447441117
 20
-36.8128887271
 30
0.0
 11
-107.4447441117
 21
-36.9439444957
 31
0.0
  0
LINE
  5
6EF
330
23
100
AcDbEntity
 67
     1
  8
0
  6
Continuous
 62
     7
370
    25
100
AcDbLine
 10
-107.4447441117
 20
-36.9439444957
 30
0.0
 11
-106.9447441117
 21
-36.8128887271
 31
0.0
  0
LINE
  5
6F0
330
23
100
AcDbEntity
 67
     1
  8
0
  6
Continuous
 62
     7
370
    25
100
AcDbLine
 10
-106.9447441117
 20
-36.8128887271
 30
0.0
 11
-106.9447441117
 21
-36.5507771898
 31
0.0
  0
LINE
  5
6F1
330
23
100
AcDbEntity
 67
     1
  8
0
  6
Continuous
 62
     7
370
    25
100
AcDbLine
 10
-106.9447441117
 20
-36.5507771898
 30
0.0
 11
-107.4447441117
 21
-36.4197214212
 31
0.0
  0
LINE
  5
6F2
330
23
100
AcDbEntity
 67
     1
  8
0
  6
Continuous
 62
     7
370
    25
100
AcDbLine
 10
-107.4447441117
 20
-36.4197214212
 30
0.0
 11
-107.9447441117
 21
-36.5507771898
 31
0.0
  0
LINE
  5
6F3
330
23
100
AcDbEntity
 67
     1
  8
0
  6
Continuous
 62
     7
370
    25
100
AcDbLine
 10
-109.85
 20
-37.0501667395
 30
0.0
 11
-109.85
 21
-37.3122782768
 31
0.0
  0
LINE
  5
6F4
330
23
100
AcDbEntity
 67
     1
  8
0
  6
Continuous
 62
     7
370
    25
100
AcDbLine
 10
-109.85
 20
-37.3122782768
 30
0.0
 11
-109.35
 21
-37.4433340454
 31
0.0
  0
LINE
  5
6F5
330
23
100
AcDbEntity
 67
     1
  8
0
  6
Continuous
 62
     7
370
    25
100
AcDbLine
 10
-109.35
 20
-37.4433340454
 30
0.0
 11
-108.85
 21
-37.3122782768
 31
0.0
  0
LINE
  5
6F6
330
23
100
AcDbEntity
 67
     1
  8
0
  6
Continuous
 62
     7
370
    25
100
AcDbLine
 10
-108.85
 20
-37.3122782768
 30
0.0
 11
-108.85
 21
-37.0501667395
 31
0.0
  0
LINE
  5
6F7
330
23
100
AcDbEntity
 67
     1
  8
0
  6
Continuous
 62
     7
370
    25
100
AcDbLine
 10
-108.85
 20
-37.0501667395
 30
0.0
 11
-109.35
 21
-36.9191109709
 31
0.0
  0
LINE
  5
6F8
330
23
100
AcDbEntity
 67
     1
  8
0
  6
Continuous
 62
     7
370
    25
100
AcDbLine
 10
-109.35
 20
-36.9191109709
 30
0.0
 11
-109.85
 21
-37.0501667395
 31
0.0
  0
LINE
  5
6F9
330
23
100
AcDbEntity
 67
     1
  8
0
  6
Continuous
 62
     7
370
    25
100
AcDbLine
 10
-109.85
 20
-36.0513876401
 30
0.0
 11
-109.85
 21
-36.3134991773
 31
0.0
  0
LINE
  5
6FA
330
23
100
AcDbEntity
 67
     1
  8
0
  6
Continuous
 62
     7
370
    25
100
AcDbLine
 10
-109.85
 20
-36.3134991773
 30
0.0
 11
-109.35
 21
-36.444554946
 31
0.0
  0
LINE
  5
6FB
330
23
100
AcDbEntity
 67
     1
  8
0
  6
Continuous
 62
     7
370
    25
100
AcDbLine
 10
-109.35
 20
-36.444554946
 30
0.0
 11
-108.85
 21
-36.3134991773
 31
0.0
  0
LINE
  5
6FC
330
23
100
AcDbEntity
 67
     1
  8
0
  6
Continuous
 62
     7
370
    25
100
AcDbLine
 10
-108.85
 20
-36.3134991773
 30
0.0
 11
-108.85
 21
-36.0513876401
 31
0.0
  0
LINE
  5
6FD
330
23
100
AcDbEntity
 67
     1
  8
0
  6
Continuous
 62
     7
370
    25
100
AcDbLine
 10
-108.85
 20
-36.0513876401
 30
0.0
 11
-109.35
 21
-35.9203318715
 31
0.0
  0
LINE
  5
6FE
330
23
100
AcDbEntity
 67
     1
  8
0
  6
Continuous
 62
     7
370
    25
100
AcDbLine
 10
-109.35
 20
-35.9203318715
 30
0.0
 11
-109.85
 21
-36.0513876401
 31
0.0
  0
LINE
  5
6FF
330
23
100
AcDbEntity
 67
     1
  8
0
  6
Continuous
 62
     7
370
    25
100
AcDbLine
 10
-111.1552558883
 20
-38.048945839
 30
0.0
 11
-111.1552558883
 21
-38.3110573762
 31
0.0
  0
LINE
  5
700
330
23
100
AcDbEntity
 67
     1
  8
0
  6
Continuous
 62
     7
370
    25
100
AcDbLine
 10
-111.1552558883
 20
-38.3110573762
 30
0.0
 11
-110.6552558883
 21
-38.4421131448
 31
0.0
  0
LINE
  5
701
330
23
100
AcDbEntity
 67
     1
  8
0
  6
Continuous
 62
     7
370
    25
100
AcDbLine
 10
-110.6552558883
 20
-38.4421131448
 30
0.0
 11
-110.1552558883
 21
-38.3110573762
 31
0.0
  0
LINE
  5
702
330
23
100
AcDbEntity
 67
     1
  8
0
  6
Continuous
 62
     7
370
    25
100
AcDbLine
 10
-110.1552558883
 20
-38.3110573762
 30
0.0
 11
-110.1552558883
 21
-38.048945839
 31
0.0
  0
LINE
  5
703
330
23
100
AcDbEntity
 67
     1
  8
0
  6
Continuous
 62
     7
370
    25
100
AcDbLine
 10
-110.1552558883
 20
-38.048945839
 30
0.0
 11
-110.6552558883
 21
-37.9178900703
 31
0.0
  0
LINE
  5
704
330
23
100
AcDbEntity
 67
     1
  8
0
  6
Continuous
 62
     7
370
    25
100
AcDbLine
 10
-110.6552558883
 20
-37.9178900703
 30
0.0
 11
-111.1552558883
 21
-38.048945839
 31
0.0
  0
LINE
  5
705
330
23
100
AcDbEntity
 67
     1
  8
0
  6
Continuous
 62
     7
370
    25
100
AcDbLine
 10
-113.0605117767
 20
-37.5495562893
 30
0.0
 11
-113.0605117767
 21
-37.8116678265
 31
0.0
  0
LINE
  5
706
330
23
100
AcDbEntity
 67
     1
  8
0
  6
Continuous
 62
     7
370
    25
100
AcDbLine
 10
-113.0605117767
 20
-37.8116678265
 30
0.0
 11
-112.5605117767
 21
-37.9427235951
 31
0.0
  0
LINE
  5
707
330
23
100
AcDbEntity
 67
     1
  8
0
  6
Continuous
 62
     7
370
    25
100
AcDbLine
 10
-112.5605117767
 20
-37.9427235951
 30
0.0
 11
-112.0605117767
 21
-37.8116678265
 31
0.0
  0
LINE
  5
708
330
23
100
AcDbEntity
 67
     1
  8
0
  6
Continuous
 62
     7
370
    25
100
AcDbLine
 10
-112.0605117767
 20
-37.8116678265
 30
0.0
 11
-112.0605117767
 21
-37.5495562893
 31
0.0
  0
LINE
  5
709
330
23
100
AcDbEntity
 67
     1
  8
0
  6
Continuous
 62
     7
370
    25
100
AcDbLine
 10
-112.0605117767
 20
-37.5495562893
 30
0.0
 11
-112.5605117767
 21
-37.4185005206
 31
0.0
  0
LINE
  5
70A
330
23
100
AcDbEntity
 67
     1
  8
0
  6
Continuous
 62
     7
370
    25
100
AcDbLine
 10
-112.5605117767
 20
-37.4185005206
 30
0.0
 11
-113.0605117767
 21
-37.5495562893
 31
0.0
  0
LINE
  5
70B
330
23
100
AcDbEntity
 67
     1
  8
0
  6
Continuous
 62
     7
370
    25
100
AcDbLine
 10
-114.965767665
 20
-37.0501667395
 30
0.0
 11
-114.965767665
 21
-37.3122782768
 31
0.0
  0
LINE
  5
70C
330
23
100
AcDbEntity
 67
     1
  8
0
  6
Continuous
 62
     7
370
    25
100
AcDbLine
 10
-114.965767665
 20
-37.3122782768
 30
0.0
 11
-114.465767665
 21
-37.4433340454
 31
0.0
  0
LINE
  5
70D
330
23
100
AcDbEntity
 67
     1
  8
0
  6
Continuous
 62
     7
370
    25
100
AcDbLine
 10
-114.465767665
 20
-37.4433340454
 30
0.0
 11
-113.965767665
 21
-37.3122782768
 31
0.0
  0
LINE
  5
70E
330
23
100
AcDbEntity
 67
     1
  8
0
  6
Continuous
 62
     7
370
    25
100
AcDbLine
 10
-113.965767665
 20
-37.3122782768
 30
0.0
 11
-113.965767665
 21
-37.0501667395
 31
0.0
  0
LINE
  5
70F
330
23
100
AcDbEntity
 67
     1
  8
0
  6
Continuous
 62
     7
370
    25
100
AcDbLine
 10
-113.965767665
 20
-37.0501667395
 30
0.0
 11
-114.465767665
 21
-36.9191109709
 31
0.0
  0
LINE
  5
710
330
23
100
AcDbEntity
 67
     1
  8
0
  6
Continuous
 62
     7
370
    25
100
AcDbLine
 10
-114.465767665
 20
-36.9191109709
 30
0.0
 11
-114.965767665
 21
-37.0501667395
 31
0.0
  0
LINE
  5
711
330
23
100
AcDbEntity
 67
     1
  8
0
  6
Continuous
 62
     7
370
    25
100
AcDbLine
 10
-114.965767665
 20
-36.0513876401
 30
0.0
 11
-114.965767665
 21
-36.3134991773
 31
0.0
  0
LINE
  5
712
330
23
100
AcDbEntity
 67
     1
  8
0
  6
Continuous
 62
     7
370
    25
100
AcDbLine
 10
-114.965767665
 20
-36.3134991773
 30
0.0
 11
-114.465767665
 21
-36.444554946
 31
0.0
  0
LINE
  5
713
330
23
100
AcDbEntity
 67
     1
  8
0
  6
Continuous
 62
     7
370
    25
100
AcDbLine
 10
-114.465767665
 20
-36.444554946
 30
0.0
 11
-113.965767665
 21
-36.3134991773
 31
0.0
  0
LINE
  5
714
330
23
100
AcDbEntity
 67
     1
  8
0
  6
Continuous
 62
     7
370
    25
100
AcDbLine
 10
-113.965767665
 20
-36.3134991773
 30
0.0
 11
-113.965767665
 21
-36.0513876401
 31
0.0
  0
LINE
  5
715
330
23
100
AcDbEntity
 67
     1
  8
0
  6
Continuous
 62
     7
370
    25
100
AcDbLine
 10
-113.965767665
 20
-36.0513876401
 30
0.0
 11
-114.465767665
 21
-35.9203318715
 31
0.0
  0
LINE
  5
716
330
23
100
AcDbEntity
 67
     1
  8
0
  6
Continuous
 62
     7
370
    25
100
AcDbLine
 10
-114.465767665
 20
-35.9203318715
 30
0.0
 11
-114.965767665
 21
-36.0513876401
 31
0.0
  0
LINE
  5
717
330
23
100
AcDbEntity
 67
     1
  8
0
  6
Continuous
 62
     7
370
    25
100
AcDbLine
 10
-114.965767665
 20
-35.0526085407
 30
0.0
 11
-114.965767665
 21
-35.3147200779
 31
0.0
  0
LINE
  5
718
330
23
100
AcDbEntity
 67
     1
  8
0
  6
Continuous
 62
     7
370
    25
100
AcDbLine
 10
-114.965767665
 20
-35.3147200779
 30
0.0
 11
-114.465767665
 21
-35.4457758465
 31
0.0
  0
LINE
  5
719
330
23
100
AcDbEntity
 67
     1
  8
0
  6
Continuous
 62
     7
370
    25
100
AcDbLine
 10
-114.465767665
 20
-35.4457758465
 30
0.0
 11
-113.965767665
 21
-35.3147200779
 31
0.0
  0
LINE
  5
71A
330
23
100
AcDbEntity
 67
     1
  8
0
  6
Continuous
 62
     7
370
    25
100
AcDbLine
 10
-113.965767665
 20
-35.3147200779
 30
0.0
 11
-113.965767665
 21
-35.0526085407
 31
0.0
  0
LINE
  5
71B
330
23
100
AcDbEntity
 67
     1
  8
0
  6
Continuous
 62
     7
370
    25
100
AcDbLine
 10
-113.965767665
 20
-35.0526085407
 30
0.0
 11
-114.465767665
 21
-34.9215527721
 31
0.0
  0
LINE
  5
71C
330
23
100
AcDbEntity
 67
     1
  8
0
  6
Continuous
 62
     7
370
    25
100
AcDbLine
 10
-114.465767665
 20
-34.9215527721
 30
0.0
 11
-114.965767665
 21
-35.0526085407
 31
0.0
  0
LINE
  5
71D
330
23
100
AcDbEntity
 67
     1
  8
0
  6
Continuous
 62
     7
370
    25
100
AcDbLine
 10
-114.965767665
 20
-34.1548127866
 30
0.0
 11
-114.965767665
 21
-34.3159409785
 31
0.0
  0
LINE
  5
71E
330
23
100
AcDbEntity
 67
     1
  8
0
  6
Continuous
 62
     7
370
    25
100
AcDbLine
 10
-114.965767665
 20
-34.3159409785
 30
0.0
 11
-114.465767665
 21
-34.4469967471
 31
0.0
  0
LINE
  5
71F
330
23
100
AcDbEntity
 67
     1
  8
0
  6
Continuous
 62
     7
370
    25
100
AcDbLine
 10
-114.465767665
 20
-34.4469967471
 30
0.0
 11
-113.965767665
 21
-34.3159409785
 31
0.0
  0
LINE
  5
720
330
23
100
AcDbEntity
 67
     1
  8
0
  6
Continuous
 62
     7
370
    25
100
AcDbLine
 10
-113.965767665
 20
-34.3159409785
 30
0.0
 11
-113.965767665
 21
-34.0538294413
 31
0.0
  0
LINE
  5
721
330
23
100
AcDbEntity
 67
     1
  8
0
  6
Continuous
 62
     7
370
    25
100
AcDbLine
 10
-113.965767665
 20
-34.0538294413
 30
0.0
 11
-114.465767665
 21
-33.9227736726
 31
0.0
  0
LINE
  5
722
330
23
100
AcDbEntity
 67
     1
  8
0
  6
Continuous
 62
     7
370
    25
100
AcDbLine
 10
-114.465767665
 20
-33.9227736726
 30
0.0
 11
-114.4688907956
 21
-33.9235922812
 31
0.0
  0
LINE
  5
723
330
23
100
AcDbEntity
 67
     1
  8
0
  6
Continuous
 62
     7
370
    25
100
AcDbLine
 10
-113.0605117767
 20
-33.5544398915
 30
0.0
 11
-113.0605117767
 21
-33.8165514288
 31
0.0
  0
LINE
  5
724
330
23
100
AcDbEntity
 67
     1
  8
0
  6
Continuous
 62
     7
370
    25
100
AcDbLine
 10
-113.0605117767
 20
-33.8165514288
 30
0.0
 11
-112.5605117767
 21
-33.9476071974
 31
0.0
  0
LINE
  5
725
330
23
100
AcDbEntity
 67
     1
  8
0
  6
Continuous
 62
     7
370
    25
100
AcDbLine
 10
-112.5605117767
 20
-33.9476071974
 30
0.0
 11
-112.0605117767
 21
-33.8165514288
 31
0.0
  0
LINE
  5
726
330
23
100
AcDbEntity
 67
     1
  8
0
  6
Continuous
 62
     7
370
    25
100
AcDbLine
 10
-112.0605117767
 20
-33.8165514288
 30
0.0
 11
-112.0605117767
 21
-33.5544398915
 31
0.0
  0
LINE
  5
727
330
23
100
AcDbEntity
 67
     1
  8
0
  6
Continuous
 62
     7
370
    25
100
AcDbLine
 10
-112.0605117767
 20
-33.5544398915
 30
0.0
 11
-112.5605117767
 21
-33.4233841229
 31
0.0
  0
LINE
  5
728
330
23
100
AcDbEntity
 67
     1
  8
0
  6
Continuous
 62
     7
370
    25
100
AcDbLine
 10
-112.5605117767
 20
-33.4233841229
 30
0.0
 11
-113.0605117767
 21
-33.5544398915
 31
0.0
  0
LINE
  5
729
330
23
100
AcDbEntity
 67
     1
  8
0
  6
Continuous
 62
     7
370
    25
100
AcDbLine
 10
-111.1552558883
 20
-33.1784786524
 30
0.0
 11
-111.1552558883
 21
-33.3171618791
 31
0.0
  0
LINE
  5
72A
330
23
100
AcDbEntity
 67
     1
  8
0
  6
Continuous
 62
     7
370
    25
100
AcDbLine
 10
-111.1552558883
 20
-33.3171618791
 30
0.0
 11
-110.6552558883
 21
-33.4482176477
 31
0.0
  0
LINE
  5
72B
330
23
100
AcDbEntity
 67
     1
  8
0
  6
Continuous
 62
     7
370
    25
100
AcDbLine
 10
-110.6552558883
 20
-33.4482176477
 30
0.0
 11
-110.1552558883
 21
-33.3171618791
 31
0.0
  0
LINE
  5
72C
330
23
100
AcDbEntity
 67
     1
  8
0
  6
Continuous
 62
     7
370
    25
100
AcDbLine
 10
-110.1552558883
 20
-33.3171618791
 30
0.0
 11
-110.1552558883
 21
-33.1330489652
 31
0.0
  0
LINE
  5
72D
330
23
100
AcDbEntity
 67
     1
  8
0
  6
Continuous
 62
     7
370
    25
100
AcDbLine
 10
-111.1552558883
 20
-37.0501667395
 30
0.0
 11
-111.1552558883
 21
-37.3122782768
 31
0.0
  0
LINE
  5
72E
330
23
100
AcDbEntity
 67
     1
  8
0
  6
Continuous
 62
     7
370
    25
100
AcDbLine
 10
-111.1552558883
 20
-37.3122782768
 30
0.0
 11
-110.6552558883
 21
-37.4433340454
 31
0.0
  0
LINE
  5
72F
330
23
100
AcDbEntity
 67
     1
  8
0
  6
Continuous
 62
     7
370
    25
100
AcDbLine
 10
-110.6552558883
 20
-37.4433340454
 30
0.0
 11
-110.1552558883
 21
-37.3122782768
 31
0.0
  0
LINE
  5
730
330
23
100
AcDbEntity
 67
     1
  8
0
  6
Continuous
 62
     7
370
    25
100
AcDbLine
 10
-110.1552558883
 20
-37.3122782768
 30
0.0
 11
-110.1552558883
 21
-37.0501667395
 31
0.0
  0
LINE
  5
731
330
23
100
AcDbEntity
 67
     1
  8
0
  6
Continuous
 62
     7
370
    25
100
AcDbLine
 10
-110.1552558883
 20
-37.0501667395
 30
0.0
 11
-110.6552558883
 21
-36.9191109709
 31
0.0
  0
LINE
  5
732
330
23
100
AcDbEntity
 67
     1
  8
0
  6
Continuous
 62
     7
370
    25
100
AcDbLine
 10
-110.6552558883
 20
-36.9191109709
 30
0.0
 11
-111.1552558883
 21
-37.0501667395
 31
0.0
  0
LINE
  5
733
330
23
100
AcDbEntity
 67
     1
  8
0
  6
Continuous
 62
     7
370
    25
100
AcDbLine
 10
-113.0605117767
 20
-36.5507771898
 30
0.0
 11
-113.0605117767
 21
-36.8128887271
 31
0.0
  0
LINE
  5
734
330
23
100
AcDbEntity
 67
     1
  8
0
  6
Continuous
 62
     7
370
    25
100
AcDbLine
 10
-113.0605117767
 20
-36.8128887271
 30
0.0
 11
-112.5605117767
 21
-36.9439444957
 31
0.0
  0
LINE
  5
735
330
23
100
AcDbEntity
 67
     1
  8
0
  6
Continuous
 62
     7
370
    25
100
AcDbLine
 10
-112.5605117767
 20
-36.9439444957
 30
0.0
 11
-112.0605117767
 21
-36.8128887271
 31
0.0
  0
LINE
  5
736
330
23
100
AcDbEntity
 67
     1
  8
0
  6
Continuous
 62
     7
370
    25
100
AcDbLine
 10
-112.0605117767
 20
-36.8128887271
 30
0.0
 11
-112.0605117767
 21
-36.5507771898
 31
0.0
  0
LINE
  5
737
330
23
100
AcDbEntity
 67
     1
  8
0
  6
Continuous
 62
     7
370
    25
100
AcDbLine
 10
-112.0605117767
 20
-36.5507771898
 30
0.0
 11
-112.5605117767
 21
-36.4197214212
 31
0.0
  0
LINE
  5
738
330
23
100
AcDbEntity
 67
     1
  8
0
  6
Continuous
 62
     7
370
    25
100
AcDbLine
 10
-112.5605117767
 20
-36.4197214212
 30
0.0
 11
-113.0605117767
 21
-36.5507771898
 31
0.0
  0
LINE
  5
739
330
23
100
AcDbEntity
 67
     1
  8
0
  6
Continuous
 62
     7
370
    25
100
AcDbLine
 10
-113.0605117767
 20
-34.553218991
 30
0.0
 11
-113.0605117767
 21
-34.8153305282
 31
0.0
  0
LINE
  5
73A
330
23
100
AcDbEntity
 67
     1
  8
0
  6
Continuous
 62
     7
370
    25
100
AcDbLine
 10
-113.0605117767
 20
-34.8153305282
 30
0.0
 11
-112.5605117767
 21
-34.9463862968
 31
0.0
  0
LINE
  5
73B
330
23
100
AcDbEntity
 67
     1
  8
0
  6
Continuous
 62
     7
370
    25
100
AcDbLine
 10
-112.5605117767
 20
-34.9463862968
 30
0.0
 11
-112.0605117767
 21
-34.8153305282
 31
0.0
  0
LINE
  5
73C
330
23
100
AcDbEntity
 67
     1
  8
0
  6
Continuous
 62
     7
370
    25
100
AcDbLine
 10
-112.0605117767
 20
-34.8153305282
 30
0.0
 11
-112.0605117767
 21
-34.553218991
 31
0.0
  0
LINE
  5
73D
330
23
100
AcDbEntity
 67
     1
  8
0
  6
Continuous
 62
     7
370
    25
100
AcDbLine
 10
-112.0605117767
 20
-34.553218991
 30
0.0
 11
-112.5605117767
 21
-34.4221632224
 31
0.0
  0
LINE
  5
73E
330
23
100
AcDbEntity
 67
     1
  8
0
  6
Continuous
 62
     7
370
    25
100
AcDbLine
 10
-112.5605117767
 20
-34.4221632224
 30
0.0
 11
-113.0605117767
 21
-34.553218991
 31
0.0
  0
LINE
  5
73F
330
23
100
AcDbEntity
 67
     1
  8
0
  6
Continuous
 62
     7
370
    25
100
AcDbLine
 10
-111.1552558883
 20
-34.3159409785
 30
0.0
 11
-110.6552558883
 21
-34.4469967471
 31
0.0
  0
LINE
  5
740
330
23
100
AcDbEntity
 67
     1
  8
0
  6
Continuous
 62
     7
370
    25
100
AcDbLine
 10
-110.6552558883
 20
-34.4469967471
 30
0.0
 11
-110.1552558883
 21
-34.3159409785
 31
0.0
  0
LINE
  5
741
330
23
100
AcDbEntity
 67
     1
  8
0
  6
Continuous
 62
     7
370
    25
100
AcDbLine
 10
-110.1552558883
 20
-34.3159409785
 30
0.0
 11
-110.1552558883
 21
-34.0538294413
 31
0.0
  0
LINE
  5
742
330
23
100
AcDbEntity
 67
     1
  8
0
  6
Continuous
 62
     7
370
    25
100
AcDbLine
 10
-110.1552558883
 20
-34.0538294413
 30
0.0
 11
-110.6552558883
 21
-33.9227736726
 31
0.0
  0
LINE
  5
743
330
23
100
AcDbEntity
 67
     1
  8
0
  6
Continuous
 62
     7
370
    25
100
AcDbLine
 10
-110.6552558883
 20
-33.9227736726
 30
0.0
 11
-111.1552558883
 21
-34.0538294413
 31
0.0
  0
LINE
  5
744
330
23
100
AcDbEntity
 67
     1
  8
0
  6
Continuous
 62
     7
370
    25
100
AcDbLine
 10
-111.1552558883
 20
-34.0538294413
 30
0.0
 11
-111.1552558883
 21
-34.3159409785
 31
0.0
  0
LINE
  5
745
330
23
100
AcDbEntity
 67
     1
  8
0
  6
Continuous
 62
     7
370
    25
100
AcDbLine
 10
-109.25
 20
-33.5544398915
 30
0.0
 11
-109.25
 21
-33.8165514288
 31
0.0
  0
LINE
  5
746
330
23
100
AcDbEntity
 67
     1
  8
0
  6
Continuous
 62
     7
370
    25
100
AcDbLine
 10
-109.25
 20
-33.8165514288
 30
0.0
 11
-108.75
 21
-33.9476071974
 31
0.0
  0
LINE
  5
747
330
23
100
AcDbEntity
 67
     1
  8
0
  6
Continuous
 62
     7
370
    25
100
AcDbLine
 10
-108.75
 20
-33.9476071974
 30
0.0
 11
-108.25
 21
-33.8165514288
 31
0.0
  0
LINE
  5
748
330
23
100
AcDbEntity
 67
     1
  8
0
  6
Continuous
 62
     7
370
    25
100
AcDbLine
 10
-108.25
 20
-33.8165514288
 30
0.0
 11
-108.25
 21
-33.5544398915
 31
0.0
  0
LINE
  5
749
330
23
100
AcDbEntity
 67
     1
  8
0
  6
Continuous
 62
     7
370
    25
100
AcDbLine
 10
-108.25
 20
-33.5544398915
 30
0.0
 11
-108.75
 21
-33.4233841229
 31
0.0
  0
LINE
  5
74A
330
23
100
AcDbEntity
 67
     1
  8
0
  6
Continuous
 62
     7
370
    25
100
AcDbLine
 10
-108.75
 20
-33.4233841229
 30
0.0
 11
-109.25
 21
-33.5544398915
 31
0.0
  0
LINE
  5
74B
330
23
100
AcDbEntity
 67
     1
  8
0
  6
Continuous
 62
     7
370
    25
100
AcDbLine
 10
-107.3447441117
 20
-34.0538294413
 30
0.0
 11
-107.3447441117
 21
-34.3159409785
 31
0.0
  0
LINE
  5
74C
330
23
100
AcDbEntity
 67
     1
  8
0
  6
Continuous
 62
     7
370
    25
100
AcDbLine
 10
-107.3447441117
 20
-34.3159409785
 30
0.0
 11
-106.8447441117
 21
-34.4469967471
 31
0.0
  0
LINE
  5
74D
330
23
100
AcDbEntity
 67
     1
  8
0
  6
Continuous
 62
     7
370
    25
100
AcDbLine
 10
-106.8447441117
 20
-34.4469967471
 30
0.0
 11
-106.3447441117
 21
-34.3159409785
 31
0.0
  0
LINE
  5
74E
330
23
100
AcDbEntity
 67
     1
  8
0
  6
Continuous
 62
     7
370
    25
100
AcDbLine
 10
-106.3447441117
 20
-34.3159409785
 30
0.0
 11
-106.3447441117
 21
-34.0538294413
 31
0.0
  0
LINE
  5
74F
330
23
100
AcDbEntity
 67
     1
  8
0
  6
Continuous
 62
     7
370
    25
100
AcDbLine
 10
-106.3447441117
 20
-34.0538294413
 30
0.0
 11
-106.8447441117
 21
-33.9227736726
 31
0.0
  0
LINE
  5
750
330
23
100
AcDbEntity
 67
     1
  8
0
  6
Continuous
 62
     7
370
    25
100
AcDbLine
 10
-106.8447441117
 20
-33.9227736726
 30
0.0
 11
-107.3447441117
 21
-34.0538294413
 31
0.0
  0
LINE
  5
751
330
23
100
AcDbEntity
 67
     1
  8
0
  6
Continuous
 62
     7
370
    25
100
AcDbLine
 10
-105.4394882233
 20
-34.553218991
 30
0.0
 11
-105.4394882233
 21
-34.8153305282
 31
0.0
  0
LINE
  5
752
330
23
100
AcDbEntity
 67
     1
  8
0
  6
Continuous
 62
     7
370
    25
100
AcDbLine
 10
-105.4394882233
 20
-34.8153305282
 30
0.0
 11
-104.9394882233
 21
-34.9463862968
 31
0.0
  0
LINE
  5
753
330
23
100
AcDbEntity
 67
     1
  8
0
  6
Continuous
 62
     7
370
    25
100
AcDbLine
 10
-104.9394882233
 20
-34.9463862968
 30
0.0
 11
-104.4394882233
 21
-34.8153305282
 31
0.0
  0
LINE
  5
754
330
23
100
AcDbEntity
 67
     1
  8
0
  6
Continuous
 62
     7
370
    25
100
AcDbLine
 10
-104.4394882233
 20
-34.8153305282
 30
0.0
 11
-104.4394882233
 21
-34.553218991
 31
0.0
  0
LINE
  5
755
330
23
100
AcDbEntity
 67
     1
  8
0
  6
Continuous
 62
     7
370
    25
100
AcDbLine
 10
-104.4394882233
 20
-34.553218991
 30
0.0
 11
-104.9394882233
 21
-34.4221632224
 31
0.0
  0
LINE
  5
756
330
23
100
AcDbEntity
 67
     1
  8
0
  6
Continuous
 62
     7
370
    25
100
AcDbLine
 10
-104.9394882233
 20
-34.4221632224
 30
0.0
 11
-105.4394882233
 21
-34.553218991
 31
0.0
  0
LINE
  5
757
330
23
100
AcDbEntity
 67
     1
  8
0
  6
Continuous
 62
     7
370
    25
100
AcDbLine
 10
-105.4394882233
 20
-35.5519980904
 30
0.0
 11
-105.4394882233
 21
-35.8141096276
 31
0.0
  0
LINE
  5
758
330
23
100
AcDbEntity
 67
     1
  8
0
  6
Continuous
 62
     7
370
    25
100
AcDbLine
 10
-105.4394882233
 20
-35.8141096276
 30
0.0
 11
-104.9394882233
 21
-35.9451653963
 31
0.0
  0
LINE
  5
759
330
23
100
AcDbEntity
 67
     1
  8
0
  6
Continuous
 62
     7
370
    25
100
AcDbLine
 10
-104.9394882233
 20
-35.9451653963
 30
0.0
 11
-104.4394882233
 21
-35.8141096276
 31
0.0
  0
LINE
  5
75A
330
23
100
AcDbEntity
 67
     1
  8
0
  6
Continuous
 62
     7
370
    25
100
AcDbLine
 10
-104.4394882233
 20
-35.8141096276
 30
0.0
 11
-104.4394882233
 21
-35.5519980904
 31
0.0
  0
LINE
  5
75B
330
23
100
AcDbEntity
 67
     1
  8
0
  6
Continuous
 62
     7
370
    25
100
AcDbLine
 10
-104.4394882233
 20
-35.5519980904
 30
0.0
 11
-104.9394882233
 21
-35.4209423218
 31
0.0
  0
LINE
  5
75C
330
23
100
AcDbEntity
 67
     1
  8
0
  6
Continuous
 62
     7
370
    25
100
AcDbLine
 10
-104.9394882233
 20
-35.4209423218
 30
0.0
 11
-105.4394882233
 21
-35.5519980904
 31
0.0
  0
LINE
  5
75D
330
23
100
AcDbEntity
 67
     1
  8
0
  6
Continuous
 62
     7
370
    25
100
AcDbLine
 10
-105.4394882233
 20
-36.5507771898
 30
0.0
 11
-105.4394882233
 21
-36.8128887271
 31
0.0
  0
LINE
  5
75E
330
23
100
AcDbEntity
 67
     1
  8
0
  6
Continuous
 62
     7
370
    25
100
AcDbLine
 10
-105.4394882233
 20
-36.8128887271
 30
0.0
 11
-104.9394882233
 21
-36.9439444957
 31
0.0
  0
LINE
  5
75F
330
23
100
AcDbEntity
 67
     1
  8
0
  6
Continuous
 62
     7
370
    25
100
AcDbLine
 10
-104.9394882233
 20
-36.9439444957
 30
0.0
 11
-104.4394882233
 21
-36.8128887271
 31
0.0
  0
LINE
  5
760
330
23
100
AcDbEntity
 67
     1
  8
0
  6
Continuous
 62
     7
370
    25
100
AcDbLine
 10
-104.4394882233
 20
-36.8128887271
 30
0.0
 11
-104.4394882233
 21
-36.5507771898
 31
0.0
  0
LINE
  5
761
330
23
100
AcDbEntity
 67
     1
  8
0
  6
Continuous
 62
     7
370
    25
100
AcDbLine
 10
-104.4394882233
 20
-36.5507771898
 30
0.0
 11
-104.9394882233
 21
-36.4197214212
 31
0.0
  0
LINE
  5
762
330
23
100
AcDbEntity
 67
     1
  8
0
  6
Continuous
 62
     7
370
    25
100
AcDbLine
 10
-104.9394882233
 20
-36.4197214212
 30
0.0
 11
-105.4394882233
 21
-36.5507771898
 31
0.0
  0
LINE
  5
763
330
23
100
AcDbEntity
 67
     1
  8
0
  6
Continuous
 62
     7
370
    25
100
AcDbLine
 10
-107.3447441117
 20
-37.0501667395
 30
0.0
 11
-107.3447441117
 21
-37.3122782768
 31
0.0
  0
LINE
  5
764
330
23
100
AcDbEntity
 67
     1
  8
0
  6
Continuous
 62
     7
370
    25
100
AcDbLine
 10
-107.3447441117
 20
-37.3122782768
 30
0.0
 11
-106.8447441117
 21
-37.4433340454
 31
0.0
  0
LINE
  5
765
330
23
100
AcDbEntity
 67
     1
  8
0
  6
Continuous
 62
     7
370
    25
100
AcDbLine
 10
-106.8447441117
 20
-37.4433340454
 30
0.0
 11
-106.3447441117
 21
-37.3122782768
 31
0.0
  0
LINE
  5
766
330
23
100
AcDbEntity
 67
     1
  8
0
  6
Continuous
 62
     7
370
    25
100
AcDbLine
 10
-106.3447441117
 20
-37.3122782768
 30
0.0
 11
-106.3447441117
 21
-37.0501667395
 31
0.0
  0
LINE
  5
767
330
23
100
AcDbEntity
 67
     1
  8
0
  6
Continuous
 62
     7
370
    25
100
AcDbLine
 10
-106.3447441117
 20
-37.0501667395
 30
0.0
 11
-106.8447441117
 21
-36.9191109709
 31
0.0
  0
LINE
  5
768
330
23
100
AcDbEntity
 67
     1
  8
0
  6
Continuous
 62
     7
370
    25
100
AcDbLine
 10
-106.8447441117
 20
-36.9191109709
 30
0.0
 11
-107.3447441117
 21
-37.0501667395
 31
0.0
  0
LINE
  5
769
330
23
100
AcDbEntity
 67
     1
  8
0
  6
Continuous
 62
     7
370
    25
100
AcDbLine
 10
-109.25
 20
-37.5495562893
 30
0.0
 11
-109.25
 21
-37.8116678265
 31
0.0
  0
LINE
  5
76A
330
23
100
AcDbEntity
 67
     1
  8
0
  6
Continuous
 62
     7
370
    25
100
AcDbLine
 10
-109.25
 20
-37.8116678265
 30
0.0
 11
-108.75
 21
-37.9427235951
 31
0.0
  0
LINE
  5
76B
330
23
100
AcDbEntity
 67
     1
  8
0
  6
Continuous
 62
     7
370
    25
100
AcDbLine
 10
-108.75
 20
-37.9427235951
 30
0.0
 11
-108.25
 21
-37.8116678265
 31
0.0
  0
LINE
  5
76C
330
23
100
AcDbEntity
 67
     1
  8
0
  6
Continuous
 62
     7
370
    25
100
AcDbLine
 10
-108.25
 20
-37.8116678265
 30
0.0
 11
-108.25
 21
-37.5495562893
 31
0.0
  0
LINE
  5
76D
330
23
100
AcDbEntity
 67
     1
  8
0
  6
Continuous
 62
     7
370
    25
100
AcDbLine
 10
-108.25
 20
-37.5495562893
 30
0.0
 11
-108.75
 21
-37.4185005206
 31
0.0
  0
LINE
  5
76E
330
23
100
AcDbEntity
 67
     1
  8
0
  6
Continuous
 62
     7
370
    25
100
AcDbLine
 10
-108.75
 20
-37.4185005206
 30
0.0
 11
-109.25
 21
-37.5495562893
 31
0.0
  0
LINE
  5
76F
330
23
100
AcDbEntity
 67
     1
  8
0
  6
Continuous
 62
     7
370
    25
100
AcDbLine
 10
-111.1552558883
 20
-36.0513876401
 30
0.0
 11
-111.1552558883
 21
-36.3134991773
 31
0.0
  0
LINE
  5
770
330
23
100
AcDbEntity
 67
     1
  8
0
  6
Continuous
 62
     7
370
    25
100
AcDbLine
 10
-111.1552558883
 20
-36.3134991773
 30
0.0
 11
-110.6552558883
 21
-36.444554946
 31
0.0
  0
LINE
  5
771
330
23
100
AcDbEntity
 67
     1
  8
0
  6
Continuous
 62
     7
370
    25
100
AcDbLine
 10
-110.6552558883
 20
-36.444554946
 30
0.0
 11
-110.1552558883
 21
-36.3134991773
 31
0.0
  0
LINE
  5
772
330
23
100
AcDbEntity
 67
     1
  8
0
  6
Continuous
 62
     7
370
    25
100
AcDbLine
 10
-110.1552558883
 20
-36.3134991773
 30
0.0
 11
-110.1552558883
 21
-36.0513876401
 31
0.0
  0
LINE
  5
773
330
23
100
AcDbEntity
 67
     1
  8
0
  6
Continuous
 62
     7
370
    25
100
AcDbLine
 10
-110.1552558883
 20
-36.0513876401
 30
0.0
 11
-110.6552558883
 21
-35.9203318715
 31
0.0
  0
LINE
  5
774
330
23
100
AcDbEntity
 67
     1
  8
0
  6
Continuous
 62
     7
370
    25
100
AcDbLine
 10
-110.6552558883
 20
-35.9203318715
 30
0.0
 11
-111.1552558883
 21
-36.0513876401
 31
0.0
  0
LINE
  5
775
330
23
100
AcDbEntity
 67
     1
  8
0
  6
Continuous
 62
     7
370
    25
100
AcDbLine
 10
-111.1552558883
 20
-35.0526085407
 30
0.0
 11
-111.1552558883
 21
-35.3147200779
 31
0.0
  0
LINE
  5
776
330
23
100
AcDbEntity
 67
     1
  8
0
  6
Continuous
 62
     7
370
    25
100
AcDbLine
 10
-111.1552558883
 20
-35.3147200779
 30
0.0
 11
-110.6552558883
 21
-35.4457758465
 31
0.0
  0
LINE
  5
777
330
23
100
AcDbEntity
 67
     1
  8
0
  6
Continuous
 62
     7
370
    25
100
AcDbLine
 10
-110.6552558883
 20
-35.4457758465
 30
0.0
 11
-110.1552558883
 21
-35.3147200779
 31
0.0
  0
LINE
  5
778
330
23
100
AcDbEntity
 67
     1
  8
0
  6
Continuous
 62
     7
370
    25
100
AcDbLine
 10
-110.1552558883
 20
-35.3147200779
 30
0.0
 11
-110.1552558883
 21
-35.0526085407
 31
0.0
  0
LINE
  5
779
330
23
100
AcDbEntity
 67
     1
  8
0
  6
Continuous
 62
     7
370
    25
100
AcDbLine
 10
-110.1552558883
 20
-35.0526085407
 30
0.0
 11
-110.6552558883
 21
-34.9215527721
 31
0.0
  0
LINE
  5
77A
330
23
100
AcDbEntity
 67
     1
  8
0
  6
Continuous
 62
     7
370
    25
100
AcDbLine
 10
-110.6552558883
 20
-34.9215527721
 30
0.0
 11
-111.1552558883
 21
-35.0526085407
 31
0.0
  0
LINE
  5
77B
330
23
100
AcDbEntity
 67
     1
  8
0
  6
Continuous
 62
     7
370
    25
100
AcDbLine
 10
-107.3447441117
 20
-35.3147200779
 30
0.0
 11
-106.8447441117
 21
-35.4457758465
 31
0.0
  0
LINE
  5
77C
330
23
100
AcDbEntity
 67
     1
  8
0
  6
Continuous
 62
     7
370
    25
100
AcDbLine
 10
-106.8447441117
 20
-35.4457758465
 30
0.0
 11
-106.3447441117
 21
-35.3147200779
 31
0.0
  0
LINE
  5
77D
330
23
100
AcDbEntity
 67
     1
  8
0
  6
Continuous
 62
     7
370
    25
100
AcDbLine
 10
-106.3447441117
 20
-35.3147200779
 30
0.0
 11
-106.3447441117
 21
-35.0526085407
 31
0.0
  0
LINE
  5
77E
330
23
100
AcDbEntity
 67
     1
  8
0
  6
Continuous
 62
     7
370
    25
100
AcDbLine
 10
-106.3447441117
 20
-35.0526085407
 30
0.0
 11
-106.8447441117
 21
-34.9215527721
 31
0.0
  0
LINE
  5
77F
330
23
100
AcDbEntity
 67
     1
  8
0
  6
Continuous
 62
     7
370
    25
100
AcDbLine
 10
-106.8447441117
 20
-34.9215527721
 30
0.0
 11
-107.3447441117
 21
-35.0526085407
 31
0.0
  0
LINE
  5
780
330
23
100
AcDbEntity
 67
     1
  8
0
  6
Continuous
 62
     7
370
    25
100
AcDbLine
 10
-107.3447441117
 20
-35.0526085407
 30
0.0
 11
-107.3447441117
 21
-35.3147200779
 31
0.0
  0
LINE
  5
781
330
23
100
AcDbEntity
 67
     1
  8
0
  6
Continuous
 62
     7
370
    25
100
AcDbLine
 10
-107.3447441117
 20
-36.0513876401
 30
0.0
 11
-107.3447441117
 21
-36.3134991773
 31
0.0
  0
LINE
  5
782
330
23
100
AcDbEntity
 67
     1
  8
0
  6
Continuous
 62
     7
370
    25
100
AcDbLine
 10
-107.3447441117
 20
-36.3134991773
 30
0.0
 11
-106.8447441117
 21
-36.444554946
 31
0.0
  0
LINE
  5
783
330
23
100
AcDbEntity
 67
     1
  8
0
  6
Continuous
 62
     7
370
    25
100
AcDbLine
 10
-106.8447441117
 20
-36.444554946
 30
0.0
 11
-106.3447441117
 21
-36.3134991773
 31
0.0
  0
LINE
  5
784
330
23
100
AcDbEntity
 67
     1
  8
0
  6
Continuous
 62
     7
370
    25
100
AcDbLine
 10
-106.3447441117
 20
-36.3134991773
 30
0.0
 11
-106.3447441117
 21
-36.0513876401
 31
0.0
  0
LINE
  5
785
330
23
100
AcDbEntity
 67
     1
  8
0
  6
Continuous
 62
     7
370
    25
100
AcDbLine
 10
-106.3447441117
 20
-36.0513876401
 30
0.0
 11
-106.8447441117
 21
-35.9203318715
 31
0.0
  0
LINE
  5
786
330
23
100
AcDbEntity
 67
     1
  8
0
  6
Continuous
 62
     7
370
    25
100
AcDbLine
 10
-106.8447441117
 20
-35.9203318715
 30
0.0
 11
-107.3447441117
 21
-36.0513876401
 31
0.0
  0
LINE
  5
787
330
23
100
AcDbEntity
 67
     1
  8
0
  6
Continuous
 62
     7
370
    25
100
AcDbLine
 10
-109.25
 20
-35.5519980904
 30
0.0
 11
-109.25
 21
-35.8141096276
 31
0.0
  0
LINE
  5
788
330
23
100
AcDbEntity
 67
     1
  8
0
  6
Continuous
 62
     7
370
    25
100
AcDbLine
 10
-109.25
 20
-35.8141096276
 30
0.0
 11
-108.75
 21
-35.9451653963
 31
0.0
  0
LINE
  5
789
330
23
100
AcDbEntity
 67
     1
  8
0
  6
Continuous
 62
     7
370
    25
100
AcDbLine
 10
-108.75
 20
-35.9451653963
 30
0.0
 11
-108.25
 21
-35.8141096276
 31
0.0
  0
LINE
  5
78A
330
23
100
AcDbEntity
 67
     1
  8
0
  6
Continuous
 62
     7
370
    25
100
AcDbLine
 10
-108.25
 20
-35.8141096276
 30
0.0
 11
-108.25
 21
-35.5519980904
 31
0.0
  0
LINE
  5
78B
330
23
100
AcDbEntity
 67
     1
  8
0
  6
Continuous
 62
     7
370
    25
100
AcDbLine
 10
-108.25
 20
-35.5519980904
 30
0.0
 11
-108.75
 21
-35.4209423218
 31
0.0
  0
LINE
  5
78C
330
23
100
AcDbEntity
 67
     1
  8
0
  6
Continuous
 62
     7
370
    25
100
AcDbLine
 10
-108.75
 20
-35.4209423218
 30
0.0
 11
-109.25
 21
-35.5519980904
 31
0.0
  0
LINE
  5
78D
330
23
100
AcDbEntity
 67
     1
  8
0
  6
Continuous
 62
     7
370
    25
100
AcDbLine
 10
-112.4052558883
 20
-38.048945839
 30
0.0
 11
-112.4052558883
 21
-38.3110573762
 31
0.0
  0
LINE
  5
78E
330
23
100
AcDbEntity
 67
     1
  8
0
  6
Continuous
 62
     7
370
    25
100
AcDbLine
 10
-112.4052558883
 20
-38.3110573762
 30
0.0
 11
-111.9052558883
 21
-38.4421131448
 31
0.0
  0
LINE
  5
78F
330
23
100
AcDbEntity
 67
     1
  8
0
  6
Continuous
 62
     7
370
    25
100
AcDbLine
 10
-111.9052558883
 20
-38.4421131448
 30
0.0
 11
-111.4052558883
 21
-38.3110573762
 31
0.0
  0
LINE
  5
790
330
23
100
AcDbEntity
 67
     1
  8
0
  6
Continuous
 62
     7
370
    25
100
AcDbLine
 10
-111.4052558883
 20
-38.3110573762
 30
0.0
 11
-111.4052558883
 21
-38.048945839
 31
0.0
  0
LINE
  5
791
330
23
100
AcDbEntity
 67
     1
  8
0
  6
Continuous
 62
     7
370
    25
100
AcDbLine
 10
-111.4052558883
 20
-38.048945839
 30
0.0
 11
-111.9052558883
 21
-37.9178900703
 31
0.0
  0
LINE
  5
792
330
23
100
AcDbEntity
 67
     1
  8
0
  6
Continuous
 62
     7
370
    25
100
AcDbLine
 10
-111.9052558883
 20
-37.9178900703
 30
0.0
 11
-112.4052558883
 21
-38.048945839
 31
0.0
  0
LINE
  5
793
330
23
100
AcDbEntity
 67
     1
  8
0
  6
Continuous
 62
     7
370
    25
100
AcDbLine
 10
-114.3105117767
 20
-37.5495562893
 30
0.0
 11
-114.3105117767
 21
-37.8116678265
 31
0.0
  0
LINE
  5
794
330
23
100
AcDbEntity
 67
     1
  8
0
  6
Continuous
 62
     7
370
    25
100
AcDbLine
 10
-114.3105117767
 20
-37.8116678265
 30
0.0
 11
-113.8105117767
 21
-37.9427235951
 31
0.0
  0
LINE
  5
795
330
23
100
AcDbEntity
 67
     1
  8
0
  6
Continuous
 62
     7
370
    25
100
AcDbLine
 10
-113.8105117767
 20
-37.9427235951
 30
0.0
 11
-113.3105117767
 21
-37.8116678265
 31
0.0
  0
LINE
  5
796
330
23
100
AcDbEntity
 67
     1
  8
0
  6
Continuous
 62
     7
370
    25
100
AcDbLine
 10
-113.3105117767
 20
-37.8116678265
 30
0.0
 11
-113.3105117767
 21
-37.5495562893
 31
0.0
  0
LINE
  5
797
330
23
100
AcDbEntity
 67
     1
  8
0
  6
Continuous
 62
     7
370
    25
100
AcDbLine
 10
-113.3105117767
 20
-37.5495562893
 30
0.0
 11
-113.8105117767
 21
-37.4185005206
 31
0.0
  0
LINE
  5
798
330
23
100
AcDbEntity
 67
     1
  8
0
  6
Continuous
 62
     7
370
    25
100
AcDbLine
 10
-113.8105117767
 20
-37.4185005206
 30
0.0
 11
-114.3105117767
 21
-37.5495562893
 31
0.0
  0
LINE
  5
799
330
23
100
AcDbEntity
 67
     1
  8
0
  6
Continuous
 62
     7
370
    25
100
AcDbLine
 10
-116.215767665
 20
-36.0513876401
 30
0.0
 11
-116.215767665
 21
-36.3134991773
 31
0.0
  0
LINE
  5
79A
330
23
100
AcDbEntity
 67
     1
  8
0
  6
Continuous
 62
     7
370
    25
100
AcDbLine
 10
-116.215767665
 20
-36.3134991773
 30
0.0
 11
-115.715767665
 21
-36.444554946
 31
0.0
  0
LINE
  5
79B
330
23
100
AcDbEntity
 67
     1
  8
0
  6
Continuous
 62
     7
370
    25
100
AcDbLine
 10
-115.715767665
 20
-36.444554946
 30
0.0
 11
-115.215767665
 21
-36.3134991773
 31
0.0
  0
LINE
  5
79C
330
23
100
AcDbEntity
 67
     1
  8
0
  6
Continuous
 62
     7
370
    25
100
AcDbLine
 10
-115.215767665
 20
-36.3134991773
 30
0.0
 11
-115.215767665
 21
-36.0513876401
 31
0.0
  0
LINE
  5
79D
330
23
100
AcDbEntity
 67
     1
  8
0
  6
Continuous
 62
     7
370
    25
100
AcDbLine
 10
-115.215767665
 20
-36.0513876401
 30
0.0
 11
-115.715767665
 21
-35.9203318715
 31
0.0
  0
LINE
  5
79E
330
23
100
AcDbEntity
 67
     1
  8
0
  6
Continuous
 62
     7
370
    25
100
AcDbLine
 10
-115.715767665
 20
-35.9203318715
 30
0.0
 11
-116.215767665
 21
-36.0513876401
 31
0.0
  0
LINE
  5
79F
330
23
100
AcDbEntity
 67
     1
  8
0
  6
Continuous
 62
     7
370
    25
100
AcDbLine
 10
-116.215767665
 20
-35.121124446
 30
0.0
 11
-116.215767665
 21
-35.3147200779
 31
0.0
  0
LINE
  5
7A0
330
23
100
AcDbEntity
 67
     1
  8
0
  6
Continuous
 62
     7
370
    25
100
AcDbLine
 10
-116.215767665
 20
-35.3147200779
 30
0.0
 11
-115.715767665
 21
-35.4457758465
 31
0.0
  0
LINE
  5
7A1
330
23
100
AcDbEntity
 67
     1
  8
0
  6
Continuous
 62
     7
370
    25
100
AcDbLine
 10
-115.715767665
 20
-35.4457758465
 30
0.0
 11
-115.215767665
 21
-35.3147200779
 31
0.0
  0
LINE
  5
7A2
330
23
100
AcDbEntity
 67
     1
  8
0
  6
Continuous
 62
     7
370
    25
100
AcDbLine
 10
-115.215767665
 20
-35.3147200779
 30
0.0
 11
-115.215767665
 21
-35.0526085407
 31
0.0
  0
LINE
  5
7A3
330
23
100
AcDbEntity
 67
     1
  8
0
  6
Continuous
 62
     7
370
    25
100
AcDbLine
 10
-115.215767665
 20
-35.0526085407
 30
0.0
 11
-115.715767665
 21
-34.9215527721
 31
0.0
  0
LINE
  5
7A4
330
23
100
AcDbEntity
 67
     1
  8
0
  6
Continuous
 62
     7
370
    25
100
AcDbLine
 10
-115.715767665
 20
-34.9215527721
 30
0.0
 11
-116.1436148005
 21
-35.0336964425
 31
0.0
  0
LINE
  5
7A5
330
23
100
AcDbEntity
 67
     1
  8
0
  6
Continuous
 62
     7
370
    25
100
AcDbLine
 10
-114.2442253423
 20
-33.833925868
 30
0.0
 11
-113.8105117767
 21
-33.9476071974
 31
0.0
  0
LINE
  5
7A6
330
23
100
AcDbEntity
 67
     1
  8
0
  6
Continuous
 62
     7
370
    25
100
AcDbLine
 10
-113.8105117767
 20
-33.9476071974
 30
0.0
 11
-113.3105117767
 21
-33.8165514288
 31
0.0
  0
LINE
  5
7A7
330
23
100
AcDbEntity
 67
     1
  8
0
  6
Continuous
 62
     7
370
    25
100
AcDbLine
 10
-113.3105117767
 20
-33.8165514288
 30
0.0
 11
-113.3105117767
 21
-33.5544398915
 31
0.0
  0
LINE
  5
7A8
330
23
100
AcDbEntity
 67
     1
  8
0
  6
Continuous
 62
     7
370
    25
100
AcDbLine
 10
-113.3105117767
 20
-33.5544398915
 30
0.0
 11
-113.3447060322
 21
-33.5454771827
 31
0.0
  0
LINE
  5
7A9
330
23
100
AcDbEntity
 67
     1
  8
0
  6
Continuous
 62
     7
370
    25
100
AcDbLine
 10
-112.3570141283
 20
-33.3298066009
 30
0.0
 11
-111.9052558883
 21
-33.4482176477
 31
0.0
  0
LINE
  5
7AA
330
23
100
AcDbEntity
 67
     1
  8
0
  6
Continuous
 62
     7
370
    25
100
AcDbLine
 10
-111.9052558883
 20
-33.4482176477
 30
0.0
 11
-111.4052558883
 21
-33.3171618791
 31
0.0
  0
LINE
  5
7AB
330
23
100
AcDbEntity
 67
     1
  8
0
  6
Continuous
 62
     7
370
    25
100
AcDbLine
 10
-111.4052558883
 20
-33.3171618791
 30
0.0
 11
-111.4052558883
 21
-33.2009253338
 31
0.0
  0
LINE
  5
7AC
330
23
100
AcDbEntity
 67
     1
  8
0
  6
Continuous
 62
     7
370
    25
100
AcDbLine
 10
-108.5947441117
 20
-33.3171618791
 30
0.0
 11
-108.5947441117
 21
-33.2009253338
 31
0.0
  0
LINE
  5
7AD
330
23
100
AcDbEntity
 67
     1
  8
0
  6
Continuous
 62
     7
370
    25
100
AcDbLine
 10
-108.5947441117
 20
-33.3171618791
 30
0.0
 11
-108.0947441117
 21
-33.4482176477
 31
0.0
  0
LINE
  5
7AE
330
23
100
AcDbEntity
 67
     1
  8
0
  6
Continuous
 62
     7
370
    25
100
AcDbLine
 10
-108.0947441117
 20
-33.4482176477
 30
0.0
 11
-107.6429858717
 21
-33.3298066009
 31
0.0
  0
LINE
  5
7AF
330
23
100
AcDbEntity
 67
     1
  8
0
  6
Continuous
 62
     7
370
    25
100
AcDbLine
 10
-106.6894882233
 20
-33.5544398915
 30
0.0
 11
-106.6894882233
 21
-33.8165514288
 31
0.0
  0
LINE
  5
7B0
330
23
100
AcDbEntity
 67
     1
  8
0
  6
Continuous
 62
     7
370
    25
100
AcDbLine
 10
-106.6894882233
 20
-33.8165514288
 30
0.0
 11
-106.1894882233
 21
-33.9476071974
 31
0.0
  0
LINE
  5
7B1
330
23
100
AcDbEntity
 67
     1
  8
0
  6
Continuous
 62
     7
370
    25
100
AcDbLine
 10
-106.1894882233
 20
-33.9476071974
 30
0.0
 11
-105.7557746577
 21
-33.833925868
 31
0.0
  0
LINE
  5
7B2
330
23
100
AcDbEntity
 67
     1
  8
0
  6
Continuous
 62
     7
370
    25
100
AcDbLine
 10
-106.6552939678
 20
-33.5454771827
 30
0.0
 11
-106.6894882233
 21
-33.5544398915
 31
0.0
  0
LINE
  5
7B3
330
23
100
AcDbEntity
 67
     1
  8
0
  6
Continuous
 62
     7
370
    25
100
AcDbLine
 10
-104.784232335
 20
-35.0526085407
 30
0.0
 11
-104.784232335
 21
-35.3147200779
 31
0.0
  0
LINE
  5
7B4
330
23
100
AcDbEntity
 67
     1
  8
0
  6
Continuous
 62
     7
370
    25
100
AcDbLine
 10
-104.784232335
 20
-35.3147200779
 30
0.0
 11
-104.284232335
 21
-35.4457758465
 31
0.0
  0
LINE
  5
7B5
330
23
100
AcDbEntity
 67
     1
  8
0
  6
Continuous
 62
     7
370
    25
100
AcDbLine
 10
-104.284232335
 20
-35.4457758465
 30
0.0
 11
-103.784232335
 21
-35.3147200779
 31
0.0
  0
LINE
  5
7B6
330
23
100
AcDbEntity
 67
     1
  8
0
  6
Continuous
 62
     7
370
    25
100
AcDbLine
 10
-103.784232335
 20
-35.3147200779
 30
0.0
 11
-103.784232335
 21
-35.121124446
 31
0.0
  0
LINE
  5
7B7
330
23
100
AcDbEntity
 67
     1
  8
0
  6
Continuous
 62
     7
370
    25
100
AcDbLine
 10
-103.8563851995
 20
-35.0336964425
 30
0.0
 11
-104.284232335
 21
-34.9215527721
 31
0.0
  0
LINE
  5
7B8
330
23
100
AcDbEntity
 67
     1
  8
0
  6
Continuous
 62
     7
370
    25
100
AcDbLine
 10
-104.284232335
 20
-34.9215527721
 30
0.0
 11
-104.784232335
 21
-35.0526085407
 31
0.0
  0
LINE
  5
7B9
330
23
100
AcDbEntity
 67
     1
  8
0
  6
Continuous
 62
     7
370
    25
100
AcDbLine
 10
-104.784232335
 20
-36.0513876401
 30
0.0
 11
-104.784232335
 21
-36.3134991773
 31
0.0
  0
LINE
  5
7BA
330
23
100
AcDbEntity
 67
     1
  8
0
  6
Continuous
 62
     7
370
    25
100
AcDbLine
 10
-104.784232335
 20
-36.3134991773
 30
0.0
 11
-104.284232335
 21
-36.444554946
 31
0.0
  0
LINE
  5
7BB
330
23
100
AcDbEntity
 67
     1
  8
0
  6
Continuous
 62
     7
370
    25
100
AcDbLine
 10
-104.284232335
 20
-36.444554946
 30
0.0
 11
-103.784232335
 21
-36.3134991773
 31
0.0
  0
LINE
  5
7BC
330
23
100
AcDbEntity
 67
     1
  8
0
  6
Continuous
 62
     7
370
    25
100
AcDbLine
 10
-103.784232335
 20
-36.3134991773
 30
0.0
 11
-103.784232335
 21
-36.0513876401
 31
0.0
  0
LINE
  5
7BD
330
23
100
AcDbEntity
 67
     1
  8
0
  6
Continuous
 62
     7
370
    25
100
AcDbLine
 10
-103.784232335
 20
-36.0513876401
 30
0.0
 11
-104.284232335
 21
-35.9203318715
 31
0.0
  0
LINE
  5
7BE
330
23
100
AcDbEntity
 67
     1
  8
0
  6
Continuous
 62
     7
370
    25
100
AcDbLine
 10
-104.284232335
 20
-35.9203318715
 30
0.0
 11
-104.784232335
 21
-36.0513876401
 31
0.0
  0
LINE
  5
7BF
330
23
100
AcDbEntity
 67
     1
  8
0
  6
Continuous
 62
     7
370
    25
100
AcDbLine
 10
-106.6894882233
 20
-37.5495562893
 30
0.0
 11
-106.6894882233
 21
-37.8116678265
 31
0.0
  0
LINE
  5
7C0
330
23
100
AcDbEntity
 67
     1
  8
0
  6
Continuous
 62
     7
370
    25
100
AcDbLine
 10
-106.6894882233
 20
-37.8116678265
 30
0.0
 11
-106.1894882233
 21
-37.9427235951
 31
0.0
  0
LINE
  5
7C1
330
23
100
AcDbEntity
 67
     1
  8
0
  6
Continuous
 62
     7
370
    25
100
AcDbLine
 10
-106.1894882233
 20
-37.9427235951
 30
0.0
 11
-105.6894882233
 21
-37.8116678265
 31
0.0
  0
LINE
  5
7C2
330
23
100
AcDbEntity
 67
     1
  8
0
  6
Continuous
 62
     7
370
    25
100
AcDbLine
 10
-105.6894882233
 20
-37.8116678265
 30
0.0
 11
-105.6894882233
 21
-37.5495562893
 31
0.0
  0
LINE
  5
7C3
330
23
100
AcDbEntity
 67
     1
  8
0
  6
Continuous
 62
     7
370
    25
100
AcDbLine
 10
-105.6894882233
 20
-37.5495562893
 30
0.0
 11
-106.1894882233
 21
-37.4185005206
 31
0.0
  0
LINE
  5
7C4
330
23
100
AcDbEntity
 67
     1
  8
0
  6
Continuous
 62
     7
370
    25
100
AcDbLine
 10
-106.1894882233
 20
-37.4185005206
 30
0.0
 11
-106.6894882233
 21
-37.5495562893
 31
0.0
  0
LINE
  5
7C5
330
23
100
AcDbEntity
 67
     1
  8
0
  6
Continuous
 62
     7
370
    25
100
AcDbLine
 10
-108.5947441117
 20
-38.048945839
 30
0.0
 11
-108.5947441117
 21
-38.3110573762
 31
0.0
  0
LINE
  5
7C6
330
23
100
AcDbEntity
 67
     1
  8
0
  6
Continuous
 62
     7
370
    25
100
AcDbLine
 10
-108.5947441117
 20
-38.3110573762
 30
0.0
 11
-108.0947441117
 21
-38.4421131448
 31
0.0
  0
LINE
  5
7C7
330
23
100
AcDbEntity
 67
     1
  8
0
  6
Continuous
 62
     7
370
    25
100
AcDbLine
 10
-108.0947441117
 20
-38.4421131448
 30
0.0
 11
-107.5947441117
 21
-38.3110573762
 31
0.0
  0
LINE
  5
7C8
330
23
100
AcDbEntity
 67
     1
  8
0
  6
Continuous
 62
     7
370
    25
100
AcDbLine
 10
-107.5947441117
 20
-38.3110573762
 30
0.0
 11
-107.5947441117
 21
-38.048945839
 31
0.0
  0
LINE
  5
7C9
330
23
100
AcDbEntity
 67
     1
  8
0
  6
Continuous
 62
     7
370
    25
100
AcDbLine
 10
-107.5947441117
 20
-38.048945839
 30
0.0
 11
-108.0947441117
 21
-37.9178900703
 31
0.0
  0
LINE
  5
7CA
330
23
100
AcDbEntity
 67
     1
  8
0
  6
Continuous
 62
     7
370
    25
100
AcDbLine
 10
-108.0947441117
 20
-37.9178900703
 30
0.0
 11
-108.5947441117
 21
-38.048945839
 31
0.0
  0
LINE
  5
7CB
330
23
100
AcDbEntity
 67
     1
  8
0
  6
Continuous
 62
     7
370
    25
100
AcDbLine
 10
-112.4052558883
 20
-37.0501667395
 30
0.0
 11
-112.4052558883
 21
-37.3122782768
 31
0.0
  0
LINE
  5
7CC
330
23
100
AcDbEntity
 67
     1
  8
0
  6
Continuous
 62
     7
370
    25
100
AcDbLine
 10
-112.4052558883
 20
-37.3122782768
 30
0.0
 11
-111.9052558883
 21
-37.4433340454
 31
0.0
  0
LINE
  5
7CD
330
23
100
AcDbEntity
 67
     1
  8
0
  6
Continuous
 62
     7
370
    25
100
AcDbLine
 10
-111.9052558883
 20
-37.4433340454
 30
0.0
 11
-111.4052558883
 21
-37.3122782768
 31
0.0
  0
LINE
  5
7CE
330
23
100
AcDbEntity
 67
     1
  8
0
  6
Continuous
 62
     7
370
    25
100
AcDbLine
 10
-111.4052558883
 20
-37.3122782768
 30
0.0
 11
-111.4052558883
 21
-37.0501667395
 31
0.0
  0
LINE
  5
7CF
330
23
100
AcDbEntity
 67
     1
  8
0
  6
Continuous
 62
     7
370
    25
100
AcDbLine
 10
-111.4052558883
 20
-37.0501667395
 30
0.0
 11
-111.9052558883
 21
-36.9191109709
 31
0.0
  0
LINE
  5
7D0
330
23
100
AcDbEntity
 67
     1
  8
0
  6
Continuous
 62
     7
370
    25
100
AcDbLine
 10
-111.9052558883
 20
-36.9191109709
 30
0.0
 11
-112.4052558883
 21
-37.0501667395
 31
0.0
  0
LINE
  5
7D1
330
23
100
AcDbEntity
 67
     1
  8
0
  6
Continuous
 62
     7
370
    25
100
AcDbLine
 10
-114.3105117767
 20
-36.5507771898
 30
0.0
 11
-114.3105117767
 21
-36.8128887271
 31
0.0
  0
LINE
  5
7D2
330
23
100
AcDbEntity
 67
     1
  8
0
  6
Continuous
 62
     7
370
    25
100
AcDbLine
 10
-114.3105117767
 20
-36.8128887271
 30
0.0
 11
-113.8105117767
 21
-36.9439444957
 31
0.0
  0
LINE
  5
7D3
330
23
100
AcDbEntity
 67
     1
  8
0
  6
Continuous
 62
     7
370
    25
100
AcDbLine
 10
-113.8105117767
 20
-36.9439444957
 30
0.0
 11
-113.3105117767
 21
-36.8128887271
 31
0.0
  0
LINE
  5
7D4
330
23
100
AcDbEntity
 67
     1
  8
0
  6
Continuous
 62
     7
370
    25
100
AcDbLine
 10
-113.3105117767
 20
-36.8128887271
 30
0.0
 11
-113.3105117767
 21
-36.5507771898
 31
0.0
  0
LINE
  5
7D5
330
23
100
AcDbEntity
 67
     1
  8
0
  6
Continuous
 62
     7
370
    25
100
AcDbLine
 10
-113.3105117767
 20
-36.5507771898
 30
0.0
 11
-113.8105117767
 21
-36.4197214212
 31
0.0
  0
LINE
  5
7D6
330
23
100
AcDbEntity
 67
     1
  8
0
  6
Continuous
 62
     7
370
    25
100
AcDbLine
 10
-113.8105117767
 20
-36.4197214212
 30
0.0
 11
-114.3105117767
 21
-36.5507771898
 31
0.0
  0
LINE
  5
7D7
330
23
100
AcDbEntity
 67
     1
  8
0
  6
Continuous
 62
     7
370
    25
100
AcDbLine
 10
-114.3105117767
 20
-35.5519980904
 30
0.0
 11
-114.3105117767
 21
-35.8141096276
 31
0.0
  0
LINE
  5
7D8
330
23
100
AcDbEntity
 67
     1
  8
0
  6
Continuous
 62
     7
370
    25
100
AcDbLine
 10
-114.3105117767
 20
-35.8141096276
 30
0.0
 11
-113.8105117767
 21
-35.9451653963
 31
0.0
  0
LINE
  5
7D9
330
23
100
AcDbEntity
 67
     1
  8
0
  6
Continuous
 62
     7
370
    25
100
AcDbLine
 10
-113.8105117767
 20
-35.9451653963
 30
0.0
 11
-113.3105117767
 21
-35.8141096276
 31
0.0
  0
LINE
  5
7DA
330
23
100
AcDbEntity
 67
     1
  8
0
  6
Continuous
 62
     7
370
    25
100
AcDbLine
 10
-113.3105117767
 20
-35.8141096276
 30
0.0
 11
-113.3105117767
 21
-35.5519980904
 31
0.0
  0
LINE
  5
7DB
330
23
100
AcDbEntity
 67
     1
  8
0
  6
Continuous
 62
     7
370
    25
100
AcDbLine
 10
-113.3105117767
 20
-35.5519980904
 30
0.0
 11
-113.8105117767
 21
-35.4209423218
 31
0.0
  0
LINE
  5
7DC
330
23
100
AcDbEntity
 67
     1
  8
0
  6
Continuous
 62
     7
370
    25
100
AcDbLine
 10
-113.8105117767
 20
-35.4209423218
 30
0.0
 11
-114.3105117767
 21
-35.5519980904
 31
0.0
  0
LINE
  5
7DD
330
23
100
AcDbEntity
 67
     1
  8
0
  6
Continuous
 62
     7
370
    25
100
AcDbLine
 10
-114.3105117767
 20
-34.553218991
 30
0.0
 11
-114.3105117767
 21
-34.8153305282
 31
0.0
  0
LINE
  5
7DE
330
23
100
AcDbEntity
 67
     1
  8
0
  6
Continuous
 62
     7
370
    25
100
AcDbLine
 10
-114.3105117767
 20
-34.8153305282
 30
0.0
 11
-113.8105117767
 21
-34.9463862968
 31
0.0
  0
LINE
  5
7DF
330
23
100
AcDbEntity
 67
     1
  8
0
  6
Continuous
 62
     7
370
    25
100
AcDbLine
 10
-113.8105117767
 20
-34.9463862968
 30
0.0
 11
-113.3105117767
 21
-34.8153305282
 31
0.0
  0
LINE
  5
7E0
330
23
100
AcDbEntity
 67
     1
  8
0
  6
Continuous
 62
     7
370
    25
100
AcDbLine
 10
-113.3105117767
 20
-34.8153305282
 30
0.0
 11
-113.3105117767
 21
-34.553218991
 31
0.0
  0
LINE
  5
7E1
330
23
100
AcDbEntity
 67
     1
  8
0
  6
Continuous
 62
     7
370
    25
100
AcDbLine
 10
-113.3105117767
 20
-34.553218991
 30
0.0
 11
-113.8105117767
 21
-34.4221632224
 31
0.0
  0
LINE
  5
7E2
330
23
100
AcDbEntity
 67
     1
  8
0
  6
Continuous
 62
     7
370
    25
100
AcDbLine
 10
-113.8105117767
 20
-34.4221632224
 30
0.0
 11
-114.3105117767
 21
-34.553218991
 31
0.0
  0
LINE
  5
7E3
330
23
100
AcDbEntity
 67
     1
  8
0
  6
Continuous
 62
     7
370
    25
100
AcDbLine
 10
-112.4052558883
 20
-34.0538294413
 30
0.0
 11
-112.4052558883
 21
-34.3159409785
 31
0.0
  0
LINE
  5
7E4
330
23
100
AcDbEntity
 67
     1
  8
0
  6
Continuous
 62
     7
370
    25
100
AcDbLine
 10
-112.4052558883
 20
-34.3159409785
 30
0.0
 11
-111.9052558883
 21
-34.4469967471
 31
0.0
  0
LINE
  5
7E5
330
23
100
AcDbEntity
 67
     1
  8
0
  6
Continuous
 62
     7
370
    25
100
AcDbLine
 10
-111.9052558883
 20
-34.4469967471
 30
0.0
 11
-111.4052558883
 21
-34.3159409785
 31
0.0
  0
LINE
  5
7E6
330
23
100
AcDbEntity
 67
     1
  8
0
  6
Continuous
 62
     7
370
    25
100
AcDbLine
 10
-111.4052558883
 20
-34.3159409785
 30
0.0
 11
-111.4052558883
 21
-34.0538294413
 31
0.0
  0
LINE
  5
7E7
330
23
100
AcDbEntity
 67
     1
  8
0
  6
Continuous
 62
     7
370
    25
100
AcDbLine
 10
-111.4052558883
 20
-34.0538294413
 30
0.0
 11
-111.9052558883
 21
-33.9227736726
 31
0.0
  0
LINE
  5
7E8
330
23
100
AcDbEntity
 67
     1
  8
0
  6
Continuous
 62
     7
370
    25
100
AcDbLine
 10
-111.9052558883
 20
-33.9227736726
 30
0.0
 11
-112.4052558883
 21
-34.0538294413
 31
0.0
  0
LINE
  5
7E9
330
23
100
AcDbEntity
 67
     1
  8
0
  6
Continuous
 62
     7
370
    25
100
AcDbLine
 10
-110.5
 20
-33.5544398915
 30
0.0
 11
-110.5
 21
-33.8165514288
 31
0.0
  0
LINE
  5
7EA
330
23
100
AcDbEntity
 67
     1
  8
0
  6
Continuous
 62
     7
370
    25
100
AcDbLine
 10
-110.5
 20
-33.8165514288
 30
0.0
 11
-110.0
 21
-33.9476071974
 31
0.0
  0
LINE
  5
7EB
330
23
100
AcDbEntity
 67
     1
  8
0
  6
Continuous
 62
     7
370
    25
100
AcDbLine
 10
-110.0
 20
-33.9476071974
 30
0.0
 11
-109.5
 21
-33.8165514288
 31
0.0
  0
LINE
  5
7EC
330
23
100
AcDbEntity
 67
     1
  8
0
  6
Continuous
 62
     7
370
    25
100
AcDbLine
 10
-109.5
 20
-33.8165514288
 30
0.0
 11
-109.5
 21
-33.5544398915
 31
0.0
  0
LINE
  5
7ED
330
23
100
AcDbEntity
 67
     1
  8
0
  6
Continuous
 62
     7
370
    25
100
AcDbLine
 10
-109.5
 20
-33.5544398915
 30
0.0
 11
-110.0
 21
-33.4233841229
 31
0.0
  0
LINE
  5
7EE
330
23
100
AcDbEntity
 67
     1
  8
0
  6
Continuous
 62
     7
370
    25
100
AcDbLine
 10
-110.0
 20
-33.4233841229
 30
0.0
 11
-110.5
 21
-33.5544398915
 31
0.0
  0
LINE
  5
7EF
330
23
100
AcDbEntity
 67
     1
  8
0
  6
Continuous
 62
     7
370
    25
100
AcDbLine
 10
-108.5947441117
 20
-34.0538294413
 30
0.0
 11
-108.5947441117
 21
-34.3159409785
 31
0.0
  0
LINE
  5
7F0
330
23
100
AcDbEntity
 67
     1
  8
0
  6
Continuous
 62
     7
370
    25
100
AcDbLine
 10
-108.5947441117
 20
-34.3159409785
 30
0.0
 11
-108.0947441117
 21
-34.4469967471
 31
0.0
  0
LINE
  5
7F1
330
23
100
AcDbEntity
 67
     1
  8
0
  6
Continuous
 62
     7
370
    25
100
AcDbLine
 10
-108.0947441117
 20
-34.4469967471
 30
0.0
 11
-107.5947441117
 21
-34.3159409785
 31
0.0
  0
LINE
  5
7F2
330
23
100
AcDbEntity
 67
     1
  8
0
  6
Continuous
 62
     7
370
    25
100
AcDbLine
 10
-107.5947441117
 20
-34.3159409785
 30
0.0
 11
-107.5947441117
 21
-34.0538294413
 31
0.0
  0
LINE
  5
7F3
330
23
100
AcDbEntity
 67
     1
  8
0
  6
Continuous
 62
     7
370
    25
100
AcDbLine
 10
-107.5947441117
 20
-34.0538294413
 30
0.0
 11
-108.0947441117
 21
-33.9227736726
 31
0.0
  0
LINE
  5
7F4
330
23
100
AcDbEntity
 67
     1
  8
0
  6
Continuous
 62
     7
370
    25
100
AcDbLine
 10
-108.0947441117
 20
-33.9227736726
 30
0.0
 11
-108.5947441117
 21
-34.0538294413
 31
0.0
  0
LINE
  5
7F5
330
23
100
AcDbEntity
 67
     1
  8
0
  6
Continuous
 62
     7
370
    25
100
AcDbLine
 10
-106.6894882233
 20
-34.553218991
 30
0.0
 11
-106.6894882233
 21
-34.8153305282
 31
0.0
  0
LINE
  5
7F6
330
23
100
AcDbEntity
 67
     1
  8
0
  6
Continuous
 62
     7
370
    25
100
AcDbLine
 10
-106.6894882233
 20
-34.8153305282
 30
0.0
 11
-106.1894882233
 21
-34.9463862968
 31
0.0
  0
LINE
  5
7F7
330
23
100
AcDbEntity
 67
     1
  8
0
  6
Continuous
 62
     7
370
    25
100
AcDbLine
 10
-106.1894882233
 20
-34.9463862968
 30
0.0
 11
-105.6894882233
 21
-34.8153305282
 31
0.0
  0
LINE
  5
7F8
330
23
100
AcDbEntity
 67
     1
  8
0
  6
Continuous
 62
     7
370
    25
100
AcDbLine
 10
-105.6894882233
 20
-34.8153305282
 30
0.0
 11
-105.6894882233
 21
-34.553218991
 31
0.0
  0
LINE
  5
7F9
330
23
100
AcDbEntity
 67
     1
  8
0
  6
Continuous
 62
     7
370
    25
100
AcDbLine
 10
-105.6894882233
 20
-34.553218991
 30
0.0
 11
-106.1894882233
 21
-34.4221632224
 31
0.0
  0
LINE
  5
7FA
330
23
100
AcDbEntity
 67
     1
  8
0
  6
Continuous
 62
     7
370
    25
100
AcDbLine
 10
-106.1894882233
 20
-34.4221632224
 30
0.0
 11
-106.6894882233
 21
-34.553218991
 31
0.0
  0
LINE
  5
7FB
330
23
100
AcDbEntity
 67
     1
  8
0
  6
Continuous
 62
     7
370
    25
100
AcDbLine
 10
-106.6894882233
 20
-35.5519980904
 30
0.0
 11
-106.6894882233
 21
-35.8141096276
 31
0.0
  0
LINE
  5
7FC
330
23
100
AcDbEntity
 67
     1
  8
0
  6
Continuous
 62
     7
370
    25
100
AcDbLine
 10
-106.6894882233
 20
-35.8141096276
 30
0.0
 11
-106.1894882233
 21
-35.9451653963
 31
0.0
  0
LINE
  5
7FD
330
23
100
AcDbEntity
 67
     1
  8
0
  6
Continuous
 62
     7
370
    25
100
AcDbLine
 10
-106.1894882233
 20
-35.9451653963
 30
0.0
 11
-105.6894882233
 21
-35.8141096276
 31
0.0
  0
LINE
  5
7FE
330
23
100
AcDbEntity
 67
     1
  8
0
  6
Continuous
 62
     7
370
    25
100
AcDbLine
 10
-105.6894882233
 20
-35.8141096276
 30
0.0
 11
-105.6894882233
 21
-35.5519980904
 31
0.0
  0
LINE
  5
7FF
330
23
100
AcDbEntity
 67
     1
  8
0
  6
Continuous
 62
     7
370
    25
100
AcDbLine
 10
-105.6894882233
 20
-35.5519980904
 30
0.0
 11
-106.1894882233
 21
-35.4209423218
 31
0.0
  0
LINE
  5
800
330
23
100
AcDbEntity
 67
     1
  8
0
  6
Continuous
 62
     7
370
    25
100
AcDbLine
 10
-106.1894882233
 20
-35.4209423218
 30
0.0
 11
-106.6894882233
 21
-35.5519980904
 31
0.0
  0
LINE
  5
801
330
23
100
AcDbEntity
 67
     1
  8
0
  6
Continuous
 62
     7
370
    25
100
AcDbLine
 10
-106.6894882233
 20
-36.5507771898
 30
0.0
 11
-106.6894882233
 21
-36.8128887271
 31
0.0
  0
LINE
  5
802
330
23
100
AcDbEntity
 67
     1
  8
0
  6
Continuous
 62
     7
370
    25
100
AcDbLine
 10
-106.6894882233
 20
-36.8128887271
 30
0.0
 11
-106.1894882233
 21
-36.9439444957
 31
0.0
  0
LINE
  5
803
330
23
100
AcDbEntity
 67
     1
  8
0
  6
Continuous
 62
     7
370
    25
100
AcDbLine
 10
-106.1894882233
 20
-36.9439444957
 30
0.0
 11
-105.6894882233
 21
-36.8128887271
 31
0.0
  0
LINE
  5
804
330
23
100
AcDbEntity
 67
     1
  8
0
  6
Continuous
 62
     7
370
    25
100
AcDbLine
 10
-105.6894882233
 20
-36.8128887271
 30
0.0
 11
-105.6894882233
 21
-36.5507771898
 31
0.0
  0
LINE
  5
805
330
23
100
AcDbEntity
 67
     1
  8
0
  6
Continuous
 62
     7
370
    25
100
AcDbLine
 10
-105.6894882233
 20
-36.5507771898
 30
0.0
 11
-106.1894882233
 21
-36.4197214212
 31
0.0
  0
LINE
  5
806
330
23
100
AcDbEntity
 67
     1
  8
0
  6
Continuous
 62
     7
370
    25
100
AcDbLine
 10
-106.1894882233
 20
-36.4197214212
 30
0.0
 11
-106.6894882233
 21
-36.5507771898
 31
0.0
  0
LINE
  5
807
330
23
100
AcDbEntity
 67
     1
  8
0
  6
Continuous
 62
     7
370
    25
100
AcDbLine
 10
-108.5947441117
 20
-37.0501667395
 30
0.0
 11
-108.5947441117
 21
-37.3122782768
 31
0.0
  0
LINE
  5
808
330
23
100
AcDbEntity
 67
     1
  8
0
  6
Continuous
 62
     7
370
    25
100
AcDbLine
 10
-108.5947441117
 20
-37.3122782768
 30
0.0
 11
-108.0947441117
 21
-37.4433340454
 31
0.0
  0
LINE
  5
809
330
23
100
AcDbEntity
 67
     1
  8
0
  6
Continuous
 62
     7
370
    25
100
AcDbLine
 10
-108.0947441117
 20
-37.4433340454
 30
0.0
 11
-107.5947441117
 21
-37.3122782768
 31
0.0
  0
LINE
  5
80A
330
23
100
AcDbEntity
 67
     1
  8
0
  6
Continuous
 62
     7
370
    25
100
AcDbLine
 10
-107.5947441117
 20
-37.3122782768
 30
0.0
 11
-107.5947441117
 21
-37.0501667395
 31
0.0
  0
LINE
  5
80B
330
23
100
AcDbEntity
 67
     1
  8
0
  6
Continuous
 62
     7
370
    25
100
AcDbLine
 10
-107.5947441117
 20
-37.0501667395
 30
0.0
 11
-108.0947441117
 21
-36.9191109709
 31
0.0
  0
LINE
  5
80C
330
23
100
AcDbEntity
 67
     1
  8
0
  6
Continuous
 62
     7
370
    25
100
AcDbLine
 10
-108.0947441117
 20
-36.9191109709
 30
0.0
 11
-108.5947441117
 21
-37.0501667395
 31
0.0
  0
LINE
  5
80D
330
23
100
AcDbEntity
 67
     1
  8
0
  6
Continuous
 62
     7
370
    25
100
AcDbLine
 10
-110.5
 20
-37.5495562893
 30
0.0
 11
-110.5
 21
-37.8116678265
 31
0.0
  0
LINE
  5
80E
330
23
100
AcDbEntity
 67
     1
  8
0
  6
Continuous
 62
     7
370
    25
100
AcDbLine
 10
-110.5
 20
-37.8116678265
 30
0.0
 11
-110.0
 21
-37.9427235951
 31
0.0
  0
LINE
  5
80F
330
23
100
AcDbEntity
 67
     1
  8
0
  6
Continuous
 62
     7
370
    25
100
AcDbLine
 10
-110.0
 20
-37.9427235951
 30
0.0
 11
-109.5
 21
-37.8116678265
 31
0.0
  0
LINE
  5
810
330
23
100
AcDbEntity
 67
     1
  8
0
  6
Continuous
 62
     7
370
    25
100
AcDbLine
 10
-109.5
 20
-37.8116678265
 30
0.0
 11
-109.5
 21
-37.5495562893
 31
0.0
  0
LINE
  5
811
330
23
100
AcDbEntity
 67
     1
  8
0
  6
Continuous
 62
     7
370
    25
100
AcDbLine
 10
-109.5
 20
-37.5495562893
 30
0.0
 11
-110.0
 21
-37.4185005206
 31
0.0
  0
LINE
  5
812
330
23
100
AcDbEntity
 67
     1
  8
0
  6
Continuous
 62
     7
370
    25
100
AcDbLine
 10
-110.0
 20
-37.4185005206
 30
0.0
 11
-110.5
 21
-37.5495562893
 31
0.0
  0
LINE
  5
813
330
23
100
AcDbEntity
 67
     1
  8
0
  6
Continuous
 62
     7
370
    25
100
AcDbLine
 10
-112.4052558883
 20
-36.0513876401
 30
0.0
 11
-112.4052558883
 21
-36.3134991773
 31
0.0
  0
LINE
  5
814
330
23
100
AcDbEntity
 67
     1
  8
0
  6
Continuous
 62
     7
370
    25
100
AcDbLine
 10
-112.4052558883
 20
-36.3134991773
 30
0.0
 11
-111.9052558883
 21
-36.444554946
 31
0.0
  0
LINE
  5
815
330
23
100
AcDbEntity
 67
     1
  8
0
  6
Continuous
 62
     7
370
    25
100
AcDbLine
 10
-111.9052558883
 20
-36.444554946
 30
0.0
 11
-111.4052558883
 21
-36.3134991773
 31
0.0
  0
LINE
  5
816
330
23
100
AcDbEntity
 67
     1
  8
0
  6
Continuous
 62
     7
370
    25
100
AcDbLine
 10
-111.4052558883
 20
-36.3134991773
 30
0.0
 11
-111.4052558883
 21
-36.0513876401
 31
0.0
  0
LINE
  5
817
330
23
100
AcDbEntity
 67
     1
  8
0
  6
Continuous
 62
     7
370
    25
100
AcDbLine
 10
-111.4052558883
 20
-36.0513876401
 30
0.0
 11
-111.9052558883
 21
-35.9203318715
 31
0.0
  0
LINE
  5
818
330
23
100
AcDbEntity
 67
     1
  8
0
  6
Continuous
 62
     7
370
    25
100
AcDbLine
 10
-111.9052558883
 20
-35.9203318715
 30
0.0
 11
-112.4052558883
 21
-36.0513876401
 31
0.0
  0
LINE
  5
819
330
23
100
AcDbEntity
 67
     1
  8
0
  6
Continuous
 62
     7
370
    25
100
AcDbLine
 10
-112.4052558883
 20
-35.0526085407
 30
0.0
 11
-112.4052558883
 21
-35.3147200779
 31
0.0
  0
LINE
  5
81A
330
23
100
AcDbEntity
 67
     1
  8
0
  6
Continuous
 62
     7
370
    25
100
AcDbLine
 10
-112.4052558883
 20
-35.3147200779
 30
0.0
 11
-111.9052558883
 21
-35.4457758465
 31
0.0
  0
LINE
  5
81B
330
23
100
AcDbEntity
 67
     1
  8
0
  6
Continuous
 62
     7
370
    25
100
AcDbLine
 10
-111.9052558883
 20
-35.4457758465
 30
0.0
 11
-111.4052558883
 21
-35.3147200779
 31
0.0
  0
LINE
  5
81C
330
23
100
AcDbEntity
 67
     1
  8
0
  6
Continuous
 62
     7
370
    25
100
AcDbLine
 10
-111.4052558883
 20
-35.3147200779
 30
0.0
 11
-111.4052558883
 21
-35.0526085407
 31
0.0
  0
LINE
  5
81D
330
23
100
AcDbEntity
 67
     1
  8
0
  6
Continuous
 62
     7
370
    25
100
AcDbLine
 10
-111.4052558883
 20
-35.0526085407
 30
0.0
 11
-111.9052558883
 21
-34.9215527721
 31
0.0
  0
LINE
  5
81E
330
23
100
AcDbEntity
 67
     1
  8
0
  6
Continuous
 62
     7
370
    25
100
AcDbLine
 10
-111.9052558883
 20
-34.9215527721
 30
0.0
 11
-112.4052558883
 21
-35.0526085407
 31
0.0
  0
LINE
  5
81F
330
23
100
AcDbEntity
 67
     1
  8
0
  6
Continuous
 62
     7
370
    25
100
AcDbLine
 10
-110.5
 20
-34.553218991
 30
0.0
 11
-110.5
 21
-34.8153305282
 31
0.0
  0
LINE
  5
820
330
23
100
AcDbEntity
 67
     1
  8
0
  6
Continuous
 62
     7
370
    25
100
AcDbLine
 10
-110.5
 20
-34.8153305282
 30
0.0
 11
-110.0
 21
-34.9463862968
 31
0.0
  0
LINE
  5
821
330
23
100
AcDbEntity
 67
     1
  8
0
  6
Continuous
 62
     7
370
    25
100
AcDbLine
 10
-110.0
 20
-34.9463862968
 30
0.0
 11
-109.5
 21
-34.8153305282
 31
0.0
  0
LINE
  5
822
330
23
100
AcDbEntity
 67
     1
  8
0
  6
Continuous
 62
     7
370
    25
100
AcDbLine
 10
-109.5
 20
-34.8153305282
 30
0.0
 11
-109.5
 21
-34.553218991
 31
0.0
  0
LINE
  5
823
330
23
100
AcDbEntity
 67
     1
  8
0
  6
Continuous
 62
     7
370
    25
100
AcDbLine
 10
-109.5
 20
-34.553218991
 30
0.0
 11
-110.0
 21
-34.4221632224
 31
0.0
  0
LINE
  5
824
330
23
100
AcDbEntity
 67
     1
  8
0
  6
Continuous
 62
     7
370
    25
100
AcDbLine
 10
-110.0
 20
-34.4221632224
 30
0.0
 11
-110.5
 21
-34.553218991
 31
0.0
  0
LINE
  5
825
330
23
100
AcDbEntity
 67
     1
  8
0
  6
Continuous
 62
     7
370
    25
100
AcDbLine
 10
-108.5947441117
 20
-35.0526085407
 30
0.0
 11
-108.5947441117
 21
-35.3147200779
 31
0.0
  0
LINE
  5
826
330
23
100
AcDbEntity
 67
     1
  8
0
  6
Continuous
 62
     7
370
    25
100
AcDbLine
 10
-108.5947441117
 20
-35.3147200779
 30
0.0
 11
-108.0947441117
 21
-35.4457758465
 31
0.0
  0
LINE
  5
827
330
23
100
AcDbEntity
 67
     1
  8
0
  6
Continuous
 62
     7
370
    25
100
AcDbLine
 10
-108.0947441117
 20
-35.4457758465
 30
0.0
 11
-107.5947441117
 21
-35.3147200779
 31
0.0
  0
LINE
  5
828
330
23
100
AcDbEntity
 67
     1
  8
0
  6
Continuous
 62
     7
370
    25
100
AcDbLine
 10
-107.5947441117
 20
-35.3147200779
 30
0.0
 11
-107.5947441117
 21
-35.0526085407
 31
0.0
  0
LINE
  5
829
330
23
100
AcDbEntity
 67
     1
  8
0
  6
Continuous
 62
     7
370
    25
100
AcDbLine
 10
-107.5947441117
 20
-35.0526085407
 30
0.0
 11
-108.0947441117
 21
-34.9215527721
 31
0.0
  0
LINE
  5
82A
330
23
100
AcDbEntity
 67
     1
  8
0
  6
Continuous
 62
     7
370
    25
100
AcDbLine
 10
-108.0947441117
 20
-34.9215527721
 30
0.0
 11
-108.5947441117
 21
-35.0526085407
 31
0.0
  0
LINE
  5
82B
330
23
100
AcDbEntity
 67
     1
  8
0
  6
Continuous
 62
     7
370
    25
100
AcDbLine
 10
-108.5947441117
 20
-36.0513876401
 30
0.0
 11
-108.5947441117
 21
-36.3134991773
 31
0.0
  0
LINE
  5
82C
330
23
100
AcDbEntity
 67
     1
  8
0
  6
Continuous
 62
     7
370
    25
100
AcDbLine
 10
-108.5947441117
 20
-36.3134991773
 30
0.0
 11
-108.0947441117
 21
-36.444554946
 31
0.0
  0
LINE
  5
82D
330
23
100
AcDbEntity
 67
     1
  8
0
  6
Continuous
 62
     7
370
    25
100
AcDbLine
 10
-108.0947441117
 20
-36.444554946
 30
0.0
 11
-107.5947441117
 21
-36.3134991773
 31
0.0
  0
LINE
  5
82E
330
23
100
AcDbEntity
 67
     1
  8
0
  6
Continuous
 62
     7
370
    25
100
AcDbLine
 10
-107.5947441117
 20
-36.3134991773
 30
0.0
 11
-107.5947441117
 21
-36.0513876401
 31
0.0
  0
LINE
  5
82F
330
23
100
AcDbEntity
 67
     1
  8
0
  6
Continuous
 62
     7
370
    25
100
AcDbLine
 10
-107.5947441117
 20
-36.0513876401
 30
0.0
 11
-108.0947441117
 21
-35.9203318715
 31
0.0
  0
LINE
  5
830
330
23
100
AcDbEntity
 67
     1
  8
0
  6
Continuous
 62
     7
370
    25
100
AcDbLine
 10
-108.0947441117
 20
-35.9203318715
 30
0.0
 11
-108.5947441117
 21
-36.0513876401
 31
0.0
  0
LINE
  5
831
330
23
100
AcDbEntity
 67
     1
  8
0
  6
Continuous
 62
     7
370
    25
100
AcDbLine
 10
-110.7552558883
 20
-38.6597082222
 30
0.0
 11
-110.7552558883
 21
-38.5483353887
 31
0.0
  0
LINE
  5
832
330
23
100
AcDbEntity
 67
     1
  8
0
  6
Continuous
 62
     7
370
    25
100
AcDbLine
 10
-110.7552558883
 20
-38.5483353887
 30
0.0
 11
-111.2552558883
 21
-38.4172796201
 31
0.0
  0
LINE
  5
833
330
23
100
AcDbEntity
 67
     1
  8
0
  6
Continuous
 62
     7
370
    25
100
AcDbLine
 10
-111.2552558883
 20
-38.4172796201
 30
0.0
 11
-111.7552558883
 21
-38.5483353887
 31
0.0
  0
LINE
  5
834
330
23
100
AcDbEntity
 67
     1
  8
0
  6
Continuous
 62
     7
370
    25
100
AcDbLine
 10
-111.7552558883
 20
-38.5714853033
 30
0.0
 11
-111.7552558883
 21
-38.5483353887
 31
0.0
  0
LINE
  5
835
330
23
100
AcDbEntity
 67
     1
  8
0
  6
Continuous
 62
     7
370
    25
100
AcDbLine
 10
-112.9016873259
 20
-38.3742722701
 30
0.0
 11
-112.6605117767
 21
-38.3110573762
 31
0.0
  0
LINE
  5
836
330
23
100
AcDbEntity
 67
     1
  8
0
  6
Continuous
 62
     7
370
    25
100
AcDbLine
 10
-112.6605117767
 20
-38.3110573762
 30
0.0
 11
-112.6605117767
 21
-38.048945839
 31
0.0
  0
LINE
  5
837
330
23
100
AcDbEntity
 67
     1
  8
0
  6
Continuous
 62
     7
370
    25
100
AcDbLine
 10
-112.6605117767
 20
-38.048945839
 30
0.0
 11
-113.1605117767
 21
-37.9178900703
 31
0.0
  0
LINE
  5
838
330
23
100
AcDbEntity
 67
     1
  8
0
  6
Continuous
 62
     7
370
    25
100
AcDbLine
 10
-113.1605117767
 20
-37.9178900703
 30
0.0
 11
-113.6605117767
 21
-38.048945839
 31
0.0
  0
LINE
  5
839
330
23
100
AcDbEntity
 67
     1
  8
0
  6
Continuous
 62
     7
370
    25
100
AcDbLine
 10
-113.6605117767
 20
-38.048945839
 30
0.0
 11
-113.6605117767
 21
-38.1763113855
 31
0.0
  0
LINE
  5
83A
330
23
100
AcDbEntity
 67
     1
  8
0
  6
Continuous
 62
     7
370
    25
100
AcDbLine
 10
-114.6157322553
 20
-37.8247641221
 30
0.0
 11
-114.565767665
 21
-37.8116678265
 31
0.0
  0
LINE
  5
83B
330
23
100
AcDbEntity
 67
     1
  8
0
  6
Continuous
 62
     7
370
    25
100
AcDbLine
 10
-114.565767665
 20
-37.8116678265
 30
0.0
 11
-114.565767665
 21
-37.5495562893
 31
0.0
  0
LINE
  5
83C
330
23
100
AcDbEntity
 67
     1
  8
0
  6
Continuous
 62
     7
370
    25
100
AcDbLine
 10
-114.565767665
 20
-37.5495562893
 30
0.0
 11
-115.065767665
 21
-37.4185005206
 31
0.0
  0
LINE
  5
83D
330
23
100
AcDbEntity
 67
     1
  8
0
  6
Continuous
 62
     7
370
    25
100
AcDbLine
 10
-115.065767665
 20
-37.4185005206
 30
0.0
 11
-115.2871415497
 21
-37.4765251699
 31
0.0
  0
LINE
  5
83E
330
23
100
AcDbEntity
 67
     1
  8
0
  6
Continuous
 62
     7
370
    25
100
AcDbLine
 10
-115.4493420673
 20
-37.3735008224
 30
0.0
 11
-115.215767665
 21
-37.3122782768
 31
0.0
  0
LINE
  5
83F
330
23
100
AcDbEntity
 67
     1
  8
0
  6
Continuous
 62
     7
370
    25
100
AcDbLine
 10
-115.215767665
 20
-37.3122782768
 30
0.0
 11
-115.215767665
 21
-37.0501667395
 31
0.0
  0
LINE
  5
840
330
23
100
AcDbEntity
 67
     1
  8
0
  6
Continuous
 62
     7
370
    25
100
AcDbLine
 10
-115.215767665
 20
-37.0501667395
 30
0.0
 11
-115.715767665
 21
-36.9191109709
 31
0.0
  0
LINE
  5
841
330
23
100
AcDbEntity
 67
     1
  8
0
  6
Continuous
 62
     7
370
    25
100
AcDbLine
 10
-115.715767665
 20
-36.9191109709
 30
0.0
 11
-115.9493420673
 21
-36.9803335166
 31
0.0
  0
LINE
  5
842
330
23
100
AcDbEntity
 67
     1
  8
0
  6
Continuous
 62
     7
370
    25
100
AcDbLine
 10
-116.0658129743
 20
-36.8639452816
 30
0.0
 11
-115.8710235533
 21
-36.8128887271
 31
0.0
  0
LINE
  5
843
330
23
100
AcDbEntity
 67
     1
  8
0
  6
Continuous
 62
     7
370
    25
100
AcDbLine
 10
-115.8710235533
 20
-36.8128887271
 30
0.0
 11
-115.8710235533
 21
-36.5507771898
 31
0.0
  0
LINE
  5
844
330
23
100
AcDbEntity
 67
     1
  8
0
  6
Continuous
 62
     7
370
    25
100
AcDbLine
 10
-115.8710235533
 20
-36.5507771898
 30
0.0
 11
-116.3710235533
 21
-36.4197214212
 31
0.0
  0
LINE
  5
845
330
23
100
AcDbEntity
 67
     1
  8
0
  6
Continuous
 62
     7
370
    25
100
AcDbLine
 10
-116.3940371666
 20
-36.4257535548
 30
0.0
 11
-116.3710235533
 21
-36.4197214212
 31
0.0
  0
LINE
  5
846
330
23
100
AcDbEntity
 67
     1
  8
0
  6
Continuous
 62
     7
370
    25
100
AcDbLine
 10
-116.5791563074
 20
-35.8906114001
 30
0.0
 11
-116.3710235533
 21
-35.9451653963
 31
0.0
  0
LINE
  5
847
330
23
100
AcDbEntity
 67
     1
  8
0
  6
Continuous
 62
     7
370
    25
100
AcDbLine
 10
-116.3710235533
 20
-35.9451653963
 30
0.0
 11
-115.8710235533
 21
-35.8141096276
 31
0.0
  0
LINE
  5
848
330
23
100
AcDbEntity
 67
     1
  8
0
  6
Continuous
 62
     7
370
    25
100
AcDbLine
 10
-115.8710235533
 20
-35.8141096276
 30
0.0
 11
-115.8710235533
 21
-35.5519980904
 31
0.0
  0
LINE
  5
849
330
23
100
AcDbEntity
 67
     1
  8
0
  6
Continuous
 62
     7
370
    25
100
AcDbLine
 10
-115.8710235533
 20
-35.5519980904
 30
0.0
 11
-116.3710235533
 21
-35.4209423218
 31
0.0
  0
LINE
  5
84A
330
23
100
AcDbEntity
 67
     1
  8
0
  6
Continuous
 62
     7
370
    25
100
AcDbLine
 10
-116.4201390987
 20
-35.4338160729
 30
0.0
 11
-116.3710235533
 21
-35.4209423218
 31
0.0
  0
LINE
  5
84B
330
23
100
AcDbEntity
 67
     1
  8
0
  6
Continuous
 62
     7
370
    25
100
AcDbLine
 10
-115.9560208218
 20
-34.8376092929
 30
0.0
 11
-115.8710235533
 21
-34.8153305282
 31
0.0
  0
LINE
  5
84C
330
23
100
AcDbEntity
 67
     1
  8
0
  6
Continuous
 62
     7
370
    25
100
AcDbLine
 10
-115.8710235533
 20
-34.8153305282
 30
0.0
 11
-115.8710235533
 21
-34.7597112107
 31
0.0
  0
LINE
  5
84D
330
23
100
AcDbEntity
 67
     1
  8
0
  6
Continuous
 62
     7
370
    25
100
AcDbLine
 10
-115.285876194
 20
-34.3343172328
 30
0.0
 11
-115.215767665
 21
-34.3159409785
 31
0.0
  0
LINE
  5
84E
330
23
100
AcDbEntity
 67
     1
  8
0
  6
Continuous
 62
     7
370
    25
100
AcDbLine
 10
-115.215767665
 20
-34.3159409785
 30
0.0
 11
-115.215767665
 21
-34.2925167292
 31
0.0
  0
LINE
  5
84F
330
23
100
AcDbEntity
 67
     1
  8
0
  6
Continuous
 62
     7
370
    25
100
AcDbLine
 10
-104.784232335
 20
-34.2925167292
 30
0.0
 11
-104.784232335
 21
-34.3159409785
 31
0.0
  0
LINE
  5
850
330
23
100
AcDbEntity
 67
     1
  8
0
  6
Continuous
 62
     7
370
    25
100
AcDbLine
 10
-104.784232335
 20
-34.3159409785
 30
0.0
 11
-104.714123806
 21
-34.3343172328
 31
0.0
  0
LINE
  5
851
330
23
100
AcDbEntity
 67
     1
  8
0
  6
Continuous
 62
     7
370
    25
100
AcDbLine
 10
-104.134232335
 20
-34.755074931
 30
0.0
 11
-104.134232335
 21
-34.8153305282
 31
0.0
  0
LINE
  5
852
330
23
100
AcDbEntity
 67
     1
  8
0
  6
Continuous
 62
     7
370
    25
100
AcDbLine
 10
-104.134232335
 20
-34.8153305282
 30
0.0
 11
-104.041981637
 21
-34.8395105005
 31
0.0
  0
LINE
  5
853
330
23
100
AcDbEntity
 67
     1
  8
0
  6
Continuous
 62
     7
370
    25
100
AcDbLine
 10
-103.5790233626
 20
-35.4354132304
 30
0.0
 11
-103.634232335
 21
-35.4209423218
 31
0.0
  0
LINE
  5
854
330
23
100
AcDbEntity
 67
     1
  8
0
  6
Continuous
 62
     7
370
    25
100
AcDbLine
 10
-103.634232335
 20
-35.4209423218
 30
0.0
 11
-104.134232335
 21
-35.5519980904
 31
0.0
  0
LINE
  5
855
330
23
100
AcDbEntity
 67
     1
  8
0
  6
Continuous
 62
     7
370
    25
100
AcDbLine
 10
-104.134232335
 20
-35.5519980904
 30
0.0
 11
-104.134232335
 21
-35.8141096276
 31
0.0
  0
LINE
  5
856
330
23
100
AcDbEntity
 67
     1
  8
0
  6
Continuous
 62
     7
370
    25
100
AcDbLine
 10
-104.134232335
 20
-35.8141096276
 30
0.0
 11
-103.634232335
 21
-35.9451653963
 31
0.0
  0
LINE
  5
857
330
23
100
AcDbEntity
 67
     1
  8
0
  6
Continuous
 62
     7
370
    25
100
AcDbLine
 10
-103.4210754171
 20
-35.8892945088
 30
0.0
 11
-103.634232335
 21
-35.9451653963
 31
0.0
  0
LINE
  5
858
330
23
100
AcDbEntity
 67
     1
  8
0
  6
Continuous
 62
     7
370
    25
100
AcDbLine
 10
-103.6066398006
 20
-36.4269537428
 30
0.0
 11
-103.634232335
 21
-36.4197214212
 31
0.0
  0
LINE
  5
859
330
23
100
AcDbEntity
 67
     1
  8
0
  6
Continuous
 62
     7
370
    25
100
AcDbLine
 10
-103.634232335
 20
-36.4197214212
 30
0.0
 11
-104.134232335
 21
-36.5507771898
 31
0.0
  0
LINE
  5
85A
330
23
100
AcDbEntity
 67
     1
  8
0
  6
Continuous
 62
     7
370
    25
100
AcDbLine
 10
-104.134232335
 20
-36.5507771898
 30
0.0
 11
-104.134232335
 21
-36.8128887271
 31
0.0
  0
LINE
  5
85B
330
23
100
AcDbEntity
 67
     1
  8
0
  6
Continuous
 62
     7
370
    25
100
AcDbLine
 10
-104.134232335
 20
-36.8128887271
 30
0.0
 11
-103.9352305061
 21
-36.8650494023
 31
0.0
  0
LINE
  5
85C
330
23
100
AcDbEntity
 67
     1
  8
0
  6
Continuous
 62
     7
370
    25
100
AcDbLine
 10
-104.0506579327
 20
-36.9803335166
 30
0.0
 11
-104.284232335
 21
-36.9191109709
 31
0.0
  0
LINE
  5
85D
330
23
100
AcDbEntity
 67
     1
  8
0
  6
Continuous
 62
     7
370
    25
100
AcDbLine
 10
-104.284232335
 20
-36.9191109709
 30
0.0
 11
-104.784232335
 21
-37.0501667395
 31
0.0
  0
LINE
  5
85E
330
23
100
AcDbEntity
 67
     1
  8
0
  6
Continuous
 62
     7
370
    25
100
AcDbLine
 10
-104.784232335
 20
-37.0501667395
 30
0.0
 11
-104.784232335
 21
-37.3122782768
 31
0.0
  0
LINE
  5
85F
330
23
100
AcDbEntity
 67
     1
  8
0
  6
Continuous
 62
     7
370
    25
100
AcDbLine
 10
-104.784232335
 20
-37.3122782768
 30
0.0
 11
-104.5506579327
 21
-37.3735008224
 31
0.0
  0
LINE
  5
860
330
23
100
AcDbEntity
 67
     1
  8
0
  6
Continuous
 62
     7
370
    25
100
AcDbLine
 10
-104.714442914
 20
-37.4774874926
 30
0.0
 11
-104.9394882233
 21
-37.4185005206
 31
0.0
  0
LINE
  5
861
330
23
100
AcDbEntity
 67
     1
  8
0
  6
Continuous
 62
     7
370
    25
100
AcDbLine
 10
-104.9394882233
 20
-37.4185005206
 30
0.0
 11
-105.4394882233
 21
-37.5495562893
 31
0.0
  0
LINE
  5
862
330
23
100
AcDbEntity
 67
     1
  8
0
  6
Continuous
 62
     7
370
    25
100
AcDbLine
 10
-105.4394882233
 20
-37.5495562893
 30
0.0
 11
-105.4394882233
 21
-37.8116678265
 31
0.0
  0
LINE
  5
863
330
23
100
AcDbEntity
 67
     1
  8
0
  6
Continuous
 62
     7
370
    25
100
AcDbLine
 10
-105.4394882233
 20
-37.8116678265
 30
0.0
 11
-105.3862187217
 21
-37.8256303775
 31
0.0
  0
LINE
  5
864
330
23
100
AcDbEntity
 67
     1
  8
0
  6
Continuous
 62
     7
370
    25
100
AcDbLine
 10
-106.3447441117
 20
-38.1779001667
 30
0.0
 11
-106.3447441117
 21
-38.048945839
 31
0.0
  0
LINE
  5
865
330
23
100
AcDbEntity
 67
     1
  8
0
  6
Continuous
 62
     7
370
    25
100
AcDbLine
 10
-106.3447441117
 20
-38.048945839
 30
0.0
 11
-106.8447441117
 21
-37.9178900703
 31
0.0
  0
LINE
  5
866
330
23
100
AcDbEntity
 67
     1
  8
0
  6
Continuous
 62
     7
370
    25
100
AcDbLine
 10
-106.8447441117
 20
-37.9178900703
 30
0.0
 11
-107.3447441117
 21
-38.048945839
 31
0.0
  0
LINE
  5
867
330
23
100
AcDbEntity
 67
     1
  8
0
  6
Continuous
 62
     7
370
    25
100
AcDbLine
 10
-107.3447441117
 20
-38.048945839
 30
0.0
 11
-107.3447441117
 21
-38.3110573762
 31
0.0
  0
LINE
  5
868
330
23
100
AcDbEntity
 67
     1
  8
0
  6
Continuous
 62
     7
370
    25
100
AcDbLine
 10
-107.3447441117
 20
-38.3110573762
 30
0.0
 11
-107.1011578235
 21
-38.3749041526
 31
0.0
  0
LINE
  5
869
330
23
100
AcDbEntity
 67
     1
  8
0
  6
Continuous
 62
     7
370
    25
100
AcDbLine
 10
-108.25
 20
-38.5721425341
 30
0.0
 11
-108.25
 21
-38.5483353887
 31
0.0
  0
LINE
  5
86A
330
23
100
AcDbEntity
 67
     1
  8
0
  6
Continuous
 62
     7
370
    25
100
AcDbLine
 10
-108.25
 20
-38.5483353887
 30
0.0
 11
-108.75
 21
-38.4172796201
 31
0.0
  0
LINE
  5
86B
330
23
100
AcDbEntity
 67
     1
  8
0
  6
Continuous
 62
     7
370
    25
100
AcDbLine
 10
-108.75
 20
-38.4172796201
 30
0.0
 11
-109.25
 21
-38.5483353887
 31
0.0
  0
LINE
  5
86C
330
23
100
AcDbEntity
 67
     1
  8
0
  6
Continuous
 62
     7
370
    25
100
AcDbLine
 10
-109.25
 20
-38.5483353887
 30
0.0
 11
-109.25
 21
-38.6599821093
 31
0.0
  0
LINE
  5
86D
330
23
100
AcDbEntity
 67
     1
  8
0
  6
Continuous
 62
     7
370
    25
100
AcDbLine
 10
-109.5
 20
-38.67078048
 30
0.0
 11
-109.5
 21
-38.5483353887
 31
0.0
  0
LINE
  5
86E
330
23
100
AcDbEntity
 67
     1
  8
0
  6
Continuous
 62
     7
370
    25
100
AcDbLine
 10
-109.5
 20
-38.5483353887
 30
0.0
 11
-110.0
 21
-38.4172796201
 31
0.0
  0
LINE
  5
86F
330
23
100
AcDbEntity
 67
     1
  8
0
  6
Continuous
 62
     7
370
    25
100
AcDbLine
 10
-110.0
 20
-38.4172796201
 30
0.0
 11
-110.5
 21
-38.5483353887
 31
0.0
  0
LINE
  5
870
330
23
100
AcDbEntity
 67
     1
  8
0
  6
Continuous
 62
     7
370
    25
100
AcDbLine
 10
-109.35
 20
-33.4482176477
 30
0.0
 11
-109.35
 21
-33.1467863654
 31
0.0
  0
LINE
  5
871
330
23
100
AcDbEntity
 67
     1
  8
0
  6
Continuous
 62
     7
370
    25
100
AcDbLine
 10
-110.6552558883
 20
-33.4482176477
 30
0.0
 11
-110.6552558883
 21
-33.1470234746
 31
0.0
  0
LINE
  5
872
330
23
100
AcDbEntity
 67
     1
  8
0
  6
Continuous
 62
     7
370
    25
100
AcDbLine
 10
-111.9052558883
 20
-33.4482176477
 30
0.0
 11
-111.9052558883
 21
-33.2597825678
 31
0.0
  0
LINE
  5
873
330
23
100
AcDbEntity
 67
     1
  8
0
  6
Continuous
 62
     7
370
    25
100
AcDbLine
 10
-108.0947441117
 20
-33.4482176477
 30
0.0
 11
-108.0947441117
 21
-33.2597825678
 31
0.0
  0
LINE
  5
874
330
23
100
AcDbEntity
 67
     1
  8
0
  6
Continuous
 62
     7
370
    25
100
AcDbLine
 10
-106.1894882233
 20
-33.9476071974
 30
0.0
 11
-106.1894882233
 21
-33.6820579618
 31
0.0
  0
LINE
  5
875
330
23
100
AcDbEntity
 67
     1
  8
0
  6
Continuous
 62
     7
370
    25
100
AcDbLine
 10
-112.5605117767
 20
-33.9476071974
 30
0.0
 11
-112.5605117767
 21
-33.4233841229
 31
0.0
  0
LINE
  5
876
330
23
100
AcDbEntity
 67
     1
  8
0
  6
Continuous
 62
     7
370
    25
100
AcDbLine
 10
-111.2552558883
 20
-33.9476071974
 30
0.0
 11
-111.2552558883
 21
-33.4233841229
 31
0.0
  0
LINE
  5
877
330
23
100
AcDbEntity
 67
     1
  8
0
  6
Continuous
 62
     7
370
    25
100
AcDbLine
 10
-113.8105117767
 20
-33.9476071974
 30
0.0
 11
-113.8105117767
 21
-33.6820579618
 31
0.0
  0
LINE
  5
878
330
23
100
AcDbEntity
 67
     1
  8
0
  6
Continuous
 62
     7
370
    25
100
AcDbLine
 10
-110.0
 20
-33.9476071974
 30
0.0
 11
-110.0
 21
-33.4233841229
 31
0.0
  0
LINE
  5
879
330
23
100
AcDbEntity
 67
     1
  8
0
  6
Continuous
 62
     7
370
    25
100
AcDbLine
 10
-108.75
 20
-33.9476071974
 30
0.0
 11
-108.75
 21
-33.4233841229
 31
0.0
  0
LINE
  5
87A
330
23
100
AcDbEntity
 67
     1
  8
0
  6
Continuous
 62
     7
370
    25
100
AcDbLine
 10
-107.4447441117
 20
-33.9476071974
 30
0.0
 11
-107.4447441117
 21
-33.4233841229
 31
0.0
  0
LINE
  5
87B
330
23
100
AcDbEntity
 67
     1
  8
0
  6
Continuous
 62
     7
370
    25
100
AcDbLine
 10
-113.1605117767
 20
-34.4469967471
 30
0.0
 11
-113.1605117767
 21
-33.9227736726
 31
0.0
  0
LINE
  5
87C
330
23
100
AcDbEntity
 67
     1
  8
0
  6
Continuous
 62
     7
370
    25
100
AcDbLine
 10
-108.0947441117
 20
-34.4469967471
 30
0.0
 11
-108.0947441117
 21
-33.9227736726
 31
0.0
  0
LINE
  5
87D
330
23
100
AcDbEntity
 67
     1
  8
0
  6
Continuous
 62
     7
370
    25
100
AcDbLine
 10
-110.6552558883
 20
-34.4469967471
 30
0.0
 11
-110.6552558883
 21
-33.9227736726
 31
0.0
  0
LINE
  5
87E
330
23
100
AcDbEntity
 67
     1
  8
0
  6
Continuous
 62
     7
370
    25
100
AcDbLine
 10
-106.8447441117
 20
-34.4469967471
 30
0.0
 11
-106.8447441117
 21
-33.9227736726
 31
0.0
  0
LINE
  5
87F
330
23
100
AcDbEntity
 67
     1
  8
0
  6
Continuous
 62
     7
370
    25
100
AcDbLine
 10
-109.35
 20
-34.4469967471
 30
0.0
 11
-109.35
 21
-33.9227736726
 31
0.0
  0
LINE
  5
880
330
23
100
AcDbEntity
 67
     1
  8
0
  6
Continuous
 62
     7
370
    25
100
AcDbLine
 10
-111.9052558883
 20
-34.4469967471
 30
0.0
 11
-111.9052558883
 21
-33.9227736726
 31
0.0
  0
LINE
  5
881
330
23
100
AcDbEntity
 67
     1
  8
0
  6
Continuous
 62
     7
370
    25
100
AcDbLine
 10
-105.5394882233
 20
-34.4469967471
 30
0.0
 11
-105.5394882233
 21
-33.9227736726
 31
0.0
  0
LINE
  5
882
330
23
100
AcDbEntity
 67
     1
  8
0
  6
Continuous
 62
     7
370
    25
100
AcDbLine
 10
-114.465767665
 20
-34.4469967471
 30
0.0
 11
-114.465767665
 21
-33.9227736726
 31
0.0
  0
LINE
  5
883
330
23
100
AcDbEntity
 67
     1
  8
0
  6
Continuous
 62
     7
370
    25
100
AcDbLine
 10
-118.354023916
 20
-36.3539157186
 30
0.0
 11
-118.9450631638
 21
-36.3066025693
 31
0.0
  0
LINE
  5
884
330
23
100
AcDbEntity
 67
     1
  8
0
  6
Continuous
 62
     7
370
    25
100
AcDbLine
 10
-118.3192942805
 20
-36.0862957412
 30
0.0
 11
-118.9103335282
 21
-36.0389825917
 31
0.0
  0
LINE
  5
885
330
23
100
AcDbEntity
 67
     1
  8
0
  6
Continuous
 62
     7
370
    25
100
AcDbLine
 10
-101.0896664718
 20
-36.0389825919
 30
0.0
 11
-101.6807057195
 21
-36.086295741
 31
0.0
  0
LINE
  5
886
330
23
100
AcDbEntity
 67
     1
  8
0
  6
Continuous
 62
     7
370
    25
100
AcDbLine
 10
-101.0549368362
 20
-36.3066025693
 30
0.0
 11
-101.645976084
 21
-36.3539157186
 31
0.0
  0
LINE
  5
887
330
23
100
AcDbEntity
 67
     1
  8
0
  6
Continuous
 62
     7
370
    25
100
AcDbLine
 10
-118.9103335282
 20
-36.0389825917
 30
0.0
 11
-118.9103335641
 21
-35.5043787694
 31
0.0
  0
LINE
  5
888
330
23
100
AcDbEntity
 67
     1
  8
0
  6
Continuous
 62
     7
370
    25
100
AcDbLine
 10
-101.0896664459
 20
-35.5043787439
 30
0.0
 11
-101.0896664718
 21
-36.0389825919
 31
0.0
  0
LINE
  5
889
330
23
100
AcDbEntity
 67
     1
  8
0
  6
Continuous
 62
     7
370
    25
100
AcDbLine
 10
-101.6807057195
 20
-36.086295741
 30
0.0
 11
-101.6807056736
 21
-35.5516919448
 31
0.0
  0
LINE
  5
88A
330
23
100
AcDbEntity
 67
     1
  8
0
  6
Continuous
 62
     7
370
    25
100
AcDbLine
 10
-101.0896664459
 20
-35.5043787439
 30
0.0
 11
-101.6807056736
 21
-35.5516919448
 31
0.0
  0
LINE
  5
88B
330
23
100
AcDbEntity
 67
     1
  8
0
  6
Continuous
 62
     7
370
    25
100
AcDbLine
 10
-118.319294321
 20
-35.5516919308
 30
0.0
 11
-118.3192942805
 21
-36.0862957412
 31
0.0
  0
LINE
  5
88C
330
23
100
AcDbEntity
 67
     1
  8
0
  6
Continuous
 62
     7
370
    25
100
AcDbLine
 10
-118.319294321
 20
-35.5516919308
 30
0.0
 11
-118.9103335641
 21
-35.5043787694
 31
0.0
  0
LINE
  5
88D
330
23
100
AcDbEntity
 67
     1
  8
0
  6
Continuous
 62
     7
370
    25
100
AcDbLine
 10
-118.9450631638
 20
-37.5543234164
 30
0.0
 11
-118.354023916
 21
-37.5070102671
 31
0.0
  0
LINE
  5
88E
330
23
100
AcDbEntity
 67
     1
  8
0
  6
Continuous
 62
     7
370
    25
100
AcDbLine
 10
-101.645976084
 20
-37.5070102671
 30
0.0
 11
-101.0549368362
 21
-37.5543234164
 31
0.0
  0
LINE
  5
88F
330
23
100
AcDbEntity
 67
     1
  8
0
  6
Continuous
 62
     7
370
    25
100
AcDbLine
 10
-112.5605117767
 20
-34.9463862968
 30
0.0
 11
-112.5605117767
 21
-34.4221632224
 31
0.0
  0
LINE
  5
890
330
23
100
AcDbEntity
 67
     1
  8
0
  6
Continuous
 62
     7
370
    25
100
AcDbLine
 10
-111.2552558883
 20
-34.9463862968
 30
0.0
 11
-111.2552558883
 21
-34.4221632224
 31
0.0
  0
LINE
  5
891
330
23
100
AcDbEntity
 67
     1
  8
0
  6
Continuous
 62
     7
370
    25
100
AcDbLine
 10
-110.0
 20
-34.9463862968
 30
0.0
 11
-110.0
 21
-34.4221632224
 31
0.0
  0
LINE
  5
892
330
23
100
AcDbEntity
 67
     1
  8
0
  6
Continuous
 62
     7
370
    25
100
AcDbLine
 10
-115.065767665
 20
-34.9463862968
 30
0.0
 11
-115.065767665
 21
-34.4221632224
 31
0.0
  0
LINE
  5
893
330
23
100
AcDbEntity
 67
     1
  8
0
  6
Continuous
 62
     7
370
    25
100
AcDbLine
 10
-113.8105117767
 20
-34.9463862968
 30
0.0
 11
-113.8105117767
 21
-34.4221632224
 31
0.0
  0
LINE
  5
894
330
23
100
AcDbEntity
 67
     1
  8
0
  6
Continuous
 62
     7
370
    25
100
AcDbLine
 10
-104.9394882233
 20
-34.9463862968
 30
0.0
 11
-104.9394882233
 21
-34.4221632224
 31
0.0
  0
LINE
  5
895
330
23
100
AcDbEntity
 67
     1
  8
0
  6
Continuous
 62
     7
370
    25
100
AcDbLine
 10
-106.1894882233
 20
-34.9463862968
 30
0.0
 11
-106.1894882233
 21
-34.4221632224
 31
0.0
  0
LINE
  5
896
330
23
100
AcDbEntity
 67
     1
  8
0
  6
Continuous
 62
     7
370
    25
100
AcDbLine
 10
-107.4447441117
 20
-34.9463862968
 30
0.0
 11
-107.4447441117
 21
-34.4221632224
 31
0.0
  0
LINE
  5
897
330
23
100
AcDbEntity
 67
     1
  8
0
  6
Continuous
 62
     7
370
    25
100
AcDbLine
 10
-115.715767665
 20
-35.4457758465
 30
0.0
 11
-115.715767665
 21
-34.9215527721
 31
0.0
  0
LINE
  5
898
330
23
100
AcDbEntity
 67
     1
  8
0
  6
Continuous
 62
     7
370
    25
100
AcDbLine
 10
-105.5394882233
 20
-35.4457758465
 30
0.0
 11
-105.5394882233
 21
-34.9215527721
 31
0.0
  0
LINE
  5
899
330
23
100
AcDbEntity
 67
     1
  8
0
  6
Continuous
 62
     7
370
    25
100
AcDbLine
 10
-104.284232335
 20
-35.4457758465
 30
0.0
 11
-104.284232335
 21
-34.9215527721
 31
0.0
  0
LINE
  5
89A
330
23
100
AcDbEntity
 67
     1
  8
0
  6
Continuous
 62
     7
370
    25
100
AcDbLine
 10
-114.465767665
 20
-35.4457758465
 30
0.0
 11
-114.465767665
 21
-34.9215527721
 31
0.0
  0
LINE
  5
89B
330
23
100
AcDbEntity
 67
     1
  8
0
  6
Continuous
 62
     7
370
    25
100
AcDbLine
 10
-113.1605117767
 20
-35.4457758465
 30
0.0
 11
-113.1605117767
 21
-34.9215527721
 31
0.0
  0
LINE
  5
89C
330
23
100
AcDbEntity
 67
     1
  8
0
  6
Continuous
 62
     7
370
    25
100
AcDbLine
 10
-109.35
 20
-35.4457758465
 30
0.0
 11
-109.35
 21
-34.9215527721
 31
0.0
  0
LINE
  5
89D
330
23
100
AcDbEntity
 67
     1
  8
0
  6
Continuous
 62
     7
370
    25
100
AcDbLine
 10
-106.8447441117
 20
-35.4457758465
 30
0.0
 11
-106.8447441117
 21
-34.9215527721
 31
0.0
  0
LINE
  5
89E
330
23
100
AcDbEntity
 67
     1
  8
0
  6
Continuous
 62
     7
370
    25
100
AcDbLine
 10
-110.6552558883
 20
-35.4457758465
 30
0.0
 11
-110.6552558883
 21
-34.9215527721
 31
0.0
  0
LINE
  5
89F
330
23
100
AcDbEntity
 67
     1
  8
0
  6
Continuous
 62
     7
370
    25
100
AcDbLine
 10
-108.0947441117
 20
-35.4457758465
 30
0.0
 11
-108.0947441117
 21
-34.9215527721
 31
0.0
  0
LINE
  5
8A0
330
23
100
AcDbEntity
 67
     1
  8
0
  6
Continuous
 62
     7
370
    25
100
AcDbLine
 10
-111.9052558883
 20
-35.4457758465
 30
0.0
 11
-111.9052558883
 21
-34.9215527721
 31
0.0
  0
LINE
  5
8A1
330
23
100
AcDbEntity
 67
     1
  8
0
  6
Continuous
 62
     7
370
    25
100
AcDbLine
 10
-106.1894882233
 20
-35.9451653963
 30
0.0
 11
-106.1894882233
 21
-35.4209423218
 31
0.0
  0
LINE
  5
8A2
330
23
100
AcDbEntity
 67
     1
  8
0
  6
Continuous
 62
     7
370
    25
100
AcDbLine
 10
-107.4447441117
 20
-35.9451653963
 30
0.0
 11
-107.4447441117
 21
-35.4209423218
 31
0.0
  0
LINE
  5
8A3
330
23
100
AcDbEntity
 67
     1
  8
0
  6
Continuous
 62
     7
370
    25
100
AcDbLine
 10
-104.9394882233
 20
-35.9451653963
 30
0.0
 11
-104.9394882233
 21
-35.4209423218
 31
0.0
  0
LINE
  5
8A4
330
23
100
AcDbEntity
 67
     1
  8
0
  6
Continuous
 62
     7
370
    25
100
AcDbLine
 10
-113.8105117767
 20
-35.9451653963
 30
0.0
 11
-113.8105117767
 21
-35.4209423218
 31
0.0
  0
LINE
  5
8A5
330
23
100
AcDbEntity
 67
     1
  8
0
  6
Continuous
 62
     7
370
    25
100
AcDbLine
 10
-103.634232335
 20
-35.9451653963
 30
0.0
 11
-103.634232335
 21
-35.4209423218
 31
0.0
  0
LINE
  5
8A6
330
23
100
AcDbEntity
 67
     1
  8
0
  6
Continuous
 62
     7
370
    25
100
AcDbLine
 10
-111.2552558883
 20
-35.9451653963
 30
0.0
 11
-111.2552558883
 21
-35.4209423218
 31
0.0
  0
LINE
  5
8A7
330
23
100
AcDbEntity
 67
     1
  8
0
  6
Continuous
 62
     7
370
    25
100
AcDbLine
 10
-115.065767665
 20
-35.9451653963
 30
0.0
 11
-115.065767665
 21
-35.4209423218
 31
0.0
  0
LINE
  5
8A8
330
23
100
AcDbEntity
 67
     1
  8
0
  6
Continuous
 62
     7
370
    25
100
AcDbLine
 10
-108.75
 20
-35.9451653963
 30
0.0
 11
-108.75
 21
-35.4209423218
 31
0.0
  0
LINE
  5
8A9
330
23
100
AcDbEntity
 67
     1
  8
0
  6
Continuous
 62
     7
370
    25
100
AcDbLine
 10
-116.3710235533
 20
-35.9451653963
 30
0.0
 11
-116.3710235533
 21
-35.4209423218
 31
0.0
  0
LINE
  5
8AA
330
23
100
AcDbEntity
 67
     1
  8
0
  6
Continuous
 62
     7
370
    25
100
AcDbLine
 10
-113.1605117767
 20
-36.444554946
 30
0.0
 11
-113.1605117767
 21
-35.9203318715
 31
0.0
  0
LINE
  5
8AB
330
23
100
AcDbEntity
 67
     1
  8
0
  6
Continuous
 62
     7
370
    25
100
AcDbLine
 10
-111.9052558883
 20
-36.444554946
 30
0.0
 11
-111.9052558883
 21
-35.9203318715
 31
0.0
  0
LINE
  5
8AC
330
23
100
AcDbEntity
 67
     1
  8
0
  6
Continuous
 62
     7
370
    25
100
AcDbLine
 10
-115.715767665
 20
-36.444554946
 30
0.0
 11
-115.715767665
 21
-35.9203318715
 31
0.0
  0
LINE
  5
8AD
330
23
100
AcDbEntity
 67
     1
  8
0
  6
Continuous
 62
     7
370
    25
100
AcDbLine
 10
-106.8447441117
 20
-36.444554946
 30
0.0
 11
-106.8447441117
 21
-35.9203318715
 31
0.0
  0
LINE
  5
8AE
330
23
100
AcDbEntity
 67
     1
  8
0
  6
Continuous
 62
     7
370
    25
100
AcDbLine
 10
-110.6552558883
 20
-36.444554946
 30
0.0
 11
-110.6552558883
 21
-35.9203318715
 31
0.0
  0
LINE
  5
8AF
330
23
100
AcDbEntity
 67
     1
  8
0
  6
Continuous
 62
     7
370
    25
100
AcDbLine
 10
-108.0947441117
 20
-36.444554946
 30
0.0
 11
-108.0947441117
 21
-35.9203318715
 31
0.0
  0
LINE
  5
8B0
330
23
100
AcDbEntity
 67
     1
  8
0
  6
Continuous
 62
     7
370
    25
100
AcDbLine
 10
-109.35
 20
-36.444554946
 30
0.0
 11
-109.35
 21
-35.9203318715
 31
0.0
  0
LINE
  5
8B1
330
23
100
AcDbEntity
 67
     1
  8
0
  6
Continuous
 62
     7
370
    25
100
AcDbLine
 10
-105.5394882233
 20
-36.444554946
 30
0.0
 11
-105.5394882233
 21
-35.9203318715
 31
0.0
  0
LINE
  5
8B2
330
23
100
AcDbEntity
 67
     1
  8
0
  6
Continuous
 62
     7
370
    25
100
AcDbLine
 10
-114.465767665
 20
-36.444554946
 30
0.0
 11
-114.465767665
 21
-35.9203318715
 31
0.0
  0
LINE
  5
8B3
330
23
100
AcDbEntity
 67
     1
  8
0
  6
Continuous
 62
     7
370
    25
100
AcDbLine
 10
-104.284232335
 20
-36.444554946
 30
0.0
 11
-104.284232335
 21
-35.9203318715
 31
0.0
  0
LINE
  5
8B4
330
23
100
AcDbEntity
 67
     1
  8
0
  6
Continuous
 62
     7
370
    25
100
AcDbLine
 10
-102.4737692138
 20
-38.3211076729
 30
0.0
 11
-102.9653890318
 21
-38.1648288961
 31
0.0
  0
LINE
  5
8B5
330
23
100
AcDbEntity
 67
     1
  8
0
  6
Continuous
 62
     7
370
    25
100
AcDbLine
 10
-117.0346109677
 20
-38.1648290262
 30
0.0
 11
-117.5262307859
 21
-38.3211089406
 31
0.0
  0
LINE
  5
8B6
330
23
100
AcDbEntity
 67
     1
  8
0
  6
Continuous
 62
     7
370
    25
100
AcDbLine
 10
-112.5605117767
 20
-36.9439444957
 30
0.0
 11
-112.5605117767
 21
-36.4197214212
 31
0.0
  0
LINE
  5
8B7
330
23
100
AcDbEntity
 67
     1
  8
0
  6
Continuous
 62
     7
370
    25
100
AcDbLine
 10
-111.2552558883
 20
-36.9439444957
 30
0.0
 11
-111.2552558883
 21
-36.4197214212
 31
0.0
  0
LINE
  5
8B8
330
23
100
AcDbEntity
 67
     1
  8
0
  6
Continuous
 62
     7
370
    25
100
AcDbLine
 10
-104.9394882233
 20
-36.9439444957
 30
0.0
 11
-104.9394882233
 21
-36.4197214212
 31
0.0
  0
LINE
  5
8B9
330
23
100
AcDbEntity
 67
     1
  8
0
  6
Continuous
 62
     7
370
    25
100
AcDbLine
 10
-110.0
 20
-36.9439444957
 30
0.0
 11
-110.0
 21
-36.4197214212
 31
0.0
  0
LINE
  5
8BA
330
23
100
AcDbEntity
 67
     1
  8
0
  6
Continuous
 62
     7
370
    25
100
AcDbLine
 10
-115.065767665
 20
-36.9439444957
 30
0.0
 11
-115.065767665
 21
-36.4197214212
 31
0.0
  0
LINE
  5
8BB
330
23
100
AcDbEntity
 67
     1
  8
0
  6
Continuous
 62
     7
370
    25
100
AcDbLine
 10
-106.1894882233
 20
-36.9439444957
 30
0.0
 11
-106.1894882233
 21
-36.4197214212
 31
0.0
  0
LINE
  5
8BC
330
23
100
AcDbEntity
 67
     1
  8
0
  6
Continuous
 62
     7
370
    25
100
AcDbLine
 10
-113.8105117767
 20
-36.9439444957
 30
0.0
 11
-113.8105117767
 21
-36.4197214212
 31
0.0
  0
LINE
  5
8BD
330
23
100
AcDbEntity
 67
     1
  8
0
  6
Continuous
 62
     7
370
    25
100
AcDbLine
 10
-107.4447441117
 20
-36.9439444957
 30
0.0
 11
-107.4447441117
 21
-36.4197214212
 31
0.0
  0
LINE
  5
8BE
330
23
100
AcDbEntity
 67
     1
  8
0
  6
Continuous
 62
     7
370
    25
100
AcDbLine
 10
-106.8447441117
 20
-37.4433340454
 30
0.0
 11
-106.8447441117
 21
-36.9191109709
 31
0.0
  0
LINE
  5
8BF
330
23
100
AcDbEntity
 67
     1
  8
0
  6
Continuous
 62
     7
370
    25
100
AcDbLine
 10
-111.9052558883
 20
-37.4433340454
 30
0.0
 11
-111.9052558883
 21
-36.9191109709
 31
0.0
  0
LINE
  5
8C0
330
23
100
AcDbEntity
 67
     1
  8
0
  6
Continuous
 62
     7
370
    25
100
AcDbLine
 10
-113.1605117767
 20
-37.4433340454
 30
0.0
 11
-113.1605117767
 21
-36.9191109709
 31
0.0
  0
LINE
  5
8C1
330
23
100
AcDbEntity
 67
     1
  8
0
  6
Continuous
 62
     7
370
    25
100
AcDbLine
 10
-114.465767665
 20
-37.4433340454
 30
0.0
 11
-114.465767665
 21
-36.9191109709
 31
0.0
  0
LINE
  5
8C2
330
23
100
AcDbEntity
 67
     1
  8
0
  6
Continuous
 62
     7
370
    25
100
AcDbLine
 10
-108.0947441117
 20
-37.4433340454
 30
0.0
 11
-108.0947441117
 21
-36.9191109709
 31
0.0
  0
LINE
  5
8C3
330
23
100
AcDbEntity
 67
     1
  8
0
  6
Continuous
 62
     7
370
    25
100
AcDbLine
 10
-109.35
 20
-37.4433340454
 30
0.0
 11
-109.35
 21
-36.9191109709
 31
0.0
  0
LINE
  5
8C4
330
23
100
AcDbEntity
 67
     1
  8
0
  6
Continuous
 62
     7
370
    25
100
AcDbLine
 10
-105.5394882233
 20
-37.4433340454
 30
0.0
 11
-105.5394882233
 21
-36.9191109709
 31
0.0
  0
LINE
  5
8C5
330
23
100
AcDbEntity
 67
     1
  8
0
  6
Continuous
 62
     7
370
    25
100
AcDbLine
 10
-110.6552558883
 20
-37.4433340454
 30
0.0
 11
-110.6552558883
 21
-36.9191109709
 31
0.0
  0
LINE
  5
8C6
330
23
100
AcDbEntity
 67
     1
  8
0
  6
Continuous
 62
     7
370
    25
100
AcDbLine
 10
-103.0801043188
 20
-38.9520105121
 30
0.0
 11
-103.0801044706
 21
-38.4174066961
 31
0.0
  0
LINE
  5
8C7
330
23
100
AcDbEntity
 67
     1
  8
0
  6
Continuous
 62
     7
370
    25
100
AcDbLine
 10
-116.9198955474
 20
-38.4174066844
 30
0.0
 11
-116.9198956812
 21
-38.9520105123
 31
0.0
  0
LINE
  5
8C8
330
23
100
AcDbEntity
 67
     1
  8
0
  6
Continuous
 62
     7
370
    25
100
AcDbLine
 10
-102.588484501
 20
-39.1082903417
 30
0.0
 11
-103.0801043188
 21
-38.9520105121
 31
0.0
  0
LINE
  5
8C9
330
23
100
AcDbEntity
 67
     1
  8
0
  6
Continuous
 62
     7
370
    25
100
AcDbLine
 10
-102.7031997883
 20
-39.3608690955
 30
0.0
 11
-103.194819606
 21
-39.2045892662
 31
0.0
  0
LINE
  5
8CA
330
23
100
AcDbEntity
 67
     1
  8
0
  6
Continuous
 62
     7
370
    25
100
AcDbLine
 10
-116.805180394
 20
-39.2045892662
 30
0.0
 11
-117.2968002117
 21
-39.3608690955
 31
0.0
  0
LINE
  5
8CB
330
23
100
AcDbEntity
 67
     1
  8
0
  6
Continuous
 62
     7
370
    25
100
AcDbLine
 10
-116.9198956812
 20
-38.9520105123
 30
0.0
 11
-117.411515499
 21
-39.1082903415
 31
0.0
  0
LINE
  5
8CC
330
23
100
AcDbEntity
 67
     1
  8
0
  6
Continuous
 62
     7
370
    25
100
AcDbLine
 10
-117.411515499
 20
-39.1082903415
 30
0.0
 11
-117.4115153807
 21
-38.5736865036
 31
0.0
  0
LINE
  5
8CD
330
23
100
AcDbEntity
 67
     1
  8
0
  6
Continuous
 62
     7
370
    25
100
AcDbLine
 10
-116.9198955474
 20
-38.4174066844
 30
0.0
 11
-117.4115153807
 21
-38.5736865036
 31
0.0
  0
LINE
  5
8CE
330
23
100
AcDbEntity
 67
     1
  8
0
  6
Continuous
 62
     7
370
    25
100
AcDbLine
 10
-102.5884845866
 20
-38.5736864824
 30
0.0
 11
-103.0801044706
 21
-38.4174066961
 31
0.0
  0
LINE
  5
8CF
330
23
100
AcDbEntity
 67
     1
  8
0
  6
Continuous
 62
     7
370
    25
100
AcDbLine
 10
-102.5884845866
 20
-38.5736864824
 30
0.0
 11
-102.588484501
 21
-39.1082903417
 31
0.0
  0
LINE
  5
8D0
330
23
100
AcDbEntity
 67
     1
  8
0
  6
Continuous
 62
     7
370
    25
100
AcDbLine
 10
-115.3534294308
 20
-40.2431409675
 30
0.0
 11
-115.0091935285
 21
-40.0199502407
 31
0.0
  0
LINE
  5
8D1
330
23
100
AcDbEntity
 67
     1
  8
0
  6
Continuous
 62
     7
370
    25
100
AcDbLine
 10
-104.9908064715
 20
-40.0199502407
 30
0.0
 11
-104.6465705692
 21
-40.2431409675
 31
0.0
  0
LINE
  5
8D2
330
23
100
AcDbEntity
 67
     1
  8
0
  6
Continuous
 62
     7
370
    25
100
AcDbLine
 10
-111.2552558883
 20
-37.9427235951
 30
0.0
 11
-111.2552558883
 21
-37.4185005206
 31
0.0
  0
LINE
  5
8D3
330
23
100
AcDbEntity
 67
     1
  8
0
  6
Continuous
 62
     7
370
    25
100
AcDbLine
 10
-106.1894882233
 20
-37.9427235951
 30
0.0
 11
-106.1894882233
 21
-37.4185005206
 31
0.0
  0
LINE
  5
8D4
330
23
100
AcDbEntity
 67
     1
  8
0
  6
Continuous
 62
     7
370
    25
100
AcDbLine
 10
-112.5605117767
 20
-37.9427235951
 30
0.0
 11
-112.5605117767
 21
-37.4185005206
 31
0.0
  0
LINE
  5
8D5
330
23
100
AcDbEntity
 67
     1
  8
0
  6
Continuous
 62
     7
370
    25
100
AcDbLine
 10
-108.75
 20
-37.9427235951
 30
0.0
 11
-108.75
 21
-37.4185005206
 31
0.0
  0
LINE
  5
8D6
330
23
100
AcDbEntity
 67
     1
  8
0
  6
Continuous
 62
     7
370
    25
100
AcDbLine
 10
-110.0
 20
-37.9427235951
 30
0.0
 11
-110.0
 21
-37.4185005206
 31
0.0
  0
LINE
  5
8D7
330
23
100
AcDbEntity
 67
     1
  8
0
  6
Continuous
 62
     7
370
    25
100
AcDbLine
 10
-113.8105117767
 20
-37.9427235951
 30
0.0
 11
-113.8105117767
 21
-37.4185005206
 31
0.0
  0
LINE
  5
8D8
330
23
100
AcDbEntity
 67
     1
  8
0
  6
Continuous
 62
     7
370
    25
100
AcDbLine
 10
-107.4447441117
 20
-37.9427235951
 30
0.0
 11
-107.4447441117
 21
-37.4185005206
 31
0.0
  0
LINE
  5
8D9
330
23
100
AcDbEntity
 67
     1
  8
0
  6
Continuous
 62
     7
370
    25
100
AcDbLine
 10
-110.6552558883
 20
-38.4421131448
 30
0.0
 11
-110.6552558883
 21
-37.9178900703
 31
0.0
  0
LINE
  5
8DA
330
23
100
AcDbEntity
 67
     1
  8
0
  6
Continuous
 62
     7
370
    25
100
AcDbLine
 10
-111.9052558883
 20
-38.4421131448
 30
0.0
 11
-111.9052558883
 21
-37.9178900703
 31
0.0
  0
LINE
  5
8DB
330
23
100
AcDbEntity
 67
     1
  8
0
  6
Continuous
 62
     7
370
    25
100
AcDbLine
 10
-109.35
 20
-38.4421131448
 30
0.0
 11
-109.35
 21
-37.9178900703
 31
0.0
  0
LINE
  5
8DC
330
23
100
AcDbEntity
 67
     1
  8
0
  6
Continuous
 62
     7
370
    25
100
AcDbLine
 10
-108.0947441117
 20
-38.4421131448
 30
0.0
 11
-108.0947441117
 21
-37.9178900703
 31
0.0
  0
LINE
  5
8DD
330
23
100
AcDbEntity
 67
     1
  8
0
  6
Continuous
 62
     7
370
    25
100
AcDbLine
 10
-105.1903827528
 20
-39.3012377699
 30
0.0
 11
-105.1908064715
 21
-39.3071450214
 31
0.0
  0
LINE
  5
8DE
330
23
100
AcDbEntity
 67
     1
  8
0
  6
Continuous
 62
     7
370
    25
100
AcDbLine
 10
-114.8096179955
 20
-39.3012378901
 30
0.0
 11
-114.8091935285
 21
-39.3071451399
 31
0.0
  0
LINE
  5
8DF
330
23
100
AcDbEntity
 67
     1
  8
0
  6
Continuous
 62
     7
370
    25
100
AcDbLine
 10
-108.2319062428
 20
-40.0688977082
 30
0.0
 11
-108.3361224079
 21
-39.8005711643
 31
0.0
  0
LINE
  5
8E0
330
23
100
AcDbEntity
 67
     1
  8
0
  6
Continuous
 62
     7
370
    25
100
AcDbLine
 10
-111.6638775914
 20
-39.8005712942
 30
0.0
 11
-111.7680937581
 21
-40.068897583
 31
0.0
  0
LINE
  5
8E1
330
23
100
AcDbEntity
 67
     1
  8
0
  6
Continuous
 62
     7
370
    25
100
AcDbLine
 10
-108.5330839579
 20
-40.5291422559
 30
0.0
 11
-108.5330842185
 21
-39.9945383623
 31
0.0
  0
LINE
  5
8E2
330
23
100
AcDbEntity
 67
     1
  8
0
  6
Continuous
 62
     7
370
    25
100
AcDbLine
 10
-111.4669158124
 20
-39.9945383598
 30
0.0
 11
-111.4669160421
 21
-40.5291422561
 31
0.0
  0
LINE
  5
8E3
330
23
100
AcDbEntity
 67
     1
  8
0
  6
Continuous
 62
     7
370
    25
100
AcDbLine
 10
-108.4288677919
 20
-40.7974684596
 30
0.0
 11
-108.5330839579
 21
-40.5291422559
 31
0.0
  0
LINE
  5
8E4
330
23
100
AcDbEntity
 67
     1
  8
0
  6
Continuous
 62
     7
370
    25
100
AcDbLine
 10
-108.6258293425
 20
-40.9914366888
 30
0.0
 11
-108.7300455085
 21
-40.7231104854
 31
0.0
  0
LINE
  5
8E5
330
23
100
AcDbEntity
 67
     1
  8
0
  6
Continuous
 62
     7
370
    25
100
AcDbLine
 10
-111.2699544915
 20
-40.7231104854
 30
0.0
 11
-111.3741706575
 21
-40.9914366888
 31
0.0
  0
LINE
  5
8E6
330
23
100
AcDbEntity
 67
     1
  8
0
  6
Continuous
 62
     7
370
    25
100
AcDbLine
 10
-111.4669160421
 20
-40.5291422561
 30
0.0
 11
-111.5711322081
 21
-40.7974684594
 31
0.0
  0
LINE
  5
8E7
330
23
100
AcDbEntity
 67
     1
  8
0
  6
Continuous
 62
     7
370
    25
100
AcDbLine
 10
-111.5711322081
 20
-40.7974684594
 30
0.0
 11
-111.571132005
 21
-40.2628645611
 31
0.0
  0
LINE
  5
8E8
330
23
100
AcDbEntity
 67
     1
  8
0
  6
Continuous
 62
     7
370
    25
100
AcDbLine
 10
-111.4669158124
 20
-39.9945383598
 30
0.0
 11
-111.571132005
 21
-40.2628645611
 31
0.0
  0
LINE
  5
8E9
330
23
100
AcDbEntity
 67
     1
  8
0
  6
Continuous
 62
     7
370
    25
100
AcDbLine
 10
-108.4288679388
 20
-40.2628645566
 30
0.0
 11
-108.5330842185
 21
-39.9945383623
 31
0.0
  0
LINE
  5
8EA
330
23
100
AcDbEntity
 67
     1
  8
0
  6
Continuous
 62
     7
370
    25
100
AcDbLine
 10
-108.4288679388
 20
-40.2628645566
 30
0.0
 11
-108.4288677919
 21
-40.7974684596
 31
0.0
  0
LINE
  5
8EB
330
23
100
AcDbEntity
 67
     1
  8
0
  6
Continuous
 62
     7
370
    25
100
AcDbLine
 10
0.0
 20
49.5
 30
0.0
 11
0.0
 21
50.0
 31
0.0
  0
LINE
  5
8EC
330
23
100
AcDbEntity
 67
     1
  8
0
  6
Continuous
 62
     7
370
    25
100
AcDbLine
 10
0.0
 20
-49.5
 30
0.0
 11
0.0
 21
-50.0
 31
0.0
  0
LINE
  5
8ED
330
23
100
AcDbEntity
 67
     1
  8
0
  6
Continuous
 62
     7
370
    25
100
AcDbLine
 10
-110.0
 20
-49.5
 30
0.0
 11
-110.0
 21
-50.0
 31
0.0
  0
LINE
  5
8EE
330
23
100
AcDbEntity
 67
     1
  8
0
  6
Continuous
 62
     7
370
    25
100
AcDbLine
 10
-110.0
 20
49.5
 30
0.0
 11
-110.0
 21
50.0
 31
0.0
  0
LINE
  5
8EF
330
23
100
AcDbEntity
 67
     1
  8
0
  6
Continuous
 62
     7
370
    25
100
AcDbLine
 10
-110.0
 20
-49.5
 30
0.0
 11
0.0
 21
-49.5
 31
0.0
  0
LINE
  5
8F0
330
23
100
AcDbEntity
 67
     1
  8
0
  6
Continuous
 62
     7
370
    25
100
AcDbLine
 10
-110.0
 20
-50.0
 30
0.0
 11
0.0
 21
-50.0
 31
0.0
  0
LINE
  5
8F1
330
23
100
AcDbEntity
 67
     1
  8
0
  6
Continuous
 62
     7
370
    25
100
AcDbLine
 10
0.0
 20
49.5
 30
0.0
 11
-110.0
 21
49.5
 31
0.0
  0
LINE
  5
8F2
330
23
100
AcDbEntity
 67
     1
  8
0
  6
Continuous
 62
     7
370
    25
100
AcDbLine
 10
0.0
 20
50.0
 30
0.0
 11
-110.0
 21
50.0
 31
0.0
  0
LINE
  5
8F3
330
23
100
AcDbEntity
 67
     1
  8
0
  6
Continuous
 62
     7
370
    25
100
AcDbLine
 10
-110.0
 20
12.0
 30
0.0
 11
-110.0
 21
-31.482576996
 31
0.0
  0
LINE
  5
8F4
330
23
100
AcDbEntity
 67
     1
  8
0
  6
Continuous
 62
     7
370
    25
100
AcDbLine
 10
-21.9999999179
 20
0.0
 30
0.0
 11
-22.5
 21
0.0
 31
0.0
  0
LINE
  5
8F5
330
23
100
AcDbEntity
 67
     1
  8
0
  6
Continuous
 62
     7
370
    25
100
AcDbLine
 10
79.0
 20
0.0
 30
0.0
 11
21.9999999179
 21
0.0
 31
0.0
  0
LINE
  5
8F6
330
23
100
AcDbEntity
 67
     1
  8
0
  6
Continuous
 62
     7
370
    25
100
AcDbLine
 10
79.0
 20
-4.4999997578
 30
0.0
 11
79.0
 21
4.4999997578
 31
0.0
  0
LINE
  5
8F7
330
23
100
AcDbEntity
 67
     1
  8
0
  6
Continuous
 62
     8
370
    25
100
AcDbLine
 10
-110.0471907785
 20
-32.5608569539
 30
0.0
 11
-110.0461714099
 21
-32.8219024411
 31
0.0
  0
LINE
  5
8F8
330
23
100
AcDbEntity
 67
     1
  8
0
  6
Continuous
 62
     8
370
    25
100
AcDbLine
 10
-115.4717372635
 20
-33.3663753604
 30
0.0
 11
-115.4717372811
 21
-33.3355944362
 31
0.0
  0
LINE
  5
8F9
330
23
100
AcDbEntity
 67
     1
  8
0
  6
Continuous
 62
     8
370
    25
100
AcDbLine
 10
-117.4580555213
 20
-34.1682737282
 30
0.0
 11
-117.458055465
 21
-34.2681449533
 31
0.0
  0
LINE
  5
8FA
330
23
100
AcDbEntity
 67
     1
  8
0
  6
Continuous
 62
     8
370
    25
100
AcDbLine
 10
-119.1427441177
 20
-36.1146142938
 30
0.0
 11
-119.1427444497
 21
-35.7662036998
 31
0.0
  0
LINE
  5
8FB
330
23
100
AcDbEntity
 67
     1
  8
0
  6
Continuous
 62
     8
370
    25
100
AcDbLine
 10
-102.541944535
 20
-34.2681449533
 30
0.0
 11
-102.5419444574
 21
-34.16827374
 31
0.0
  0
LINE
  5
8FC
330
23
100
AcDbEntity
 67
     1
  8
0
  6
Continuous
 62
     8
370
    25
100
AcDbLine
 10
-104.5282627237
 20
-33.3355944347
 30
0.0
 11
-104.5282627365
 21
-33.3663753604
 31
0.0
  0
LINE
  5
8FD
330
23
100
AcDbEntity
 67
     1
  8
0
  6
Continuous
 62
     8
370
    25
100
AcDbLine
 10
-110.0
 20
-40.4976833109
 30
0.0
 11
-110.0
 21
-39.2329368767
 31
0.0
  0
LINE
  5
8FE
330
23
100
AcDbEntity
 67
     1
  8
0
  6
Continuous
 62
     8
370
    25
100
AcDbLine
 10
-104.8104009467
 20
-33.2503753787
 30
0.0
 11
-104.8104009781
 21
-33.387504063
 31
0.0
  0
LINE
  5
8FF
330
23
100
AcDbEntity
 67
     1
  8
0
  6
Continuous
 62
     8
370
    25
100
AcDbLine
 10
-115.1895990219
 20
-33.3875040628
 30
0.0
 11
-115.1895990653
 21
-33.2503753822
 31
0.0
  0
LINE
  5
900
330
23
100
AcDbEntity
 67
     1
  8
0
  6
Continuous
 62
     8
370
    25
100
AcDbLine
 10
-105.1546368804
 20
-33.6106947896
 30
0.0
 11
-105.1546366956
 21
-33.1548808295
 31
0.0
  0
LINE
  5
901
330
23
100
AcDbEntity
 67
     1
  8
0
  6
Continuous
 62
     8
370
    25
100
AcDbLine
 10
-114.8453632825
 20
-33.1548808237
 30
0.0
 11
-114.8453631196
 21
-33.6106947898
 31
0.0
  0
LINE
  5
902
330
23
100
AcDbEntity
 67
     1
  8
0
  6
Continuous
 62
     8
370
    25
100
AcDbLine
 10
-102.5001390795
 20
-34.9495127886
 30
0.0
 11
-102.5786744522
 21
-34.4783593894
 31
0.0
  0
LINE
  5
903
330
23
100
AcDbEntity
 67
     1
  8
0
  6
Continuous
 62
     8
370
    25
100
AcDbLine
 10
-116.33731686
 20
-34.9625490355
 30
0.0
 11
-116.2196699627
 21
-34.8385744355
 31
0.0
  0
LINE
  5
904
330
23
100
AcDbEntity
 67
     1
  8
0
  6
Continuous
 62
     8
370
    25
100
AcDbLine
 10
-110.0
 20
-38.4172796201
 30
0.0
 11
-110.0
 21
-39.1248944194
 31
0.0
  0
LINE
  5
905
330
23
100
AcDbEntity
 67
     1
  8
0
  6
Continuous
 62
     8
370
    25
100
AcDbLine
 10
-101.197923263
 20
-35.2426459563
 30
0.0
 11
-101.7154353549
 21
-35.2840729014
 31
0.0
  0
LINE
  5
906
330
23
100
AcDbEntity
 67
     1
  8
0
  6
Continuous
 62
     8
370
    25
100
AcDbLine
 10
-118.2845646452
 20
-35.2840730316
 30
0.0
 11
-118.8020766659
 21
-35.2426458682
 31
0.0
  0
LINE
  5
907
330
23
100
AcDbEntity
 67
     1
  8
0
  6
Continuous
 62
     8
370
    25
100
AcDbLine
 10
-102.5
 20
-34.5298377202
 30
0.0
 11
-102.2888537101
 21
-34.5298377202
 31
0.0
  0
LINE
  5
908
330
23
100
AcDbEntity
 67
     1
  8
0
  6
Continuous
 62
     8
370
    25
100
AcDbLine
 10
-117.7111462899
 20
-34.5298377202
 30
0.0
 11
-117.5
 21
-34.5298377202
 31
0.0
  0
LINE
  5
909
330
23
100
AcDbEntity
 67
     1
  8
0
  6
Continuous
 62
     8
370
    25
100
AcDbLine
 10
-118.1562955393
 20
-37.315162873
 30
0.0
 11
-118.154023916
 21
-37.3288089623
 31
0.0
  0
LINE
  5
90A
330
23
100
AcDbEntity
 67
     1
  8
0
  6
Continuous
 62
     8
370
    25
100
AcDbLine
 10
-101.8437044607
 20
-37.315162873
 30
0.0
 11
-101.845976084
 21
-37.3288089623
 31
0.0
  0
LINE
  5
90B
330
23
100
AcDbEntity
 67
     1
  8
0
  6
Continuous
 62
     8
370
    25
100
AcDbLine
 10
-101.8437048153
 20
-36.780558934
 30
0.0
 11
-101.845976084
 21
-36.7942050478
 31
0.0
  0
LINE
  5
90C
330
23
100
AcDbEntity
 67
     1
  8
0
  6
Continuous
 62
     8
370
    25
100
AcDbLine
 10
-118.1562950765
 20
-36.7805589265
 30
0.0
 11
-118.154023916
 21
-36.7942052039
 31
0.0
  0
LINE
  5
90D
330
23
100
AcDbEntity
 67
     1
  8
0
  6
Continuous
 62
     8
370
    25
100
AcDbLine
 10
-114.8091935285
 20
-39.3158745656
 30
0.0
 11
-114.6815327113
 21
-39.2331040699
 31
0.0
  0
LINE
  5
90E
330
23
100
AcDbEntity
 67
     1
  8
0
  6
Continuous
 62
     8
370
    25
100
AcDbLine
 10
-105.3184672881
 20
-39.2331041995
 30
0.0
 11
-105.1908064715
 21
-39.3158751168
 31
0.0
  0
LINE
  5
90F
330
23
100
AcDbEntity
 67
     1
  8
0
  6
Continuous
 62
     8
370
    25
100
AcDbLine
 10
-108.4258293425
 20
-40.813235384
 30
0.0
 11
-108.4288677919
 21
-40.7974684596
 31
0.0
  0
LINE
  5
910
330
23
100
AcDbEntity
 67
     1
  8
0
  6
Continuous
 62
     8
370
    25
100
AcDbLine
 10
-111.5741706575
 20
-40.813235384
 30
0.0
 11
-111.5711322081
 21
-40.7974684594
 31
0.0
  0
LINE
  5
911
330
23
100
AcDbEntity
 67
     1
  8
0
  6
Continuous
 62
     8
370
    25
100
AcDbLine
 10
-108.4258293425
 20
-40.2786314695
 30
0.0
 11
-108.4288679388
 21
-40.2628645566
 31
0.0
  0
LINE
  5
912
330
23
100
AcDbEntity
 67
     1
  8
0
  6
Continuous
 62
     8
370
    25
100
AcDbLine
 10
-111.5741706575
 20
-40.2786315535
 30
0.0
 11
-111.571132005
 21
-40.2628645611
 31
0.0
  0
LINE
  5
913
330
23
100
AcDbEntity
 67
     1
  8
0
  6
Continuous
 62
     8
370
    25
100
AcDbLine
 10
-110.0
 20
-41.3001215529
 30
0.0
 11
-110.0
 21
-41.0390770155
 31
0.0
  0
LINE
  5
914
330
23
100
AcDbEntity
 67
     1
  8
0
  6
Continuous
 62
     8
370
    25
100
AcDbLine
 10
78.5
 20
-5.0
 30
0.0
 11
78.5
 21
5.0
 31
0.0
  0
ARC
  5
915
330
23
100
AcDbEntity
 67
     1
  8
0
  6
Continuous
 62
     7
370
    25
100
AcDbCircle
 10
-108.6258293425
 20
-32.6912879921
 30
0.0
 40
0.1999999999998924
100
AcDbArc
 50
338.7741512586
 51
0.0
  0
ARC
  5
916
330
23
100
AcDbEntity
 67
     1
  8
0
  6
Continuous
 62
     7
370
    25
100
AcDbCircle
 10
-111.3741706575
 20
-32.6912879921
 30
0.0
 40
0.1999999999996334
100
AcDbArc
 50
180.0
 51
201.2258487414
  0
ARC
  5
917
330
23
100
AcDbEntity
 67
     1
  8
0
  6
Continuous
 62
     7
370
    25
100
AcDbCircle
 10
-108.7300455085
 20
-32.9596141956
 30
0.0
 40
0.1999999999999958
100
AcDbArc
 50
266.0520308627
 51
338.7741512586
  0
ARC
  5
918
330
23
100
AcDbEntity
 67
     1
  8
0
  6
Continuous
 62
     7
370
    25
100
AcDbCircle
 10
-111.2699544915
 20
-32.9596141956
 30
0.0
 40
0.2000000000015306
100
AcDbArc
 50
201.2258487414
 51
273.9479691373
  0
ARC
  5
919
330
23
100
AcDbEntity
 67
     1
  8
0
  6
Continuous
 62
     7
370
    25
100
AcDbCircle
 10
-104.9908064715
 20
-33.6627744402
 30
0.0
 40
0.1999999999999744
100
AcDbArc
 50
180.0
 51
251.5216218482
  0
ARC
  5
91A
330
23
100
AcDbEntity
 67
     1
  8
0
  6
Continuous
 62
     7
370
    25
100
AcDbCircle
 10
-115.0091935285
 20
-33.6627744402
 30
0.0
 40
0.2000000000000604
100
AcDbArc
 50
288.4783781518
 51
360.0
  0
ARC
  5
91B
330
23
100
AcDbEntity
 67
     1
  8
0
  6
Continuous
 62
     7
370
    25
100
AcDbCircle
 10
-117.2968002117
 20
-34.3218555854
 30
0.0
 40
0.1999999999999797
100
AcDbArc
 50
180.0
 51
252.3651863445
  0
ARC
  5
91C
330
23
100
AcDbEntity
 67
     1
  8
0
  6
Continuous
 62
     7
370
    25
100
AcDbCircle
 10
-102.7031997883
 20
-34.3218555854
 30
0.0
 40
0.1999999999999754
100
AcDbArc
 50
287.6348136555
 51
0.0
  0
ARC
  5
91D
330
23
100
AcDbEntity
 67
     1
  8
0
  6
Continuous
 62
     7
370
    25
100
AcDbCircle
 10
-116.805180394
 20
-34.4781354148
 30
0.0
 40
0.1999999999999382
100
AcDbArc
 50
252.3651863445
 51
301.6647664877
  0
ARC
  5
91E
330
23
100
AcDbEntity
 67
     1
  8
0
  6
Continuous
 62
     7
370
    25
100
AcDbCircle
 10
-103.194819606
 20
-34.4781354148
 30
0.0
 40
0.1999999999999685
100
AcDbArc
 50
238.3352335123
 51
287.6348136555
  0
ARC
  5
91F
330
23
100
AcDbEntity
 67
     1
  8
0
  6
Continuous
 62
     7
370
    25
100
AcDbCircle
 10
-118.354023916
 20
-36.1757144138
 30
0.0
 40
0.200000000000145
100
AcDbArc
 50
341.4870617292
 51
0.0
  0
ARC
  5
920
330
23
100
AcDbEntity
 67
     1
  8
0
  6
Continuous
 62
     7
370
    25
100
AcDbCircle
 10
-101.645976084
 20
-36.1757144138
 30
0.0
 40
0.2000000000005997
100
AcDbArc
 50
180.0
 51
198.5129382708
  0
ARC
  5
921
330
23
100
AcDbEntity
 67
     1
  8
0
  6
Continuous
 62
     7
370
    25
100
AcDbCircle
 10
-118.354023916
 20
-37.3288089623
 30
0.0
 40
0.2000000000000028
100
AcDbArc
 50
274.5768118892
 51
0.0
  0
ARC
  5
922
330
23
100
AcDbEntity
 67
     1
  8
0
  6
Continuous
 62
     7
370
    25
100
AcDbCircle
 10
-101.645976084
 20
-37.3288089623
 30
0.0
 40
0.2000000000000313
100
AcDbArc
 50
180.0
 51
265.4231881108
  0
ARC
  5
923
330
23
100
AcDbEntity
 67
     1
  8
0
  6
Continuous
 62
     7
370
    25
100
AcDbCircle
 10
-118.9450631638
 20
-37.3761221116
 30
0.0
 40
0.200000000005864
100
AcDbArc
 50
198.6950237257
 51
274.5768118891
  0
ARC
  5
924
330
23
100
AcDbEntity
 67
     1
  8
0
  6
Continuous
 62
     7
370
    25
100
AcDbCircle
 10
-101.0549368362
 20
-37.3761221116
 30
0.0
 40
0.2000000000019429
100
AcDbArc
 50
265.4231881109
 51
341.3049762744
  0
ARC
  5
925
330
23
100
AcDbEntity
 67
     1
  8
0
  6
Continuous
 62
     7
370
    25
100
AcDbCircle
 10
-117.2968002117
 20
-39.1826677906
 30
0.0
 40
0.1999999999999057
100
AcDbArc
 50
180.0
 51
238.250964893
  0
ARC
  5
926
330
23
100
AcDbEntity
 67
     1
  8
0
  6
Continuous
 62
     7
370
    25
100
AcDbCircle
 10
-102.7031997883
 20
-39.1826677906
 30
0.0
 40
0.1999999999999869
100
AcDbArc
 50
301.749035107
 51
0.0
  0
ARC
  5
927
330
23
100
AcDbEntity
 67
     1
  8
0
  6
Continuous
 62
     7
370
    25
100
AcDbCircle
 10
-115.0091935285
 20
-39.8417489359
 30
0.0
 40
0.1999999999999774
100
AcDbArc
 50
302.9579887485
 51
0.0
  0
ARC
  5
928
330
23
100
AcDbEntity
 67
     1
  8
0
  6
Continuous
 62
     7
370
    25
100
AcDbCircle
 10
-104.9908064715
 20
-39.8417489359
 30
0.0
 40
0.1999999999999911
100
AcDbArc
 50
180.0
 51
237.0420112515
  0
ARC
  5
929
330
23
100
AcDbEntity
 67
     1
  8
0
  6
Continuous
 62
     7
370
    25
100
AcDbCircle
 10
-115.3534294308
 20
-40.0649396627
 30
0.0
 40
0.1999999999999988
100
AcDbArc
 50
251.5782012149
 51
302.9579887485
  0
ARC
  5
92A
330
23
100
AcDbEntity
 67
     1
  8
0
  6
Continuous
 62
     7
370
    25
100
AcDbCircle
 10
-104.6465705692
 20
-40.0649396627
 30
0.0
 40
0.1999999999999255
100
AcDbArc
 50
237.0420112515
 51
288.4217987851
  0
ARC
  5
92B
330
23
100
AcDbEntity
 67
     1
  8
0
  6
Continuous
 62
     7
370
    25
100
AcDbCircle
 10
-108.6258293425
 20
-40.813235384
 30
0.0
 40
0.2000000000000045
100
AcDbArc
 50
273.9895505918
 51
0.0
  0
ARC
  5
92C
330
23
100
AcDbEntity
 67
     1
  8
0
  6
Continuous
 62
     7
370
    25
100
AcDbCircle
 10
-111.3741706575
 20
-40.813235384
 30
0.0
 40
0.2000000000000045
100
AcDbArc
 50
180.0
 51
266.0104494082
  0
ARC
  5
92D
330
23
100
AcDbEntity
 67
     1
  8
0
  6
Continuous
 62
     7
370
    25
100
AcDbCircle
 10
78.5
 20
-4.5
 30
0.0
 40
0.5000000000000071
100
AcDbArc
 50
270.0
 51
0.0000277494
  0
ARC
  5
92E
330
23
100
AcDbEntity
 67
     1
  8
0
  6
Continuous
 62
     7
370
    25
100
AcDbCircle
 10
78.5
 20
4.5
 30
0.0
 40
0.5000000000000018
100
AcDbArc
 50
359.9999722506
 51
90.0
  0
ARC
  5
92F
330
23
100
AcDbEntity
 67
     1
  8
0
  6
Continuous
 62
     7
370
    25
100
AcDbCircle
 10
-109.9978202797
 20
-52.5992734781
 30
0.0
 40
19.77743014059821
100
AcDbArc
 50
86.0221081985
 51
90.1400747436
  0
ARC
  5
930
330
23
100
AcDbEntity
 67
     1
  8
0
  6
Continuous
 62
     7
370
    25
100
AcDbCircle
 10
-110.0028598177
 20
-52.5845238718
 30
0.0
 40
19.76266889132103
100
AcDbArc
 50
90.1255687396
 51
93.9788912807
  0
ARC
  5
931
330
23
100
AcDbEntity
 67
     1
  8
0
  6
Continuous
 62
     7
370
    25
100
AcDbCircle
 10
-112.5662167762
 20
-42.4048398316
 30
0.0
 40
9.49399227402303
100
AcDbArc
 50
107.820611195
 51
121.0145834484
  0
ARC
  5
932
330
23
100
AcDbEntity
 67
     1
  8
0
  6
Continuous
 62
     7
370
    25
100
AcDbCircle
 10
-117.2938258457
 20
-36.752261688
 30
0.0
 40
1.955784491151643
100
AcDbArc
 50
160.971918857
 51
199.028081143
  0
ARC
  5
933
330
23
100
AcDbEntity
 67
     1
  8
0
  6
Continuous
 62
     7
370
    25
100
AcDbCircle
 10
-114.9745307707
 20
-34.1229169546
 30
0.0
 40
4.894478729080085
100
AcDbArc
 50
224.270199113
 51
236.2669089777
  0
ARC
  5
934
330
23
100
AcDbEntity
 67
     1
  8
0
  6
Continuous
 62
     7
370
    25
100
AcDbCircle
 10
-104.92467793
 20
-34.2304810083
 30
0.0
 40
4.747226875168185
100
AcDbArc
 50
306.0848624621
 51
315.8102455583
  0
ARC
  5
935
330
23
100
AcDbEntity
 67
     1
  8
0
  6
Continuous
 62
     7
370
    25
100
AcDbCircle
 10
-102.7061741543
 20
-36.752261688
 30
0.0
 40
1.95578449115038
100
AcDbArc
 50
340.971918857
 51
19.028081143
  0
ARC
  5
936
330
23
100
AcDbEntity
 67
     1
  8
0
  6
Continuous
 62
     7
370
    25
100
AcDbCircle
 10
-107.4337832238
 20
-42.4048398316
 30
0.0
 40
9.493992273997486
100
AcDbArc
 50
58.9854165516
 51
72.179388805
  0
ARC
  5
937
330
23
100
AcDbEntity
 67
     1
  8
0
  6
Continuous
 62
     7
370
    25
100
AcDbCircle
 10
-109.9973334201
 20
-51.5482843249
 30
0.0
 40
18.4540342740376
100
AcDbArc
 50
86.0622463347
 51
89.8446748735
  0
ARC
  5
938
330
23
100
AcDbEntity
 67
     1
  8
0
  6
Continuous
 62
     7
370
    25
100
AcDbCircle
 10
-110.0019061228
 20
-51.5649470918
 30
0.0
 40
18.47070993090402
100
AcDbArc
 50
89.8306306129
 51
93.9365574954
  0
ARC
  5
939
330
23
100
AcDbEntity
 67
     1
  8
0
  6
Continuous
 62
     7
370
    25
100
AcDbCircle
 10
-110.0026034656
 20
-22.4804242929
 30
0.0
 40
18.01725239770789
100
AcDbArc
 50
266.0622463347
 51
269.8446748735
  0
ARC
  5
93A
330
23
100
AcDbEntity
 67
     1
  8
0
  6
Continuous
 62
     7
370
    25
100
AcDbCircle
 10
-110.3462524728
 20
-24.6252209461
 30
0.0
 40
14.96282624897607
100
AcDbArc
 50
253.600598779
 51
265.0993665465
  0
ARC
  5
93B
330
23
100
AcDbEntity
 67
     1
  8
0
  6
Continuous
 62
     7
370
    25
100
AcDbCircle
 10
-112.289337006
 20
-31.709563642
 30
0.0
 40
8.468483280778718
100
AcDbArc
 50
239.0537949095
 51
252.1110104471
  0
ARC
  5
93C
330
23
100
AcDbEntity
 67
     1
  8
0
  6
Continuous
 62
     7
370
    25
100
AcDbCircle
 10
-115.1011373639
 20
-35.0986547427
 30
0.0
 40
3.342835882396851
100
AcDbArc
 50
206.6636811534
 51
238.0900804224
  0
ARC
  5
93D
330
23
100
AcDbEntity
 67
     1
  8
0
  6
Continuous
 62
     7
370
    25
100
AcDbCircle
 10
-116.5062104256
 20
-36.752261688
 30
0.0
 40
1.74345594340468
100
AcDbArc
 50
161.1637134895
 51
198.8362865105
  0
ARC
  5
93E
330
23
100
AcDbEntity
 67
     1
  8
0
  6
Continuous
 62
     7
370
    25
100
AcDbCircle
 10
-115.61238913
 20
-36.2725187403
 30
0.0
 40
2.729596708836636
100
AcDbArc
 50
133.6588070737
 51
155.1113088482
  0
ARC
  5
93F
330
23
100
AcDbEntity
 67
     1
  8
0
  6
Continuous
 62
     7
370
    25
100
AcDbCircle
 10
-104.417582082
 20
-36.2939957999
 30
0.0
 40
2.765834078419173
100
AcDbArc
 50
25.0309653771
 51
46.1991643158
  0
ARC
  5
940
330
23
100
AcDbEntity
 67
     1
  8
0
  6
Continuous
 62
     7
370
    25
100
AcDbCircle
 10
-103.4937895744
 20
-36.752261688
 30
0.0
 40
1.743455943404606
100
AcDbArc
 50
341.1637134895
 51
18.8362865105
  0
ARC
  5
941
330
23
100
AcDbEntity
 67
     1
  8
0
  6
Continuous
 62
     7
370
    25
100
AcDbCircle
 10
-104.898857574
 20
-35.0986694254
 30
0.0
 40
3.342822419359672
100
AcDbArc
 50
301.9100041567
 51
333.3364889677
  0
ARC
  5
942
330
23
100
AcDbEntity
 67
     1
  8
0
  6
Continuous
 62
     7
370
    25
100
AcDbCircle
 10
-107.710662994
 20
-31.709563642
 30
0.0
 40
8.46848328077645
100
AcDbArc
 50
287.8889895529
 51
300.9462050905
  0
ARC
  5
943
330
23
100
AcDbEntity
 67
     1
  8
0
  6
Continuous
 62
     7
370
    25
100
AcDbCircle
 10
-109.6537826151
 20
-24.6250616065
 30
0.0
 40
14.96298918442143
100
AcDbArc
 50
274.9007167464
 51
286.3993583902
  0
ARC
  5
944
330
23
100
AcDbEntity
 67
     1
  8
0
  6
Continuous
 62
     7
370
    25
100
AcDbCircle
 10
-109.9977830408
 20
-22.4720427194
 30
0.0
 40
18.02564072781397
100
AcDbArc
 50
269.9929532378
 51
273.9371497651
  0
ARC
  5
945
330
23
100
AcDbEntity
 67
     1
  8
0
  6
Continuous
 62
     7
370
    25
100
AcDbCircle
 10
-115.4415462733
 20
-33.3816774388
 30
0.0
 40
0.2520146166346524
100
AcDbArc
 50
290.4658924915
 51
358.6751930569
  0
ARC
  5
946
330
23
100
AcDbEntity
 67
     1
  8
0
  6
Continuous
 62
     7
370
    25
100
AcDbCircle
 10
-115.1557832649
 20
-33.3712357419
 30
0.0
 40
0.3159913805358783
100
AcDbArc
 50
179.1186774481
 51
231.2826016757
  0
ARC
  5
947
330
23
100
AcDbEntity
 67
     1
  8
0
  6
Continuous
 62
     7
370
    25
100
AcDbCircle
 10
-115.3559925633
 20
-33.715104704
 30
0.0
 40
0.3674356960415775
100
AcDbArc
 50
63.0732653523
 51
108.3612173003
  0
ARC
  5
948
330
23
100
AcDbEntity
 67
     1
  8
0
  6
Continuous
 62
     7
370
    25
100
AcDbCircle
 10
-104.5584537267
 20
-33.3816774388
 30
0.0
 40
0.2520146166522979
100
AcDbArc
 50
181.3248069941
 51
249.534107507
  0
ARC
  5
949
330
23
100
AcDbEntity
 67
     1
  8
0
  6
Continuous
 62
     7
370
    25
100
AcDbCircle
 10
-104.6440074365
 20
-33.7151047024
 30
0.0
 40
0.3674356945000566
100
AcDbArc
 50
71.6387826406
 51
116.9267347919
  0
ARC
  5
94A
330
23
100
AcDbEntity
 67
     1
  8
0
  6
Continuous
 62
     7
370
    25
100
AcDbCircle
 10
-104.8442167351
 20
-33.3712357419
 30
0.0
 40
0.3159913805358925
100
AcDbArc
 50
308.7173983243
 51
0.8813225519
  0
ARC
  5
94B
330
23
100
AcDbEntity
 67
     1
  8
0
  6
Continuous
 62
     7
370
    25
100
AcDbCircle
 10
-102.7967765416
 20
-34.2629714457
 30
0.0
 40
0.2548845165572015
100
AcDbArc
 50
291.5389673175
 51
358.8369614888
  0
ARC
  5
94C
330
23
100
AcDbEntity
 67
     1
  8
0
  6
Continuous
 62
     7
370
    25
100
AcDbCircle
 10
-107.4892689919
 20
-42.4608232306
 30
0.0
 40
9.288716765368132
100
AcDbArc
 50
58.9854165516
 51
72.179388805
  0
ARC
  5
94D
330
23
100
AcDbEntity
 67
     1
  8
0
  6
Continuous
 62
     7
370
    25
100
AcDbCircle
 10
-112.5107310081
 20
-42.4608232306
 30
0.0
 40
9.288716765368866
100
AcDbArc
 50
107.820611195
 51
121.0145834484
  0
ARC
  5
94E
330
23
100
AcDbEntity
 67
     1
  8
0
  6
Continuous
 62
     7
370
    25
100
AcDbCircle
 10
-117.2032234584
 20
-34.2629714457
 30
0.0
 40
0.254884516557691
100
AcDbArc
 50
181.1630385114
 51
248.4610326824
  0
ARC
  5
94F
330
23
100
AcDbEntity
 67
     1
  8
0
  6
Continuous
 62
     7
370
    25
100
AcDbCircle
 10
-115.097310371
 20
-33.6048681656
 30
0.0
 40
0.2520146166540938
100
AcDbArc
 50
290.4658924935
 51
358.6751930057
  0
ARC
  5
950
330
23
100
AcDbEntity
 67
     1
  8
0
  6
Continuous
 62
     7
370
    25
100
AcDbCircle
 10
-104.9026896291
 20
-33.6048681656
 30
0.0
 40
0.2520146166311055
100
AcDbArc
 50
181.3248069424
 51
249.5341075088
  0
ARC
  5
951
330
23
100
AcDbEntity
 67
     1
  8
0
  6
Continuous
 62
     7
370
    25
100
AcDbCircle
 10
-112.3448360849
 20
-42.0954082643
 30
0.0
 40
8.67377984515973
100
AcDbArc
 50
107.8889895529
 51
120.9462050905
  0
ARC
  5
952
330
23
100
AcDbEntity
 67
     1
  8
0
  6
Continuous
 62
     7
370
    25
100
AcDbCircle
 10
-107.6551639151
 20
-42.0954082643
 30
0.0
 40
8.673779845159402
100
AcDbArc
 50
59.0537949095
 51
72.1110104471
  0
ARC
  5
953
330
23
100
AcDbEntity
 67
     1
  8
0
  6
Continuous
 62
     7
370
    25
100
AcDbCircle
 10
-105.0345609131
 20
-33.7801714425
 30
0.0
 40
0.0749107092205805
100
AcDbArc
 50
254.8046494956
 51
305.7385829727
  0
ARC
  5
954
330
23
100
AcDbEntity
 67
     1
  8
0
  6
Continuous
 62
     7
370
    25
100
AcDbCircle
 10
-103.2389554764
 20
-34.542297903
 30
0.0
 40
0.1222817514905193
100
AcDbArc
 50
240.1551984717
 51
291.157682117
  0
ARC
  5
955
330
23
100
AcDbEntity
 67
     1
  8
0
  6
Continuous
 62
     7
370
    25
100
AcDbCircle
 10
-116.7610445236
 20
-34.542297903
 30
0.0
 40
0.1222817514905193
100
AcDbArc
 50
248.842317883
 51
299.8448015283
  0
ARC
  5
956
330
23
100
AcDbEntity
 67
     1
  8
0
  6
Continuous
 62
     7
370
    25
100
AcDbCircle
 10
-114.8160498068
 20
-36.2974186716
 30
0.0
 40
2.504858907939811
100
AcDbArc
 50
139.8823214512
 51
145.1243552443
  0
ARC
  5
957
330
23
100
AcDbEntity
 67
     1
  8
0
  6
Continuous
 62
     7
370
    25
100
AcDbCircle
 10
-116.5463348386
 20
-34.9612102763
 30
0.0
 40
0.3429529874338777
100
AcDbArc
 50
213.4432772989
 51
262.5652190875
  0
ARC
  5
958
330
23
100
AcDbEntity
 67
     1
  8
0
  6
Continuous
 62
     7
370
    25
100
AcDbCircle
 10
-111.0842279446
 20
-41.4821540519
 30
0.0
 40
8.397018211291439
100
AcDbArc
 50
92.2916910568
 51
127.7037801205
  0
ARC
  5
959
330
23
100
AcDbEntity
 67
     1
  8
0
  6
Continuous
 62
     7
370
    25
100
AcDbCircle
 10
-108.7201761254
 20
-40.7498801096
 30
0.0
 40
7.659311162729709
100
AcDbArc
 50
47.5148932239
 51
88.9513589449
  0
ARC
  5
95A
330
23
100
AcDbEntity
 67
     1
  8
0
  6
Continuous
 62
     7
370
    25
100
AcDbCircle
 10
-116.2682210549
 20
-34.6172294645
 30
0.0
 40
0.3521645018202213
100
AcDbArc
 50
211.08543689
 51
258.6849797544
  0
ARC
  5
95B
330
23
100
AcDbEntity
 67
     1
  8
0
  6
Continuous
 62
     7
370
    25
100
AcDbCircle
 10
-110.000225875
 20
-24.6168447344
 30
0.0
 40
14.50804968673148
100
AcDbArc
 50
268.0258811432
 51
270.0008920349
  0
ARC
  5
95C
330
23
100
AcDbEntity
 67
     1
  8
0
  6
Continuous
 62
     7
370
    25
100
AcDbCircle
 10
-114.6038696933
 20
-36.5234373903
 30
0.0
 40
2.332640464377035
100
AcDbArc
 50
137.9984390379
 51
148.4032680658
  0
ARC
  5
95D
330
23
100
AcDbEntity
 67
     1
  8
0
  6
Continuous
 62
     7
370
    25
100
AcDbCircle
 10
-109.9955856144
 20
-24.2978060307
 30
0.0
 40
14.3815159013265
100
AcDbArc
 50
271.9747978625
 51
272.9717359837
  0
ARC
  5
95E
330
23
100
AcDbEntity
 67
     1
  8
0
  6
Continuous
 62
     7
370
    25
100
AcDbCircle
 10
-109.7716271567
 20
-26.2648010369
 30
0.0
 40
12.40104850137429
100
AcDbArc
 50
277.048039154
 51
282.435605456
  0
ARC
  5
95F
330
23
100
AcDbEntity
 67
     1
  8
0
  6
Continuous
 62
     7
370
    25
100
AcDbCircle
 10
-108.701811251
 20
-30.2841174809
 30
0.0
 40
8.238177625492138
100
AcDbArc
 50
286.6255159016
 51
293.7324774292
  0
ARC
  5
960
330
23
100
AcDbEntity
 67
     1
  8
0
  6
Continuous
 62
     7
370
    25
100
AcDbCircle
 10
-107.1803473039
 20
-33.4125676578
 30
0.0
 40
4.754393517976686
100
AcDbArc
 50
301.242277978
 51
303.5804433572
  0
ARC
  5
961
330
23
100
AcDbEntity
 67
     1
  8
0
  6
Continuous
 62
     7
370
    25
100
AcDbCircle
 10
-106.0473811989
 20
-34.8657005618
 30
0.0
 40
2.908363171101597
100
AcDbArc
 50
313.357263174
 51
316.5715553682
  0
ARC
  5
962
330
23
100
AcDbEntity
 67
     1
  8
0
  6
Continuous
 62
     7
370
    25
100
AcDbCircle
 10
-104.9701226583
 20
-35.6399043091
 30
0.0
 40
1.574335515233894
100
AcDbArc
 50
330.0049722869
 51
350.9399400915
  0
ARC
  5
963
330
23
100
AcDbEntity
 67
     1
  8
0
  6
Continuous
 62
     7
370
    25
100
AcDbCircle
 10
-115.0299182068
 20
-35.6398449345
 30
0.0
 40
1.574316644121748
100
AcDbArc
 50
189.1152309566
 51
209.9474961065
  0
ARC
  5
964
330
23
100
AcDbEntity
 67
     1
  8
0
  6
Continuous
 62
     7
370
    25
100
AcDbCircle
 10
-113.9536881142
 20
-34.8667910878
 30
0.0
 40
2.906836132054305
100
AcDbArc
 50
223.3973792379
 51
226.6433042583
  0
ARC
  5
965
330
23
100
AcDbEntity
 67
     1
  8
0
  6
Continuous
 62
     7
370
    25
100
AcDbCircle
 10
-112.8208750645
 20
-33.414463892
 30
0.0
 40
4.752137645430408
100
AcDbArc
 50
236.4191894714
 51
238.7361137661
  0
ARC
  5
966
330
23
100
AcDbEntity
 67
     1
  8
0
  6
Continuous
 62
     7
370
    25
100
AcDbCircle
 10
-111.3015371749
 20
-30.2929996466
 30
0.0
 40
8.228691581583796
100
AcDbArc
 50
246.2491116016
 51
253.3408975991
  0
ARC
  5
967
330
23
100
AcDbEntity
 67
     1
  8
0
  6
Continuous
 62
     7
370
    25
100
AcDbCircle
 10
-110.2295823446
 20
-26.2716941292
 30
0.0
 40
12.39405271442877
100
AcDbArc
 50
257.549519532
 51
262.9291136061
  0
ARC
  5
968
330
23
100
AcDbEntity
 67
     1
  8
0
  6
Continuous
 62
     7
370
    25
100
AcDbCircle
 10
-110.0044691187
 20
-24.2991627156
 30
0.0
 40
14.38015813614145
100
AcDbArc
 50
267.0072317747
 51
268.0252338106
  0
ARC
  5
969
330
23
100
AcDbEntity
 67
     1
  8
0
  6
Continuous
 62
     7
370
    25
100
AcDbCircle
 10
-104.421679312
 20
-36.5720985876
 30
0.0
 40
2.997126377587791
100
AcDbArc
 50
25.4519205203
 51
50.2002523394
  0
ARC
  5
96A
330
23
100
AcDbEntity
 67
     1
  8
0
  6
Continuous
 62
     7
370
    25
100
AcDbCircle
 10
-118.242566575
 20
-35.1243918944
 30
0.0
 40
0.154087639499141
100
AcDbArc
 50
324.0296982737
 51
0.2388790945
  0
ARC
  5
96B
330
23
100
AcDbEntity
 67
     1
  8
0
  6
Continuous
 62
     7
370
    25
100
AcDbCircle
 10
-101.7573466683
 20
-35.1243663466
 30
0.0
 40
0.1541717769649076
100
AcDbArc
 50
179.7706608751
 51
215.959619753
  0
ARC
  5
96C
330
23
100
AcDbEntity
 67
     1
  8
0
  6
Continuous
 62
     7
370
    25
100
AcDbCircle
 10
-114.7727719684
 20
-36.4172102181
 30
0.0
 40
2.418218099705528
100
AcDbArc
 50
137.998439038
 51
148.4032680658
  0
ARC
  5
96D
330
23
100
AcDbEntity
 67
     1
  8
0
  6
Continuous
 62
     7
370
    25
100
AcDbCircle
 10
-100.1670264648
 20
-36.0553130199
 30
0.0
 40
0.922784517292559
100
AcDbArc
 50
178.9859892195
 51
195.8021651269
  0
ARC
  5
96E
330
23
100
AcDbEntity
 67
     1
  8
0
  6
Continuous
 62
     7
370
    25
100
AcDbCircle
 10
-101.0366751076
 20
-36.2710501455
 30
0.0
 40
0.2380408244602382
100
AcDbArc
 50
41.0852148722
 51
102.8626478987
  0
ARC
  5
96F
330
23
100
AcDbEntity
 67
     1
  8
0
  6
Continuous
 62
     7
370
    25
100
AcDbCircle
 10
-101.0618541372
 20
-36.1017148111
 30
0.0
 40
0.2050044939490482
100
AcDbArc
 50
271.9336522196
 51
356.392398598
  0
ARC
  5
970
330
23
100
AcDbEntity
 67
     1
  8
0
  6
Continuous
 62
     7
370
    25
100
AcDbCircle
 10
-119.8329735355
 20
-36.0553130199
 30
0.0
 40
0.9227845175329095
100
AcDbArc
 50
344.1978348745
 51
1.0140107906
  0
ARC
  5
971
330
23
100
AcDbEntity
 67
     1
  8
0
  6
Continuous
 62
     7
370
    25
100
AcDbCircle
 10
-118.9381458628
 20
-36.1017148111
 30
0.0
 40
0.2050044939487281
100
AcDbArc
 50
183.6076014021
 51
268.0663477805
  0
ARC
  5
972
330
23
100
AcDbEntity
 67
     1
  8
0
  6
Continuous
 62
     7
370
    25
100
AcDbCircle
 10
-118.9633248919
 20
-36.2710501463
 30
0.0
 40
0.2380408253019256
100
AcDbArc
 50
77.1373522605
 51
138.9147850629
  0
ARC
  5
973
330
23
100
AcDbEntity
 67
     1
  8
0
  6
Continuous
 62
     7
370
    25
100
AcDbCircle
 10
-119.2419342874
 20
-36.1026261692
 30
0.0
 40
0.922784517272217
100
AcDbArc
 50
344.1978348727
 51
1.0140107804
  0
ARC
  5
974
330
23
100
AcDbEntity
 67
     1
  8
0
  6
Continuous
 62
     7
370
    25
100
AcDbCircle
 10
-100.7580657122
 20
-36.1026261692
 30
0.0
 40
0.922784517590006
100
AcDbArc
 50
178.9859892102
 51
195.8021651252
  0
ARC
  5
975
330
23
100
AcDbEntity
 67
     1
  8
0
  6
Continuous
 62
     7
370
    25
100
AcDbCircle
 10
-117.1361215031
 20
-36.9304629929
 30
0.0
 40
1.913497258910409
100
AcDbArc
 50
160.971918857
 51
199.028081143
  0
ARC
  5
976
330
23
100
AcDbEntity
 67
     1
  8
0
  6
Continuous
 62
     7
370
    25
100
AcDbCircle
 10
-102.8638784969
 20
-36.9304629929
 30
0.0
 40
1.913497258910487
100
AcDbArc
 50
340.971918857
 51
19.028081143
  0
ARC
  5
977
330
23
100
AcDbEntity
 67
     1
  8
0
  6
Continuous
 62
     7
370
    25
100
AcDbCircle
 10
-116.6639367389
 20
-36.9304629929
 30
0.0
 40
1.785721542032831
100
AcDbArc
 50
161.1637134895
 51
198.8362865105
  0
ARC
  5
978
330
23
100
AcDbEntity
 67
     1
  8
0
  6
Continuous
 62
     7
370
    25
100
AcDbCircle
 10
-103.3360632611
 20
-36.9304629929
 30
0.0
 40
1.785721542032824
100
AcDbArc
 50
341.1637134895
 51
18.8362865105
  0
ARC
  5
979
330
23
100
AcDbEntity
 67
     1
  8
0
  6
Continuous
 62
     7
370
    25
100
AcDbCircle
 10
-118.2009737763
 20
-35.6419255663
 30
0.0
 40
0.0469569346891786
100
AcDbArc
 50
0.9945760969
 51
33.5963200031
  0
ARC
  5
97A
330
23
100
AcDbEntity
 67
     1
  8
0
  6
Continuous
 62
     7
370
    25
100
AcDbCircle
 10
-101.7990094122
 20
-35.6419311052
 30
0.0
 40
0.0469738373598088
100
AcDbArc
 50
146.4092507344
 51
178.9992152587
  0
ARC
  5
97B
330
23
100
AcDbEntity
 67
     1
  8
0
  6
Continuous
 62
     7
370
    25
100
AcDbCircle
 10
-118.3607430673
 20
-37.3022666278
 30
0.0
 40
0.204853862122376
100
AcDbArc
 50
271.8796231907
 51
356.3906496958
  0
ARC
  5
97C
330
23
100
AcDbEntity
 67
     1
  8
0
  6
Continuous
 62
     7
370
    25
100
AcDbCircle
 10
-101.6392569327
 20
-37.3022666278
 30
0.0
 40
0.2048538621223727
100
AcDbArc
 50
183.6093503042
 51
268.1203768093
  0
ARC
  5
97D
330
23
100
AcDbEntity
 67
     1
  8
0
  6
Continuous
 62
     7
370
    25
100
AcDbCircle
 10
-104.9063543531
 20
-35.1036416802
 30
0.0
 40
3.624667370789606
100
AcDbArc
 50
302.3770019469
 51
327.5991264196
  0
ARC
  5
97E
330
23
100
AcDbEntity
 67
     1
  8
0
  6
Continuous
 62
     7
370
    25
100
AcDbCircle
 10
-102.8829000507
 20
-37.9298135365
 30
0.0
 40
0.2490715785344567
100
AcDbArc
 50
181.4974839721
 51
250.6592327618
  0
ARC
  5
97F
330
23
100
AcDbEntity
 67
     1
  8
0
  6
Continuous
 62
     7
370
    25
100
AcDbCircle
 10
-117.1170610181
 20
-37.9298385133
 30
0.0
 40
0.249034126260508
100
AcDbArc
 50
289.3342990219
 51
358.5081878111
  0
ARC
  5
980
330
23
100
AcDbEntity
 67
     1
  8
0
  6
Continuous
 62
     7
370
    25
100
AcDbCircle
 10
-104.9973150042
 20
-34.5109214991
 30
0.0
 40
4.570098689969153
100
AcDbArc
 50
303.5171305133
 51
318.5623649794
  0
ARC
  5
981
330
23
100
AcDbEntity
 67
     1
  8
0
  6
Continuous
 62
     7
370
    25
100
AcDbCircle
 10
-116.5967892742
 20
-38.9576030956
 30
0.0
 40
0.3231548038566579
100
AcDbArc
 50
179.0083779988
 51
229.8444694643
  0
ARC
  5
982
330
23
100
AcDbEntity
 67
     1
  8
0
  6
Continuous
 62
     7
370
    25
100
AcDbCircle
 10
-116.8075649977
 20
-39.3052952674
 30
0.0
 40
0.3707132322967389
100
AcDbArc
 50
63.8375622798
 51
107.6386213443
  0
ARC
  5
983
330
23
100
AcDbEntity
 67
     1
  8
0
  6
Continuous
 62
     7
370
    25
100
AcDbCircle
 10
-116.8991524232
 20
-38.9674360509
 30
0.0
 40
0.2550929042326259
100
AcDbArc
 50
291.6159610255
 51
358.8484863965
  0
ARC
  5
984
330
23
100
AcDbEntity
 67
     1
  8
0
  6
Continuous
 62
     7
370
    25
100
AcDbCircle
 10
-103.4032107258
 20
-38.9576030956
 30
0.0
 40
0.323154803884748
100
AcDbArc
 50
310.1555305372
 51
0.9916220356
  0
ARC
  5
985
330
23
100
AcDbEntity
 67
     1
  8
0
  6
Continuous
 62
     7
370
    25
100
AcDbCircle
 10
-103.1008475768
 20
-38.9674360509
 30
0.0
 40
0.2550929042326259
100
AcDbArc
 50
181.1515136035
 51
248.3840389745
  0
ARC
  5
986
330
23
100
AcDbEntity
 67
     1
  8
0
  6
Continuous
 62
     7
370
    25
100
AcDbCircle
 10
-103.1924350019
 20
-39.3052952691
 30
0.0
 40
0.3707132339934894
100
AcDbArc
 50
72.3613788034
 51
116.1624376596
  0
ARC
  5
987
330
23
100
AcDbEntity
 67
     1
  8
0
  6
Continuous
 62
     7
370
    25
100
AcDbCircle
 10
-103.1924349119
 20
-38.7707001223
 30
0.0
 40
0.3707214225039736
100
AcDbArc
 50
72.3618204175
 51
116.1618963791
  0
ARC
  5
988
330
23
100
AcDbEntity
 67
     1
  8
0
  6
Continuous
 62
     7
370
    25
100
AcDbCircle
 10
-116.807564387
 20
-38.7706892378
 30
0.0
 40
0.3707112786745659
100
AcDbArc
 50
63.8374693643
 51
107.6387946951
  0
ARC
  5
989
330
23
100
AcDbEntity
 67
     1
  8
0
  6
Continuous
 62
     7
370
    25
100
AcDbCircle
 10
-102.9115909081
 20
-39.1138829249
 30
0.0
 40
0.3231548038552826
100
AcDbArc
 50
310.1555305356
 51
0.9916220014
  0
ARC
  5
98A
330
23
100
AcDbEntity
 67
     1
  8
0
  6
Continuous
 62
     7
370
    25
100
AcDbCircle
 10
-117.0884090919
 20
-39.1138829249
 30
0.0
 40
0.3231548038847334
100
AcDbArc
 50
179.0083779643
 51
229.8444694628
  0
ARC
  5
98B
330
23
100
AcDbEntity
 67
     1
  8
0
  6
Continuous
 62
     7
370
    25
100
AcDbCircle
 10
-115.206100669
 20
-39.7734330745
 30
0.0
 40
0.3155045724763379
100
AcDbArc
 50
308.6163315554
 51
0.8731865095
  0
ARC
  5
98C
330
23
100
AcDbEntity
 67
     1
  8
0
  6
Continuous
 62
     7
370
    25
100
AcDbCircle
 10
-112.3448360849
 20
-31.7655177215
 30
0.0
 40
8.673779845160212
100
AcDbArc
 50
239.0537949095
 51
252.1110104471
  0
ARC
  5
98D
330
23
100
AcDbEntity
 67
     1
  8
0
  6
Continuous
 62
     7
370
    25
100
AcDbCircle
 10
-107.6551639151
 20
-31.7655177215
 30
0.0
 40
8.67377984516053
100
AcDbArc
 50
287.8889895529
 51
300.9462050905
  0
ARC
  5
98E
330
23
100
AcDbEntity
 67
     1
  8
0
  6
Continuous
 62
     7
370
    25
100
AcDbCircle
 10
-104.793899331
 20
-39.7734330745
 30
0.0
 40
0.3155045724763379
100
AcDbArc
 50
179.1268134905
 51
231.3836684446
  0
ARC
  5
98F
330
23
100
AcDbEntity
 67
     1
  8
0
  6
Continuous
 62
     7
370
    25
100
AcDbCircle
 10
-112.5107310081
 20
-31.4001027552
 30
0.0
 40
9.288716765368473
100
AcDbArc
 50
238.9854165516
 51
252.179388805
  0
ARC
  5
990
330
23
100
AcDbEntity
 67
     1
  8
0
  6
Continuous
 62
     7
370
    25
100
AcDbCircle
 10
-107.4892689919
 20
-31.4001027552
 30
0.0
 40
9.288716765369193
100
AcDbArc
 50
287.820611195
 51
301.0145834484
  0
ARC
  5
991
330
23
100
AcDbEntity
 67
     1
  8
0
  6
Continuous
 62
     7
370
    25
100
AcDbCircle
 10
-115.3971463455
 20
-40.1826164303
 30
0.0
 40
0.0746618258652851
100
AcDbArc
 50
254.8719020211
 51
305.8406073792
  0
ARC
  5
992
330
23
100
AcDbEntity
 67
     1
  8
0
  6
Continuous
 62
     7
370
    25
100
AcDbCircle
 10
-104.6028536545
 20
-40.1826164303
 30
0.0
 40
0.0746618258652851
100
AcDbArc
 50
234.1593926208
 51
285.1280979789
  0
ARC
  5
993
330
23
100
AcDbEntity
 67
     1
  8
0
  6
Continuous
 62
     7
370
    25
100
AcDbCircle
 10
-105.0978406029
 20
-38.9856959615
 30
0.0
 40
0.331492036819977
100
AcDbArc
 50
178.8967806849
 51
228.2749660159
  0
ARC
  5
994
330
23
100
AcDbEntity
 67
     1
  8
0
  6
Continuous
 62
     7
370
    25
100
AcDbCircle
 10
-114.9022042671
 20
-38.9856760028
 30
0.0
 40
0.3315367006985346
100
AcDbArc
 50
311.7285407782
 51
1.0996424323
  0
ARC
  5
995
330
23
100
AcDbEntity
 67
     1
  8
0
  6
Continuous
 62
     7
370
    25
100
AcDbCircle
 10
-109.6453896574
 20
-24.5308759308
 30
0.0
 40
15.32572260142237
100
AcDbArc
 50
274.9007173557
 51
286.399359018
  0
ARC
  5
996
330
23
100
AcDbEntity
 67
     1
  8
0
  6
Continuous
 62
     7
370
    25
100
AcDbCircle
 10
-107.5578309809
 20
-39.5493594599
 30
0.0
 40
0.8178293622012769
100
AcDbArc
 50
178.8782974472
 51
197.8886947848
  0
ARC
  5
997
330
23
100
AcDbEntity
 67
     1
  8
0
  6
Continuous
 62
     7
370
    25
100
AcDbCircle
 10
-112.4420015527
 20
-39.5493815387
 30
0.0
 40
0.8176628867624504
100
AcDbArc
 50
342.109243133
 51
1.1235584108
  0
ARC
  5
998
330
23
100
AcDbEntity
 67
     1
  8
0
  6
Continuous
 62
     7
370
    25
100
AcDbCircle
 10
-110.3546409273
 20
-24.5310136215
 30
0.0
 40
15.32558175285158
100
AcDbArc
 50
253.6006052042
 51
265.0993522547
  0
ARC
  5
999
330
23
100
AcDbEntity
 67
     1
  8
0
  6
Continuous
 62
     7
370
    25
100
AcDbCircle
 10
-109.6433575406
 20
-23.5516724797
 30
0.0
 40
16.57742072853194
100
AcDbArc
 50
274.8842478536
 51
285.5804584853
  0
ARC
  5
99A
330
23
100
AcDbEntity
 67
     1
  8
0
  6
Continuous
 62
     7
370
    25
100
AcDbCircle
 10
-110.3566424595
 20
-23.5516724801
 30
0.0
 40
16.5774207280658
100
AcDbArc
 50
254.4195415146
 51
265.1157521436
  0
ARC
  5
99B
330
23
100
AcDbEntity
 67
     1
  8
0
  6
Continuous
 62
     7
370
    25
100
AcDbCircle
 10
-108.7398008394
 20
-40.5162199629
 30
0.0
 40
0.2071203871125071
100
AcDbArc
 50
272.6996191001
 51
356.4229787316
  0
ARC
  5
99C
330
23
100
AcDbEntity
 67
     1
  8
0
  6
Continuous
 62
     7
370
    25
100
AcDbCircle
 10
-107.6986654411
 20
-40.4717502843
 30
0.0
 40
1.061568082616511
100
AcDbArc
 50
179.1035884636
 51
193.6966881809
  0
ARC
  5
99D
330
23
100
AcDbEntity
 67
     1
  8
0
  6
Continuous
 62
     7
370
    25
100
AcDbCircle
 10
-108.7109927372
 20
-40.6897078838
 30
0.0
 40
0.2396515274633861
100
AcDbArc
 50
42.066776404
 51
101.825176197
  0
ARC
  5
99E
330
23
100
AcDbEntity
 67
     1
  8
0
  6
Continuous
 62
     7
370
    25
100
AcDbCircle
 10
-111.2601991606
 20
-40.5162199629
 30
0.0
 40
0.2071203871505868
100
AcDbArc
 50
183.5770213365
 51
267.3003808941
  0
ARC
  5
99F
330
23
100
AcDbEntity
 67
     1
  8
0
  6
Continuous
 62
     7
370
    25
100
AcDbCircle
 10
-111.2890072629
 20
-40.6897078831
 30
0.0
 40
0.2396515267679087
100
AcDbArc
 50
78.1748237465
 51
137.9332237486
  0
ARC
  5
9A0
330
23
100
AcDbEntity
 67
     1
  8
0
  6
Continuous
 62
     7
370
    25
100
AcDbCircle
 10
-112.3013345589
 20
-40.4717502843
 30
0.0
 40
1.061568082616325
100
AcDbArc
 50
346.3033118191
 51
0.8964115364
  0
ARC
  5
9A1
330
23
100
AcDbEntity
 67
     1
  8
0
  6
Continuous
 62
     7
370
    25
100
AcDbCircle
 10
-109.9980938772
 20
-22.295978894
 30
0.0
 40
18.47070993089913
100
AcDbArc
 50
269.8306306129
 51
273.9365574954
  0
ARC
  5
9A2
330
23
100
AcDbEntity
 67
     1
  8
0
  6
Continuous
 62
     7
370
    25
100
AcDbCircle
 10
-135.3002871298
 20
-40.5150466495
 30
0.0
 40
25.24884614673849
100
AcDbArc
 50
359.4291363189
 51
0.0395669063
  0
ARC
  5
9A3
330
23
100
AcDbEntity
 67
     1
  8
0
  6
Continuous
 62
     7
370
    25
100
AcDbCircle
 10
-110.0026665799
 20
-22.3126416609
 30
0.0
 40
18.45403427403737
100
AcDbArc
 50
266.0622463347
 51
269.8446748735
  0
ARC
  5
9A4
330
23
100
AcDbEntity
 67
     1
  8
0
  6
Continuous
 62
     7
370
    25
100
AcDbCircle
 10
-108.7109947423
 20
-40.155108736
 30
0.0
 40
0.23965600218799
100
AcDbArc
 50
42.0673392691
 51
101.8244796399
  0
ARC
  5
9A5
330
23
100
AcDbEntity
 67
     1
  8
0
  6
Continuous
 62
     7
370
    25
100
AcDbCircle
 10
-111.2890076465
 20
-40.1551016538
 30
0.0
 40
0.2396495084200059
100
AcDbArc
 50
78.1746158476
 51
137.9335395641
  0
ARC
  5
9A6
330
23
100
AcDbEntity
 67
     1
  8
0
  6
Continuous
 62
     7
370
    25
100
AcDbCircle
 10
-108.6355846734
 20
-40.7845461663
 30
0.0
 40
0.2071203871492762
100
AcDbArc
 50
272.6996191053
 51
356.4229786637
  0
ARC
  5
9A7
330
23
100
AcDbEntity
 67
     1
  8
0
  6
Continuous
 62
     7
370
    25
100
AcDbCircle
 10
-111.3644153266
 20
-40.7845461664
 30
0.0
 40
0.2071203871148769
100
AcDbArc
 50
183.5770212692
 51
267.3003808996
  0
ARC
  5
9A8
330
23
100
AcDbEntity
 67
     1
  8
0
  6
Continuous
 62
     7
370
    25
100
AcDbCircle
 10
-109.9971401823
 20
-21.2764021139
 30
0.0
 40
19.76266889131895
100
AcDbArc
 50
270.1255687396
 51
273.9788912807
  0
ARC
  5
9A9
330
23
100
AcDbEntity
 67
     1
  8
0
  6
Continuous
 62
     7
370
    25
100
AcDbCircle
 10
-110.0021797203
 20
-21.2616525077
 30
0.0
 40
19.77743014059637
100
AcDbArc
 50
266.0221081985
 51
270.1400747436
  0
ARC
  5
9AA
330
23
100
AcDbEntity
 67
     1
  8
0
  6
Continuous
 62
     7
370
    25
100
AcDbCircle
 10
0.0
 20
0.0
 30
0.0
 40
50.00000000000009
100
AcDbArc
 50
5.7391704773
 51
90.0
  0
ARC
  5
9AB
330
23
100
AcDbEntity
 67
     1
  8
0
  6
Continuous
 62
     7
370
    25
100
AcDbCircle
 10
0.0
 20
0.0
 30
0.0
 40
49.99999999999991
100
AcDbArc
 50
270.0
 51
354.2608295227
  0
ARC
  5
9AC
330
23
100
AcDbEntity
 67
     1
  8
0
  6
Continuous
 62
     7
370
    25
100
AcDbCircle
 10
-110.0
 20
0.0
 30
0.0
 40
49.5
100
AcDbArc
 50
90.0
 51
270.0
  0
ARC
  5
9AD
330
23
100
AcDbEntity
 67
     1
  8
0
  6
Continuous
 62
     7
370
    25
100
AcDbCircle
 10
-110.0
 20
0.0
 30
0.0
 40
50.0
100
AcDbArc
 50
90.0
 51
270.0
  0
ARC
  5
9AE
330
23
100
AcDbEntity
 67
     1
  8
0
  6
Continuous
 62
     7
370
    25
100
AcDbCircle
 10
-110.0
 20
0.0
 30
0.0
 40
12.0
100
AcDbArc
 50
0.0
 51
180.0
  0
ARC
  5
9AF
330
23
100
AcDbEntity
 67
     1
  8
0
  6
Continuous
 62
     7
370
    25
100
AcDbCircle
 10
0.0
 20
0.0
 30
0.0
 40
21.99999991793
100
AcDbArc
 50
180.0
 51
0.0
  0
ARC
  5
9B0
330
23
100
AcDbEntity
 67
     1
  8
0
  6
Continuous
 62
     7
370
    25
100
AcDbCircle
 10
0.0
 20
0.0
 30
0.0
 40
22.50000000000001
100
AcDbArc
 50
180.0
 51
0.0
  0
ARC
  5
9B1
330
23
100
AcDbEntity
 67
     1
  8
0
  6
Continuous
 62
     8
370
    25
100
AcDbCircle
 10
-109.6424085384
 20
-32.618969979
 30
0.0
 40
1.046992449985197
100
AcDbArc
 50
346.1562345191
 51
0.6234096933
  0
ARC
  5
9B2
330
23
100
AcDbEntity
 67
     1
  8
0
  6
Continuous
 62
     8
370
    25
100
AcDbCircle
 10
-110.3575914617
 20
-32.618969979
 30
0.0
 40
1.046992449867508
100
AcDbArc
 50
179.3765903059
 51
193.8437654817
  0
ARC
  5
9B3
330
23
100
AcDbEntity
 67
     1
  8
0
  6
Continuous
 62
     8
370
    25
100
AcDbCircle
 10
-108.6018070571
 20
-32.6946566495
 30
0.0
 40
0.1764752810357173
100
AcDbArc
 50
262.1764568879
 51
336.9696687052
  0
ARC
  5
9B4
330
23
100
AcDbEntity
 67
     1
  8
0
  6
Continuous
 62
     8
370
    25
100
AcDbCircle
 10
-111.3961461862
 20
-32.6910497587
 30
0.0
 40
0.1797876320991255
100
AcDbArc
 50
203.8330269151
 51
277.0208474919
  0
ARC
  5
9B5
330
23
100
AcDbEntity
 67
     1
  8
0
  6
Continuous
 62
     8
370
    25
100
AcDbCircle
 10
-108.7080699798
 20
-32.9593759622
 30
0.0
 40
0.1797876321029061
100
AcDbArc
 50
262.979152509
 51
336.1669730839
  0
ARC
  5
9B6
330
23
100
AcDbEntity
 67
     1
  8
0
  6
Continuous
 62
     8
370
    25
100
AcDbCircle
 10
-111.2939767769
 20
-32.9629828529
 30
0.0
 40
0.1764752810357906
100
AcDbArc
 50
203.0303312948
 51
277.8235431121
  0
ARC
  5
9B7
330
23
100
AcDbEntity
 67
     1
  8
0
  6
Continuous
 62
     8
370
    25
100
AcDbCircle
 10
-105.1275507712
 20
-33.6681060457
 30
0.0
 40
0.063479994061853
100
AcDbArc
 50
115.2575127682
 51
175.1821232406
  0
ARC
  5
9B8
330
23
100
AcDbEntity
 67
     1
  8
0
  6
Continuous
 62
     8
370
    25
100
AcDbCircle
 10
-114.8724492282
 20
-33.6681060455
 30
0.0
 40
0.063479993394962
100
AcDbArc
 50
4.8178766112
 51
64.7424875972
  0
ARC
  5
9B9
330
23
100
AcDbEntity
 67
     1
  8
0
  6
Continuous
 62
     8
370
    25
100
AcDbCircle
 10
-114.9654390869
 20
-33.7801714425
 30
0.0
 40
0.07491070922058
100
AcDbArc
 50
234.2614170273
 51
285.1953505044
  0
ARC
  5
9BA
330
23
100
AcDbEntity
 67
     1
  8
0
  6
Continuous
 62
     8
370
    25
100
AcDbCircle
 10
-110.4878301106
 20
-44.6018431953
 30
0.0
 40
11.99343403314209
100
AcDbArc
 50
95.1968564111
 51
111.1192825239
  0
ARC
  5
9BB
330
23
100
AcDbEntity
 67
     1
  8
0
  6
Continuous
 62
     8
370
    25
100
AcDbCircle
 10
-115.5270235549
 20
-35.8537762961
 30
0.0
 40
1.668449318141066
100
AcDbArc
 50
143.6622838433
 51
220.7472300073
  0
ARC
  5
9BC
330
23
100
AcDbEntity
 67
     1
  8
0
  6
Continuous
 62
     8
370
    25
100
AcDbCircle
 10
-104.5409088555
 20
-35.8458443064
 30
0.0
 40
1.72551788718924
100
AcDbArc
 50
320.5256814371
 51
43.8625474278
  0
ARC
  5
9BD
330
23
100
AcDbEntity
 67
     1
  8
0
  6
Continuous
 62
     8
370
    25
100
AcDbCircle
 10
-109.5046269052
 20
-44.5695773233
 30
0.0
 40
11.96061844669134
100
AcDbArc
 50
68.8587325471
 51
84.8251285179
  0
ARC
  5
9BE
330
23
100
AcDbEntity
 67
     1
  8
0
  6
Continuous
 62
     8
370
    25
100
AcDbCircle
 10
-110.5379572541
 20
-44.3443830733
 30
0.0
 40
11.52186485103226
100
AcDbArc
 50
94.8965349374
 51
111.7592281257
  0
ARC
  5
9BF
330
23
100
AcDbEntity
 67
     1
  8
0
  6
Continuous
 62
     8
370
    25
100
AcDbCircle
 10
-109.4001991582
 20
-44.0833337687
 30
0.0
 40
11.25655822227845
100
AcDbArc
 50
68.0405536773
 51
85.3036832595
  0
ARC
  5
9C0
330
23
100
AcDbEntity
 67
     1
  8
0
  6
Continuous
 62
     8
370
    25
100
AcDbCircle
 10
-105.3045262264
 20
-36.3030319047
 30
0.0
 40
2.423434494061138
100
AcDbArc
 50
9.6472423404
 51
64.9982276105
  0
ARC
  5
9C1
330
23
100
AcDbEntity
 67
     1
  8
0
  6
Continuous
 62
     8
370
    25
100
AcDbCircle
 10
-104.9763231515
 20
-36.1457094913
 30
0.0
 40
1.77005302216289
100
AcDbArc
 50
302.4706599756
 51
36.1521772305
  0
ARC
  5
9C2
330
23
100
AcDbEntity
 67
     1
  8
0
  6
Continuous
 62
     8
370
    25
100
AcDbCircle
 10
-115.1534416864
 20
-36.1465405097
 30
0.0
 40
1.667396666282503
100
AcDbArc
 50
149.540161699
 51
232.7696241982
  0
ARC
  5
9C3
330
23
100
AcDbEntity
 67
     1
  8
0
  6
Continuous
 62
     8
370
    25
100
AcDbCircle
 10
-117.3399512703
 20
-34.4434384474
 30
0.0
 40
0.0711875124461344
100
AcDbArc
 50
255.8199909186
 51
307.3123973453
  0
ARC
  5
9C4
330
23
100
AcDbEntity
 67
     1
  8
0
  6
Continuous
 62
     8
370
    25
100
AcDbCircle
 10
-117.431924708
 20
-34.3278244458
 30
0.0
 40
0.0651495071336353
100
AcDbArc
 50
113.6462809157
 51
174.7433100903
  0
ARC
  5
9C5
330
23
100
AcDbEntity
 67
     1
  8
0
  6
Continuous
 62
     8
370
    25
100
AcDbCircle
 10
-102.6600487297
 20
-34.4434384474
 30
0.0
 40
0.0711875124390153
100
AcDbArc
 50
232.6876026519
 51
284.1800090841
  0
ARC
  5
9C6
330
23
100
AcDbEntity
 67
     1
  8
0
  6
Continuous
 62
     8
370
    25
100
AcDbCircle
 10
-102.568075292
 20
-34.3278244458
 30
0.0
 40
0.065149507127109
100
AcDbArc
 50
5.2566899058
 51
66.3537190877
  0
ARC
  5
9C7
330
23
100
AcDbEntity
 67
     1
  8
0
  6
Continuous
 62
     8
370
    25
100
AcDbCircle
 10
-116.8483314525
 20
-34.5997182767
 30
0.0
 40
0.0711875124394284
100
AcDbArc
 50
255.8199909172
 51
307.312397348
  0
ARC
  5
9C8
330
23
100
AcDbEntity
 67
     1
  8
0
  6
Continuous
 62
     8
370
    25
100
AcDbCircle
 10
-103.1516685475
 20
-34.5997182767
 30
0.0
 40
0.0711875124542243
100
AcDbArc
 50
232.6876026579
 51
284.1800090792
  0
ARC
  5
9C9
330
23
100
AcDbEntity
 67
     1
  8
0
  6
Continuous
 62
     8
370
    25
100
AcDbCircle
 10
-115.5783105159
 20
-36.5721078211
 30
0.0
 40
2.997139982880801
100
AcDbArc
 50
129.7997840717
 51
154.5479854952
  0
ARC
  5
9CA
330
23
100
AcDbEntity
 67
     1
  8
0
  6
Continuous
 62
     8
370
    25
100
AcDbCircle
 10
-118.2614422114
 20
-35.1043353916
 30
0.0
 40
0.1812176619886558
100
AcDbArc
 50
262.6693722829
 51
322.4026985777
  0
ARC
  5
9CB
330
23
100
AcDbEntity
 67
     1
  8
0
  6
Continuous
 62
     8
370
    25
100
AcDbCircle
 10
-101.7384744158
 20
-35.1041399351
 30
0.0
 40
0.1814019589278796
100
AcDbArc
 50
217.6306444473
 51
277.2965902449
  0
ARC
  5
9CC
330
23
100
AcDbEntity
 67
     1
  8
0
  6
Continuous
 62
     8
370
    25
100
AcDbCircle
 10
-118.3338441145
 20
-36.1731420821
 30
0.0
 40
0.1818964872231196
100
AcDbArc
 50
263.6304296847
 51
338.6993347125
  0
ARC
  5
9CD
330
23
100
AcDbEntity
 67
     1
  8
0
  6
Continuous
 62
     8
370
    25
100
AcDbCircle
 10
-101.6661558855
 20
-36.1731420821
 30
0.0
 40
0.1818964872231054
100
AcDbArc
 50
201.3006652876
 51
276.3695703153
  0
ARC
  5
9CE
330
23
100
AcDbEntity
 67
     1
  8
0
  6
Continuous
 62
     8
370
    25
100
AcDbCircle
 10
-118.9653635862
 20
-37.3737006181
 30
0.0
 40
0.1817600132859513
100
AcDbArc
 50
201.4703137967
 51
276.4126337077
  0
ARC
  5
9CF
330
23
100
AcDbEntity
 67
     1
  8
0
  6
Continuous
 62
     8
370
    25
100
AcDbCircle
 10
-101.0346364138
 20
-37.3737006181
 30
0.0
 40
0.1817600132859513
100
AcDbArc
 50
263.5873662923
 51
338.5296862033
  0
ARC
  5
9D0
330
23
100
AcDbEntity
 67
     1
  8
0
  6
Continuous
 62
     8
370
    25
100
AcDbCircle
 10
-118.3132162062
 20
-35.7618043538
 30
0.0
 40
0.2102003182322277
100
AcDbArc
 50
43.9410817863
 51
91.6569854657
  0
ARC
  5
9D1
330
23
100
AcDbEntity
 67
     1
  8
0
  6
Continuous
 62
     8
370
    25
100
AcDbCircle
 10
-101.68677792
 20
-35.7618183298
 30
0.0
 40
0.2102141048009575
100
AcDbArc
 50
88.3447233602
 51
136.0572455201
  0
ARC
  5
9D2
330
23
100
AcDbEntity
 67
     1
  8
0
  6
Continuous
 62
     8
370
    25
100
AcDbCircle
 10
-101.7120011675
 20
-36.590627446
 30
0.0
 40
0.1996842690401726
100
AcDbArc
 50
182.3343807843
 51
245.3015441835
  0
ARC
  5
9D3
330
23
100
AcDbEntity
 67
     1
  8
0
  6
Continuous
 62
     8
370
    25
100
AcDbCircle
 10
-118.288033915
 20
-36.5906020538
 30
0.0
 40
0.1997178544376116
100
AcDbArc
 50
294.7037247187
 51
357.6586556172
  0
ARC
  5
9D4
330
23
100
AcDbEntity
 67
     1
  8
0
  6
Continuous
 62
     8
370
    25
100
AcDbCircle
 10
-114.9831148116
 20
-34.9930618011
 30
0.0
 40
3.777398087321381
100
AcDbArc
 50
212.9186872197
 51
237.1052382898
  0
ARC
  5
9D5
330
23
100
AcDbEntity
 67
     1
  8
0
  6
Continuous
 62
     8
370
    25
100
AcDbCircle
 10
-115.0449201143
 20
-34.5594394259
 30
0.0
 40
4.506334502791202
100
AcDbArc
 50
221.3305615728
 51
236.5899429398
  0
ARC
  5
9D6
330
23
100
AcDbEntity
 67
     1
  8
0
  6
Continuous
 62
     8
370
    25
100
AcDbCircle
 10
-102.4308051466
 20
-38.1991671473
 30
0.0
 40
0.1292932332455631
100
AcDbArc
 50
250.591638922
 51
303.6640187093
  0
ARC
  5
9D7
330
23
100
AcDbEntity
 67
     1
  8
0
  6
Continuous
 62
     8
370
    25
100
AcDbCircle
 10
-117.3409029833
 20
-39.2465402369
 30
0.0
 40
0.1225403703738737
100
AcDbArc
 50
240.0718001756
 51
291.0943015243
  0
ARC
  5
9D8
330
23
100
AcDbEntity
 67
     1
  8
0
  6
Continuous
 62
     8
370
    25
100
AcDbCircle
 10
-117.3974971382
 20
-39.2104489331
 30
0.0
 40
0.103115916763903
100
AcDbArc
 50
97.8134182259
 51
164.3704442898
  0
ARC
  5
9D9
330
23
100
AcDbEntity
 67
     1
  8
0
  6
Continuous
 62
     8
370
    25
100
AcDbCircle
 10
-102.6025028611
 20
-39.2104489326
 30
0.0
 40
0.1031159159553091
100
AcDbArc
 50
15.6295555417
 51
82.1865821034
  0
ARC
  5
9DA
330
23
100
AcDbEntity
 67
     1
  8
0
  6
Continuous
 62
     8
370
    25
100
AcDbCircle
 10
-102.6590970167
 20
-39.2465402369
 30
0.0
 40
0.1225403703817705
100
AcDbArc
 50
248.9056984775
 51
299.9281998226
  0
ARC
  5
9DB
330
23
100
AcDbEntity
 67
     1
  8
0
  6
Continuous
 62
     8
370
    25
100
AcDbCircle
 10
-102.6025028618
 20
-38.6758450186
 30
0.0
 40
0.1031159167636512
100
AcDbArc
 50
15.6295557101
 51
82.1865817743
  0
ARC
  5
9DC
330
23
100
AcDbEntity
 67
     1
  8
0
  6
Continuous
 62
     8
370
    25
100
AcDbCircle
 10
-117.3974922767
 20
-38.6758507586
 30
0.0
 40
0.1031221724058163
100
AcDbArc
 50
97.8156013188
 51
164.3680462884
  0
ARC
  5
9DD
330
23
100
AcDbEntity
 67
     1
  8
0
  6
Continuous
 62
     8
370
    25
100
AcDbCircle
 10
-114.9655978277
 20
-39.9015594322
 30
0.0
 40
0.1261624693178486
100
AcDbArc
 50
249.7845009962
 51
301.1222615242
  0
ARC
  5
9DE
330
23
100
AcDbEntity
 67
     1
  8
0
  6
Continuous
 62
     8
370
    25
100
AcDbCircle
 10
-105.0344021723
 20
-39.9015594322
 30
0.0
 40
0.126162469334042
100
AcDbArc
 50
238.8777384794
 51
290.2154990003
  0
ARC
  5
9DF
330
23
100
AcDbEntity
 67
     1
  8
0
  6
Continuous
 62
     8
370
    25
100
AcDbCircle
 10
-105.0949062695
 20
-39.3338823356
 30
0.0
 40
0.1009030551206224
100
AcDbArc
 50
98.2398813525
 51
161.1238206217
  0
ARC
  5
9E0
330
23
100
AcDbEntity
 67
     1
  8
0
  6
Continuous
 62
     8
370
    25
100
AcDbCircle
 10
-114.9050968533
 20
-39.3338849048
 30
0.0
 40
0.1009060942506711
100
AcDbArc
 50
18.877058954
 51
81.7585397013
  0
ARC
  5
9E1
330
23
100
AcDbEntity
 67
     1
  8
0
  6
Continuous
 62
     8
370
    25
100
AcDbCircle
 10
-115.30983373
 20
-40.124750159
 30
0.0
 40
0.1261624693255363
100
AcDbArc
 50
249.7845009978
 51
301.1222615218
  0
ARC
  5
9E2
330
23
100
AcDbEntity
 67
     1
  8
0
  6
Continuous
 62
     8
370
    25
100
AcDbCircle
 10
-104.69016627
 20
-40.124750159
 30
0.0
 40
0.1261624693178226
100
AcDbArc
 50
238.8777384761
 51
290.2154990039
  0
ARC
  5
9E3
330
23
100
AcDbEntity
 67
     1
  8
0
  6
Continuous
 62
     8
370
    25
100
AcDbCircle
 10
0.0
 20
0.0
 30
0.0
 40
49.50000000000007
100
AcDbArc
 50
270.0
 51
354.2026604592
  0
ARC
  5
9E4
330
23
100
AcDbEntity
 67
     1
  8
0
  6
Continuous
 62
     8
370
    25
100
AcDbCircle
 10
0.0
 20
0.0
 30
0.0
 40
49.50000000000028
100
AcDbArc
 50
5.7973395408
 51
90.0
  0
ARC
  5
9E5
330
23
100
AcDbEntity
 67
     1
  8
0
  6
Continuous
 62
     8
370
    25
100
AcDbCircle
 10
-102.4928191842
 20
-36.9362545107
 30
0.0
 40
2.114719472272314
100
AcDbArc
 50
327.3024375554
 51
19.9799018391
  0
ARC
  5
9E6
330
23
100
AcDbEntity
 67
     1
  8
0
  6
Continuous
 62
     8
370
    25
100
AcDbCircle
 10
-117.3563978982
 20
-36.9359330719
 30
0.0
 40
2.250359060835222
100
AcDbArc
 50
144.2937466001
 51
221.0503468178
  0
ARC
  5
9E7
330
23
100
AcDbEntity
 67
     1
  8
0
  6
Continuous
 62
     8
370
    25
100
AcDbCircle
 10
-110.3639090242
 20
-23.8369903875
 30
0.0
 40
17.10945731130864
100
AcDbArc
 50
253.4149631556
 51
266.0188379625
  0
ARC
  5
9E8
330
23
100
AcDbEntity
 67
     1
  8
0
  6
Continuous
 62
     8
370
    25
100
AcDbCircle
 10
-109.6360909758
 20
-23.8369903877
 30
0.0
 40
17.10945731114573
100
AcDbArc
 50
273.9811620385
 51
286.5850368444
  0
VIEWPORT
  5
9EB
330
23
100
AcDbEntity
 67
     1
  8
0
100
AcDbViewport
 10
0.0
 20
0.0
 30
0.0
 40
205.6
 41
156.0
 68
     1
 69
     1
 12
40.5
 22
128.9785583158
 13
0.0
 23
0.0
 14
10.0
 24
10.0
 15
10.0
 25
10.0
 16
0.0
 26
0.0
 36
1.0
 17
0.0
 27
0.0
 37
0.0
 42
50.0
 43
0.0
 44
0.0
 45
208.0362589642
 50
0.0
 51
0.0
 72
   100
 90
   557152
  1

281
     0
 71
     1
 74
     0
110
0.0
120
0.0
130
0.0
111
1.0
121
0.0
131
0.0
112
0.0
122
1.0
132
0.0
 79
     0
146
0.0
  0
ENDSEC
  0
SECTION
  2
OBJECTS
  0
DICTIONARY
  5
C
330
0
100
AcDbDictionary
281
     1
  3
ACAD_GROUP
350
D
  3
ACAD_LAYOUT
350
1A
  3
ACAD_MLINESTYLE
350
17
  3
ACAD_PLOTSETTINGS
350
19
  3
ACAD_PLOTSTYLENAME
350
E
  3
ACAD_SCALELIST
350
47
  0
DICTIONARY
  5
D
102
{ACAD_REACTORS
330
C
102
}
330
C
100
AcDbDictionary
281
     1
  0
DICTIONARY
  5
1A
102
{ACAD_REACTORS
330
C
102
}
330
C
100
AcDbDictionary
281
     1
  3
_Right
350
1E
  3
_Top
350
26
  3
Model
350
22
  0
DICTIONARY
  5
17
102
{ACAD_REACTORS
330
C
102
}
330
C
100
AcDbDictionary
281
     1
  3
Standard
350
18
  0
DICTIONARY
  5
19
102
{ACAD_REACTORS
330
C
102
}
330
C
100
AcDbDictionary
281
     1
  0
ACDBDICTIONARYWDFLT
  5
E
102
{ACAD_REACTORS
330
C
102
}
330
C
100
AcDbDictionary
281
     1
  3
Normal
350
F
100
AcDbDictionaryWithDefault
340
F
  0
DICTIONARY
  5
47
102
{ACAD_REACTORS
330
C
102
}
330
C
100
AcDbDictionary
281
     1
  3
A0
350
48
  3
A1
350
49
  3
A2
350
4A
  3
A3
350
4B
  3
A4
350
4C
  3
A5
350
4D
  3
A6
350
4E
  3
A7
350
4F
  3
A8
350
50
  3
A9
350
51
  3
B0
350
52
  3
B1
350
53
  3
B2
350
54
  3
B3
350
55
  3
B4
350
56
  3
B5
350
57
  3
B6
350
58
  3
B7
350
59
  3
B8
350
5A
  3
B9
350
5B
  3
C0
350
5C
  3
C1
350
5D
  3
C2
350
5E
  3
C3
350
5F
  3
C4
350
60
  3
C5
350
61
  3
C6
350
62
  3
C7
350
63
  3
C8
350
64
  3
C9
350
65
  3
D0
350
66
  3
D1
350
67
  3
D2
350
68
  0
LAYOUT
  5
1E
102
{ACAD_REACTORS
330
1A
102
}
330
1A
100
AcDbPlotSettings
  1

  2
none_device
  4
ISO_A4_(210.00_x_297.00_MM)
  6

 40
7.5
 41
20.0
 42
7.5
 43
20.0
 44
210.0
 45
297.0
 46
0.0
 47
0.0
 48
0.0
 49
0.0
140
0.0
141
0.0
142
1.0
143
1.0459339314
 70
   688
 72
     1
 73
     1
 74
     1
  7

 75
     0
147
0.9560833337
148
50.0
149
-27.0
100
AcDbLayout
  1
_Right
 70
     1
 71
     1
 10
-70.9186786289
 20
19.1554955142
 11
239.72369901
 21
238.8016211174
 12
0.0
 22
0.0
 32
0.0
 14
1.0000000000E+20
 24
1.0000000000E+20
 34
1.0000000000E+20
 15
-1.0000000000E+20
 25
-1.0000000000E+20
 35
-1.0000000000E+20
146
0.0
 13
0.0
 23
0.0
 33
0.0
 16
1.0
 26
0.0
 36
0.0
 17
0.0
 27
1.0
 37
0.0
 76
     0
330
1B
331
9E9
  0
LAYOUT
  5
26
102
{ACAD_REACTORS
330
1A
102
}
330
1A
100
AcDbPlotSettings
  1

  2
none_device
  4
ANSI_A_(11.00_x_8.50_Inches)
  6

 40
6.35
 41
19.05
 42
6.35000508
 43
19.05000254
 44
279.4
 45
215.9
 46
90.9072004497
 47
-46.2656992769
 48
0.0
 49
0.0
140
0.0
141
0.0
142
0.0412586731
143
1.0
 70
  1696
 72
     0
 73
     0
 74
     1
  7

 75
     0
147
0.0343209397
148
2006.6
149
-685.8
100
AcDbLayout
  1
_Top
 70
     1
 71
     2
 10
0.0
 20
0.0
 11
0.0
 21
0.0
 12
0.0
 22
0.0
 32
0.0
 14
-79.0
 24
27.0
 34
0.0
 15
160.0
 25
230.9571166316
 35
0.0
146
0.0
 13
0.0
 23
0.0
 33
0.0
 16
1.0
 26
0.0
 36
0.0
 17
0.0
 27
1.0
 37
0.0
 76
     0
330
23
331
9EB
  0
LAYOUT
  5
22
102
{ACAD_REACTORS
330
1A
102
}
330
1A
100
AcDbPlotSettings
  1

  2
none_device
  4
Letter_(8.50_x_11.00_Inches)
  6

 40
6.35
 41
6.35
 42
6.35000508
 43
6.35000508
 44
215.9
 45
279.4
 46
0.0
 47
0.0
 48
0.0
 49
0.0
140
0.0
141
0.0
142
1.0
143
1.0
 70
  1712
 72
     1
 73
     0
 74
     0
  7

 75
     0
147
1.0
148
0.0
149
0.0
100
AcDbLayout
  1
Model
 70
     1
 71
     0
 10
0.0
 20
0.0
 11
420.0
 21
297.0
 12
0.0
 22
0.0
 32
0.0
 14
-79.0
 24
27.0
 34
0.0
 15
160.0
 25
230.9571166316
 35
0.0
146
0.0
 13
0.0
 23
0.0
 33
0.0
 16
1.0
 26
0.0
 36
0.0
 17
0.0
 27
1.0
 37
0.0
 76
     0
330
1F
331
29
  0
MLINESTYLE
  5
18
102
{ACAD_REACTORS
330
17
102
}
330
17
100
AcDbMlineStyle
  2
Standard
 70
     0
  3

 62
   256
 51
90.0
 52
90.0
 71
     2
 49
0.5
 62
   256
  6
BYLAYER
 49
-0.5
 62
   256
  6
BYLAYER
  0
ACDBPLACEHOLDER
  5
F
102
{ACAD_REACTORS
330
E
102
}
330
E
  0
SCALE
  5
48
102
{ACAD_REACTORS
330
47
102
}
330
47
100
AcDbScale
 70
     0
300
1:1
140
1.0
141
1.0
290
     1
  0
SCALE
  5
49
102
{ACAD_REACTORS
330
47
102
}
330
47
100
AcDbScale
 70
     0
300
1:2
140
1.0
141
2.0
290
     0
  0
SCALE
  5
4A
102
{ACAD_REACTORS
330
47
102
}
330
47
100
AcDbScale
 70
     0
300
1:4
140
1.0
141
4.0
290
     0
  0
SCALE
  5
4B
102
{ACAD_REACTORS
330
47
102
}
330
47
100
AcDbScale
 70
     0
300
1:5
140
1.0
141
5.0
290
     0
  0
SCALE
  5
4C
102
{ACAD_REACTORS
330
47
102
}
330
47
100
AcDbScale
 70
     0
300
1:8
140
1.0
141
8.0
290
     0
  0
SCALE
  5
4D
102
{ACAD_REACTORS
330
47
102
}
330
47
100
AcDbScale
 70
     0
300
1:10
140
1.0
141
10.0
290
     0
  0
SCALE
  5
4E
102
{ACAD_REACTORS
330
47
102
}
330
47
100
AcDbScale
 70
     0
300
1:16
140
1.0
141
16.0
290
     0
  0
SCALE
  5
4F
102
{ACAD_REACTORS
330
47
102
}
330
47
100
AcDbScale
 70
     0
300
1:20
140
1.0
141
20.0
290
     0
  0
SCALE
  5
50
102
{ACAD_REACTORS
330
47
102
}
330
47
100
AcDbScale
 70
     0
300
1:30
140
1.0
141
30.0
290
     0
  0
SCALE
  5
51
102
{ACAD_REACTORS
330
47
102
}
330
47
100
AcDbScale
 70
     0
300
1:40
140
1.0
141
40.0
290
     0
  0
SCALE
  5
52
102
{ACAD_REACTORS
330
47
102
}
330
47
100
AcDbScale
 70
     0
300
1:50
140
1.0
141
50.0
290
     0
  0
SCALE
  5
53
102
{ACAD_REACTORS
330
47
102
}
330
47
100
AcDbScale
 70
     0
300
1:100
140
1.0
141
100.0
290
     0
  0
SCALE
  5
54
102
{ACAD_REACTORS
330
47
102
}
330
47
100
AcDbScale
 70
     0
300
2:1
140
2.0
141
1.0
290
     0
  0
SCALE
  5
55
102
{ACAD_REACTORS
330
47
102
}
330
47
100
AcDbScale
 70
     0
300
4:1
140
4.0
141
1.0
290
     0
  0
SCALE
  5
56
102
{ACAD_REACTORS
330
47
102
}
330
47
100
AcDbScale
 70
     0
300
8:1
140
8.0
141
1.0
290
     0
  0
SCALE
  5
57
102
{ACAD_REACTORS
330
47
102
}
330
47
100
AcDbScale
 70
     0
300
10:1
140
10.0
141
1.0
290
     0
  0
SCALE
  5
58
102
{ACAD_REACTORS
330
47
102
}
330
47
100
AcDbScale
 70
     0
300
100:1
140
100.0
141
1.0
290
     0
  0
SCALE
  5
59
102
{ACAD_REACTORS
330
47
102
}
330
47
100
AcDbScale
 70
     0
300
1/128" = 1'-0"
140
0.0078125
141
12.0
290
     0
  0
SCALE
  5
5A
102
{ACAD_REACTORS
330
47
102
}
330
47
100
AcDbScale
 70
     0
300
1/64" = 1'-0"
140
0.015625
141
12.0
290
     0
  0
SCALE
  5
5B
102
{ACAD_REACTORS
330
47
102
}
330
47
100
AcDbScale
 70
     0
300
1/32" = 1'-0"
140
0.03125
141
12.0
290
     0
  0
SCALE
  5
5C
102
{ACAD_REACTORS
330
47
102
}
330
47
100
AcDbScale
 70
     0
300
1/16" = 1'-0"
140
0.0625
141
12.0
290
     0
  0
SCALE
  5
5D
102
{ACAD_REACTORS
330
47
102
}
330
47
100
AcDbScale
 70
     0
300
3/32" = 1'-0"
140
0.09375
141
12.0
290
     0
  0
SCALE
  5
5E
102
{ACAD_REACTORS
330
47
102
}
330
47
100
AcDbScale
 70
     0
300
1/8" = 1'-0"
140
0.125
141
12.0
290
     0
  0
SCALE
  5
5F
102
{ACAD_REACTORS
330
47
102
}
330
47
100
AcDbScale
 70
     0
300
3/16" = 1'-0"
140
0.1875
141
12.0
290
     0
  0
SCALE
  5
60
102
{ACAD_REACTORS
330
47
102
}
330
47
100
AcDbScale
 70
     0
300
1/4" = 1'-0"
140
0.25
141
12.0
290
     0
  0
SCALE
  5
61
102
{ACAD_REACTORS
330
47
102
}
330
47
100
AcDbScale
 70
     0
300
3/8" = 1'-0"
140
0.375
141
12.0
290
     0
  0
SCALE
  5
62
102
{ACAD_REACTORS
330
47
102
}
330
47
100
AcDbScale
 70
     0
300
1/2" = 1'-0"
140
0.5
141
12.0
290
     0
  0
SCALE
  5
63
102
{ACAD_REACTORS
330
47
102
}
330
47
100
AcDbScale
 70
     0
300
3/4" = 1'-0"
140
0.75
141
12.0
290
     0
  0
SCALE
  5
64
102
{ACAD_REACTORS
330
47
102
}
330
47
100
AcDbScale
 70
     0
300
1" = 1'-0"
140
1.0
141
12.0
290
     0
  0
SCALE
  5
65
102
{ACAD_REACTORS
330
47
102
}
330
47
100
AcDbScale
 70
     0
300
1-1/2" = 1'-0"
140
1.5
141
12.0
290
     0
  0
SCALE
  5
66
102
{ACAD_REACTORS
330
47
102
}
330
47
100
AcDbScale
 70
     0
300
3" = 1'-0"
140
3.0
141
12.0
290
     0
  0
SCALE
  5
67
102
{ACAD_REACTORS
330
47
102
}
330
47
100
AcDbScale
 70
     0
300
6" = 1'-0"
140
6.0
141
12.0
290
     0
  0
SCALE
  5
68
102
{ACAD_REACTORS
330
47
102
}
330
47
100
AcDbScale
 70
     0
300
1'-0" = 1'-0"
140
12.0
141
12.0
290
     0
  0
ENDSEC
  0
EOF
