  0
SECTION
  2
HEADER
  9
$ACADVER
  1
AC1015
  9
$ACADMAINTVER
 70
     6
  9
$DWGCODEPAGE
  3
ANSI_1252
  9
$INSBASE
 10
0.0
 20
0.0
 30
0.0
  9
$EXTMIN
 10
-26.0
 20
-26.0
 30
0.0
  9
$EXTMAX
 10
26.0
 20
26.0
 30
0.0
  9
$LIMMIN
 10
0.0
 20
0.0
  9
$LIMMAX
 10
420.0
 20
297.0
  9
$ORTHOMODE
 70
     0
  9
$REGENMODE
 70
     1
  9
$FILLMODE
 70
     1
  9
$QTEXTMODE
 70
     0
  9
$MIRRTEXT
 70
     1
  9
$LTSCALE
 40
1.0
  9
$ATTMODE
 70
     1
  9
$TEXTSIZE
 40
3.5
  9
$TRACEWID
 40
1.0
  9
$TEXTSTYLE
  7
Standard
  9
$CLAYER
  8
0
  9
$CELTYPE
  6
ByLayer
  9
$CECOLOR
 62
   256
  9
$CELTSCALE
 40
1.0
  9
$DISPSILH
 70
     0
  9
$DIMSCALE
 40
1.0
  9
$DIMASZ
 40
3.302
  9
$DIMEXO
 40
1.0
  9
$DIMDLI
 40
3.75
  9
$DIMRND
 40
0.0
  9
$DIMDLE
 40
0.0
  9
$DIMEXE
 40
1.0
  9
$DIMTP
 40
0.0
  9
$DIMTM
 40
0.0
  9
$DIMTXT
 40
3.5
  9
$DIMCEN
 40
2.5
  9
$DIMTSZ
 40
0.0
  9
$DIMTOL
 70
     0
  9
$DIMLIM
 70
     0
  9
$DIMTIH
 70
     1
  9
$DIMTOH
 70
     1
  9
$DIMSE1
 70
     0
  9
$DIMSE2
 70
     0
  9
$DIMTAD
 70
     1
  9
$DIMZIN
 70
     1
  9
$DIMBLK
  1

  9
$DIMASO
 70
     1
  9
$DIMSHO
 70
     1
  9
$DIMPOST
  1

  9
$DIMAPOST
  1

  9
$DIMALT
 70
     0
  9
$DIMALTD
 70
     3
  9
$DIMALTF
 40
0.0393700787
  9
$DIMLFAC
 40
1.0
  9
$DIMTOFL
 70
     1
  9
$DIMTVP
 40
0.0
  9
$DIMTIX
 70
     0
  9
$DIMSOXD
 70
     0
  9
$DIMSAH
 70
     0
  9
$DIMBLK1
  1

  9
$DIMBLK2
  1

  9
$DIMSTYLE
  2
ISO-25
  9
$DIMCLRD
 70
     0
  9
$DIMCLRE
 70
     0
  9
$DIMCLRT
 70
     0
  9
$DIMTFAC
 40
1.0
  9
$DIMGAP
 40
1.524
  9
$DIMJUST
 70
     0
  9
$DIMSD1
 70
     0
  9
$DIMSD2
 70
     0
  9
$DIMTOLJ
 70
     0
  9
$DIMTZIN
 70
     1
  9
$DIMALTZ
 70
     0
  9
$DIMALTTZ
 70
     0
  9
$DIMUPT
 70
     0
  9
$DIMDEC
 70
     2
  9
$DIMTDEC
 70
     2
  9
$DIMALTU
 70
     2
  9
$DIMALTTD
 70
     3
  9
$DIMTXSTY
  7
Standard
  9
$DIMAUNIT
 70
     0
  9
$DIMADEC
 70
     2
  9
$DIMALTRND
 40
0.0
  9
$DIMAZIN
 70
     0
  9
$DIMDSEP
 70
    44
  9
$DIMATFIT
 70
     3
  9
$DIMFRAC
 70
     0
  9
$DIMLDRBLK
  1

  9
$DIMLUNIT
 70
     2
  9
$DIMLWD
 70
    -2
  9
$DIMLWE
 70
    -2
  9
$DIMTMOVE
 70
     0
  9
$LUNITS
 70
     2
  9
$LUPREC
 70
     2
  9
$SKETCHINC
 40
1.0
  9
$FILLETRAD
 40
10.0
  9
$AUNITS
 70
     0
  9
$AUPREC
 70
     2
  9
$MENU
  1
.
  9
$ELEVATION
 40
0.0
  9
$PELEVATION
 40
0.0
  9
$THICKNESS
 40
0.0
  9
$LIMCHECK
 70
     0
  9
$CHAMFERA
 40
0.0
  9
$CHAMFERB
 40
0.0
  9
$CHAMFERC
 40
0.0
  9
$CHAMFERD
 40
0.0
  9
$SKPOLY
 70
     0
  9
$TDCREATE
 40
2459465.59148625
  9
$TDUCREATE
 40
2459465.549819584
  9
$TDUPDATE
 40
2459465.59153831
  9
$TDUUPDATE
 40
2459465.549871644
  9
$TDINDWG
 40
0.0000000116
  9
$TDUSRTIMER
 40
0.0000000116
  9
$USRTIMER
 70
     1
  9
$ANGBASE
 50
0.0
  9
$ANGDIR
 70
     0
  9
$PDMODE
 70
     0
  9
$PDSIZE
 40
-1.0
  9
$PLINEWID
 40
0.0
  9
$SPLFRAME
 70
     0
  9
$SPLINETYPE
 70
     6
  9
$SPLINESEGS
 70
     8
  9
$HANDSEED
  5
BF
  9
$SURFTAB1
 70
     6
  9
$SURFTAB2
 70
     6
  9
$SURFTYPE
 70
     6
  9
$SURFU
 70
     6
  9
$SURFV
 70
     6
  9
$UCSBASE
  2

  9
$UCSNAME
  2

  9
$UCSORG
 10
0.0
 20
0.0
 30
0.0
  9
$UCSXDIR
 10
1.0
 20
0.0
 30
0.0
  9
$UCSYDIR
 10
0.0
 20
1.0
 30
0.0
  9
$UCSORTHOREF
  2

  9
$UCSORTHOVIEW
 70
     0
  9
$UCSORGTOP
 10
0.0
 20
0.0
 30
0.0
  9
$UCSORGBOTTOM
 10
0.0
 20
0.0
 30
0.0
  9
$UCSORGLEFT
 10
0.0
 20
0.0
 30
0.0
  9
$UCSORGRIGHT
 10
0.0
 20
0.0
 30
0.0
  9
$UCSORGFRONT
 10
0.0
 20
0.0
 30
0.0
  9
$UCSORGBACK
 10
0.0
 20
0.0
 30
0.0
  9
$PUCSBASE
  2

  9
$PUCSNAME
  2

  9
$PUCSORG
 10
0.0
 20
0.0
 30
0.0
  9
$PUCSXDIR
 10
1.0
 20
0.0
 30
0.0
  9
$PUCSYDIR
 10
0.0
 20
1.0
 30
0.0
  9
$PUCSORTHOREF
  2

  9
$PUCSORTHOVIEW
 70
     0
  9
$PUCSORGTOP
 10
0.0
 20
0.0
 30
0.0
  9
$PUCSORGBOTTOM
 10
0.0
 20
0.0
 30
0.0
  9
$PUCSORGLEFT
 10
0.0
 20
0.0
 30
0.0
  9
$PUCSORGRIGHT
 10
0.0
 20
0.0
 30
0.0
  9
$PUCSORGFRONT
 10
0.0
 20
0.0
 30
0.0
  9
$PUCSORGBACK
 10
0.0
 20
0.0
 30
0.0
  9
$USERI1
 70
     0
  9
$USERI2
 70
     0
  9
$USERI3
 70
     0
  9
$USERI4
 70
     0
  9
$USERI5
 70
     0
  9
$USERR1
 40
0.0
  9
$USERR2
 40
0.0
  9
$USERR3
 40
0.0
  9
$USERR4
 40
0.0
  9
$USERR5
 40
0.0
  9
$WORLDVIEW
 70
     1
  9
$SHADEDGE
 70
     3
  9
$SHADEDIF
 70
    70
  9
$TILEMODE
 70
     0
  9
$MAXACTVP
 70
    64
  9
$PINSBASE
 10
0.0
 20
0.0
 30
0.0
  9
$PLIMCHECK
 70
     0
  9
$PEXTMIN
 10
-26.0
 20
-26.0
 30
0.0
  9
$PEXTMAX
 10
26.0
 20
26.0
 30
0.0
  9
$PLIMMIN
 10
0.0
 20
0.0
  9
$PLIMMAX
 10
0.0
 20
0.0
  9
$UNITMODE
 70
     0
  9
$VISRETAIN
 70
     1
  9
$PLINEGEN
 70
     0
  9
$PSLTSCALE
 70
     1
  9
$TREEDEPTH
 70
  3020
  9
$CMLSTYLE
  2
Standard
  9
$CMLJUST
 70
     0
  9
$CMLSCALE
 40
20.0
  9
$PROXYGRAPHICS
 70
     1
  9
$MEASUREMENT
 70
     1
  9
$CELWEIGHT
370
    -1
  9
$ENDCAPS
280
     0
  9
$JOINSTYLE
280
     0
  9
$LWDISPLAY
290
     1
  9
$INSUNITS
 70
     4
  9
$HYPERLINKBASE
  1

  9
$STYLESHEET
  1

  9
$XEDIT
290
     1
  9
$CEPSNTYPE
380
     0
  9
$PSTYLEMODE
290
     1
  9
$FINGERPRINTGUID
  2
{81d65ec2-b7dd-4bbd-bec0-d84902a811dc}
  9
$VERSIONGUID
  2
{FAEB1C32-E019-11D5-929B-00C0DF256EC4}
  9
$EXTNAMES
290
     1
  9
$PSVPSCALE
 40
0.0
  9
$OLESTARTUP
290
     0
  0
ENDSEC
  0
SECTION
  2
CLASSES
  0
CLASS
  1
ACDBDICTIONARYWDFLT
  2
AcDbDictionaryWithDefault
  3
ObjectDBX Classes
 90
        0
280
     0
281
     0
  0
CLASS
  1
VISUALSTYLE
  2
AcDbVisualStyle
  3
ObjectDBX Classes
 90
     4095
280
     0
281
     0
  0
CLASS
  1
MATERIAL
  2
AcDbMaterial
  3
ObjectDBX Classes
 90
     1153
280
     0
281
     0
  0
CLASS
  1
SCALE
  2
AcDbScale
  3
ObjectDBX Classes
 90
     1153
280
     0
281
     0
  0
CLASS
  1
TABLESTYLE
  2
AcDbTableStyle
  3
ObjectDBX Classes
 90
     4095
280
     0
281
     0
  0
CLASS
  1
MLEADERSTYLE
  2
AcDbMLeaderStyle
  3
ACDB_MLEADERSTYLE_CLASS
 90
     4095
280
     0
281
     0
  0
CLASS
  1
SUN
  2
AcDbSun
  3
SCENEOE
 90
     1153
280
     0
281
     0
  0
CLASS
  1
ACDBPLACEHOLDER
  2
AcDbPlaceHolder
  3
ObjectDBX Classes
 90
        0
280
     0
281
     0
  0
CLASS
  1
LAYOUT
  2
AcDbLayout
  3
ObjectDBX Classes
 90
        0
280
     0
281
     0
  0
ENDSEC
  0
SECTION
  2
TABLES
  0
TABLE
  2
VPORT
  5
8
330
0
100
AcDbSymbolTable
 70
     1
  0
VPORT
  5
29
330
8
100
AcDbSymbolTableRecord
100
AcDbViewportTableRecord
  2
*Active
 70
     0
 10
0.0
 20
0.0
 11
1.0
 21
1.0
 12
0.0
 22
0.0
 13
0.0
 23
0.0
 14
10.0
 24
10.0
 15
10.0
 25
10.0
 16
0.0
 26
0.0
 36
1.0
 17
0.0
 27
0.0
 37
0.0
 40
53.04
 41
1.0
 42
50.0
 43
0.0
 44
0.0
 50
0.0
 51
0.0
 71
     0
 72
   100
 73
     1
 74
     3
 75
     0
 76
     0
 77
     0
 78
     0
281
     0
 65
     1
110
0.0
120
0.0
130
0.0
111
1.0
121
0.0
131
0.0
112
0.0
122
1.0
132
0.0
 79
     0
146
0.0
  0
ENDTAB
  0
TABLE
  2
LTYPE
  5
5
330
0
100
AcDbSymbolTable
 70
     6
  0
LTYPE
  5
14
330
5
100
AcDbSymbolTableRecord
100
AcDbLinetypeTableRecord
  2
ByBlock
 70
     0
  3

 72
    65
 73
     0
 40
0.0
  0
LTYPE
  5
15
330
5
100
AcDbSymbolTableRecord
100
AcDbLinetypeTableRecord
  2
ByLayer
 70
     0
  3

 72
    65
 73
     0
 40
0.0
  0
LTYPE
  5
16
330
5
100
AcDbSymbolTableRecord
100
AcDbLinetypeTableRecord
  2
Continuous
 70
     0
  3
Solid line
 72
    65
 73
     0
 40
0.0
  0
LTYPE
  5
6E
330
5
100
AcDbSymbolTableRecord
100
AcDbLinetypeTableRecord
  2
HIDDEN
 70
     0
  3
Hidden __ __ __ __ __ __ __ __ __ __ __ __ __ __
 72
    65
 73
     2
 40
1.905
 49
1.27
 74
     0
 49
-0.635
 74
     0
  0
LTYPE
  5
6F
330
5
100
AcDbSymbolTableRecord
100
AcDbLinetypeTableRecord
  2
PHANTOM
 70
     0
  3
Phantom ______  __  __  ______  __  __  ______
 72
    65
 73
     6
 40
12.7
 49
6.35
 74
     0
 49
-1.27
 74
     0
 49
1.27
 74
     0
 49
-1.27
 74
     0
 49
1.27
 74
     0
 49
-1.27
 74
     0
  0
LTYPE
  5
70
330
5
100
AcDbSymbolTableRecord
100
AcDbLinetypeTableRecord
  2
CENTER
 70
     0
  3
Center ____ _ ____ _ ____ _ ____ _ ____ _ ____
 72
    65
 73
     4
 40
10.16
 49
6.35
 74
     0
 49
-1.27
 74
     0
 49
1.27
 74
     0
 49
-1.27
 74
     0
  0
LTYPE
  5
71
330
5
100
AcDbSymbolTableRecord
100
AcDbLinetypeTableRecord
  2
CENTERX2
 70
     0
  3
Center (2x) ________  __  ________  __  _____
 72
    65
 73
     4
 40
20.32
 49
12.7
 74
     0
 49
-2.54
 74
     0
 49
2.54
 74
     0
 49
-2.54
 74
     0
  0
LTYPE
  5
72
330
5
100
AcDbSymbolTableRecord
100
AcDbLinetypeTableRecord
  2
DOT2
 70
     0
  3
Dot (.5x) ........................................
 72
    65
 73
     2
 40
0.635
 49
0.0
 74
     0
 49
-0.635
 74
     0
  0
ENDTAB
  0
TABLE
  2
LAYER
  5
2
330
0
100
AcDbSymbolTable
 70
     1
  0
LAYER
  5
10
330
2
100
AcDbSymbolTableRecord
100
AcDbLayerTableRecord
  2
0
 70
     0
 62
     7
  6
Continuous
370
    -3
390
F
  0
ENDTAB
  0
TABLE
  2
STYLE
  5
3
330
0
100
AcDbSymbolTable
 70
     1
  0
STYLE
  5
11
330
3
100
AcDbSymbolTableRecord
100
AcDbTextStyleTableRecord
  2
Standard
 70
     0
 40
0.0
 41
1.0
 50
0.0
 71
     0
 42
3.5
  3
txt
  4

  0
ENDTAB
  0
TABLE
  2
VIEW
  5
6
330
0
100
AcDbSymbolTable
 70
     0
  0
ENDTAB
  0
TABLE
  2
UCS
  5
7
330
0
100
AcDbSymbolTable
 70
     0
  0
ENDTAB
  0
TABLE
  2
APPID
  5
9
330
0
100
AcDbSymbolTable
 70
     1
  0
APPID
  5
12
330
9
100
AcDbSymbolTableRecord
100
AcDbRegAppTableRecord
  2
ACAD
 70
     0
  0
ENDTAB
  0
TABLE
  2
DIMSTYLE
  5
A
330
0
100
AcDbSymbolTable
 70
     1
100
AcDbDimStyleTable
  0
DIMSTYLE
105
27
330
A
100
AcDbSymbolTableRecord
100
AcDbDimStyleTableRecord
  2
ISO-25
 70
     0
 41
2.5
 42
0.625
 43
3.75
 44
1.25
 73
     0
 74
     0
 77
     1
 78
     8
140
2.5
141
2.5
143
0.0393700787
147
0.625
171
     3
172
     1
178
     0
271
     2
272
     2
274
     3
278
    44
283
     0
284
     8
340
11
  0
ENDTAB
  0
TABLE
  2
BLOCK_RECORD
  5
1
330
0
100
AcDbSymbolTable
 70
     1
  0
BLOCK_RECORD
  5
1F
330
1
100
AcDbSymbolTableRecord
100
AcDbBlockTableRecord
  2
*Model_Space
340
22
  0
BLOCK_RECORD
  5
23
330
1
100
AcDbSymbolTableRecord
100
AcDbBlockTableRecord
  2
*Paper_Space
340
26
  0
BLOCK_RECORD
  5
1B
330
1
100
AcDbSymbolTableRecord
100
AcDbBlockTableRecord
  2
*Paper_Space0
340
1E
  0
ENDTAB
  0
ENDSEC
  0
SECTION
  2
BLOCKS
  0
BLOCK
  5
20
330
1F
100
AcDbEntity
  8
0
100
AcDbBlockBegin
  2
*Model_Space
 70
     0
 10
0.0
 20
0.0
 30
0.0
  3
*Model_Space
  1

  0
ENDBLK
  5
21
330
1F
100
AcDbEntity
  8
0
100
AcDbBlockEnd
  0
BLOCK
  5
24
330
23
100
AcDbEntity
 67
     1
  8
0
100
AcDbBlockBegin
  2
*Paper_Space
 70
     0
 10
0.0
 20
0.0
 30
0.0
  3
*Paper_Space
  1

  0
ENDBLK
  5
25
330
23
100
AcDbEntity
 67
     1
  8
0
100
AcDbBlockEnd
  0
BLOCK
  5
1C
330
1B
100
AcDbEntity
  8
0
100
AcDbBlockBegin
  2
*Paper_Space0
 70
     0
 10
0.0
 20
0.0
 30
0.0
  3
*Paper_Space0
  1

  0
SPLINE
  5
81
330
1B
100
AcDbEntity
  8
0
  6
Continuous
 62
     7
370
    25
100
AcDbSpline
210
0.0
220
0.0
230
1.0
 70
    11
 71
     3
 72
   117
 73
   113
 74
     0
 42
0.000000001
 43
0.00000001
 40
0.0
 40
0.0
 40
0.0
 40
0.0
 40
0.0312499999999999
 40
0.0312499999999999
 40
0.0468749999999998
 40
0.0468749999999998
 40
0.0624999999999997
 40
0.0624999999999997
 40
0.0781249999999996
 40
0.0781249999999996
 40
0.0937499999999996
 40
0.0937499999999996
 40
0.1093749999999995
 40
0.1093749999999995
 40
0.1249999999999995
 40
0.1249999999999995
 40
0.1406249999999994
 40
0.1406249999999994
 40
0.1562499999999993
 40
0.1562499999999993
 40
0.1718749999999993
 40
0.1718749999999993
 40
0.1874999999999992
 40
0.1874999999999992
 40
0.2187499999999991
 40
0.2187499999999991
 40
0.234374999999999
 40
0.234374999999999
 40
0.249999999999999
 40
0.2656249999999989
 40
0.2656249999999989
 40
0.2812499999999988
 40
0.2812499999999988
 40
0.312499999999999
 40
0.312499999999999
 40
0.3281249999999991
 40
0.3281249999999991
 40
0.3437499999999991
 40
0.3437499999999991
 40
0.3593749999999992
 40
0.3593749999999992
 40
0.3749999999999992
 40
0.3749999999999992
 40
0.3906249999999992
 40
0.3906249999999992
 40
0.3984374999999993
 40
0.3984374999999993
 40
0.4062499999999993
 40
0.4062499999999993
 40
0.4374999999999993
 40
0.4374999999999993
 40
0.4531249999999993
 40
0.4531249999999993
 40
0.4687499999999993
 40
0.4687499999999993
 40
0.4843749999999993
 40
0.4843749999999993
 40
0.4999999999999993
 40
0.4999999999999993
 40
0.5156249999999993
 40
0.5156249999999993
 40
0.5312499999999994
 40
0.5312499999999994
 40
0.5624999999999994
 40
0.5624999999999994
 40
0.5937499999999994
 40
0.5937499999999994
 40
0.6093749999999994
 40
0.6093749999999994
 40
0.6249999999999996
 40
0.6249999999999996
 40
0.6406249999999996
 40
0.6406249999999996
 40
0.6562499999999997
 40
0.6562499999999997
 40
0.6718749999999997
 40
0.6718749999999997
 40
0.6874999999999998
 40
0.6874999999999998
 40
0.7031249999999998
 40
0.7031249999999998
 40
0.7187499999999999
 40
0.7187499999999999
 40
0.7499999999999997
 40
0.7499999999999997
 40
0.7656249999999997
 40
0.7656249999999997
 40
0.7812499999999996
 40
0.7812499999999996
 40
0.7968749999999996
 40
0.7968749999999996
 40
0.8124999999999994
 40
0.8124999999999994
 40
0.8437499999999996
 40
0.8437499999999996
 40
0.8593749999999997
 40
0.8593749999999997
 40
0.8749999999999997
 40
0.8749999999999997
 40
0.8906249999999998
 40
0.8906249999999998
 40
0.9062499999999998
 40
0.9062499999999998
 40
0.9218749999999999
 40
0.9218749999999999
 40
0.9374999999999999
 40
0.9374999999999999
 40
0.953125
 40
0.953125
 40
0.96875
 40
0.96875
 40
1.0
 40
1.0
 40
1.0
 40
1.0
 10
0.0000000000000006
 20
-27.1415040724397
 30
0.0
 10
0.7927867004032126
 20
-27.1415040724397
 30
0.0
 10
1.569150651102975
 20
-27.17321602625474
 30
0.0
 10
2.709220334111139
 20
-27.27911310978288
 30
0.0
 10
3.086154694213441
 20
-27.32483811490203
 30
0.0
 10
3.809428520913216
 20
-27.43865405082362
 30
0.0
 10
4.158559714237735
 20
-27.50691776761972
 30
0.0
 10
4.831748239707979
 20
-27.67188325101634
 30
0.0
 10
5.156494784632351
 20
-27.76881827194061
 30
0.0
 10
5.776901691250186
 20
-27.99850630888302
 30
0.0
 10
6.066079019503091
 20
-28.12883961877593
 30
0.0
 10
6.604817720081116
 20
-28.42576359831886
 30
0.0
 10
6.854360820838613
 20
-28.59234558378719
 30
0.0
 10
7.315312061770745
 20
-28.96828834507432
 30
0.0
 10
7.526481977055417
 20
-29.17834077034151
 30
0.0
 10
7.900576543627807
 20
-29.63191851739458
 30
0.0
 10
8.0655936295496
 20
-29.87692090322154
 30
0.0
 10
8.357787740015466
 20
-30.40564504060675
 30
0.0
 10
8.485558507760674
 20
-30.69148534760887
 30
0.0
 10
8.703879910283987
 20
-31.28980138498825
 30
0.0
 10
8.795173566663061
 20
-31.60285651653268
 30
0.0
 10
8.950231381209454
 20
-32.25662497293559
 30
0.0
 10
9.014151619400185
 20
-32.59852790658599
 30
0.0
 10
9.17305188125939
 20
-33.65879217629888
 30
0.0
 10
9.234500964648037
 20
-34.39538557441337
 30
0.0
 10
9.293134689142768
 20
-35.54343306544644
 30
0.0
 10
9.306806409434085
 20
-35.93545312865215
 30
0.0
 10
9.324494139882798
 20
-36.71616985886094
 30
0.0
 10
9.332795870970713
 20
-37.49683460480038
 30
0.0
 10
9.324586177764349
 20
-38.27739764499194
 30
0.0
 10
9.307009753682253
 20
-39.05790875358694
 30
0.0
 10
9.293386895041877
 20
-39.45012787657458
 30
0.0
 10
9.235051631447938
 20
-40.59679382720299
 30
0.0
 10
9.173942849620678
 20
-41.32985484491051
 30
0.0
 10
9.017505125339635
 20
-42.38170270299062
 30
0.0
 10
8.953659386375838
 20
-42.7266347863853
 30
0.0
 10
8.79890764657011
 20
-43.38358309164292
 30
0.0
 10
8.70809573373485
 20
-43.69645373837385
 30
0.0
 10
8.492487689338263
 20
-44.29160614733347
 30
0.0
 10
8.367714245080155
 20
-44.57388197913011
 30
0.0
 10
8.075330745866927
 20
-45.10780786863882
 30
0.0
 10
7.90900414092731
 20
-45.35621657905105
 30
0.0
 10
7.538106832571025
 20
-45.80912464849077
 30
0.0
 10
7.33265287289372
 20
-46.0153277797722
 30
0.0
 10
6.991103321542515
 20
-46.29710862326893
 30
0.0
 10
6.871686621169976
 20
-46.38644341119456
 30
0.0
 10
6.621065689448851
 20
-46.55635332463416
 30
0.0
 10
6.489317163913675
 20
-46.63718669910133
 30
0.0
 10
5.810752655241706
 20
-47.01449101237027
 30
0.0
 10
5.199851573939424
 20
-47.23622908354174
 30
0.0
 10
4.178211454588802
 20
-47.48906540878688
 30
0.0
 10
3.825370247180013
 20
-47.55842318375678
 30
0.0
 10
3.10286875068145
 20
-47.67292757789081
 30
0.0
 10
2.732126577312454
 20
-47.71832352466429
 30
0.0
 10
1.971673209408861
 20
-47.78980551041241
 30
0.0
 10
1.580643579666263
 20
-47.81586130535226
 30
0.0
 10
0.7953708372365175
 20
-47.8500929825403
 30
0.0
 10
0.4033653869150172
 20
-47.85832647508978
 30
0.0
 10
-0.3794330863712742
 20
-47.85866027741131
 30
0.0
 10
-0.7702259875059172
 20
-47.85075676789828
 30
0.0
 10
-1.550575033875995
 20
-47.81757482434145
 30
0.0
 10
-1.941872418502164
 20
-47.7920168595654
 30
0.0
 10
-3.080399666537199
 20
-47.68669745316123
 30
0.0
 10
-3.803291454760124
 20
-47.57958942072626
 30
0.0
 10
-5.17133293400166
 20
-47.24544654158744
 30
0.0
 10
-5.783242935717242
 20
-47.02570489289506
 30
0.0
 10
-6.59779581588804
 20
-46.57875946990777
 30
0.0
 10
-6.852938396718514
 20
-46.40863793917293
 30
0.0
 10
-7.313442978527671
 20
-46.03341136269254
 30
0.0
 10
-7.521052210278788
 20
-45.82740348548252
 30
0.0
 10
-7.895668342344808
 20
-45.37484881918927
 30
0.0
 10
-8.063671271262663
 20
-45.1263161415099
 30
0.0
 10
-8.35775661888365
 20
-44.59465112929107
 30
0.0
 10
-8.483677923506606
 20
-44.31287232374707
 30
0.0
 10
-8.70165318710044
 20
-43.71708226362838
 30
0.0
 10
-8.793742916328032
 20
-43.40284546901474
 30
0.0
 10
-8.950614266254433
 20
-42.74208852428649
 30
0.0
 10
-9.014080260292172
 20
-42.40148218978348
 30
0.0
 10
-9.119276057834462
 20
-41.70048993680761
 30
0.0
 10
-9.160983335572245
 20
-41.34010537854111
 30
0.0
 10
-9.228494014880045
 20
-40.59954251568772
 30
0.0
 10
-9.254303109701477
 20
-40.21778930913902
 30
0.0
 10
-9.312805809462292
 20
-39.06959059023494
 30
0.0
 10
-9.32860767829335
 20
-38.29262324928381
 30
0.0
 10
-9.328698087078868
 20
-37.10989447612104
 30
0.0
 10
-9.324439533850674
 20
-36.71285584602592
 30
0.0
 10
-9.306747845309392
 20
-35.93377115742566
 30
0.0
 10
-9.293329283733076
 20
-35.54905958082562
 30
0.0
 10
-9.254705480088548
 20
-34.78921301443429
 30
0.0
 10
-9.229511537164171
 20
-34.41407819186615
 30
0.0
 10
-9.162457853870361
 20
-33.6737000267296
 30
0.0
 10
-9.120282533369553
 20
-33.30747606191309
 30
0.0
 10
-8.963016267437922
 20
-32.255766915424
 30
0.0
 10
-8.817470969963
 20
-31.60614450808213
 30
0.0
 10
-8.49302490563093
 20
-30.70953636878654
 30
0.0
 10
-8.365688739208077
 20
-30.42203510332632
 30
0.0
 10
-8.074241544028759
 20
-29.89059136328729
 30
0.0
 10
-7.909755642431225
 20
-29.64470409455507
 30
0.0
 10
-7.537392537687056
 20
-29.19000011174522
 30
0.0
 10
-7.328045181350014
 20
-28.98001435039188
 30
0.0
 10
-6.865846309033543
 20
-28.60044016373907
 30
0.0
 10
-6.615877230264226
 20
-28.43267216741541
 30
0.0
 10
-6.077050654417048
 20
-28.13410598299904
 30
0.0
 10
-5.788209707778752
 20
-28.00331877398093
 30
0.0
 10
-5.169656956431837
 20
-27.77308945798969
 30
0.0
 10
-4.842209863770225
 20
-27.67476382816728
 30
0.0
 10
-4.166130637940451
 20
-27.50846442045777
 30
0.0
 10
-3.815456340224296
 20
-27.43971264420215
 30
0.0
 10
-3.088915599639713
 20
-27.3251638570987
 30
0.0
 10
-2.711116492304224
 20
-27.27932623139066
 30
0.0
 10
-1.571318799090723
 20
-27.17334371912258
 30
0.0
 10
-0.7927867004032144
 20
-27.14150407243969
 30
0.0
 10
0.0000000000000019
 20
-27.1415040724397
 30
0.0
  0
SPLINE
  5
82
330
1B
100
AcDbEntity
  8
0
  6
Continuous
 62
     7
370
    25
100
AcDbSpline
210
0.0
220
0.0
230
1.0
 70
    11
 71
     3
 72
   117
 73
   113
 74
     0
 42
0.000000001
 43
0.00000001
 40
0.0
 40
0.0
 40
0.0
 40
0.0
 40
0.0312500000000002
 40
0.0312500000000002
 40
0.0468750000000003
 40
0.0468750000000003
 40
0.0625000000000004
 40
0.0625000000000004
 40
0.0781250000000005
 40
0.0781250000000005
 40
0.0937500000000006
 40
0.0937500000000006
 40
0.1093750000000007
 40
0.1093750000000007
 40
0.1250000000000007
 40
0.1250000000000007
 40
0.1406250000000008
 40
0.1406250000000008
 40
0.1562500000000009
 40
0.1562500000000009
 40
0.1875000000000009
 40
0.1875000000000009
 40
0.2031250000000007
 40
0.2031250000000007
 40
0.2187500000000005
 40
0.2187500000000005
 40
0.2343750000000003
 40
0.2343750000000003
 40
0.2500000000000002
 40
0.2500000000000002
 40
0.2812500000000002
 40
0.2812500000000002
 40
0.2968750000000001
 40
0.2968750000000001
 40
0.3125000000000001
 40
0.3125000000000001
 40
0.3281250000000001
 40
0.3281250000000001
 40
0.3437500000000001
 40
0.3437500000000001
 40
0.3593750000000001
 40
0.3593750000000001
 40
0.3750000000000001
 40
0.3750000000000001
 40
0.3906250000000001
 40
0.3906250000000001
 40
0.4062500000000001
 40
0.4062500000000001
 40
0.4375000000000002
 40
0.4375000000000002
 40
0.4687500000000002
 40
0.4687500000000002
 40
0.4843750000000002
 40
0.4843750000000002
 40
0.5000000000000002
 40
0.5000000000000002
 40
0.5156250000000003
 40
0.5156250000000003
 40
0.5312500000000003
 40
0.5312500000000003
 40
0.5468750000000003
 40
0.5468750000000003
 40
0.5625000000000003
 40
0.5625000000000003
 40
0.5937500000000003
 40
0.5937500000000003
 40
0.6093750000000003
 40
0.6093750000000003
 40
0.6250000000000003
 40
0.6250000000000003
 40
0.6406250000000003
 40
0.6406250000000003
 40
0.6562500000000003
 40
0.6562500000000003
 40
0.6718750000000003
 40
0.6718750000000003
 40
0.6875000000000003
 40
0.6875000000000003
 40
0.7187500000000003
 40
0.7187500000000003
 40
0.7343750000000003
 40
0.7343750000000003
 40
0.7500000000000002
 40
0.7656250000000002
 40
0.7656250000000002
 40
0.7812500000000002
 40
0.7812500000000002
 40
0.8125000000000002
 40
0.8125000000000002
 40
0.8281250000000002
 40
0.8281250000000002
 40
0.8437500000000002
 40
0.8437500000000002
 40
0.8593750000000002
 40
0.8593750000000002
 40
0.8750000000000002
 40
0.8750000000000002
 40
0.8906250000000002
 40
0.8906250000000002
 40
0.9062500000000002
 40
0.9062500000000002
 40
0.9218750000000001
 40
0.9218750000000001
 40
0.9375000000000001
 40
0.9375000000000001
 40
0.9531250000000001
 40
0.9531250000000001
 40
0.9687500000000001
 40
0.9687500000000001
 40
0.9843750000000001
 40
0.9843750000000001
 40
1.0
 40
1.0
 40
1.0
 40
1.0
 10
0.0000000000000002
 20
-27.61234479641971
 30
0.0
 10
-0.7477727496263804
 20
-27.61234479641971
 30
0.0
 10
-1.483348316318805
 20
-27.64250427686639
 30
0.0
 10
-2.560627320494441
 20
-27.74304315093796
 30
0.0
 10
-2.917774207284173
 20
-27.78651476109872
 30
0.0
 10
-3.605923235747822
 20
-27.89539943022704
 30
0.0
 10
-3.938568719219661
 20
-27.96083607126808
 30
0.0
 10
-4.580644586184851
 20
-28.11944208784393
 30
0.0
 10
-4.891020353416173
 20
-28.21294480775916
 30
0.0
 10
-5.483155020128224
 20
-28.43465441359672
 30
0.0
 10
-5.759766991912053
 20
-28.56087352398558
 30
0.0
 10
-6.275610637941878
 20
-28.84964763456856
 30
0.0
 10
-6.514827068596035
 20
-29.01219378538804
 30
0.0
 10
-6.956663991882957
 20
-29.38052826102881
 30
0.0
 10
-7.156108381741717
 20
-29.58416559389728
 30
0.0
 10
-7.510231369596152
 20
-30.02518296456865
 30
0.0
 10
-7.666215990257438
 20
-30.26362425841134
 30
0.0
 10
-7.941830122875752
 20
-30.77843806050046
 30
0.0
 10
-8.061622259305436
 20
-31.05632600315369
 30
0.0
 10
-8.365658307504967
 20
-31.92001630528574
 30
0.0
 10
-8.500755005346933
 20
-32.54330832415546
 30
0.0
 10
-8.646264152982722
 20
-33.54663012451631
 30
0.0
 10
-8.685110485617386
 20
-33.89471858176681
 30
0.0
 10
-8.746804152364533
 20
-34.59661882285749
 30
0.0
 10
-8.769965973388738
 20
-34.95179275876917
 30
0.0
 10
-8.805444433761286
 20
-35.6702606002902
 30
0.0
 10
-8.817749654057849
 20
-36.0335547141499
 30
0.0
 10
-8.833923300009316
 20
-36.7682760797043
 30
0.0
 10
-8.837777168391847
 20
-37.14193250163225
 30
0.0
 10
-8.837497466418545
 20
-38.25536575072744
 30
0.0
 10
-8.822782825485577
 20
-38.98801897674997
 30
0.0
 10
-8.76852742512553
 20
-40.07242361395864
 30
0.0
 10
-8.74462933649748
 20
-40.43321080021737
 30
0.0
 10
-8.681981416551398
 20
-41.13534284632854
 30
0.0
 10
-8.643243025221867
 20
-41.47785809907402
 30
0.0
 10
-8.545309953012055
 20
-42.14554651054569
 30
0.0
 10
-8.486138799996107
 20
-42.47071973281341
 30
0.0
 10
-8.33944932023461
 20
-43.10286055676288
 30
0.0
 10
-8.252918283855513
 20
-43.40503611283733
 30
0.0
 10
-8.047497536071388
 20
-43.97837490370782
 30
0.0
 10
-7.928492863606341
 20
-44.25011644331616
 30
0.0
 10
-7.649490653543091
 20
-44.7635578428832
 30
0.0
 10
-7.489432797388499
 20
-45.00421722808787
 30
0.0
 10
-7.131886380834027
 20
-45.44202955351351
 30
0.0
 10
-6.933394303528543
 20
-45.64124784172722
 30
0.0
 10
-6.492564079309568
 20
-46.00372826792287
 30
0.0
 10
-6.247991618345159
 20
-46.16788376357256
 30
0.0
 10
-5.468093137005599
 20
-46.59789112589495
 30
0.0
 10
-4.882634159509048
 20
-46.80786971790343
 30
0.0
 10
-3.581213867647034
 20
-47.12544531756806
 30
0.0
 10
-2.895954205373142
 20
-47.22649139865402
 30
0.0
 10
-1.820253668547248
 20
-47.32561867514985
 30
0.0
 10
-1.451466860021526
 20
-47.34957311428398
 30
0.0
 10
-0.7161918567492758
 20
-47.38060693159328
 30
0.0
 10
-0.3480199198635291
 20
-47.3879360213538
 30
0.0
 10
0.3893713890389164
 20
-47.38735818388661
 30
0.0
 10
0.7585906586091028
 20
-47.37945476540033
 30
0.0
 10
1.498119169887384
 20
-47.3468851218302
 30
0.0
 10
1.866485388965332
 20
-47.3221702694779
 30
0.0
 10
2.584341453348464
 20
-47.25428257095572
 30
0.0
 10
2.934947246380016
 20
-47.21114034784612
 30
0.0
 10
3.61928585102847
 20
-47.10209687688923
 30
0.0
 10
3.95398826807443
 20
-47.0359757555439
 30
0.0
 10
4.924931620787305
 20
-46.79421706260283
 30
0.0
 10
5.507971394417883
 20
-46.58141985972924
 30
0.0
 10
6.286052391281897
 20
-46.14382152727308
 30
0.0
 10
6.526952286846894
 20
-45.97860590038798
 30
0.0
 10
6.961360913851257
 20
-45.61461258380464
 30
0.0
 10
7.157076703945871
 20
-45.41466728947197
 30
0.0
 10
7.509731261918372
 20
-44.97540099591161
 30
0.0
 10
7.667657186833988
 20
-44.7341005389377
 30
0.0
 10
7.943650702503132
 20
-44.21773958691515
 30
0.0
 10
8.060953741259784
 20
-43.94518649643415
 30
0.0
 10
8.263055896252967
 20
-43.37183438554142
 30
0.0
 10
8.347832791698698
 20
-43.07103963680771
 30
0.0
 10
8.491899114014563
 20
-42.44114726771549
 30
0.0
 10
8.550978056840759
 20
-42.11192298205771
 30
0.0
 10
8.695609388769926
 20
-41.10998975132379
 30
0.0
 10
8.751823979276583
 20
-40.4143117888782
 30
0.0
 10
8.805425776249749
 20
-39.33075611254245
 30
0.0
 10
8.817906545545188
 20
-38.96127756969041
 30
0.0
 10
8.834006099445137
 20
-38.22598302078727
 30
0.0
 10
8.841495820638517
 20
-37.49064498876492
 30
0.0
 10
8.833741189204117
 20
-36.75522176797153
 30
0.0
 10
8.817336706199459
 20
-36.01975500256481
 30
0.0
 10
8.804697078301123
 20
-35.65051371120074
 30
0.0
 10
8.750452712029581
 20
-34.56629011500466
 30
0.0
 10
8.693627085755267
 20
-33.86790476869892
 30
0.0
 10
8.54615322493556
 20
-32.85909330153938
 30
0.0
 10
8.486622057548733
 20
-32.53226228091044
 30
0.0
 10
8.341765362866969
 20
-31.90623787971417
 30
0.0
 10
8.256268800111142
 20
-31.60569454387338
 30
0.0
 10
8.051015570142738
 20
-31.03011020959253
 30
0.0
 10
7.930412609986662
 20
-30.75417560278382
 30
0.0
 10
7.65354198672049
 20
-30.24315473683631
 30
0.0
 10
7.496773194641115
 20
-30.00610024897613
 30
0.0
 10
7.140415152641245
 20
-29.56714243494028
 30
0.0
 10
6.938717483470263
 20
-29.36371924751822
 30
0.0
 10
6.497910425430039
 20
-29.00009194793399
 30
0.0
 10
6.259191592141669
 20
-28.83931044230451
 30
0.0
 10
5.744084149337086
 20
-28.55331361253776
 30
0.0
 10
5.467711525364201
 20
-28.42810546618979
 30
0.0
 10
4.875556133903155
 20
-28.2079622968985
 30
0.0
 10
4.566286414016819
 20
-28.11543918122234
 30
0.0
 10
3.926134802779442
 20
-27.95824029671198
 30
0.0
 10
3.594701982784567
 20
-27.89338521971747
 30
0.0
 10
2.909517733140876
 20
-27.78545393064628
 30
0.0
 10
2.553344601617189
 20
-27.74223692406766
 30
0.0
 10
1.835983757681157
 20
-27.67554357535671
 30
0.0
 10
1.473696596838094
 20
-27.65173941489963
 30
0.0
 10
0.7421355441741332
 20
-27.62013764620234
 30
0.0
 10
0.3738863748131855
 20
-27.6123447964197
 30
0.0
 10
0.0000000000000004
 20
-27.61234479641971
 30
0.0
  0
LINE
  5
86
330
1B
100
AcDbEntity
  8
0
  6
Continuous
 62
     7
370
    25
100
AcDbLine
 10
-26.0
 20
0.0
 30
0.0
 11
-26.0
 21
-9.8
 31
0.0
  0
LINE
  5
87
330
1B
100
AcDbEntity
  8
0
  6
Continuous
 62
     7
370
    25
100
AcDbLine
 10
26.0
 20
-9.8
 30
0.0
 11
26.0
 21
0.0
 31
0.0
  0
LINE
  5
88
330
1B
100
AcDbEntity
  8
0
  6
Continuous
 62
     7
370
    25
100
AcDbLine
 10
-9.5
 20
-10.0
 30
0.0
 11
-9.5
 21
-49.8
 31
0.0
  0
LINE
  5
89
330
1B
100
AcDbEntity
  8
0
  6
Continuous
 62
     7
370
    25
100
AcDbLine
 10
9.5
 20
-49.8
 30
0.0
 11
9.5
 21
-10.0
 31
0.0
  0
LINE
  5
8A
330
1B
100
AcDbEntity
  8
0
  6
Continuous
 62
     7
370
    25
100
AcDbLine
 10
26.0
 20
0.0
 30
0.0
 11
-26.0
 21
0.0
 31
0.0
  0
LINE
  5
8B
330
1B
100
AcDbEntity
  8
0
  6
Continuous
 62
     7
370
    25
100
AcDbLine
 10
25.8
 20
-10.0
 30
0.0
 11
-25.7999999998
 21
-10.0
 31
0.0
  0
LINE
  5
8C
330
1B
100
AcDbEntity
  8
0
  6
Continuous
 62
     7
370
    25
100
AcDbLine
 10
9.3
 20
-50.0
 30
0.0
 11
-9.2999999995
 21
-50.0
 31
0.0
  0
LINE
  5
8D
330
1B
100
AcDbEntity
  8
0
  6
Continuous
 62
     8
370
    25
100
AcDbLine
 10
-26.0
 20
-9.8
 30
0.0
 11
26.0
 21
-9.8
 31
0.0
  0
LINE
  5
8E
330
1B
100
AcDbEntity
  8
0
  6
Continuous
 62
     8
370
    25
100
AcDbLine
 10
-9.5
 20
-49.8
 30
0.0
 11
9.5
 21
-49.8
 31
0.0
  0
ARC
  5
8F
330
1B
100
AcDbEntity
  8
0
  6
Continuous
 62
     7
370
    25
100
AcDbCircle
 10
25.8
 20
-9.8
 30
0.0
 40
0.2000000000000028
100
AcDbArc
 50
270.0
 51
0.0
  0
ARC
  5
90
330
1B
100
AcDbEntity
  8
0
  6
Continuous
 62
     7
370
    25
100
AcDbCircle
 10
-25.8
 20
-9.8
 30
0.0
 40
0.2000000000000064
100
AcDbArc
 50
180.0
 51
270.0
  0
ARC
  5
91
330
1B
100
AcDbEntity
  8
0
  6
Continuous
 62
     7
370
    25
100
AcDbCircle
 10
9.3
 20
-49.8
 30
0.0
 40
0.2000000000000028
100
AcDbArc
 50
270.0
 51
0.0
  0
ARC
  5
92
330
1B
100
AcDbEntity
  8
0
  6
Continuous
 62
     7
370
    25
100
AcDbCircle
 10
-9.3
 20
-49.8
 30
0.0
 40
0.1999999999999886
100
AcDbArc
 50
180.0
 51
270.0
  0
VIEWPORT
  5
BB
330
1B
100
AcDbEntity
  8
0
100
AcDbViewport
 10
0.0
 20
0.0
 30
0.0
 40
205.6
 41
156.0
 68
     1
 69
     1
 12
0.0
 22
0.0
 13
0.0
 23
0.0
 14
10.0
 24
10.0
 15
10.0
 25
10.0
 16
0.0
 26
0.0
 36
1.0
 17
0.0
 27
0.0
 37
0.0
 42
50.0
 43
0.0
 44
0.0
 45
53.04
 50
0.0
 51
0.0
 72
   100
 90
   557152
  1

281
     0
 71
     1
 74
     0
110
0.0
120
0.0
130
0.0
111
1.0
121
0.0
131
0.0
112
0.0
122
1.0
132
0.0
 79
     0
146
0.0
  0
ENDBLK
  5
1D
330
1B
100
AcDbEntity
  8
0
100
AcDbBlockEnd
  0
ENDSEC
  0
SECTION
  2
ENTITIES
  0
CIRCLE
  5
73
330
1F
100
AcDbEntity
  8
0
  6
Continuous
 62
     7
370
    25
100
AcDbCircle
 10
0.0
 20
0.0
 30
0.0
 40
9.299999999999999
  0
CIRCLE
  5
74
330
1F
100
AcDbEntity
  8
0
  6
Continuous
 62
     7
370
    25
100
AcDbCircle
 10
0.0
 20
0.0
 30
0.0
 40
9.499999999999996
  0
CIRCLE
  5
75
330
1F
100
AcDbEntity
  8
0
  6
Continuous
 62
     7
370
    25
100
AcDbCircle
 10
0.0
 20
0.0
 30
0.0
 40
25.79999999999999
  0
CIRCLE
  5
76
330
1F
100
AcDbEntity
  8
0
  6
Continuous
 62
     7
370
    25
100
AcDbCircle
 10
0.0
 20
0.0
 30
0.0
 40
26.0
  0
SPLINE
  5
97
330
23
100
AcDbEntity
 67
     1
  8
0
  6
Continuous
 62
     7
370
    25
100
AcDbSpline
210
0.0
220
0.0
230
1.0
 70
     8
 71
     3
 72
    16
 73
    12
 74
     0
 42
0.000000001
 43
0.00000001
 40
0.0
 40
0.0
 40
0.0
 40
0.0
 40
0.0960620482206994
 40
0.2859944134744681
 40
0.4512330294117174
 40
0.593509248595614
 40
0.7114097850378656
 40
0.7979867711627024
 40
0.8561597326195284
 40
0.9200859422393092
 40
1.0
 40
1.0
 40
1.0
 40
1.0
 10
-27.14176656763305
 20
9.493301387944081
 30
0.0
 10
-27.1626800097092
 20
9.494419498069337
 30
0.0
 10
-27.22494317930725
 20
9.497748317883152
 30
0.0
 10
-27.3206084088359
 20
9.467743492425281
 30
0.0
 10
-27.4165718826276
 20
9.418018271613736
 30
0.0
 10
-27.48789252620196
 20
9.358989920199198
 30
0.0
 10
-27.53647238929281
 20
9.302882223072897
 30
0.0
 10
-27.56487905163899
 20
9.259755488555177
 30
0.0
 10
-27.57902788207674
 20
9.234537206408964
 30
0.0
 10
-27.58726703077179
 20
9.218409200063531
 30
0.0
 10
-27.59002766778336
 20
9.212485023026519
 30
0.0
 10
-27.5915614087143
 20
9.209193698319313
 30
0.0
  0
SPLINE
  5
98
330
23
100
AcDbEntity
 67
     1
  8
0
  6
Continuous
 62
     7
370
    25
100
AcDbSpline
210
0.0
220
0.0
230
1.0
 70
     8
 71
     3
 72
    14
 73
    10
 74
     0
 42
0.000000001
 43
0.00000001
 40
0.0
 40
0.0
 40
0.0
 40
0.0
 40
0.0425078447211861
 40
0.1221823765341911
 40
0.2132846074901995
 40
0.3980911241346053
 40
0.678639157975216
 40
0.9464530194033967
 40
1.0
 40
1.0
 40
1.0
 40
1.0
 10
-47.4150981215008
 20
9.222734491513762
 30
0.0
 10
-47.41621109186902
 20
9.225002417769513
 30
0.0
 10
-47.41941015701786
 20
9.231521229098329
 30
0.0
 10
-47.43194863052156
 20
9.254478345735125
 30
0.0
 10
-47.46550089413581
 20
9.306236104602629
 30
0.0
 10
-47.53968478952293
 20
9.389571360798028
 30
0.0
 10
-47.66434875287373
 20
9.46423880236673
 30
0.0
 10
-47.78266555095767
 20
9.50168903023615
 30
0.0
 10
-47.84607157023673
 20
9.495129524289519
 30
0.0
 10
-47.85663664363726
 20
9.494036541910475
 30
0.0
  0
SPLINE
  5
A2
330
23
100
AcDbEntity
 67
     1
  8
0
  6
Continuous
 62
     7
370
    25
100
AcDbSpline
210
0.0
220
0.0
230
1.0
 70
     8
 71
     3
 72
     9
 73
     5
 74
     0
 42
0.000000001
 43
0.00000001
 40
0.0
 40
0.0
 40
0.0
 40
0.0
 40
0.0301147853558361
 40
1.0
 40
1.0
 40
1.0
 40
1.0
 10
-27.61260720700282
 20
9.167518608392916
 30
0.0
 10
-27.61263416892628
 20
9.167443064528227
 30
0.0
 10
-27.61352947411048
 20
9.164934533791746
 30
0.0
 10
-27.63191055632412
 20
9.113850073955785
 30
0.0
 10
-27.6497380961923
 20
9.064304011662806
 30
0.0
  0
SPLINE
  5
A4
330
23
100
AcDbEntity
 67
     1
  8
0
  6
Continuous
 62
     7
370
    25
100
AcDbSpline
210
0.0
220
0.0
230
1.0
 70
     8
 71
     3
 72
    39
 73
    35
 74
     0
 42
0.000000001
 43
0.00000001
 40
0.0
 40
0.0
 40
0.0
 40
0.0
 40
0.0319982922575337
 40
0.0490802615343757
 40
0.0855896053806586
 40
0.1220871335857891
 40
0.1582811791491594
 40
0.1944590634922528
 40
0.2214194429323135
 40
0.2484988845164911
 40
0.2754668753900981
 40
0.3020036691537897
 40
0.328638019825671
 40
0.3551976987335557
 40
0.3880215295759142
 40
0.4209733419185567
 40
0.4538177136194137
 40
0.4854065364064151
 40
0.5170891925196187
 40
0.548678048876579
 40
0.5904848270123049
 40
0.6322782973727827
 40
0.6685405531929973
 40
0.7047819664051855
 40
0.7396335705650926
 40
0.7744702325455443
 40
0.7993924106361031
 40
0.8244085051558904
 40
0.8493383481229784
 40
0.8759127580997081
 40
0.902584856762519
 40
0.9291745073575266
 40
0.967325654598959
 40
1.0
 40
1.0
 40
1.0
 40
1.0
 10
-47.3816413048921
 20
9.15020219654045
 30
0.0
 10
-47.37864787416841
 20
9.14219020320497
 30
0.0
 10
-47.37405643029941
 20
9.129901087112389
 30
0.0
 10
-47.31213637845428
 20
8.962089560645477
 30
0.0
 10
-47.2078280278423
 20
8.69118172919352
 30
0.0
 10
-46.99248680584932
 20
8.19920581122661
 30
0.0
 10
-46.66778967909309
 20
7.562889454836112
 30
0.0
 10
-46.25359562891241
 20
6.8822413341723
 30
0.0
 10
-45.76575409334932
 20
6.212715412272633
 30
0.0
 10
-45.244484333024
 20
5.596817895709792
 30
0.0
 10
-44.64537572600518
 20
4.990601796958274
 30
0.0
 10
-43.97063429868603
 20
4.417724340623234
 30
0.0
 10
-43.23547182290897
 20
3.892069107016369
 30
0.0
 10
-42.38289856051015
 20
3.386084599194726
 30
0.0
 10
-41.40580030755564
 20
2.93395398243511
 30
0.0
 10
-40.310566625749
 20
2.564157625580969
 30
0.0
 10
-39.19292576953315
 20
2.31758707677368
 30
0.0
 10
-38.06898705340908
 20
2.198217579339977
 30
0.0
 10
-36.95327667021068
 20
2.19699098185253
 30
0.0
 10
-35.72436354365319
 20
2.325076481979414
 30
0.0
 10
-34.40456803691212
 20
2.633724381073242
 30
0.0
 10
-33.09287173694588
 20
3.137863703719673
 30
0.0
 10
-31.92945474583722
 20
3.773374375777344
 30
0.0
 10
-30.93256381875639
 20
4.479182657470763
 30
0.0
 10
-30.07177921213767
 20
5.254808462927496
 30
0.0
 10
-29.41964551770609
 20
5.976673759582796
 30
0.0
 10
-28.93832095640401
 20
6.611586384679991
 30
0.0
 10
-28.58340846198471
 20
7.146397831219315
 30
0.0
 10
-28.28875551979479
 20
7.651383295608682
 30
0.0
 10
-28.05545274062739
 20
8.104696268662689
 30
0.0
 10
-27.87653373529414
 20
8.495098223261746
 30
0.0
 10
-27.73188078137201
 20
8.845354235684557
 30
0.0
 10
-27.63550194151609
 20
9.10077389665079
 30
0.0
 10
-27.62304313970808
 20
9.137476478541084
 30
0.0
 10
-27.61729544663361
 20
9.154408698749522
 30
0.0
  0
SPLINE
  5
A9
330
23
100
AcDbEntity
 67
     1
  8
0
  6
Continuous
 62
     8
370
    25
100
AcDbSpline
210
0.0
220
0.0
230
1.0
 70
     8
 71
     3
 72
    48
 73
    44
 74
     0
 42
0.000000001
 43
0.00000001
 40
0.0
 40
0.0
 40
0.0
 40
0.0
 40
0.0371737330498268
 40
0.0753003684656649
 40
0.0948339603508046
 40
0.1143668163598804
 40
0.1345100416153408
 40
0.1546521795847314
 40
0.1731129945634788
 40
0.1915731809759697
 40
0.2106182927025859
 40
0.2296633348284099
 40
0.2641084726088189
 40
0.2994651144627402
 40
0.3350696658191297
 40
0.3714838320803898
 40
0.391799489568522
 40
0.4121159205821252
 40
0.4329304701483488
 40
0.4537453523563725
 40
0.4766164471429163
 40
0.4994876403014616
 40
0.5230446518030611
 40
0.5466015528394231
 40
0.570467118806889
 40
0.5943320484690658
 40
0.6190153284402603
 40
0.6436965743313836
 40
0.6632761880923491
 40
0.682854436114013
 40
0.7029906388583463
 40
0.7231251131555818
 40
0.7430715849326276
 40
0.7630169098420182
 40
0.7837005381186545
 40
0.8043840895446746
 40
0.8400159620262707
 40
0.876665795817077
 40
0.912375730263496
 40
0.9489835467292839
 40
0.9658399641737626
 40
0.9853627168929924
 40
1.0
 40
1.0
 40
1.0
 40
1.0
 10
-27.14150407243969
 20
9.5
 30
0.0
 10
-27.14816272198006
 20
9.480036780219443
 30
0.0
 10
-27.16165070725187
 20
9.439598608373158
 30
0.0
 10
-27.25900876163421
 20
9.163827557202586
 30
0.0
 10
-27.38292016643554
 20
8.84620441233663
 30
0.0
 10
-27.50672578415797
 20
8.55032711512716
 30
0.0
 10
-27.66430806981947
 20
8.202582448834782
 30
0.0
 10
-27.85532498145225
 20
7.817488124093221
 30
0.0
 10
-28.07843605224721
 20
7.407926000385272
 30
0.0
 10
-28.33477426426835
 20
6.979282806875868
 30
0.0
 10
-28.63514288123361
 20
6.524777477274823
 30
0.0
 10
-29.07509178858216
 20
5.924749188516387
 30
0.0
 10
-29.71146885830905
 20
5.177233618781989
 30
0.0
 10
-30.60934773602968
 20
4.324576969368347
 30
0.0
 10
-31.65518024698791
 20
3.538439319194449
 30
0.0
 10
-32.64971464741077
 20
2.96550287666741
 30
0.0
 10
-33.52706538815679
 20
2.57016268148767
 30
0.0
 10
-34.24994869681602
 20
2.304483366457325
 30
0.0
 10
-34.99790076992932
 20
2.090525006160149
 30
0.0
 10
-35.79197311448699
 20
1.925891652804491
 30
0.0
 10
-36.62294546267402
 20
1.821259578899032
 30
0.0
 10
-37.49439385195829
 20
1.783738479127252
 30
0.0
 10
-38.37460274883328
 20
1.820344291566224
 30
0.0
 10
-39.26071852920099
 20
1.932787352378051
 30
0.0
 10
-40.13711441070006
 20
2.121654400433341
 30
0.0
 10
-41.00662768755183
 20
2.387855196754155
 30
0.0
 10
-41.8569946111685
 20
2.731380949379741
 30
0.0
 10
-42.62308220543149
 20
3.12015221682383
 30
0.0
 10
-43.2969497700488
 20
3.529941199366887
 30
0.0
 10
-43.89033566974852
 20
3.946389824061206
 30
0.0
 10
-44.45143192723604
 20
4.398459512245659
 30
0.0
 10
-44.97427543465185
 20
4.877988920736757
 30
0.0
 10
-45.44999179644054
 20
5.372742697978256
 30
0.0
 10
-45.8830487111821
 20
5.879369913396508
 30
0.0
 10
-46.27061795862127
 20
6.38982172327896
 30
0.0
 10
-46.69380879524252
 20
7.014354805035381
 30
0.0
 10
-47.10243764026456
 20
7.720478047018402
 30
0.0
 10
-47.44096527990844
 20
8.420418847099253
 30
0.0
 10
-47.66851128773158
 20
8.969607137342575
 30
0.0
 10
-47.78001104649923
 20
9.27384018482588
 30
0.0
 10
-47.83318433619394
 20
9.425638591717997
 30
0.0
 10
-47.85584681667738
 20
9.491979150290426
 30
0.0
 10
-47.85643260716234
 20
9.493832506839457
 30
0.0
 10
-47.85668361337361
 20
9.494626654264957
 30
0.0
  0
LINE
  5
AC
330
23
100
AcDbEntity
 67
     1
  8
0
  6
Continuous
 62
     7
370
    25
100
AcDbLine
 10
0.0
 20
26.0
 30
0.0
 11
-9.8
 21
26.0
 31
0.0
  0
LINE
  5
AD
330
23
100
AcDbEntity
 67
     1
  8
0
  6
Continuous
 62
     7
370
    25
100
AcDbLine
 10
-9.8
 20
-26.0
 30
0.0
 11
0.0
 21
-26.0
 31
0.0
  0
LINE
  5
AE
330
23
100
AcDbEntity
 67
     1
  8
0
  6
Continuous
 62
     7
370
    25
100
AcDbLine
 10
-47.8566270665
 20
9.5
 30
0.0
 11
-49.8
 21
9.5
 31
0.0
  0
LINE
  5
AF
330
23
100
AcDbEntity
 67
     1
  8
0
  6
Continuous
 62
     7
370
    25
100
AcDbLine
 10
-10.0
 20
9.5
 30
0.0
 11
-27.1415040724
 21
9.5
 31
0.0
  0
LINE
  5
B0
330
23
100
AcDbEntity
 67
     1
  8
0
  6
Continuous
 62
     7
370
    25
100
AcDbLine
 10
-49.8
 20
-9.5
 30
0.0
 11
-10.0
 21
-9.5
 31
0.0
  0
LINE
  5
B1
330
23
100
AcDbEntity
 67
     1
  8
0
  6
Continuous
 62
     7
370
    25
100
AcDbLine
 10
0.0
 20
-26.0
 30
0.0
 11
0.0
 21
26.0
 31
0.0
  0
LINE
  5
B2
330
23
100
AcDbEntity
 67
     1
  8
0
  6
Continuous
 62
     7
370
    25
100
AcDbLine
 10
-10.0
 20
-25.8
 30
0.0
 11
-10.0
 21
25.8
 31
0.0
  0
LINE
  5
B3
330
23
100
AcDbEntity
 67
     1
  8
0
  6
Continuous
 62
     7
370
    25
100
AcDbLine
 10
-27.7644506467
 20
8.769245316
 30
0.0
 11
-27.7724035544
 21
8.748858311
 31
0.0
  0
LINE
  5
B4
330
23
100
AcDbEntity
 67
     1
  8
0
  6
Continuous
 62
     7
370
    25
100
AcDbLine
 10
-50.0
 20
-9.3
 30
0.0
 11
-50.0
 21
9.3
 31
0.0
  0
LINE
  5
B5
330
23
100
AcDbEntity
 67
     1
  8
0
  6
Continuous
 62
     8
370
    25
100
AcDbLine
 10
-9.8
 20
26.0
 30
0.0
 11
-9.8
 21
-26.0
 31
0.0
  0
LINE
  5
B6
330
23
100
AcDbEntity
 67
     1
  8
0
  6
Continuous
 62
     8
370
    25
100
AcDbLine
 10
-49.8
 20
9.5
 30
0.0
 11
-49.8
 21
-9.5
 31
0.0
  0
ARC
  5
B7
330
23
100
AcDbEntity
 67
     1
  8
0
  6
Continuous
 62
     7
370
    25
100
AcDbCircle
 10
-9.8
 20
-25.8
 30
0.0
 40
0.2000000000000028
100
AcDbArc
 50
180.0
 51
270.0
  0
ARC
  5
B8
330
23
100
AcDbEntity
 67
     1
  8
0
  6
Continuous
 62
     7
370
    25
100
AcDbCircle
 10
-9.8
 20
25.8
 30
0.0
 40
0.2000000000000064
100
AcDbArc
 50
90.0
 51
180.0
  0
ARC
  5
B9
330
23
100
AcDbEntity
 67
     1
  8
0
  6
Continuous
 62
     7
370
    25
100
AcDbCircle
 10
-49.8
 20
-9.3
 30
0.0
 40
0.2000000000000028
100
AcDbArc
 50
180.0
 51
270.0
  0
ARC
  5
BA
330
23
100
AcDbEntity
 67
     1
  8
0
  6
Continuous
 62
     7
370
    25
100
AcDbCircle
 10
-49.8
 20
9.3
 30
0.0
 40
0.1999999999999886
100
AcDbArc
 50
90.0
 51
180.0
  0
VIEWPORT
  5
BD
330
23
100
AcDbEntity
 67
     1
  8
0
100
AcDbViewport
 10
0.0
 20
0.0
 30
0.0
 40
205.6
 41
156.0
 68
     1
 69
     1
 12
0.0
 22
0.0
 13
0.0
 23
0.0
 14
10.0
 24
10.0
 15
10.0
 25
10.0
 16
0.0
 26
0.0
 36
1.0
 17
0.0
 27
0.0
 37
0.0
 42
50.0
 43
0.0
 44
0.0
 45
53.04
 50
0.0
 51
0.0
 72
   100
 90
   557152
  1

281
     0
 71
     1
 74
     0
110
0.0
120
0.0
130
0.0
111
1.0
121
0.0
131
0.0
112
0.0
122
1.0
132
0.0
 79
     0
146
0.0
  0
ENDSEC
  0
SECTION
  2
OBJECTS
  0
DICTIONARY
  5
C
330
0
100
AcDbDictionary
281
     1
  3
ACAD_GROUP
350
D
  3
ACAD_LAYOUT
350
1A
  3
ACAD_MLINESTYLE
350
17
  3
ACAD_PLOTSETTINGS
350
19
  3
ACAD_PLOTSTYLENAME
350
E
  3
ACAD_SCALELIST
350
47
  0
DICTIONARY
  5
D
102
{ACAD_REACTORS
330
C
102
}
330
C
100
AcDbDictionary
281
     1
  0
DICTIONARY
  5
1A
102
{ACAD_REACTORS
330
C
102
}
330
C
100
AcDbDictionary
281
     1
  3
_Right
350
26
  3
_Top
350
1E
  3
Model
350
22
  0
DICTIONARY
  5
17
102
{ACAD_REACTORS
330
C
102
}
330
C
100
AcDbDictionary
281
     1
  3
Standard
350
18
  0
DICTIONARY
  5
19
102
{ACAD_REACTORS
330
C
102
}
330
C
100
AcDbDictionary
281
     1
  0
ACDBDICTIONARYWDFLT
  5
E
102
{ACAD_REACTORS
330
C
102
}
330
C
100
AcDbDictionary
281
     1
  3
Normal
350
F
100
AcDbDictionaryWithDefault
340
F
  0
DICTIONARY
  5
47
102
{ACAD_REACTORS
330
C
102
}
330
C
100
AcDbDictionary
281
     1
  3
A0
350
48
  3
A1
350
49
  3
A2
350
4A
  3
A3
350
4B
  3
A4
350
4C
  3
A5
350
4D
  3
A6
350
4E
  3
A7
350
4F
  3
A8
350
50
  3
A9
350
51
  3
B0
350
52
  3
B1
350
53
  3
B2
350
54
  3
B3
350
55
  3
B4
350
56
  3
B5
350
57
  3
B6
350
58
  3
B7
350
59
  3
B8
350
5A
  3
B9
350
5B
  3
C0
350
5C
  3
C1
350
5D
  3
C2
350
5E
  3
C3
350
5F
  3
C4
350
60
  3
C5
350
61
  3
C6
350
62
  3
C7
350
63
  3
C8
350
64
  3
C9
350
65
  3
D0
350
66
  3
D1
350
67
  3
D2
350
68
  0
LAYOUT
  5
26
102
{ACAD_REACTORS
330
1A
102
}
330
1A
100
AcDbPlotSettings
  1

  2
none_device
  4
ANSI_A_(11.00_x_8.50_Inches)
  6

 40
6.35
 41
19.05
 42
6.35000508
 43
19.05000254
 44
279.4
 45
215.9
 46
133.34999746
 47
88.89999873
 48
0.0
 49
0.0
140
0.0
141
0.0
142
0.1618269231
143
1.0
 70
  1696
 72
     0
 73
     0
 74
     1
  7

 75
     0
147
0.1346153827
148
660.4
149
660.4000000001
100
AcDbLayout
  1
_Right
 70
     1
 71
     2
 10
0.0
 20
0.0
 11
0.0
 21
0.0
 12
0.0
 22
0.0
 32
0.0
 14
-26.0
 24
-26.0
 34
0.0
 15
26.0
 25
26.0
 35
0.0
146
0.0
 13
0.0
 23
0.0
 33
0.0
 16
1.0
 26
0.0
 36
0.0
 17
0.0
 27
1.0
 37
0.0
 76
     0
330
23
331
BD
  0
LAYOUT
  5
1E
102
{ACAD_REACTORS
330
1A
102
}
330
1A
100
AcDbPlotSettings
  1

  2
none_device
  4
ISO_A4_(210.00_x_297.00_MM)
  6

 40
7.5
 41
20.0
 42
7.5
 43
20.0
 44
210.0
 45
297.0
 46
0.0
 47
0.0
 48
0.0
 49
0.0
140
0.0
141
0.0
142
1.0
143
0.2564102564
 70
   688
 72
     1
 73
     1
 74
     1
  7

 75
     0
147
3.9
148
26.0
149
50.0
100
AcDbLayout
  1
_Top
 70
     1
 71
     1
 10
-31.1282051282
 20
-51.9230769231
 11
45.0256410256
 21
1.9230769231
 12
0.0
 22
0.0
 32
0.0
 14
1.0000000000E+20
 24
1.0000000000E+20
 34
1.0000000000E+20
 15
-1.0000000000E+20
 25
-1.0000000000E+20
 35
-1.0000000000E+20
146
0.0
 13
0.0
 23
0.0
 33
0.0
 16
1.0
 26
0.0
 36
0.0
 17
0.0
 27
1.0
 37
0.0
 76
     0
330
1B
331
BB
  0
LAYOUT
  5
22
102
{ACAD_REACTORS
330
1A
102
}
330
1A
100
AcDbPlotSettings
  1

  2
none_device
  4
Letter_(8.50_x_11.00_Inches)
  6

 40
6.35
 41
6.35
 42
6.35000508
 43
6.35000508
 44
215.9
 45
279.4
 46
0.0
 47
0.0
 48
0.0
 49
0.0
140
0.0
141
0.0
142
1.0
143
1.0
 70
  1712
 72
     1
 73
     0
 74
     0
  7

 75
     0
147
1.0
148
0.0
149
0.0
100
AcDbLayout
  1
Model
 70
     1
 71
     0
 10
0.0
 20
0.0
 11
420.0
 21
297.0
 12
0.0
 22
0.0
 32
0.0
 14
-26.0
 24
-26.0
 34
0.0
 15
26.0
 25
26.0
 35
0.0
146
0.0
 13
0.0
 23
0.0
 33
0.0
 16
1.0
 26
0.0
 36
0.0
 17
0.0
 27
1.0
 37
0.0
 76
     0
330
1F
331
29
  0
MLINESTYLE
  5
18
102
{ACAD_REACTORS
330
17
102
}
330
17
100
AcDbMlineStyle
  2
Standard
 70
     0
  3

 62
   256
 51
90.0
 52
90.0
 71
     2
 49
0.5
 62
   256
  6
BYLAYER
 49
-0.5
 62
   256
  6
BYLAYER
  0
ACDBPLACEHOLDER
  5
F
102
{ACAD_REACTORS
330
E
102
}
330
E
  0
SCALE
  5
48
102
{ACAD_REACTORS
330
47
102
}
330
47
100
AcDbScale
 70
     0
300
1:1
140
1.0
141
1.0
290
     1
  0
SCALE
  5
49
102
{ACAD_REACTORS
330
47
102
}
330
47
100
AcDbScale
 70
     0
300
1:2
140
1.0
141
2.0
290
     0
  0
SCALE
  5
4A
102
{ACAD_REACTORS
330
47
102
}
330
47
100
AcDbScale
 70
     0
300
1:4
140
1.0
141
4.0
290
     0
  0
SCALE
  5
4B
102
{ACAD_REACTORS
330
47
102
}
330
47
100
AcDbScale
 70
     0
300
1:5
140
1.0
141
5.0
290
     0
  0
SCALE
  5
4C
102
{ACAD_REACTORS
330
47
102
}
330
47
100
AcDbScale
 70
     0
300
1:8
140
1.0
141
8.0
290
     0
  0
SCALE
  5
4D
102
{ACAD_REACTORS
330
47
102
}
330
47
100
AcDbScale
 70
     0
300
1:10
140
1.0
141
10.0
290
     0
  0
SCALE
  5
4E
102
{ACAD_REACTORS
330
47
102
}
330
47
100
AcDbScale
 70
     0
300
1:16
140
1.0
141
16.0
290
     0
  0
SCALE
  5
4F
102
{ACAD_REACTORS
330
47
102
}
330
47
100
AcDbScale
 70
     0
300
1:20
140
1.0
141
20.0
290
     0
  0
SCALE
  5
50
102
{ACAD_REACTORS
330
47
102
}
330
47
100
AcDbScale
 70
     0
300
1:30
140
1.0
141
30.0
290
     0
  0
SCALE
  5
51
102
{ACAD_REACTORS
330
47
102
}
330
47
100
AcDbScale
 70
     0
300
1:40
140
1.0
141
40.0
290
     0
  0
SCALE
  5
52
102
{ACAD_REACTORS
330
47
102
}
330
47
100
AcDbScale
 70
     0
300
1:50
140
1.0
141
50.0
290
     0
  0
SCALE
  5
53
102
{ACAD_REACTORS
330
47
102
}
330
47
100
AcDbScale
 70
     0
300
1:100
140
1.0
141
100.0
290
     0
  0
SCALE
  5
54
102
{ACAD_REACTORS
330
47
102
}
330
47
100
AcDbScale
 70
     0
300
2:1
140
2.0
141
1.0
290
     0
  0
SCALE
  5
55
102
{ACAD_REACTORS
330
47
102
}
330
47
100
AcDbScale
 70
     0
300
4:1
140
4.0
141
1.0
290
     0
  0
SCALE
  5
56
102
{ACAD_REACTORS
330
47
102
}
330
47
100
AcDbScale
 70
     0
300
8:1
140
8.0
141
1.0
290
     0
  0
SCALE
  5
57
102
{ACAD_REACTORS
330
47
102
}
330
47
100
AcDbScale
 70
     0
300
10:1
140
10.0
141
1.0
290
     0
  0
SCALE
  5
58
102
{ACAD_REACTORS
330
47
102
}
330
47
100
AcDbScale
 70
     0
300
100:1
140
100.0
141
1.0
290
     0
  0
SCALE
  5
59
102
{ACAD_REACTORS
330
47
102
}
330
47
100
AcDbScale
 70
     0
300
1/128" = 1'-0"
140
0.0078125
141
12.0
290
     0
  0
SCALE
  5
5A
102
{ACAD_REACTORS
330
47
102
}
330
47
100
AcDbScale
 70
     0
300
1/64" = 1'-0"
140
0.015625
141
12.0
290
     0
  0
SCALE
  5
5B
102
{ACAD_REACTORS
330
47
102
}
330
47
100
AcDbScale
 70
     0
300
1/32" = 1'-0"
140
0.03125
141
12.0
290
     0
  0
SCALE
  5
5C
102
{ACAD_REACTORS
330
47
102
}
330
47
100
AcDbScale
 70
     0
300
1/16" = 1'-0"
140
0.0625
141
12.0
290
     0
  0
SCALE
  5
5D
102
{ACAD_REACTORS
330
47
102
}
330
47
100
AcDbScale
 70
     0
300
3/32" = 1'-0"
140
0.09375
141
12.0
290
     0
  0
SCALE
  5
5E
102
{ACAD_REACTORS
330
47
102
}
330
47
100
AcDbScale
 70
     0
300
1/8" = 1'-0"
140
0.125
141
12.0
290
     0
  0
SCALE
  5
5F
102
{ACAD_REACTORS
330
47
102
}
330
47
100
AcDbScale
 70
     0
300
3/16" = 1'-0"
140
0.1875
141
12.0
290
     0
  0
SCALE
  5
60
102
{ACAD_REACTORS
330
47
102
}
330
47
100
AcDbScale
 70
     0
300
1/4" = 1'-0"
140
0.25
141
12.0
290
     0
  0
SCALE
  5
61
102
{ACAD_REACTORS
330
47
102
}
330
47
100
AcDbScale
 70
     0
300
3/8" = 1'-0"
140
0.375
141
12.0
290
     0
  0
SCALE
  5
62
102
{ACAD_REACTORS
330
47
102
}
330
47
100
AcDbScale
 70
     0
300
1/2" = 1'-0"
140
0.5
141
12.0
290
     0
  0
SCALE
  5
63
102
{ACAD_REACTORS
330
47
102
}
330
47
100
AcDbScale
 70
     0
300
3/4" = 1'-0"
140
0.75
141
12.0
290
     0
  0
SCALE
  5
64
102
{ACAD_REACTORS
330
47
102
}
330
47
100
AcDbScale
 70
     0
300
1" = 1'-0"
140
1.0
141
12.0
290
     0
  0
SCALE
  5
65
102
{ACAD_REACTORS
330
47
102
}
330
47
100
AcDbScale
 70
     0
300
1-1/2" = 1'-0"
140
1.5
141
12.0
290
     0
  0
SCALE
  5
66
102
{ACAD_REACTORS
330
47
102
}
330
47
100
AcDbScale
 70
     0
300
3" = 1'-0"
140
3.0
141
12.0
290
     0
  0
SCALE
  5
67
102
{ACAD_REACTORS
330
47
102
}
330
47
100
AcDbScale
 70
     0
300
6" = 1'-0"
140
6.0
141
12.0
290
     0
  0
SCALE
  5
68
102
{ACAD_REACTORS
330
47
102
}
330
47
100
AcDbScale
 70
     0
300
1'-0" = 1'-0"
140
12.0
141
12.0
290
     0
  0
ENDSEC
  0
EOF
