  0
SECTION
  2
HEADER
  9
$ACADVER
  1
AC1015
  9
$ACADMAINTVER
 70
     6
  9
$DWGCODEPAGE
  3
ANSI_1252
  9
$INSBASE
 10
0.0
 20
0.0
 30
0.0
  9
$EXTMIN
 10
-353.5
 20
0.0
 30
0.0
  9
$EXTMAX
 10
353.5
 20
480.0
 30
0.0
  9
$LIMMIN
 10
0.0
 20
0.0
  9
$LIMMAX
 10
420.0
 20
297.0
  9
$ORTHOMODE
 70
     0
  9
$REGENMODE
 70
     1
  9
$FILLMODE
 70
     1
  9
$QTEXTMODE
 70
     0
  9
$MIRRTEXT
 70
     1
  9
$LTSCALE
 40
1.0
  9
$ATTMODE
 70
     1
  9
$TEXTSIZE
 40
3.5
  9
$TRACEWID
 40
1.0
  9
$TEXTSTYLE
  7
Standard
  9
$CLAYER
  8
0
  9
$CELTYPE
  6
ByLayer
  9
$CECOLOR
 62
   256
  9
$CELTSCALE
 40
1.0
  9
$DISPSILH
 70
     0
  9
$DIMSCALE
 40
1.0
  9
$DIMASZ
 40
3.302
  9
$DIMEXO
 40
1.0
  9
$DIMDLI
 40
3.75
  9
$DIMRND
 40
0.0
  9
$DIMDLE
 40
0.0
  9
$DIMEXE
 40
1.0
  9
$DIMTP
 40
0.0
  9
$DIMTM
 40
0.0
  9
$DIMTXT
 40
3.5
  9
$DIMCEN
 40
2.5
  9
$DIMTSZ
 40
0.0
  9
$DIMTOL
 70
     0
  9
$DIMLIM
 70
     0
  9
$DIMTIH
 70
     1
  9
$DIMTOH
 70
     1
  9
$DIMSE1
 70
     0
  9
$DIMSE2
 70
     0
  9
$DIMTAD
 70
     1
  9
$DIMZIN
 70
     1
  9
$DIMBLK
  1

  9
$DIMASO
 70
     1
  9
$DIMSHO
 70
     1
  9
$DIMPOST
  1

  9
$DIMAPOST
  1

  9
$DIMALT
 70
     0
  9
$DIMALTD
 70
     3
  9
$DIMALTF
 40
0.0393700787
  9
$DIMLFAC
 40
1.0
  9
$DIMTOFL
 70
     1
  9
$DIMTVP
 40
0.0
  9
$DIMTIX
 70
     0
  9
$DIMSOXD
 70
     0
  9
$DIMSAH
 70
     0
  9
$DIMBLK1
  1

  9
$DIMBLK2
  1

  9
$DIMSTYLE
  2
ISO-25
  9
$DIMCLRD
 70
     0
  9
$DIMCLRE
 70
     0
  9
$DIMCLRT
 70
     0
  9
$DIMTFAC
 40
1.0
  9
$DIMGAP
 40
1.524
  9
$DIMJUST
 70
     0
  9
$DIMSD1
 70
     0
  9
$DIMSD2
 70
     0
  9
$DIMTOLJ
 70
     0
  9
$DIMTZIN
 70
     1
  9
$DIMALTZ
 70
     0
  9
$DIMALTTZ
 70
     0
  9
$DIMUPT
 70
     0
  9
$DIMDEC
 70
     2
  9
$DIMTDEC
 70
     2
  9
$DIMALTU
 70
     2
  9
$DIMALTTD
 70
     3
  9
$DIMTXSTY
  7
Standard
  9
$DIMAUNIT
 70
     0
  9
$DIMADEC
 70
     2
  9
$DIMALTRND
 40
0.0
  9
$DIMAZIN
 70
     0
  9
$DIMDSEP
 70
    44
  9
$DIMATFIT
 70
     3
  9
$DIMFRAC
 70
     0
  9
$DIMLDRBLK
  1

  9
$DIMLUNIT
 70
     2
  9
$DIMLWD
 70
    -2
  9
$DIMLWE
 70
    -2
  9
$DIMTMOVE
 70
     0
  9
$LUNITS
 70
     2
  9
$LUPREC
 70
     2
  9
$SKETCHINC
 40
1.0
  9
$FILLETRAD
 40
10.0
  9
$AUNITS
 70
     0
  9
$AUPREC
 70
     2
  9
$MENU
  1
.
  9
$ELEVATION
 40
0.0
  9
$PELEVATION
 40
0.0
  9
$THICKNESS
 40
0.0
  9
$LIMCHECK
 70
     0
  9
$CHAMFERA
 40
0.0
  9
$CHAMFERB
 40
0.0
  9
$CHAMFERC
 40
0.0
  9
$CHAMFERD
 40
0.0
  9
$SKPOLY
 70
     0
  9
$TDCREATE
 40
2459257.659313449
  9
$TDUCREATE
 40
2459257.659313449
  9
$TDUPDATE
 40
2459257.659373461
  9
$TDUUPDATE
 40
2459257.659373461
  9
$TDINDWG
 40
0.0000000116
  9
$TDUSRTIMER
 40
0.0000000116
  9
$USRTIMER
 70
     1
  9
$ANGBASE
 50
0.0
  9
$ANGDIR
 70
     0
  9
$PDMODE
 70
     0
  9
$PDSIZE
 40
-1.0
  9
$PLINEWID
 40
0.0
  9
$SPLFRAME
 70
     0
  9
$SPLINETYPE
 70
     6
  9
$SPLINESEGS
 70
     8
  9
$HANDSEED
  5
535
  9
$SURFTAB1
 70
     6
  9
$SURFTAB2
 70
     6
  9
$SURFTYPE
 70
     6
  9
$SURFU
 70
     6
  9
$SURFV
 70
     6
  9
$UCSBASE
  2

  9
$UCSNAME
  2

  9
$UCSORG
 10
0.0
 20
0.0
 30
0.0
  9
$UCSXDIR
 10
1.0
 20
0.0
 30
0.0
  9
$UCSYDIR
 10
0.0
 20
1.0
 30
0.0
  9
$UCSORTHOREF
  2

  9
$UCSORTHOVIEW
 70
     0
  9
$UCSORGTOP
 10
0.0
 20
0.0
 30
0.0
  9
$UCSORGBOTTOM
 10
0.0
 20
0.0
 30
0.0
  9
$UCSORGLEFT
 10
0.0
 20
0.0
 30
0.0
  9
$UCSORGRIGHT
 10
0.0
 20
0.0
 30
0.0
  9
$UCSORGFRONT
 10
0.0
 20
0.0
 30
0.0
  9
$UCSORGBACK
 10
0.0
 20
0.0
 30
0.0
  9
$PUCSBASE
  2

  9
$PUCSNAME
  2

  9
$PUCSORG
 10
0.0
 20
0.0
 30
0.0
  9
$PUCSXDIR
 10
1.0
 20
0.0
 30
0.0
  9
$PUCSYDIR
 10
0.0
 20
1.0
 30
0.0
  9
$PUCSORTHOREF
  2

  9
$PUCSORTHOVIEW
 70
     0
  9
$PUCSORGTOP
 10
0.0
 20
0.0
 30
0.0
  9
$PUCSORGBOTTOM
 10
0.0
 20
0.0
 30
0.0
  9
$PUCSORGLEFT
 10
0.0
 20
0.0
 30
0.0
  9
$PUCSORGRIGHT
 10
0.0
 20
0.0
 30
0.0
  9
$PUCSORGFRONT
 10
0.0
 20
0.0
 30
0.0
  9
$PUCSORGBACK
 10
0.0
 20
0.0
 30
0.0
  9
$USERI1
 70
     0
  9
$USERI2
 70
     0
  9
$USERI3
 70
     0
  9
$USERI4
 70
     0
  9
$USERI5
 70
     0
  9
$USERR1
 40
0.0
  9
$USERR2
 40
0.0
  9
$USERR3
 40
0.0
  9
$USERR4
 40
0.0
  9
$USERR5
 40
0.0
  9
$WORLDVIEW
 70
     1
  9
$SHADEDGE
 70
     3
  9
$SHADEDIF
 70
    70
  9
$TILEMODE
 70
     1
  9
$MAXACTVP
 70
    64
  9
$PINSBASE
 10
0.0
 20
0.0
 30
0.0
  9
$PLIMCHECK
 70
     0
  9
$PEXTMIN
 10
-353.5
 20
0.0
 30
0.0
  9
$PEXTMAX
 10
353.5
 20
480.0
 30
0.0
  9
$PLIMMIN
 10
-408.5194552529
 20
-20.6322957198
  9
$PLIMMAX
 10
408.5194552529
 20
557.0719844358
  9
$UNITMODE
 70
     0
  9
$VISRETAIN
 70
     1
  9
$PLINEGEN
 70
     0
  9
$PSLTSCALE
 70
     1
  9
$TREEDEPTH
 70
  3020
  9
$CMLSTYLE
  2
Standard
  9
$CMLJUST
 70
     0
  9
$CMLSCALE
 40
20.0
  9
$PROXYGRAPHICS
 70
     1
  9
$MEASUREMENT
 70
     1
  9
$CELWEIGHT
370
    -1
  9
$ENDCAPS
280
     0
  9
$JOINSTYLE
280
     0
  9
$LWDISPLAY
290
     1
  9
$INSUNITS
 70
     4
  9
$HYPERLINKBASE
  1

  9
$STYLESHEET
  1

  9
$XEDIT
290
     1
  9
$CEPSNTYPE
380
     0
  9
$PSTYLEMODE
290
     1
  9
$FINGERPRINTGUID
  2
{3302042c-d6f4-4da1-a91e-a7f8e523a866}
  9
$VERSIONGUID
  2
{FAEB1C32-E019-11D5-929B-00C0DF256EC4}
  9
$EXTNAMES
290
     1
  9
$PSVPSCALE
 40
0.0
  9
$OLESTARTUP
290
     0
  0
ENDSEC
  0
SECTION
  2
CLASSES
  0
CLASS
  1
ACDBDICTIONARYWDFLT
  2
AcDbDictionaryWithDefault
  3
ObjectDBX Classes
 90
        0
280
     0
281
     0
  0
CLASS
  1
VISUALSTYLE
  2
AcDbVisualStyle
  3
ObjectDBX Classes
 90
     4095
280
     0
281
     0
  0
CLASS
  1
MATERIAL
  2
AcDbMaterial
  3
ObjectDBX Classes
 90
     1153
280
     0
281
     0
  0
CLASS
  1
SCALE
  2
AcDbScale
  3
ObjectDBX Classes
 90
     1153
280
     0
281
     0
  0
CLASS
  1
TABLESTYLE
  2
AcDbTableStyle
  3
ObjectDBX Classes
 90
     4095
280
     0
281
     0
  0
CLASS
  1
MLEADERSTYLE
  2
AcDbMLeaderStyle
  3
ACDB_MLEADERSTYLE_CLASS
 90
     4095
280
     0
281
     0
  0
CLASS
  1
SUN
  2
AcDbSun
  3
SCENEOE
 90
     1153
280
     0
281
     0
  0
CLASS
  1
ACDBPLACEHOLDER
  2
AcDbPlaceHolder
  3
ObjectDBX Classes
 90
        0
280
     0
281
     0
  0
CLASS
  1
LAYOUT
  2
AcDbLayout
  3
ObjectDBX Classes
 90
        0
280
     0
281
     0
  0
ENDSEC
  0
SECTION
  2
TABLES
  0
TABLE
  2
VPORT
  5
8
330
0
100
AcDbSymbolTable
 70
     1
  0
VPORT
  5
29
330
8
100
AcDbSymbolTableRecord
100
AcDbViewportTableRecord
  2
*Active
 70
     0
 10
0.0
 20
0.0
 11
1.0
 21
1.0
 12
0.0
 22
240.0
 13
0.0
 23
0.0
 14
10.0
 24
10.0
 15
10.0
 25
10.0
 16
0.0
 26
0.0
 36
1.0
 17
0.0
 27
0.0
 37
0.0
 40
489.6
 41
1.4729166667
 42
50.0
 43
0.0
 44
0.0
 50
0.0
 51
0.0
 71
     0
 72
   100
 73
     1
 74
     3
 75
     0
 76
     0
 77
     0
 78
     0
281
     0
 65
     1
110
0.0
120
0.0
130
0.0
111
1.0
121
0.0
131
0.0
112
0.0
122
1.0
132
0.0
 79
     0
146
0.0
  0
ENDTAB
  0
TABLE
  2
LTYPE
  5
5
330
0
100
AcDbSymbolTable
 70
     6
  0
LTYPE
  5
14
330
5
100
AcDbSymbolTableRecord
100
AcDbLinetypeTableRecord
  2
ByBlock
 70
     0
  3

 72
    65
 73
     0
 40
0.0
  0
LTYPE
  5
15
330
5
100
AcDbSymbolTableRecord
100
AcDbLinetypeTableRecord
  2
ByLayer
 70
     0
  3

 72
    65
 73
     0
 40
0.0
  0
LTYPE
  5
16
330
5
100
AcDbSymbolTableRecord
100
AcDbLinetypeTableRecord
  2
Continuous
 70
     0
  3
Solid line
 72
    65
 73
     0
 40
0.0
  0
LTYPE
  5
6E
330
5
100
AcDbSymbolTableRecord
100
AcDbLinetypeTableRecord
  2
HIDDEN
 70
     0
  3
Hidden __ __ __ __ __ __ __ __ __ __ __ __ __ __
 72
    65
 73
     2
 40
1.905
 49
1.27
 74
     0
 49
-0.635
 74
     0
  0
LTYPE
  5
6F
330
5
100
AcDbSymbolTableRecord
100
AcDbLinetypeTableRecord
  2
PHANTOM
 70
     0
  3
Phantom ______  __  __  ______  __  __  ______
 72
    65
 73
     6
 40
12.7
 49
6.35
 74
     0
 49
-1.27
 74
     0
 49
1.27
 74
     0
 49
-1.27
 74
     0
 49
1.27
 74
     0
 49
-1.27
 74
     0
  0
LTYPE
  5
70
330
5
100
AcDbSymbolTableRecord
100
AcDbLinetypeTableRecord
  2
CENTER
 70
     0
  3
Center ____ _ ____ _ ____ _ ____ _ ____ _ ____
 72
    65
 73
     4
 40
10.16
 49
6.35
 74
     0
 49
-1.27
 74
     0
 49
1.27
 74
     0
 49
-1.27
 74
     0
  0
LTYPE
  5
71
330
5
100
AcDbSymbolTableRecord
100
AcDbLinetypeTableRecord
  2
CENTERX2
 70
     0
  3
Center (2x) ________  __  ________  __  _____
 72
    65
 73
     4
 40
20.32
 49
12.7
 74
     0
 49
-2.54
 74
     0
 49
2.54
 74
     0
 49
-2.54
 74
     0
  0
LTYPE
  5
72
330
5
100
AcDbSymbolTableRecord
100
AcDbLinetypeTableRecord
  2
DOT2
 70
     0
  3
Dot (.5x) ........................................
 72
    65
 73
     2
 40
0.635
 49
0.0
 74
     0
 49
-0.635
 74
     0
  0
ENDTAB
  0
TABLE
  2
LAYER
  5
2
330
0
100
AcDbSymbolTable
 70
     1
  0
LAYER
  5
10
330
2
100
AcDbSymbolTableRecord
100
AcDbLayerTableRecord
  2
0
 70
     0
 62
     7
  6
Continuous
370
    -3
390
F
  0
ENDTAB
  0
TABLE
  2
STYLE
  5
3
330
0
100
AcDbSymbolTable
 70
     1
  0
STYLE
  5
11
330
3
100
AcDbSymbolTableRecord
100
AcDbTextStyleTableRecord
  2
Standard
 70
     0
 40
0.0
 41
1.0
 50
0.0
 71
     0
 42
3.5
  3
txt
  4

  0
ENDTAB
  0
TABLE
  2
VIEW
  5
6
330
0
100
AcDbSymbolTable
 70
     0
  0
ENDTAB
  0
TABLE
  2
UCS
  5
7
330
0
100
AcDbSymbolTable
 70
     0
  0
ENDTAB
  0
TABLE
  2
APPID
  5
9
330
0
100
AcDbSymbolTable
 70
     1
  0
APPID
  5
12
330
9
100
AcDbSymbolTableRecord
100
AcDbRegAppTableRecord
  2
ACAD
 70
     0
  0
ENDTAB
  0
TABLE
  2
DIMSTYLE
  5
A
330
0
100
AcDbSymbolTable
 70
     1
100
AcDbDimStyleTable
  0
DIMSTYLE
105
27
330
A
100
AcDbSymbolTableRecord
100
AcDbDimStyleTableRecord
  2
ISO-25
 70
     0
 41
2.5
 42
0.625
 43
3.75
 44
1.25
 73
     0
 74
     0
 77
     1
 78
     8
140
2.5
141
2.5
143
0.0393700787
147
0.625
171
     3
172
     1
178
     0
271
     2
272
     2
274
     3
278
    44
283
     0
284
     8
340
11
  0
ENDTAB
  0
TABLE
  2
BLOCK_RECORD
  5
1
330
0
100
AcDbSymbolTable
 70
     3
  0
BLOCK_RECORD
  5
1F
330
1
100
AcDbSymbolTableRecord
100
AcDbBlockTableRecord
  2
*Model_Space
340
22
  0
BLOCK_RECORD
  5
1B
330
1
100
AcDbSymbolTableRecord
100
AcDbBlockTableRecord
  2
*Paper_Space
340
1E
  0
BLOCK_RECORD
  5
23
330
1
100
AcDbSymbolTableRecord
100
AcDbBlockTableRecord
  2
*Paper_Space0
340
26
  0
BLOCK_RECORD
  5
308
330
1
100
AcDbSymbolTableRecord
100
AcDbBlockTableRecord
  2
*Paper_Space1
340
309
  0
BLOCK_RECORD
  5
3AE
330
1
100
AcDbSymbolTableRecord
100
AcDbBlockTableRecord
  2
*Paper_Space2
340
3AF
  0
ENDTAB
  0
ENDSEC
  0
SECTION
  2
BLOCKS
  0
BLOCK
  5
20
330
1F
100
AcDbEntity
  8
0
100
AcDbBlockBegin
  2
*Model_Space
 70
     0
 10
0.0
 20
0.0
 30
0.0
  3
*Model_Space
  1

  0
ENDBLK
  5
21
330
1F
100
AcDbEntity
  8
0
100
AcDbBlockEnd
  0
BLOCK
  5
1C
330
1B
100
AcDbEntity
 67
     1
  8
0
100
AcDbBlockBegin
  2
*Paper_Space
 70
     0
 10
0.0
 20
0.0
 30
0.0
  3
*Paper_Space
  1

  0
ENDBLK
  5
1D
330
1B
100
AcDbEntity
 67
     1
  8
0
100
AcDbBlockEnd
  0
BLOCK
  5
24
330
23
100
AcDbEntity
  8
0
100
AcDbBlockBegin
  2
*Paper_Space0
 70
     0
 10
0.0
 20
0.0
 30
0.0
  3
*Paper_Space0
  1

  0
LINE
  5
2E5
330
23
100
AcDbEntity
  8
0
  6
Continuous
 62
     7
370
    25
100
AcDbLine
 10
231.0
 20
261.0
 30
0.0
 11
212.0
 21
261.0
 31
0.0
  0
LINE
  5
2E6
330
23
100
AcDbEntity
  8
0
  6
Continuous
 62
     7
370
    25
100
AcDbLine
 10
213.0
 20
262.0
 30
0.0
 11
230.0
 21
262.0
 31
0.0
  0
LINE
  5
2E7
330
23
100
AcDbEntity
  8
0
  6
Continuous
 62
     7
370
    25
100
AcDbLine
 10
230.0
 20
2.0
 30
0.0
 11
230.0
 21
262.0
 31
0.0
  0
LINE
  5
2E8
330
23
100
AcDbEntity
  8
0
  6
Continuous
 62
     7
370
    25
100
AcDbLine
 10
212.0
 20
3.0
 30
0.0
 11
231.0
 21
3.0
 31
0.0
  0
LINE
  5
2E9
330
23
100
AcDbEntity
  8
0
  6
Continuous
 62
     7
370
    25
100
AcDbLine
 10
213.0
 20
262.0
 30
0.0
 11
213.0
 21
2.0
 31
0.0
  0
LINE
  5
2EA
330
23
100
AcDbEntity
  8
0
  6
Continuous
 62
     7
370
    25
100
AcDbLine
 10
230.0
 20
2.0
 30
0.0
 11
213.0
 21
2.0
 31
0.0
  0
LINE
  5
2EB
330
23
100
AcDbEntity
  8
0
  6
Continuous
 62
     7
370
    25
100
AcDbLine
 10
231.0
 20
261.0
 30
0.0
 11
231.0
 21
3.0
 31
0.0
  0
LINE
  5
2EC
330
23
100
AcDbEntity
  8
0
  6
Continuous
 62
     7
370
    25
100
AcDbLine
 10
212.0
 20
480.0
 30
0.0
 11
212.0
 21
1.0
 31
0.0
  0
LINE
  5
2ED
330
23
100
AcDbEntity
  8
0
  6
Continuous
 62
     7
370
    25
100
AcDbLine
 10
214.0
 20
2.0
 30
0.0
 11
214.0
 21
0.0
 31
0.0
  0
LINE
  5
2EE
330
23
100
AcDbEntity
  8
0
  6
Continuous
 62
     7
370
    25
100
AcDbLine
 10
214.0
 20
0.0
 30
0.0
 11
-214.0
 21
0.0
 31
0.0
  0
LINE
  5
2EF
330
23
100
AcDbEntity
  8
0
  6
Continuous
 62
     7
370
    25
100
AcDbLine
 10
-214.0
 20
0.0
 30
0.0
 11
-214.0
 21
479.0
 31
0.0
  0
LINE
  5
2F0
330
23
100
AcDbEntity
  8
0
  6
Continuous
 62
     7
370
    25
100
AcDbLine
 10
211.0
 20
0.0
 30
0.0
 11
211.0
 21
480.0
 31
0.0
  0
LINE
  5
2F1
330
23
100
AcDbEntity
  8
0
  6
Continuous
 62
     7
370
    25
100
AcDbLine
 10
-213.0
 20
480.0
 30
0.0
 11
-213.0
 21
0.0
 31
0.0
  0
LINE
  5
2F2
330
23
100
AcDbEntity
  8
0
  6
Continuous
 62
     7
370
    25
100
AcDbLine
 10
212.0
 20
479.0
 30
0.0
 11
-214.0
 21
479.0
 31
0.0
  0
LINE
  5
2F3
330
23
100
AcDbEntity
  8
0
  6
Continuous
 62
     7
370
    25
100
AcDbLine
 10
-214.0
 20
1.0
 30
0.0
 11
212.0
 21
1.0
 31
0.0
  0
LINE
  5
2F4
330
23
100
AcDbEntity
  8
0
  6
Continuous
 62
     7
370
    25
100
AcDbLine
 10
-213.0
 20
480.0
 30
0.0
 11
212.0
 21
480.0
 31
0.0
  0
LINE
  5
2F5
330
23
100
AcDbEntity
  8
0
  6
Continuous
 62
     7
370
    25
100
AcDbLine
 10
212.0
 20
265.0
 30
0.0
 11
231.0
 21
265.0
 31
0.0
  0
LINE
  5
2F6
330
23
100
AcDbEntity
  8
0
  6
Continuous
 62
     7
370
    25
100
AcDbLine
 10
230.0
 20
264.0
 30
0.0
 11
230.0
 21
478.0
 31
0.0
  0
LINE
  5
2F7
330
23
100
AcDbEntity
  8
0
  6
Continuous
 62
     7
370
    25
100
AcDbLine
 10
230.0
 20
264.0
 30
0.0
 11
213.0
 21
264.0
 31
0.0
  0
LINE
  5
2F8
330
23
100
AcDbEntity
  8
0
  6
Continuous
 62
     7
370
    25
100
AcDbLine
 10
213.0
 20
478.0
 30
0.0
 11
213.0
 21
264.0
 31
0.0
  0
LINE
  5
2F9
330
23
100
AcDbEntity
  8
0
  6
Continuous
 62
     7
370
    25
100
AcDbLine
 10
231.0
 20
477.0
 30
0.0
 11
231.0
 21
265.0
 31
0.0
  0
LINE
  5
2FA
330
23
100
AcDbEntity
  8
0
  6
Continuous
 62
     7
370
    25
100
AcDbLine
 10
231.0
 20
477.0
 30
0.0
 11
212.0
 21
477.0
 31
0.0
  0
LINE
  5
2FB
330
23
100
AcDbEntity
  8
0
  6
Continuous
 62
     7
370
    25
100
AcDbLine
 10
213.0
 20
478.0
 30
0.0
 11
230.0
 21
478.0
 31
0.0
  0
ARC
  5
2FC
330
23
100
AcDbEntity
  8
0
  6
Continuous
 62
     7
370
    25
100
AcDbCircle
 10
230.0
 20
3.0
 30
0.0
 40
1.000000000000057
100
AcDbArc
 50
270.0
 51
0.0
  0
ARC
  5
2FD
330
23
100
AcDbEntity
  8
0
  6
Continuous
 62
     7
370
    25
100
AcDbCircle
 10
213.0
 20
3.0
 30
0.0
 40
1.0
100
AcDbArc
 50
180.0
 51
270.0
  0
ARC
  5
2FE
330
23
100
AcDbEntity
  8
0
  6
Continuous
 62
     7
370
    25
100
AcDbCircle
 10
230.0
 20
261.0
 30
0.0
 40
0.9999999999999432
100
AcDbArc
 50
360.0
 51
90.0
  0
ARC
  5
2FF
330
23
100
AcDbEntity
  8
0
  6
Continuous
 62
     7
370
    25
100
AcDbCircle
 10
213.0
 20
261.0
 30
0.0
 40
0.9999999999999716
100
AcDbArc
 50
90.0
 51
180.0
  0
ARC
  5
300
330
23
100
AcDbEntity
  8
0
  6
Continuous
 62
     7
370
    25
100
AcDbCircle
 10
211.0
 20
479.0
 30
0.0
 40
1.000000000000057
100
AcDbArc
 50
0.0
 51
90.0
  0
ARC
  5
301
330
23
100
AcDbEntity
  8
0
  6
Continuous
 62
     7
370
    25
100
AcDbCircle
 10
-213.0
 20
479.0
 30
0.0
 40
1.000000000000057
100
AcDbArc
 50
90.0
 51
180.0
  0
ARC
  5
302
330
23
100
AcDbEntity
  8
0
  6
Continuous
 62
     7
370
    25
100
AcDbCircle
 10
-213.0
 20
1.0
 30
0.0
 40
1.000000000000028
100
AcDbArc
 50
180.0
 51
270.0
  0
ARC
  5
303
330
23
100
AcDbEntity
  8
0
  6
Continuous
 62
     7
370
    25
100
AcDbCircle
 10
211.0
 20
1.0
 30
0.0
 40
1.000000000000057
100
AcDbArc
 50
270.0
 51
360.0
  0
ARC
  5
304
330
23
100
AcDbEntity
  8
0
  6
Continuous
 62
     7
370
    25
100
AcDbCircle
 10
213.0
 20
477.0
 30
0.0
 40
1.000000000000057
100
AcDbArc
 50
90.0
 51
180.0
  0
ARC
  5
305
330
23
100
AcDbEntity
  8
0
  6
Continuous
 62
     7
370
    25
100
AcDbCircle
 10
230.0
 20
265.0
 30
0.0
 40
1.000000000000057
100
AcDbArc
 50
270.0
 51
360.0
  0
ARC
  5
306
330
23
100
AcDbEntity
  8
0
  6
Continuous
 62
     7
370
    25
100
AcDbCircle
 10
213.0
 20
265.0
 30
0.0
 40
1.000000000000057
100
AcDbArc
 50
180.0
 51
270.0
  0
ARC
  5
307
330
23
100
AcDbEntity
  8
0
  6
Continuous
 62
     7
370
    25
100
AcDbCircle
 10
230.0
 20
477.0
 30
0.0
 40
1.0
100
AcDbArc
 50
0.0
 51
90.0
  0
VIEWPORT
  5
52F
330
23
100
AcDbEntity
  8
0
100
AcDbViewport
 10
0.0
 20
0.0
 30
0.0
 40
205.6
 41
156.0
 68
     1
 69
     1
 12
0.0
 22
240.0
 13
0.0
 23
0.0
 14
10.0
 24
10.0
 15
10.0
 25
10.0
 16
0.0
 26
0.0
 36
1.0
 17
0.0
 27
0.0
 37
0.0
 42
50.0
 43
0.0
 44
0.0
 45
547.1684824903
 50
0.0
 51
0.0
 72
   100
 90
   557152
  1

281
     0
 71
     1
 74
     0
110
0.0
120
0.0
130
0.0
111
1.0
121
0.0
131
0.0
112
0.0
122
1.0
132
0.0
 79
     0
146
0.0
  0
ENDBLK
  5
25
330
23
100
AcDbEntity
  8
0
100
AcDbBlockEnd
  0
BLOCK
  5
30A
330
308
100
AcDbEntity
  8
0
100
AcDbBlockBegin
  2
*Paper_Space1
 70
     0
 10
0.0
 20
0.0
 30
0.0
  3
*Paper_Space1
  1

  0
CIRCLE
  5
330
330
308
100
AcDbEntity
  8
0
  6
Continuous
 62
     7
370
    25
100
AcDbCircle
 10
-299.5
 20
179.0
 30
0.0
 40
7.000000000000028
  0
CIRCLE
  5
331
330
308
100
AcDbEntity
  8
0
  6
Continuous
 62
     7
370
    25
100
AcDbCircle
 10
299.5
 20
179.0
 30
0.0
 40
6.999999999999972
  0
LINE
  5
379
330
308
100
AcDbEntity
  8
0
  6
Continuous
 62
     7
370
    25
100
AcDbLine
 10
-299.5
 20
152.0
 30
0.0
 11
299.5
 21
152.0
 31
0.0
  0
LINE
  5
37A
330
308
100
AcDbEntity
  8
0
  6
Continuous
 62
     7
370
    25
100
AcDbLine
 10
334.5
 20
-212.0
 30
0.0
 11
334.5
 21
214.0
 31
0.0
  0
LINE
  5
37B
330
308
100
AcDbEntity
  8
0
  6
Continuous
 62
     7
370
    25
100
AcDbLine
 10
335.5
 20
214.0
 30
0.0
 11
335.5
 21
-212.0
 31
0.0
  0
LINE
  5
37C
330
308
100
AcDbEntity
  8
0
  6
Continuous
 62
     7
370
    25
100
AcDbLine
 10
353.5
 20
213.0
 30
0.0
 11
334.5
 21
213.0
 31
0.0
  0
LINE
  5
37D
330
308
100
AcDbEntity
  8
0
  6
Continuous
 62
     7
370
    25
100
AcDbLine
 10
353.5
 20
213.0
 30
0.0
 11
353.5
 21
-211.0
 31
0.0
  0
LINE
  5
37E
330
308
100
AcDbEntity
  8
0
  6
Continuous
 62
     7
370
    25
100
AcDbLine
 10
334.5
 20
-211.0
 30
0.0
 11
353.5
 21
-211.0
 31
0.0
  0
LINE
  5
37F
330
308
100
AcDbEntity
  8
0
  6
Continuous
 62
     7
370
    25
100
AcDbLine
 10
335.5
 20
214.0
 30
0.0
 11
352.5
 21
214.0
 31
0.0
  0
LINE
  5
380
330
308
100
AcDbEntity
  8
0
  6
Continuous
 62
     7
370
    25
100
AcDbLine
 10
-315.5
 20
168.0
 30
0.0
 11
-315.5
 21
-196.0
 31
0.0
  0
LINE
  5
381
330
308
100
AcDbEntity
  8
0
  6
Continuous
 62
     7
370
    25
100
AcDbLine
 10
-299.5
 20
168.0
 30
0.0
 11
-299.5
 21
-196.0
 31
0.0
  0
LINE
  5
382
330
308
100
AcDbEntity
  8
0
  6
Continuous
 62
     7
370
    25
100
AcDbLine
 10
-315.5
 20
168.0
 30
0.0
 11
315.5
 21
168.0
 31
0.0
  0
LINE
  5
383
330
308
100
AcDbEntity
  8
0
  6
Continuous
 62
     7
370
    25
100
AcDbLine
 10
315.5
 20
168.0
 30
0.0
 11
315.5
 21
-196.0
 31
0.0
  0
LINE
  5
384
330
308
100
AcDbEntity
  8
0
  6
Continuous
 62
     7
370
    25
100
AcDbLine
 10
299.5
 20
168.0
 30
0.0
 11
299.5
 21
-196.0
 31
0.0
  0
LINE
  5
385
330
308
100
AcDbEntity
  8
0
  6
Continuous
 62
     7
370
    25
100
AcDbLine
 10
60.0
 20
168.0
 30
0.0
 11
60.0
 21
-62.0
 31
0.0
  0
LINE
  5
386
330
308
100
AcDbEntity
  8
0
  6
Continuous
 62
     7
370
    25
100
AcDbLine
 10
-60.0
 20
168.0
 30
0.0
 11
-60.0
 21
-62.0
 31
0.0
  0
LINE
  5
387
330
308
100
AcDbEntity
  8
0
  6
Continuous
 62
     7
370
    25
100
AcDbLine
 10
333.12
 20
-196.0
 30
0.0
 11
333.12
 21
26.0
 31
0.0
  0
LINE
  5
388
330
308
100
AcDbEntity
  8
0
  6
Continuous
 62
     7
370
    25
100
AcDbLine
 10
334.5
 20
26.0
 30
0.0
 11
315.5
 21
26.0
 31
0.0
  0
LINE
  5
389
330
308
100
AcDbEntity
  8
0
  6
Continuous
 62
     7
370
    25
100
AcDbLine
 10
-334.5
 20
214.0
 30
0.0
 11
-334.5
 21
-212.0
 31
0.0
  0
LINE
  5
38A
330
308
100
AcDbEntity
  8
0
  6
Continuous
 62
     7
370
    25
100
AcDbLine
 10
-335.5
 20
-212.0
 30
0.0
 11
-335.5
 21
214.0
 31
0.0
  0
LINE
  5
38B
330
308
100
AcDbEntity
  8
0
  6
Continuous
 62
     7
370
    25
100
AcDbLine
 10
-353.5
 20
-211.0
 30
0.0
 11
-334.5
 21
-211.0
 31
0.0
  0
LINE
  5
38C
330
308
100
AcDbEntity
  8
0
  6
Continuous
 62
     7
370
    25
100
AcDbLine
 10
-334.5
 20
213.0
 30
0.0
 11
-353.5
 21
213.0
 31
0.0
  0
LINE
  5
38D
330
308
100
AcDbEntity
  8
0
  6
Continuous
 62
     7
370
    25
100
AcDbLine
 10
-352.5
 20
214.0
 30
0.0
 11
-335.5
 21
214.0
 31
0.0
  0
LINE
  5
38E
330
308
100
AcDbEntity
  8
0
  6
Continuous
 62
     7
370
    25
100
AcDbLine
 10
-353.5
 20
-211.0
 30
0.0
 11
-353.5
 21
213.0
 31
0.0
  0
LINE
  5
38F
330
308
100
AcDbEntity
  8
0
  6
Continuous
 62
     7
370
    25
100
AcDbLine
 10
334.5
 20
-196.0
 30
0.0
 11
-334.5
 21
-196.0
 31
0.0
  0
LINE
  5
390
330
308
100
AcDbEntity
  8
0
  6
Continuous
 62
     7
370
    25
100
AcDbLine
 10
352.5
 20
-212.0
 30
0.0
 11
-352.5
 21
-212.0
 31
0.0
  0
LINE
  5
391
330
308
100
AcDbEntity
  8
0
  6
Continuous
 62
     7
370
    25
100
AcDbLine
 10
334.5
 20
198.0
 30
0.0
 11
-334.5
 21
198.0
 31
0.0
  0
LINE
  5
392
330
308
100
AcDbEntity
  8
0
  6
Continuous
 62
     7
370
    25
100
AcDbLine
 10
334.5
 20
214.0
 30
0.0
 11
-334.5
 21
214.0
 31
0.0
  0
LINE
  5
393
330
308
100
AcDbEntity
  8
0
  6
Continuous
 62
     7
370
    25
100
AcDbLine
 10
-333.12
 20
-196.0
 30
0.0
 11
-333.12
 21
26.0
 31
0.0
  0
LINE
  5
394
330
308
100
AcDbEntity
  8
0
  6
Continuous
 62
     7
370
    25
100
AcDbLine
 10
-334.5
 20
26.0
 30
0.0
 11
-315.5
 21
26.0
 31
0.0
  0
LINE
  5
395
330
308
100
AcDbEntity
  8
0
  6
Continuous
 62
     7
370
    25
100
AcDbLine
 10
76.0
 20
152.0
 30
0.0
 11
76.0
 21
-78.0
 31
0.0
  0
LINE
  5
396
330
308
100
AcDbEntity
  8
0
  6
Continuous
 62
     7
370
    25
100
AcDbLine
 10
76.0
 20
-78.0
 30
0.0
 11
-76.0
 21
-78.0
 31
0.0
  0
LINE
  5
397
330
308
100
AcDbEntity
  8
0
  6
Continuous
 62
     7
370
    25
100
AcDbLine
 10
76.0
 20
-62.0
 30
0.0
 11
-76.0
 21
-62.0
 31
0.0
  0
LINE
  5
398
330
308
100
AcDbEntity
  8
0
  6
Continuous
 62
     7
370
    25
100
AcDbLine
 10
-76.0
 20
152.0
 30
0.0
 11
-76.0
 21
-78.0
 31
0.0
  0
LINE
  5
399
330
308
100
AcDbEntity
  8
0
  6
Continuous
 62
     7
370
    25
100
AcDbLine
 10
353.5
 20
-213.0
 30
0.0
 11
353.5
 21
-230.0
 31
0.0
  0
LINE
  5
39A
330
308
100
AcDbEntity
  8
0
  6
Continuous
 62
     7
370
    25
100
AcDbLine
 10
352.5
 20
-231.0
 30
0.0
 11
352.5
 21
214.0
 31
0.0
  0
LINE
  5
39B
330
308
100
AcDbEntity
  8
0
  6
Continuous
 62
     7
370
    25
100
AcDbLine
 10
-353.5
 20
-230.0
 30
0.0
 11
353.5
 21
-230.0
 31
0.0
  0
LINE
  5
39C
330
308
100
AcDbEntity
  8
0
  6
Continuous
 62
     7
370
    25
100
AcDbLine
 10
-352.5
 20
214.0
 30
0.0
 11
-352.5
 21
-231.0
 31
0.0
  0
LINE
  5
39D
330
308
100
AcDbEntity
  8
0
  6
Continuous
 62
     7
370
    25
100
AcDbLine
 10
353.5
 20
-213.0
 30
0.0
 11
-353.5
 21
-213.0
 31
0.0
  0
LINE
  5
39E
330
308
100
AcDbEntity
  8
0
  6
Continuous
 62
     7
370
    25
100
AcDbLine
 10
-353.5
 20
-230.0
 30
0.0
 11
-353.5
 21
-213.0
 31
0.0
  0
LINE
  5
39F
330
308
100
AcDbEntity
  8
0
  6
Continuous
 62
     7
370
    25
100
AcDbLine
 10
352.5
 20
-231.0
 30
0.0
 11
-352.5
 21
-231.0
 31
0.0
  0
LINE
  5
3A0
330
308
100
AcDbEntity
  8
0
  6
Continuous
 62
     8
370
    25
100
AcDbLine
 10
332.7
 20
26.0
 30
0.0
 11
332.7
 21
-196.0
 31
0.0
  0
LINE
  5
3A1
330
308
100
AcDbEntity
  8
0
  6
Continuous
 62
     8
370
    25
100
AcDbLine
 10
-332.7
 20
26.0
 30
0.0
 11
-332.7
 21
-196.0
 31
0.0
  0
ARC
  5
3A2
330
308
100
AcDbEntity
  8
0
  6
Continuous
 62
     7
370
    25
100
AcDbCircle
 10
352.5
 20
213.0
 30
0.0
 40
1.000000000000057
100
AcDbArc
 50
0.0
 51
90.0
  0
ARC
  5
3A3
330
308
100
AcDbEntity
  8
0
  6
Continuous
 62
     7
370
    25
100
AcDbCircle
 10
335.5
 20
213.0
 30
0.0
 40
1.000000000000057
100
AcDbArc
 50
90.0
 51
180.0
  0
ARC
  5
3A4
330
308
100
AcDbEntity
  8
0
  6
Continuous
 62
     7
370
    25
100
AcDbCircle
 10
352.5
 20
-211.0
 30
0.0
 40
1.000000000000114
100
AcDbArc
 50
270.0
 51
360.0
  0
ARC
  5
3A5
330
308
100
AcDbEntity
  8
0
  6
Continuous
 62
     7
370
    25
100
AcDbCircle
 10
335.5
 20
-211.0
 30
0.0
 40
1.000000000000114
100
AcDbArc
 50
180.0
 51
270.0
  0
ARC
  5
3A6
330
308
100
AcDbEntity
  8
0
  6
Continuous
 62
     7
370
    25
100
AcDbCircle
 10
-352.5
 20
-211.0
 30
0.0
 40
1.000000000000057
100
AcDbArc
 50
180.0
 51
270.0
  0
ARC
  5
3A7
330
308
100
AcDbEntity
  8
0
  6
Continuous
 62
     7
370
    25
100
AcDbCircle
 10
-352.5
 20
213.0
 30
0.0
 40
1.000000000000057
100
AcDbArc
 50
90.0
 51
180.0
  0
ARC
  5
3A8
330
308
100
AcDbEntity
  8
0
  6
Continuous
 62
     7
370
    25
100
AcDbCircle
 10
-335.5
 20
213.0
 30
0.0
 40
1.000000000000057
100
AcDbArc
 50
0.0
 51
90.0
  0
ARC
  5
3A9
330
308
100
AcDbEntity
  8
0
  6
Continuous
 62
     7
370
    25
100
AcDbCircle
 10
-335.5
 20
-211.0
 30
0.0
 40
1.000000000000057
100
AcDbArc
 50
270.0
 51
360.0
  0
ARC
  5
3AA
330
308
100
AcDbEntity
  8
0
  6
Continuous
 62
     7
370
    25
100
AcDbCircle
 10
-352.5
 20
-230.0
 30
0.0
 40
1.0
100
AcDbArc
 50
180.0
 51
270.0
  0
ARC
  5
3AB
330
308
100
AcDbEntity
  8
0
  6
Continuous
 62
     7
370
    25
100
AcDbCircle
 10
-352.5
 20
-213.0
 30
0.0
 40
1.000000000000057
100
AcDbArc
 50
90.0
 51
180.0
  0
ARC
  5
3AC
330
308
100
AcDbEntity
  8
0
  6
Continuous
 62
     7
370
    25
100
AcDbCircle
 10
352.5
 20
-230.0
 30
0.0
 40
1.000000000000085
100
AcDbArc
 50
270.0
 51
360.0
  0
ARC
  5
3AD
330
308
100
AcDbEntity
  8
0
  6
Continuous
 62
     7
370
    25
100
AcDbCircle
 10
352.5
 20
-213.0
 30
0.0
 40
1.000000000000114
100
AcDbArc
 50
0.0
 51
90.0
  0
VIEWPORT
  5
531
330
308
100
AcDbEntity
  8
0
100
AcDbViewport
 10
0.0
 20
0.0
 30
0.0
 40
205.6
 41
156.0
 68
     1
 69
     1
 12
0.0
 22
240.0
 13
0.0
 23
0.0
 14
10.0
 24
10.0
 15
10.0
 25
10.0
 16
0.0
 26
0.0
 36
1.0
 17
0.0
 27
0.0
 37
0.0
 42
50.0
 43
0.0
 44
0.0
 45
547.1684824903
 50
0.0
 51
0.0
 72
   100
 90
   557152
  1

281
     0
 71
     1
 74
     0
110
0.0
120
0.0
130
0.0
111
1.0
121
0.0
131
0.0
112
0.0
122
1.0
132
0.0
 79
     0
146
0.0
  0
ENDBLK
  5
30B
330
308
100
AcDbEntity
  8
0
100
AcDbBlockEnd
  0
BLOCK
  5
3B0
330
3AE
100
AcDbEntity
  8
0
100
AcDbBlockBegin
  2
*Paper_Space2
 70
     0
 10
0.0
 20
0.0
 30
0.0
  3
*Paper_Space2
  1

  0
LINE
  5
474
330
3AE
100
AcDbEntity
  8
0
  6
Continuous
 62
     7
370
    25
100
AcDbLine
 10
99.6413959755
 20
-228.3897711822
 30
0.0
 11
99.6413959755
 21
-17.7222417157
 31
0.0
  0
LINE
  5
475
330
3AE
100
AcDbEntity
  8
0
  6
Continuous
 62
     7
370
    25
100
AcDbLine
 10
99.1413553418
 20
-16.8561928533
 30
0.0
 11
97.8126716624
 21
-16.0891600919
 31
0.0
  0
LINE
  5
476
330
3AE
100
AcDbEntity
  8
0
  6
Continuous
 62
     7
370
    25
100
AcDbLine
 10
87.1205400617
 20
-236.1952889951
 30
0.0
 11
99.1413553418
 21
-229.2558200446
 31
0.0
  0
LINE
  5
477
330
3AE
100
AcDbEntity
  8
0
  6
Continuous
 62
     7
370
    25
100
AcDbLine
 10
-412.3896594075
 20
51.5885704224
 30
0.0
 11
86.120621329
 21
-236.1952889951
 31
0.0
  0
LINE
  5
478
330
3AE
100
AcDbEntity
  8
0
  6
Continuous
 62
     7
370
    25
100
AcDbLine
 10
-412.8897000412
 20
263.1221487513
 30
0.0
 11
-412.8897000412
 21
52.4546192848
 31
0.0
  0
LINE
  5
479
330
3AE
100
AcDbEntity
  8
0
  6
Continuous
 62
     7
370
    25
100
AcDbLine
 10
-411.060975728
 20
264.7552303751
 30
0.0
 11
-412.3896594075
 21
263.9881976137
 31
0.0
  0
LINE
  5
47A
330
3AE
100
AcDbEntity
  8
0
  6
Continuous
 62
     7
370
    25
100
AcDbLine
 10
87.0347942577
 20
168.0395323377
 30
0.0
 11
87.0347942577
 21
166.5055914635
 31
0.0
  0
LINE
  5
47B
330
3AE
100
AcDbEntity
  8
0
  6
Continuous
 62
     7
370
    25
100
AcDbLine
 10
387.3481101145
 20
341.9841009065
 30
0.0
 11
87.5348348914
 21
168.9055812001
 31
0.0
  0
LINE
  5
47C
330
3AE
100
AcDbEntity
  8
0
  6
Continuous
 62
     7
370
    25
100
AcDbLine
 10
400.868884761
 20
-56.1279249877
 30
0.0
 11
400.868884761
 21
334.1785830936
 31
0.0
  0
LINE
  5
47D
330
3AE
100
AcDbEntity
  8
0
  6
Continuous
 62
     7
370
    25
100
AcDbLine
 10
400.3688441273
 20
335.044631956
 30
0.0
 11
388.3480288471
 21
341.9841009065
 31
0.0
  0
LINE
  5
47E
330
3AE
100
AcDbEntity
  8
0
  6
Continuous
 62
     7
370
    25
100
AcDbLine
 10
100.5555689042
 20
-230.0724935565
 30
0.0
 11
400.3688441273
 21
-56.9939738501
 31
0.0
  0
LINE
  5
47F
330
3AE
100
AcDbEntity
  8
0
  6
Continuous
 62
     7
370
    25
100
AcDbLine
 10
98.6411661074
 20
-229.5445731434
 30
0.0
 11
99.5556501716
 21
-230.0724935565
 31
0.0
  0
LINE
  5
480
330
3AE
100
AcDbEntity
  8
0
  6
Continuous
 62
     7
370
    25
100
AcDbLine
 10
-399.4546711986
 20
448.8839228047
 30
0.0
 11
-399.4546711986
 21
447.3446127903
 31
0.0
  0
LINE
  5
481
330
3AE
100
AcDbEntity
  8
0
  6
Continuous
 62
     7
370
    25
100
AcDbLine
 10
-99.1413553418
 20
622.8284913735
 30
0.0
 11
-398.9546305649
 21
449.7499716671
 31
0.0
  0
LINE
  5
482
330
3AE
100
AcDbEntity
  8
0
  6
Continuous
 62
     7
370
    25
100
AcDbLine
 10
-85.6205806954
 20
489.1126427269
 30
0.0
 11
-85.6205806954
 21
615.0229735607
 31
0.0
  0
LINE
  5
483
330
3AE
100
AcDbEntity
  8
0
  6
Continuous
 62
     7
370
    25
100
AcDbLine
 10
-86.120621329
 20
615.889022423
 30
0.0
 11
-98.1414366092
 21
622.8284913735
 31
0.0
  0
LINE
  5
484
330
3AE
100
AcDbEntity
  8
0
  6
Continuous
 62
     7
370
    25
100
AcDbLine
 10
99.6413959755
 20
-14.4560784681
 30
0.0
 11
99.6413959755
 21
158.6505736516
 31
0.0
  0
LINE
  5
485
330
3AE
100
AcDbEntity
  8
0
  6
Continuous
 62
     7
370
    25
100
AcDbLine
 10
99.1413553418
 20
159.516622514
 30
0.0
 11
-399.3689253947
 21
447.3004819315
 31
0.0
  0
LINE
  5
486
330
3AE
100
AcDbEntity
  8
0
  6
Continuous
 62
     7
370
    25
100
AcDbLine
 10
87.1205400617
 20
-22.261596281
 30
0.0
 11
99.1413553418
 21
-15.3221273305
 31
0.0
  0
LINE
  5
487
330
3AE
100
AcDbEntity
  8
0
  6
Continuous
 62
     7
370
    25
100
AcDbLine
 10
-412.3896594075
 20
265.5222631365
 30
0.0
 11
86.120621329
 21
-22.261596281
 31
0.0
  0
LINE
  5
488
330
3AE
100
AcDbEntity
  8
0
  6
Continuous
 62
     7
370
    25
100
AcDbLine
 10
-412.8897000412
 20
439.4949641186
 30
0.0
 11
-412.8897000412
 21
266.3883119989
 31
0.0
  0
LINE
  5
489
330
3AE
100
AcDbEntity
  8
0
  6
Continuous
 62
     7
370
    25
100
AcDbLine
 10
-400.3688441273
 20
447.3004819315
 30
0.0
 11
-412.3896594075
 21
440.361012981
 31
0.0
  0
LINE
  5
48A
330
3AE
100
AcDbEntity
  8
0
  6
Continuous
 62
     7
370
    25
100
AcDbLine
 10
85.9134739142
 20
-235.7374441886
 30
0.0
 11
85.9134739142
 21
-25.0699147221
 31
0.0
  0
LINE
  5
48B
330
3AE
100
AcDbEntity
  8
0
  6
Continuous
 62
     7
370
    25
100
AcDbLine
 10
87.3276874765
 20
-25.0699147221
 30
0.0
 11
87.3276874765
 21
-235.7374441886
 31
0.0
  0
LINE
  5
48C
330
3AE
100
AcDbEntity
  8
0
  6
Continuous
 62
     7
370
    25
100
AcDbLine
 10
85.9134739142
 20
-25.0699147221
 30
0.0
 11
-412.5968068224
 21
262.7139446954
 31
0.0
  0
LINE
  5
48D
330
3AE
100
AcDbEntity
  8
0
  6
Continuous
 62
     7
370
    25
100
AcDbLine
 10
-411.8897000412
 20
263.9386895632
 30
0.0
 11
86.6205806954
 21
-23.8451698543
 31
0.0
  0
LINE
  5
48E
330
3AE
100
AcDbEntity
  8
0
  6
Continuous
 62
     7
370
    25
100
AcDbLine
 10
86.6205806954
 20
-23.8451698543
 30
0.0
 11
98.6413959755
 21
-16.9057009038
 31
0.0
  0
LINE
  5
48F
330
3AE
100
AcDbEntity
  8
0
  6
Continuous
 62
     7
370
    25
100
AcDbLine
 10
99.3485027567
 20
-18.1304457716
 30
0.0
 11
87.3276874765
 21
-25.0699147221
 31
0.0
  0
LINE
  5
490
330
3AE
100
AcDbEntity
  8
0
  6
Continuous
 62
     7
370
    25
100
AcDbLine
 10
99.3485027567
 20
-228.7979752381
 30
0.0
 11
99.3485027567
 21
-18.1304457716
 31
0.0
  0
LINE
  5
491
330
3AE
100
AcDbEntity
  8
0
  6
Continuous
 62
     7
370
    25
100
AcDbLine
 10
87.3276874765
 20
-235.7374441886
 30
0.0
 11
99.3485027567
 21
-228.7979752381
 31
0.0
  0
LINE
  5
492
330
3AE
100
AcDbEntity
  8
0
  6
Continuous
 62
     7
370
    25
100
AcDbLine
 10
-412.5968068224
 20
52.0464152289
 30
0.0
 11
85.9134739142
 21
-235.7374441886
 31
0.0
  0
LINE
  5
493
330
3AE
100
AcDbEntity
  8
0
  6
Continuous
 62
     7
370
    25
100
AcDbLine
 10
-412.5968068224
 20
262.7139446954
 30
0.0
 11
-412.5968068224
 21
52.0464152289
 31
0.0
  0
LINE
  5
494
330
3AE
100
AcDbEntity
  8
0
  6
Continuous
 62
     7
370
    25
100
AcDbLine
 10
100.7627163191
 20
160.6918593313
 30
0.0
 11
100.7627163191
 21
-229.6146487501
 31
0.0
  0
LINE
  5
495
330
3AE
100
AcDbEntity
  8
0
  6
Continuous
 62
     7
370
    25
100
AcDbLine
 10
100.0556095379
 20
161.9166041991
 30
0.0
 11
399.868884761
 21
334.9951239055
 31
0.0
  0
LINE
  5
496
330
3AE
100
AcDbEntity
  8
0
  6
Continuous
 62
     7
370
    25
100
AcDbLine
 10
400.5759915422
 20
333.7703790377
 30
0.0
 11
100.7627163191
 21
160.6918593313
 31
0.0
  0
LINE
  5
497
330
3AE
100
AcDbEntity
  8
0
  6
Continuous
 62
     7
370
    25
100
AcDbLine
 10
99.3485027567
 20
160.6918593313
 30
0.0
 11
87.3276874765
 21
167.6313282818
 31
0.0
  0
LINE
  5
498
330
3AE
100
AcDbEntity
  8
0
  6
Continuous
 62
     7
370
    25
100
AcDbLine
 10
88.0347942577
 20
168.8560731496
 30
0.0
 11
100.0556095379
 21
161.9166041991
 31
0.0
  0
LINE
  5
499
330
3AE
100
AcDbEntity
  8
0
  6
Continuous
 62
     7
370
    25
100
AcDbLine
 10
400.5759915422
 20
-56.5361290437
 30
0.0
 11
400.5759915422
 21
333.7703790377
 31
0.0
  0
LINE
  5
49A
330
3AE
100
AcDbEntity
  8
0
  6
Continuous
 62
     7
370
    25
100
AcDbLine
 10
100.7627163191
 20
-229.6146487501
 30
0.0
 11
400.5759915422
 21
-56.5361290437
 31
0.0
  0
LINE
  5
49B
330
3AE
100
AcDbEntity
  8
0
  6
Continuous
 62
     7
370
    25
100
AcDbLine
 10
387.8480694808
 20
341.934592856
 30
0.0
 11
88.0347942577
 21
168.8560731496
 31
0.0
  0
LINE
  5
49C
330
3AE
100
AcDbEntity
  8
0
  6
Continuous
 62
     7
370
    25
100
AcDbLine
 10
399.868884761
 20
334.9951239055
 30
0.0
 11
387.8480694808
 21
341.934592856
 31
0.0
  0
LINE
  5
49D
330
3AE
100
AcDbEntity
  8
0
  6
Continuous
 62
     7
370
    25
100
AcDbLine
 10
-104.298250225
 20
435.7987013048
 30
0.0
 11
9.5387581661
 21
370.08199518
 31
0.0
  0
LINE
  5
49E
330
3AE
100
AcDbEntity
  8
0
  6
Continuous
 62
     7
370
    25
100
AcDbLine
 10
161.2203461105
 20
282.5180783101
 30
0.0
 11
36.7893212833
 21
210.6855766751
 31
0.0
  0
LINE
  5
49F
330
3AE
100
AcDbEntity
  8
0
  6
Continuous
 62
     7
370
    25
100
AcDbLine
 10
161.2203461105
 20
282.5180783101
 30
0.0
 11
222.7795612441
 21
246.9806998479
 31
0.0
  0
LINE
  5
4A0
330
3AE
100
AcDbEntity
  8
0
  6
Continuous
 62
     7
370
    25
100
AcDbLine
 10
-228.7292750523
 20
363.9661996698
 30
0.0
 11
-104.298250225
 21
435.7987013048
 31
0.0
  0
LINE
  5
4A1
330
3AE
100
AcDbEntity
  8
0
  6
Continuous
 62
     7
370
    25
100
AcDbLine
 10
-104.298250225
 20
499.8950318368
 30
0.0
 11
76.3675323681
 21
395.5988955515
 31
0.0
  0
LINE
  5
4A2
330
3AE
100
AcDbEntity
  8
0
  6
Continuous
 62
     7
370
    25
100
AcDbLine
 10
-92.984541726
 20
493.3637669422
 30
0.0
 11
-272.9306322564
 21
389.4831000412
 31
0.0
  0
LINE
  5
4A3
330
3AE
100
AcDbEntity
  8
0
  6
Continuous
 62
     7
370
    25
100
AcDbLine
 10
-104.298250225
 20
499.8950318368
 30
0.0
 11
-284.2443407553
 21
396.0143649358
 31
0.0
  0
LINE
  5
4A4
330
3AE
100
AcDbEntity
  8
0
  6
Continuous
 62
     7
370
    25
100
AcDbLine
 10
149.9066376115
 20
340.0831439475
 30
0.0
 11
266.9809184482
 21
272.4976002193
 31
0.0
  0
LINE
  5
4A5
330
3AE
100
AcDbEntity
  8
0
  6
Continuous
 62
     7
370
    25
100
AcDbLine
 10
161.2203461105
 20
346.6144088421
 30
0.0
 11
-1.4142135624
 21
252.7274759825
 31
0.0
  0
LINE
  5
4A6
330
3AE
100
AcDbEntity
  8
0
  6
Continuous
 62
     7
370
    25
100
AcDbLine
 10
161.2203461105
 20
346.6144088421
 30
0.0
 11
278.2946269471
 21
279.0288651139
 31
0.0
  0
LINE
  5
4A7
330
3AE
100
AcDbEntity
  8
0
  6
Continuous
 62
     7
370
    25
100
AcDbLine
 10
-38.883172382
 20
264.967626157
 30
0.0
 11
76.3675323681
 21
331.5004418184
 31
0.0
  0
LINE
  5
4A8
330
3AE
100
AcDbEntity
  8
0
  6
Continuous
 62
     7
370
    25
100
AcDbLine
 10
65.0538238692
 20
324.9691769238
 30
0.0
 11
65.0538238692
 21
389.0676306569
 31
0.0
  0
LINE
  5
4A9
330
3AE
100
AcDbEntity
  8
0
  6
Continuous
 62
     7
370
    25
100
AcDbLine
 10
76.3675323681
 20
395.5988955515
 30
0.0
 11
-86.2670273048
 21
301.7119626918
 31
0.0
  0
LINE
  5
4AA
330
3AE
100
AcDbEntity
  8
0
  6
Continuous
 62
     7
370
    25
100
AcDbLine
 10
76.3675323681
 20
331.5004418184
 30
0.0
 11
76.3675323681
 21
395.5988955515
 31
0.0
  0
LINE
  5
4AB
330
3AE
100
AcDbEntity
  8
0
  6
Continuous
 62
     7
370
    25
100
AcDbLine
 10
-104.298250225
 20
486.8325020476
 30
0.0
 11
65.0538238692
 21
389.0676306569
 31
0.0
  0
LINE
  5
4AC
330
3AE
100
AcDbEntity
  8
0
  6
Continuous
 62
     7
370
    25
100
AcDbLine
 10
-104.298250225
 20
435.7987013048
 30
0.0
 11
-104.298250225
 21
486.8325020476
 31
0.0
  0
LINE
  5
4AD
330
3AE
100
AcDbEntity
  8
0
  6
Continuous
 62
     7
370
    25
100
AcDbLine
 10
-386.4338559184
 20
442.7609946661
 30
0.0
 11
-86.6205806954
 21
615.8395143725
 31
0.0
  0
LINE
  5
4AE
330
3AE
100
AcDbEntity
  8
0
  6
Continuous
 62
     7
370
    25
100
AcDbLine
 10
-398.4546711986
 20
449.7004636166
 30
0.0
 11
-386.4338559184
 21
442.7609946661
 31
0.0
  0
LINE
  5
4AF
330
3AE
100
AcDbEntity
  8
0
  6
Continuous
 62
     7
370
    25
100
AcDbLine
 10
-387.1409626996
 20
441.5362497983
 30
0.0
 11
-399.1617779798
 21
448.4757187488
 31
0.0
  0
LINE
  5
4B0
330
3AE
100
AcDbEntity
  8
0
  6
Continuous
 62
     7
370
    25
100
AcDbLine
 10
-98.6413959755
 20
622.778983323
 30
0.0
 11
-398.4546711986
 21
449.7004636166
 31
0.0
  0
LINE
  5
4B1
330
3AE
100
AcDbEntity
  8
0
  6
Continuous
 62
     7
370
    25
100
AcDbLine
 10
-86.6205806954
 20
615.8395143725
 30
0.0
 11
-98.6413959755
 21
622.778983323
 31
0.0
  0
LINE
  5
4B2
330
3AE
100
AcDbEntity
  8
0
  6
Continuous
 62
     7
370
    25
100
AcDbLine
 10
86.6205806954
 20
168.8560731496
 30
0.0
 11
97.9342891943
 21
175.3873380442
 31
0.0
  0
LINE
  5
4B3
330
3AE
100
AcDbEntity
  8
0
  6
Continuous
 62
     7
370
    25
100
AcDbLine
 10
86.6205806954
 20
168.8560731496
 30
0.0
 11
-386.4338559184
 21
441.9445865543
 31
0.0
  0
LINE
  5
4B4
330
3AE
100
AcDbEntity
  8
0
  6
Continuous
 62
     7
370
    25
100
AcDbLine
 10
-386.4338559184
 20
441.9445865543
 30
0.0
 11
-375.1201474195
 21
448.4758514489
 31
0.0
  0
LINE
  5
4B5
330
3AE
100
AcDbEntity
  8
0
  6
Continuous
 62
     7
370
    25
100
AcDbLine
 10
97.9342891943
 20
175.3873380442
 30
0.0
 11
-375.1201474195
 21
448.4758514489
 31
0.0
  0
LINE
  5
4B6
330
3AE
100
AcDbEntity
  8
0
  6
Continuous
 62
     7
370
    25
100
AcDbLine
 10
-386.4338559184
 20
441.9445865543
 30
0.0
 11
-386.4338559184
 21
439.8332252679
 31
0.0
  0
LINE
  5
4B7
330
3AE
100
AcDbEntity
  8
0
  6
Continuous
 62
     7
370
    25
100
AcDbLine
 10
86.6205806954
 20
166.7447118632
 30
0.0
 11
86.6205806954
 21
168.8560731496
 31
0.0
  0
LINE
  5
4B8
330
3AE
100
AcDbEntity
  8
0
  6
Continuous
 62
     7
370
    25
100
AcDbLine
 10
97.9342891943
 20
174.9090583816
 30
0.0
 11
97.9342891943
 21
175.3873380442
 31
0.0
  0
LINE
  5
4B9
330
3AE
100
AcDbEntity
  8
0
  6
Continuous
 62
     7
370
    25
100
AcDbLine
 10
-1.4142135624
 20
247.3833354878
 30
0.0
 11
-35.3787856114
 21
266.990665578
 31
0.0
  0
LINE
  5
4BA
330
3AE
100
AcDbEntity
  8
0
  6
Continuous
 62
     7
370
    25
100
AcDbLine
 10
0.7210138047
 20
231.5073673782
 30
0.0
 11
9.8994949366
 21
236.8059917512
 31
0.0
  0
LINE
  5
4BB
330
3AE
100
AcDbEntity
  8
0
  6
Continuous
 62
     7
370
    25
100
AcDbLine
 10
-106.7592169356
 20
293.5543838767
 30
0.0
 11
-97.5807358037
 21
298.8530082497
 31
0.0
  0
LINE
  5
4BC
330
3AE
100
AcDbEntity
  8
0
  6
Continuous
 62
     7
370
    25
100
AcDbLine
 10
9.8994949366
 20
236.8059917512
 30
0.0
 11
-97.5807358037
 21
298.8530082497
 31
0.0
  0
LINE
  5
4BD
330
3AE
100
AcDbEntity
  8
0
  6
Continuous
 62
     7
370
    25
100
AcDbLine
 10
9.8994949366
 20
246.1962110879
 30
0.0
 11
9.8994949366
 21
226.2087430051
 31
0.0
  0
LINE
  5
4BE
330
3AE
100
AcDbEntity
  8
0
  6
Continuous
 62
     7
370
    25
100
AcDbLine
 10
87.3276874765
 20
151.3029006452
 30
0.0
 11
87.3276874765
 21
-21.8037514746
 31
0.0
  0
LINE
  5
4BF
330
3AE
100
AcDbEntity
  8
0
  6
Continuous
 62
     7
370
    25
100
AcDbLine
 10
85.9134739142
 20
-21.8037514746
 30
0.0
 11
85.9134739142
 21
151.3029006452
 31
0.0
  0
LINE
  5
4C0
330
3AE
100
AcDbEntity
  8
0
  6
Continuous
 62
     7
370
    25
100
AcDbLine
 10
99.3485027567
 20
158.2423695957
 30
0.0
 11
87.3276874765
 21
151.3029006452
 31
0.0
  0
LINE
  5
4C1
330
3AE
100
AcDbEntity
  8
0
  6
Continuous
 62
     7
370
    25
100
AcDbLine
 10
86.6205806954
 20
152.527645513
 30
0.0
 11
98.6413959755
 21
159.4671144635
 31
0.0
  0
LINE
  5
4C2
330
3AE
100
AcDbEntity
  8
0
  6
Continuous
 62
     7
370
    25
100
AcDbLine
 10
85.9134739142
 20
151.3029006452
 30
0.0
 11
-412.5968068224
 21
439.0867600627
 31
0.0
  0
LINE
  5
4C3
330
3AE
100
AcDbEntity
  8
0
  6
Continuous
 62
     7
370
    25
100
AcDbLine
 10
-411.8897000412
 20
440.3115049305
 30
0.0
 11
86.6205806954
 21
152.527645513
 31
0.0
  0
LINE
  5
4C4
330
3AE
100
AcDbEntity
  8
0
  6
Continuous
 62
     7
370
    25
100
AcDbLine
 10
99.3485027567
 20
-14.8642825241
 30
0.0
 11
99.3485027567
 21
158.2423695957
 31
0.0
  0
LINE
  5
4C5
330
3AE
100
AcDbEntity
  8
0
  6
Continuous
 62
     7
370
    25
100
AcDbLine
 10
87.3276874765
 20
-21.8037514746
 30
0.0
 11
99.3485027567
 21
-14.8642825241
 31
0.0
  0
LINE
  5
4C6
330
3AE
100
AcDbEntity
  8
0
  6
Continuous
 62
     7
370
    25
100
AcDbLine
 10
-412.5968068224
 20
265.980107943
 30
0.0
 11
85.9134739142
 21
-21.8037514746
 31
0.0
  0
LINE
  5
4C7
330
3AE
100
AcDbEntity
  8
0
  6
Continuous
 62
     7
370
    25
100
AcDbLine
 10
-412.5968068224
 20
439.0867600627
 30
0.0
 11
-412.5968068224
 21
265.980107943
 31
0.0
  0
LINE
  5
4C8
330
3AE
100
AcDbEntity
  8
0
  6
Continuous
 62
     7
370
    25
100
AcDbLine
 10
98.6413959755
 20
159.4671144635
 30
0.0
 11
-399.868884761
 21
447.250973881
 31
0.0
  0
LINE
  5
4C9
330
3AE
100
AcDbEntity
  8
0
  6
Continuous
 62
     7
370
    25
100
AcDbLine
 10
-399.868884761
 20
447.250973881
 30
0.0
 11
-411.8897000412
 21
440.3115049305
 31
0.0
  0
LINE
  5
4CA
330
3AE
100
AcDbEntity
  8
0
  6
Continuous
 62
     7
370
    25
100
AcDbLine
 10
161.2203461105
 20
333.5518790529
 30
0.0
 11
9.8994949366
 21
246.1962110879
 31
0.0
  0
LINE
  5
4CB
330
3AE
100
AcDbEntity
  8
0
  6
Continuous
 62
     7
370
    25
100
AcDbLine
 10
9.8994949366
 20
246.1962110879
 30
0.0
 11
-1.4142135624
 21
252.7274759825
 31
0.0
  0
LINE
  5
4CC
330
3AE
100
AcDbEntity
  8
0
  6
Continuous
 62
     7
370
    25
100
AcDbLine
 10
-1.4142135624
 20
252.7274759825
 30
0.0
 11
-1.4142135624
 21
243.3372566458
 31
0.0
  0
LINE
  5
4CD
330
3AE
100
AcDbEntity
  8
0
  6
Continuous
 62
     7
370
    25
100
AcDbLine
 10
161.2203461105
 20
282.5180783101
 30
0.0
 11
161.2203461105
 21
333.5518790529
 31
0.0
  0
LINE
  5
4CE
330
3AE
100
AcDbEntity
  8
0
  6
Continuous
 62
     7
370
    25
100
AcDbLine
 10
-86.2670273048
 20
301.7119626918
 30
0.0
 11
-86.2670273048
 21
292.3217433552
 31
0.0
  0
LINE
  5
4CF
330
3AE
100
AcDbEntity
  8
0
  6
Continuous
 62
     7
370
    25
100
AcDbLine
 10
-86.2670273048
 20
301.7119626918
 30
0.0
 11
-97.5807358037
 21
308.2432275864
 31
0.0
  0
LINE
  5
4D0
330
3AE
100
AcDbEntity
  8
0
  6
Continuous
 62
     7
370
    25
100
AcDbLine
 10
-97.5807358037
 20
308.2432275864
 30
0.0
 11
-97.5807358037
 21
298.8530082497
 31
0.0
  0
LINE
  5
4D1
330
3AE
100
AcDbEntity
  8
0
  6
Continuous
 62
     7
370
    25
100
AcDbLine
 10
53.7401153702
 20
395.5988955515
 30
0.0
 11
-97.5807358037
 21
308.2432275864
 31
0.0
  0
LINE
  5
4D2
330
3AE
100
AcDbEntity
  8
0
  6
Continuous
 62
     8
370
    25
100
AcDbLine
 10
-410.7681161693
 20
264.5861661505
 30
0.0
 11
-411.8897000412
 21
263.9386895632
 31
0.0
  0
LINE
  5
4D3
330
3AE
100
AcDbEntity
  8
0
  6
Continuous
 62
     8
370
    25
100
AcDbLine
 10
98.6413959755
 20
-16.9057009038
 30
0.0
 11
97.5198121037
 21
-16.2582243165
 31
0.0
  0
LINE
  5
4D4
330
3AE
100
AcDbEntity
  8
0
  6
Continuous
 62
     8
370
    25
100
AcDbLine
 10
99.3485027567
 20
-229.6146487501
 30
0.0
 11
99.3485027567
 21
-229.0968779634
 31
0.0
  0
LINE
  5
4D5
330
3AE
100
AcDbEntity
  8
0
  6
Continuous
 62
     8
370
    25
100
AcDbLine
 10
99.3485027567
 20
-17.0151349345
 30
0.0
 11
99.3485027567
 21
-15.1631852493
 31
0.0
  0
LINE
  5
4D6
330
3AE
100
AcDbEntity
  8
0
  6
Continuous
 62
     8
370
    25
100
AcDbLine
 10
99.3485027567
 20
159.3576804328
 30
0.0
 11
99.3485027567
 21
160.6918593313
 31
0.0
  0
LINE
  5
4D7
330
3AE
100
AcDbEntity
  8
0
  6
Continuous
 62
     8
370
    25
100
AcDbLine
 10
98.9341406001
 20
-229.3754425687
 30
0.0
 11
99.3485027567
 21
-229.6146487501
 31
0.0
  0
LINE
  5
4D8
330
3AE
100
AcDbEntity
  8
0
  6
Continuous
 62
     8
370
    25
100
AcDbLine
 10
87.3276874765
 20
167.6313282818
 30
0.0
 11
87.3276874765
 21
166.3365078073
 31
0.0
  0
LINE
  5
4D9
330
3AE
100
AcDbEntity
  8
0
  6
Continuous
 62
     8
370
    25
100
AcDbLine
 10
-387.1409626996
 20
440.2414293238
 30
0.0
 11
-387.1409626996
 21
441.5362497983
 31
0.0
  0
LINE
  5
4DA
330
3AE
100
AcDbEntity
  8
0
  6
Continuous
 62
     8
370
    25
100
AcDbLine
 10
-85.9134739142
 20
614.6147695047
 30
0.0
 11
-374.4129257042
 21
448.0675810429
 31
0.0
  0
LINE
  5
4DB
330
3AE
100
AcDbEntity
  8
0
  6
Continuous
 62
     8
370
    25
100
AcDbLine
 10
-85.9134739142
 20
489.2817263831
 30
0.0
 11
-85.9134739142
 21
614.6147695047
 31
0.0
  0
LINE
  5
4DC
330
3AE
100
AcDbEntity
  8
0
  6
Continuous
 62
     8
370
    25
100
AcDbLine
 10
-399.1617779798
 20
448.4757187488
 30
0.0
 11
-399.1617779798
 21
447.1808982743
 31
0.0
  0
ARC
  5
4DD
330
3AE
100
AcDbEntity
  8
0
  6
Continuous
 62
     7
370
    25
100
AcDbCircle
 10
98.6413959755
 20
-17.7222417157
 30
0.0
 40
0.9999999999995766
100
AcDbArc
 50
360.0
 51
60.0026882664
  0
ARC
  5
4DE
330
3AE
100
AcDbEntity
  8
0
  6
Continuous
 62
     7
370
    25
100
AcDbCircle
 10
86.6205806954
 20
-235.3292401327
 30
0.0
 40
1.000000000000482
100
AcDbArc
 50
240.0026882664
 51
299.9973117336
  0
ARC
  5
4DF
330
3AE
100
AcDbEntity
  8
0
  6
Continuous
 62
     7
370
    25
100
AcDbCircle
 10
98.6413959755
 20
-228.3897711822
 30
0.0
 40
1.000000000000057
100
AcDbArc
 50
299.9973117337
 51
0.0
  0
ARC
  5
4E0
330
3AE
100
AcDbEntity
  8
0
  6
Continuous
 62
     7
370
    25
100
AcDbCircle
 10
-411.8897000412
 20
263.1221487513
 30
0.0
 40
0.9999999999999432
100
AcDbArc
 50
119.9973117336
 51
180.0
  0
ARC
  5
4E1
330
3AE
100
AcDbEntity
  8
0
  6
Continuous
 62
     7
370
    25
100
AcDbCircle
 10
-411.8897000412
 20
52.4546192848
 30
0.0
 40
1.000000000000134
100
AcDbArc
 50
180.0
 51
240.0026882664
  0
ARC
  5
4E2
330
3AE
100
AcDbEntity
  8
0
  6
Continuous
 62
     7
370
    25
100
AcDbCircle
 10
88.0347942577
 20
168.0395323377
 30
0.0
 40
1.000000000000043
100
AcDbArc
 50
119.9973117336
 51
180.0
  0
ARC
  5
4E3
330
3AE
100
AcDbEntity
  8
0
  6
Continuous
 62
     7
370
    25
100
AcDbCircle
 10
399.868884761
 20
334.1785830936
 30
0.0
 40
1.000000000000171
100
AcDbArc
 50
0.0
 51
60.0026882663
  0
ARC
  5
4E4
330
3AE
100
AcDbEntity
  8
0
  6
Continuous
 62
     7
370
    25
100
AcDbCircle
 10
387.8480694808
 20
341.1180520441
 30
0.0
 40
1.000000000000577
100
AcDbArc
 50
60.0026882664
 51
119.9973117336
  0
ARC
  5
4E5
330
3AE
100
AcDbEntity
  8
0
  6
Continuous
 62
     7
370
    25
100
AcDbCircle
 10
100.0556095379
 20
-229.2064446942
 30
0.0
 40
0.999999999999494
100
AcDbArc
 50
240.0026882663
 51
299.9973117337
  0
ARC
  5
4E6
330
3AE
100
AcDbEntity
  8
0
  6
Continuous
 62
     7
370
    25
100
AcDbCircle
 10
399.868884761
 20
-56.1279249877
 30
0.0
 40
1.000000000000274
100
AcDbArc
 50
299.9973117337
 51
360.0
  0
ARC
  5
4E7
330
3AE
100
AcDbEntity
  8
0
  6
Continuous
 62
     7
370
    25
100
AcDbCircle
 10
-398.4546711986
 20
448.8839228047
 30
0.0
 40
1.000000000000057
100
AcDbArc
 50
119.9973117337
 51
180.0
  0
ARC
  5
4E8
330
3AE
100
AcDbEntity
  8
0
  6
Continuous
 62
     7
370
    25
100
AcDbCircle
 10
-86.6205806954
 20
615.0229735607
 30
0.0
 40
0.9999999999998153
100
AcDbArc
 50
0.0
 51
60.0026882664
  0
ARC
  5
4E9
330
3AE
100
AcDbEntity
  8
0
  6
Continuous
 62
     7
370
    25
100
AcDbCircle
 10
-98.6413959755
 20
621.9624425111
 30
0.0
 40
0.9999999999998173
100
AcDbArc
 50
60.0026882663
 51
119.9973117337
  0
ARC
  5
4EA
330
3AE
100
AcDbEntity
  8
0
  6
Continuous
 62
     7
370
    25
100
AcDbCircle
 10
98.6413959755
 20
158.6505736516
 30
0.0
 40
0.9999999999997584
100
AcDbArc
 50
360.0
 51
60.0026882664
  0
ARC
  5
4EB
330
3AE
100
AcDbEntity
  8
0
  6
Continuous
 62
     7
370
    25
100
AcDbCircle
 10
86.6205806954
 20
-21.3955474186
 30
0.0
 40
1.000000000000278
100
AcDbArc
 50
240.0026882664
 51
299.9973117336
  0
ARC
  5
4EC
330
3AE
100
AcDbEntity
  8
0
  6
Continuous
 62
     7
370
    25
100
AcDbCircle
 10
98.6413959755
 20
-14.4560784681
 30
0.0
 40
1.000000000000089
100
AcDbArc
 50
299.9973117337
 51
360.0
  0
ARC
  5
4ED
330
3AE
100
AcDbEntity
  8
0
  6
Continuous
 62
     7
370
    25
100
AcDbCircle
 10
-411.8897000412
 20
439.4949641186
 30
0.0
 40
0.9999999999999578
100
AcDbArc
 50
119.9973117337
 51
180.0
  0
ARC
  5
4EE
330
3AE
100
AcDbEntity
  8
0
  6
Continuous
 62
     7
370
    25
100
AcDbCircle
 10
-399.868884761
 20
446.4344330691
 30
0.0
 40
1.000000000000408
100
AcDbArc
 50
60.0026882664
 51
119.9973117336
  0
ARC
  5
4EF
330
3AE
100
AcDbEntity
  8
0
  6
Continuous
 62
     7
370
    25
100
AcDbCircle
 10
-411.8897000412
 20
266.3883119989
 30
0.0
 40
0.9999999999998295
100
AcDbArc
 50
180.0
 51
240.0026882664
  0
ARC
  5
4F0
330
3AE
100
AcDbEntity
  8
0
  6
Continuous
 62
     7
370
    25
100
AcDbCircle
 10
85.7924713752
 20
-25.1397755744
 30
0.0
 40
1.536804807571954
100
AcDbArc
 50
2.6054784857
 51
57.39452166
  0
ARC
  5
4F1
330
3AE
100
AcDbEntity
  8
0
  6
Continuous
 62
     7
370
    25
100
AcDbCircle
 10
86.6205806954
 20
-23.7052036371
 30
0.0
 40
1.537021907911825
100
AcDbArc
 50
242.6096722366
 51
297.3903277634
  0
ARC
  5
4F2
330
3AE
100
AcDbEntity
  8
0
  6
Continuous
 62
     7
370
    25
100
AcDbCircle
 10
87.4486900155
 20
-25.1397755744
 30
0.0
 40
1.536804807572203
100
AcDbArc
 50
122.60547834
 51
177.3945215143
  0
ARC
  5
4F3
330
3AE
100
AcDbEntity
  8
0
  6
Continuous
 62
     7
370
    25
100
AcDbCircle
 10
86.6205806954
 20
-234.3727331037
 30
0.0
 40
1.53702190791198
100
AcDbArc
 50
242.6096722366
 51
297.3903277634
  0
ARC
  5
4F4
330
3AE
100
AcDbEntity
  8
0
  6
Continuous
 62
     7
370
    25
100
AcDbCircle
 10
-411.061590721
 20
262.6440838432
 30
0.0
 40
1.536804807571944
100
AcDbArc
 50
122.60547834
 51
177.3945215144
  0
ARC
  5
4F5
330
3AE
100
AcDbEntity
  8
0
  6
Continuous
 62
     7
370
    25
100
AcDbCircle
 10
97.8132866553
 20
-18.2003066239
 30
0.0
 40
1.53680480757199
100
AcDbArc
 50
2.6054784857
 51
57.39452166
  0
ARC
  5
4F6
330
3AE
100
AcDbEntity
  8
0
  6
Continuous
 62
     7
370
    25
100
AcDbCircle
 10
100.8837188581
 20
160.6219984791
 30
0.0
 40
1.536804807572079
100
AcDbArc
 50
122.60547834
 51
177.3945215143
  0
ARC
  5
4F7
330
3AE
100
AcDbEntity
  8
0
  6
Continuous
 62
     7
370
    25
100
AcDbCircle
 10
99.2275002177
 20
160.6219984791
 30
0.0
 40
1.536804807571752
100
AcDbArc
 50
2.6054784856
 51
57.39452166
  0
ARC
  5
4F8
330
3AE
100
AcDbEntity
  8
0
  6
Continuous
 62
     7
370
    25
100
AcDbCircle
 10
100.0556095379
 20
162.0565704163
 30
0.0
 40
1.537021907911531
100
AcDbArc
 50
242.6096722366
 51
297.3903277634
  0
ARC
  5
4F9
330
3AE
100
AcDbEntity
  8
0
  6
Continuous
 62
     7
370
    25
100
AcDbCircle
 10
100.0556095379
 20
-228.2499376651
 30
0.0
 40
1.537021907911809
100
AcDbArc
 50
242.6096722366
 51
297.3903277634
  0
ARC
  5
4FA
330
3AE
100
AcDbEntity
  8
0
  6
Continuous
 62
     7
370
    25
100
AcDbCircle
 10
399.0407754408
 20
333.7005181855
 30
0.0
 40
1.536804807572351
100
AcDbArc
 50
2.6054784857
 51
57.39452166
  0
ARC
  5
4FB
330
3AE
100
AcDbEntity
  8
0
  6
Continuous
 62
     7
370
    25
100
AcDbCircle
 10
88.8629035779
 20
167.5614674295
 30
0.0
 40
1.536804807572024
100
AcDbArc
 50
122.60547834
 51
177.3945215143
  0
ARC
  5
4FC
330
3AE
100
AcDbEntity
  8
0
  6
Continuous
 62
     7
370
    25
100
AcDbCircle
 10
-385.6057465983
 20
441.4663889461
 30
0.0
 40
1.536804807571944
100
AcDbArc
 50
122.60547834
 51
177.3945215143
  0
ARC
  5
4FD
330
3AE
100
AcDbEntity
  8
0
  6
Continuous
 62
     7
370
    25
100
AcDbCircle
 10
-87.4486900155
 20
614.5449086525
 30
0.0
 40
1.536804807571565
100
AcDbArc
 50
2.6054784856
 51
57.39452166
  0
ARC
  5
4FE
330
3AE
100
AcDbEntity
  8
0
  6
Continuous
 62
     7
370
    25
100
AcDbCircle
 10
-397.6265618784
 20
448.4058578966
 30
0.0
 40
1.536804807571901
100
AcDbArc
 50
122.60547834
 51
177.3945215143
  0
ARC
  5
4FF
330
3AE
100
AcDbEntity
  8
0
  6
Continuous
 62
     7
370
    25
100
AcDbCircle
 10
86.6205806954
 20
152.6676117302
 30
0.0
 40
1.537021907911431
100
AcDbArc
 50
242.6096722366
 51
297.3903277634
  0
ARC
  5
500
330
3AE
100
AcDbEntity
  8
0
  6
Continuous
 62
     7
370
    25
100
AcDbCircle
 10
87.4486900155
 20
151.233039793
 30
0.0
 40
1.536804807572377
100
AcDbArc
 50
122.60547834
 51
177.3945215143
  0
ARC
  5
501
330
3AE
100
AcDbEntity
  8
0
  6
Continuous
 62
     7
370
    25
100
AcDbCircle
 10
85.7924713752
 20
151.233039793
 30
0.0
 40
1.536804807572274
100
AcDbArc
 50
2.6054784857
 51
57.39452166
  0
ARC
  5
502
330
3AE
100
AcDbEntity
  8
0
  6
Continuous
 62
     7
370
    25
100
AcDbCircle
 10
86.6205806954
 20
-20.4390403896
 30
0.0
 40
1.537021907911764
100
AcDbArc
 50
242.6096722366
 51
297.3903277634
  0
ARC
  5
503
330
3AE
100
AcDbEntity
  8
0
  6
Continuous
 62
     7
370
    25
100
AcDbCircle
 10
97.8132866553
 20
158.1725087435
 30
0.0
 40
1.536804807572202
100
AcDbArc
 50
2.6054784857
 51
57.39452166
  0
ARC
  5
504
330
3AE
100
AcDbEntity
  8
0
  6
Continuous
 62
     7
370
    25
100
AcDbCircle
 10
-411.061590721
 20
439.0168992105
 30
0.0
 40
1.536804807572538
100
AcDbArc
 50
122.60547834
 51
177.3945215143
  0
ARC
  5
505
330
3AE
100
AcDbEntity
  8
0
  6
Continuous
 62
     8
370
    25
100
AcDbCircle
 10
98.9343160304
 20
-17.3145822329
 30
0.0
 40
0.5029772359015907
100
AcDbArc
 50
65.6928809539
 51
125.6175774752
  0
ARC
  5
506
330
3AE
100
AcDbEntity
  8
0
  6
Continuous
 62
     8
370
    25
100
AcDbCircle
 10
99.140938913
 20
-17.6723353388
 30
0.0
 40
0.5029392784938798
100
AcDbArc
 50
294.3746582936
 51
354.3052007488
  0
ARC
  5
507
330
3AE
100
AcDbEntity
  8
0
  6
Continuous
 62
     8
370
    25
100
AcDbCircle
 10
99.140938913
 20
-228.3398648053
 30
0.0
 40
0.5029392784939459
100
AcDbArc
 50
294.3746582936
 51
354.3052007488
  0
ARC
  5
508
330
3AE
100
AcDbEntity
  8
0
  6
Continuous
 62
     8
370
    25
100
AcDbCircle
 10
86.4034758167
 20
-235.7915309259
 30
0.0
 40
0.4929779301757584
100
AcDbArc
 50
173.7011524935
 51
234.9866671131
  0
ARC
  5
509
330
3AE
100
AcDbEntity
  8
0
  6
Continuous
 62
     8
370
    25
100
AcDbCircle
 10
86.8520019204
 20
-235.7980082171
 30
0.0
 40
0.4795255466556575
100
AcDbArc
 50
304.0563508493
 51
7.2558295441
  0
ARC
  5
50A
330
3AE
100
AcDbEntity
  8
0
  6
Continuous
 62
     8
370
    25
100
AcDbCircle
 10
98.8728172009
 20
-228.8585392668
 30
0.0
 40
0.4795255463079989
100
AcDbArc
 50
304.0563508237
 51
7.2558295697
  0
ARC
  5
50B
330
3AE
100
AcDbEntity
  8
0
  6
Continuous
 62
     8
370
    25
100
AcDbCircle
 10
-412.1068049199
 20
51.9923284916
 30
0.0
 40
0.4929779300924564
100
AcDbArc
 50
173.7011524878
 51
234.9866671188
  0
ARC
  5
50C
330
3AE
100
AcDbEntity
  8
0
  6
Continuous
 62
     8
370
    25
100
AcDbCircle
 10
-412.182620096
 20
263.5298082341
 30
0.0
 40
0.5029772359017108
100
AcDbArc
 50
54.3824225248
 51
114.3071190461
  0
ARC
  5
50D
330
3AE
100
AcDbEntity
  8
0
  6
Continuous
 62
     8
370
    25
100
AcDbCircle
 10
-412.3892429787
 20
263.1720551282
 30
0.0
 40
0.5029392784942751
100
AcDbArc
 50
185.6947992512
 51
245.6253417064
  0
ARC
  5
50E
330
3AE
100
AcDbEntity
  8
0
  6
Continuous
 62
     8
370
    25
100
AcDbCircle
 10
-412.3892429787
 20
52.5045256617
 30
0.0
 40
0.50293927849377
100
AcDbArc
 50
185.6947992512
 51
245.6253417064
  0
ARC
  5
50F
330
3AE
100
AcDbEntity
  8
0
  6
Continuous
 62
     8
370
    25
100
AcDbCircle
 10
87.5352513202
 20
168.0894387146
 30
0.0
 40
0.5029392784939952
100
AcDbArc
 50
185.6947992512
 51
245.6253417064
  0
ARC
  5
510
330
3AE
100
AcDbEntity
  8
0
  6
Continuous
 62
     8
370
    25
100
AcDbCircle
 10
87.7418742029
 20
168.4471918205
 30
0.0
 40
0.5029772359015622
100
AcDbArc
 50
54.3824225248
 51
114.3071190461
  0
ARC
  5
511
330
3AE
100
AcDbEntity
  8
0
  6
Continuous
 62
     8
370
    25
100
AcDbCircle
 10
387.555149426
 20
341.5257115269
 30
0.0
 40
0.5029772359015129
100
AcDbArc
 50
54.3824225248
 51
114.3071190461
  0
ARC
  5
512
330
3AE
100
AcDbEntity
  8
0
  6
Continuous
 62
     8
370
    25
100
AcDbCircle
 10
400.3684276985
 20
334.2284894705
 30
0.0
 40
0.5029392784937021
100
AcDbArc
 50
294.3746582936
 51
354.3052007488
  0
ARC
  5
513
330
3AE
100
AcDbEntity
  8
0
  6
Continuous
 62
     8
370
    25
100
AcDbCircle
 10
400.1618048158
 20
334.5862425764
 30
0.0
 40
0.5029772359015229
100
AcDbArc
 50
65.6928809539
 51
125.6175774752
  0
ARC
  5
514
330
3AE
100
AcDbEntity
  8
0
  6
Continuous
 62
     8
370
    25
100
AcDbCircle
 10
400.3684276985
 20
-56.0780186108
 30
0.0
 40
0.5029392784938365
100
AcDbArc
 50
294.3746582936
 51
354.3052007488
  0
ARC
  5
515
330
3AE
100
AcDbEntity
  8
0
  6
Continuous
 62
     8
370
    25
100
AcDbCircle
 10
388.1409895357
 20
341.5257115269
 30
0.0
 40
0.5029772359016845
100
AcDbArc
 50
65.6928809539
 51
125.6175774752
  0
ARC
  5
516
330
3AE
100
AcDbEntity
  8
0
  6
Continuous
 62
     8
370
    25
100
AcDbCircle
 10
99.8385046592
 20
-229.6687354873
 30
0.0
 40
0.4929779301757584
100
AcDbArc
 50
173.7011524935
 51
234.9866671131
  0
ARC
  5
517
330
3AE
100
AcDbEntity
  8
0
  6
Continuous
 62
     8
370
    25
100
AcDbCircle
 10
100.2727144171
 20
-229.6687354876
 30
0.0
 40
0.4929779296664229
100
AcDbArc
 50
305.0133328518
 51
6.2988475415
  0
ARC
  5
518
330
3AE
100
AcDbEntity
  8
0
  6
Continuous
 62
     8
370
    25
100
AcDbCircle
 10
400.1003059864
 20
-56.5966930723
 30
0.0
 40
0.4795255462890545
100
AcDbArc
 50
304.0563508223
 51
7.2558295711
  0
ARC
  5
519
330
3AE
100
AcDbEntity
  8
0
  6
Continuous
 62
     8
370
    25
100
AcDbCircle
 10
-386.4626662566
 20
442.8097813626
 30
0.0
 40
1.442902876100901
100
AcDbArc
 50
241.9597608846
 51
271.1440967459
  0
ARC
  5
51A
330
3AE
100
AcDbEntity
  8
0
  6
Continuous
 62
     8
370
    25
100
AcDbCircle
 10
-387.1973564332
 20
441.5369826665
 30
0.0
 40
1.442615129303994
100
AcDbArc
 50
28.8567998288
 51
58.0453714773
  0
ARC
  5
51B
330
3AE
100
AcDbEntity
  8
0
  6
Continuous
 62
     8
370
    25
100
AcDbCircle
 10
-398.9542141361
 20
448.9338291816
 30
0.0
 40
0.5029392784937954
100
AcDbArc
 50
185.6947992512
 51
245.6253417064
  0
ARC
  5
51C
330
3AE
100
AcDbEntity
  8
0
  6
Continuous
 62
     8
370
    25
100
AcDbCircle
 10
-398.7475912535
 20
449.2915822875
 30
0.0
 40
0.5029772359014467
100
AcDbArc
 50
54.3824225248
 51
114.3071190461
  0
ARC
  5
51D
330
3AE
100
AcDbEntity
  8
0
  6
Continuous
 62
     8
370
    25
100
AcDbCircle
 10
-98.9343160304
 20
622.3701019939
 30
0.0
 40
0.502977235902005
100
AcDbArc
 50
54.3824225248
 51
114.3071190461
  0
ARC
  5
51E
330
3AE
100
AcDbEntity
  8
0
  6
Continuous
 62
     8
370
    25
100
AcDbCircle
 10
-86.1210377578
 20
615.0728799376
 30
0.0
 40
0.5029392784939977
100
AcDbArc
 50
294.3746582936
 51
354.3052007488
  0
ARC
  5
51F
330
3AE
100
AcDbEntity
  8
0
  6
Continuous
 62
     8
370
    25
100
AcDbCircle
 10
-86.3276606405
 20
615.4306330434
 30
0.0
 40
0.5029772359011193
100
AcDbArc
 50
65.6928809539
 51
125.6175774752
  0
ARC
  5
520
330
3AE
100
AcDbEntity
  8
0
  6
Continuous
 62
     8
370
    25
100
AcDbCircle
 10
-98.3484759207
 20
622.3701019939
 30
0.0
 40
0.5029772359012701
100
AcDbArc
 50
65.6928809539
 51
125.6175774752
  0
ARC
  5
521
330
3AE
100
AcDbEntity
  8
0
  6
Continuous
 62
     8
370
    25
100
AcDbCircle
 10
98.9343160304
 20
159.0582331344
 30
0.0
 40
0.502977235901866
100
AcDbArc
 50
65.6928809539
 51
125.6175774752
  0
ARC
  5
522
330
3AE
100
AcDbEntity
  8
0
  6
Continuous
 62
     8
370
    25
100
AcDbCircle
 10
99.140938913
 20
158.7004800285
 30
0.0
 40
0.5029392784937587
100
AcDbArc
 50
294.3746582936
 51
354.3052007488
  0
ARC
  5
523
330
3AE
100
AcDbEntity
  8
0
  6
Continuous
 62
     8
370
    25
100
AcDbCircle
 10
99.140938913
 20
-14.4061720912
 30
0.0
 40
0.5029392784937139
100
AcDbArc
 50
294.3746582936
 51
354.3052007488
  0
ARC
  5
524
330
3AE
100
AcDbEntity
  8
0
  6
Continuous
 62
     8
370
    25
100
AcDbCircle
 10
-399.5759647061
 20
446.8420925519
 30
0.0
 40
0.5029772359023646
100
AcDbArc
 50
65.6928809539
 51
125.6175774752
  0
ARC
  5
525
330
3AE
100
AcDbEntity
  8
0
  6
Continuous
 62
     8
370
    25
100
AcDbCircle
 10
86.4034758163
 20
-21.857838212
 30
0.0
 40
0.4929779298227994
100
AcDbArc
 50
173.7011524692
 51
234.9866671374
  0
ARC
  5
526
330
3AE
100
AcDbEntity
  8
0
  6
Continuous
 62
     8
370
    25
100
AcDbCircle
 10
86.8376855741
 20
-21.8578382119
 30
0.0
 40
0.4929779300453747
100
AcDbArc
 50
305.0133328779
 51
6.2988475155
  0
ARC
  5
527
330
3AE
100
AcDbEntity
  8
0
  6
Continuous
 62
     8
370
    25
100
AcDbCircle
 10
98.8585008547
 20
-14.9183692616
 30
0.0
 40
0.4929779297012082
100
AcDbArc
 50
305.0133328542
 51
6.2988475391
  0
ARC
  5
528
330
3AE
100
AcDbEntity
  8
0
  6
Continuous
 62
     8
370
    25
100
AcDbCircle
 10
-412.1211212665
 20
265.9195439143
 30
0.0
 40
0.4795255463719997
100
AcDbArc
 50
172.744170435
 51
235.9436491716
  0
ARC
  5
529
330
3AE
100
AcDbEntity
  8
0
  6
Continuous
 62
     8
370
    25
100
AcDbCircle
 10
-412.3892429787
 20
439.5448704955
 30
0.0
 40
0.5029392784939454
100
AcDbArc
 50
185.6947992512
 51
245.6253417064
  0
ARC
  5
52A
330
3AE
100
AcDbEntity
  8
0
  6
Continuous
 62
     8
370
    25
100
AcDbCircle
 10
-412.182620096
 20
439.9026236014
 30
0.0
 40
0.5029772359017067
100
AcDbArc
 50
54.3824225248
 51
114.3071190461
  0
ARC
  5
52B
330
3AE
100
AcDbEntity
  8
0
  6
Continuous
 62
     8
370
    25
100
AcDbCircle
 10
-412.3892429787
 20
266.4382183758
 30
0.0
 40
0.5029392784936965
100
AcDbArc
 50
185.6947992512
 51
245.6253417064
  0
ARC
  5
52C
330
3AE
100
AcDbEntity
  8
0
  6
Continuous
 62
     8
370
    25
100
AcDbCircle
 10
-400.1618048158
 20
446.8420925519
 30
0.0
 40
0.5029772359019139
100
AcDbArc
 50
54.3824225248
 51
114.3071190461
  0
VIEWPORT
  5
533
330
3AE
100
AcDbEntity
  8
0
100
AcDbViewport
 10
0.0
 20
0.0
 30
0.0
 40
205.6
 41
156.0
 68
     1
 69
     1
 12
0.0
 22
240.0
 13
0.0
 23
0.0
 14
10.0
 24
10.0
 15
10.0
 25
10.0
 16
0.0
 26
0.0
 36
1.0
 17
0.0
 27
0.0
 37
0.0
 42
50.0
 43
0.0
 44
0.0
 45
547.1684824903
 50
0.0
 51
0.0
 72
   100
 90
   557152
  1

281
     0
 71
     1
 74
     0
110
0.0
120
0.0
130
0.0
111
1.0
121
0.0
131
0.0
112
0.0
122
1.0
132
0.0
 79
     0
146
0.0
  0
ENDBLK
  5
3B1
330
3AE
100
AcDbEntity
  8
0
100
AcDbBlockEnd
  0
ENDSEC
  0
SECTION
  2
ENTITIES
  0
LINE
  5
D5
330
1F
100
AcDbEntity
  8
0
  6
Continuous
 62
     7
370
    25
100
AcDbLine
 10
-353.5
 20
3.0
 30
0.0
 11
353.5
 21
3.0
 31
0.0
  0
LINE
  5
D6
330
1F
100
AcDbEntity
  8
0
  6
Continuous
 62
     7
370
    25
100
AcDbLine
 10
353.5
 20
261.0
 30
0.0
 11
-353.5
 21
261.0
 31
0.0
  0
LINE
  5
D7
330
1F
100
AcDbEntity
  8
0
  6
Continuous
 62
     7
370
    25
100
AcDbLine
 10
352.5
 20
2.0
 30
0.0
 11
-352.5
 21
2.0
 31
0.0
  0
LINE
  5
D8
330
1F
100
AcDbEntity
  8
0
  6
Continuous
 62
     7
370
    25
100
AcDbLine
 10
-352.5
 20
262.0
 30
0.0
 11
352.5
 21
262.0
 31
0.0
  0
LINE
  5
D9
330
1F
100
AcDbEntity
  8
0
  6
Continuous
 62
     7
370
    25
100
AcDbLine
 10
334.5
 20
1.0
 30
0.0
 11
353.5
 21
1.0
 31
0.0
  0
LINE
  5
DA
330
1F
100
AcDbEntity
  8
0
  6
Continuous
 62
     7
370
    25
100
AcDbLine
 10
334.5
 20
262.0
 30
0.0
 11
334.5
 21
264.0
 31
0.0
  0
LINE
  5
DB
330
1F
100
AcDbEntity
  8
0
  6
Continuous
 62
     7
370
    25
100
AcDbLine
 10
335.5
 20
480.0
 30
0.0
 11
335.5
 21
478.0
 31
0.0
  0
LINE
  5
DC
330
1F
100
AcDbEntity
  8
0
  6
Continuous
 62
     7
370
    25
100
AcDbLine
 10
353.5
 20
479.0
 30
0.0
 11
334.5
 21
479.0
 31
0.0
  0
LINE
  5
DD
330
1F
100
AcDbEntity
  8
0
  6
Continuous
 62
     7
370
    25
100
AcDbLine
 10
335.5
 20
480.0
 30
0.0
 11
352.5
 21
480.0
 31
0.0
  0
LINE
  5
DE
330
1F
100
AcDbEntity
  8
0
  6
Continuous
 62
     7
370
    25
100
AcDbLine
 10
353.5
 20
479.0
 30
0.0
 11
353.5
 21
1.0
 31
0.0
  0
LINE
  5
DF
330
1F
100
AcDbEntity
  8
0
  6
Continuous
 62
     7
370
    25
100
AcDbLine
 10
352.5
 20
0.0
 30
0.0
 11
335.5
 21
0.0
 31
0.0
  0
LINE
  5
E0
330
1F
100
AcDbEntity
  8
0
  6
Continuous
 62
     7
370
    25
100
AcDbLine
 10
335.5
 20
0.0
 30
0.0
 11
335.5
 21
2.0
 31
0.0
  0
LINE
  5
E1
330
1F
100
AcDbEntity
  8
0
  6
Continuous
 62
     7
370
    25
100
AcDbLine
 10
334.5
 20
2.0
 30
0.0
 11
334.5
 21
0.0
 31
0.0
  0
LINE
  5
E2
330
1F
100
AcDbEntity
  8
0
  6
Continuous
 62
     7
370
    25
100
AcDbLine
 10
-334.5
 20
0.0
 30
0.0
 11
334.5
 21
0.0
 31
0.0
  0
LINE
  5
E3
330
1F
100
AcDbEntity
  8
0
  6
Continuous
 62
     7
370
    25
100
AcDbLine
 10
-334.5
 20
2.0
 30
0.0
 11
-334.5
 21
0.0
 31
0.0
  0
LINE
  5
E4
330
1F
100
AcDbEntity
  8
0
  6
Continuous
 62
     7
370
    25
100
AcDbLine
 10
-353.5
 20
1.0
 30
0.0
 11
-334.5
 21
1.0
 31
0.0
  0
LINE
  5
E5
330
1F
100
AcDbEntity
  8
0
  6
Continuous
 62
     7
370
    25
100
AcDbLine
 10
-353.5
 20
1.0
 30
0.0
 11
-353.5
 21
479.0
 31
0.0
  0
LINE
  5
E6
330
1F
100
AcDbEntity
  8
0
  6
Continuous
 62
     7
370
    25
100
AcDbLine
 10
-334.5
 20
479.0
 30
0.0
 11
-353.5
 21
479.0
 31
0.0
  0
LINE
  5
E7
330
1F
100
AcDbEntity
  8
0
  6
Continuous
 62
     7
370
    25
100
AcDbLine
 10
-352.5
 20
480.0
 30
0.0
 11
-335.5
 21
480.0
 31
0.0
  0
LINE
  5
E8
330
1F
100
AcDbEntity
  8
0
  6
Continuous
 62
     7
370
    25
100
AcDbLine
 10
-335.5
 20
478.0
 30
0.0
 11
-335.5
 21
480.0
 31
0.0
  0
LINE
  5
E9
330
1F
100
AcDbEntity
  8
0
  6
Continuous
 62
     7
370
    25
100
AcDbLine
 10
-334.5
 20
264.0
 30
0.0
 11
-334.5
 21
262.0
 31
0.0
  0
LINE
  5
EA
330
1F
100
AcDbEntity
  8
0
  6
Continuous
 62
     7
370
    25
100
AcDbLine
 10
-335.5
 20
2.0
 30
0.0
 11
-335.5
 21
0.0
 31
0.0
  0
LINE
  5
EB
330
1F
100
AcDbEntity
  8
0
  6
Continuous
 62
     7
370
    25
100
AcDbLine
 10
-335.5
 20
0.0
 30
0.0
 11
-352.5
 21
0.0
 31
0.0
  0
LINE
  5
EC
330
1F
100
AcDbEntity
  8
0
  6
Continuous
 62
     7
370
    25
100
AcDbLine
 10
-334.5
 20
480.0
 30
0.0
 11
-334.5
 21
478.0
 31
0.0
  0
LINE
  5
ED
330
1F
100
AcDbEntity
  8
0
  6
Continuous
 62
     7
370
    25
100
AcDbLine
 10
334.5
 20
480.0
 30
0.0
 11
-334.5
 21
480.0
 31
0.0
  0
LINE
  5
EE
330
1F
100
AcDbEntity
  8
0
  6
Continuous
 62
     7
370
    25
100
AcDbLine
 10
334.5
 20
478.0
 30
0.0
 11
334.5
 21
480.0
 31
0.0
  0
LINE
  5
EF
330
1F
100
AcDbEntity
  8
0
  6
Continuous
 62
     7
370
    25
100
AcDbLine
 10
353.5
 20
477.0
 30
0.0
 11
-353.5
 21
477.0
 31
0.0
  0
LINE
  5
F0
330
1F
100
AcDbEntity
  8
0
  6
Continuous
 62
     7
370
    25
100
AcDbLine
 10
352.5
 20
0.0
 30
0.0
 11
352.5
 21
480.0
 31
0.0
  0
LINE
  5
F1
330
1F
100
AcDbEntity
  8
0
  6
Continuous
 62
     7
370
    25
100
AcDbLine
 10
-353.5
 20
265.0
 30
0.0
 11
353.5
 21
265.0
 31
0.0
  0
LINE
  5
F2
330
1F
100
AcDbEntity
  8
0
  6
Continuous
 62
     7
370
    25
100
AcDbLine
 10
352.5
 20
264.0
 30
0.0
 11
-352.5
 21
264.0
 31
0.0
  0
LINE
  5
F3
330
1F
100
AcDbEntity
  8
0
  6
Continuous
 62
     7
370
    25
100
AcDbLine
 10
-352.5
 20
480.0
 30
0.0
 11
-352.5
 21
0.0
 31
0.0
  0
LINE
  5
F4
330
1F
100
AcDbEntity
  8
0
  6
Continuous
 62
     7
370
    25
100
AcDbLine
 10
-352.5
 20
478.0
 30
0.0
 11
352.5
 21
478.0
 31
0.0
  0
LINE
  5
F5
330
1F
100
AcDbEntity
  8
0
  6
Continuous
 62
     8
370
    25
100
AcDbLine
 10
335.5
 20
264.0
 30
0.0
 11
335.5
 21
262.0
 31
0.0
  0
LINE
  5
F6
330
1F
100
AcDbEntity
  8
0
  6
Continuous
 62
     8
370
    25
100
AcDbLine
 10
-335.5
 20
262.0
 30
0.0
 11
-335.5
 21
264.0
 31
0.0
  0
ARC
  5
F7
330
1F
100
AcDbEntity
  8
0
  6
Continuous
 62
     7
370
    25
100
AcDbCircle
 10
-352.5
 20
3.0
 30
0.0
 40
1.000000000000114
100
AcDbArc
 50
180.0
 51
270.0
  0
ARC
  5
F8
330
1F
100
AcDbEntity
  8
0
  6
Continuous
 62
     7
370
    25
100
AcDbCircle
 10
352.5
 20
3.0
 30
0.0
 40
1.000000000000114
100
AcDbArc
 50
270.0
 51
360.0
  0
ARC
  5
F9
330
1F
100
AcDbEntity
  8
0
  6
Continuous
 62
     7
370
    25
100
AcDbCircle
 10
352.5
 20
261.0
 30
0.0
 40
1.0
100
AcDbArc
 50
360.0
 51
90.0
  0
ARC
  5
FA
330
1F
100
AcDbEntity
  8
0
  6
Continuous
 62
     7
370
    25
100
AcDbCircle
 10
-352.5
 20
261.0
 30
0.0
 40
1.0
100
AcDbArc
 50
90.0
 51
180.0
  0
ARC
  5
FB
330
1F
100
AcDbEntity
  8
0
  6
Continuous
 62
     7
370
    25
100
AcDbCircle
 10
335.5
 20
479.0
 30
0.0
 40
1.000000000000171
100
AcDbArc
 50
90.0
 51
180.0
  0
ARC
  5
FC
330
1F
100
AcDbEntity
  8
0
  6
Continuous
 62
     7
370
    25
100
AcDbCircle
 10
352.5
 20
479.0
 30
0.0
 40
1.0
100
AcDbArc
 50
0.0
 51
90.0
  0
ARC
  5
FD
330
1F
100
AcDbEntity
  8
0
  6
Continuous
 62
     7
370
    25
100
AcDbCircle
 10
335.5
 20
1.0
 30
0.0
 40
1.000000000000114
100
AcDbArc
 50
180.0
 51
270.0
  0
ARC
  5
FE
330
1F
100
AcDbEntity
  8
0
  6
Continuous
 62
     7
370
    25
100
AcDbCircle
 10
352.5
 20
1.0
 30
0.0
 40
1.000000000000061
100
AcDbArc
 50
270.0
 51
360.0
  0
ARC
  5
FF
330
1F
100
AcDbEntity
  8
0
  6
Continuous
 62
     7
370
    25
100
AcDbCircle
 10
-335.5
 20
479.0
 30
0.0
 40
1.000000000000057
100
AcDbArc
 50
0.0
 51
90.0
  0
ARC
  5
100
330
1F
100
AcDbEntity
  8
0
  6
Continuous
 62
     7
370
    25
100
AcDbCircle
 10
-352.5
 20
479.0
 30
0.0
 40
1.000000000000057
100
AcDbArc
 50
90.0
 51
180.0
  0
ARC
  5
101
330
1F
100
AcDbEntity
  8
0
  6
Continuous
 62
     7
370
    25
100
AcDbCircle
 10
-352.5
 20
1.0
 30
0.0
 40
1.000000000000061
100
AcDbArc
 50
180.0
 51
270.0
  0
ARC
  5
102
330
1F
100
AcDbEntity
  8
0
  6
Continuous
 62
     7
370
    25
100
AcDbCircle
 10
-335.5
 20
1.0
 30
0.0
 40
1.000000000000061
100
AcDbArc
 50
270.0
 51
360.0
  0
ARC
  5
103
330
1F
100
AcDbEntity
  8
0
  6
Continuous
 62
     7
370
    25
100
AcDbCircle
 10
-352.5
 20
477.0
 30
0.0
 40
1.000000000000057
100
AcDbArc
 50
90.0
 51
180.0
  0
ARC
  5
104
330
1F
100
AcDbEntity
  8
0
  6
Continuous
 62
     7
370
    25
100
AcDbCircle
 10
352.5
 20
477.0
 30
0.0
 40
1.000000000000114
100
AcDbArc
 50
0.0
 51
90.0
  0
ARC
  5
105
330
1F
100
AcDbEntity
  8
0
  6
Continuous
 62
     7
370
    25
100
AcDbCircle
 10
352.5
 20
265.0
 30
0.0
 40
1.000000000000114
100
AcDbArc
 50
270.0
 51
360.0
  0
ARC
  5
106
330
1F
100
AcDbEntity
  8
0
  6
Continuous
 62
     7
370
    25
100
AcDbCircle
 10
-352.5
 20
265.0
 30
0.0
 40
1.000000000000057
100
AcDbArc
 50
180.0
 51
270.0
  0
CIRCLE
  5
108
330
1B
100
AcDbEntity
 67
     1
  8
0
  6
Continuous
 62
     7
370
    25
100
AcDbCircle
 10
-48.0
 20
202.0
 30
0.0
 40
2.399999999999977
  0
CIRCLE
  5
109
330
1B
100
AcDbEntity
 67
     1
  8
0
  6
Continuous
 62
     7
370
    25
100
AcDbCircle
 10
-80.0
 20
202.0
 30
0.0
 40
2.399999999999963
  0
CIRCLE
  5
10A
330
1B
100
AcDbEntity
 67
     1
  8
0
  6
Continuous
 62
     7
370
    25
100
AcDbCircle
 10
-8.0
 20
202.0
 30
0.0
 40
2.399999999999974
  0
CIRCLE
  5
10B
330
1B
100
AcDbEntity
 67
     1
  8
0
  6
Continuous
 62
     7
370
    25
100
AcDbCircle
 10
-16.0
 20
202.0
 30
0.0
 40
2.400000000000043
  0
CIRCLE
  5
10C
330
1B
100
AcDbEntity
 67
     1
  8
0
  6
Continuous
 62
     7
370
    25
100
AcDbCircle
 10
8.0
 20
202.0
 30
0.0
 40
2.400000000000015
  0
CIRCLE
  5
10D
330
1B
100
AcDbEntity
 67
     1
  8
0
  6
Continuous
 62
     7
370
    25
100
AcDbCircle
 10
80.0
 20
202.0
 30
0.0
 40
2.400000000000006
  0
CIRCLE
  5
10E
330
1B
100
AcDbEntity
 67
     1
  8
0
  6
Continuous
 62
     7
370
    25
100
AcDbCircle
 10
0.0
 20
202.0
 30
0.0
 40
2.40000000000001
  0
CIRCLE
  5
10F
330
1B
100
AcDbEntity
 67
     1
  8
0
  6
Continuous
 62
     7
370
    25
100
AcDbCircle
 10
16.0
 20
202.0
 30
0.0
 40
2.399999999999991
  0
CIRCLE
  5
110
330
1B
100
AcDbEntity
 67
     1
  8
0
  6
Continuous
 62
     7
370
    25
100
AcDbCircle
 10
-160.0
 20
202.0
 30
0.0
 40
2.400000000000034
  0
CIRCLE
  5
111
330
1B
100
AcDbEntity
 67
     1
  8
0
  6
Continuous
 62
     7
370
    25
100
AcDbCircle
 10
48.0
 20
202.0
 30
0.0
 40
2.40000000000002
  0
CIRCLE
  5
112
330
1B
100
AcDbEntity
 67
     1
  8
0
  6
Continuous
 62
     7
370
    25
100
AcDbCircle
 10
160.0
 20
202.0
 30
0.0
 40
2.399999999999977
  0
CIRCLE
  5
1B2
330
1B
100
AcDbEntity
 67
     1
  8
0
  6
Continuous
 62
     7
370
    25
100
AcDbCircle
 10
325.5
 20
430.0
 30
0.0
 40
5.000000000000057
  0
CIRCLE
  5
1B3
330
1B
100
AcDbEntity
 67
     1
  8
0
  6
Continuous
 62
     7
370
    25
100
AcDbCircle
 10
-325.5
 20
430.0
 30
0.0
 40
5.000000000000171
  0
CIRCLE
  5
1B5
330
1B
100
AcDbEntity
 67
     1
  8
0
  6
Continuous
 62
     7
370
    25
100
AcDbCircle
 10
-325.5
 20
460.0
 30
0.0
 40
5.0
  0
CIRCLE
  5
1B6
330
1B
100
AcDbEntity
 67
     1
  8
0
  6
Continuous
 62
     7
370
    25
100
AcDbCircle
 10
325.5
 20
460.0
 30
0.0
 40
5.000000000000057
  0
CIRCLE
  5
1B9
330
1B
100
AcDbEntity
 67
     1
  8
0
  6
Continuous
 62
     7
370
    25
100
AcDbCircle
 10
325.5
 20
68.0
 30
0.0
 40
5.000000000000057
  0
CIRCLE
  5
1BA
330
1B
100
AcDbEntity
 67
     1
  8
0
  6
Continuous
 62
     7
370
    25
100
AcDbCircle
 10
-325.5
 20
38.0
 30
0.0
 40
5.000000000000057
  0
CIRCLE
  5
1BC
330
1B
100
AcDbEntity
 67
     1
  8
0
  6
Continuous
 62
     7
370
    25
100
AcDbCircle
 10
-325.5
 20
68.0
 30
0.0
 40
5.0
  0
CIRCLE
  5
1BF
330
1B
100
AcDbEntity
 67
     1
  8
0
  6
Continuous
 62
     7
370
    25
100
AcDbCircle
 10
325.5
 20
38.0
 30
0.0
 40
5.000000000000057
  0
LINE
  5
1F4
330
1B
100
AcDbEntity
 67
     1
  8
0
  6
Continuous
 62
     7
370
    25
100
AcDbLine
 10
-334.5
 20
262.0
 30
0.0
 11
334.5
 21
262.0
 31
0.0
  0
LINE
  5
1F5
330
1B
100
AcDbEntity
 67
     1
  8
0
  6
Continuous
 62
     7
370
    25
100
AcDbLine
 10
299.5
 20
176.0
 30
0.0
 11
299.5
 21
88.0
 31
0.0
  0
LINE
  5
1F6
330
1B
100
AcDbEntity
 67
     1
  8
0
  6
Continuous
 62
     7
370
    25
100
AcDbLine
 10
315.5
 20
176.0
 30
0.0
 11
315.5
 21
88.0
 31
0.0
  0
LINE
  5
1F7
330
1B
100
AcDbEntity
 67
     1
  8
0
  6
Continuous
 62
     7
370
    25
100
AcDbLine
 10
315.5
 20
176.0
 30
0.0
 11
299.5
 21
176.0
 31
0.0
  0
LINE
  5
1F8
330
1B
100
AcDbEntity
 67
     1
  8
0
  6
Continuous
 62
     7
370
    25
100
AcDbLine
 10
299.5
 20
124.0
 30
0.0
 11
-299.5
 21
124.0
 31
0.0
  0
LINE
  5
1F9
330
1B
100
AcDbEntity
 67
     1
  8
0
  6
Continuous
 62
     7
370
    25
100
AcDbLine
 10
-299.5
 20
176.0
 30
0.0
 11
-299.5
 21
88.0
 31
0.0
  0
LINE
  5
1FA
330
1B
100
AcDbEntity
 67
     1
  8
0
  6
Continuous
 62
     7
370
    25
100
AcDbLine
 10
-353.5
 20
1.0
 30
0.0
 11
-334.5
 21
1.0
 31
0.0
  0
LINE
  5
1FB
330
1B
100
AcDbEntity
 67
     1
  8
0
  6
Continuous
 62
     7
370
    25
100
AcDbLine
 10
-335.5
 20
0.0
 30
0.0
 11
-335.5
 21
480.0
 31
0.0
  0
LINE
  5
1FC
330
1B
100
AcDbEntity
 67
     1
  8
0
  6
Continuous
 62
     7
370
    25
100
AcDbLine
 10
-335.5
 20
0.0
 30
0.0
 11
-352.5
 21
0.0
 31
0.0
  0
LINE
  5
1FD
330
1B
100
AcDbEntity
 67
     1
  8
0
  6
Continuous
 62
     7
370
    25
100
AcDbLine
 10
-352.5
 20
480.0
 30
0.0
 11
-352.5
 21
0.0
 31
0.0
  0
LINE
  5
1FE
330
1B
100
AcDbEntity
 67
     1
  8
0
  6
Continuous
 62
     7
370
    25
100
AcDbLine
 10
-334.5
 20
479.0
 30
0.0
 11
-353.5
 21
479.0
 31
0.0
  0
LINE
  5
1FF
330
1B
100
AcDbEntity
 67
     1
  8
0
  6
Continuous
 62
     7
370
    25
100
AcDbLine
 10
-353.5
 20
1.0
 30
0.0
 11
-353.5
 21
479.0
 31
0.0
  0
LINE
  5
200
330
1B
100
AcDbEntity
 67
     1
  8
0
  6
Continuous
 62
     7
370
    25
100
AcDbLine
 10
-352.5
 20
480.0
 30
0.0
 11
-335.5
 21
480.0
 31
0.0
  0
LINE
  5
201
330
1B
100
AcDbEntity
 67
     1
  8
0
  6
Continuous
 62
     7
370
    25
100
AcDbLine
 10
-314.5
 20
279.75
 30
0.0
 11
-314.5
 21
286.75
 31
0.0
  0
LINE
  5
202
330
1B
100
AcDbEntity
 67
     1
  8
0
  6
Continuous
 62
     7
370
    25
100
AcDbLine
 10
-311.0
 20
290.25
 30
0.0
 11
-304.0
 21
290.25
 31
0.0
  0
LINE
  5
203
330
1B
100
AcDbEntity
 67
     1
  8
0
  6
Continuous
 62
     7
370
    25
100
AcDbLine
 10
-300.5
 20
279.75
 30
0.0
 11
-300.5
 21
286.75
 31
0.0
  0
LINE
  5
204
330
1B
100
AcDbEntity
 67
     1
  8
0
  6
Continuous
 62
     7
370
    25
100
AcDbLine
 10
-302.0
 20
279.75
 30
0.0
 11
-302.0
 21
286.75
 31
0.0
  0
LINE
  5
205
330
1B
100
AcDbEntity
 67
     1
  8
0
  6
Continuous
 62
     7
370
    25
100
AcDbLine
 10
-304.0
 20
288.75
 30
0.0
 11
-311.0
 21
288.75
 31
0.0
  0
LINE
  5
206
330
1B
100
AcDbEntity
 67
     1
  8
0
  6
Continuous
 62
     7
370
    25
100
AcDbLine
 10
-313.0
 20
286.75
 30
0.0
 11
-313.0
 21
279.75
 31
0.0
  0
LINE
  5
207
330
1B
100
AcDbEntity
 67
     1
  8
0
  6
Continuous
 62
     7
370
    25
100
AcDbLine
 10
-310.2
 20
277.75
 30
0.0
 11
-311.0
 21
277.75
 31
0.0
  0
LINE
  5
208
330
1B
100
AcDbEntity
 67
     1
  8
0
  6
Continuous
 62
     7
370
    25
100
AcDbLine
 10
-311.0
 20
276.25
 30
0.0
 11
-310.2
 21
276.25
 31
0.0
  0
LINE
  5
209
330
1B
100
AcDbEntity
 67
     1
  8
0
  6
Continuous
 62
     7
370
    25
100
AcDbLine
 10
-304.8
 20
277.75
 30
0.0
 11
-304.8
 21
276.25
 31
0.0
  0
LINE
  5
20A
330
1B
100
AcDbEntity
 67
     1
  8
0
  6
Continuous
 62
     7
370
    25
100
AcDbLine
 10
-310.2
 20
276.25
 30
0.0
 11
-310.2
 21
277.75
 31
0.0
  0
LINE
  5
20B
330
1B
100
AcDbEntity
 67
     1
  8
0
  6
Continuous
 62
     7
370
    25
100
AcDbLine
 10
-304.0
 20
276.25
 30
0.0
 11
-304.8
 21
276.25
 31
0.0
  0
LINE
  5
20C
330
1B
100
AcDbEntity
 67
     1
  8
0
  6
Continuous
 62
     7
370
    25
100
AcDbLine
 10
-304.0
 20
277.75
 30
0.0
 11
-304.8
 21
277.75
 31
0.0
  0
LINE
  5
20D
330
1B
100
AcDbEntity
 67
     1
  8
0
  6
Continuous
 62
     7
370
    25
100
AcDbLine
 10
-305.5
 20
292.0
 30
0.0
 11
-305.5
 21
290.25
 31
0.0
  0
LINE
  5
20E
330
1B
100
AcDbEntity
 67
     1
  8
0
  6
Continuous
 62
     7
370
    25
100
AcDbLine
 10
-309.5
 20
290.25
 30
0.0
 11
-309.5
 21
292.0
 31
0.0
  0
LINE
  5
20F
330
1B
100
AcDbEntity
 67
     1
  8
0
  6
Continuous
 62
     7
370
    25
100
AcDbLine
 10
60.0
 20
308.0
 30
0.0
 11
-60.0
 21
308.0
 31
0.0
  0
LINE
  5
210
330
1B
100
AcDbEntity
 67
     1
  8
0
  6
Continuous
 62
     7
370
    25
100
AcDbLine
 10
299.5
 20
292.0
 30
0.0
 11
299.5
 21
370.5
 31
0.0
  0
LINE
  5
211
330
1B
100
AcDbEntity
 67
     1
  8
0
  6
Continuous
 62
     7
370
    25
100
AcDbLine
 10
315.5
 20
292.0
 30
0.0
 11
315.5
 21
370.5
 31
0.0
  0
LINE
  5
212
330
1B
100
AcDbEntity
 67
     1
  8
0
  6
Continuous
 62
     7
370
    25
100
AcDbLine
 10
-315.5
 20
292.0
 30
0.0
 11
-315.5
 21
370.5
 31
0.0
  0
LINE
  5
213
330
1B
100
AcDbEntity
 67
     1
  8
0
  6
Continuous
 62
     7
370
    25
100
AcDbLine
 10
315.5
 20
370.5
 30
0.0
 11
-315.5
 21
370.5
 31
0.0
  0
LINE
  5
214
330
1B
100
AcDbEntity
 67
     1
  8
0
  6
Continuous
 62
     7
370
    25
100
AcDbLine
 10
-299.5
 20
292.0
 30
0.0
 11
-299.5
 21
370.5
 31
0.0
  0
LINE
  5
215
330
1B
100
AcDbEntity
 67
     1
  8
0
  6
Continuous
 62
     7
370
    25
100
AcDbLine
 10
315.5
 20
292.0
 30
0.0
 11
-315.5
 21
292.0
 31
0.0
  0
LINE
  5
216
330
1B
100
AcDbEntity
 67
     1
  8
0
  6
Continuous
 62
     7
370
    25
100
AcDbLine
 10
-60.0
 20
292.0
 30
0.0
 11
-60.0
 21
370.5
 31
0.0
  0
LINE
  5
217
330
1B
100
AcDbEntity
 67
     1
  8
0
  6
Continuous
 62
     7
370
    25
100
AcDbLine
 10
60.0
 20
292.0
 30
0.0
 11
60.0
 21
370.5
 31
0.0
  0
LINE
  5
218
330
1B
100
AcDbEntity
 67
     1
  8
0
  6
Continuous
 62
     7
370
    25
100
AcDbLine
 10
334.5
 20
18.0
 30
0.0
 11
-334.5
 21
18.0
 31
0.0
  0
LINE
  5
219
330
1B
100
AcDbEntity
 67
     1
  8
0
  6
Continuous
 62
     7
370
    25
100
AcDbLine
 10
-334.5
 20
0.0
 30
0.0
 11
334.5
 21
0.0
 31
0.0
  0
LINE
  5
21A
330
1B
100
AcDbEntity
 67
     1
  8
0
  6
Continuous
 62
     7
370
    25
100
AcDbLine
 10
-334.5
 20
480.0
 30
0.0
 11
-334.5
 21
0.0
 31
0.0
  0
LINE
  5
21B
330
1B
100
AcDbEntity
 67
     1
  8
0
  6
Continuous
 62
     7
370
    25
100
AcDbLine
 10
313.0
 20
286.75
 30
0.0
 11
313.0
 21
279.75
 31
0.0
  0
LINE
  5
21C
330
1B
100
AcDbEntity
 67
     1
  8
0
  6
Continuous
 62
     7
370
    25
100
AcDbLine
 10
304.0
 20
288.75
 30
0.0
 11
311.0
 21
288.75
 31
0.0
  0
LINE
  5
21D
330
1B
100
AcDbEntity
 67
     1
  8
0
  6
Continuous
 62
     7
370
    25
100
AcDbLine
 10
302.0
 20
279.75
 30
0.0
 11
302.0
 21
286.75
 31
0.0
  0
LINE
  5
21E
330
1B
100
AcDbEntity
 67
     1
  8
0
  6
Continuous
 62
     7
370
    25
100
AcDbLine
 10
300.5
 20
279.75
 30
0.0
 11
300.5
 21
286.75
 31
0.0
  0
LINE
  5
21F
330
1B
100
AcDbEntity
 67
     1
  8
0
  6
Continuous
 62
     7
370
    25
100
AcDbLine
 10
311.0
 20
290.25
 30
0.0
 11
304.0
 21
290.25
 31
0.0
  0
LINE
  5
220
330
1B
100
AcDbEntity
 67
     1
  8
0
  6
Continuous
 62
     7
370
    25
100
AcDbLine
 10
314.5
 20
279.75
 30
0.0
 11
314.5
 21
286.75
 31
0.0
  0
LINE
  5
221
330
1B
100
AcDbEntity
 67
     1
  8
0
  6
Continuous
 62
     7
370
    25
100
AcDbLine
 10
310.2
 20
277.75
 30
0.0
 11
311.0
 21
277.75
 31
0.0
  0
LINE
  5
222
330
1B
100
AcDbEntity
 67
     1
  8
0
  6
Continuous
 62
     7
370
    25
100
AcDbLine
 10
304.0
 20
277.75
 30
0.0
 11
304.8
 21
277.75
 31
0.0
  0
LINE
  5
223
330
1B
100
AcDbEntity
 67
     1
  8
0
  6
Continuous
 62
     7
370
    25
100
AcDbLine
 10
310.2
 20
276.25
 30
0.0
 11
310.2
 21
277.75
 31
0.0
  0
LINE
  5
224
330
1B
100
AcDbEntity
 67
     1
  8
0
  6
Continuous
 62
     7
370
    25
100
AcDbLine
 10
304.0
 20
276.25
 30
0.0
 11
304.8
 21
276.25
 31
0.0
  0
LINE
  5
225
330
1B
100
AcDbEntity
 67
     1
  8
0
  6
Continuous
 62
     7
370
    25
100
AcDbLine
 10
304.8
 20
277.75
 30
0.0
 11
304.8
 21
276.25
 31
0.0
  0
LINE
  5
226
330
1B
100
AcDbEntity
 67
     1
  8
0
  6
Continuous
 62
     7
370
    25
100
AcDbLine
 10
311.0
 20
276.25
 30
0.0
 11
310.2
 21
276.25
 31
0.0
  0
LINE
  5
227
330
1B
100
AcDbEntity
 67
     1
  8
0
  6
Continuous
 62
     7
370
    25
100
AcDbLine
 10
305.5
 20
292.0
 30
0.0
 11
305.5
 21
290.25
 31
0.0
  0
LINE
  5
228
330
1B
100
AcDbEntity
 67
     1
  8
0
  6
Continuous
 62
     7
370
    25
100
AcDbLine
 10
309.5
 20
290.25
 30
0.0
 11
309.5
 21
292.0
 31
0.0
  0
LINE
  5
229
330
1B
100
AcDbEntity
 67
     1
  8
0
  6
Continuous
 62
     7
370
    25
100
AcDbLine
 10
-333.12
 20
305.4
 30
0.0
 11
-334.5
 21
305.4
 31
0.0
  0
LINE
  5
22A
330
1B
100
AcDbEntity
 67
     1
  8
0
  6
Continuous
 62
     7
370
    25
100
AcDbLine
 10
-333.12
 20
305.4
 30
0.0
 11
-333.12
 21
272.8
 31
0.0
  0
LINE
  5
22B
330
1B
100
AcDbEntity
 67
     1
  8
0
  6
Continuous
 62
     7
370
    25
100
AcDbLine
 10
-332.7
 20
272.38
 30
0.0
 11
-307.8
 21
272.38
 31
0.0
  0
LINE
  5
22C
330
1B
100
AcDbEntity
 67
     1
  8
0
  6
Continuous
 62
     7
370
    25
100
AcDbLine
 10
-307.38
 20
272.8
 30
0.0
 11
-307.38
 21
280.5
 31
0.0
  0
LINE
  5
22D
330
1B
100
AcDbEntity
 67
     1
  8
0
  6
Continuous
 62
     7
370
    25
100
AcDbLine
 10
-307.2957396742
 20
280.5
 30
0.0
 11
-307.38
 21
280.5
 31
0.0
  0
LINE
  5
22E
330
1B
100
AcDbEntity
 67
     1
  8
0
  6
Continuous
 62
     7
370
    25
100
AcDbLine
 10
-304.75
 20
283.4542603258
 30
0.0
 11
-304.75
 21
283.0457396742
 31
0.0
  0
LINE
  5
22F
330
1B
100
AcDbEntity
 67
     1
  8
0
  6
Continuous
 62
     7
370
    25
100
AcDbLine
 10
-307.7042603258
 20
286.0
 30
0.0
 11
-307.2957396742
 21
286.0
 31
0.0
  0
LINE
  5
230
330
1B
100
AcDbEntity
 67
     1
  8
0
  6
Continuous
 62
     7
370
    25
100
AcDbLine
 10
-310.25
 20
283.0457396742
 30
0.0
 11
-310.25
 21
283.4542603258
 31
0.0
  0
LINE
  5
231
330
1B
100
AcDbEntity
 67
     1
  8
0
  6
Continuous
 62
     7
370
    25
100
AcDbLine
 10
-307.62
 20
280.5
 30
0.0
 11
-307.7042603258
 21
280.5
 31
0.0
  0
LINE
  5
232
330
1B
100
AcDbEntity
 67
     1
  8
0
  6
Continuous
 62
     7
370
    25
100
AcDbLine
 10
-307.62
 20
280.5
 30
0.0
 11
-307.62
 21
276.25
 31
0.0
  0
LINE
  5
233
330
1B
100
AcDbEntity
 67
     1
  8
0
  6
Continuous
 62
     7
370
    25
100
AcDbLine
 10
-311.75
 20
283.7604348142
 30
0.0
 11
-311.75
 21
282.7395651858
 31
0.0
  0
LINE
  5
234
330
1B
100
AcDbEntity
 67
     1
  8
0
  6
Continuous
 62
     7
370
    25
100
AcDbLine
 10
-306.9895651858
 20
287.5
 30
0.0
 11
-308.0104348142
 21
287.5
 31
0.0
  0
LINE
  5
235
330
1B
100
AcDbEntity
 67
     1
  8
0
  6
Continuous
 62
     7
370
    25
100
AcDbLine
 10
-303.5
 20
282.7080398915
 30
0.0
 11
-303.5
 21
283.7919601085
 31
0.0
  0
LINE
  5
236
330
1B
100
AcDbEntity
 67
     1
  8
0
  6
Continuous
 62
     7
370
    25
100
AcDbLine
 10
-306.0
 20
271.0
 30
0.0
 11
-332.7
 21
271.0
 31
0.0
  0
LINE
  5
237
330
1B
100
AcDbEntity
 67
     1
  8
0
  6
Continuous
 62
     7
370
    25
100
AcDbLine
 10
-309.0
 20
276.25
 30
0.0
 11
-309.0
 21
279.75
 31
0.0
  0
LINE
  5
238
330
1B
100
AcDbEntity
 67
     1
  8
0
  6
Continuous
 62
     7
370
    25
100
AcDbLine
 10
-309.0
 20
276.25
 30
0.0
 11
-307.62
 21
276.25
 31
0.0
  0
LINE
  5
239
330
1B
100
AcDbEntity
 67
     1
  8
0
  6
Continuous
 62
     7
370
    25
100
AcDbLine
 10
-306.0
 20
279.75
 30
0.0
 11
-306.0
 21
266.0
 31
0.0
  0
LINE
  5
23A
330
1B
100
AcDbEntity
 67
     1
  8
0
  6
Continuous
 62
     7
370
    25
100
AcDbLine
 10
-299.04
 20
266.0
 30
0.0
 11
-323.64
 21
266.0
 31
0.0
  0
LINE
  5
23B
330
1B
100
AcDbEntity
 67
     1
  8
0
  6
Continuous
 62
     7
370
    25
100
AcDbLine
 10
-323.64
 20
271.0
 30
0.0
 11
-323.64
 21
266.0
 31
0.0
  0
LINE
  5
23C
330
1B
100
AcDbEntity
 67
     1
  8
0
  6
Continuous
 62
     7
370
    25
100
AcDbLine
 10
-299.04
 20
274.7
 30
0.0
 11
-306.0
 21
274.7
 31
0.0
  0
LINE
  5
23D
330
1B
100
AcDbEntity
 67
     1
  8
0
  6
Continuous
 62
     7
370
    25
100
AcDbLine
 10
-299.04
 20
274.7
 30
0.0
 11
-299.04
 21
266.0
 31
0.0
  0
LINE
  5
23E
330
1B
100
AcDbEntity
 67
     1
  8
0
  6
Continuous
 62
     7
370
    25
100
AcDbLine
 10
353.5
 20
479.0
 30
0.0
 11
334.5
 21
479.0
 31
0.0
  0
LINE
  5
23F
330
1B
100
AcDbEntity
 67
     1
  8
0
  6
Continuous
 62
     7
370
    25
100
AcDbLine
 10
352.5
 20
0.0
 30
0.0
 11
352.5
 21
480.0
 31
0.0
  0
LINE
  5
240
330
1B
100
AcDbEntity
 67
     1
  8
0
  6
Continuous
 62
     7
370
    25
100
AcDbLine
 10
334.5
 20
1.0
 30
0.0
 11
353.5
 21
1.0
 31
0.0
  0
LINE
  5
241
330
1B
100
AcDbEntity
 67
     1
  8
0
  6
Continuous
 62
     7
370
    25
100
AcDbLine
 10
335.5
 20
480.0
 30
0.0
 11
335.5
 21
0.0
 31
0.0
  0
LINE
  5
242
330
1B
100
AcDbEntity
 67
     1
  8
0
  6
Continuous
 62
     7
370
    25
100
AcDbLine
 10
352.5
 20
0.0
 30
0.0
 11
335.5
 21
0.0
 31
0.0
  0
LINE
  5
243
330
1B
100
AcDbEntity
 67
     1
  8
0
  6
Continuous
 62
     7
370
    25
100
AcDbLine
 10
334.5
 20
0.0
 30
0.0
 11
334.5
 21
480.0
 31
0.0
  0
LINE
  5
244
330
1B
100
AcDbEntity
 67
     1
  8
0
  6
Continuous
 62
     7
370
    25
100
AcDbLine
 10
353.5
 20
479.0
 30
0.0
 11
353.5
 21
1.0
 31
0.0
  0
LINE
  5
245
330
1B
100
AcDbEntity
 67
     1
  8
0
  6
Continuous
 62
     7
370
    25
100
AcDbLine
 10
335.5
 20
480.0
 30
0.0
 11
352.5
 21
480.0
 31
0.0
  0
LINE
  5
246
330
1B
100
AcDbEntity
 67
     1
  8
0
  6
Continuous
 62
     7
370
    25
100
AcDbLine
 10
-334.5
 20
480.0
 30
0.0
 11
334.5
 21
480.0
 31
0.0
  0
LINE
  5
247
330
1B
100
AcDbEntity
 67
     1
  8
0
  6
Continuous
 62
     7
370
    25
100
AcDbLine
 10
334.5
 20
410.0
 30
0.0
 11
-334.5
 21
410.0
 31
0.0
  0
LINE
  5
248
330
1B
100
AcDbEntity
 67
     1
  8
0
  6
Continuous
 62
     7
370
    25
100
AcDbLine
 10
-334.5
 20
88.0
 30
0.0
 11
334.5
 21
88.0
 31
0.0
  0
LINE
  5
249
330
1B
100
AcDbEntity
 67
     1
  8
0
  6
Continuous
 62
     7
370
    25
100
AcDbLine
 10
303.5
 20
282.7080398915
 30
0.0
 11
303.5
 21
283.7919601085
 31
0.0
  0
LINE
  5
24A
330
1B
100
AcDbEntity
 67
     1
  8
0
  6
Continuous
 62
     7
370
    25
100
AcDbLine
 10
306.9895651858
 20
287.5
 30
0.0
 11
308.0104348142
 21
287.5
 31
0.0
  0
LINE
  5
24B
330
1B
100
AcDbEntity
 67
     1
  8
0
  6
Continuous
 62
     7
370
    25
100
AcDbLine
 10
311.75
 20
283.7604348142
 30
0.0
 11
311.75
 21
282.7395651858
 31
0.0
  0
LINE
  5
24C
330
1B
100
AcDbEntity
 67
     1
  8
0
  6
Continuous
 62
     7
370
    25
100
AcDbLine
 10
309.0
 20
276.25
 30
0.0
 11
309.0
 21
279.75
 31
0.0
  0
LINE
  5
24D
330
1B
100
AcDbEntity
 67
     1
  8
0
  6
Continuous
 62
     7
370
    25
100
AcDbLine
 10
307.62
 20
280.5
 30
0.0
 11
307.62
 21
276.25
 31
0.0
  0
LINE
  5
24E
330
1B
100
AcDbEntity
 67
     1
  8
0
  6
Continuous
 62
     7
370
    25
100
AcDbLine
 10
307.62
 20
280.5
 30
0.0
 11
307.7042603258
 21
280.5
 31
0.0
  0
LINE
  5
24F
330
1B
100
AcDbEntity
 67
     1
  8
0
  6
Continuous
 62
     7
370
    25
100
AcDbLine
 10
310.25
 20
283.0457396742
 30
0.0
 11
310.25
 21
283.4542603258
 31
0.0
  0
LINE
  5
250
330
1B
100
AcDbEntity
 67
     1
  8
0
  6
Continuous
 62
     7
370
    25
100
AcDbLine
 10
307.7042603258
 20
286.0
 30
0.0
 11
307.2957396742
 21
286.0
 31
0.0
  0
LINE
  5
251
330
1B
100
AcDbEntity
 67
     1
  8
0
  6
Continuous
 62
     7
370
    25
100
AcDbLine
 10
304.75
 20
283.4542603258
 30
0.0
 11
304.75
 21
283.0457396742
 31
0.0
  0
LINE
  5
252
330
1B
100
AcDbEntity
 67
     1
  8
0
  6
Continuous
 62
     7
370
    25
100
AcDbLine
 10
307.2957396742
 20
280.5
 30
0.0
 11
307.38
 21
280.5
 31
0.0
  0
LINE
  5
253
330
1B
100
AcDbEntity
 67
     1
  8
0
  6
Continuous
 62
     7
370
    25
100
AcDbLine
 10
307.38
 20
272.8
 30
0.0
 11
307.38
 21
280.5
 31
0.0
  0
LINE
  5
254
330
1B
100
AcDbEntity
 67
     1
  8
0
  6
Continuous
 62
     7
370
    25
100
AcDbLine
 10
332.7
 20
272.38
 30
0.0
 11
307.8
 21
272.38
 31
0.0
  0
LINE
  5
255
330
1B
100
AcDbEntity
 67
     1
  8
0
  6
Continuous
 62
     7
370
    25
100
AcDbLine
 10
333.12
 20
305.4
 30
0.0
 11
333.12
 21
272.8
 31
0.0
  0
LINE
  5
256
330
1B
100
AcDbEntity
 67
     1
  8
0
  6
Continuous
 62
     7
370
    25
100
AcDbLine
 10
333.12
 20
305.4
 30
0.0
 11
334.5
 21
305.4
 31
0.0
  0
LINE
  5
257
330
1B
100
AcDbEntity
 67
     1
  8
0
  6
Continuous
 62
     7
370
    25
100
AcDbLine
 10
306.0
 20
271.0
 30
0.0
 11
332.7
 21
271.0
 31
0.0
  0
LINE
  5
258
330
1B
100
AcDbEntity
 67
     1
  8
0
  6
Continuous
 62
     7
370
    25
100
AcDbLine
 10
309.0
 20
276.25
 30
0.0
 11
307.62
 21
276.25
 31
0.0
  0
LINE
  5
259
330
1B
100
AcDbEntity
 67
     1
  8
0
  6
Continuous
 62
     7
370
    25
100
AcDbLine
 10
323.64
 20
271.0
 30
0.0
 11
323.64
 21
266.0
 31
0.0
  0
LINE
  5
25A
330
1B
100
AcDbEntity
 67
     1
  8
0
  6
Continuous
 62
     7
370
    25
100
AcDbLine
 10
299.04
 20
266.0
 30
0.0
 11
323.64
 21
266.0
 31
0.0
  0
LINE
  5
25B
330
1B
100
AcDbEntity
 67
     1
  8
0
  6
Continuous
 62
     7
370
    25
100
AcDbLine
 10
306.0
 20
279.75
 30
0.0
 11
306.0
 21
266.0
 31
0.0
  0
LINE
  5
25C
330
1B
100
AcDbEntity
 67
     1
  8
0
  6
Continuous
 62
     7
370
    25
100
AcDbLine
 10
299.04
 20
274.7
 30
0.0
 11
299.04
 21
266.0
 31
0.0
  0
LINE
  5
25D
330
1B
100
AcDbEntity
 67
     1
  8
0
  6
Continuous
 62
     7
370
    25
100
AcDbLine
 10
299.04
 20
274.7
 30
0.0
 11
306.0
 21
274.7
 31
0.0
  0
LINE
  5
25E
330
1B
100
AcDbEntity
 67
     1
  8
0
  6
Continuous
 62
     7
370
    25
100
AcDbLine
 10
-60.0
 20
359.0
 30
0.0
 11
60.0
 21
359.0
 31
0.0
  0
LINE
  5
25F
330
1B
100
AcDbEntity
 67
     1
  8
0
  6
Continuous
 62
     7
370
    25
100
AcDbLine
 10
60.0
 20
296.5
 30
0.0
 11
-60.0
 21
296.5
 31
0.0
  0
LINE
  5
260
330
1B
100
AcDbEntity
 67
     1
  8
0
  6
Continuous
 62
     7
370
    25
100
AcDbLine
 10
334.5
 20
264.0
 30
0.0
 11
-334.5
 21
264.0
 31
0.0
  0
LINE
  5
261
330
1B
100
AcDbEntity
 67
     1
  8
0
  6
Continuous
 62
     7
370
    25
100
AcDbLine
 10
-299.5
 20
176.0
 30
0.0
 11
-315.5
 21
176.0
 31
0.0
  0
LINE
  5
262
330
1B
100
AcDbEntity
 67
     1
  8
0
  6
Continuous
 62
     7
370
    25
100
AcDbLine
 10
-315.5
 20
176.0
 30
0.0
 11
-315.5
 21
88.0
 31
0.0
  0
LINE
  5
263
330
1B
100
AcDbEntity
 67
     1
  8
0
  6
Continuous
 62
     8
370
    25
100
AcDbLine
 10
334.5
 20
261.0
 30
0.0
 11
-334.5
 21
261.0
 31
0.0
  0
LINE
  5
264
330
1B
100
AcDbEntity
 67
     1
  8
0
  6
Continuous
 62
     8
370
    25
100
AcDbLine
 10
-334.5
 20
265.0
 30
0.0
 11
334.5
 21
265.0
 31
0.0
  0
ARC
  5
265
330
1B
100
AcDbEntity
 67
     1
  8
0
  6
Continuous
 62
     7
370
    25
100
AcDbCircle
 10
-352.5
 20
1.0
 30
0.0
 40
1.000000000000061
100
AcDbArc
 50
180.0
 51
270.0
  0
ARC
  5
266
330
1B
100
AcDbEntity
 67
     1
  8
0
  6
Continuous
 62
     7
370
    25
100
AcDbCircle
 10
-335.5
 20
1.0
 30
0.0
 40
1.000000000000061
100
AcDbArc
 50
270.0
 51
360.0
  0
ARC
  5
267
330
1B
100
AcDbEntity
 67
     1
  8
0
  6
Continuous
 62
     7
370
    25
100
AcDbCircle
 10
-335.5
 20
479.0
 30
0.0
 40
1.000000000000114
100
AcDbArc
 50
0.0
 51
90.0
  0
ARC
  5
268
330
1B
100
AcDbEntity
 67
     1
  8
0
  6
Continuous
 62
     7
370
    25
100
AcDbCircle
 10
-352.5
 20
479.0
 30
0.0
 40
1.000000000000171
100
AcDbArc
 50
90.0
 51
180.0
  0
ARC
  5
269
330
1B
100
AcDbEntity
 67
     1
  8
0
  6
Continuous
 62
     7
370
    25
100
AcDbCircle
 10
-311.0
 20
279.75
 30
0.0
 40
3.500000000000171
100
AcDbArc
 50
180.0
 51
270.0
  0
ARC
  5
26A
330
1B
100
AcDbEntity
 67
     1
  8
0
  6
Continuous
 62
     7
370
    25
100
AcDbCircle
 10
-311.0
 20
286.75
 30
0.0
 40
3.500000000000114
100
AcDbArc
 50
90.0
 51
180.0
  0
ARC
  5
26B
330
1B
100
AcDbEntity
 67
     1
  8
0
  6
Continuous
 62
     7
370
    25
100
AcDbCircle
 10
-304.0
 20
286.75
 30
0.0
 40
3.500000000000114
100
AcDbArc
 50
0.0
 51
90.0
  0
ARC
  5
26C
330
1B
100
AcDbEntity
 67
     1
  8
0
  6
Continuous
 62
     7
370
    25
100
AcDbCircle
 10
-304.0
 20
279.75
 30
0.0
 40
3.500000000000171
100
AcDbArc
 50
270.0
 51
0.0
  0
ARC
  5
26D
330
1B
100
AcDbEntity
 67
     1
  8
0
  6
Continuous
 62
     7
370
    25
100
AcDbCircle
 10
-304.0
 20
279.75
 30
0.0
 40
1.999999999999943
100
AcDbArc
 50
270.0
 51
0.0
  0
ARC
  5
26E
330
1B
100
AcDbEntity
 67
     1
  8
0
  6
Continuous
 62
     7
370
    25
100
AcDbCircle
 10
-304.0
 20
286.75
 30
0.0
 40
1.999999999999886
100
AcDbArc
 50
360.0
 51
90.0
  0
ARC
  5
26F
330
1B
100
AcDbEntity
 67
     1
  8
0
  6
Continuous
 62
     7
370
    25
100
AcDbCircle
 10
-311.0
 20
286.75
 30
0.0
 40
2.0
100
AcDbArc
 50
90.0
 51
180.0
  0
ARC
  5
270
330
1B
100
AcDbEntity
 67
     1
  8
0
  6
Continuous
 62
     7
370
    25
100
AcDbCircle
 10
-311.0
 20
279.75
 30
0.0
 40
1.999999999999943
100
AcDbArc
 50
180.0
 51
270.0
  0
ARC
  5
271
330
1B
100
AcDbEntity
 67
     1
  8
0
  6
Continuous
 62
     7
370
    25
100
AcDbCircle
 10
311.0
 20
279.75
 30
0.0
 40
1.999999999999943
100
AcDbArc
 50
270.0
 51
360.0
  0
ARC
  5
272
330
1B
100
AcDbEntity
 67
     1
  8
0
  6
Continuous
 62
     7
370
    25
100
AcDbCircle
 10
311.0
 20
286.75
 30
0.0
 40
2.0
100
AcDbArc
 50
360.0
 51
90.0
  0
ARC
  5
273
330
1B
100
AcDbEntity
 67
     1
  8
0
  6
Continuous
 62
     7
370
    25
100
AcDbCircle
 10
304.0
 20
286.75
 30
0.0
 40
1.999999999999886
100
AcDbArc
 50
90.0
 51
180.0
  0
ARC
  5
274
330
1B
100
AcDbEntity
 67
     1
  8
0
  6
Continuous
 62
     7
370
    25
100
AcDbCircle
 10
304.0
 20
279.75
 30
0.0
 40
2.0
100
AcDbArc
 50
180.0
 51
270.0
  0
ARC
  5
275
330
1B
100
AcDbEntity
 67
     1
  8
0
  6
Continuous
 62
     7
370
    25
100
AcDbCircle
 10
304.0
 20
279.75
 30
0.0
 40
3.500000000000057
100
AcDbArc
 50
180.0
 51
270.0
  0
ARC
  5
276
330
1B
100
AcDbEntity
 67
     1
  8
0
  6
Continuous
 62
     7
370
    25
100
AcDbCircle
 10
304.0
 20
286.75
 30
0.0
 40
3.5
100
AcDbArc
 50
90.0
 51
180.0
  0
ARC
  5
277
330
1B
100
AcDbEntity
 67
     1
  8
0
  6
Continuous
 62
     7
370
    25
100
AcDbCircle
 10
311.0
 20
286.75
 30
0.0
 40
3.500000000000114
100
AcDbArc
 50
360.0
 51
90.0
  0
ARC
  5
278
330
1B
100
AcDbEntity
 67
     1
  8
0
  6
Continuous
 62
     7
370
    25
100
AcDbCircle
 10
311.0
 20
279.75
 30
0.0
 40
3.500000000000114
100
AcDbArc
 50
270.0
 51
360.0
  0
ARC
  5
279
330
1B
100
AcDbEntity
 67
     1
  8
0
  6
Continuous
 62
     7
370
    25
100
AcDbCircle
 10
-332.7
 20
272.8
 30
0.0
 40
1.799999999999727
100
AcDbArc
 50
180.0
 51
270.0
  0
ARC
  5
27A
330
1B
100
AcDbEntity
 67
     1
  8
0
  6
Continuous
 62
     7
370
    25
100
AcDbCircle
 10
-332.7
 20
272.8
 30
0.0
 40
0.4200000000005844
100
AcDbArc
 50
180.0
 51
270.0
  0
ARC
  5
27B
330
1B
100
AcDbEntity
 67
     1
  8
0
  6
Continuous
 62
     7
370
    25
100
AcDbCircle
 10
-307.8
 20
272.8
 30
0.0
 40
0.4200000000012665
100
AcDbArc
 50
270.0000000001
 51
359.9999999999
  0
ARC
  5
27C
330
1B
100
AcDbEntity
 67
     1
  8
0
  6
Continuous
 62
     7
370
    25
100
AcDbCircle
 10
-304.0
 20
279.75
 30
0.0
 40
3.379999999993974
100
AcDbArc
 50
102.8202712195
 51
167.1797287805
  0
ARC
  5
27D
330
1B
100
AcDbEntity
 67
     1
  8
0
  6
Continuous
 62
     7
370
    25
100
AcDbCircle
 10
-304.0
 20
286.75
 30
0.0
 40
3.379999999993375
100
AcDbArc
 50
192.8202712195
 51
257.1797287805
  0
ARC
  5
27E
330
1B
100
AcDbEntity
 67
     1
  8
0
  6
Continuous
 62
     7
370
    25
100
AcDbCircle
 10
-311.0
 20
286.75
 30
0.0
 40
3.379999999993319
100
AcDbArc
 50
282.8202712195
 51
347.1797287805
  0
ARC
  5
27F
330
1B
100
AcDbEntity
 67
     1
  8
0
  6
Continuous
 62
     7
370
    25
100
AcDbCircle
 10
-311.0
 20
279.75
 30
0.0
 40
3.379999999993647
100
AcDbArc
 50
12.8202712195
 51
77.1797287805
  0
ARC
  5
280
330
1B
100
AcDbEntity
 67
     1
  8
0
  6
Continuous
 62
     7
370
    25
100
AcDbCircle
 10
-311.0
 20
279.75
 30
0.0
 40
1.999999999999375
100
AcDbArc
 50
360.0
 51
85.2198074134
  0
ARC
  5
281
330
1B
100
AcDbEntity
 67
     1
  8
0
  6
Continuous
 62
     7
370
    25
100
AcDbCircle
 10
-310.75
 20
282.7395651858
 30
0.0
 40
1.0
100
AcDbArc
 50
180.0
 51
265.2198096316
  0
ARC
  5
282
330
1B
100
AcDbEntity
 67
     1
  8
0
  6
Continuous
 62
     7
370
    25
100
AcDbCircle
 10
-310.75
 20
283.7604348142
 30
0.0
 40
1.000000000000253
100
AcDbArc
 50
94.7801904314
 51
180.0
  0
ARC
  5
283
330
1B
100
AcDbEntity
 67
     1
  8
0
  6
Continuous
 62
     7
370
    25
100
AcDbCircle
 10
-311.0
 20
286.75
 30
0.0
 40
2.000000000001157
100
AcDbArc
 50
274.7801925551
 51
355.2198081528
  0
ARC
  5
284
330
1B
100
AcDbEntity
 67
     1
  8
0
  6
Continuous
 62
     7
370
    25
100
AcDbCircle
 10
-308.0104348142
 20
286.5
 30
0.0
 40
0.9999999999990337
100
AcDbArc
 50
90.0
 51
175.2198081528
  0
ARC
  5
285
330
1B
100
AcDbEntity
 67
     1
  8
0
  6
Continuous
 62
     7
370
    25
100
AcDbCircle
 10
-306.9895651858
 20
286.5
 30
0.0
 40
1.000000000000171
100
AcDbArc
 50
4.7801929766
 51
90.0
  0
ARC
  5
286
330
1B
100
AcDbEntity
 67
     1
  8
0
  6
Continuous
 62
     7
370
    25
100
AcDbCircle
 10
-304.0
 20
286.75
 30
0.0
 40
2.000000000000509
100
AcDbArc
 50
184.7801912825
 51
260.4059317731
  0
ARC
  5
287
330
1B
100
AcDbEntity
 67
     1
  8
0
  6
Continuous
 62
     7
370
    25
100
AcDbCircle
 10
-304.5
 20
283.7919601085
 30
0.0
 40
0.9999999999991473
100
AcDbArc
 50
360.0
 51
80.4059317732
  0
ARC
  5
288
330
1B
100
AcDbEntity
 67
     1
  8
0
  6
Continuous
 62
     7
370
    25
100
AcDbCircle
 10
-304.5
 20
282.7080398915
 30
0.0
 40
0.9999999999993179
100
AcDbArc
 50
279.5940682268
 51
0.0
  0
ARC
  5
289
330
1B
100
AcDbEntity
 67
     1
  8
0
  6
Continuous
 62
     7
370
    25
100
AcDbCircle
 10
-304.0
 20
279.75
 30
0.0
 40
2.000000000000235
100
AcDbArc
 50
99.5940682269
 51
180.0
  0
ARC
  5
28A
330
1B
100
AcDbEntity
 67
     1
  8
0
  6
Continuous
 62
     7
370
    25
100
AcDbCircle
 10
-307.8
 20
272.8
 30
0.0
 40
1.799999999999443
100
AcDbArc
 50
270.0
 51
0.0
  0
ARC
  5
28B
330
1B
100
AcDbEntity
 67
     1
  8
0
  6
Continuous
 62
     7
370
    25
100
AcDbCircle
 10
-302.54
 20
270.0
 30
0.0
 40
3.600000000000895
100
AcDbArc
 50
346.4637972626
 51
13.5362027374
  0
ARC
  5
28C
330
1B
100
AcDbEntity
 67
     1
  8
0
  6
Continuous
 62
     7
370
    25
100
AcDbCircle
 10
335.5
 20
1.0
 30
0.0
 40
1.000000000000061
100
AcDbArc
 50
180.0
 51
270.0
  0
ARC
  5
28D
330
1B
100
AcDbEntity
 67
     1
  8
0
  6
Continuous
 62
     7
370
    25
100
AcDbCircle
 10
352.5
 20
1.0
 30
0.0
 40
1.000000000000061
100
AcDbArc
 50
270.0
 51
360.0
  0
ARC
  5
28E
330
1B
100
AcDbEntity
 67
     1
  8
0
  6
Continuous
 62
     7
370
    25
100
AcDbCircle
 10
335.5
 20
479.0
 30
0.0
 40
1.000000000000057
100
AcDbArc
 50
90.0
 51
180.0
  0
ARC
  5
28F
330
1B
100
AcDbEntity
 67
     1
  8
0
  6
Continuous
 62
     7
370
    25
100
AcDbCircle
 10
352.5
 20
479.0
 30
0.0
 40
1.000000000000057
100
AcDbArc
 50
0.0
 51
90.0
  0
ARC
  5
290
330
1B
100
AcDbEntity
 67
     1
  8
0
  6
Continuous
 62
     7
370
    25
100
AcDbCircle
 10
307.8
 20
272.8
 30
0.0
 40
1.799999999999386
100
AcDbArc
 50
180.0
 51
270.0
  0
ARC
  5
291
330
1B
100
AcDbEntity
 67
     1
  8
0
  6
Continuous
 62
     7
370
    25
100
AcDbCircle
 10
304.0
 20
279.75
 30
0.0
 40
2.000000000000235
100
AcDbArc
 50
360.0
 51
80.4059317731
  0
ARC
  5
292
330
1B
100
AcDbEntity
 67
     1
  8
0
  6
Continuous
 62
     7
370
    25
100
AcDbCircle
 10
304.5
 20
282.7080398915
 30
0.0
 40
0.9999999999991473
100
AcDbArc
 50
180.0
 51
260.4059317732
  0
ARC
  5
293
330
1B
100
AcDbEntity
 67
     1
  8
0
  6
Continuous
 62
     7
370
    25
100
AcDbCircle
 10
304.5
 20
283.7919601085
 30
0.0
 40
0.999999999999261
100
AcDbArc
 50
99.5940682268
 51
180.0
  0
ARC
  5
294
330
1B
100
AcDbEntity
 67
     1
  8
0
  6
Continuous
 62
     7
370
    25
100
AcDbCircle
 10
304.0
 20
286.75
 30
0.0
 40
2.000000000000638
100
AcDbArc
 50
279.5940682269
 51
355.2198087175
  0
ARC
  5
295
330
1B
100
AcDbEntity
 67
     1
  8
0
  6
Continuous
 62
     7
370
    25
100
AcDbCircle
 10
306.9895651858
 20
286.5
 30
0.0
 40
1.0
100
AcDbArc
 50
90.0
 51
175.2198070234
  0
ARC
  5
296
330
1B
100
AcDbEntity
 67
     1
  8
0
  6
Continuous
 62
     7
370
    25
100
AcDbCircle
 10
308.0104348142
 20
286.5
 30
0.0
 40
0.9999999999990905
100
AcDbArc
 50
4.7801918472
 51
90.0
  0
ARC
  5
297
330
1B
100
AcDbEntity
 67
     1
  8
0
  6
Continuous
 62
     7
370
    25
100
AcDbCircle
 10
311.0
 20
286.75
 30
0.0
 40
2.000000000001167
100
AcDbArc
 50
184.7801918472
 51
265.2198074449
  0
ARC
  5
298
330
1B
100
AcDbEntity
 67
     1
  8
0
  6
Continuous
 62
     7
370
    25
100
AcDbCircle
 10
310.75
 20
283.7604348142
 30
0.0
 40
1.000000000000227
100
AcDbArc
 50
0.0
 51
85.2198095686
  0
ARC
  5
299
330
1B
100
AcDbEntity
 67
     1
  8
0
  6
Continuous
 62
     7
370
    25
100
AcDbCircle
 10
310.75
 20
282.7395651858
 30
0.0
 40
0.9999999999998863
100
AcDbArc
 50
274.7801903684
 51
360.0
  0
ARC
  5
29A
330
1B
100
AcDbEntity
 67
     1
  8
0
  6
Continuous
 62
     7
370
    25
100
AcDbCircle
 10
311.0
 20
279.75
 30
0.0
 40
1.999999999999432
100
AcDbArc
 50
94.7801925866
 51
180.0
  0
ARC
  5
29B
330
1B
100
AcDbEntity
 67
     1
  8
0
  6
Continuous
 62
     7
370
    25
100
AcDbCircle
 10
311.0
 20
279.75
 30
0.0
 40
3.379999999993728
100
AcDbArc
 50
102.8202712195
 51
167.1797287805
  0
ARC
  5
29C
330
1B
100
AcDbEntity
 67
     1
  8
0
  6
Continuous
 62
     7
370
    25
100
AcDbCircle
 10
311.0
 20
286.75
 30
0.0
 40
3.3799999999934
100
AcDbArc
 50
192.8202712195
 51
257.1797287805
  0
ARC
  5
29D
330
1B
100
AcDbEntity
 67
     1
  8
0
  6
Continuous
 62
     7
370
    25
100
AcDbCircle
 10
304.0
 20
286.75
 30
0.0
 40
3.379999999993426
100
AcDbArc
 50
282.8202712195
 51
347.1797287805
  0
ARC
  5
29E
330
1B
100
AcDbEntity
 67
     1
  8
0
  6
Continuous
 62
     7
370
    25
100
AcDbCircle
 10
304.0
 20
279.75
 30
0.0
 40
3.379999999993592
100
AcDbArc
 50
12.8202712195
 51
77.1797287805
  0
ARC
  5
29F
330
1B
100
AcDbEntity
 67
     1
  8
0
  6
Continuous
 62
     7
370
    25
100
AcDbCircle
 10
307.8
 20
272.8
 30
0.0
 40
0.4200000000012665
100
AcDbArc
 50
180.0000000001
 51
269.9999999999
  0
ARC
  5
2A0
330
1B
100
AcDbEntity
 67
     1
  8
0
  6
Continuous
 62
     7
370
    25
100
AcDbCircle
 10
332.7
 20
272.8
 30
0.0
 40
0.4200000000005844
100
AcDbArc
 50
270.0
 51
360.0
  0
ARC
  5
2A1
330
1B
100
AcDbEntity
 67
     1
  8
0
  6
Continuous
 62
     7
370
    25
100
AcDbCircle
 10
332.7
 20
272.8
 30
0.0
 40
1.79999999999967
100
AcDbArc
 50
270.0
 51
0.0
  0
ARC
  5
2A2
330
1B
100
AcDbEntity
 67
     1
  8
0
  6
Continuous
 62
     7
370
    25
100
AcDbCircle
 10
302.54
 20
270.0
 30
0.0
 40
3.600000000000908
100
AcDbArc
 50
166.4637972626
 51
193.5362027374
  0
VIEWPORT
  5
52D
330
1B
100
AcDbEntity
 67
     1
  8
0
100
AcDbViewport
 10
0.0
 20
0.0
 30
0.0
 40
205.6
 41
156.0
 68
     1
 69
     1
 12
0.0
 22
240.0
 13
0.0
 23
0.0
 14
10.0
 24
10.0
 15
10.0
 25
10.0
 16
0.0
 26
0.0
 36
1.0
 17
0.0
 27
0.0
 37
0.0
 42
50.0
 43
0.0
 44
0.0
 45
547.1684824903
 50
0.0
 51
0.0
 72
   100
 90
   557152
  1

281
     0
 71
     1
 74
     0
110
0.0
120
0.0
130
0.0
111
1.0
121
0.0
131
0.0
112
0.0
122
1.0
132
0.0
 79
     0
146
0.0
  0
ENDSEC
  0
SECTION
  2
OBJECTS
  0
DICTIONARY
  5
C
330
0
100
AcDbDictionary
281
     1
  3
ACAD_GROUP
350
D
  3
ACAD_LAYOUT
350
1A
  3
ACAD_MLINESTYLE
350
17
  3
ACAD_PLOTSETTINGS
350
19
  3
ACAD_PLOTSTYLENAME
350
E
  3
ACAD_SCALELIST
350
47
  0
DICTIONARY
  5
D
102
{ACAD_REACTORS
330
C
102
}
330
C
100
AcDbDictionary
281
     1
  0
DICTIONARY
  5
1A
102
{ACAD_REACTORS
330
C
102
}
330
C
100
AcDbDictionary
281
     1
  3
_Back
350
1E
  3
_Isometric
350
3AF
  3
_Left
350
26
  3
_Top
350
309
  3
Model
350
22
  0
DICTIONARY
  5
17
102
{ACAD_REACTORS
330
C
102
}
330
C
100
AcDbDictionary
281
     1
  3
Standard
350
18
  0
DICTIONARY
  5
19
102
{ACAD_REACTORS
330
C
102
}
330
C
100
AcDbDictionary
281
     1
  0
ACDBDICTIONARYWDFLT
  5
E
102
{ACAD_REACTORS
330
C
102
}
330
C
100
AcDbDictionary
281
     1
  3
Normal
350
F
100
AcDbDictionaryWithDefault
340
F
  0
DICTIONARY
  5
47
102
{ACAD_REACTORS
330
C
102
}
330
C
100
AcDbDictionary
281
     1
  3
A0
350
48
  3
A1
350
49
  3
A2
350
4A
  3
A3
350
4B
  3
A4
350
4C
  3
A5
350
4D
  3
A6
350
4E
  3
A7
350
4F
  3
A8
350
50
  3
A9
350
51
  3
B0
350
52
  3
B1
350
53
  3
B2
350
54
  3
B3
350
55
  3
B4
350
56
  3
B5
350
57
  3
B6
350
58
  3
B7
350
59
  3
B8
350
5A
  3
B9
350
5B
  3
C0
350
5C
  3
C1
350
5D
  3
C2
350
5E
  3
C3
350
5F
  3
C4
350
60
  3
C5
350
61
  3
C6
350
62
  3
C7
350
63
  3
C8
350
64
  3
C9
350
65
  3
D0
350
66
  3
D1
350
67
  3
D2
350
68
  0
LAYOUT
  5
1E
102
{ACAD_REACTORS
330
1A
102
}
330
1A
100
AcDbPlotSettings
  1

  2
none_device
  4
ISO_A4_(210.00_x_297.00_MM)
  6

 40
7.5
 41
20.0
 42
7.5
 43
20.0
 44
210.0
 45
297.0
 46
0.0
 47
0.0
 48
0.0
 49
0.0
140
0.0
141
0.0
142
1.0
143
2.7509727626
 70
   688
 72
     1
 73
     1
 74
     1
  7

 75
     0
147
0.3635077793
148
353.5
149
0.0
100
AcDbLayout
  1
_Back
 70
     1
 71
     1
 10
-408.5194552529
 20
-20.6322957198
 11
408.5194552529
 21
557.0719844358
 12
0.0
 22
0.0
 32
0.0
 14
-353.5
 24
0.0
 34
0.0
 15
353.5
 25
480.0
 35
0.0
146
0.0
 13
0.0
 23
0.0
 33
0.0
 16
1.0
 26
0.0
 36
0.0
 17
0.0
 27
1.0
 37
0.0
 76
     0
330
1B
331
52D
  0
LAYOUT
  5
3AF
102
{ACAD_REACTORS
330
1A
102
}
330
1A
100
AcDbPlotSettings
  1

  2
none_device
  4
ISO_A4_(210.00_x_297.00_MM)
  6

 40
7.5
 41
20.0
 42
7.5
 43
20.0
 44
210.0
 45
297.0
 46
0.0
 47
0.0
 48
0.0
 49
0.0
140
0.0
141
0.0
142
1.0
143
2.7509727626
 70
   688
 72
     1
 73
     1
 74
     1
  7

 75
     0
147
0.3635077793
148
353.5
149
0.0
100
AcDbLayout
  1
_Isometric
 70
     1
 71
     4
 10
0.0
 20
0.0
 11
0.0
 21
0.0
 12
0.0
 22
0.0
 32
0.0
 14
0.0
 24
0.0
 34
0.0
 15
0.0
 25
0.0
 35
0.0
146
0.0
 13
0.0
 23
0.0
 33
0.0
 16
1.0
 26
0.0
 36
0.0
 17
0.0
 27
1.0
 37
0.0
 76
     0
330
3AE
331
533
  0
LAYOUT
  5
26
102
{ACAD_REACTORS
330
1A
102
}
330
1A
100
AcDbPlotSettings
  1

  2
none_device
  4
ISO_A4_(210.00_x_297.00_MM)
  6

 40
7.5
 41
20.0
 42
7.5
 43
20.0
 44
210.0
 45
297.0
 46
0.0
 47
0.0
 48
0.0
 49
0.0
140
0.0
141
0.0
142
1.0
143
2.7509727626
 70
   688
 72
     1
 73
     1
 74
     1
  7

 75
     0
147
0.3635077793
148
353.5
149
0.0
100
AcDbLayout
  1
_Left
 70
     1
 71
     2
 10
0.0
 20
0.0
 11
0.0
 21
0.0
 12
0.0
 22
0.0
 32
0.0
 14
0.0
 24
0.0
 34
0.0
 15
0.0
 25
0.0
 35
0.0
146
0.0
 13
0.0
 23
0.0
 33
0.0
 16
1.0
 26
0.0
 36
0.0
 17
0.0
 27
1.0
 37
0.0
 76
     0
330
23
331
52F
  0
LAYOUT
  5
309
102
{ACAD_REACTORS
330
1A
102
}
330
1A
100
AcDbPlotSettings
  1

  2
none_device
  4
ISO_A4_(210.00_x_297.00_MM)
  6

 40
7.5
 41
20.0
 42
7.5
 43
20.0
 44
210.0
 45
297.0
 46
0.0
 47
0.0
 48
0.0
 49
0.0
140
0.0
141
0.0
142
1.0
143
2.7509727626
 70
   688
 72
     1
 73
     1
 74
     1
  7

 75
     0
147
0.3635077793
148
353.5
149
0.0
100
AcDbLayout
  1
_Top
 70
     1
 71
     3
 10
0.0
 20
0.0
 11
0.0
 21
0.0
 12
0.0
 22
0.0
 32
0.0
 14
0.0
 24
0.0
 34
0.0
 15
0.0
 25
0.0
 35
0.0
146
0.0
 13
0.0
 23
0.0
 33
0.0
 16
1.0
 26
0.0
 36
0.0
 17
0.0
 27
1.0
 37
0.0
 76
     0
330
308
331
531
  0
LAYOUT
  5
22
102
{ACAD_REACTORS
330
1A
102
}
330
1A
100
AcDbPlotSettings
  1

  2
none_device
  4
ANSI_A_(11.00_x_8.50_Inches)
  6

 40
6.35
 41
19.05
 42
6.35000508
 43
19.05000254
 44
279.4
 45
215.9
 46
133.34999746
 47
-4.9973704355
 48
0.0
 49
0.0
140
0.0
141
0.0
142
0.0154031117
143
1.0
 70
  1696
 72
     0
 73
     0
 74
     0
  7

 75
     0
147
0.0179189148
148
-1300.4909072572
149
0.0
100
AcDbLayout
  1
Model
 70
     1
 71
     0
 10
0.0
 20
0.0
 11
420.0
 21
297.0
 12
0.0
 22
0.0
 32
0.0
 14
-353.5
 24
0.0
 34
0.0
 15
353.5
 25
480.0
 35
0.0
146
0.0
 13
0.0
 23
0.0
 33
0.0
 16
1.0
 26
0.0
 36
0.0
 17
0.0
 27
1.0
 37
0.0
 76
     0
330
1F
331
29
  0
MLINESTYLE
  5
18
102
{ACAD_REACTORS
330
17
102
}
330
17
100
AcDbMlineStyle
  2
Standard
 70
     0
  3

 62
   256
 51
90.0
 52
90.0
 71
     2
 49
0.5
 62
   256
  6
BYLAYER
 49
-0.5
 62
   256
  6
BYLAYER
  0
ACDBPLACEHOLDER
  5
F
102
{ACAD_REACTORS
330
E
102
}
330
E
  0
SCALE
  5
48
102
{ACAD_REACTORS
330
47
102
}
330
47
100
AcDbScale
 70
     0
300
1:1
140
1.0
141
1.0
290
     1
  0
SCALE
  5
49
102
{ACAD_REACTORS
330
47
102
}
330
47
100
AcDbScale
 70
     0
300
1:2
140
1.0
141
2.0
290
     0
  0
SCALE
  5
4A
102
{ACAD_REACTORS
330
47
102
}
330
47
100
AcDbScale
 70
     0
300
1:4
140
1.0
141
4.0
290
     0
  0
SCALE
  5
4B
102
{ACAD_REACTORS
330
47
102
}
330
47
100
AcDbScale
 70
     0
300
1:5
140
1.0
141
5.0
290
     0
  0
SCALE
  5
4C
102
{ACAD_REACTORS
330
47
102
}
330
47
100
AcDbScale
 70
     0
300
1:8
140
1.0
141
8.0
290
     0
  0
SCALE
  5
4D
102
{ACAD_REACTORS
330
47
102
}
330
47
100
AcDbScale
 70
     0
300
1:10
140
1.0
141
10.0
290
     0
  0
SCALE
  5
4E
102
{ACAD_REACTORS
330
47
102
}
330
47
100
AcDbScale
 70
     0
300
1:16
140
1.0
141
16.0
290
     0
  0
SCALE
  5
4F
102
{ACAD_REACTORS
330
47
102
}
330
47
100
AcDbScale
 70
     0
300
1:20
140
1.0
141
20.0
290
     0
  0
SCALE
  5
50
102
{ACAD_REACTORS
330
47
102
}
330
47
100
AcDbScale
 70
     0
300
1:30
140
1.0
141
30.0
290
     0
  0
SCALE
  5
51
102
{ACAD_REACTORS
330
47
102
}
330
47
100
AcDbScale
 70
     0
300
1:40
140
1.0
141
40.0
290
     0
  0
SCALE
  5
52
102
{ACAD_REACTORS
330
47
102
}
330
47
100
AcDbScale
 70
     0
300
1:50
140
1.0
141
50.0
290
     0
  0
SCALE
  5
53
102
{ACAD_REACTORS
330
47
102
}
330
47
100
AcDbScale
 70
     0
300
1:100
140
1.0
141
100.0
290
     0
  0
SCALE
  5
54
102
{ACAD_REACTORS
330
47
102
}
330
47
100
AcDbScale
 70
     0
300
2:1
140
2.0
141
1.0
290
     0
  0
SCALE
  5
55
102
{ACAD_REACTORS
330
47
102
}
330
47
100
AcDbScale
 70
     0
300
4:1
140
4.0
141
1.0
290
     0
  0
SCALE
  5
56
102
{ACAD_REACTORS
330
47
102
}
330
47
100
AcDbScale
 70
     0
300
8:1
140
8.0
141
1.0
290
     0
  0
SCALE
  5
57
102
{ACAD_REACTORS
330
47
102
}
330
47
100
AcDbScale
 70
     0
300
10:1
140
10.0
141
1.0
290
     0
  0
SCALE
  5
58
102
{ACAD_REACTORS
330
47
102
}
330
47
100
AcDbScale
 70
     0
300
100:1
140
100.0
141
1.0
290
     0
  0
SCALE
  5
59
102
{ACAD_REACTORS
330
47
102
}
330
47
100
AcDbScale
 70
     0
300
1/128" = 1'-0"
140
0.0078125
141
12.0
290
     0
  0
SCALE
  5
5A
102
{ACAD_REACTORS
330
47
102
}
330
47
100
AcDbScale
 70
     0
300
1/64" = 1'-0"
140
0.015625
141
12.0
290
     0
  0
SCALE
  5
5B
102
{ACAD_REACTORS
330
47
102
}
330
47
100
AcDbScale
 70
     0
300
1/32" = 1'-0"
140
0.03125
141
12.0
290
     0
  0
SCALE
  5
5C
102
{ACAD_REACTORS
330
47
102
}
330
47
100
AcDbScale
 70
     0
300
1/16" = 1'-0"
140
0.0625
141
12.0
290
     0
  0
SCALE
  5
5D
102
{ACAD_REACTORS
330
47
102
}
330
47
100
AcDbScale
 70
     0
300
3/32" = 1'-0"
140
0.09375
141
12.0
290
     0
  0
SCALE
  5
5E
102
{ACAD_REACTORS
330
47
102
}
330
47
100
AcDbScale
 70
     0
300
1/8" = 1'-0"
140
0.125
141
12.0
290
     0
  0
SCALE
  5
5F
102
{ACAD_REACTORS
330
47
102
}
330
47
100
AcDbScale
 70
     0
300
3/16" = 1'-0"
140
0.1875
141
12.0
290
     0
  0
SCALE
  5
60
102
{ACAD_REACTORS
330
47
102
}
330
47
100
AcDbScale
 70
     0
300
1/4" = 1'-0"
140
0.25
141
12.0
290
     0
  0
SCALE
  5
61
102
{ACAD_REACTORS
330
47
102
}
330
47
100
AcDbScale
 70
     0
300
3/8" = 1'-0"
140
0.375
141
12.0
290
     0
  0
SCALE
  5
62
102
{ACAD_REACTORS
330
47
102
}
330
47
100
AcDbScale
 70
     0
300
1/2" = 1'-0"
140
0.5
141
12.0
290
     0
  0
SCALE
  5
63
102
{ACAD_REACTORS
330
47
102
}
330
47
100
AcDbScale
 70
     0
300
3/4" = 1'-0"
140
0.75
141
12.0
290
     0
  0
SCALE
  5
64
102
{ACAD_REACTORS
330
47
102
}
330
47
100
AcDbScale
 70
     0
300
1" = 1'-0"
140
1.0
141
12.0
290
     0
  0
SCALE
  5
65
102
{ACAD_REACTORS
330
47
102
}
330
47
100
AcDbScale
 70
     0
300
1-1/2" = 1'-0"
140
1.5
141
12.0
290
     0
  0
SCALE
  5
66
102
{ACAD_REACTORS
330
47
102
}
330
47
100
AcDbScale
 70
     0
300
3" = 1'-0"
140
3.0
141
12.0
290
     0
  0
SCALE
  5
67
102
{ACAD_REACTORS
330
47
102
}
330
47
100
AcDbScale
 70
     0
300
6" = 1'-0"
140
6.0
141
12.0
290
     0
  0
SCALE
  5
68
102
{ACAD_REACTORS
330
47
102
}
330
47
100
AcDbScale
 70
     0
300
1'-0" = 1'-0"
140
12.0
141
12.0
290
     0
  0
ENDSEC
  0
EOF
