  0
SECTION
  2
HEADER
  9
$ACADVER
  1
AC1015
  9
$ACADMAINTVER
 70
     6
  9
$DWGCODEPAGE
  3
ANSI_1252
  9
$INSBASE
 10
0.0
 20
0.0
 30
0.0
  9
$EXTMIN
 10
-355.5
 20
-224.0
 30
0.0
  9
$EXTMAX
 10
355.5
 20
224.0
 30
0.0
  9
$LIMMIN
 10
0.0
 20
0.0
  9
$LIMMAX
 10
420.0
 20
297.0
  9
$ORTHOMODE
 70
     0
  9
$REGENMODE
 70
     1
  9
$FILLMODE
 70
     1
  9
$QTEXTMODE
 70
     0
  9
$MIRRTEXT
 70
     1
  9
$LTSCALE
 40
1.0
  9
$ATTMODE
 70
     1
  9
$TEXTSIZE
 40
3.5
  9
$TRACEWID
 40
1.0
  9
$TEXTSTYLE
  7
Standard
  9
$CLAYER
  8
0
  9
$CELTYPE
  6
ByLayer
  9
$CECOLOR
 62
   256
  9
$CELTSCALE
 40
1.0
  9
$DISPSILH
 70
     0
  9
$DIMSCALE
 40
1.0
  9
$DIMASZ
 40
3.302
  9
$DIMEXO
 40
1.0
  9
$DIMDLI
 40
3.75
  9
$DIMRND
 40
0.0
  9
$DIMDLE
 40
0.0
  9
$DIMEXE
 40
1.0
  9
$DIMTP
 40
0.0
  9
$DIMTM
 40
0.0
  9
$DIMTXT
 40
3.5
  9
$DIMCEN
 40
2.5
  9
$DIMTSZ
 40
0.0
  9
$DIMTOL
 70
     0
  9
$DIMLIM
 70
     0
  9
$DIMTIH
 70
     1
  9
$DIMTOH
 70
     1
  9
$DIMSE1
 70
     0
  9
$DIMSE2
 70
     0
  9
$DIMTAD
 70
     1
  9
$DIMZIN
 70
     1
  9
$DIMBLK
  1

  9
$DIMASO
 70
     1
  9
$DIMSHO
 70
     1
  9
$DIMPOST
  1

  9
$DIMAPOST
  1

  9
$DIMALT
 70
     0
  9
$DIMALTD
 70
     3
  9
$DIMALTF
 40
0.0393700787
  9
$DIMLFAC
 40
1.0
  9
$DIMTOFL
 70
     1
  9
$DIMTVP
 40
0.0
  9
$DIMTIX
 70
     0
  9
$DIMSOXD
 70
     0
  9
$DIMSAH
 70
     0
  9
$DIMBLK1
  1

  9
$DIMBLK2
  1

  9
$DIMSTYLE
  2
ISO-25
  9
$DIMCLRD
 70
     0
  9
$DIMCLRE
 70
     0
  9
$DIMCLRT
 70
     0
  9
$DIMTFAC
 40
1.0
  9
$DIMGAP
 40
1.524
  9
$DIMJUST
 70
     0
  9
$DIMSD1
 70
     0
  9
$DIMSD2
 70
     0
  9
$DIMTOLJ
 70
     0
  9
$DIMTZIN
 70
     1
  9
$DIMALTZ
 70
     0
  9
$DIMALTTZ
 70
     0
  9
$DIMUPT
 70
     0
  9
$DIMDEC
 70
     2
  9
$DIMTDEC
 70
     2
  9
$DIMALTU
 70
     2
  9
$DIMALTTD
 70
     3
  9
$DIMTXSTY
  7
Standard
  9
$DIMAUNIT
 70
     0
  9
$DIMADEC
 70
     2
  9
$DIMALTRND
 40
0.0
  9
$DIMAZIN
 70
     0
  9
$DIMDSEP
 70
    44
  9
$DIMATFIT
 70
     3
  9
$DIMFRAC
 70
     0
  9
$DIMLDRBLK
  1

  9
$DIMLUNIT
 70
     2
  9
$DIMLWD
 70
    -2
  9
$DIMLWE
 70
    -2
  9
$DIMTMOVE
 70
     0
  9
$LUNITS
 70
     2
  9
$LUPREC
 70
     2
  9
$SKETCHINC
 40
1.0
  9
$FILLETRAD
 40
10.0
  9
$AUNITS
 70
     0
  9
$AUPREC
 70
     2
  9
$MENU
  1
.
  9
$ELEVATION
 40
0.0
  9
$PELEVATION
 40
0.0
  9
$THICKNESS
 40
0.0
  9
$LIMCHECK
 70
     0
  9
$CHAMFERA
 40
0.0
  9
$CHAMFERB
 40
0.0
  9
$CHAMFERC
 40
0.0
  9
$CHAMFERD
 40
0.0
  9
$SKPOLY
 70
     0
  9
$TDCREATE
 40
2458862.479383437
  9
$TDUCREATE
 40
2458862.479383437
  9
$TDUPDATE
 40
2458862.479415231
  9
$TDUUPDATE
 40
2458862.479415231
  9
$TDINDWG
 40
0.0000000116
  9
$TDUSRTIMER
 40
0.0000000116
  9
$USRTIMER
 70
     1
  9
$ANGBASE
 50
0.0
  9
$ANGDIR
 70
     0
  9
$PDMODE
 70
     0
  9
$PDSIZE
 40
-1.0
  9
$PLINEWID
 40
0.0
  9
$SPLFRAME
 70
     0
  9
$SPLINETYPE
 70
     6
  9
$SPLINESEGS
 70
     8
  9
$HANDSEED
  5
2A3
  9
$SURFTAB1
 70
     6
  9
$SURFTAB2
 70
     6
  9
$SURFTYPE
 70
     6
  9
$SURFU
 70
     6
  9
$SURFV
 70
     6
  9
$UCSBASE
  2

  9
$UCSNAME
  2

  9
$UCSORG
 10
0.0
 20
0.0
 30
0.0
  9
$UCSXDIR
 10
1.0
 20
0.0
 30
0.0
  9
$UCSYDIR
 10
0.0
 20
1.0
 30
0.0
  9
$UCSORTHOREF
  2

  9
$UCSORTHOVIEW
 70
     0
  9
$UCSORGTOP
 10
0.0
 20
0.0
 30
0.0
  9
$UCSORGBOTTOM
 10
0.0
 20
0.0
 30
0.0
  9
$UCSORGLEFT
 10
0.0
 20
0.0
 30
0.0
  9
$UCSORGRIGHT
 10
0.0
 20
0.0
 30
0.0
  9
$UCSORGFRONT
 10
0.0
 20
0.0
 30
0.0
  9
$UCSORGBACK
 10
0.0
 20
0.0
 30
0.0
  9
$PUCSBASE
  2

  9
$PUCSNAME
  2

  9
$PUCSORG
 10
0.0
 20
0.0
 30
0.0
  9
$PUCSXDIR
 10
1.0
 20
0.0
 30
0.0
  9
$PUCSYDIR
 10
0.0
 20
1.0
 30
0.0
  9
$PUCSORTHOREF
  2

  9
$PUCSORTHOVIEW
 70
     0
  9
$PUCSORGTOP
 10
0.0
 20
0.0
 30
0.0
  9
$PUCSORGBOTTOM
 10
0.0
 20
0.0
 30
0.0
  9
$PUCSORGLEFT
 10
0.0
 20
0.0
 30
0.0
  9
$PUCSORGRIGHT
 10
0.0
 20
0.0
 30
0.0
  9
$PUCSORGFRONT
 10
0.0
 20
0.0
 30
0.0
  9
$PUCSORGBACK
 10
0.0
 20
0.0
 30
0.0
  9
$USERI1
 70
     0
  9
$USERI2
 70
     0
  9
$USERI3
 70
     0
  9
$USERI4
 70
     0
  9
$USERI5
 70
     0
  9
$USERR1
 40
0.0
  9
$USERR2
 40
0.0
  9
$USERR3
 40
0.0
  9
$USERR4
 40
0.0
  9
$USERR5
 40
0.0
  9
$WORLDVIEW
 70
     1
  9
$SHADEDGE
 70
     3
  9
$SHADEDIF
 70
    70
  9
$TILEMODE
 70
     1
  9
$MAXACTVP
 70
    64
  9
$PINSBASE
 10
0.0
 20
0.0
 30
0.0
  9
$PLIMCHECK
 70
     0
  9
$PEXTMIN
 10
-355.5
 20
0.0
 30
0.0
  9
$PEXTMAX
 10
355.5
 20
24.0
 30
0.0
  9
$PLIMMIN
 10
-410.8307392996
 20
-20.7490272374
  9
$PLIMMAX
 10
410.8307392996
 20
560.2237354086
  9
$UNITMODE
 70
     0
  9
$VISRETAIN
 70
     1
  9
$PLINEGEN
 70
     0
  9
$PSLTSCALE
 70
     1
  9
$TREEDEPTH
 70
  3020
  9
$CMLSTYLE
  2
Standard
  9
$CMLJUST
 70
     0
  9
$CMLSCALE
 40
20.0
  9
$PROXYGRAPHICS
 70
     1
  9
$MEASUREMENT
 70
     1
  9
$CELWEIGHT
370
    -1
  9
$ENDCAPS
280
     0
  9
$JOINSTYLE
280
     0
  9
$LWDISPLAY
290
     1
  9
$INSUNITS
 70
     4
  9
$HYPERLINKBASE
  1

  9
$STYLESHEET
  1

  9
$XEDIT
290
     1
  9
$CEPSNTYPE
380
     0
  9
$PSTYLEMODE
290
     1
  9
$FINGERPRINTGUID
  2
{fb5013b7-5373-40ef-b612-bd5f165f0bc3}
  9
$VERSIONGUID
  2
{FAEB1C32-E019-11D5-929B-00C0DF256EC4}
  9
$EXTNAMES
290
     1
  9
$PSVPSCALE
 40
0.0
  9
$OLESTARTUP
290
     0
  0
ENDSEC
  0
SECTION
  2
CLASSES
  0
CLASS
  1
ACDBDICTIONARYWDFLT
  2
AcDbDictionaryWithDefault
  3
ObjectDBX Classes
 90
        0
280
     0
281
     0
  0
CLASS
  1
VISUALSTYLE
  2
AcDbVisualStyle
  3
ObjectDBX Classes
 90
     4095
280
     0
281
     0
  0
CLASS
  1
MATERIAL
  2
AcDbMaterial
  3
ObjectDBX Classes
 90
     1153
280
     0
281
     0
  0
CLASS
  1
SCALE
  2
AcDbScale
  3
ObjectDBX Classes
 90
     1153
280
     0
281
     0
  0
CLASS
  1
TABLESTYLE
  2
AcDbTableStyle
  3
ObjectDBX Classes
 90
     4095
280
     0
281
     0
  0
CLASS
  1
MLEADERSTYLE
  2
AcDbMLeaderStyle
  3
ACDB_MLEADERSTYLE_CLASS
 90
     4095
280
     0
281
     0
  0
CLASS
  1
SUN
  2
AcDbSun
  3
SCENEOE
 90
     1153
280
     0
281
     0
  0
CLASS
  1
ACDBPLACEHOLDER
  2
AcDbPlaceHolder
  3
ObjectDBX Classes
 90
        0
280
     0
281
     0
  0
CLASS
  1
LAYOUT
  2
AcDbLayout
  3
ObjectDBX Classes
 90
        0
280
     0
281
     0
  0
ENDSEC
  0
SECTION
  2
TABLES
  0
TABLE
  2
VPORT
  5
8
330
0
100
AcDbSymbolTable
 70
     1
  0
VPORT
  5
29
330
8
100
AcDbSymbolTableRecord
100
AcDbViewportTableRecord
  2
*Active
 70
     0
 10
0.0
 20
0.0
 11
1.0
 21
1.0
 12
0.0
 22
0.0
 13
0.0
 23
0.0
 14
10.0
 24
10.0
 15
10.0
 25
10.0
 16
0.0
 26
0.0
 36
1.0
 17
0.0
 27
0.0
 37
0.0
 40
456.96
 41
1.5870535714
 42
50.0
 43
0.0
 44
0.0
 50
0.0
 51
0.0
 71
     0
 72
   100
 73
     1
 74
     3
 75
     0
 76
     0
 77
     0
 78
     0
281
     0
 65
     1
110
0.0
120
0.0
130
0.0
111
1.0
121
0.0
131
0.0
112
0.0
122
1.0
132
0.0
 79
     0
146
0.0
  0
ENDTAB
  0
TABLE
  2
LTYPE
  5
5
330
0
100
AcDbSymbolTable
 70
     6
  0
LTYPE
  5
14
330
5
100
AcDbSymbolTableRecord
100
AcDbLinetypeTableRecord
  2
ByBlock
 70
     0
  3

 72
    65
 73
     0
 40
0.0
  0
LTYPE
  5
15
330
5
100
AcDbSymbolTableRecord
100
AcDbLinetypeTableRecord
  2
ByLayer
 70
     0
  3

 72
    65
 73
     0
 40
0.0
  0
LTYPE
  5
16
330
5
100
AcDbSymbolTableRecord
100
AcDbLinetypeTableRecord
  2
Continuous
 70
     0
  3
Solid line
 72
    65
 73
     0
 40
0.0
  0
LTYPE
  5
6E
330
5
100
AcDbSymbolTableRecord
100
AcDbLinetypeTableRecord
  2
HIDDEN
 70
     0
  3
Hidden __ __ __ __ __ __ __ __ __ __ __ __ __ __
 72
    65
 73
     2
 40
1.905
 49
1.27
 74
     0
 49
-0.635
 74
     0
  0
LTYPE
  5
6F
330
5
100
AcDbSymbolTableRecord
100
AcDbLinetypeTableRecord
  2
PHANTOM
 70
     0
  3
Phantom ______  __  __  ______  __  __  ______
 72
    65
 73
     6
 40
12.7
 49
6.35
 74
     0
 49
-1.27
 74
     0
 49
1.27
 74
     0
 49
-1.27
 74
     0
 49
1.27
 74
     0
 49
-1.27
 74
     0
  0
LTYPE
  5
70
330
5
100
AcDbSymbolTableRecord
100
AcDbLinetypeTableRecord
  2
CENTER
 70
     0
  3
Center ____ _ ____ _ ____ _ ____ _ ____ _ ____
 72
    65
 73
     4
 40
10.16
 49
6.35
 74
     0
 49
-1.27
 74
     0
 49
1.27
 74
     0
 49
-1.27
 74
     0
  0
LTYPE
  5
71
330
5
100
AcDbSymbolTableRecord
100
AcDbLinetypeTableRecord
  2
CENTERX2
 70
     0
  3
Center (2x) ________  __  ________  __  _____
 72
    65
 73
     4
 40
20.32
 49
12.7
 74
     0
 49
-2.54
 74
     0
 49
2.54
 74
     0
 49
-2.54
 74
     0
  0
LTYPE
  5
72
330
5
100
AcDbSymbolTableRecord
100
AcDbLinetypeTableRecord
  2
DOT2
 70
     0
  3
Dot (.5x) ........................................
 72
    65
 73
     2
 40
0.635
 49
0.0
 74
     0
 49
-0.635
 74
     0
  0
ENDTAB
  0
TABLE
  2
LAYER
  5
2
330
0
100
AcDbSymbolTable
 70
     1
  0
LAYER
  5
10
330
2
100
AcDbSymbolTableRecord
100
AcDbLayerTableRecord
  2
0
 70
     0
 62
     7
  6
Continuous
370
    -3
390
F
  0
ENDTAB
  0
TABLE
  2
STYLE
  5
3
330
0
100
AcDbSymbolTable
 70
     1
  0
STYLE
  5
11
330
3
100
AcDbSymbolTableRecord
100
AcDbTextStyleTableRecord
  2
Standard
 70
     0
 40
0.0
 41
1.0
 50
0.0
 71
     0
 42
3.5
  3
txt
  4

  0
ENDTAB
  0
TABLE
  2
VIEW
  5
6
330
0
100
AcDbSymbolTable
 70
     0
  0
ENDTAB
  0
TABLE
  2
UCS
  5
7
330
0
100
AcDbSymbolTable
 70
     0
  0
ENDTAB
  0
TABLE
  2
APPID
  5
9
330
0
100
AcDbSymbolTable
 70
     1
  0
APPID
  5
12
330
9
100
AcDbSymbolTableRecord
100
AcDbRegAppTableRecord
  2
ACAD
 70
     0
  0
ENDTAB
  0
TABLE
  2
DIMSTYLE
  5
A
330
0
100
AcDbSymbolTable
 70
     1
100
AcDbDimStyleTable
  0
DIMSTYLE
105
27
330
A
100
AcDbSymbolTableRecord
100
AcDbDimStyleTableRecord
  2
ISO-25
 70
     0
 41
2.5
 42
0.625
 43
3.75
 44
1.25
 73
     0
 74
     0
 77
     1
 78
     8
140
2.5
141
2.5
143
0.0393700787
147
0.625
171
     3
172
     1
178
     0
271
     2
272
     2
274
     3
278
    44
283
     0
284
     8
340
11
  0
ENDTAB
  0
TABLE
  2
BLOCK_RECORD
  5
1
330
0
100
AcDbSymbolTable
 70
     8
  0
BLOCK_RECORD
  5
1F
330
1
100
AcDbSymbolTableRecord
100
AcDbBlockTableRecord
  2
*Model_Space
340
22
  0
BLOCK_RECORD
  5
1B
330
1
100
AcDbSymbolTableRecord
100
AcDbBlockTableRecord
  2
*Paper_Space
340
1E
  0
BLOCK_RECORD
  5
23
330
1
100
AcDbSymbolTableRecord
100
AcDbBlockTableRecord
  2
*Paper_Space0
340
26
  0
BLOCK_RECORD
  5
D3
330
1
100
AcDbSymbolTableRecord
100
AcDbBlockTableRecord
  2
*Paper_Space1
340
D4
  0
BLOCK_RECORD
  5
F7
330
1
100
AcDbSymbolTableRecord
100
AcDbBlockTableRecord
  2
*Paper_Space2
340
F8
  0
BLOCK_RECORD
  5
11B
330
1
100
AcDbSymbolTableRecord
100
AcDbBlockTableRecord
  2
*Paper_Space3
340
11C
  0
BLOCK_RECORD
  5
13F
330
1
100
AcDbSymbolTableRecord
100
AcDbBlockTableRecord
  2
*Paper_Space4
340
140
  0
BLOCK_RECORD
  5
197
330
1
100
AcDbSymbolTableRecord
100
AcDbBlockTableRecord
  2
*Paper_Space5
340
198
  0
BLOCK_RECORD
  5
1EB
330
1
100
AcDbSymbolTableRecord
100
AcDbBlockTableRecord
  2
*Paper_Space6
340
1EC
  0
BLOCK_RECORD
  5
23B
330
1
100
AcDbSymbolTableRecord
100
AcDbBlockTableRecord
  2
*Paper_Space7
340
23C
  0
ENDTAB
  0
ENDSEC
  0
SECTION
  2
BLOCKS
  0
BLOCK
  5
20
330
1F
100
AcDbEntity
  8
0
100
AcDbBlockBegin
  2
*Model_Space
 70
     0
 10
0.0
 20
0.0
 30
0.0
  3
*Model_Space
  1

  0
ENDBLK
  5
21
330
1F
100
AcDbEntity
  8
0
100
AcDbBlockEnd
  0
BLOCK
  5
1C
330
1B
100
AcDbEntity
 67
     1
  8
0
100
AcDbBlockBegin
  2
*Paper_Space
 70
     0
 10
0.0
 20
0.0
 30
0.0
  3
*Paper_Space
  1

  0
ENDBLK
  5
1D
330
1B
100
AcDbEntity
 67
     1
  8
0
100
AcDbBlockEnd
  0
BLOCK
  5
24
330
23
100
AcDbEntity
  8
0
100
AcDbBlockBegin
  2
*Paper_Space0
 70
     0
 10
0.0
 20
0.0
 30
0.0
  3
*Paper_Space0
  1

  0
LINE
  5
C7
330
23
100
AcDbEntity
  8
0
  6
Continuous
 62
     7
370
    25
100
AcDbLine
 10
-223.0
 20
24.0
 30
0.0
 11
-223.0
 21
0.0
 31
0.0
  0
LINE
  5
C8
330
23
100
AcDbEntity
  8
0
  6
Continuous
 62
     7
370
    25
100
AcDbLine
 10
-224.0
 20
1.0
 30
0.0
 11
224.0
 21
1.0
 31
0.0
  0
LINE
  5
C9
330
23
100
AcDbEntity
  8
0
  6
Continuous
 62
     7
370
    25
100
AcDbLine
 10
-224.0
 20
1.0
 30
0.0
 11
-224.0
 21
23.0
 31
0.0
  0
LINE
  5
CA
330
23
100
AcDbEntity
  8
0
  6
Continuous
 62
     7
370
    25
100
AcDbLine
 10
224.0
 20
23.0
 30
0.0
 11
-224.0
 21
23.0
 31
0.0
  0
LINE
  5
CB
330
23
100
AcDbEntity
  8
0
  6
Continuous
 62
     7
370
    25
100
AcDbLine
 10
223.0
 20
0.0
 30
0.0
 11
-223.0
 21
0.0
 31
0.0
  0
LINE
  5
CC
330
23
100
AcDbEntity
  8
0
  6
Continuous
 62
     7
370
    25
100
AcDbLine
 10
223.0
 20
0.0
 30
0.0
 11
223.0
 21
24.0
 31
0.0
  0
LINE
  5
CD
330
23
100
AcDbEntity
  8
0
  6
Continuous
 62
     7
370
    25
100
AcDbLine
 10
-223.0
 20
24.0
 30
0.0
 11
223.0
 21
24.0
 31
0.0
  0
LINE
  5
CE
330
23
100
AcDbEntity
  8
0
  6
Continuous
 62
     7
370
    25
100
AcDbLine
 10
224.0
 20
23.0
 30
0.0
 11
224.0
 21
1.0
 31
0.0
  0
ARC
  5
CF
330
23
100
AcDbEntity
  8
0
  6
Continuous
 62
     7
370
    25
100
AcDbCircle
 10
-223.0
 20
1.0
 30
0.0
 40
1.000000000000002
100
AcDbArc
 50
180.0
 51
270.0
  0
ARC
  5
D0
330
23
100
AcDbEntity
  8
0
  6
Continuous
 62
     7
370
    25
100
AcDbCircle
 10
-223.0
 20
23.0
 30
0.0
 40
1.0
100
AcDbArc
 50
90.0
 51
180.0
  0
ARC
  5
D1
330
23
100
AcDbEntity
  8
0
  6
Continuous
 62
     7
370
    25
100
AcDbCircle
 10
223.0
 20
23.0
 30
0.0
 40
1.0
100
AcDbArc
 50
0.0
 51
90.0
  0
ARC
  5
D2
330
23
100
AcDbEntity
  8
0
  6
Continuous
 62
     7
370
    25
100
AcDbCircle
 10
223.0
 20
1.0
 30
0.0
 40
1.0
100
AcDbArc
 50
270.0
 51
0.0
  0
VIEWPORT
  5
293
330
23
100
AcDbEntity
  8
0
100
AcDbViewport
 10
0.0
 20
0.0
 30
0.0
 40
205.6
 41
156.0
 68
     1
 69
     1
 12
0.0
 22
0.0
 13
0.0
 23
0.0
 14
10.0
 24
10.0
 15
10.0
 25
10.0
 16
0.0
 26
0.0
 36
1.0
 17
0.0
 27
0.0
 37
0.0
 42
50.0
 43
0.0
 44
0.0
 45
550.2642023346
 50
0.0
 51
0.0
 72
   100
 90
   557152
  1

281
     0
 71
     1
 74
     0
110
0.0
120
0.0
130
0.0
111
1.0
121
0.0
131
0.0
112
0.0
122
1.0
132
0.0
 79
     0
146
0.0
  0
ENDBLK
  5
25
330
23
100
AcDbEntity
  8
0
100
AcDbBlockEnd
  0
BLOCK
  5
D5
330
D3
100
AcDbEntity
  8
0
100
AcDbBlockBegin
  2
*Paper_Space1
 70
     0
 10
0.0
 20
0.0
 30
0.0
  3
*Paper_Space1
  1

  0
LINE
  5
EB
330
D3
100
AcDbEntity
  8
0
  6
Continuous
 62
     7
370
    25
100
AcDbLine
 10
355.5
 20
23.0
 30
0.0
 11
355.5
 21
1.0
 31
0.0
  0
LINE
  5
EC
330
D3
100
AcDbEntity
  8
0
  6
Continuous
 62
     7
370
    25
100
AcDbLine
 10
-355.5
 20
1.0
 30
0.0
 11
355.5
 21
1.0
 31
0.0
  0
LINE
  5
ED
330
D3
100
AcDbEntity
  8
0
  6
Continuous
 62
     7
370
    25
100
AcDbLine
 10
354.5
 20
0.0
 30
0.0
 11
354.5
 21
24.0
 31
0.0
  0
LINE
  5
EE
330
D3
100
AcDbEntity
  8
0
  6
Continuous
 62
     7
370
    25
100
AcDbLine
 10
355.5
 20
23.0
 30
0.0
 11
-355.5
 21
23.0
 31
0.0
  0
LINE
  5
EF
330
D3
100
AcDbEntity
  8
0
  6
Continuous
 62
     7
370
    25
100
AcDbLine
 10
-354.5
 20
24.0
 30
0.0
 11
-354.5
 21
0.0
 31
0.0
  0
LINE
  5
F0
330
D3
100
AcDbEntity
  8
0
  6
Continuous
 62
     7
370
    25
100
AcDbLine
 10
354.5
 20
0.0
 30
0.0
 11
-354.5
 21
0.0
 31
0.0
  0
LINE
  5
F1
330
D3
100
AcDbEntity
  8
0
  6
Continuous
 62
     7
370
    25
100
AcDbLine
 10
-354.5
 20
24.0
 30
0.0
 11
354.5
 21
24.0
 31
0.0
  0
LINE
  5
F2
330
D3
100
AcDbEntity
  8
0
  6
Continuous
 62
     7
370
    25
100
AcDbLine
 10
-355.5
 20
1.0
 30
0.0
 11
-355.5
 21
23.0
 31
0.0
  0
ARC
  5
F3
330
D3
100
AcDbEntity
  8
0
  6
Continuous
 62
     7
370
    25
100
AcDbCircle
 10
354.5
 20
23.0
 30
0.0
 40
1.000000000000057
100
AcDbArc
 50
0.0
 51
90.0
  0
ARC
  5
F4
330
D3
100
AcDbEntity
  8
0
  6
Continuous
 62
     7
370
    25
100
AcDbCircle
 10
-354.5
 20
23.0
 30
0.0
 40
1.000000000000057
100
AcDbArc
 50
90.0
 51
180.0
  0
ARC
  5
F5
330
D3
100
AcDbEntity
  8
0
  6
Continuous
 62
     7
370
    25
100
AcDbCircle
 10
354.5
 20
1.0
 30
0.0
 40
1.000000000000057
100
AcDbArc
 50
270.0
 51
360.0
  0
ARC
  5
F6
330
D3
100
AcDbEntity
  8
0
  6
Continuous
 62
     7
370
    25
100
AcDbCircle
 10
-354.5
 20
1.0
 30
0.0
 40
1.000000000000057
100
AcDbArc
 50
180.0
 51
270.0
  0
VIEWPORT
  5
295
330
D3
100
AcDbEntity
  8
0
100
AcDbViewport
 10
0.0
 20
0.0
 30
0.0
 40
205.6
 41
156.0
 68
     1
 69
     1
 12
0.0
 22
0.0
 13
0.0
 23
0.0
 14
10.0
 24
10.0
 15
10.0
 25
10.0
 16
0.0
 26
0.0
 36
1.0
 17
0.0
 27
0.0
 37
0.0
 42
50.0
 43
0.0
 44
0.0
 45
550.2642023346
 50
0.0
 51
0.0
 72
   100
 90
   557152
  1

281
     0
 71
     1
 74
     0
110
0.0
120
0.0
130
0.0
111
1.0
121
0.0
131
0.0
112
0.0
122
1.0
132
0.0
 79
     0
146
0.0
  0
ENDBLK
  5
D6
330
D3
100
AcDbEntity
  8
0
100
AcDbBlockEnd
  0
BLOCK
  5
F9
330
F7
100
AcDbEntity
  8
0
100
AcDbBlockBegin
  2
*Paper_Space2
 70
     0
 10
0.0
 20
0.0
 30
0.0
  3
*Paper_Space2
  1

  0
LINE
  5
10F
330
F7
100
AcDbEntity
  8
0
  6
Continuous
 62
     7
370
    25
100
AcDbLine
 10
223.0
 20
0.0
 30
0.0
 11
223.0
 21
24.0
 31
0.0
  0
LINE
  5
110
330
F7
100
AcDbEntity
  8
0
  6
Continuous
 62
     7
370
    25
100
AcDbLine
 10
-224.0
 20
1.0
 30
0.0
 11
224.0
 21
1.0
 31
0.0
  0
LINE
  5
111
330
F7
100
AcDbEntity
  8
0
  6
Continuous
 62
     7
370
    25
100
AcDbLine
 10
-223.0
 20
24.0
 30
0.0
 11
-223.0
 21
0.0
 31
0.0
  0
LINE
  5
112
330
F7
100
AcDbEntity
  8
0
  6
Continuous
 62
     7
370
    25
100
AcDbLine
 10
224.0
 20
23.0
 30
0.0
 11
-224.0
 21
23.0
 31
0.0
  0
LINE
  5
113
330
F7
100
AcDbEntity
  8
0
  6
Continuous
 62
     7
370
    25
100
AcDbLine
 10
-224.0
 20
1.0
 30
0.0
 11
-224.0
 21
23.0
 31
0.0
  0
LINE
  5
114
330
F7
100
AcDbEntity
  8
0
  6
Continuous
 62
     7
370
    25
100
AcDbLine
 10
-223.0
 20
24.0
 30
0.0
 11
223.0
 21
24.0
 31
0.0
  0
LINE
  5
115
330
F7
100
AcDbEntity
  8
0
  6
Continuous
 62
     7
370
    25
100
AcDbLine
 10
223.0
 20
0.0
 30
0.0
 11
-223.0
 21
0.0
 31
0.0
  0
LINE
  5
116
330
F7
100
AcDbEntity
  8
0
  6
Continuous
 62
     7
370
    25
100
AcDbLine
 10
224.0
 20
23.0
 30
0.0
 11
224.0
 21
1.0
 31
0.0
  0
ARC
  5
117
330
F7
100
AcDbEntity
  8
0
  6
Continuous
 62
     7
370
    25
100
AcDbCircle
 10
-223.0
 20
23.0
 30
0.0
 40
1.0
100
AcDbArc
 50
90.0
 51
180.0
  0
ARC
  5
118
330
F7
100
AcDbEntity
  8
0
  6
Continuous
 62
     7
370
    25
100
AcDbCircle
 10
-223.0
 20
1.0
 30
0.0
 40
1.0
100
AcDbArc
 50
180.0
 51
270.0
  0
ARC
  5
119
330
F7
100
AcDbEntity
  8
0
  6
Continuous
 62
     7
370
    25
100
AcDbCircle
 10
223.0
 20
23.0
 30
0.0
 40
1.0
100
AcDbArc
 50
0.0
 51
90.0
  0
ARC
  5
11A
330
F7
100
AcDbEntity
  8
0
  6
Continuous
 62
     7
370
    25
100
AcDbCircle
 10
223.0
 20
1.0
 30
0.0
 40
1.000000000000002
100
AcDbArc
 50
270.0
 51
0.0
  0
VIEWPORT
  5
297
330
F7
100
AcDbEntity
  8
0
100
AcDbViewport
 10
0.0
 20
0.0
 30
0.0
 40
205.6
 41
156.0
 68
     1
 69
     1
 12
0.0
 22
0.0
 13
0.0
 23
0.0
 14
10.0
 24
10.0
 15
10.0
 25
10.0
 16
0.0
 26
0.0
 36
1.0
 17
0.0
 27
0.0
 37
0.0
 42
50.0
 43
0.0
 44
0.0
 45
550.2642023346
 50
0.0
 51
0.0
 72
   100
 90
   557152
  1

281
     0
 71
     1
 74
     0
110
0.0
120
0.0
130
0.0
111
1.0
121
0.0
131
0.0
112
0.0
122
1.0
132
0.0
 79
     0
146
0.0
  0
ENDBLK
  5
FA
330
F7
100
AcDbEntity
  8
0
100
AcDbBlockEnd
  0
BLOCK
  5
11D
330
11B
100
AcDbEntity
  8
0
100
AcDbBlockBegin
  2
*Paper_Space3
 70
     0
 10
0.0
 20
0.0
 30
0.0
  3
*Paper_Space3
  1

  0
LINE
  5
133
330
11B
100
AcDbEntity
  8
0
  6
Continuous
 62
     7
370
    25
100
AcDbLine
 10
-354.5
 20
224.0
 30
0.0
 11
354.5
 21
224.0
 31
0.0
  0
LINE
  5
134
330
11B
100
AcDbEntity
  8
0
  6
Continuous
 62
     7
370
    25
100
AcDbLine
 10
355.5
 20
223.0
 30
0.0
 11
-355.5
 21
223.0
 31
0.0
  0
LINE
  5
135
330
11B
100
AcDbEntity
  8
0
  6
Continuous
 62
     7
370
    25
100
AcDbLine
 10
-354.5
 20
224.0
 30
0.0
 11
-354.5
 21
-224.0
 31
0.0
  0
LINE
  5
136
330
11B
100
AcDbEntity
  8
0
  6
Continuous
 62
     7
370
    25
100
AcDbLine
 10
-355.5
 20
-223.0
 30
0.0
 11
355.5
 21
-223.0
 31
0.0
  0
LINE
  5
137
330
11B
100
AcDbEntity
  8
0
  6
Continuous
 62
     7
370
    25
100
AcDbLine
 10
-355.5
 20
-223.0
 30
0.0
 11
-355.5
 21
223.0
 31
0.0
  0
LINE
  5
138
330
11B
100
AcDbEntity
  8
0
  6
Continuous
 62
     7
370
    25
100
AcDbLine
 10
354.5
 20
-224.0
 30
0.0
 11
354.5
 21
224.0
 31
0.0
  0
LINE
  5
139
330
11B
100
AcDbEntity
  8
0
  6
Continuous
 62
     7
370
    25
100
AcDbLine
 10
354.5
 20
-224.0
 30
0.0
 11
-354.5
 21
-224.0
 31
0.0
  0
LINE
  5
13A
330
11B
100
AcDbEntity
  8
0
  6
Continuous
 62
     7
370
    25
100
AcDbLine
 10
355.5
 20
223.0
 30
0.0
 11
355.5
 21
-223.0
 31
0.0
  0
ARC
  5
13B
330
11B
100
AcDbEntity
  8
0
  6
Continuous
 62
     7
370
    25
100
AcDbCircle
 10
-354.5
 20
223.0
 30
0.0
 40
1.0
100
AcDbArc
 50
90.0
 51
180.0
  0
ARC
  5
13C
330
11B
100
AcDbEntity
  8
0
  6
Continuous
 62
     7
370
    25
100
AcDbCircle
 10
354.5
 20
223.0
 30
0.0
 40
1.000000000000114
100
AcDbArc
 50
0.0
 51
90.0
  0
ARC
  5
13D
330
11B
100
AcDbEntity
  8
0
  6
Continuous
 62
     7
370
    25
100
AcDbCircle
 10
354.5
 20
-223.0
 30
0.0
 40
1.0
100
AcDbArc
 50
270.0
 51
0.0
  0
ARC
  5
13E
330
11B
100
AcDbEntity
  8
0
  6
Continuous
 62
     7
370
    25
100
AcDbCircle
 10
-354.5
 20
-223.0
 30
0.0
 40
1.000000000000114
100
AcDbArc
 50
180.0
 51
270.0
  0
VIEWPORT
  5
299
330
11B
100
AcDbEntity
  8
0
100
AcDbViewport
 10
0.0
 20
0.0
 30
0.0
 40
205.6
 41
156.0
 68
     1
 69
     1
 12
0.0
 22
0.0
 13
0.0
 23
0.0
 14
10.0
 24
10.0
 15
10.0
 25
10.0
 16
0.0
 26
0.0
 36
1.0
 17
0.0
 27
0.0
 37
0.0
 42
50.0
 43
0.0
 44
0.0
 45
550.2642023346
 50
0.0
 51
0.0
 72
   100
 90
   557152
  1

281
     0
 71
     1
 74
     0
110
0.0
120
0.0
130
0.0
111
1.0
121
0.0
131
0.0
112
0.0
122
1.0
132
0.0
 79
     0
146
0.0
  0
ENDBLK
  5
11E
330
11B
100
AcDbEntity
  8
0
100
AcDbBlockEnd
  0
BLOCK
  5
141
330
13F
100
AcDbEntity
  8
0
100
AcDbBlockBegin
  2
*Paper_Space4
 70
     0
 10
0.0
 20
0.0
 30
0.0
  3
*Paper_Space4
  1

  0
LINE
  5
16D
330
13F
100
AcDbEntity
  8
0
  6
Continuous
 62
     7
370
    25
100
AcDbLine
 10
-408.8541255015
 20
53.6293253018
 30
0.0
 11
92.4845823597
 21
-235.7873503393
 31
0.0
  0
LINE
  5
16E
330
13F
100
AcDbEntity
  8
0
  6
Continuous
 62
     7
370
    25
100
AcDbLine
 10
93.4845010923
 20
-235.7873503393
 30
0.0
 11
408.8541255015
 21
-53.7283414028
 31
0.0
  0
LINE
  5
16F
330
13F
100
AcDbEntity
  8
0
  6
Continuous
 62
     7
370
    25
100
AcDbLine
 10
409.3541661352
 20
-52.8622925405
 30
0.0
 11
409.3541661352
 21
-34.898394679
 31
0.0
  0
LINE
  5
170
330
13F
100
AcDbEntity
  8
0
  6
Continuous
 62
     7
370
    25
100
AcDbLine
 10
408.8541255015
 20
-34.0323458166
 30
0.0
 11
-92.4845823597
 21
255.3843298246
 31
0.0
  0
LINE
  5
171
330
13F
100
AcDbEntity
  8
0
  6
Continuous
 62
     7
370
    25
100
AcDbLine
 10
-409.3541661352
 20
72.4592720257
 30
0.0
 11
-409.3541661352
 21
54.4953741642
 31
0.0
  0
LINE
  5
172
330
13F
100
AcDbEntity
  8
0
  6
Continuous
 62
     7
370
    25
100
AcDbLine
 10
-93.4845010923
 20
255.3843298246
 30
0.0
 11
-408.8541255015
 21
73.3253208881
 31
0.0
  0
LINE
  5
173
330
13F
100
AcDbEntity
  8
0
  6
Continuous
 62
     7
370
    25
100
AcDbLine
 10
93.6916485072
 20
-217.3656076713
 30
0.0
 11
93.6916485072
 21
-235.3295055328
 31
0.0
  0
LINE
  5
174
330
13F
100
AcDbEntity
  8
0
  6
Continuous
 62
     7
370
    25
100
AcDbLine
 10
92.2774349448
 20
-235.3295055328
 30
0.0
 11
92.2774349448
 21
-217.3656076713
 31
0.0
  0
LINE
  5
175
330
13F
100
AcDbEntity
  8
0
  6
Continuous
 62
     7
370
    25
100
AcDbLine
 10
409.0612729164
 20
-35.3065987349
 30
0.0
 11
93.6916485072
 21
-217.3656076713
 31
0.0
  0
LINE
  5
176
330
13F
100
AcDbEntity
  8
0
  6
Continuous
 62
     7
370
    25
100
AcDbLine
 10
92.984541726
 20
-216.1408628035
 30
0.0
 11
408.3541661352
 21
-34.0818538671
 31
0.0
  0
LINE
  5
177
330
13F
100
AcDbEntity
  8
0
  6
Continuous
 62
     7
370
    25
100
AcDbLine
 10
-408.3541661352
 20
73.2758128376
 30
0.0
 11
92.984541726
 21
-216.1408628035
 31
0.0
  0
LINE
  5
178
330
13F
100
AcDbEntity
  8
0
  6
Continuous
 62
     7
370
    25
100
AcDbLine
 10
92.2774349448
 20
-217.3656076713
 30
0.0
 11
-409.0612729164
 21
72.0510679698
 31
0.0
  0
LINE
  5
179
330
13F
100
AcDbEntity
  8
0
  6
Continuous
 62
     7
370
    25
100
AcDbLine
 10
409.0612729164
 20
-53.2704965964
 30
0.0
 11
409.0612729164
 21
-35.3065987349
 31
0.0
  0
LINE
  5
17A
330
13F
100
AcDbEntity
  8
0
  6
Continuous
 62
     7
370
    25
100
AcDbLine
 10
93.6916485072
 20
-235.3295055328
 30
0.0
 11
409.0612729164
 21
-53.2704965964
 31
0.0
  0
LINE
  5
17B
330
13F
100
AcDbEntity
  8
0
  6
Continuous
 62
     7
370
    25
100
AcDbLine
 10
-409.0612729164
 20
54.0871701083
 30
0.0
 11
92.2774349448
 21
-235.3295055328
 31
0.0
  0
LINE
  5
17C
330
13F
100
AcDbEntity
  8
0
  6
Continuous
 62
     7
370
    25
100
AcDbLine
 10
-409.0612729164
 20
72.0510679698
 30
0.0
 11
-409.0612729164
 21
54.0871701083
 31
0.0
  0
LINE
  5
17D
330
13F
100
AcDbEntity
  8
0
  6
Continuous
 62
     7
370
    25
100
AcDbLine
 10
-92.984541726
 20
255.3348217741
 30
0.0
 11
-408.3541661352
 21
73.2758128376
 31
0.0
  0
LINE
  5
17E
330
13F
100
AcDbEntity
  8
0
  6
Continuous
 62
     7
370
    25
100
AcDbLine
 10
408.3541661352
 20
-34.0818538671
 30
0.0
 11
-92.984541726
 21
255.3348217741
 31
0.0
  0
ARC
  5
17F
330
13F
100
AcDbEntity
  8
0
  6
Continuous
 62
     7
370
    25
100
AcDbCircle
 10
92.984541726
 20
-234.9213014769
 30
0.0
 40
0.9999999999999403
100
AcDbArc
 50
240.0026882663
 51
299.9973117337
  0
ARC
  5
180
330
13F
100
AcDbEntity
  8
0
  6
Continuous
 62
     7
370
    25
100
AcDbCircle
 10
408.3541661352
 20
-34.898394679
 30
0.0
 40
1.0
100
AcDbArc
 50
0.0
 51
60.0026882664
  0
ARC
  5
181
330
13F
100
AcDbEntity
  8
0
  6
Continuous
 62
     7
370
    25
100
AcDbCircle
 10
408.3541661352
 20
-52.8622925405
 30
0.0
 40
1.000000000000171
100
AcDbArc
 50
299.9973117337
 51
360.0
  0
ARC
  5
182
330
13F
100
AcDbEntity
  8
0
  6
Continuous
 62
     7
370
    25
100
AcDbCircle
 10
-408.3541661352
 20
72.4592720257
 30
0.0
 40
1.000000000000114
100
AcDbArc
 50
119.9973117336
 51
180.0
  0
ARC
  5
183
330
13F
100
AcDbEntity
  8
0
  6
Continuous
 62
     7
370
    25
100
AcDbCircle
 10
-408.3541661352
 20
54.4953741642
 30
0.0
 40
0.9999999999998034
100
AcDbArc
 50
180.0
 51
240.0026882664
  0
ARC
  5
184
330
13F
100
AcDbEntity
  8
0
  6
Continuous
 62
     7
370
    25
100
AcDbCircle
 10
-92.984541726
 20
254.5182809622
 30
0.0
 40
1.000000000000088
100
AcDbArc
 50
60.0026882664
 51
119.9973117336
  0
ARC
  5
185
330
13F
100
AcDbEntity
  8
0
  6
Continuous
 62
     7
370
    25
100
AcDbCircle
 10
92.984541726
 20
-216.0008965864
 30
0.0
 40
1.53702190791203
100
AcDbArc
 50
242.6096722366
 51
297.3903277634
  0
ARC
  5
186
330
13F
100
AcDbEntity
  8
0
  6
Continuous
 62
     7
370
    25
100
AcDbCircle
 10
93.8126510462
 20
-217.4354685236
 30
0.0
 40
1.536804807572044
100
AcDbArc
 50
122.60547834
 51
177.3945215143
  0
ARC
  5
187
330
13F
100
AcDbEntity
  8
0
  6
Continuous
 62
     7
370
    25
100
AcDbCircle
 10
92.1564324058
 20
-217.4354685236
 30
0.0
 40
1.536804807571869
100
AcDbArc
 50
2.6054784857
 51
57.39452166
  0
ARC
  5
188
330
13F
100
AcDbEntity
  8
0
  6
Continuous
 62
     7
370
    25
100
AcDbCircle
 10
92.984541726
 20
-233.9647944479
 30
0.0
 40
1.537021907911929
100
AcDbArc
 50
242.6096722366
 51
297.3903277634
  0
ARC
  5
189
330
13F
100
AcDbEntity
  8
0
  6
Continuous
 62
     7
370
    25
100
AcDbCircle
 10
407.526056815
 20
-35.3764595871
 30
0.0
 40
1.53680480757206
100
AcDbArc
 50
2.6054784857
 51
57.39452166
  0
ARC
  5
18A
330
13F
100
AcDbEntity
  8
0
  6
Continuous
 62
     7
370
    25
100
AcDbCircle
 10
-407.526056815
 20
71.9812071175
 30
0.0
 40
1.536804807572313
100
AcDbArc
 50
122.60547834
 51
177.3945215143
  0
ARC
  5
18B
330
13F
100
AcDbEntity
  8
0
  6
Continuous
 62
     8
370
    25
100
AcDbCircle
 10
93.2159629513
 20
-235.3900695614
 30
0.0
 40
0.4795255463715692
100
AcDbArc
 50
304.0563508284
 51
7.255829565
  0
ARC
  5
18C
330
13F
100
AcDbEntity
  8
0
  6
Continuous
 62
     8
370
    25
100
AcDbCircle
 10
92.7531205007
 20
-235.3900695614
 30
0.0
 40
0.479525546403372
100
AcDbArc
 50
172.7441704373
 51
235.9436491693
  0
ARC
  5
18D
330
13F
100
AcDbEntity
  8
0
  6
Continuous
 62
     8
370
    25
100
AcDbCircle
 10
-408.5855873605
 20
54.0266060797
 30
0.0
 40
0.4795255463991024
100
AcDbArc
 50
172.744170437
 51
235.9436491696
  0
ARC
  5
18E
330
13F
100
AcDbEntity
  8
0
  6
Continuous
 62
     8
370
    25
100
AcDbCircle
 10
408.5712710142
 20
-53.3245833338
 30
0.0
 40
0.4929779298697682
100
AcDbArc
 50
305.0133328658
 51
6.2988475275
  0
ARC
  5
18F
330
13F
100
AcDbEntity
  8
0
  6
Continuous
 62
     8
370
    25
100
AcDbCircle
 10
408.8537090727
 20
-34.8484883021
 30
0.0
 40
0.5029392784938262
100
AcDbArc
 50
294.3746582936
 51
354.3052007488
  0
ARC
  5
190
330
13F
100
AcDbEntity
  8
0
  6
Continuous
 62
     8
370
    25
100
AcDbCircle
 10
408.6470861901
 20
-34.4907351962
 30
0.0
 40
0.5029772359017497
100
AcDbArc
 50
65.6928809539
 51
125.6175774752
  0
ARC
  5
191
330
13F
100
AcDbEntity
  8
0
  6
Continuous
 62
     8
370
    25
100
AcDbCircle
 10
408.8537090727
 20
-52.8123861636
 30
0.0
 40
0.5029392784938262
100
AcDbArc
 50
294.3746582936
 51
354.3052007488
  0
ARC
  5
192
330
13F
100
AcDbEntity
  8
0
  6
Continuous
 62
     8
370
    25
100
AcDbCircle
 10
-92.6916216712
 20
254.9259404449
 30
0.0
 40
0.5029772359016367
100
AcDbArc
 50
65.6928809539
 51
125.6175774752
  0
ARC
  5
193
330
13F
100
AcDbEntity
  8
0
  6
Continuous
 62
     8
370
    25
100
AcDbCircle
 10
-408.8537090727
 20
72.5091784026
 30
0.0
 40
0.5029392784939459
100
AcDbArc
 50
185.6947992512
 51
245.6253417064
  0
ARC
  5
194
330
13F
100
AcDbEntity
  8
0
  6
Continuous
 62
     8
370
    25
100
AcDbCircle
 10
-408.6470861901
 20
72.8669315085
 30
0.0
 40
0.5029772359018595
100
AcDbArc
 50
54.3824225248
 51
114.3071190461
  0
ARC
  5
195
330
13F
100
AcDbEntity
  8
0
  6
Continuous
 62
     8
370
    25
100
AcDbCircle
 10
-408.8537090727
 20
54.5452805411
 30
0.0
 40
0.5029392784939329
100
AcDbArc
 50
185.6947992512
 51
245.6253417064
  0
ARC
  5
196
330
13F
100
AcDbEntity
  8
0
  6
Continuous
 62
     8
370
    25
100
AcDbCircle
 10
-93.2774617809
 20
254.9259404449
 30
0.0
 40
0.5029772359016399
100
AcDbArc
 50
54.3824225248
 51
114.3071190461
  0
VIEWPORT
  5
29B
330
13F
100
AcDbEntity
  8
0
100
AcDbViewport
 10
0.0
 20
0.0
 30
0.0
 40
205.6
 41
156.0
 68
     1
 69
     1
 12
0.0
 22
0.0
 13
0.0
 23
0.0
 14
10.0
 24
10.0
 15
10.0
 25
10.0
 16
0.0
 26
0.0
 36
1.0
 17
0.0
 27
0.0
 37
0.0
 42
50.0
 43
0.0
 44
0.0
 45
550.2642023346
 50
0.0
 51
0.0
 72
   100
 90
   557152
  1

281
     0
 71
     1
 74
     0
110
0.0
120
0.0
130
0.0
111
1.0
121
0.0
131
0.0
112
0.0
122
1.0
132
0.0
 79
     0
146
0.0
  0
ENDBLK
  5
142
330
13F
100
AcDbEntity
  8
0
100
AcDbBlockEnd
  0
BLOCK
  5
199
330
197
100
AcDbEntity
  8
0
100
AcDbBlockBegin
  2
*Paper_Space5
 70
     0
 10
0.0
 20
0.0
 30
0.0
  3
*Paper_Space5
  1

  0
LWPOLYLINE
  5
1BA
330
197
100
AcDbEntity
  8
0
  6
Continuous
 62
     8
370
    25
100
AcDbPolyline
 90
        6
 70
   128
 43
0.0
 10
208.9864570143
 20
-186.3865598889
 10
208.9954244353
 20
-186.5450324558
 10
209.0219820855
 20
-186.6799100551
 10
209.0651093691
 20
-186.7860094164
 10
209.123148929
 20
-186.8592532006
 10
209.1908872116
 20
-186.8960467211
  0
LWPOLYLINE
  5
1BB
330
197
100
AcDbEntity
  8
0
  6
Continuous
 62
     8
370
    25
100
AcDbPolyline
 90
        6
 70
   128
 43
0.0
 10
-418.065991255
 20
-15.967140558
 10
-418.0570238339
 20
-16.1256131249
 10
-418.0304661838
 20
-16.2604907242
 10
-417.9873389001
 20
-16.3665900855
 10
-417.9292993403
 20
-16.4398338697
 10
-417.8615610577
 20
-16.4766273902
  0
LWPOLYLINE
  5
1BD
330
197
100
AcDbEntity
  8
0
  6
Continuous
 62
     8
370
    25
100
AcDbPolyline
 90
        7
 70
   128
 43
0.0
 10
-418.065991255
 20
2.8905400574
 10
-418.2295652501
 20
2.9461855951
 10
-418.3689183462
 20
3.0171976616
 10
-418.4786952821
 20
3.1008473031
 10
-418.5546773916
 20
3.1939199107
 10
-418.5939447248
 20
3.2928387565
 10
-418.599295866
 20
3.3460490642
  0
LWPOLYLINE
  5
1BF
330
197
100
AcDbEntity
  8
0
  6
Continuous
 62
     8
370
    25
100
AcDbPolyline
 90
        7
 70
   128
 43
0.0
 10
-418.065991255
 20
-15.967140558
 10
-418.2295652501
 20
-15.9114950204
 10
-418.3689183462
 20
-15.8404829539
 10
-418.4786952821
 20
-15.7568333124
 10
-418.5546773916
 20
-15.6637607047
 10
-418.5939447248
 20
-15.564841859
 10
-418.599295866
 20
-15.5116315512
  0
LINE
  5
1C5
330
197
100
AcDbEntity
  8
0
  6
Continuous
 62
     7
370
    25
100
AcDbLine
 10
-417.8615610577
 20
-16.4766273902
 30
0.0
 11
209.1908872116
 21
-186.8960467211
 31
0.0
  0
LINE
  5
1C6
330
197
100
AcDbEntity
  8
0
  6
Continuous
 62
     7
370
    25
100
AcDbLine
 10
210.1516305619
 20
-186.646682255
 30
0.0
 11
418.2977740247
 21
16.5103347797
 31
0.0
  0
LINE
  5
1C7
330
197
100
AcDbEntity
  8
0
  6
Continuous
 62
     7
370
    25
100
AcDbLine
 10
-418.599295866
 20
3.3460490642
 30
0.0
 11
-418.599295866
 21
-15.5116315512
 31
0.0
  0
LINE
  5
1C8
330
197
100
AcDbEntity
  8
0
  6
Continuous
 62
     7
370
    25
100
AcDbLine
 10
-210.1516305619
 20
207.2186974719
 30
0.0
 11
-418.2977740247
 21
4.0616804372
 31
0.0
  0
LINE
  5
1C9
330
197
100
AcDbEntity
  8
0
  6
Continuous
 62
     7
370
    25
100
AcDbLine
 10
417.8615610577
 20
37.048642607
 30
0.0
 11
-209.1908872116
 21
207.4680619379
 31
0.0
  0
LINE
  5
1CA
330
197
100
AcDbEntity
  8
0
  6
Continuous
 62
     7
370
    25
100
AcDbLine
 10
418.599295866
 20
17.2259661526
 30
0.0
 11
418.599295866
 21
36.0836467681
 31
0.0
  0
LINE
  5
1CB
330
197
100
AcDbEntity
  8
0
  6
Continuous
 62
     7
370
    25
100
AcDbLine
 10
-417.599295866
 20
4.2032163649
 30
0.0
 11
209.4531524032
 21
-166.216202966
 31
0.0
  0
LINE
  5
1CC
330
197
100
AcDbEntity
  8
0
  6
Continuous
 62
     7
370
    25
100
AcDbLine
 10
208.9864570143
 20
-167.5288792735
 30
0.0
 11
-418.065991255
 21
2.8905400574
 31
0.0
  0
LINE
  5
1CD
330
197
100
AcDbEntity
  8
0
  6
Continuous
 62
     7
370
    25
100
AcDbLine
 10
210.3375705249
 20
-167.3137361613
 30
0.0
 11
210.3375705249
 21
-186.1714167768
 31
0.0
  0
LINE
  5
1CE
330
197
100
AcDbEntity
  8
0
  6
Continuous
 62
     7
370
    25
100
AcDbLine
 10
208.9864570143
 20
-186.3865598889
 30
0.0
 11
208.9864570143
 21
-167.5288792735
 31
0.0
  0
LINE
  5
1CF
330
197
100
AcDbEntity
  8
0
  6
Continuous
 62
     7
370
    25
100
AcDbLine
 10
418.4837139877
 20
35.8432808734
 30
0.0
 11
210.3375705249
 21
-167.3137361613
 31
0.0
  0
LINE
  5
1D0
330
197
100
AcDbEntity
  8
0
  6
Continuous
 62
     7
370
    25
100
AcDbLine
 10
209.4531524032
 20
-166.216202966
 30
0.0
 11
417.599295866
 21
36.9408140688
 31
0.0
  0
LINE
  5
1D1
330
197
100
AcDbEntity
  8
0
  6
Continuous
 62
     7
370
    25
100
AcDbLine
 10
-418.065991255
 20
-15.967140558
 30
0.0
 11
208.9864570143
 21
-186.3865598889
 31
0.0
  0
LINE
  5
1D2
330
197
100
AcDbEntity
  8
0
  6
Continuous
 62
     7
370
    25
100
AcDbLine
 10
-418.065991255
 20
2.8905400574
 30
0.0
 11
-418.065991255
 21
-15.967140558
 31
0.0
  0
LINE
  5
1D3
330
197
100
AcDbEntity
  8
0
  6
Continuous
 62
     7
370
    25
100
AcDbLine
 10
-209.4531524032
 20
207.3602333997
 30
0.0
 11
-417.599295866
 21
4.2032163649
 31
0.0
  0
LINE
  5
1D4
330
197
100
AcDbEntity
  8
0
  6
Continuous
 62
     7
370
    25
100
AcDbLine
 10
417.599295866
 20
36.9408140688
 30
0.0
 11
-209.4531524032
 21
207.3602333997
 31
0.0
  0
LINE
  5
1D5
330
197
100
AcDbEntity
  8
0
  6
Continuous
 62
     7
370
    25
100
AcDbLine
 10
418.4837139877
 20
16.9856002579
 30
0.0
 11
418.4837139877
 21
35.8432808734
 31
0.0
  0
LINE
  5
1D6
330
197
100
AcDbEntity
  8
0
  6
Continuous
 62
     7
370
    25
100
AcDbLine
 10
210.3375705249
 20
-186.1714167768
 30
0.0
 11
418.4837139877
 21
16.9856002579
 31
0.0
  0
ARC
  5
1D7
330
197
100
AcDbEntity
  8
0
  6
Continuous
 62
     7
370
    25
100
AcDbCircle
 10
209.4531524032
 20
-185.9310508821
 30
0.0
 40
1.000000000000246
100
AcDbArc
 50
254.7954868413
 51
314.305033619
  0
ARC
  5
1D8
330
197
100
AcDbEntity
  8
0
  6
Continuous
 62
     7
370
    25
100
AcDbCircle
 10
-417.599295866
 20
3.3460490642
 30
0.0
 40
1.000000000000739
100
AcDbArc
 50
134.305033619
 51
180.0
  0
ARC
  5
1D9
330
197
100
AcDbEntity
  8
0
  6
Continuous
 62
     7
370
    25
100
AcDbCircle
 10
-417.599295866
 20
-15.5116315512
 30
0.0
 40
1.000000000000063
100
AcDbArc
 50
180.0
 51
254.7954868413
  0
ARC
  5
1DA
330
197
100
AcDbEntity
  8
0
  6
Continuous
 62
     7
370
    25
100
AcDbCircle
 10
417.599295866
 20
36.0836467681
 30
0.0
 40
0.9999999999997299
100
AcDbArc
 50
360.0
 51
74.7954868413
  0
ARC
  5
1DB
330
197
100
AcDbEntity
  8
0
  6
Continuous
 62
     7
370
    25
100
AcDbCircle
 10
417.599295866
 20
17.2259661526
 30
0.0
 40
0.9999999999998295
100
AcDbArc
 50
314.305033619
 51
0.0
  0
ARC
  5
1DC
330
197
100
AcDbEntity
  8
0
  6
Continuous
 62
     7
370
    25
100
AcDbCircle
 10
-209.4531524032
 20
206.503066099
 30
0.0
 40
1.000000000000129
100
AcDbArc
 50
74.7954868413
 51
134.305033619
  0
ARC
  5
1DD
330
197
100
AcDbEntity
  8
0
  6
Continuous
 62
     7
370
    25
100
AcDbCircle
 10
209.444850334
 20
-166.0575064366
 30
0.0
 40
1.541123765478784
100
AcDbArc
 50
252.6960345908
 51
305.398914916
  0
ARC
  5
1DE
330
197
100
AcDbEntity
  8
0
  6
Continuous
 62
     7
370
    25
100
AcDbCircle
 10
211.0314124627
 20
-167.5166214466
 30
0.0
 40
2.044992185835316
100
AcDbArc
 50
140.5129436103
 51
180.3434369839
  0
ARC
  5
1DF
330
197
100
AcDbEntity
  8
0
  6
Continuous
 62
     7
370
    25
100
AcDbCircle
 10
209.1251983301
 20
-167.3855851726
 30
0.0
 40
1.21449932861647
100
AcDbArc
 50
3.391562315
 51
74.3338098233
  0
ARC
  5
1E0
330
197
100
AcDbEntity
  8
0
  6
Continuous
 62
     7
370
    25
100
AcDbCircle
 10
-416.0210358066
 20
2.9027978843
 30
0.0
 40
2.044992185835515
100
AcDbArc
 50
140.5129436103
 51
180.3434369839
  0
ARC
  5
1E1
330
197
100
AcDbEntity
  8
0
  6
Continuous
 62
     7
370
    25
100
AcDbCircle
 10
209.444850334
 20
-184.9151870521
 30
0.0
 40
1.541123765478394
100
AcDbArc
 50
252.6960345908
 51
305.3989149161
  0
ARC
  5
1E2
330
197
100
AcDbEntity
  8
0
  6
Continuous
 62
     7
370
    25
100
AcDbCircle
 10
417.2713417929
 20
35.7714318622
 30
0.0
 40
1.214499328616571
100
AcDbArc
 50
3.391562315
 51
74.3338098233
  0
ARC
  5
1E3
330
197
100
AcDbEntity
  8
0
  6
Continuous
 62
     8
370
    25
100
AcDbCircle
 10
209.6922505953
 20
-186.1929514957
 30
0.0
 40
0.6456791429340708
100
AcDbArc
 50
315.3544713609
 51
1.9112857848
  0
ARC
  5
1E4
330
197
100
AcDbEntity
  8
0
  6
Continuous
 62
     8
370
    25
100
AcDbCircle
 10
417.8383940582
 20
16.964065539
 30
0.0
 40
0.6456791429342957
100
AcDbArc
 50
315.354471361
 51
1.9112857848
  0
ARC
  5
1E5
330
197
100
AcDbEntity
  8
0
  6
Continuous
 62
     8
370
    25
100
AcDbCircle
 10
-417.8275863806
 20
3.5355686395
 30
0.0
 40
0.7055990676826063
100
AcDbArc
 50
71.12277008
 51
131.7872519911
  0
ARC
  5
1E6
330
197
100
AcDbEntity
  8
0
  6
Continuous
 62
     8
370
    25
100
AcDbCircle
 10
-209.6791788531
 20
206.6814125412
 30
0.0
 40
0.7154618884852928
100
AcDbArc
 50
71.583829316
 51
131.326192755
  0
ARC
  5
1E7
330
197
100
AcDbEntity
  8
0
  6
Continuous
 62
     8
370
    25
100
AcDbCircle
 10
418.2674400373
 20
36.0952501324
 30
0.0
 40
0.332058623039341
100
AcDbArc
 50
310.6406362013
 51
357.9974645044
  0
ARC
  5
1E8
330
197
100
AcDbEntity
  8
0
  6
Continuous
 62
     8
370
    25
100
AcDbCircle
 10
417.8180037146
 20
36.7817240553
 30
0.0
 40
0.2704491734416405
100
AcDbArc
 50
80.7318299956
 51
143.9675277131
  0
ARC
  5
1E9
330
197
100
AcDbEntity
  8
0
  6
Continuous
 62
     8
370
    25
100
AcDbCircle
 10
-209.2344445547
 20
207.2011433862
 30
0.0
 40
0.2704491734412318
100
AcDbArc
 50
80.7318299956
 51
143.9675277132
  0
ARC
  5
1EA
330
197
100
AcDbEntity
  8
0
  6
Continuous
 62
     8
370
    25
100
AcDbCircle
 10
418.2674400373
 20
17.237569517
 30
0.0
 40
0.3320586230393437
100
AcDbArc
 50
310.6406362013
 51
357.9974645044
  0
VIEWPORT
  5
29D
330
197
100
AcDbEntity
  8
0
100
AcDbViewport
 10
0.0
 20
0.0
 30
0.0
 40
205.6
 41
156.0
 68
     1
 69
     1
 12
0.0
 22
0.0
 13
0.0
 23
0.0
 14
10.0
 24
10.0
 15
10.0
 25
10.0
 16
0.0
 26
0.0
 36
1.0
 17
0.0
 27
0.0
 37
0.0
 42
50.0
 43
0.0
 44
0.0
 45
550.2642023346
 50
0.0
 51
0.0
 72
   100
 90
   557152
  1

281
     0
 71
     1
 74
     0
110
0.0
120
0.0
130
0.0
111
1.0
121
0.0
131
0.0
112
0.0
122
1.0
132
0.0
 79
     0
146
0.0
  0
ENDBLK
  5
19A
330
197
100
AcDbEntity
  8
0
100
AcDbBlockEnd
  0
BLOCK
  5
1ED
330
1EB
100
AcDbEntity
  8
0
100
AcDbBlockBegin
  2
*Paper_Space6
 70
     0
 10
0.0
 20
0.0
 30
0.0
  3
*Paper_Space6
  1

  0
LWPOLYLINE
  5
20E
330
1EB
100
AcDbEntity
  8
0
  6
Continuous
 62
     8
370
    25
100
AcDbPolyline
 90
        8
 70
   128
 43
0.0
 10
252.408426439
 20
-110.6796877994
 10
252.4152198682
 20
-110.8576294775
 10
252.4353390884
 20
-111.0167504737
 10
252.468010929
 20
-111.1509358575
 10
252.5119798296
 20
-111.2550289598
 10
252.5655560899
 20
-111.325029541
 10
252.6266808045
 20
-111.3582475181
 10
252.6369798296
 20
-111.3600397589
  0
LWPOLYLINE
  5
20F
330
1EB
100
AcDbEntity
  8
0
  6
Continuous
 62
     8
370
    25
100
AcDbPolyline
 90
        8
 70
   128
 43
0.0
 10
-410.8003453884
 20
-27.1232365283
 10
-410.7935519592
 20
-27.3011782063
 10
-410.7734327391
 20
-27.4602992026
 10
-410.7407608985
 20
-27.5944845864
 10
-410.6967919979
 20
-27.6985776887
 10
-410.6432157375
 20
-27.7685782699
 10
-410.5820910229
 20
-27.801796247
 10
-410.5717919979
 20
-27.8035884878
  0
LWPOLYLINE
  5
211
330
1EB
100
AcDbEntity
  8
0
  6
Continuous
 62
     8
370
    25
100
AcDbPolyline
 90
        8
 70
   128
 43
0.0
 10
-410.8003453884
 20
-6.3814376128
 10
-410.9760422453
 20
-6.3524547565
 10
-411.131400312
 20
-6.3126032121
 10
-411.260449265
 20
-6.2634144522
 10
-411.3582298257
 20
-6.2067787733
 10
-411.4209843417
 20
-6.1448726527
 10
-411.4463011923
 20
-6.0800751079
 10
-411.4467919979
 20
-6.0696328307
  0
LWPOLYLINE
  5
213
330
1EB
100
AcDbEntity
  8
0
  6
Continuous
 62
     8
370
    25
100
AcDbPolyline
 90
        8
 70
   128
 43
0.0
 10
-410.8003453884
 20
-27.1232365283
 10
-410.9760422453
 20
-27.0942536719
 10
-411.131400312
 20
-27.0544021275
 10
-411.260449265
 20
-27.0052133676
 10
-411.3582298257
 20
-26.9485776887
 10
-411.4209843417
 20
-26.8866715681
 10
-411.4463011923
 20
-26.8218740233
 10
-411.4467919979
 20
-26.8114317461
  0
LWPOLYLINE
  5
215
330
1EB
100
AcDbEntity
  8
0
  6
Continuous
 62
     8
370
    25
100
AcDbPolyline
 90
        3
 70
   128
 43
0.0
 10
411.4467919979
 20
49.4388487447
 10
411.4332074651
 20
49.3840921864
 10
411.3822063446
 20
49.3209976146
  0
LWPOLYLINE
  5
216
330
1EB
100
AcDbEntity
  8
0
  6
Continuous
 62
     8
370
    25
100
AcDbPolyline
 90
        3
 70
   128
 43
0.0
 10
410.5717919979
 20
50.4310054864
 10
410.5157668427
 20
50.4243720703
 10
410.4467919979
 20
50.3816577863
  0
LWPOLYLINE
  5
217
330
1EB
100
AcDbEntity
  8
0
  6
Continuous
 62
     8
370
    25
100
AcDbPolyline
 90
        3
 70
   128
 43
0.0
 10
411.4467919979
 20
28.6970498293
 10
411.4332074651
 20
28.6422932709
 10
411.3822063446
 20
28.5791986992
  0
LWPOLYLINE
  5
218
330
1EB
100
AcDbEntity
  8
0
  6
Continuous
 62
     8
370
    25
100
AcDbPolyline
 90
        3
 70
   128
 43
0.0
 10
-252.6369798296
 20
133.9874567576
 10
-252.6930049847
 20
133.9808233415
 10
-252.7619798295
 20
133.9381090575
  0
LINE
  5
219
330
1EB
100
AcDbEntity
  8
0
  6
Continuous
 62
     7
370
    25
100
AcDbLine
 10
-410.5717919979
 20
-27.8035884878
 30
0.0
 11
252.6369798296
 21
-111.3600397589
 31
0.0
  0
LINE
  5
21A
330
1EB
100
AcDbEntity
  8
0
  6
Continuous
 62
     7
370
    25
100
AcDbLine
 10
253.4234176573
 20
-111.1178830172
 30
0.0
 11
411.1082298257
 21
27.9470498293
 31
0.0
  0
LINE
  5
21B
330
1EB
100
AcDbEntity
  8
0
  6
Continuous
 62
     7
370
    25
100
AcDbLine
 10
-411.4467919979
 20
-6.0696328307
 30
0.0
 11
-411.4467919979
 21
-26.8114317461
 31
0.0
  0
LINE
  5
21C
330
1EB
100
AcDbEntity
  8
0
  6
Continuous
 62
     7
370
    25
100
AcDbLine
 10
-253.4234176573
 20
133.7453000159
 30
0.0
 11
-411.1082298257
 21
-5.3196328307
 31
0.0
  0
LINE
  5
21D
330
1EB
100
AcDbEntity
  8
0
  6
Continuous
 62
     7
370
    25
100
AcDbLine
 10
411.4467919979
 20
28.6970498293
 30
0.0
 11
411.4467919979
 21
49.4388487447
 31
0.0
  0
LINE
  5
21E
330
1EB
100
AcDbEntity
  8
0
  6
Continuous
 62
     7
370
    25
100
AcDbLine
 10
410.5717919979
 20
50.4310054864
 30
0.0
 11
-252.6369798296
 21
133.9874567576
 31
0.0
  0
LINE
  5
21F
330
1EB
100
AcDbEntity
  8
0
  6
Continuous
 62
     7
370
    25
100
AcDbLine
 10
253.6973941762
 20
-89.743935232
 30
0.0
 11
253.6973941762
 21
-110.4857341474
 31
0.0
  0
LINE
  5
220
330
1EB
100
AcDbEntity
  8
0
  6
Continuous
 62
     7
370
    25
100
AcDbLine
 10
252.408426439
 20
-110.6796877994
 30
0.0
 11
252.408426439
 21
-89.937888884
 31
0.0
  0
LINE
  5
221
330
1EB
100
AcDbEntity
  8
0
  6
Continuous
 62
     7
370
    25
100
AcDbLine
 10
-410.4467919979
 20
-5.1268237891
 30
0.0
 11
252.7619798295
 21
-88.6832750602
 31
0.0
  0
LINE
  5
222
330
1EB
100
AcDbEntity
  8
0
  6
Continuous
 62
     7
370
    25
100
AcDbLine
 10
252.408426439
 20
-89.937888884
 30
0.0
 11
-410.8003453884
 21
-6.3814376128
 31
0.0
  0
LINE
  5
223
330
1EB
100
AcDbEntity
  8
0
  6
Continuous
 62
     7
370
    25
100
AcDbLine
 10
-410.8003453884
 20
-27.1232365283
 30
0.0
 11
252.408426439
 21
-110.6796877994
 31
0.0
  0
LINE
  5
224
330
1EB
100
AcDbEntity
  8
0
  6
Continuous
 62
     7
370
    25
100
AcDbLine
 10
-410.8003453884
 20
-6.3814376128
 30
0.0
 11
-410.8003453884
 21
-27.1232365283
 31
0.0
  0
LINE
  5
225
330
1EB
100
AcDbEntity
  8
0
  6
Continuous
 62
     7
370
    25
100
AcDbLine
 10
411.3822063446
 20
49.3209976146
 30
0.0
 11
253.6973941762
 21
-89.743935232
 31
0.0
  0
LINE
  5
226
330
1EB
100
AcDbEntity
  8
0
  6
Continuous
 62
     7
370
    25
100
AcDbLine
 10
252.7619798295
 20
-88.6832750602
 30
0.0
 11
410.4467919979
 21
50.3816577863
 31
0.0
  0
LINE
  5
227
330
1EB
100
AcDbEntity
  8
0
  6
Continuous
 62
     7
370
    25
100
AcDbLine
 10
411.3822063446
 20
28.5791986992
 30
0.0
 11
411.3822063446
 21
49.3209976146
 31
0.0
  0
LINE
  5
228
330
1EB
100
AcDbEntity
  8
0
  6
Continuous
 62
     7
370
    25
100
AcDbLine
 10
253.6973941762
 20
-110.4857341474
 30
0.0
 11
411.3822063446
 21
28.5791986992
 31
0.0
  0
LINE
  5
229
330
1EB
100
AcDbEntity
  8
0
  6
Continuous
 62
     7
370
    25
100
AcDbLine
 10
-252.7619798295
 20
133.9381090575
 30
0.0
 11
-410.4467919979
 21
-5.1268237891
 31
0.0
  0
LINE
  5
22A
330
1EB
100
AcDbEntity
  8
0
  6
Continuous
 62
     7
370
    25
100
AcDbLine
 10
410.4467919979
 20
50.3816577863
 30
0.0
 11
-252.7619798295
 21
133.9381090575
 31
0.0
  0
ARC
  5
22B
330
1EB
100
AcDbEntity
  8
0
  6
Continuous
 62
     7
370
    25
100
AcDbCircle
 10
252.7619798295
 20
-110.3678830173
 30
0.0
 40
0.9999999999999716
100
AcDbArc
 50
262.8192442221
 51
311.40962211
  0
ARC
  5
22C
330
1EB
100
AcDbEntity
  8
0
  6
Continuous
 62
     7
370
    25
100
AcDbCircle
 10
-410.4467919979
 20
-6.0696328307
 30
0.0
 40
1.000000000000739
100
AcDbArc
 50
131.40962211
 51
180.0
  0
ARC
  5
22D
330
1EB
100
AcDbEntity
  8
0
  6
Continuous
 62
     7
370
    25
100
AcDbCircle
 10
-410.4467919979
 20
-26.8114317461
 30
0.0
 40
1.000000000000116
100
AcDbArc
 50
180.0
 51
262.8192442221
  0
ARC
  5
22E
330
1EB
100
AcDbEntity
  8
0
  6
Continuous
 62
     7
370
    25
100
AcDbCircle
 10
410.4467919979
 20
49.4388487447
 30
0.0
 40
0.9999999999999009
100
AcDbArc
 50
360.0
 51
82.8192442221
  0
ARC
  5
22F
330
1EB
100
AcDbEntity
  8
0
  6
Continuous
 62
     7
370
    25
100
AcDbCircle
 10
410.4467919979
 20
28.6970498293
 30
0.0
 40
1.000000000000568
100
AcDbArc
 50
311.40962211
 51
360.0
  0
ARC
  5
230
330
1EB
100
AcDbEntity
  8
0
  6
Continuous
 62
     7
370
    25
100
AcDbCircle
 10
-252.7619798295
 20
132.9953000159
 30
0.0
 40
0.9999999999993894
100
AcDbArc
 50
82.8192442221
 51
131.40962211
  0
ARC
  5
231
330
1EB
100
AcDbEntity
  8
0
  6
Continuous
 62
     7
370
    25
100
AcDbCircle
 10
252.7764688274
 20
-88.0037507285
 30
0.0
 40
1.968843722644326
100
AcDbArc
 50
259.2261330329
 51
297.8883001309
  0
ARC
  5
232
330
1EB
100
AcDbEntity
  8
0
  6
Continuous
 62
     7
370
    25
100
AcDbCircle
 10
254.3733999477
 20
-89.8145004164
 30
0.0
 40
1.968843722548138
100
AcDbArc
 50
144.9309440897
 51
183.5931111895
  0
ARC
  5
233
330
1EB
100
AcDbEntity
  8
0
  6
Continuous
 62
     7
370
    25
100
AcDbCircle
 10
252.6054685396
 20
-89.7641140853
 30
0.0
 40
1.092112073957882
100
AcDbArc
 50
1.0587090425
 51
81.7605351794
  0
ARC
  5
234
330
1EB
100
AcDbEntity
  8
0
  6
Continuous
 62
     7
370
    25
100
AcDbCircle
 10
252.7764688274
 20
-108.7455496439
 30
0.0
 40
1.968843722643884
100
AcDbArc
 50
259.2261330329
 51
297.8883001309
  0
ARC
  5
235
330
1EB
100
AcDbEntity
  8
0
  6
Continuous
 62
     7
370
    25
100
AcDbCircle
 10
-408.8353718797
 20
-6.2580491453
 30
0.0
 40
1.968843722549078
100
AcDbArc
 50
144.9309440897
 51
183.5931111895
  0
ARC
  5
236
330
1EB
100
AcDbEntity
  8
0
  6
Continuous
 62
     7
370
    25
100
AcDbCircle
 10
410.290280708
 20
49.3008187612
 30
0.0
 40
1.092112073957597
100
AcDbArc
 50
1.0587090425
 51
81.7605351794
  0
ARC
  5
237
330
1EB
100
AcDbEntity
  8
0
  6
Continuous
 62
     8
370
    25
100
AcDbCircle
 10
252.8639406843
 20
-110.4999570264
 30
0.0
 40
0.8335748397332637
100
AcDbArc
 50
312.158037431
 51
0.9776572488
  0
ARC
  5
238
330
1EB
100
AcDbEntity
  8
0
  6
Continuous
 62
     8
370
    25
100
AcDbCircle
 10
410.5487528528
 20
28.5649758202
 30
0.0
 40
0.8335748397321368
100
AcDbArc
 50
312.1580374309
 51
0.9776572489
  0
ARC
  5
239
330
1EB
100
AcDbEntity
  8
0
  6
Continuous
 62
     8
370
    25
100
AcDbCircle
 10
-410.5650850096
 20
-5.95196243
 30
0.0
 40
0.8335748397236962
100
AcDbArc
 50
81.8415869733
 51
130.6612067915
  0
ARC
  5
23A
330
1EB
100
AcDbEntity
  8
0
  6
Continuous
 62
     8
370
    25
100
AcDbCircle
 10
-252.8802728412
 20
133.1129704165
 30
0.0
 40
0.833574839723783
100
AcDbArc
 50
81.8415869733
 51
130.6612067915
  0
VIEWPORT
  5
29F
330
1EB
100
AcDbEntity
  8
0
100
AcDbViewport
 10
0.0
 20
0.0
 30
0.0
 40
205.6
 41
156.0
 68
     1
 69
     1
 12
0.0
 22
0.0
 13
0.0
 23
0.0
 14
10.0
 24
10.0
 15
10.0
 25
10.0
 16
0.0
 26
0.0
 36
1.0
 17
0.0
 27
0.0
 37
0.0
 42
50.0
 43
0.0
 44
0.0
 45
550.2642023346
 50
0.0
 51
0.0
 72
   100
 90
   557152
  1

281
     0
 71
     1
 74
     0
110
0.0
120
0.0
130
0.0
111
1.0
121
0.0
131
0.0
112
0.0
122
1.0
132
0.0
 79
     0
146
0.0
  0
ENDBLK
  5
1EE
330
1EB
100
AcDbEntity
  8
0
100
AcDbBlockEnd
  0
BLOCK
  5
23D
330
23B
100
AcDbEntity
  8
0
100
AcDbBlockBegin
  2
*Paper_Space7
 70
     0
 10
0.0
 20
0.0
 30
0.0
  3
*Paper_Space7
  1

  0
LWPOLYLINE
  5
265
330
23B
100
AcDbEntity
  8
0
  6
Continuous
 62
     8
370
    25
100
AcDbPolyline
 90
        6
 70
   128
 43
0.0
 10
-416.5928691664
 20
2.6724730501
 10
-416.7312777563
 20
2.7100557399
 10
-416.8401885309
 20
2.7591026289
 10
-416.9154161102
 20
2.8177288726
 10
-416.9540695405
 20
2.8836814973
 10
-416.9584904304
 20
2.9064918177
  0
LWPOLYLINE
  5
267
330
23B
100
AcDbEntity
  8
0
  6
Continuous
 62
     8
370
    25
100
AcDbPolyline
 90
        6
 70
   128
 43
0.0
 10
-414.5013244847
 20
-17.7497786729
 10
-414.6397330747
 20
-17.7121959831
 10
-414.7486438493
 20
-17.6631490941
 10
-414.8238714286
 20
-17.6045228504
 10
-414.8625248589
 20
-17.5385702257
 10
-414.8669457488
 20
-17.5157599053
  0
LINE
  5
269
330
23B
100
AcDbEntity
  8
0
  6
Continuous
 62
     7
370
    25
100
AcDbLine
 10
-414.0746982678
 20
-18.393149963
 30
0.0
 11
132.8673119317
 21
-131.5205998399
 31
0.0
  0
LINE
  5
26A
330
23B
100
AcDbEntity
  8
0
  6
Continuous
 62
     7
370
    25
100
AcDbLine
 10
133.5408210541
 20
-131.4234822135
 30
0.0
 11
414.1529689594
 21
18.3882916709
 31
0.0
  0
LINE
  5
26B
330
23B
100
AcDbEntity
  8
0
  6
Continuous
 62
     7
370
    25
100
AcDbLine
 10
414.6768053232
 20
19.3723282438
 30
0.0
 11
412.5852606415
 21
39.7945799668
 31
0.0
  0
LINE
  5
26C
330
23B
100
AcDbEntity
  8
0
  6
Continuous
 62
     7
370
    25
100
AcDbLine
 10
411.7930131606
 20
40.6719700245
 30
0.0
 11
-135.1489970389
 21
153.7994199013
 31
0.0
  0
LINE
  5
26D
330
23B
100
AcDbEntity
  8
0
  6
Continuous
 62
     7
370
    25
100
AcDbLine
 10
-416.9584904304
 20
2.9064918177
 30
0.0
 11
-414.8669457488
 21
-17.5157599053
 31
0.0
  0
LINE
  5
26E
330
23B
100
AcDbEntity
  8
0
  6
Continuous
 62
     7
370
    25
100
AcDbLine
 10
-135.8225061613
 20
153.702302275
 30
0.0
 11
-416.4346540666
 21
3.8905283905
 31
0.0
  0
LINE
  5
26F
330
23B
100
AcDbEntity
  8
0
  6
Continuous
 62
     7
370
    25
100
AcDbLine
 10
131.7497436295
 20
-110.2786351561
 30
0.0
 11
133.8412883111
 21
-130.7008868791
 31
0.0
  0
LINE
  5
270
330
23B
100
AcDbEntity
  8
0
  6
Continuous
 62
     7
370
    25
100
AcDbLine
 10
132.4406857148
 20
-130.8772285497
 30
0.0
 11
130.3491410331
 21
-110.4549768267
 31
0.0
  0
LINE
  5
271
330
23B
100
AcDbEntity
  8
0
  6
Continuous
 62
     7
370
    25
100
AcDbLine
 10
-416.0587641596
 20
3.9366580577
 30
0.0
 11
130.8832460399
 21
-109.1907918192
 31
0.0
  0
LINE
  5
272
330
23B
100
AcDbEntity
  8
0
  6
Continuous
 62
     7
370
    25
100
AcDbLine
 10
130.3491410331
 20
-110.4549768267
 30
0.0
 11
-416.5928691664
 21
2.6724730501
 31
0.0
  0
LINE
  5
273
330
23B
100
AcDbEntity
  8
0
  6
Continuous
 62
     7
370
    25
100
AcDbLine
 10
412.3618915349
 20
39.5331387284
 30
0.0
 11
131.7497436295
 21
-110.2786351561
 31
0.0
  0
LINE
  5
274
330
23B
100
AcDbEntity
  8
0
  6
Continuous
 62
     7
370
    25
100
AcDbLine
 10
130.8832460399
 20
-109.1907918192
 30
0.0
 11
411.4953939452
 21
40.6209820653
 31
0.0
  0
LINE
  5
275
330
23B
100
AcDbEntity
  8
0
  6
Continuous
 62
     7
370
    25
100
AcDbLine
 10
-414.5013244847
 20
-17.7497786729
 30
0.0
 11
132.4406857148
 21
-130.8772285497
 31
0.0
  0
LINE
  5
276
330
23B
100
AcDbEntity
  8
0
  6
Continuous
 62
     7
370
    25
100
AcDbLine
 10
-416.5928691664
 20
2.6724730501
 30
0.0
 11
-414.5013244847
 21
-17.7497786729
 31
0.0
  0
LINE
  5
277
330
23B
100
AcDbEntity
  8
0
  6
Continuous
 62
     7
370
    25
100
AcDbLine
 10
414.4534362165
 20
19.1108870054
 30
0.0
 11
412.3618915349
 21
39.5331387284
 31
0.0
  0
LINE
  5
278
330
23B
100
AcDbEntity
  8
0
  6
Continuous
 62
     7
370
    25
100
AcDbLine
 10
133.8412883111
 20
-130.7008868791
 30
0.0
 11
414.4534362165
 21
19.1108870054
 31
0.0
  0
LINE
  5
279
330
23B
100
AcDbEntity
  8
0
  6
Continuous
 62
     7
370
    25
100
AcDbLine
 10
-135.4466162543
 20
153.7484319421
 30
0.0
 11
-416.0587641596
 21
3.9366580577
 31
0.0
  0
LINE
  5
27A
330
23B
100
AcDbEntity
  8
0
  6
Continuous
 62
     7
370
    25
100
AcDbLine
 10
411.4953939452
 20
40.6209820653
 30
0.0
 11
-135.4466162543
 21
153.7484319421
 31
0.0
  0
ARC
  5
27B
330
23B
100
AcDbEntity
  8
0
  6
Continuous
 62
     7
370
    25
100
AcDbCircle
 10
133.0698609343
 20
-130.5413277114
 30
0.0
 40
0.9999999999997924
100
AcDbArc
 50
258.3139425136
 51
298.0966380529
  0
ARC
  5
27C
330
23B
100
AcDbEntity
  8
0
  6
Continuous
 62
     7
370
    25
100
AcDbCircle
 10
411.590464158
 20
39.692697896
 30
0.0
 40
1.000000000000153
100
AcDbArc
 50
5.8475588064
 51
78.3139425136
  0
ARC
  5
27D
330
23B
100
AcDbEntity
  8
0
  6
Continuous
 62
     7
370
    25
100
AcDbCircle
 10
413.6820088396
 20
19.270446173
 30
0.0
 40
0.9999999999999907
100
AcDbArc
 50
298.0966380529
 51
5.8475588064
  0
ARC
  5
27E
330
23B
100
AcDbEntity
  8
0
  6
Continuous
 62
     7
370
    25
100
AcDbCircle
 10
-415.9636939468
 20
3.0083738884
 30
0.0
 40
0.9999999999998117
100
AcDbArc
 50
118.0966380529
 51
185.8475588064
  0
ARC
  5
27F
330
23B
100
AcDbEntity
  8
0
  6
Continuous
 62
     7
370
    25
100
AcDbCircle
 10
-413.8721492652
 20
-17.4138778346
 30
0.0
 40
1.000000000000095
100
AcDbArc
 50
185.8475588064
 51
258.3139425136
  0
ARC
  5
280
330
23B
100
AcDbEntity
  8
0
  6
Continuous
 62
     7
370
    25
100
AcDbCircle
 10
-135.3515460415
 20
152.8201477729
 30
0.0
 40
1.000000000000004
100
AcDbArc
 50
78.3139425136
 51
118.0966380529
  0
ARC
  5
281
330
23B
100
AcDbEntity
  8
0
  6
Continuous
 62
     7
370
    25
100
AcDbCircle
 10
130.7688149845
 20
-108.1379091616
 30
0.0
 40
2.354767247548796
100
AcDbArc
 50
259.7337217083
 51
294.6183128966
  0
ARC
  5
282
330
23B
100
AcDbEntity
  8
0
  6
Continuous
 62
     7
370
    25
100
AcDbCircle
 10
131.671081757
 20
-110.2685636157
 30
0.0
 40
1.335019536403032
100
AcDbArc
 50
126.1662678599
 51
188.0266286562
  0
ARC
  5
283
330
23B
100
AcDbEntity
  8
0
  6
Continuous
 62
     7
370
    25
100
AcDbCircle
 10
130.5071728349
 20
-110.3793610562
 30
0.0
 40
1.246646656636477
100
AcDbArc
 50
4.6344059913
 51
72.4421949321
  0
ARC
  5
284
330
23B
100
AcDbEntity
  8
0
  6
Continuous
 62
     7
370
    25
100
AcDbCircle
 10
132.8603596661
 20
-128.5601608846
 30
0.0
 40
2.354767247549375
100
AcDbArc
 50
259.7337217083
 51
294.6183128966
  0
ARC
  5
285
330
23B
100
AcDbEntity
  8
0
  6
Continuous
 62
     7
370
    25
100
AcDbCircle
 10
-415.2709284425
 20
2.8588862611
 30
0.0
 40
1.33501953640295
100
AcDbArc
 50
126.1662678599
 51
188.0266286562
  0
ARC
  5
286
330
23B
100
AcDbEntity
  8
0
  6
Continuous
 62
     7
370
    25
100
AcDbCircle
 10
411.1193207403
 20
39.4324128283
 30
0.0
 40
1.246646656636524
100
AcDbArc
 50
4.6344059913
 51
72.4421949321
  0
ARC
  5
287
330
23B
100
AcDbEntity
  8
0
  6
Continuous
 62
     8
370
    25
100
AcDbCircle
 10
133.1620226068
 20
-130.842204138
 30
0.0
 40
0.6938101071329507
100
AcDbArc
 50
303.0908708109
 51
11.7524084831
  0
ARC
  5
288
330
23B
100
AcDbEntity
  8
0
  6
Continuous
 62
     8
370
    25
100
AcDbCircle
 10
133.0983590463
 20
-130.9042542934
 30
0.0
 40
0.6582283812209611
100
AcDbArc
 50
177.6468707733
 51
249.4506759687
  0
ARC
  5
289
330
23B
100
AcDbEntity
  8
0
  6
Continuous
 62
     8
370
    25
100
AcDbCircle
 10
-413.8436511532
 20
-17.7768044165
 30
0.0
 40
0.6582283812212006
100
AcDbArc
 50
177.6468707733
 51
249.4506759687
  0
ARC
  5
28A
330
23B
100
AcDbEntity
  8
0
  6
Continuous
 62
     8
370
    25
100
AcDbCircle
 10
413.7741705121
 20
18.9695697465
 30
0.0
 40
0.6938101071332169
100
AcDbArc
 50
303.0908708109
 51
11.7524084831
  0
ARC
  5
28B
330
23B
100
AcDbEntity
  8
0
  6
Continuous
 62
     8
370
    25
100
AcDbCircle
 10
412.2710018949
 20
39.8369338666
 30
0.0
 40
0.3171000041955455
100
AcDbArc
 50
286.6561677033
 51
352.3242712079
  0
ARC
  5
28C
330
23B
100
AcDbEntity
  8
0
  6
Continuous
 62
     8
370
    25
100
AcDbCircle
 10
411.7126169103
 20
40.2471439266
 30
0.0
 40
0.4323664770341975
100
AcDbArc
 50
79.2837851803
 51
120.1592238946
  0
ARC
  5
28D
330
23B
100
AcDbEntity
  8
0
  6
Continuous
 62
     8
370
    25
100
AcDbCircle
 10
414.3625465765
 20
19.4146821436
 30
0.0
 40
0.3171000041954986
100
AcDbArc
 50
286.6561677033
 51
352.3242712079
  0
ARC
  5
28E
330
23B
100
AcDbEntity
  8
0
  6
Continuous
 62
     8
370
    25
100
AcDbCircle
 10
-135.2293932892
 20
153.3745938035
 30
0.0
 40
0.4323664770340945
100
AcDbArc
 50
79.2837851803
 51
120.1592238946
  0
ARC
  5
28F
330
23B
100
AcDbEntity
  8
0
  6
Continuous
 62
     8
370
    25
100
AcDbCircle
 10
-416.1840197042
 20
3.4027654302
 30
0.0
 40
0.5483888119881541
100
AcDbArc
 50
76.7967287644
 51
117.1961204001
  0
ARC
  5
290
330
23B
100
AcDbEntity
  8
0
  6
Continuous
 62
     8
370
    25
100
AcDbCircle
 10
-135.5718717989
 20
153.2145393146
 30
0.0
 40
0.5483888119883867
100
AcDbArc
 50
76.7967287644
 51
117.1961204001
  0
VIEWPORT
  5
2A1
330
23B
100
AcDbEntity
  8
0
100
AcDbViewport
 10
0.0
 20
0.0
 30
0.0
 40
205.6
 41
156.0
 68
     1
 69
     1
 12
0.0
 22
0.0
 13
0.0
 23
0.0
 14
10.0
 24
10.0
 15
10.0
 25
10.0
 16
0.0
 26
0.0
 36
1.0
 17
0.0
 27
0.0
 37
0.0
 42
50.0
 43
0.0
 44
0.0
 45
550.2642023346
 50
0.0
 51
0.0
 72
   100
 90
   557152
  1

281
     0
 71
     1
 74
     0
110
0.0
120
0.0
130
0.0
111
1.0
121
0.0
131
0.0
112
0.0
122
1.0
132
0.0
 79
     0
146
0.0
  0
ENDBLK
  5
23E
330
23B
100
AcDbEntity
  8
0
100
AcDbBlockEnd
  0
ENDSEC
  0
SECTION
  2
ENTITIES
  0
LINE
  5
87
330
1F
100
AcDbEntity
  8
0
  6
Continuous
 62
     7
370
    25
100
AcDbLine
 10
-355.5
 20
-223.0
 30
0.0
 11
-355.5
 21
223.0
 31
0.0
  0
LINE
  5
88
330
1F
100
AcDbEntity
  8
0
  6
Continuous
 62
     7
370
    25
100
AcDbLine
 10
355.5
 20
223.0
 30
0.0
 11
-355.5
 21
223.0
 31
0.0
  0
LINE
  5
89
330
1F
100
AcDbEntity
  8
0
  6
Continuous
 62
     7
370
    25
100
AcDbLine
 10
-354.5
 20
224.0
 30
0.0
 11
-354.5
 21
-224.0
 31
0.0
  0
LINE
  5
8A
330
1F
100
AcDbEntity
  8
0
  6
Continuous
 62
     7
370
    25
100
AcDbLine
 10
354.5
 20
-224.0
 30
0.0
 11
354.5
 21
224.0
 31
0.0
  0
LINE
  5
8B
330
1F
100
AcDbEntity
  8
0
  6
Continuous
 62
     7
370
    25
100
AcDbLine
 10
-355.5
 20
-223.0
 30
0.0
 11
355.5
 21
-223.0
 31
0.0
  0
LINE
  5
8C
330
1F
100
AcDbEntity
  8
0
  6
Continuous
 62
     7
370
    25
100
AcDbLine
 10
355.5
 20
223.0
 30
0.0
 11
355.5
 21
-223.0
 31
0.0
  0
LINE
  5
8D
330
1F
100
AcDbEntity
  8
0
  6
Continuous
 62
     7
370
    25
100
AcDbLine
 10
-354.5
 20
224.0
 30
0.0
 11
354.5
 21
224.0
 31
0.0
  0
LINE
  5
8E
330
1F
100
AcDbEntity
  8
0
  6
Continuous
 62
     7
370
    25
100
AcDbLine
 10
354.5
 20
-224.0
 30
0.0
 11
-354.5
 21
-224.0
 31
0.0
  0
ARC
  5
8F
330
1F
100
AcDbEntity
  8
0
  6
Continuous
 62
     7
370
    25
100
AcDbCircle
 10
-354.5
 20
-223.0
 30
0.0
 40
1.0
100
AcDbArc
 50
180.0
 51
270.0
  0
ARC
  5
90
330
1F
100
AcDbEntity
  8
0
  6
Continuous
 62
     7
370
    25
100
AcDbCircle
 10
-354.5
 20
223.0
 30
0.0
 40
1.000000000000114
100
AcDbArc
 50
90.0
 51
180.0
  0
ARC
  5
91
330
1F
100
AcDbEntity
  8
0
  6
Continuous
 62
     7
370
    25
100
AcDbCircle
 10
354.5
 20
-223.0
 30
0.0
 40
1.000000000000114
100
AcDbArc
 50
270.0
 51
360.0
  0
ARC
  5
92
330
1F
100
AcDbEntity
  8
0
  6
Continuous
 62
     7
370
    25
100
AcDbCircle
 10
354.5
 20
223.0
 30
0.0
 40
1.0
100
AcDbArc
 50
0.0
 51
90.0
  0
LINE
  5
A7
330
1B
100
AcDbEntity
 67
     1
  8
0
  6
Continuous
 62
     7
370
    25
100
AcDbLine
 10
-355.5
 20
1.0
 30
0.0
 11
355.5
 21
1.0
 31
0.0
  0
LINE
  5
A8
330
1B
100
AcDbEntity
 67
     1
  8
0
  6
Continuous
 62
     7
370
    25
100
AcDbLine
 10
354.5
 20
0.0
 30
0.0
 11
354.5
 21
24.0
 31
0.0
  0
LINE
  5
A9
330
1B
100
AcDbEntity
 67
     1
  8
0
  6
Continuous
 62
     7
370
    25
100
AcDbLine
 10
354.5
 20
0.0
 30
0.0
 11
-354.5
 21
0.0
 31
0.0
  0
LINE
  5
AA
330
1B
100
AcDbEntity
 67
     1
  8
0
  6
Continuous
 62
     7
370
    25
100
AcDbLine
 10
355.5
 20
23.0
 30
0.0
 11
-355.5
 21
23.0
 31
0.0
  0
LINE
  5
AB
330
1B
100
AcDbEntity
 67
     1
  8
0
  6
Continuous
 62
     7
370
    25
100
AcDbLine
 10
-354.5
 20
24.0
 30
0.0
 11
-354.5
 21
0.0
 31
0.0
  0
LINE
  5
AC
330
1B
100
AcDbEntity
 67
     1
  8
0
  6
Continuous
 62
     7
370
    25
100
AcDbLine
 10
-354.5
 20
24.0
 30
0.0
 11
354.5
 21
24.0
 31
0.0
  0
LINE
  5
AD
330
1B
100
AcDbEntity
 67
     1
  8
0
  6
Continuous
 62
     7
370
    25
100
AcDbLine
 10
-355.5
 20
1.0
 30
0.0
 11
-355.5
 21
23.0
 31
0.0
  0
LINE
  5
AE
330
1B
100
AcDbEntity
 67
     1
  8
0
  6
Continuous
 62
     7
370
    25
100
AcDbLine
 10
355.5
 20
23.0
 30
0.0
 11
355.5
 21
1.0
 31
0.0
  0
ARC
  5
AF
330
1B
100
AcDbEntity
 67
     1
  8
0
  6
Continuous
 62
     7
370
    25
100
AcDbCircle
 10
-354.5
 20
23.0
 30
0.0
 40
1.000000000000057
100
AcDbArc
 50
90.0
 51
180.0
  0
ARC
  5
B0
330
1B
100
AcDbEntity
 67
     1
  8
0
  6
Continuous
 62
     7
370
    25
100
AcDbCircle
 10
-354.5
 20
1.0
 30
0.0
 40
1.000000000000057
100
AcDbArc
 50
180.0
 51
270.0
  0
ARC
  5
B1
330
1B
100
AcDbEntity
 67
     1
  8
0
  6
Continuous
 62
     7
370
    25
100
AcDbCircle
 10
354.5
 20
1.0
 30
0.0
 40
1.000000000000057
100
AcDbArc
 50
270.0
 51
360.0
  0
ARC
  5
B2
330
1B
100
AcDbEntity
 67
     1
  8
0
  6
Continuous
 62
     7
370
    25
100
AcDbCircle
 10
354.5
 20
23.0
 30
0.0
 40
1.000000000000057
100
AcDbArc
 50
0.0
 51
90.0
  0
VIEWPORT
  5
291
330
1B
100
AcDbEntity
 67
     1
  8
0
100
AcDbViewport
 10
0.0
 20
0.0
 30
0.0
 40
205.6
 41
156.0
 68
     1
 69
     1
 12
0.0
 22
0.0
 13
0.0
 23
0.0
 14
10.0
 24
10.0
 15
10.0
 25
10.0
 16
0.0
 26
0.0
 36
1.0
 17
0.0
 27
0.0
 37
0.0
 42
50.0
 43
0.0
 44
0.0
 45
550.2642023346
 50
0.0
 51
0.0
 72
   100
 90
   557152
  1

281
     0
 71
     1
 74
     0
110
0.0
120
0.0
130
0.0
111
1.0
121
0.0
131
0.0
112
0.0
122
1.0
132
0.0
 79
     0
146
0.0
  0
ENDSEC
  0
SECTION
  2
OBJECTS
  0
DICTIONARY
  5
C
330
0
100
AcDbDictionary
281
     1
  3
ACAD_GROUP
350
D
  3
ACAD_LAYOUT
350
1A
  3
ACAD_MLINESTYLE
350
17
  3
ACAD_PLOTSETTINGS
350
19
  3
ACAD_PLOTSTYLENAME
350
E
  3
ACAD_SCALELIST
350
47
  0
DICTIONARY
  5
D
102
{ACAD_REACTORS
330
C
102
}
330
C
100
AcDbDictionary
281
     1
  0
DICTIONARY
  5
1A
102
{ACAD_REACTORS
330
C
102
}
330
C
100
AcDbDictionary
281
     1
  3
_Back
350
D4
  3
_Bottom
350
11C
  3
_Dimetric
350
1EC
  3
_Front
350
1E
  3
_Isometric
350
140
  3
_Left
350
26
  3
_Right
350
F8
  3
_Trimetric
350
198
  3
ISO PERSP
350
23C
  3
Model
350
22
  0
DICTIONARY
  5
17
102
{ACAD_REACTORS
330
C
102
}
330
C
100
AcDbDictionary
281
     1
  3
Standard
350
18
  0
DICTIONARY
  5
19
102
{ACAD_REACTORS
330
C
102
}
330
C
100
AcDbDictionary
281
     1
  0
ACDBDICTIONARYWDFLT
  5
E
102
{ACAD_REACTORS
330
C
102
}
330
C
100
AcDbDictionary
281
     1
  3
Normal
350
F
100
AcDbDictionaryWithDefault
340
F
  0
DICTIONARY
  5
47
102
{ACAD_REACTORS
330
C
102
}
330
C
100
AcDbDictionary
281
     1
  3
A0
350
48
  3
A1
350
49
  3
A2
350
4A
  3
A3
350
4B
  3
A4
350
4C
  3
A5
350
4D
  3
A6
350
4E
  3
A7
350
4F
  3
A8
350
50
  3
A9
350
51
  3
B0
350
52
  3
B1
350
53
  3
B2
350
54
  3
B3
350
55
  3
B4
350
56
  3
B5
350
57
  3
B6
350
58
  3
B7
350
59
  3
B8
350
5A
  3
B9
350
5B
  3
C0
350
5C
  3
C1
350
5D
  3
C2
350
5E
  3
C3
350
5F
  3
C4
350
60
  3
C5
350
61
  3
C6
350
62
  3
C7
350
63
  3
C8
350
64
  3
C9
350
65
  3
D0
350
66
  3
D1
350
67
  3
D2
350
68
  0
LAYOUT
  5
D4
102
{ACAD_REACTORS
330
1A
102
}
330
1A
100
AcDbPlotSettings
  1

  2
none_device
  4
ISO_A4_(210.00_x_297.00_MM)
  6

 40
7.5
 41
20.0
 42
7.5
 43
20.0
 44
210.0
 45
297.0
 46
0.0
 47
0.0
 48
0.0
 49
0.0
140
0.0
141
0.0
142
1.0
143
2.766536965
 70
   688
 72
     1
 73
     1
 74
     1
  7

 75
     0
147
0.3614627286
148
355.5
149
0.0
100
AcDbLayout
  1
_Back
 70
     1
 71
     3
 10
0.0
 20
0.0
 11
0.0
 21
0.0
 12
0.0
 22
0.0
 32
0.0
 14
0.0
 24
0.0
 34
0.0
 15
0.0
 25
0.0
 35
0.0
146
0.0
 13
0.0
 23
0.0
 33
0.0
 16
1.0
 26
0.0
 36
0.0
 17
0.0
 27
1.0
 37
0.0
 76
     0
330
D3
331
295
  0
LAYOUT
  5
11C
102
{ACAD_REACTORS
330
1A
102
}
330
1A
100
AcDbPlotSettings
  1

  2
none_device
  4
ISO_A4_(210.00_x_297.00_MM)
  6

 40
7.5
 41
20.0
 42
7.5
 43
20.0
 44
210.0
 45
297.0
 46
0.0
 47
0.0
 48
0.0
 49
0.0
140
0.0
141
0.0
142
1.0
143
2.766536965
 70
   688
 72
     1
 73
     1
 74
     1
  7

 75
     0
147
0.3614627286
148
355.5
149
0.0
100
AcDbLayout
  1
_Bottom
 70
     1
 71
     5
 10
0.0
 20
0.0
 11
0.0
 21
0.0
 12
0.0
 22
0.0
 32
0.0
 14
0.0
 24
0.0
 34
0.0
 15
0.0
 25
0.0
 35
0.0
146
0.0
 13
0.0
 23
0.0
 33
0.0
 16
1.0
 26
0.0
 36
0.0
 17
0.0
 27
1.0
 37
0.0
 76
     0
330
11B
331
299
  0
LAYOUT
  5
1EC
102
{ACAD_REACTORS
330
1A
102
}
330
1A
100
AcDbPlotSettings
  1

  2
none_device
  4
ISO_A4_(210.00_x_297.00_MM)
  6

 40
7.5
 41
20.0
 42
7.5
 43
20.0
 44
210.0
 45
297.0
 46
0.0
 47
0.0
 48
0.0
 49
0.0
140
0.0
141
0.0
142
1.0
143
2.766536965
 70
   688
 72
     1
 73
     1
 74
     1
  7

 75
     0
147
0.3614627286
148
355.5
149
0.0
100
AcDbLayout
  1
_Dimetric
 70
     1
 71
     8
 10
0.0
 20
0.0
 11
0.0
 21
0.0
 12
0.0
 22
0.0
 32
0.0
 14
0.0
 24
0.0
 34
0.0
 15
0.0
 25
0.0
 35
0.0
146
0.0
 13
0.0
 23
0.0
 33
0.0
 16
1.0
 26
0.0
 36
0.0
 17
0.0
 27
1.0
 37
0.0
 76
     0
330
1EB
331
29F
  0
LAYOUT
  5
1E
102
{ACAD_REACTORS
330
1A
102
}
330
1A
100
AcDbPlotSettings
  1

  2
none_device
  4
ISO_A4_(210.00_x_297.00_MM)
  6

 40
7.5
 41
20.0
 42
7.5
 43
20.0
 44
210.0
 45
297.0
 46
0.0
 47
0.0
 48
0.0
 49
0.0
140
0.0
141
0.0
142
1.0
143
2.766536965
 70
   688
 72
     1
 73
     1
 74
     1
  7

 75
     0
147
0.3614627286
148
355.5
149
0.0
100
AcDbLayout
  1
_Front
 70
     1
 71
     1
 10
-410.8307392996
 20
-20.7490272374
 11
410.8307392996
 21
560.2237354086
 12
0.0
 22
0.0
 32
0.0
 14
-355.5
 24
0.0
 34
0.0
 15
355.5
 25
24.0
 35
0.0
146
0.0
 13
0.0
 23
0.0
 33
0.0
 16
1.0
 26
0.0
 36
0.0
 17
0.0
 27
1.0
 37
0.0
 76
     0
330
1B
331
291
  0
LAYOUT
  5
140
102
{ACAD_REACTORS
330
1A
102
}
330
1A
100
AcDbPlotSettings
  1

  2
none_device
  4
ISO_A4_(210.00_x_297.00_MM)
  6

 40
7.5
 41
20.0
 42
7.5
 43
20.0
 44
210.0
 45
297.0
 46
0.0
 47
0.0
 48
0.0
 49
0.0
140
0.0
141
0.0
142
1.0
143
2.766536965
 70
   688
 72
     1
 73
     1
 74
     1
  7

 75
     0
147
0.3614627286
148
355.5
149
0.0
100
AcDbLayout
  1
_Isometric
 70
     1
 71
     6
 10
0.0
 20
0.0
 11
0.0
 21
0.0
 12
0.0
 22
0.0
 32
0.0
 14
0.0
 24
0.0
 34
0.0
 15
0.0
 25
0.0
 35
0.0
146
0.0
 13
0.0
 23
0.0
 33
0.0
 16
1.0
 26
0.0
 36
0.0
 17
0.0
 27
1.0
 37
0.0
 76
     0
330
13F
331
29B
  0
LAYOUT
  5
26
102
{ACAD_REACTORS
330
1A
102
}
330
1A
100
AcDbPlotSettings
  1

  2
none_device
  4
ISO_A4_(210.00_x_297.00_MM)
  6

 40
7.5
 41
20.0
 42
7.5
 43
20.0
 44
210.0
 45
297.0
 46
0.0
 47
0.0
 48
0.0
 49
0.0
140
0.0
141
0.0
142
1.0
143
2.766536965
 70
   688
 72
     1
 73
     1
 74
     1
  7

 75
     0
147
0.3614627286
148
355.5
149
0.0
100
AcDbLayout
  1
_Left
 70
     1
 71
     2
 10
0.0
 20
0.0
 11
0.0
 21
0.0
 12
0.0
 22
0.0
 32
0.0
 14
0.0
 24
0.0
 34
0.0
 15
0.0
 25
0.0
 35
0.0
146
0.0
 13
0.0
 23
0.0
 33
0.0
 16
1.0
 26
0.0
 36
0.0
 17
0.0
 27
1.0
 37
0.0
 76
     0
330
23
331
293
  0
LAYOUT
  5
F8
102
{ACAD_REACTORS
330
1A
102
}
330
1A
100
AcDbPlotSettings
  1

  2
none_device
  4
ISO_A4_(210.00_x_297.00_MM)
  6

 40
7.5
 41
20.0
 42
7.5
 43
20.0
 44
210.0
 45
297.0
 46
0.0
 47
0.0
 48
0.0
 49
0.0
140
0.0
141
0.0
142
1.0
143
2.766536965
 70
   688
 72
     1
 73
     1
 74
     1
  7

 75
     0
147
0.3614627286
148
355.5
149
0.0
100
AcDbLayout
  1
_Right
 70
     1
 71
     4
 10
0.0
 20
0.0
 11
0.0
 21
0.0
 12
0.0
 22
0.0
 32
0.0
 14
0.0
 24
0.0
 34
0.0
 15
0.0
 25
0.0
 35
0.0
146
0.0
 13
0.0
 23
0.0
 33
0.0
 16
1.0
 26
0.0
 36
0.0
 17
0.0
 27
1.0
 37
0.0
 76
     0
330
F7
331
297
  0
LAYOUT
  5
198
102
{ACAD_REACTORS
330
1A
102
}
330
1A
100
AcDbPlotSettings
  1

  2
none_device
  4
ISO_A4_(210.00_x_297.00_MM)
  6

 40
7.5
 41
20.0
 42
7.5
 43
20.0
 44
210.0
 45
297.0
 46
0.0
 47
0.0
 48
0.0
 49
0.0
140
0.0
141
0.0
142
1.0
143
2.766536965
 70
   688
 72
     1
 73
     1
 74
     1
  7

 75
     0
147
0.3614627286
148
355.5
149
0.0
100
AcDbLayout
  1
_Trimetric
 70
     1
 71
     7
 10
0.0
 20
0.0
 11
0.0
 21
0.0
 12
0.0
 22
0.0
 32
0.0
 14
0.0
 24
0.0
 34
0.0
 15
0.0
 25
0.0
 35
0.0
146
0.0
 13
0.0
 23
0.0
 33
0.0
 16
1.0
 26
0.0
 36
0.0
 17
0.0
 27
1.0
 37
0.0
 76
     0
330
197
331
29D
  0
LAYOUT
  5
23C
102
{ACAD_REACTORS
330
1A
102
}
330
1A
100
AcDbPlotSettings
  1

  2
none_device
  4
ISO_A4_(210.00_x_297.00_MM)
  6

 40
7.5
 41
20.0
 42
7.5
 43
20.0
 44
210.0
 45
297.0
 46
0.0
 47
0.0
 48
0.0
 49
0.0
140
0.0
141
0.0
142
1.0
143
2.766536965
 70
   688
 72
     1
 73
     1
 74
     1
  7

 75
     0
147
0.3614627286
148
355.5
149
0.0
100
AcDbLayout
  1
ISO PERSP
 70
     1
 71
     9
 10
0.0
 20
0.0
 11
0.0
 21
0.0
 12
0.0
 22
0.0
 32
0.0
 14
0.0
 24
0.0
 34
0.0
 15
0.0
 25
0.0
 35
0.0
146
0.0
 13
0.0
 23
0.0
 33
0.0
 16
1.0
 26
0.0
 36
0.0
 17
0.0
 27
1.0
 37
0.0
 76
     0
330
23B
331
2A1
  0
LAYOUT
  5
22
102
{ACAD_REACTORS
330
1A
102
}
330
1A
100
AcDbPlotSettings
  1

  2
none_device
  4
ANSI_A_(11.00_x_8.50_Inches)
  6

 40
6.35
 41
19.05
 42
6.35000508
 43
19.05000254
 44
279.4
 45
215.9
 46
133.34999746
 47
88.89999873
 48
0.0
 49
0.0
140
0.0
141
0.0
142
0.0153164557
143
1.0
 70
  1696
 72
     0
 73
     0
 74
     0
  7

 75
     0
147
0.0179189148
148
-1300.4909072572
149
0.0
100
AcDbLayout
  1
Model
 70
     1
 71
     0
 10
0.0
 20
0.0
 11
420.0
 21
297.0
 12
0.0
 22
0.0
 32
0.0
 14
-355.5
 24
-224.0
 34
0.0
 15
355.5
 25
224.0
 35
0.0
146
0.0
 13
0.0
 23
0.0
 33
0.0
 16
1.0
 26
0.0
 36
0.0
 17
0.0
 27
1.0
 37
0.0
 76
     0
330
1F
331
29
  0
MLINESTYLE
  5
18
102
{ACAD_REACTORS
330
17
102
}
330
17
100
AcDbMlineStyle
  2
Standard
 70
     0
  3

 62
   256
 51
90.0
 52
90.0
 71
     2
 49
0.5
 62
   256
  6
BYLAYER
 49
-0.5
 62
   256
  6
BYLAYER
  0
ACDBPLACEHOLDER
  5
F
102
{ACAD_REACTORS
330
E
102
}
330
E
  0
SCALE
  5
48
102
{ACAD_REACTORS
330
47
102
}
330
47
100
AcDbScale
 70
     0
300
1:1
140
1.0
141
1.0
290
     1
  0
SCALE
  5
49
102
{ACAD_REACTORS
330
47
102
}
330
47
100
AcDbScale
 70
     0
300
1:2
140
1.0
141
2.0
290
     0
  0
SCALE
  5
4A
102
{ACAD_REACTORS
330
47
102
}
330
47
100
AcDbScale
 70
     0
300
1:4
140
1.0
141
4.0
290
     0
  0
SCALE
  5
4B
102
{ACAD_REACTORS
330
47
102
}
330
47
100
AcDbScale
 70
     0
300
1:5
140
1.0
141
5.0
290
     0
  0
SCALE
  5
4C
102
{ACAD_REACTORS
330
47
102
}
330
47
100
AcDbScale
 70
     0
300
1:8
140
1.0
141
8.0
290
     0
  0
SCALE
  5
4D
102
{ACAD_REACTORS
330
47
102
}
330
47
100
AcDbScale
 70
     0
300
1:10
140
1.0
141
10.0
290
     0
  0
SCALE
  5
4E
102
{ACAD_REACTORS
330
47
102
}
330
47
100
AcDbScale
 70
     0
300
1:16
140
1.0
141
16.0
290
     0
  0
SCALE
  5
4F
102
{ACAD_REACTORS
330
47
102
}
330
47
100
AcDbScale
 70
     0
300
1:20
140
1.0
141
20.0
290
     0
  0
SCALE
  5
50
102
{ACAD_REACTORS
330
47
102
}
330
47
100
AcDbScale
 70
     0
300
1:30
140
1.0
141
30.0
290
     0
  0
SCALE
  5
51
102
{ACAD_REACTORS
330
47
102
}
330
47
100
AcDbScale
 70
     0
300
1:40
140
1.0
141
40.0
290
     0
  0
SCALE
  5
52
102
{ACAD_REACTORS
330
47
102
}
330
47
100
AcDbScale
 70
     0
300
1:50
140
1.0
141
50.0
290
     0
  0
SCALE
  5
53
102
{ACAD_REACTORS
330
47
102
}
330
47
100
AcDbScale
 70
     0
300
1:100
140
1.0
141
100.0
290
     0
  0
SCALE
  5
54
102
{ACAD_REACTORS
330
47
102
}
330
47
100
AcDbScale
 70
     0
300
2:1
140
2.0
141
1.0
290
     0
  0
SCALE
  5
55
102
{ACAD_REACTORS
330
47
102
}
330
47
100
AcDbScale
 70
     0
300
4:1
140
4.0
141
1.0
290
     0
  0
SCALE
  5
56
102
{ACAD_REACTORS
330
47
102
}
330
47
100
AcDbScale
 70
     0
300
8:1
140
8.0
141
1.0
290
     0
  0
SCALE
  5
57
102
{ACAD_REACTORS
330
47
102
}
330
47
100
AcDbScale
 70
     0
300
10:1
140
10.0
141
1.0
290
     0
  0
SCALE
  5
58
102
{ACAD_REACTORS
330
47
102
}
330
47
100
AcDbScale
 70
     0
300
100:1
140
100.0
141
1.0
290
     0
  0
SCALE
  5
59
102
{ACAD_REACTORS
330
47
102
}
330
47
100
AcDbScale
 70
     0
300
1/128" = 1'-0"
140
0.0078125
141
12.0
290
     0
  0
SCALE
  5
5A
102
{ACAD_REACTORS
330
47
102
}
330
47
100
AcDbScale
 70
     0
300
1/64" = 1'-0"
140
0.015625
141
12.0
290
     0
  0
SCALE
  5
5B
102
{ACAD_REACTORS
330
47
102
}
330
47
100
AcDbScale
 70
     0
300
1/32" = 1'-0"
140
0.03125
141
12.0
290
     0
  0
SCALE
  5
5C
102
{ACAD_REACTORS
330
47
102
}
330
47
100
AcDbScale
 70
     0
300
1/16" = 1'-0"
140
0.0625
141
12.0
290
     0
  0
SCALE
  5
5D
102
{ACAD_REACTORS
330
47
102
}
330
47
100
AcDbScale
 70
     0
300
3/32" = 1'-0"
140
0.09375
141
12.0
290
     0
  0
SCALE
  5
5E
102
{ACAD_REACTORS
330
47
102
}
330
47
100
AcDbScale
 70
     0
300
1/8" = 1'-0"
140
0.125
141
12.0
290
     0
  0
SCALE
  5
5F
102
{ACAD_REACTORS
330
47
102
}
330
47
100
AcDbScale
 70
     0
300
3/16" = 1'-0"
140
0.1875
141
12.0
290
     0
  0
SCALE
  5
60
102
{ACAD_REACTORS
330
47
102
}
330
47
100
AcDbScale
 70
     0
300
1/4" = 1'-0"
140
0.25
141
12.0
290
     0
  0
SCALE
  5
61
102
{ACAD_REACTORS
330
47
102
}
330
47
100
AcDbScale
 70
     0
300
3/8" = 1'-0"
140
0.375
141
12.0
290
     0
  0
SCALE
  5
62
102
{ACAD_REACTORS
330
47
102
}
330
47
100
AcDbScale
 70
     0
300
1/2" = 1'-0"
140
0.5
141
12.0
290
     0
  0
SCALE
  5
63
102
{ACAD_REACTORS
330
47
102
}
330
47
100
AcDbScale
 70
     0
300
3/4" = 1'-0"
140
0.75
141
12.0
290
     0
  0
SCALE
  5
64
102
{ACAD_REACTORS
330
47
102
}
330
47
100
AcDbScale
 70
     0
300
1" = 1'-0"
140
1.0
141
12.0
290
     0
  0
SCALE
  5
65
102
{ACAD_REACTORS
330
47
102
}
330
47
100
AcDbScale
 70
     0
300
1-1/2" = 1'-0"
140
1.5
141
12.0
290
     0
  0
SCALE
  5
66
102
{ACAD_REACTORS
330
47
102
}
330
47
100
AcDbScale
 70
     0
300
3" = 1'-0"
140
3.0
141
12.0
290
     0
  0
SCALE
  5
67
102
{ACAD_REACTORS
330
47
102
}
330
47
100
AcDbScale
 70
     0
300
6" = 1'-0"
140
6.0
141
12.0
290
     0
  0
SCALE
  5
68
102
{ACAD_REACTORS
330
47
102
}
330
47
100
AcDbScale
 70
     0
300
1'-0" = 1'-0"
140
12.0
141
12.0
290
     0
  0
ENDSEC
  0
EOF
