  0
SECTION
  2
HEADER
  9
$ACADVER
  1
AC1015
  9
$ACADMAINTVER
 70
     6
  9
$DWGCODEPAGE
  3
ANSI_1252
  9
$INSBASE
 10
0.0
 20
0.0
 30
0.0
  9
$EXTMIN
 10
-298.0
 20
0.0
 30
0.0
  9
$EXTMAX
 10
298.0
 20
480.0
 30
0.0
  9
$LIMMIN
 10
0.0
 20
0.0
  9
$LIMMAX
 10
420.0
 20
297.0
  9
$ORTHOMODE
 70
     0
  9
$REGENMODE
 70
     1
  9
$FILLMODE
 70
     1
  9
$QTEXTMODE
 70
     0
  9
$MIRRTEXT
 70
     1
  9
$LTSCALE
 40
1.0
  9
$ATTMODE
 70
     1
  9
$TEXTSIZE
 40
3.5
  9
$TRACEWID
 40
1.0
  9
$TEXTSTYLE
  7
Standard
  9
$CLAYER
  8
0
  9
$CELTYPE
  6
ByLayer
  9
$CECOLOR
 62
   256
  9
$CELTSCALE
 40
1.0
  9
$DISPSILH
 70
     0
  9
$DIMSCALE
 40
1.0
  9
$DIMASZ
 40
3.302
  9
$DIMEXO
 40
1.0
  9
$DIMDLI
 40
3.75
  9
$DIMRND
 40
0.0
  9
$DIMDLE
 40
0.0
  9
$DIMEXE
 40
1.0
  9
$DIMTP
 40
0.0
  9
$DIMTM
 40
0.0
  9
$DIMTXT
 40
3.5
  9
$DIMCEN
 40
2.5
  9
$DIMTSZ
 40
0.0
  9
$DIMTOL
 70
     0
  9
$DIMLIM
 70
     0
  9
$DIMTIH
 70
     1
  9
$DIMTOH
 70
     1
  9
$DIMSE1
 70
     0
  9
$DIMSE2
 70
     0
  9
$DIMTAD
 70
     1
  9
$DIMZIN
 70
     1
  9
$DIMBLK
  1

  9
$DIMASO
 70
     1
  9
$DIMSHO
 70
     1
  9
$DIMPOST
  1

  9
$DIMAPOST
  1

  9
$DIMALT
 70
     0
  9
$DIMALTD
 70
     3
  9
$DIMALTF
 40
0.0393700787
  9
$DIMLFAC
 40
1.0
  9
$DIMTOFL
 70
     1
  9
$DIMTVP
 40
0.0
  9
$DIMTIX
 70
     0
  9
$DIMSOXD
 70
     0
  9
$DIMSAH
 70
     0
  9
$DIMBLK1
  1

  9
$DIMBLK2
  1

  9
$DIMSTYLE
  2
ISO-25
  9
$DIMCLRD
 70
     0
  9
$DIMCLRE
 70
     0
  9
$DIMCLRT
 70
     0
  9
$DIMTFAC
 40
1.0
  9
$DIMGAP
 40
1.524
  9
$DIMJUST
 70
     0
  9
$DIMSD1
 70
     0
  9
$DIMSD2
 70
     0
  9
$DIMTOLJ
 70
     0
  9
$DIMTZIN
 70
     1
  9
$DIMALTZ
 70
     0
  9
$DIMALTTZ
 70
     0
  9
$DIMUPT
 70
     0
  9
$DIMDEC
 70
     2
  9
$DIMTDEC
 70
     2
  9
$DIMALTU
 70
     2
  9
$DIMALTTD
 70
     3
  9
$DIMTXSTY
  7
Standard
  9
$DIMAUNIT
 70
     0
  9
$DIMADEC
 70
     2
  9
$DIMALTRND
 40
0.0
  9
$DIMAZIN
 70
     0
  9
$DIMDSEP
 70
    44
  9
$DIMATFIT
 70
     3
  9
$DIMFRAC
 70
     0
  9
$DIMLDRBLK
  1

  9
$DIMLUNIT
 70
     2
  9
$DIMLWD
 70
    -2
  9
$DIMLWE
 70
    -2
  9
$DIMTMOVE
 70
     0
  9
$LUNITS
 70
     2
  9
$LUPREC
 70
     2
  9
$SKETCHINC
 40
1.0
  9
$FILLETRAD
 40
10.0
  9
$AUNITS
 70
     0
  9
$AUPREC
 70
     2
  9
$MENU
  1
.
  9
$ELEVATION
 40
0.0
  9
$PELEVATION
 40
0.0
  9
$THICKNESS
 40
0.0
  9
$LIMCHECK
 70
     0
  9
$CHAMFERA
 40
0.0
  9
$CHAMFERB
 40
0.0
  9
$CHAMFERC
 40
0.0
  9
$CHAMFERD
 40
0.0
  9
$SKPOLY
 70
     0
  9
$TDCREATE
 40
2459257.659706018
  9
$TDUCREATE
 40
2459257.659706018
  9
$TDUPDATE
 40
2459257.659740023
  9
$TDUUPDATE
 40
2459257.659740023
  9
$TDINDWG
 40
0.0000000116
  9
$TDUSRTIMER
 40
0.0000000116
  9
$USRTIMER
 70
     1
  9
$ANGBASE
 50
0.0
  9
$ANGDIR
 70
     0
  9
$PDMODE
 70
     0
  9
$PDSIZE
 40
-1.0
  9
$PLINEWID
 40
0.0
  9
$SPLFRAME
 70
     0
  9
$SPLINETYPE
 70
     6
  9
$SPLINESEGS
 70
     8
  9
$HANDSEED
  5
4F4
  9
$SURFTAB1
 70
     6
  9
$SURFTAB2
 70
     6
  9
$SURFTYPE
 70
     6
  9
$SURFU
 70
     6
  9
$SURFV
 70
     6
  9
$UCSBASE
  2

  9
$UCSNAME
  2

  9
$UCSORG
 10
0.0
 20
0.0
 30
0.0
  9
$UCSXDIR
 10
1.0
 20
0.0
 30
0.0
  9
$UCSYDIR
 10
0.0
 20
1.0
 30
0.0
  9
$UCSORTHOREF
  2

  9
$UCSORTHOVIEW
 70
     0
  9
$UCSORGTOP
 10
0.0
 20
0.0
 30
0.0
  9
$UCSORGBOTTOM
 10
0.0
 20
0.0
 30
0.0
  9
$UCSORGLEFT
 10
0.0
 20
0.0
 30
0.0
  9
$UCSORGRIGHT
 10
0.0
 20
0.0
 30
0.0
  9
$UCSORGFRONT
 10
0.0
 20
0.0
 30
0.0
  9
$UCSORGBACK
 10
0.0
 20
0.0
 30
0.0
  9
$PUCSBASE
  2

  9
$PUCSNAME
  2

  9
$PUCSORG
 10
0.0
 20
0.0
 30
0.0
  9
$PUCSXDIR
 10
1.0
 20
0.0
 30
0.0
  9
$PUCSYDIR
 10
0.0
 20
1.0
 30
0.0
  9
$PUCSORTHOREF
  2

  9
$PUCSORTHOVIEW
 70
     0
  9
$PUCSORGTOP
 10
0.0
 20
0.0
 30
0.0
  9
$PUCSORGBOTTOM
 10
0.0
 20
0.0
 30
0.0
  9
$PUCSORGLEFT
 10
0.0
 20
0.0
 30
0.0
  9
$PUCSORGRIGHT
 10
0.0
 20
0.0
 30
0.0
  9
$PUCSORGFRONT
 10
0.0
 20
0.0
 30
0.0
  9
$PUCSORGBACK
 10
0.0
 20
0.0
 30
0.0
  9
$USERI1
 70
     0
  9
$USERI2
 70
     0
  9
$USERI3
 70
     0
  9
$USERI4
 70
     0
  9
$USERI5
 70
     0
  9
$USERR1
 40
0.0
  9
$USERR2
 40
0.0
  9
$USERR3
 40
0.0
  9
$USERR4
 40
0.0
  9
$USERR5
 40
0.0
  9
$WORLDVIEW
 70
     1
  9
$SHADEDGE
 70
     3
  9
$SHADEDIF
 70
    70
  9
$TILEMODE
 70
     1
  9
$MAXACTVP
 70
    64
  9
$PINSBASE
 10
0.0
 20
0.0
 30
0.0
  9
$PLIMCHECK
 70
     0
  9
$PEXTMIN
 10
-298.0
 20
0.0
 30
0.0
  9
$PEXTMAX
 10
298.0
 20
480.0
 30
0.0
  9
$PLIMMIN
 10
-347.2307692308
 20
-18.4615384615
  9
$PLIMMAX
 10
383.8461538462
 20
498.4615384615
  9
$UNITMODE
 70
     0
  9
$VISRETAIN
 70
     1
  9
$PLINEGEN
 70
     0
  9
$PSLTSCALE
 70
     1
  9
$TREEDEPTH
 70
  3020
  9
$CMLSTYLE
  2
Standard
  9
$CMLJUST
 70
     0
  9
$CMLSCALE
 40
20.0
  9
$PROXYGRAPHICS
 70
     1
  9
$MEASUREMENT
 70
     1
  9
$CELWEIGHT
370
    -1
  9
$ENDCAPS
280
     0
  9
$JOINSTYLE
280
     0
  9
$LWDISPLAY
290
     1
  9
$INSUNITS
 70
     4
  9
$HYPERLINKBASE
  1

  9
$STYLESHEET
  1

  9
$XEDIT
290
     1
  9
$CEPSNTYPE
380
     0
  9
$PSTYLEMODE
290
     1
  9
$FINGERPRINTGUID
  2
{1175e48f-04df-495a-9975-32e43b9d94e0}
  9
$VERSIONGUID
  2
{FAEB1C32-E019-11D5-929B-00C0DF256EC4}
  9
$EXTNAMES
290
     1
  9
$PSVPSCALE
 40
0.0
  9
$OLESTARTUP
290
     0
  0
ENDSEC
  0
SECTION
  2
CLASSES
  0
CLASS
  1
ACDBDICTIONARYWDFLT
  2
AcDbDictionaryWithDefault
  3
ObjectDBX Classes
 90
        0
280
     0
281
     0
  0
CLASS
  1
VISUALSTYLE
  2
AcDbVisualStyle
  3
ObjectDBX Classes
 90
     4095
280
     0
281
     0
  0
CLASS
  1
MATERIAL
  2
AcDbMaterial
  3
ObjectDBX Classes
 90
     1153
280
     0
281
     0
  0
CLASS
  1
SCALE
  2
AcDbScale
  3
ObjectDBX Classes
 90
     1153
280
     0
281
     0
  0
CLASS
  1
TABLESTYLE
  2
AcDbTableStyle
  3
ObjectDBX Classes
 90
     4095
280
     0
281
     0
  0
CLASS
  1
MLEADERSTYLE
  2
AcDbMLeaderStyle
  3
ACDB_MLEADERSTYLE_CLASS
 90
     4095
280
     0
281
     0
  0
CLASS
  1
SUN
  2
AcDbSun
  3
SCENEOE
 90
     1153
280
     0
281
     0
  0
CLASS
  1
ACDBPLACEHOLDER
  2
AcDbPlaceHolder
  3
ObjectDBX Classes
 90
        0
280
     0
281
     0
  0
CLASS
  1
LAYOUT
  2
AcDbLayout
  3
ObjectDBX Classes
 90
        0
280
     0
281
     0
  0
ENDSEC
  0
SECTION
  2
TABLES
  0
TABLE
  2
VPORT
  5
8
330
0
100
AcDbSymbolTable
 70
     1
  0
VPORT
  5
29
330
8
100
AcDbSymbolTableRecord
100
AcDbViewportTableRecord
  2
*Active
 70
     0
 10
0.0
 20
0.0
 11
1.0
 21
1.0
 12
0.0
 22
240.0
 13
0.0
 23
0.0
 14
10.0
 24
10.0
 15
10.0
 25
10.0
 16
0.0
 26
0.0
 36
1.0
 17
0.0
 27
0.0
 37
0.0
 40
489.6
 41
1.2416666667
 42
50.0
 43
0.0
 44
0.0
 50
0.0
 51
0.0
 71
     0
 72
   100
 73
     1
 74
     3
 75
     0
 76
     0
 77
     0
 78
     0
281
     0
 65
     1
110
0.0
120
0.0
130
0.0
111
1.0
121
0.0
131
0.0
112
0.0
122
1.0
132
0.0
 79
     0
146
0.0
  0
ENDTAB
  0
TABLE
  2
LTYPE
  5
5
330
0
100
AcDbSymbolTable
 70
     6
  0
LTYPE
  5
14
330
5
100
AcDbSymbolTableRecord
100
AcDbLinetypeTableRecord
  2
ByBlock
 70
     0
  3

 72
    65
 73
     0
 40
0.0
  0
LTYPE
  5
15
330
5
100
AcDbSymbolTableRecord
100
AcDbLinetypeTableRecord
  2
ByLayer
 70
     0
  3

 72
    65
 73
     0
 40
0.0
  0
LTYPE
  5
16
330
5
100
AcDbSymbolTableRecord
100
AcDbLinetypeTableRecord
  2
Continuous
 70
     0
  3
Solid line
 72
    65
 73
     0
 40
0.0
  0
LTYPE
  5
6E
330
5
100
AcDbSymbolTableRecord
100
AcDbLinetypeTableRecord
  2
HIDDEN
 70
     0
  3
Hidden __ __ __ __ __ __ __ __ __ __ __ __ __ __
 72
    65
 73
     2
 40
1.905
 49
1.27
 74
     0
 49
-0.635
 74
     0
  0
LTYPE
  5
6F
330
5
100
AcDbSymbolTableRecord
100
AcDbLinetypeTableRecord
  2
PHANTOM
 70
     0
  3
Phantom ______  __  __  ______  __  __  ______
 72
    65
 73
     6
 40
12.7
 49
6.35
 74
     0
 49
-1.27
 74
     0
 49
1.27
 74
     0
 49
-1.27
 74
     0
 49
1.27
 74
     0
 49
-1.27
 74
     0
  0
LTYPE
  5
70
330
5
100
AcDbSymbolTableRecord
100
AcDbLinetypeTableRecord
  2
CENTER
 70
     0
  3
Center ____ _ ____ _ ____ _ ____ _ ____ _ ____
 72
    65
 73
     4
 40
10.16
 49
6.35
 74
     0
 49
-1.27
 74
     0
 49
1.27
 74
     0
 49
-1.27
 74
     0
  0
LTYPE
  5
71
330
5
100
AcDbSymbolTableRecord
100
AcDbLinetypeTableRecord
  2
CENTERX2
 70
     0
  3
Center (2x) ________  __  ________  __  _____
 72
    65
 73
     4
 40
20.32
 49
12.7
 74
     0
 49
-2.54
 74
     0
 49
2.54
 74
     0
 49
-2.54
 74
     0
  0
LTYPE
  5
72
330
5
100
AcDbSymbolTableRecord
100
AcDbLinetypeTableRecord
  2
DOT2
 70
     0
  3
Dot (.5x) ........................................
 72
    65
 73
     2
 40
0.635
 49
0.0
 74
     0
 49
-0.635
 74
     0
  0
ENDTAB
  0
TABLE
  2
LAYER
  5
2
330
0
100
AcDbSymbolTable
 70
     1
  0
LAYER
  5
10
330
2
100
AcDbSymbolTableRecord
100
AcDbLayerTableRecord
  2
0
 70
     0
 62
     7
  6
Continuous
370
    -3
390
F
  0
ENDTAB
  0
TABLE
  2
STYLE
  5
3
330
0
100
AcDbSymbolTable
 70
     1
  0
STYLE
  5
11
330
3
100
AcDbSymbolTableRecord
100
AcDbTextStyleTableRecord
  2
Standard
 70
     0
 40
0.0
 41
1.0
 50
0.0
 71
     0
 42
3.5
  3
txt
  4

  0
ENDTAB
  0
TABLE
  2
VIEW
  5
6
330
0
100
AcDbSymbolTable
 70
     0
  0
ENDTAB
  0
TABLE
  2
UCS
  5
7
330
0
100
AcDbSymbolTable
 70
     0
  0
ENDTAB
  0
TABLE
  2
APPID
  5
9
330
0
100
AcDbSymbolTable
 70
     1
  0
APPID
  5
12
330
9
100
AcDbSymbolTableRecord
100
AcDbRegAppTableRecord
  2
ACAD
 70
     0
  0
ENDTAB
  0
TABLE
  2
DIMSTYLE
  5
A
330
0
100
AcDbSymbolTable
 70
     1
100
AcDbDimStyleTable
  0
DIMSTYLE
105
27
330
A
100
AcDbSymbolTableRecord
100
AcDbDimStyleTableRecord
  2
ISO-25
 70
     0
 41
2.5
 42
0.625
 43
3.75
 44
1.25
 73
     0
 74
     0
 77
     1
 78
     8
140
2.5
141
2.5
143
0.0393700787
147
0.625
171
     3
172
     1
178
     0
271
     2
272
     2
274
     3
278
    44
283
     0
284
     8
340
11
  0
ENDTAB
  0
TABLE
  2
BLOCK_RECORD
  5
1
330
0
100
AcDbSymbolTable
 70
     3
  0
BLOCK_RECORD
  5
1F
330
1
100
AcDbSymbolTableRecord
100
AcDbBlockTableRecord
  2
*Model_Space
340
22
  0
BLOCK_RECORD
  5
1B
330
1
100
AcDbSymbolTableRecord
100
AcDbBlockTableRecord
  2
*Paper_Space
340
1E
  0
BLOCK_RECORD
  5
23
330
1
100
AcDbSymbolTableRecord
100
AcDbBlockTableRecord
  2
*Paper_Space0
340
26
  0
BLOCK_RECORD
  5
2D2
330
1
100
AcDbSymbolTableRecord
100
AcDbBlockTableRecord
  2
*Paper_Space1
340
2D3
  0
BLOCK_RECORD
  5
377
330
1
100
AcDbSymbolTableRecord
100
AcDbBlockTableRecord
  2
*Paper_Space2
340
378
  0
ENDTAB
  0
ENDSEC
  0
SECTION
  2
BLOCKS
  0
BLOCK
  5
20
330
1F
100
AcDbEntity
  8
0
100
AcDbBlockBegin
  2
*Model_Space
 70
     0
 10
0.0
 20
0.0
 30
0.0
  3
*Model_Space
  1

  0
ENDBLK
  5
21
330
1F
100
AcDbEntity
  8
0
100
AcDbBlockEnd
  0
BLOCK
  5
1C
330
1B
100
AcDbEntity
 67
     1
  8
0
100
AcDbBlockBegin
  2
*Paper_Space
 70
     0
 10
0.0
 20
0.0
 30
0.0
  3
*Paper_Space
  1

  0
ENDBLK
  5
1D
330
1B
100
AcDbEntity
 67
     1
  8
0
100
AcDbBlockEnd
  0
BLOCK
  5
24
330
23
100
AcDbEntity
  8
0
100
AcDbBlockBegin
  2
*Paper_Space0
 70
     0
 10
0.0
 20
0.0
 30
0.0
  3
*Paper_Space0
  1

  0
LINE
  5
2AF
330
23
100
AcDbEntity
  8
0
  6
Continuous
 62
     7
370
    25
100
AcDbLine
 10
231.0
 20
261.0
 30
0.0
 11
212.0
 21
261.0
 31
0.0
  0
LINE
  5
2B0
330
23
100
AcDbEntity
  8
0
  6
Continuous
 62
     7
370
    25
100
AcDbLine
 10
213.0
 20
262.0
 30
0.0
 11
230.0
 21
262.0
 31
0.0
  0
LINE
  5
2B1
330
23
100
AcDbEntity
  8
0
  6
Continuous
 62
     7
370
    25
100
AcDbLine
 10
230.0
 20
2.0
 30
0.0
 11
230.0
 21
262.0
 31
0.0
  0
LINE
  5
2B2
330
23
100
AcDbEntity
  8
0
  6
Continuous
 62
     7
370
    25
100
AcDbLine
 10
212.0
 20
3.0
 30
0.0
 11
231.0
 21
3.0
 31
0.0
  0
LINE
  5
2B3
330
23
100
AcDbEntity
  8
0
  6
Continuous
 62
     7
370
    25
100
AcDbLine
 10
213.0
 20
262.0
 30
0.0
 11
213.0
 21
2.0
 31
0.0
  0
LINE
  5
2B4
330
23
100
AcDbEntity
  8
0
  6
Continuous
 62
     7
370
    25
100
AcDbLine
 10
230.0
 20
2.0
 30
0.0
 11
213.0
 21
2.0
 31
0.0
  0
LINE
  5
2B5
330
23
100
AcDbEntity
  8
0
  6
Continuous
 62
     7
370
    25
100
AcDbLine
 10
231.0
 20
261.0
 30
0.0
 11
231.0
 21
3.0
 31
0.0
  0
LINE
  5
2B6
330
23
100
AcDbEntity
  8
0
  6
Continuous
 62
     7
370
    25
100
AcDbLine
 10
212.0
 20
480.0
 30
0.0
 11
212.0
 21
1.0
 31
0.0
  0
LINE
  5
2B7
330
23
100
AcDbEntity
  8
0
  6
Continuous
 62
     7
370
    25
100
AcDbLine
 10
214.0
 20
2.0
 30
0.0
 11
214.0
 21
0.0
 31
0.0
  0
LINE
  5
2B8
330
23
100
AcDbEntity
  8
0
  6
Continuous
 62
     7
370
    25
100
AcDbLine
 10
214.0
 20
0.0
 30
0.0
 11
-214.0
 21
0.0
 31
0.0
  0
LINE
  5
2B9
330
23
100
AcDbEntity
  8
0
  6
Continuous
 62
     7
370
    25
100
AcDbLine
 10
-214.0
 20
0.0
 30
0.0
 11
-214.0
 21
479.0
 31
0.0
  0
LINE
  5
2BA
330
23
100
AcDbEntity
  8
0
  6
Continuous
 62
     7
370
    25
100
AcDbLine
 10
211.0
 20
0.0
 30
0.0
 11
211.0
 21
480.0
 31
0.0
  0
LINE
  5
2BB
330
23
100
AcDbEntity
  8
0
  6
Continuous
 62
     7
370
    25
100
AcDbLine
 10
-213.0
 20
480.0
 30
0.0
 11
-213.0
 21
0.0
 31
0.0
  0
LINE
  5
2BC
330
23
100
AcDbEntity
  8
0
  6
Continuous
 62
     7
370
    25
100
AcDbLine
 10
212.0
 20
479.0
 30
0.0
 11
-214.0
 21
479.0
 31
0.0
  0
LINE
  5
2BD
330
23
100
AcDbEntity
  8
0
  6
Continuous
 62
     7
370
    25
100
AcDbLine
 10
-214.0
 20
1.0
 30
0.0
 11
212.0
 21
1.0
 31
0.0
  0
LINE
  5
2BE
330
23
100
AcDbEntity
  8
0
  6
Continuous
 62
     7
370
    25
100
AcDbLine
 10
-213.0
 20
480.0
 30
0.0
 11
212.0
 21
480.0
 31
0.0
  0
LINE
  5
2BF
330
23
100
AcDbEntity
  8
0
  6
Continuous
 62
     7
370
    25
100
AcDbLine
 10
212.0
 20
265.0
 30
0.0
 11
231.0
 21
265.0
 31
0.0
  0
LINE
  5
2C0
330
23
100
AcDbEntity
  8
0
  6
Continuous
 62
     7
370
    25
100
AcDbLine
 10
230.0
 20
264.0
 30
0.0
 11
230.0
 21
478.0
 31
0.0
  0
LINE
  5
2C1
330
23
100
AcDbEntity
  8
0
  6
Continuous
 62
     7
370
    25
100
AcDbLine
 10
230.0
 20
264.0
 30
0.0
 11
213.0
 21
264.0
 31
0.0
  0
LINE
  5
2C2
330
23
100
AcDbEntity
  8
0
  6
Continuous
 62
     7
370
    25
100
AcDbLine
 10
213.0
 20
478.0
 30
0.0
 11
213.0
 21
264.0
 31
0.0
  0
LINE
  5
2C3
330
23
100
AcDbEntity
  8
0
  6
Continuous
 62
     7
370
    25
100
AcDbLine
 10
231.0
 20
477.0
 30
0.0
 11
231.0
 21
265.0
 31
0.0
  0
LINE
  5
2C4
330
23
100
AcDbEntity
  8
0
  6
Continuous
 62
     7
370
    25
100
AcDbLine
 10
231.0
 20
477.0
 30
0.0
 11
212.0
 21
477.0
 31
0.0
  0
LINE
  5
2C5
330
23
100
AcDbEntity
  8
0
  6
Continuous
 62
     7
370
    25
100
AcDbLine
 10
213.0
 20
478.0
 30
0.0
 11
230.0
 21
478.0
 31
0.0
  0
ARC
  5
2C6
330
23
100
AcDbEntity
  8
0
  6
Continuous
 62
     7
370
    25
100
AcDbCircle
 10
230.0
 20
3.0
 30
0.0
 40
1.0
100
AcDbArc
 50
270.0
 51
0.0
  0
ARC
  5
2C7
330
23
100
AcDbEntity
  8
0
  6
Continuous
 62
     7
370
    25
100
AcDbCircle
 10
213.0
 20
3.0
 30
0.0
 40
0.9999999999999716
100
AcDbArc
 50
180.0
 51
270.0
  0
ARC
  5
2C8
330
23
100
AcDbEntity
  8
0
  6
Continuous
 62
     7
370
    25
100
AcDbCircle
 10
230.0
 20
261.0
 30
0.0
 40
1.0
100
AcDbArc
 50
0.0
 51
90.0
  0
ARC
  5
2C9
330
23
100
AcDbEntity
  8
0
  6
Continuous
 62
     7
370
    25
100
AcDbCircle
 10
213.0
 20
261.0
 30
0.0
 40
1.0
100
AcDbArc
 50
90.0
 51
180.0
  0
ARC
  5
2CA
330
23
100
AcDbEntity
  8
0
  6
Continuous
 62
     7
370
    25
100
AcDbCircle
 10
211.0
 20
479.0
 30
0.0
 40
1.000000000000085
100
AcDbArc
 50
0.0
 51
90.0
  0
ARC
  5
2CB
330
23
100
AcDbEntity
  8
0
  6
Continuous
 62
     7
370
    25
100
AcDbCircle
 10
-213.0
 20
479.0
 30
0.0
 40
1.000000000000057
100
AcDbArc
 50
90.0
 51
180.0
  0
ARC
  5
2CC
330
23
100
AcDbEntity
  8
0
  6
Continuous
 62
     7
370
    25
100
AcDbCircle
 10
-213.0
 20
1.0
 30
0.0
 40
1.000000000000009
100
AcDbArc
 50
180.0
 51
270.0
  0
ARC
  5
2CD
330
23
100
AcDbEntity
  8
0
  6
Continuous
 62
     7
370
    25
100
AcDbCircle
 10
211.0
 20
1.0
 30
0.0
 40
1.000000000000057
100
AcDbArc
 50
270.0
 51
360.0
  0
ARC
  5
2CE
330
23
100
AcDbEntity
  8
0
  6
Continuous
 62
     7
370
    25
100
AcDbCircle
 10
213.0
 20
477.0
 30
0.0
 40
1.000000000000057
100
AcDbArc
 50
90.0
 51
180.0
  0
ARC
  5
2CF
330
23
100
AcDbEntity
  8
0
  6
Continuous
 62
     7
370
    25
100
AcDbCircle
 10
230.0
 20
265.0
 30
0.0
 40
1.000000000000057
100
AcDbArc
 50
270.0
 51
0.0
  0
ARC
  5
2D0
330
23
100
AcDbEntity
  8
0
  6
Continuous
 62
     7
370
    25
100
AcDbCircle
 10
213.0
 20
265.0
 30
0.0
 40
1.000000000000057
100
AcDbArc
 50
180.0
 51
270.0
  0
ARC
  5
2D1
330
23
100
AcDbEntity
  8
0
  6
Continuous
 62
     7
370
    25
100
AcDbCircle
 10
230.0
 20
477.0
 30
0.0
 40
1.000000000000028
100
AcDbArc
 50
0.0
 51
90.0
  0
VIEWPORT
  5
4EE
330
23
100
AcDbEntity
  8
0
100
AcDbViewport
 10
0.0
 20
0.0
 30
0.0
 40
205.6
 41
156.0
 68
     1
 69
     1
 12
0.0
 22
240.0
 13
0.0
 23
0.0
 14
10.0
 24
10.0
 15
10.0
 25
10.0
 16
0.0
 26
0.0
 36
1.0
 17
0.0
 27
0.0
 37
0.0
 42
50.0
 43
0.0
 44
0.0
 45
489.6
 50
0.0
 51
0.0
 72
   100
 90
   557152
  1

281
     0
 71
     1
 74
     0
110
0.0
120
0.0
130
0.0
111
1.0
121
0.0
131
0.0
112
0.0
122
1.0
132
0.0
 79
     0
146
0.0
  0
ENDBLK
  5
25
330
23
100
AcDbEntity
  8
0
100
AcDbBlockEnd
  0
BLOCK
  5
2D4
330
2D2
100
AcDbEntity
  8
0
100
AcDbBlockBegin
  2
*Paper_Space1
 70
     0
 10
0.0
 20
0.0
 30
0.0
  3
*Paper_Space1
  1

  0
CIRCLE
  5
2F9
330
2D2
100
AcDbEntity
  8
0
  6
Continuous
 62
     7
370
    25
100
AcDbCircle
 10
-244.0
 20
179.0
 30
0.0
 40
7.0
  0
CIRCLE
  5
2FA
330
2D2
100
AcDbEntity
  8
0
  6
Continuous
 62
     7
370
    25
100
AcDbCircle
 10
244.0
 20
179.0
 30
0.0
 40
6.999999999999972
  0
LINE
  5
342
330
2D2
100
AcDbEntity
  8
0
  6
Continuous
 62
     7
370
    25
100
AcDbLine
 10
-244.0
 20
152.0
 30
0.0
 11
244.0
 21
152.0
 31
0.0
  0
LINE
  5
343
330
2D2
100
AcDbEntity
  8
0
  6
Continuous
 62
     7
370
    25
100
AcDbLine
 10
279.0
 20
-212.0
 30
0.0
 11
279.0
 21
214.0
 31
0.0
  0
LINE
  5
344
330
2D2
100
AcDbEntity
  8
0
  6
Continuous
 62
     7
370
    25
100
AcDbLine
 10
280.0
 20
214.0
 30
0.0
 11
280.0
 21
-212.0
 31
0.0
  0
LINE
  5
345
330
2D2
100
AcDbEntity
  8
0
  6
Continuous
 62
     7
370
    25
100
AcDbLine
 10
298.0
 20
213.0
 30
0.0
 11
279.0
 21
213.0
 31
0.0
  0
LINE
  5
346
330
2D2
100
AcDbEntity
  8
0
  6
Continuous
 62
     7
370
    25
100
AcDbLine
 10
298.0
 20
213.0
 30
0.0
 11
298.0
 21
-211.0
 31
0.0
  0
LINE
  5
347
330
2D2
100
AcDbEntity
  8
0
  6
Continuous
 62
     7
370
    25
100
AcDbLine
 10
279.0
 20
-211.0
 30
0.0
 11
298.0
 21
-211.0
 31
0.0
  0
LINE
  5
348
330
2D2
100
AcDbEntity
  8
0
  6
Continuous
 62
     7
370
    25
100
AcDbLine
 10
280.0
 20
214.0
 30
0.0
 11
297.0
 21
214.0
 31
0.0
  0
LINE
  5
349
330
2D2
100
AcDbEntity
  8
0
  6
Continuous
 62
     7
370
    25
100
AcDbLine
 10
-260.0
 20
168.0
 30
0.0
 11
-260.0
 21
-196.0
 31
0.0
  0
LINE
  5
34A
330
2D2
100
AcDbEntity
  8
0
  6
Continuous
 62
     7
370
    25
100
AcDbLine
 10
-244.0
 20
168.0
 30
0.0
 11
-244.0
 21
-196.0
 31
0.0
  0
LINE
  5
34B
330
2D2
100
AcDbEntity
  8
0
  6
Continuous
 62
     7
370
    25
100
AcDbLine
 10
-260.0
 20
168.0
 30
0.0
 11
260.0
 21
168.0
 31
0.0
  0
LINE
  5
34C
330
2D2
100
AcDbEntity
  8
0
  6
Continuous
 62
     7
370
    25
100
AcDbLine
 10
260.0
 20
168.0
 30
0.0
 11
260.0
 21
-196.0
 31
0.0
  0
LINE
  5
34D
330
2D2
100
AcDbEntity
  8
0
  6
Continuous
 62
     7
370
    25
100
AcDbLine
 10
244.0
 20
168.0
 30
0.0
 11
244.0
 21
-196.0
 31
0.0
  0
LINE
  5
34E
330
2D2
100
AcDbEntity
  8
0
  6
Continuous
 62
     7
370
    25
100
AcDbLine
 10
60.0
 20
168.0
 30
0.0
 11
60.0
 21
-62.0
 31
0.0
  0
LINE
  5
34F
330
2D2
100
AcDbEntity
  8
0
  6
Continuous
 62
     7
370
    25
100
AcDbLine
 10
-60.0
 20
168.0
 30
0.0
 11
-60.0
 21
-62.0
 31
0.0
  0
LINE
  5
350
330
2D2
100
AcDbEntity
  8
0
  6
Continuous
 62
     7
370
    25
100
AcDbLine
 10
277.62
 20
-196.0
 30
0.0
 11
277.62
 21
26.0
 31
0.0
  0
LINE
  5
351
330
2D2
100
AcDbEntity
  8
0
  6
Continuous
 62
     7
370
    25
100
AcDbLine
 10
279.0
 20
26.0
 30
0.0
 11
260.0
 21
26.0
 31
0.0
  0
LINE
  5
352
330
2D2
100
AcDbEntity
  8
0
  6
Continuous
 62
     7
370
    25
100
AcDbLine
 10
-279.0
 20
214.0
 30
0.0
 11
-279.0
 21
-212.0
 31
0.0
  0
LINE
  5
353
330
2D2
100
AcDbEntity
  8
0
  6
Continuous
 62
     7
370
    25
100
AcDbLine
 10
-280.0
 20
-212.0
 30
0.0
 11
-280.0
 21
214.0
 31
0.0
  0
LINE
  5
354
330
2D2
100
AcDbEntity
  8
0
  6
Continuous
 62
     7
370
    25
100
AcDbLine
 10
-298.0
 20
-211.0
 30
0.0
 11
-279.0
 21
-211.0
 31
0.0
  0
LINE
  5
355
330
2D2
100
AcDbEntity
  8
0
  6
Continuous
 62
     7
370
    25
100
AcDbLine
 10
-279.0
 20
213.0
 30
0.0
 11
-298.0
 21
213.0
 31
0.0
  0
LINE
  5
356
330
2D2
100
AcDbEntity
  8
0
  6
Continuous
 62
     7
370
    25
100
AcDbLine
 10
-297.0
 20
214.0
 30
0.0
 11
-280.0
 21
214.0
 31
0.0
  0
LINE
  5
357
330
2D2
100
AcDbEntity
  8
0
  6
Continuous
 62
     7
370
    25
100
AcDbLine
 10
-298.0
 20
-211.0
 30
0.0
 11
-298.0
 21
213.0
 31
0.0
  0
LINE
  5
358
330
2D2
100
AcDbEntity
  8
0
  6
Continuous
 62
     7
370
    25
100
AcDbLine
 10
279.0
 20
-196.0
 30
0.0
 11
-279.0
 21
-196.0
 31
0.0
  0
LINE
  5
359
330
2D2
100
AcDbEntity
  8
0
  6
Continuous
 62
     7
370
    25
100
AcDbLine
 10
297.0
 20
-212.0
 30
0.0
 11
-297.0
 21
-212.0
 31
0.0
  0
LINE
  5
35A
330
2D2
100
AcDbEntity
  8
0
  6
Continuous
 62
     7
370
    25
100
AcDbLine
 10
279.0
 20
198.0
 30
0.0
 11
-279.0
 21
198.0
 31
0.0
  0
LINE
  5
35B
330
2D2
100
AcDbEntity
  8
0
  6
Continuous
 62
     7
370
    25
100
AcDbLine
 10
279.0
 20
214.0
 30
0.0
 11
-279.0
 21
214.0
 31
0.0
  0
LINE
  5
35C
330
2D2
100
AcDbEntity
  8
0
  6
Continuous
 62
     7
370
    25
100
AcDbLine
 10
-277.62
 20
-196.0
 30
0.0
 11
-277.62
 21
26.0
 31
0.0
  0
LINE
  5
35D
330
2D2
100
AcDbEntity
  8
0
  6
Continuous
 62
     7
370
    25
100
AcDbLine
 10
-279.0
 20
26.0
 30
0.0
 11
-260.0
 21
26.0
 31
0.0
  0
LINE
  5
35E
330
2D2
100
AcDbEntity
  8
0
  6
Continuous
 62
     7
370
    25
100
AcDbLine
 10
76.0
 20
152.0
 30
0.0
 11
76.0
 21
-78.0
 31
0.0
  0
LINE
  5
35F
330
2D2
100
AcDbEntity
  8
0
  6
Continuous
 62
     7
370
    25
100
AcDbLine
 10
76.0
 20
-78.0
 30
0.0
 11
-76.0
 21
-78.0
 31
0.0
  0
LINE
  5
360
330
2D2
100
AcDbEntity
  8
0
  6
Continuous
 62
     7
370
    25
100
AcDbLine
 10
76.0
 20
-62.0
 30
0.0
 11
-76.0
 21
-62.0
 31
0.0
  0
LINE
  5
361
330
2D2
100
AcDbEntity
  8
0
  6
Continuous
 62
     7
370
    25
100
AcDbLine
 10
-76.0
 20
152.0
 30
0.0
 11
-76.0
 21
-78.0
 31
0.0
  0
LINE
  5
362
330
2D2
100
AcDbEntity
  8
0
  6
Continuous
 62
     7
370
    25
100
AcDbLine
 10
298.0
 20
-213.0
 30
0.0
 11
298.0
 21
-230.0
 31
0.0
  0
LINE
  5
363
330
2D2
100
AcDbEntity
  8
0
  6
Continuous
 62
     7
370
    25
100
AcDbLine
 10
297.0
 20
-231.0
 30
0.0
 11
297.0
 21
214.0
 31
0.0
  0
LINE
  5
364
330
2D2
100
AcDbEntity
  8
0
  6
Continuous
 62
     7
370
    25
100
AcDbLine
 10
-298.0
 20
-230.0
 30
0.0
 11
298.0
 21
-230.0
 31
0.0
  0
LINE
  5
365
330
2D2
100
AcDbEntity
  8
0
  6
Continuous
 62
     7
370
    25
100
AcDbLine
 10
-297.0
 20
214.0
 30
0.0
 11
-297.0
 21
-231.0
 31
0.0
  0
LINE
  5
366
330
2D2
100
AcDbEntity
  8
0
  6
Continuous
 62
     7
370
    25
100
AcDbLine
 10
298.0
 20
-213.0
 30
0.0
 11
-298.0
 21
-213.0
 31
0.0
  0
LINE
  5
367
330
2D2
100
AcDbEntity
  8
0
  6
Continuous
 62
     7
370
    25
100
AcDbLine
 10
-298.0
 20
-230.0
 30
0.0
 11
-298.0
 21
-213.0
 31
0.0
  0
LINE
  5
368
330
2D2
100
AcDbEntity
  8
0
  6
Continuous
 62
     7
370
    25
100
AcDbLine
 10
297.0
 20
-231.0
 30
0.0
 11
-297.0
 21
-231.0
 31
0.0
  0
LINE
  5
369
330
2D2
100
AcDbEntity
  8
0
  6
Continuous
 62
     8
370
    25
100
AcDbLine
 10
277.2
 20
26.0
 30
0.0
 11
277.2
 21
-196.0
 31
0.0
  0
LINE
  5
36A
330
2D2
100
AcDbEntity
  8
0
  6
Continuous
 62
     8
370
    25
100
AcDbLine
 10
-277.2
 20
26.0
 30
0.0
 11
-277.2
 21
-196.0
 31
0.0
  0
ARC
  5
36B
330
2D2
100
AcDbEntity
  8
0
  6
Continuous
 62
     7
370
    25
100
AcDbCircle
 10
297.0
 20
213.0
 30
0.0
 40
1.000000000000114
100
AcDbArc
 50
0.0
 51
90.0
  0
ARC
  5
36C
330
2D2
100
AcDbEntity
  8
0
  6
Continuous
 62
     7
370
    25
100
AcDbCircle
 10
280.0
 20
213.0
 30
0.0
 40
1.000000000000114
100
AcDbArc
 50
90.0
 51
180.0
  0
ARC
  5
36D
330
2D2
100
AcDbEntity
  8
0
  6
Continuous
 62
     7
370
    25
100
AcDbCircle
 10
297.0
 20
-211.0
 30
0.0
 40
1.000000000000114
100
AcDbArc
 50
270.0
 51
360.0
  0
ARC
  5
36E
330
2D2
100
AcDbEntity
  8
0
  6
Continuous
 62
     7
370
    25
100
AcDbCircle
 10
280.0
 20
-211.0
 30
0.0
 40
1.000000000000114
100
AcDbArc
 50
180.0
 51
270.0
  0
ARC
  5
36F
330
2D2
100
AcDbEntity
  8
0
  6
Continuous
 62
     7
370
    25
100
AcDbCircle
 10
-297.0
 20
-211.0
 30
0.0
 40
1.000000000000085
100
AcDbArc
 50
180.0
 51
270.0
  0
ARC
  5
370
330
2D2
100
AcDbEntity
  8
0
  6
Continuous
 62
     7
370
    25
100
AcDbCircle
 10
-297.0
 20
213.0
 30
0.0
 40
1.000000000000057
100
AcDbArc
 50
90.0
 51
180.0
  0
ARC
  5
371
330
2D2
100
AcDbEntity
  8
0
  6
Continuous
 62
     7
370
    25
100
AcDbCircle
 10
-280.0
 20
213.0
 30
0.0
 40
1.000000000000114
100
AcDbArc
 50
0.0
 51
90.0
  0
ARC
  5
372
330
2D2
100
AcDbEntity
  8
0
  6
Continuous
 62
     7
370
    25
100
AcDbCircle
 10
-280.0
 20
-211.0
 30
0.0
 40
1.000000000000114
100
AcDbArc
 50
270.0
 51
360.0
  0
ARC
  5
373
330
2D2
100
AcDbEntity
  8
0
  6
Continuous
 62
     7
370
    25
100
AcDbCircle
 10
-297.0
 20
-230.0
 30
0.0
 40
1.000000000000057
100
AcDbArc
 50
180.0
 51
270.0
  0
ARC
  5
374
330
2D2
100
AcDbEntity
  8
0
  6
Continuous
 62
     7
370
    25
100
AcDbCircle
 10
-297.0
 20
-213.0
 30
0.0
 40
1.000000000000057
100
AcDbArc
 50
90.0
 51
180.0
  0
ARC
  5
375
330
2D2
100
AcDbEntity
  8
0
  6
Continuous
 62
     7
370
    25
100
AcDbCircle
 10
297.0
 20
-230.0
 30
0.0
 40
1.000000000000057
100
AcDbArc
 50
270.0
 51
360.0
  0
ARC
  5
376
330
2D2
100
AcDbEntity
  8
0
  6
Continuous
 62
     7
370
    25
100
AcDbCircle
 10
297.0
 20
-213.0
 30
0.0
 40
1.000000000000057
100
AcDbArc
 50
0.0
 51
90.0
  0
VIEWPORT
  5
4F0
330
2D2
100
AcDbEntity
  8
0
100
AcDbViewport
 10
0.0
 20
0.0
 30
0.0
 40
205.6
 41
156.0
 68
     1
 69
     1
 12
0.0
 22
240.0
 13
0.0
 23
0.0
 14
10.0
 24
10.0
 15
10.0
 25
10.0
 16
0.0
 26
0.0
 36
1.0
 17
0.0
 27
0.0
 37
0.0
 42
50.0
 43
0.0
 44
0.0
 45
489.6
 50
0.0
 51
0.0
 72
   100
 90
   557152
  1

281
     0
 71
     1
 74
     0
110
0.0
120
0.0
130
0.0
111
1.0
121
0.0
131
0.0
112
0.0
122
1.0
132
0.0
 79
     0
146
0.0
  0
ENDBLK
  5
2D5
330
2D2
100
AcDbEntity
  8
0
100
AcDbBlockEnd
  0
BLOCK
  5
379
330
377
100
AcDbEntity
  8
0
100
AcDbBlockBegin
  2
*Paper_Space2
 70
     0
 10
0.0
 20
0.0
 30
0.0
  3
*Paper_Space2
  1

  0
LINE
  5
43A
330
377
100
AcDbEntity
  8
0
  6
Continuous
 62
     7
370
    25
100
AcDbLine
 10
60.3969696197
 20
-205.7344460791
 30
0.0
 11
60.3969696197
 21
4.9330833874
 31
0.0
  0
LINE
  5
43B
330
377
100
AcDbEntity
  8
0
  6
Continuous
 62
     7
370
    25
100
AcDbLine
 10
59.896928986
 20
5.7991322498
 30
0.0
 11
58.5682453065
 21
6.5661650112
 31
0.0
  0
LINE
  5
43C
330
377
100
AcDbEntity
  8
0
  6
Continuous
 62
     7
370
    25
100
AcDbLine
 10
47.8761137058
 20
-213.539963892
 30
0.0
 11
59.896928986
 21
-206.6004949415
 31
0.0
  0
LINE
  5
43D
330
377
100
AcDbEntity
  8
0
  6
Continuous
 62
     7
370
    25
100
AcDbLine
 10
-373.1452330516
 20
28.9332453193
 30
0.0
 11
46.8761949732
 21
-213.539963892
 31
0.0
  0
LINE
  5
43E
330
377
100
AcDbEntity
  8
0
  6
Continuous
 62
     7
370
    25
100
AcDbLine
 10
-373.6452736853
 20
240.4668236482
 30
0.0
 11
-373.6452736853
 21
29.7992941817
 31
0.0
  0
LINE
  5
43F
330
377
100
AcDbEntity
  8
0
  6
Continuous
 62
     7
370
    25
100
AcDbLine
 10
-371.8165493722
 20
242.099905272
 30
0.0
 11
-373.1452330516
 21
241.3328725106
 31
0.0
  0
LINE
  5
440
330
377
100
AcDbEntity
  8
0
  6
Continuous
 62
     7
370
    25
100
AcDbLine
 10
47.7903679019
 20
190.6948574408
 30
0.0
 11
47.7903679019
 21
189.1609165666
 31
0.0
  0
LINE
  5
441
330
377
100
AcDbEntity
  8
0
  6
Continuous
 62
     7
370
    25
100
AcDbLine
 10
348.1036837586
 20
364.6394260096
 30
0.0
 11
48.2904085356
 21
191.5609063032
 31
0.0
  0
LINE
  5
442
330
377
100
AcDbEntity
  8
0
  6
Continuous
 62
     7
370
    25
100
AcDbLine
 10
361.6244584051
 20
-33.4725998847
 30
0.0
 11
361.6244584051
 21
356.8339081967
 31
0.0
  0
LINE
  5
443
330
377
100
AcDbEntity
  8
0
  6
Continuous
 62
     7
370
    25
100
AcDbLine
 10
361.1244177715
 20
357.6999570591
 30
0.0
 11
349.1036024913
 21
364.6394260096
 31
0.0
  0
LINE
  5
444
330
377
100
AcDbEntity
  8
0
  6
Continuous
 62
     7
370
    25
100
AcDbLine
 10
61.3111425484
 20
-207.4171684535
 30
0.0
 11
361.1244177715
 21
-34.338648747
 31
0.0
  0
LINE
  5
445
330
377
100
AcDbEntity
  8
0
  6
Continuous
 62
     7
370
    25
100
AcDbLine
 10
59.3967397515
 20
-206.8892480403
 30
0.0
 11
60.3112238157
 21
-207.4171684535
 31
0.0
  0
LINE
  5
446
330
377
100
AcDbEntity
  8
0
  6
Continuous
 62
     7
370
    25
100
AcDbLine
 10
-360.2102448428
 20
426.2285977017
 30
0.0
 11
-360.2102448428
 21
424.6892876872
 31
0.0
  0
LINE
  5
447
330
377
100
AcDbEntity
  8
0
  6
Continuous
 62
     7
370
    25
100
AcDbLine
 10
-59.896928986
 20
600.1731662704
 30
0.0
 11
-359.7102042091
 21
427.094646564
 31
0.0
  0
LINE
  5
448
330
377
100
AcDbEntity
  8
0
  6
Continuous
 62
     7
370
    25
100
AcDbLine
 10
-46.3761543395
 20
457.0670982872
 30
0.0
 11
-46.3761543395
 21
592.3676484576
 31
0.0
  0
LINE
  5
449
330
377
100
AcDbEntity
  8
0
  6
Continuous
 62
     7
370
    25
100
AcDbLine
 10
-46.8761949732
 20
593.23369732
 30
0.0
 11
-58.8970102534
 21
600.1731662704
 31
0.0
  0
LINE
  5
44A
330
377
100
AcDbEntity
  8
0
  6
Continuous
 62
     7
370
    25
100
AcDbLine
 10
60.3969696197
 20
8.1992466349
 30
0.0
 11
60.3969696197
 21
181.3058987547
 31
0.0
  0
LINE
  5
44B
330
377
100
AcDbEntity
  8
0
  6
Continuous
 62
     7
370
    25
100
AcDbLine
 10
59.896928986
 20
182.1719476171
 30
0.0
 11
-360.1244990388
 21
424.6451568284
 31
0.0
  0
LINE
  5
44C
330
377
100
AcDbEntity
  8
0
  6
Continuous
 62
     7
370
    25
100
AcDbLine
 10
47.8761137058
 20
0.3937288221
 30
0.0
 11
59.896928986
 21
7.3331977726
 31
0.0
  0
LINE
  5
44D
330
377
100
AcDbEntity
  8
0
  6
Continuous
 62
     7
370
    25
100
AcDbLine
 10
-373.1452330516
 20
242.8669380334
 30
0.0
 11
46.8761949732
 21
0.3937288221
 31
0.0
  0
LINE
  5
44E
330
377
100
AcDbEntity
  8
0
  6
Continuous
 62
     7
370
    25
100
AcDbLine
 10
-373.6452736853
 20
416.8396390156
 30
0.0
 11
-373.6452736853
 21
243.7329868958
 31
0.0
  0
LINE
  5
44F
330
377
100
AcDbEntity
  8
0
  6
Continuous
 62
     7
370
    25
100
AcDbLine
 10
-361.1244177715
 20
424.6451568284
 30
0.0
 11
-373.1452330516
 21
417.7056878779
 31
0.0
  0
LINE
  5
450
330
377
100
AcDbEntity
  8
0
  6
Continuous
 62
     7
370
    25
100
AcDbLine
 10
46.6690475583
 20
-213.0821190855
 30
0.0
 11
46.6690475583
 21
-2.414589619
 31
0.0
  0
LINE
  5
451
330
377
100
AcDbEntity
  8
0
  6
Continuous
 62
     7
370
    25
100
AcDbLine
 10
48.0832611207
 20
-2.414589619
 30
0.0
 11
48.0832611207
 21
-213.0821190855
 31
0.0
  0
LINE
  5
452
330
377
100
AcDbEntity
  8
0
  6
Continuous
 62
     7
370
    25
100
AcDbLine
 10
46.6690475583
 20
-2.414589619
 30
0.0
 11
-373.3523804665
 21
240.0586195923
 31
0.0
  0
LINE
  5
453
330
377
100
AcDbEntity
  8
0
  6
Continuous
 62
     7
370
    25
100
AcDbLine
 10
-372.6452736853
 20
241.2833644601
 30
0.0
 11
47.3761543395
 21
-1.1898447512
 31
0.0
  0
LINE
  5
454
330
377
100
AcDbEntity
  8
0
  6
Continuous
 62
     7
370
    25
100
AcDbLine
 10
47.3761543395
 20
-1.1898447512
 30
0.0
 11
59.3969696197
 21
5.7496241993
 31
0.0
  0
LINE
  5
455
330
377
100
AcDbEntity
  8
0
  6
Continuous
 62
     7
370
    25
100
AcDbLine
 10
60.1040764009
 20
4.5248793315
 30
0.0
 11
48.0832611207
 21
-2.414589619
 31
0.0
  0
LINE
  5
456
330
377
100
AcDbEntity
  8
0
  6
Continuous
 62
     7
370
    25
100
AcDbLine
 10
60.1040764009
 20
-206.142650135
 30
0.0
 11
60.1040764009
 21
4.5248793315
 31
0.0
  0
LINE
  5
457
330
377
100
AcDbEntity
  8
0
  6
Continuous
 62
     7
370
    25
100
AcDbLine
 10
48.0832611207
 20
-213.0821190855
 30
0.0
 11
60.1040764009
 21
-206.142650135
 31
0.0
  0
LINE
  5
458
330
377
100
AcDbEntity
  8
0
  6
Continuous
 62
     7
370
    25
100
AcDbLine
 10
-373.3523804665
 20
29.3910901258
 30
0.0
 11
46.6690475583
 21
-213.0821190855
 31
0.0
  0
LINE
  5
459
330
377
100
AcDbEntity
  8
0
  6
Continuous
 62
     7
370
    25
100
AcDbLine
 10
-373.3523804665
 20
240.0586195923
 30
0.0
 11
-373.3523804665
 21
29.3910901258
 31
0.0
  0
LINE
  5
45A
330
377
100
AcDbEntity
  8
0
  6
Continuous
 62
     7
370
    25
100
AcDbLine
 10
61.5182899632
 20
183.3471844344
 30
0.0
 11
61.5182899632
 21
-206.959323647
 31
0.0
  0
LINE
  5
45B
330
377
100
AcDbEntity
  8
0
  6
Continuous
 62
     7
370
    25
100
AcDbLine
 10
60.1040764009
 20
183.3471844344
 30
0.0
 11
48.0832611207
 21
190.2866533849
 31
0.0
  0
LINE
  5
45C
330
377
100
AcDbEntity
  8
0
  6
Continuous
 62
     7
370
    25
100
AcDbLine
 10
48.7903679019
 20
191.5113982527
 30
0.0
 11
60.811183182
 21
184.5719293022
 31
0.0
  0
LINE
  5
45D
330
377
100
AcDbEntity
  8
0
  6
Continuous
 62
     7
370
    25
100
AcDbLine
 10
60.811183182
 20
184.5719293022
 30
0.0
 11
360.6244584051
 21
357.6504490086
 31
0.0
  0
LINE
  5
45E
330
377
100
AcDbEntity
  8
0
  6
Continuous
 62
     7
370
    25
100
AcDbLine
 10
361.3315651863
 20
356.4257041408
 30
0.0
 11
61.5182899632
 21
183.3471844344
 31
0.0
  0
LINE
  5
45F
330
377
100
AcDbEntity
  8
0
  6
Continuous
 62
     7
370
    25
100
AcDbLine
 10
361.3315651863
 20
-33.8808039406
 30
0.0
 11
361.3315651863
 21
356.4257041408
 31
0.0
  0
LINE
  5
460
330
377
100
AcDbEntity
  8
0
  6
Continuous
 62
     7
370
    25
100
AcDbLine
 10
61.5182899632
 20
-206.959323647
 30
0.0
 11
361.3315651863
 21
-33.8808039406
 31
0.0
  0
LINE
  5
461
330
377
100
AcDbEntity
  8
0
  6
Continuous
 62
     7
370
    25
100
AcDbLine
 10
348.603643125
 20
364.5899179591
 30
0.0
 11
48.7903679019
 21
191.5113982527
 31
0.0
  0
LINE
  5
462
330
377
100
AcDbEntity
  8
0
  6
Continuous
 62
     7
370
    25
100
AcDbLine
 10
360.6244584051
 20
357.6504490086
 30
0.0
 11
348.603643125
 21
364.5899179591
 31
0.0
  0
LINE
  5
463
330
377
100
AcDbEntity
  8
0
  6
Continuous
 62
     7
370
    25
100
AcDbLine
 10
-65.0538238692
 20
413.1433762017
 30
0.0
 11
17.6718078916
 21
365.3868855117
 31
0.0
  0
LINE
  5
464
330
377
100
AcDbEntity
  8
0
  6
Continuous
 62
     7
370
    25
100
AcDbLine
 10
161.2203461105
 20
282.5180783101
 30
0.0
 11
36.7893212833
 21
210.6855766751
 31
0.0
  0
LINE
  5
465
330
377
100
AcDbEntity
  8
0
  6
Continuous
 62
     7
370
    25
100
AcDbLine
 10
161.2203461105
 20
282.5180783101
 30
0.0
 11
183.5351348882
 21
269.6360249509
 31
0.0
  0
LINE
  5
466
330
377
100
AcDbEntity
  8
0
  6
Continuous
 62
     7
370
    25
100
AcDbLine
 10
-189.4848486964
 20
341.3108745667
 30
0.0
 11
-65.0538238692
 21
413.1433762017
 31
0.0
  0
LINE
  5
467
330
377
100
AcDbEntity
  8
0
  6
Continuous
 62
     7
370
    25
100
AcDbLine
 10
-53.7401153702
 20
461.3182225025
 30
0.0
 11
-225.5531561749
 21
362.1326652698
 31
0.0
  0
LINE
  5
468
330
377
100
AcDbEntity
  8
0
  6
Continuous
 62
     7
370
    25
100
AcDbLine
 10
-65.0538238692
 20
467.849487397
 30
0.0
 11
76.3675323681
 21
386.2086762148
 31
0.0
  0
LINE
  5
469
330
377
100
AcDbEntity
  8
0
  6
Continuous
 62
     7
370
    25
100
AcDbLine
 10
-65.0538238692
 20
467.849487397
 30
0.0
 11
-236.8668646739
 21
368.6639301644
 31
0.0
  0
LINE
  5
46A
330
377
100
AcDbEntity
  8
0
  6
Continuous
 62
     7
370
    25
100
AcDbLine
 10
149.9066376115
 20
330.6929246108
 30
0.0
 11
219.6034423668
 21
290.457815654
 31
0.0
  0
LINE
  5
46B
330
377
100
AcDbEntity
  8
0
  6
Continuous
 62
     7
370
    25
100
AcDbLine
 10
161.2203461105
 20
337.2241895054
 30
0.0
 11
-1.4142135624
 21
243.3372566458
 31
0.0
  0
LINE
  5
46C
330
377
100
AcDbEntity
  8
0
  6
Continuous
 62
     7
370
    25
100
AcDbLine
 10
161.2203461105
 20
337.2241895054
 30
0.0
 11
230.9171508657
 21
296.9890805486
 31
0.0
  0
LINE
  5
46D
330
377
100
AcDbEntity
  8
0
  6
Continuous
 62
     7
370
    25
100
AcDbLine
 10
-30.7501226564
 20
260.2725164886
 30
0.0
 11
76.3675323681
 21
322.1102224817
 31
0.0
  0
LINE
  5
46E
330
377
100
AcDbEntity
  8
0
  6
Continuous
 62
     7
370
    25
100
AcDbLine
 10
65.0538238692
 20
315.5789575872
 30
0.0
 11
65.0538238692
 21
379.6774113202
 31
0.0
  0
LINE
  5
46F
330
377
100
AcDbEntity
  8
0
  6
Continuous
 62
     7
370
    25
100
AcDbLine
 10
76.3675323681
 20
386.2086762148
 30
0.0
 11
-86.2670273048
 21
292.3217433552
 31
0.0
  0
LINE
  5
470
330
377
100
AcDbEntity
  8
0
  6
Continuous
 62
     7
370
    25
100
AcDbLine
 10
76.3675323681
 20
322.1102224817
 30
0.0
 11
76.3675323681
 21
386.2086762148
 31
0.0
  0
LINE
  5
471
330
377
100
AcDbEntity
  8
0
  6
Continuous
 62
     7
370
    25
100
AcDbLine
 10
-65.0538238692
 20
454.7869576079
 30
0.0
 11
65.0538238692
 21
379.6774113202
 31
0.0
  0
LINE
  5
472
330
377
100
AcDbEntity
  8
0
  6
Continuous
 62
     7
370
    25
100
AcDbLine
 10
-65.0538238692
 20
413.1433762017
 30
0.0
 11
-65.0538238692
 21
454.7869576079
 31
0.0
  0
LINE
  5
473
330
377
100
AcDbEntity
  8
0
  6
Continuous
 62
     7
370
    25
100
AcDbLine
 10
-347.1894295626
 20
420.105669563
 30
0.0
 11
-47.3761543395
 21
593.1841892695
 31
0.0
  0
LINE
  5
474
330
377
100
AcDbEntity
  8
0
  6
Continuous
 62
     7
370
    25
100
AcDbLine
 10
-359.2102448428
 20
427.0451385135
 30
0.0
 11
-347.1894295626
 21
420.105669563
 31
0.0
  0
LINE
  5
475
330
377
100
AcDbEntity
  8
0
  6
Continuous
 62
     7
370
    25
100
AcDbLine
 10
-347.8965363438
 20
418.8809246952
 30
0.0
 11
-359.917351624
 21
425.8203936457
 31
0.0
  0
LINE
  5
476
330
377
100
AcDbEntity
  8
0
  6
Continuous
 62
     7
370
    25
100
AcDbLine
 10
-59.3969696197
 20
600.12365822
 30
0.0
 11
-359.2102448428
 21
427.0451385135
 31
0.0
  0
LINE
  5
477
330
377
100
AcDbEntity
  8
0
  6
Continuous
 62
     7
370
    25
100
AcDbLine
 10
-47.3761543395
 20
593.1841892695
 30
0.0
 11
-59.3969696197
 21
600.12365822
 31
0.0
  0
LINE
  5
478
330
377
100
AcDbEntity
  8
0
  6
Continuous
 62
     7
370
    25
100
AcDbLine
 10
47.3761543395
 20
191.5113982527
 30
0.0
 11
58.6898628385
 21
198.0426631473
 31
0.0
  0
LINE
  5
479
330
377
100
AcDbEntity
  8
0
  6
Continuous
 62
     7
370
    25
100
AcDbLine
 10
47.3761543395
 20
191.5113982527
 30
0.0
 11
-347.1894295626
 21
419.2892614512
 31
0.0
  0
LINE
  5
47A
330
377
100
AcDbEntity
  8
0
  6
Continuous
 62
     7
370
    25
100
AcDbLine
 10
-347.1894295626
 20
419.2892614512
 30
0.0
 11
-335.8757210636
 21
425.8205263458
 31
0.0
  0
LINE
  5
47B
330
377
100
AcDbEntity
  8
0
  6
Continuous
 62
     7
370
    25
100
AcDbLine
 10
58.6898628385
 20
198.0426631473
 30
0.0
 11
-335.8757210636
 21
425.8205263458
 31
0.0
  0
LINE
  5
47C
330
377
100
AcDbEntity
  8
0
  6
Continuous
 62
     7
370
    25
100
AcDbLine
 10
-347.1894295626
 20
419.2892614512
 30
0.0
 11
-347.1894295626
 21
417.1779001648
 31
0.0
  0
LINE
  5
47D
330
377
100
AcDbEntity
  8
0
  6
Continuous
 62
     7
370
    25
100
AcDbLine
 10
47.3761543395
 20
189.4000369663
 30
0.0
 11
47.3761543395
 21
191.5113982527
 31
0.0
  0
LINE
  5
47E
330
377
100
AcDbEntity
  8
0
  6
Continuous
 62
     7
370
    25
100
AcDbLine
 10
58.6898628385
 20
197.5643834847
 30
0.0
 11
58.6898628385
 21
198.0426631473
 31
0.0
  0
LINE
  5
47F
330
377
100
AcDbEntity
  8
0
  6
Continuous
 62
     7
370
    25
100
AcDbLine
 10
2.0901732081
 20
245.3602960668
 30
0.0
 11
-27.2457358859
 21
262.2955559097
 31
0.0
  0
LINE
  5
480
330
377
100
AcDbEntity
  8
0
  6
Continuous
 62
     7
370
    25
100
AcDbLine
 10
161.2203461105
 20
324.1616597162
 30
0.0
 11
0.7210138047
 21
231.5073673782
 31
0.0
  0
LINE
  5
481
330
377
100
AcDbEntity
  8
0
  6
Continuous
 62
     7
370
    25
100
AcDbLine
 10
9.8994949366
 20
226.2087430051
 30
0.0
 11
9.8994949366
 21
236.8059917512
 31
0.0
  0
LINE
  5
482
330
377
100
AcDbEntity
  8
0
  6
Continuous
 62
     7
370
    25
100
AcDbLine
 10
53.7401153702
 20
386.2086762148
 30
0.0
 11
-106.7592169356
 21
293.5543838767
 31
0.0
  0
LINE
  5
483
330
377
100
AcDbEntity
  8
0
  6
Continuous
 62
     7
370
    25
100
AcDbLine
 10
9.8994949366
 20
236.8059917512
 30
0.0
 11
-97.5807358037
 21
298.8530082497
 31
0.0
  0
LINE
  5
484
330
377
100
AcDbEntity
  8
0
  6
Continuous
 62
     7
370
    25
100
AcDbLine
 10
48.0832611207
 20
173.9582257483
 30
0.0
 11
48.0832611207
 21
0.8515736285
 31
0.0
  0
LINE
  5
485
330
377
100
AcDbEntity
  8
0
  6
Continuous
 62
     7
370
    25
100
AcDbLine
 10
46.6690475583
 20
0.8515736285
 30
0.0
 11
46.6690475583
 21
173.9582257483
 31
0.0
  0
LINE
  5
486
330
377
100
AcDbEntity
  8
0
  6
Continuous
 62
     7
370
    25
100
AcDbLine
 10
60.1040764009
 20
180.8976946988
 30
0.0
 11
48.0832611207
 21
173.9582257483
 31
0.0
  0
LINE
  5
487
330
377
100
AcDbEntity
  8
0
  6
Continuous
 62
     7
370
    25
100
AcDbLine
 10
47.3761543395
 20
175.1829706161
 30
0.0
 11
59.3969696197
 21
182.1224395666
 31
0.0
  0
LINE
  5
488
330
377
100
AcDbEntity
  8
0
  6
Continuous
 62
     7
370
    25
100
AcDbLine
 10
46.6690475583
 20
173.9582257483
 30
0.0
 11
-373.3523804665
 21
416.4314349597
 31
0.0
  0
LINE
  5
489
330
377
100
AcDbEntity
  8
0
  6
Continuous
 62
     7
370
    25
100
AcDbLine
 10
-372.6452736853
 20
417.6561798274
 30
0.0
 11
47.3761543395
 21
175.1829706161
 31
0.0
  0
LINE
  5
48A
330
377
100
AcDbEntity
  8
0
  6
Continuous
 62
     7
370
    25
100
AcDbLine
 10
60.1040764009
 20
7.791042579
 30
0.0
 11
60.1040764009
 21
180.8976946988
 31
0.0
  0
LINE
  5
48B
330
377
100
AcDbEntity
  8
0
  6
Continuous
 62
     7
370
    25
100
AcDbLine
 10
48.0832611207
 20
0.8515736285
 30
0.0
 11
60.1040764009
 21
7.791042579
 31
0.0
  0
LINE
  5
48C
330
377
100
AcDbEntity
  8
0
  6
Continuous
 62
     7
370
    25
100
AcDbLine
 10
-373.3523804665
 20
243.3247828399
 30
0.0
 11
46.6690475583
 21
0.8515736285
 31
0.0
  0
LINE
  5
48D
330
377
100
AcDbEntity
  8
0
  6
Continuous
 62
     7
370
    25
100
AcDbLine
 10
-373.3523804665
 20
416.4314349597
 30
0.0
 11
-373.3523804665
 21
243.3247828399
 31
0.0
  0
LINE
  5
48E
330
377
100
AcDbEntity
  8
0
  6
Continuous
 62
     7
370
    25
100
AcDbLine
 10
59.3969696197
 20
182.1224395666
 30
0.0
 11
-360.6244584051
 21
424.5956487779
 31
0.0
  0
LINE
  5
48F
330
377
100
AcDbEntity
  8
0
  6
Continuous
 62
     7
370
    25
100
AcDbLine
 10
-360.6244584051
 20
424.5956487779
 30
0.0
 11
-372.6452736853
 21
417.6561798274
 31
0.0
  0
LINE
  5
490
330
377
100
AcDbEntity
  8
0
  6
Continuous
 62
     7
370
    25
100
AcDbLine
 10
161.2203461105
 20
282.5180783101
 30
0.0
 11
161.2203461105
 21
324.1616597162
 31
0.0
  0
LINE
  5
491
330
377
100
AcDbEntity
  8
0
  6
Continuous
 62
     8
370
    25
100
AcDbLine
 10
-371.5236898135
 20
241.9308410474
 30
0.0
 11
-372.6452736853
 21
241.2833644601
 31
0.0
  0
LINE
  5
492
330
377
100
AcDbEntity
  8
0
  6
Continuous
 62
     8
370
    25
100
AcDbLine
 10
59.3969696197
 20
5.7496241993
 30
0.0
 11
58.2753857478
 21
6.3971007866
 31
0.0
  0
LINE
  5
493
330
377
100
AcDbEntity
  8
0
  6
Continuous
 62
     8
370
    25
100
AcDbLine
 10
60.1040764009
 20
-206.959323647
 30
0.0
 11
60.1040764009
 21
-206.4415528603
 31
0.0
  0
LINE
  5
494
330
377
100
AcDbEntity
  8
0
  6
Continuous
 62
     8
370
    25
100
AcDbLine
 10
60.1040764009
 20
5.6401901686
 30
0.0
 11
60.1040764009
 21
7.4921398537
 31
0.0
  0
LINE
  5
495
330
377
100
AcDbEntity
  8
0
  6
Continuous
 62
     8
370
    25
100
AcDbLine
 10
60.1040764009
 20
182.0130055359
 30
0.0
 11
60.1040764009
 21
183.3471844344
 31
0.0
  0
LINE
  5
496
330
377
100
AcDbEntity
  8
0
  6
Continuous
 62
     8
370
    25
100
AcDbLine
 10
59.6897142443
 20
-206.7201174657
 30
0.0
 11
60.1040764009
 21
-206.959323647
 31
0.0
  0
LINE
  5
497
330
377
100
AcDbEntity
  8
0
  6
Continuous
 62
     8
370
    25
100
AcDbLine
 10
48.0832611207
 20
190.2866533849
 30
0.0
 11
48.0832611207
 21
188.9918329104
 31
0.0
  0
LINE
  5
498
330
377
100
AcDbEntity
  8
0
  6
Continuous
 62
     8
370
    25
100
AcDbLine
 10
-347.8965363438
 20
417.5861042208
 30
0.0
 11
-347.8965363438
 21
418.8809246952
 31
0.0
  0
LINE
  5
499
330
377
100
AcDbEntity
  8
0
  6
Continuous
 62
     8
370
    25
100
AcDbLine
 10
-46.6690475583
 20
591.9594444017
 30
0.0
 11
-335.1684993483
 21
425.4122559399
 31
0.0
  0
LINE
  5
49A
330
377
100
AcDbEntity
  8
0
  6
Continuous
 62
     8
370
    25
100
AcDbLine
 10
-46.6690475583
 20
457.2361819433
 30
0.0
 11
-46.6690475583
 21
591.9594444017
 31
0.0
  0
LINE
  5
49B
330
377
100
AcDbEntity
  8
0
  6
Continuous
 62
     8
370
    25
100
AcDbLine
 10
-359.917351624
 20
425.8203936457
 30
0.0
 11
-359.917351624
 21
424.5255731712
 31
0.0
  0
ARC
  5
49C
330
377
100
AcDbEntity
  8
0
  6
Continuous
 62
     7
370
    25
100
AcDbCircle
 10
59.3969696197
 20
4.9330833874
 30
0.0
 40
0.9999999999997087
100
AcDbArc
 50
360.0
 51
60.0026882664
  0
ARC
  5
49D
330
377
100
AcDbEntity
  8
0
  6
Continuous
 62
     7
370
    25
100
AcDbCircle
 10
47.3761543395
 20
-212.6739150296
 30
0.0
 40
1.000000000000524
100
AcDbArc
 50
240.0026882664
 51
299.9973117336
  0
ARC
  5
49E
330
377
100
AcDbEntity
  8
0
  6
Continuous
 62
     7
370
    25
100
AcDbCircle
 10
59.3969696197
 20
-205.7344460791
 30
0.0
 40
1.000000000000028
100
AcDbArc
 50
299.9973117337
 51
0.0
  0
ARC
  5
49F
330
377
100
AcDbEntity
  8
0
  6
Continuous
 62
     7
370
    25
100
AcDbCircle
 10
-372.6452736853
 20
240.4668236482
 30
0.0
 40
1.00000000000046
100
AcDbArc
 50
119.9973117337
 51
180.0
  0
ARC
  5
4A0
330
377
100
AcDbEntity
  8
0
  6
Continuous
 62
     7
370
    25
100
AcDbCircle
 10
-372.6452736853
 20
29.7992941817
 30
0.0
 40
0.9999999999996543
100
AcDbArc
 50
180.0
 51
240.0026882664
  0
ARC
  5
4A1
330
377
100
AcDbEntity
  8
0
  6
Continuous
 62
     7
370
    25
100
AcDbCircle
 10
48.7903679019
 20
190.6948574408
 30
0.0
 40
0.9999999999999076
100
AcDbArc
 50
119.9973117337
 51
180.0
  0
ARC
  5
4A2
330
377
100
AcDbEntity
  8
0
  6
Continuous
 62
     7
370
    25
100
AcDbCircle
 10
360.6244584051
 20
356.8339081967
 30
0.0
 40
0.9999999999998295
100
AcDbArc
 50
0.0
 51
60.0026882664
  0
ARC
  5
4A3
330
377
100
AcDbEntity
  8
0
  6
Continuous
 62
     7
370
    25
100
AcDbCircle
 10
348.603643125
 20
363.7733771472
 30
0.0
 40
1.000000000000105
100
AcDbArc
 50
60.0026882663
 51
119.9973117336
  0
ARC
  5
4A4
330
377
100
AcDbEntity
  8
0
  6
Continuous
 62
     7
370
    25
100
AcDbCircle
 10
60.811183182
 20
-206.5511195911
 30
0.0
 40
1.0000000000005
100
AcDbArc
 50
240.0026882664
 51
299.9973117336
  0
ARC
  5
4A5
330
377
100
AcDbEntity
  8
0
  6
Continuous
 62
     7
370
    25
100
AcDbCircle
 10
360.6244584051
 20
-33.4725998847
 30
0.0
 40
0.9999999999999432
100
AcDbArc
 50
299.9973117336
 51
0.0
  0
ARC
  5
4A6
330
377
100
AcDbEntity
  8
0
  6
Continuous
 62
     7
370
    25
100
AcDbCircle
 10
-359.2102448428
 20
426.2285977017
 30
0.0
 40
0.9999999999999432
100
AcDbArc
 50
119.9973117336
 51
180.0
  0
ARC
  5
4A7
330
377
100
AcDbEntity
  8
0
  6
Continuous
 62
     7
370
    25
100
AcDbCircle
 10
-47.3761543395
 20
592.3676484576
 30
0.0
 40
0.9999999999997026
100
AcDbArc
 50
0.0
 51
60.0026882664
  0
ARC
  5
4A8
330
377
100
AcDbEntity
  8
0
  6
Continuous
 62
     7
370
    25
100
AcDbCircle
 10
-59.3969696197
 20
599.3071174081
 30
0.0
 40
0.9999999999998102
100
AcDbArc
 50
60.0026882663
 51
119.9973117337
  0
ARC
  5
4A9
330
377
100
AcDbEntity
  8
0
  6
Continuous
 62
     7
370
    25
100
AcDbCircle
 10
59.3969696197
 20
181.3058987547
 30
0.0
 40
0.9999999999997911
100
AcDbArc
 50
360.0
 51
60.0026882664
  0
ARC
  5
4AA
330
377
100
AcDbEntity
  8
0
  6
Continuous
 62
     7
370
    25
100
AcDbCircle
 10
47.3761543395
 20
1.2597776844
 30
0.0
 40
1.00000000000056
100
AcDbArc
 50
240.0026882664
 51
299.9973117336
  0
ARC
  5
4AB
330
377
100
AcDbEntity
  8
0
  6
Continuous
 62
     7
370
    25
100
AcDbCircle
 10
59.3969696197
 20
8.1992466349
 30
0.0
 40
1.000000000000202
100
AcDbArc
 50
299.9973117337
 51
360.0
  0
ARC
  5
4AC
330
377
100
AcDbEntity
  8
0
  6
Continuous
 62
     7
370
    25
100
AcDbCircle
 10
-372.6452736853
 20
416.8396390156
 30
0.0
 40
1.000000000000481
100
AcDbArc
 50
119.9973117337
 51
180.0
  0
ARC
  5
4AD
330
377
100
AcDbEntity
  8
0
  6
Continuous
 62
     7
370
    25
100
AcDbCircle
 10
-360.6244584051
 20
423.7791079661
 30
0.0
 40
0.999999999999704
100
AcDbArc
 50
60.0026882663
 51
119.9973117337
  0
ARC
  5
4AE
330
377
100
AcDbEntity
  8
0
  6
Continuous
 62
     7
370
    25
100
AcDbCircle
 10
-372.6452736853
 20
243.7329868958
 30
0.0
 40
0.9999999999998863
100
AcDbArc
 50
180.0
 51
240.0026882664
  0
ARC
  5
4AF
330
377
100
AcDbEntity
  8
0
  6
Continuous
 62
     7
370
    25
100
AcDbCircle
 10
46.5480450193
 20
-2.4844504713
 30
0.0
 40
1.536804807572205
100
AcDbArc
 50
2.6054784857
 51
57.39452166
  0
ARC
  5
4B0
330
377
100
AcDbEntity
  8
0
  6
Continuous
 62
     7
370
    25
100
AcDbCircle
 10
47.3761543395
 20
-1.0498785341
 30
0.0
 40
1.537021907911765
100
AcDbArc
 50
242.6096722366
 51
297.3903277634
  0
ARC
  5
4B1
330
377
100
AcDbEntity
  8
0
  6
Continuous
 62
     7
370
    25
100
AcDbCircle
 10
48.2042636597
 20
-2.4844504713
 30
0.0
 40
1.536804807572159
100
AcDbArc
 50
122.60547834
 51
177.3945215143
  0
ARC
  5
4B2
330
377
100
AcDbEntity
  8
0
  6
Continuous
 62
     7
370
    25
100
AcDbCircle
 10
47.3761543395
 20
-211.7174080006
 30
0.0
 40
1.537021907911308
100
AcDbArc
 50
242.6096722366
 51
297.3903277634
  0
ARC
  5
4B3
330
377
100
AcDbEntity
  8
0
  6
Continuous
 62
     7
370
    25
100
AcDbCircle
 10
-371.8171643651
 20
239.9887587401
 30
0.0
 40
1.53680480757232
100
AcDbArc
 50
122.60547834
 51
177.3945215143
  0
ARC
  5
4B4
330
377
100
AcDbEntity
  8
0
  6
Continuous
 62
     7
370
    25
100
AcDbCircle
 10
58.5688602995
 20
4.4550184792
 30
0.0
 40
1.536804807572175
100
AcDbArc
 50
2.6054784857
 51
57.39452166
  0
ARC
  5
4B5
330
377
100
AcDbEntity
  8
0
  6
Continuous
 62
     7
370
    25
100
AcDbCircle
 10
61.6392925022
 20
183.2773235821
 30
0.0
 40
1.53680480757184
100
AcDbArc
 50
122.60547834
 51
177.3945215143
  0
ARC
  5
4B6
330
377
100
AcDbEntity
  8
0
  6
Continuous
 62
     7
370
    25
100
AcDbCircle
 10
59.9830738619
 20
183.2773235821
 30
0.0
 40
1.536804807571599
100
AcDbArc
 50
2.6054784856
 51
57.39452166
  0
ARC
  5
4B7
330
377
100
AcDbEntity
  8
0
  6
Continuous
 62
     7
370
    25
100
AcDbCircle
 10
60.811183182
 20
184.7118955194
 30
0.0
 40
1.537021907911683
100
AcDbArc
 50
242.6096722366
 51
297.3903277634
  0
ARC
  5
4B8
330
377
100
AcDbEntity
  8
0
  6
Continuous
 62
     7
370
    25
100
AcDbCircle
 10
60.811183182
 20
-205.594612562
 30
0.0
 40
1.53702190791186
100
AcDbArc
 50
242.6096722366
 51
297.3903277634
  0
ARC
  5
4B9
330
377
100
AcDbEntity
  8
0
  6
Continuous
 62
     7
370
    25
100
AcDbCircle
 10
49.6184772221
 20
190.2167925326
 30
0.0
 40
1.536804807571864
100
AcDbArc
 50
122.60547834
 51
177.3945215143
  0
ARC
  5
4BA
330
377
100
AcDbEntity
  8
0
  6
Continuous
 62
     7
370
    25
100
AcDbCircle
 10
359.796349085
 20
356.3558432885
 30
0.0
 40
1.536804807571556
100
AcDbArc
 50
2.6054784856
 51
57.39452166
  0
ARC
  5
4BB
330
377
100
AcDbEntity
  8
0
  6
Continuous
 62
     7
370
    25
100
AcDbCircle
 10
-346.3613202424
 20
418.811063843
 30
0.0
 40
1.536804807572088
100
AcDbArc
 50
122.60547834
 51
177.3945215143
  0
ARC
  5
4BC
330
377
100
AcDbEntity
  8
0
  6
Continuous
 62
     7
370
    25
100
AcDbCircle
 10
-48.2042636597
 20
591.8895835494
 30
0.0
 40
1.536804807572193
100
AcDbArc
 50
2.6054784857
 51
57.39452166
  0
ARC
  5
4BD
330
377
100
AcDbEntity
  8
0
  6
Continuous
 62
     7
370
    25
100
AcDbCircle
 10
-358.3821355226
 20
425.7505327935
 30
0.0
 40
1.536804807571822
100
AcDbArc
 50
122.60547834
 51
177.3945215143
  0
ARC
  5
4BE
330
377
100
AcDbEntity
  8
0
  6
Continuous
 62
     7
370
    25
100
AcDbCircle
 10
47.3761543395
 20
175.3229368333
 30
0.0
 40
1.537021907912206
100
AcDbArc
 50
242.6096722366
 51
297.3903277634
  0
ARC
  5
4BF
330
377
100
AcDbEntity
  8
0
  6
Continuous
 62
     7
370
    25
100
AcDbCircle
 10
48.2042636597
 20
173.888364896
 30
0.0
 40
1.536804807572054
100
AcDbArc
 50
122.60547834
 51
177.3945215143
  0
ARC
  5
4C0
330
377
100
AcDbEntity
  8
0
  6
Continuous
 62
     7
370
    25
100
AcDbCircle
 10
46.5480450193
 20
173.888364896
 30
0.0
 40
1.536804807572024
100
AcDbArc
 50
2.6054784856
 51
57.39452166
  0
ARC
  5
4C1
330
377
100
AcDbEntity
  8
0
  6
Continuous
 62
     7
370
    25
100
AcDbCircle
 10
47.3761543395
 20
2.2162847135
 30
0.0
 40
1.537021907911765
100
AcDbArc
 50
242.6096722366
 51
297.3903277634
  0
ARC
  5
4C2
330
377
100
AcDbEntity
  8
0
  6
Continuous
 62
     7
370
    25
100
AcDbCircle
 10
58.5688602995
 20
180.8278338465
 30
0.0
 40
1.536804807571865
100
AcDbArc
 50
2.6054784856
 51
57.39452166
  0
ARC
  5
4C3
330
377
100
AcDbEntity
  8
0
  6
Continuous
 62
     7
370
    25
100
AcDbCircle
 10
-371.8171643651
 20
416.3615741074
 30
0.0
 40
1.536804807571853
100
AcDbArc
 50
122.60547834
 51
177.3945215143
  0
ARC
  5
4C4
330
377
100
AcDbEntity
  8
0
  6
Continuous
 62
     8
370
    25
100
AcDbCircle
 10
59.6898896745
 20
5.3407428702
 30
0.0
 40
0.5029772359016433
100
AcDbArc
 50
65.6928809539
 51
125.6175774752
  0
ARC
  5
4C5
330
377
100
AcDbEntity
  8
0
  6
Continuous
 62
     8
370
    25
100
AcDbCircle
 10
59.8965125572
 20
4.9829897643
 30
0.0
 40
0.5029392784938405
100
AcDbArc
 50
294.3746582936
 51
354.3052007488
  0
ARC
  5
4C6
330
377
100
AcDbEntity
  8
0
  6
Continuous
 62
     8
370
    25
100
AcDbCircle
 10
59.8965125572
 20
-205.6845397022
 30
0.0
 40
0.5029392784939368
100
AcDbArc
 50
294.3746582936
 51
354.3052007488
  0
ARC
  5
4C7
330
377
100
AcDbEntity
  8
0
  6
Continuous
 62
     8
370
    25
100
AcDbCircle
 10
47.1590494606
 20
-213.1362058229
 30
0.0
 40
0.4929779299532858
100
AcDbArc
 50
173.7011524782
 51
234.9866671284
  0
ARC
  5
4C8
330
377
100
AcDbEntity
  8
0
  6
Continuous
 62
     8
370
    25
100
AcDbCircle
 10
47.6075755647
 20
-213.1426831141
 30
0.0
 40
0.4795255464512388
100
AcDbArc
 50
304.0563508342
 51
7.2558295592
  0
ARC
  5
4C9
330
377
100
AcDbEntity
  8
0
  6
Continuous
 62
     8
370
    25
100
AcDbCircle
 10
59.6283908451
 20
-206.2032141637
 30
0.0
 40
0.4795255463080587
100
AcDbArc
 50
304.0563508237
 51
7.2558295697
  0
ARC
  5
4CA
330
377
100
AcDbEntity
  8
0
  6
Continuous
 62
     8
370
    25
100
AcDbCircle
 10
-372.8623785642
 20
29.3370033884
 30
0.0
 40
0.4929779299811468
100
AcDbArc
 50
173.7011524801
 51
234.9866671265
  0
ARC
  5
4CB
330
377
100
AcDbEntity
  8
0
  6
Continuous
 62
     8
370
    25
100
AcDbCircle
 10
-372.9381937402
 20
240.874483131
 30
0.0
 40
0.5029772359019157
100
AcDbArc
 50
54.3824225248
 51
114.3071190461
  0
ARC
  5
4CC
330
377
100
AcDbEntity
  8
0
  6
Continuous
 62
     8
370
    25
100
AcDbCircle
 10
-373.1448166228
 20
240.5167300251
 30
0.0
 40
0.5029392784940782
100
AcDbArc
 50
185.6947992512
 51
245.6253417064
  0
ARC
  5
4CD
330
377
100
AcDbEntity
  8
0
  6
Continuous
 62
     8
370
    25
100
AcDbCircle
 10
-373.1448166228
 20
29.8492005586
 30
0.0
 40
0.5029392784939726
100
AcDbArc
 50
185.6947992512
 51
245.6253417064
  0
ARC
  5
4CE
330
377
100
AcDbEntity
  8
0
  6
Continuous
 62
     8
370
    25
100
AcDbCircle
 10
48.2908249644
 20
190.7447638177
 30
0.0
 40
0.5029392784938883
100
AcDbArc
 50
185.6947992512
 51
245.6253417064
  0
ARC
  5
4CF
330
377
100
AcDbEntity
  8
0
  6
Continuous
 62
     8
370
    25
100
AcDbCircle
 10
48.497447847
 20
191.1025169236
 30
0.0
 40
0.5029772359015108
100
AcDbArc
 50
54.3824225248
 51
114.3071190461
  0
ARC
  5
4D0
330
377
100
AcDbEntity
  8
0
  6
Continuous
 62
     8
370
    25
100
AcDbCircle
 10
348.3107230701
 20
364.18103663
 30
0.0
 40
0.5029772359012157
100
AcDbArc
 50
54.3824225248
 51
114.3071190461
  0
ARC
  5
4D1
330
377
100
AcDbEntity
  8
0
  6
Continuous
 62
     8
370
    25
100
AcDbCircle
 10
361.1240013426
 20
356.8838145736
 30
0.0
 40
0.5029392784941951
100
AcDbArc
 50
294.3746582936
 51
354.3052007488
  0
ARC
  5
4D2
330
377
100
AcDbEntity
  8
0
  6
Continuous
 62
     8
370
    25
100
AcDbCircle
 10
360.91737846
 20
357.2415676795
 30
0.0
 40
0.502977235901526
100
AcDbArc
 50
65.6928809539
 51
125.6175774752
  0
ARC
  5
4D3
330
377
100
AcDbEntity
  8
0
  6
Continuous
 62
     8
370
    25
100
AcDbCircle
 10
361.1240013426
 20
-33.4226935078
 30
0.0
 40
0.5029392784940118
100
AcDbArc
 50
294.3746582936
 51
354.3052007488
  0
ARC
  5
4D4
330
377
100
AcDbEntity
  8
0
  6
Continuous
 62
     8
370
    25
100
AcDbCircle
 10
348.8965631798
 20
364.18103663
 30
0.0
 40
0.5029772359016977
100
AcDbArc
 50
65.6928809539
 51
125.6175774752
  0
ARC
  5
4D5
330
377
100
AcDbEntity
  8
0
  6
Continuous
 62
     8
370
    25
100
AcDbCircle
 10
60.5940783032
 20
-207.0134103844
 30
0.0
 40
0.4929779299533047
100
AcDbArc
 50
173.7011524782
 51
234.9866671284
  0
ARC
  5
4D6
330
377
100
AcDbEntity
  8
0
  6
Continuous
 62
     8
370
    25
100
AcDbCircle
 10
61.0282880609
 20
-207.0134103843
 30
0.0
 40
0.4929779300176895
100
AcDbArc
 50
305.013332876
 51
6.2988475174
  0
ARC
  5
4D7
330
377
100
AcDbEntity
  8
0
  6
Continuous
 62
     8
370
    25
100
AcDbCircle
 10
360.8558796304
 20
-33.9413679692
 30
0.0
 40
0.4795255463990211
100
AcDbArc
 50
304.0563508304
 51
7.255829563
  0
ARC
  5
4D8
330
377
100
AcDbEntity
  8
0
  6
Continuous
 62
     8
370
    25
100
AcDbCircle
 10
-347.2182399007
 20
420.1544562595
 30
0.0
 40
1.442902876100777
100
AcDbArc
 50
241.9597608846
 51
271.1440967459
  0
ARC
  5
4D9
330
377
100
AcDbEntity
  8
0
  6
Continuous
 62
     8
370
    25
100
AcDbCircle
 10
-347.9529300773
 20
418.8816575634
 30
0.0
 40
1.44261512930275
100
AcDbArc
 50
28.8567998287
 51
58.0453714773
  0
ARC
  5
4DA
330
377
100
AcDbEntity
  8
0
  6
Continuous
 62
     8
370
    25
100
AcDbCircle
 10
-359.7097877803
 20
426.2785040786
 30
0.0
 40
0.5029392784939566
100
AcDbArc
 50
185.6947992512
 51
245.6253417064
  0
ARC
  5
4DB
330
377
100
AcDbEntity
  8
0
  6
Continuous
 62
     8
370
    25
100
AcDbCircle
 10
-359.5031648976
 20
426.6362571844
 30
0.0
 40
0.502977235901217
100
AcDbArc
 50
54.3824225248
 51
114.3071190461
  0
ARC
  5
4DC
330
377
100
AcDbEntity
  8
0
  6
Continuous
 62
     8
370
    25
100
AcDbCircle
 10
-59.6898896745
 20
599.7147768908
 30
0.0
 40
0.5029772359011142
100
AcDbArc
 50
54.3824225248
 51
114.3071190461
  0
ARC
  5
4DD
330
377
100
AcDbEntity
  8
0
  6
Continuous
 62
     8
370
    25
100
AcDbCircle
 10
-46.876611402
 20
592.4175548345
 30
0.0
 40
0.502939278493812
100
AcDbArc
 50
294.3746582936
 51
354.3052007488
  0
ARC
  5
4DE
330
377
100
AcDbEntity
  8
0
  6
Continuous
 62
     8
370
    25
100
AcDbCircle
 10
-47.0832342846
 20
592.7753079403
 30
0.0
 40
0.5029772359018412
100
AcDbArc
 50
65.6928809539
 51
125.6175774752
  0
ARC
  5
4DF
330
377
100
AcDbEntity
  8
0
  6
Continuous
 62
     8
370
    25
100
AcDbCircle
 10
-59.1040495648
 20
599.7147768908
 30
0.0
 40
0.5029772359017102
100
AcDbArc
 50
65.6928809539
 51
125.6175774752
  0
ARC
  5
4E0
330
377
100
AcDbEntity
  8
0
  6
Continuous
 62
     8
370
    25
100
AcDbCircle
 10
59.6898896745
 20
181.7135582375
 30
0.0
 40
0.5029772359017781
100
AcDbArc
 50
65.6928809539
 51
125.6175774752
  0
ARC
  5
4E1
330
377
100
AcDbEntity
  8
0
  6
Continuous
 62
     8
370
    25
100
AcDbCircle
 10
59.8965125572
 20
181.3558051316
 30
0.0
 40
0.5029392784941721
100
AcDbArc
 50
294.3746582936
 51
354.3052007488
  0
ARC
  5
4E2
330
377
100
AcDbEntity
  8
0
  6
Continuous
 62
     8
370
    25
100
AcDbCircle
 10
59.8965125572
 20
8.2491530118
 30
0.0
 40
0.5029392784938378
100
AcDbArc
 50
294.3746582936
 51
354.3052007488
  0
ARC
  5
4E3
330
377
100
AcDbEntity
  8
0
  6
Continuous
 62
     8
370
    25
100
AcDbCircle
 10
-360.3315383503
 20
424.1867674488
 30
0.0
 40
0.5029772359014477
100
AcDbArc
 50
65.6928809539
 51
125.6175774752
  0
ARC
  5
4E4
330
377
100
AcDbEntity
  8
0
  6
Continuous
 62
     8
370
    25
100
AcDbCircle
 10
47.1590494605
 20
0.7974868911
 30
0.0
 40
0.4929779298724181
100
AcDbArc
 50
173.7011524726
 51
234.986667134
  0
ARC
  5
4E5
330
377
100
AcDbEntity
  8
0
  6
Continuous
 62
     8
370
    25
100
AcDbCircle
 10
47.5932592183
 20
0.7974868912
 30
0.0
 40
0.4929779300454363
100
AcDbArc
 50
305.0133328779
 51
6.2988475155
  0
ARC
  5
4E6
330
377
100
AcDbEntity
  8
0
  6
Continuous
 62
     8
370
    25
100
AcDbCircle
 10
59.6140744988
 20
7.7369558415
 30
0.0
 40
0.4929779297173186
100
AcDbArc
 50
305.0133328553
 51
6.298847538
  0
ARC
  5
4E7
330
377
100
AcDbEntity
  8
0
  6
Continuous
 62
     8
370
    25
100
AcDbCircle
 10
-372.8766949107
 20
243.2642188112
 30
0.0
 40
0.479525546278488
100
AcDbArc
 50
172.7441704281
 51
235.9436491785
  0
ARC
  5
4E8
330
377
100
AcDbEntity
  8
0
  6
Continuous
 62
     8
370
    25
100
AcDbCircle
 10
-373.1448166228
 20
416.8895453925
 30
0.0
 40
0.5029392784936215
100
AcDbArc
 50
185.6947992512
 51
245.6253417064
  0
ARC
  5
4E9
330
377
100
AcDbEntity
  8
0
  6
Continuous
 62
     8
370
    25
100
AcDbCircle
 10
-372.9381937402
 20
417.2472984983
 30
0.0
 40
0.5029772359017401
100
AcDbArc
 50
54.3824225248
 51
114.3071190461
  0
ARC
  5
4EA
330
377
100
AcDbEntity
  8
0
  6
Continuous
 62
     8
370
    25
100
AcDbCircle
 10
-373.1448166228
 20
243.7828932727
 30
0.0
 40
0.5029392784939538
100
AcDbArc
 50
185.6947992512
 51
245.6253417064
  0
ARC
  5
4EB
330
377
100
AcDbEntity
  8
0
  6
Continuous
 62
     8
370
    25
100
AcDbCircle
 10
-360.91737846
 20
424.1867674488
 30
0.0
 40
0.5029772359012973
100
AcDbArc
 50
54.3824225248
 51
114.3071190461
  0
VIEWPORT
  5
4F2
330
377
100
AcDbEntity
  8
0
100
AcDbViewport
 10
0.0
 20
0.0
 30
0.0
 40
205.6
 41
156.0
 68
     1
 69
     1
 12
0.0
 22
240.0
 13
0.0
 23
0.0
 14
10.0
 24
10.0
 15
10.0
 25
10.0
 16
0.0
 26
0.0
 36
1.0
 17
0.0
 27
0.0
 37
0.0
 42
50.0
 43
0.0
 44
0.0
 45
489.6
 50
0.0
 51
0.0
 72
   100
 90
   557152
  1

281
     0
 71
     1
 74
     0
110
0.0
120
0.0
130
0.0
111
1.0
121
0.0
131
0.0
112
0.0
122
1.0
132
0.0
 79
     0
146
0.0
  0
ENDBLK
  5
37A
330
377
100
AcDbEntity
  8
0
100
AcDbBlockEnd
  0
ENDSEC
  0
SECTION
  2
ENTITIES
  0
LINE
  5
D5
330
1F
100
AcDbEntity
  8
0
  6
Continuous
 62
     7
370
    25
100
AcDbLine
 10
-298.0
 20
3.0
 30
0.0
 11
298.0
 21
3.0
 31
0.0
  0
LINE
  5
D6
330
1F
100
AcDbEntity
  8
0
  6
Continuous
 62
     7
370
    25
100
AcDbLine
 10
298.0
 20
261.0
 30
0.0
 11
-298.0
 21
261.0
 31
0.0
  0
LINE
  5
D7
330
1F
100
AcDbEntity
  8
0
  6
Continuous
 62
     7
370
    25
100
AcDbLine
 10
297.0
 20
2.0
 30
0.0
 11
-297.0
 21
2.0
 31
0.0
  0
LINE
  5
D8
330
1F
100
AcDbEntity
  8
0
  6
Continuous
 62
     7
370
    25
100
AcDbLine
 10
-297.0
 20
262.0
 30
0.0
 11
297.0
 21
262.0
 31
0.0
  0
LINE
  5
D9
330
1F
100
AcDbEntity
  8
0
  6
Continuous
 62
     7
370
    25
100
AcDbLine
 10
279.0
 20
1.0
 30
0.0
 11
298.0
 21
1.0
 31
0.0
  0
LINE
  5
DA
330
1F
100
AcDbEntity
  8
0
  6
Continuous
 62
     7
370
    25
100
AcDbLine
 10
279.0
 20
262.0
 30
0.0
 11
279.0
 21
264.0
 31
0.0
  0
LINE
  5
DB
330
1F
100
AcDbEntity
  8
0
  6
Continuous
 62
     7
370
    25
100
AcDbLine
 10
280.0
 20
480.0
 30
0.0
 11
280.0
 21
478.0
 31
0.0
  0
LINE
  5
DC
330
1F
100
AcDbEntity
  8
0
  6
Continuous
 62
     7
370
    25
100
AcDbLine
 10
298.0
 20
479.0
 30
0.0
 11
279.0
 21
479.0
 31
0.0
  0
LINE
  5
DD
330
1F
100
AcDbEntity
  8
0
  6
Continuous
 62
     7
370
    25
100
AcDbLine
 10
280.0
 20
480.0
 30
0.0
 11
297.0
 21
480.0
 31
0.0
  0
LINE
  5
DE
330
1F
100
AcDbEntity
  8
0
  6
Continuous
 62
     7
370
    25
100
AcDbLine
 10
298.0
 20
479.0
 30
0.0
 11
298.0
 21
1.0
 31
0.0
  0
LINE
  5
DF
330
1F
100
AcDbEntity
  8
0
  6
Continuous
 62
     7
370
    25
100
AcDbLine
 10
297.0
 20
0.0
 30
0.0
 11
280.0
 21
0.0
 31
0.0
  0
LINE
  5
E0
330
1F
100
AcDbEntity
  8
0
  6
Continuous
 62
     7
370
    25
100
AcDbLine
 10
280.0
 20
2.0
 30
0.0
 11
280.0
 21
0.0
 31
0.0
  0
LINE
  5
E1
330
1F
100
AcDbEntity
  8
0
  6
Continuous
 62
     7
370
    25
100
AcDbLine
 10
279.0
 20
2.0
 30
0.0
 11
279.0
 21
0.0
 31
0.0
  0
LINE
  5
E2
330
1F
100
AcDbEntity
  8
0
  6
Continuous
 62
     7
370
    25
100
AcDbLine
 10
-279.0
 20
0.0
 30
0.0
 11
279.0
 21
0.0
 31
0.0
  0
LINE
  5
E3
330
1F
100
AcDbEntity
  8
0
  6
Continuous
 62
     7
370
    25
100
AcDbLine
 10
-279.0
 20
2.0
 30
0.0
 11
-279.0
 21
0.0
 31
0.0
  0
LINE
  5
E4
330
1F
100
AcDbEntity
  8
0
  6
Continuous
 62
     7
370
    25
100
AcDbLine
 10
-298.0
 20
1.0
 30
0.0
 11
-279.0
 21
1.0
 31
0.0
  0
LINE
  5
E5
330
1F
100
AcDbEntity
  8
0
  6
Continuous
 62
     7
370
    25
100
AcDbLine
 10
-298.0
 20
1.0
 30
0.0
 11
-298.0
 21
479.0
 31
0.0
  0
LINE
  5
E6
330
1F
100
AcDbEntity
  8
0
  6
Continuous
 62
     7
370
    25
100
AcDbLine
 10
-279.0
 20
479.0
 30
0.0
 11
-298.0
 21
479.0
 31
0.0
  0
LINE
  5
E7
330
1F
100
AcDbEntity
  8
0
  6
Continuous
 62
     7
370
    25
100
AcDbLine
 10
-297.0
 20
480.0
 30
0.0
 11
-280.0
 21
480.0
 31
0.0
  0
LINE
  5
E8
330
1F
100
AcDbEntity
  8
0
  6
Continuous
 62
     7
370
    25
100
AcDbLine
 10
-280.0
 20
478.0
 30
0.0
 11
-280.0
 21
480.0
 31
0.0
  0
LINE
  5
E9
330
1F
100
AcDbEntity
  8
0
  6
Continuous
 62
     7
370
    25
100
AcDbLine
 10
-279.0
 20
264.0
 30
0.0
 11
-279.0
 21
262.0
 31
0.0
  0
LINE
  5
EA
330
1F
100
AcDbEntity
  8
0
  6
Continuous
 62
     7
370
    25
100
AcDbLine
 10
-280.0
 20
0.0
 30
0.0
 11
-280.0
 21
2.0
 31
0.0
  0
LINE
  5
EB
330
1F
100
AcDbEntity
  8
0
  6
Continuous
 62
     7
370
    25
100
AcDbLine
 10
-280.0
 20
0.0
 30
0.0
 11
-297.0
 21
0.0
 31
0.0
  0
LINE
  5
EC
330
1F
100
AcDbEntity
  8
0
  6
Continuous
 62
     7
370
    25
100
AcDbLine
 10
-279.0
 20
480.0
 30
0.0
 11
-279.0
 21
478.0
 31
0.0
  0
LINE
  5
ED
330
1F
100
AcDbEntity
  8
0
  6
Continuous
 62
     7
370
    25
100
AcDbLine
 10
279.0
 20
480.0
 30
0.0
 11
-279.0
 21
480.0
 31
0.0
  0
LINE
  5
EE
330
1F
100
AcDbEntity
  8
0
  6
Continuous
 62
     7
370
    25
100
AcDbLine
 10
279.0
 20
478.0
 30
0.0
 11
279.0
 21
480.0
 31
0.0
  0
LINE
  5
EF
330
1F
100
AcDbEntity
  8
0
  6
Continuous
 62
     7
370
    25
100
AcDbLine
 10
298.0
 20
477.0
 30
0.0
 11
-298.0
 21
477.0
 31
0.0
  0
LINE
  5
F0
330
1F
100
AcDbEntity
  8
0
  6
Continuous
 62
     7
370
    25
100
AcDbLine
 10
297.0
 20
0.0
 30
0.0
 11
297.0
 21
480.0
 31
0.0
  0
LINE
  5
F1
330
1F
100
AcDbEntity
  8
0
  6
Continuous
 62
     7
370
    25
100
AcDbLine
 10
-298.0
 20
265.0
 30
0.0
 11
298.0
 21
265.0
 31
0.0
  0
LINE
  5
F2
330
1F
100
AcDbEntity
  8
0
  6
Continuous
 62
     7
370
    25
100
AcDbLine
 10
297.0
 20
264.0
 30
0.0
 11
-297.0
 21
264.0
 31
0.0
  0
LINE
  5
F3
330
1F
100
AcDbEntity
  8
0
  6
Continuous
 62
     7
370
    25
100
AcDbLine
 10
-297.0
 20
480.0
 30
0.0
 11
-297.0
 21
0.0
 31
0.0
  0
LINE
  5
F4
330
1F
100
AcDbEntity
  8
0
  6
Continuous
 62
     7
370
    25
100
AcDbLine
 10
-297.0
 20
478.0
 30
0.0
 11
297.0
 21
478.0
 31
0.0
  0
LINE
  5
F5
330
1F
100
AcDbEntity
  8
0
  6
Continuous
 62
     8
370
    25
100
AcDbLine
 10
280.0
 20
264.0
 30
0.0
 11
280.0
 21
262.0
 31
0.0
  0
LINE
  5
F6
330
1F
100
AcDbEntity
  8
0
  6
Continuous
 62
     8
370
    25
100
AcDbLine
 10
-280.0
 20
262.0
 30
0.0
 11
-280.0
 21
264.0
 31
0.0
  0
ARC
  5
F7
330
1F
100
AcDbEntity
  8
0
  6
Continuous
 62
     7
370
    25
100
AcDbCircle
 10
-297.0
 20
3.0
 30
0.0
 40
1.000000000000057
100
AcDbArc
 50
180.0
 51
270.0
  0
ARC
  5
F8
330
1F
100
AcDbEntity
  8
0
  6
Continuous
 62
     7
370
    25
100
AcDbCircle
 10
297.0
 20
3.0
 30
0.0
 40
1.000000000000057
100
AcDbArc
 50
270.0
 51
360.0
  0
ARC
  5
F9
330
1F
100
AcDbEntity
  8
0
  6
Continuous
 62
     7
370
    25
100
AcDbCircle
 10
297.0
 20
261.0
 30
0.0
 40
1.000000000000057
100
AcDbArc
 50
0.0
 51
90.0
  0
ARC
  5
FA
330
1F
100
AcDbEntity
  8
0
  6
Continuous
 62
     7
370
    25
100
AcDbCircle
 10
-297.0
 20
261.0
 30
0.0
 40
1.000000000000057
100
AcDbArc
 50
90.0
 51
180.0
  0
ARC
  5
FB
330
1F
100
AcDbEntity
  8
0
  6
Continuous
 62
     7
370
    25
100
AcDbCircle
 10
280.0
 20
479.0
 30
0.0
 40
1.000000000000171
100
AcDbArc
 50
90.0
 51
180.0
  0
ARC
  5
FC
330
1F
100
AcDbEntity
  8
0
  6
Continuous
 62
     7
370
    25
100
AcDbCircle
 10
297.0
 20
479.0
 30
0.0
 40
1.0
100
AcDbArc
 50
0.0
 51
90.0
  0
ARC
  5
FD
330
1F
100
AcDbEntity
  8
0
  6
Continuous
 62
     7
370
    25
100
AcDbCircle
 10
297.0
 20
1.0
 30
0.0
 40
1.000000000000114
100
AcDbArc
 50
270.0
 51
360.0
  0
ARC
  5
FE
330
1F
100
AcDbEntity
  8
0
  6
Continuous
 62
     7
370
    25
100
AcDbCircle
 10
280.0
 20
1.0
 30
0.0
 40
1.000000000000114
100
AcDbArc
 50
180.0
 51
270.0
  0
ARC
  5
FF
330
1F
100
AcDbEntity
  8
0
  6
Continuous
 62
     7
370
    25
100
AcDbCircle
 10
-280.0
 20
479.0
 30
0.0
 40
1.000000000000171
100
AcDbArc
 50
0.0
 51
90.0
  0
ARC
  5
100
330
1F
100
AcDbEntity
  8
0
  6
Continuous
 62
     7
370
    25
100
AcDbCircle
 10
-297.0
 20
479.0
 30
0.0
 40
1.000000000000057
100
AcDbArc
 50
90.0
 51
180.0
  0
ARC
  5
101
330
1F
100
AcDbEntity
  8
0
  6
Continuous
 62
     7
370
    25
100
AcDbCircle
 10
-297.0
 20
1.0
 30
0.0
 40
1.000000000000061
100
AcDbArc
 50
180.0
 51
270.0
  0
ARC
  5
102
330
1F
100
AcDbEntity
  8
0
  6
Continuous
 62
     7
370
    25
100
AcDbCircle
 10
-280.0
 20
1.0
 30
0.0
 40
1.000000000000061
100
AcDbArc
 50
270.0
 51
360.0
  0
ARC
  5
103
330
1F
100
AcDbEntity
  8
0
  6
Continuous
 62
     7
370
    25
100
AcDbCircle
 10
-297.0
 20
477.0
 30
0.0
 40
1.000000000000057
100
AcDbArc
 50
90.0
 51
180.0
  0
ARC
  5
104
330
1F
100
AcDbEntity
  8
0
  6
Continuous
 62
     7
370
    25
100
AcDbCircle
 10
297.0
 20
477.0
 30
0.0
 40
1.000000000000057
100
AcDbArc
 50
0.0
 51
90.0
  0
ARC
  5
105
330
1F
100
AcDbEntity
  8
0
  6
Continuous
 62
     7
370
    25
100
AcDbCircle
 10
297.0
 20
265.0
 30
0.0
 40
1.000000000000057
100
AcDbArc
 50
270.0
 51
360.0
  0
ARC
  5
106
330
1F
100
AcDbEntity
  8
0
  6
Continuous
 62
     7
370
    25
100
AcDbCircle
 10
-297.0
 20
265.0
 30
0.0
 40
1.000000000000057
100
AcDbArc
 50
180.0
 51
270.0
  0
CIRCLE
  5
108
330
1B
100
AcDbEntity
 67
     1
  8
0
  6
Continuous
 62
     7
370
    25
100
AcDbCircle
 10
80.0
 20
202.0
 30
0.0
 40
2.399999999999963
  0
CIRCLE
  5
109
330
1B
100
AcDbEntity
 67
     1
  8
0
  6
Continuous
 62
     7
370
    25
100
AcDbCircle
 10
-48.0
 20
202.0
 30
0.0
 40
2.400000000000027
  0
CIRCLE
  5
10A
330
1B
100
AcDbEntity
 67
     1
  8
0
  6
Continuous
 62
     7
370
    25
100
AcDbCircle
 10
0.0
 20
202.0
 30
0.0
 40
2.400000000000021
  0
CIRCLE
  5
10B
330
1B
100
AcDbEntity
 67
     1
  8
0
  6
Continuous
 62
     7
370
    25
100
AcDbCircle
 10
48.0
 20
202.0
 30
0.0
 40
2.399999999999977
  0
CIRCLE
  5
10C
330
1B
100
AcDbEntity
 67
     1
  8
0
  6
Continuous
 62
     7
370
    25
100
AcDbCircle
 10
160.0
 20
202.0
 30
0.0
 40
2.400000000000034
  0
CIRCLE
  5
10D
330
1B
100
AcDbEntity
 67
     1
  8
0
  6
Continuous
 62
     7
370
    25
100
AcDbCircle
 10
-80.0
 20
202.0
 30
0.0
 40
2.40000000000002
  0
CIRCLE
  5
10E
330
1B
100
AcDbEntity
 67
     1
  8
0
  6
Continuous
 62
     7
370
    25
100
AcDbCircle
 10
-8.0
 20
202.0
 30
0.0
 40
2.400000000000021
  0
CIRCLE
  5
10F
330
1B
100
AcDbEntity
 67
     1
  8
0
  6
Continuous
 62
     7
370
    25
100
AcDbCircle
 10
8.0
 20
202.0
 30
0.0
 40
2.399999999999978
  0
CIRCLE
  5
110
330
1B
100
AcDbEntity
 67
     1
  8
0
  6
Continuous
 62
     7
370
    25
100
AcDbCircle
 10
-16.0
 20
202.0
 30
0.0
 40
2.399999999999995
  0
CIRCLE
  5
111
330
1B
100
AcDbEntity
 67
     1
  8
0
  6
Continuous
 62
     7
370
    25
100
AcDbCircle
 10
16.0
 20
202.0
 30
0.0
 40
2.400000000000047
  0
CIRCLE
  5
112
330
1B
100
AcDbEntity
 67
     1
  8
0
  6
Continuous
 62
     7
370
    25
100
AcDbCircle
 10
-160.0
 20
202.0
 30
0.0
 40
2.400000000000006
  0
CIRCLE
  5
1A9
330
1B
100
AcDbEntity
 67
     1
  8
0
  6
Continuous
 62
     7
370
    25
100
AcDbCircle
 10
270.0
 20
430.0
 30
0.0
 40
4.999999999999943
  0
CIRCLE
  5
1AA
330
1B
100
AcDbEntity
 67
     1
  8
0
  6
Continuous
 62
     7
370
    25
100
AcDbCircle
 10
-270.0
 20
430.0
 30
0.0
 40
5.0
  0
CIRCLE
  5
1AC
330
1B
100
AcDbEntity
 67
     1
  8
0
  6
Continuous
 62
     7
370
    25
100
AcDbCircle
 10
-270.0
 20
460.0
 30
0.0
 40
5.0
  0
CIRCLE
  5
1AD
330
1B
100
AcDbEntity
 67
     1
  8
0
  6
Continuous
 62
     7
370
    25
100
AcDbCircle
 10
270.0
 20
460.0
 30
0.0
 40
5.0
  0
CIRCLE
  5
1B0
330
1B
100
AcDbEntity
 67
     1
  8
0
  6
Continuous
 62
     7
370
    25
100
AcDbCircle
 10
270.0
 20
68.0
 30
0.0
 40
4.999999999999943
  0
CIRCLE
  5
1B1
330
1B
100
AcDbEntity
 67
     1
  8
0
  6
Continuous
 62
     7
370
    25
100
AcDbCircle
 10
-270.0
 20
38.0
 30
0.0
 40
4.999999999999943
  0
CIRCLE
  5
1B3
330
1B
100
AcDbEntity
 67
     1
  8
0
  6
Continuous
 62
     7
370
    25
100
AcDbCircle
 10
-270.0
 20
68.0
 30
0.0
 40
5.000000000000057
  0
CIRCLE
  5
1B6
330
1B
100
AcDbEntity
 67
     1
  8
0
  6
Continuous
 62
     7
370
    25
100
AcDbCircle
 10
270.0
 20
38.0
 30
0.0
 40
4.999999999999943
  0
LINE
  5
1D7
330
1B
100
AcDbEntity
 67
     1
  8
0
  6
Continuous
 62
     7
370
    25
100
AcDbLine
 10
-279.0
 20
262.0
 30
0.0
 11
279.0
 21
262.0
 31
0.0
  0
LINE
  5
1D8
330
1B
100
AcDbEntity
 67
     1
  8
0
  6
Continuous
 62
     7
370
    25
100
AcDbLine
 10
244.0
 20
176.0
 30
0.0
 11
244.0
 21
88.0
 31
0.0
  0
LINE
  5
1D9
330
1B
100
AcDbEntity
 67
     1
  8
0
  6
Continuous
 62
     7
370
    25
100
AcDbLine
 10
260.0
 20
176.0
 30
0.0
 11
260.0
 21
88.0
 31
0.0
  0
LINE
  5
1DA
330
1B
100
AcDbEntity
 67
     1
  8
0
  6
Continuous
 62
     7
370
    25
100
AcDbLine
 10
260.0
 20
176.0
 30
0.0
 11
244.0
 21
176.0
 31
0.0
  0
LINE
  5
1DB
330
1B
100
AcDbEntity
 67
     1
  8
0
  6
Continuous
 62
     7
370
    25
100
AcDbLine
 10
-244.0
 20
176.0
 30
0.0
 11
-244.0
 21
88.0
 31
0.0
  0
LINE
  5
1DC
330
1B
100
AcDbEntity
 67
     1
  8
0
  6
Continuous
 62
     7
370
    25
100
AcDbLine
 10
244.0
 20
124.0
 30
0.0
 11
-244.0
 21
124.0
 31
0.0
  0
LINE
  5
1DD
330
1B
100
AcDbEntity
 67
     1
  8
0
  6
Continuous
 62
     7
370
    25
100
AcDbLine
 10
-298.0
 20
1.0
 30
0.0
 11
-279.0
 21
1.0
 31
0.0
  0
LINE
  5
1DE
330
1B
100
AcDbEntity
 67
     1
  8
0
  6
Continuous
 62
     7
370
    25
100
AcDbLine
 10
-280.0
 20
0.0
 30
0.0
 11
-280.0
 21
480.0
 31
0.0
  0
LINE
  5
1DF
330
1B
100
AcDbEntity
 67
     1
  8
0
  6
Continuous
 62
     7
370
    25
100
AcDbLine
 10
-280.0
 20
0.0
 30
0.0
 11
-297.0
 21
0.0
 31
0.0
  0
LINE
  5
1E0
330
1B
100
AcDbEntity
 67
     1
  8
0
  6
Continuous
 62
     7
370
    25
100
AcDbLine
 10
-297.0
 20
480.0
 30
0.0
 11
-297.0
 21
0.0
 31
0.0
  0
LINE
  5
1E1
330
1B
100
AcDbEntity
 67
     1
  8
0
  6
Continuous
 62
     7
370
    25
100
AcDbLine
 10
-279.0
 20
479.0
 30
0.0
 11
-298.0
 21
479.0
 31
0.0
  0
LINE
  5
1E2
330
1B
100
AcDbEntity
 67
     1
  8
0
  6
Continuous
 62
     7
370
    25
100
AcDbLine
 10
-298.0
 20
1.0
 30
0.0
 11
-298.0
 21
479.0
 31
0.0
  0
LINE
  5
1E3
330
1B
100
AcDbEntity
 67
     1
  8
0
  6
Continuous
 62
     7
370
    25
100
AcDbLine
 10
-297.0
 20
480.0
 30
0.0
 11
-280.0
 21
480.0
 31
0.0
  0
LINE
  5
1E4
330
1B
100
AcDbEntity
 67
     1
  8
0
  6
Continuous
 62
     7
370
    25
100
AcDbLine
 10
-259.0
 20
279.75
 30
0.0
 11
-259.0
 21
286.75
 31
0.0
  0
LINE
  5
1E5
330
1B
100
AcDbEntity
 67
     1
  8
0
  6
Continuous
 62
     7
370
    25
100
AcDbLine
 10
-255.5
 20
290.25
 30
0.0
 11
-248.5
 21
290.25
 31
0.0
  0
LINE
  5
1E6
330
1B
100
AcDbEntity
 67
     1
  8
0
  6
Continuous
 62
     7
370
    25
100
AcDbLine
 10
-245.0
 20
279.75
 30
0.0
 11
-245.0
 21
286.75
 31
0.0
  0
LINE
  5
1E7
330
1B
100
AcDbEntity
 67
     1
  8
0
  6
Continuous
 62
     7
370
    25
100
AcDbLine
 10
-246.5
 20
279.75
 30
0.0
 11
-246.5
 21
286.75
 31
0.0
  0
LINE
  5
1E8
330
1B
100
AcDbEntity
 67
     1
  8
0
  6
Continuous
 62
     7
370
    25
100
AcDbLine
 10
-248.5
 20
288.75
 30
0.0
 11
-255.5
 21
288.75
 31
0.0
  0
LINE
  5
1E9
330
1B
100
AcDbEntity
 67
     1
  8
0
  6
Continuous
 62
     7
370
    25
100
AcDbLine
 10
-257.5
 20
286.75
 30
0.0
 11
-257.5
 21
279.75
 31
0.0
  0
LINE
  5
1EA
330
1B
100
AcDbEntity
 67
     1
  8
0
  6
Continuous
 62
     7
370
    25
100
AcDbLine
 10
-254.7
 20
277.75
 30
0.0
 11
-255.5
 21
277.75
 31
0.0
  0
LINE
  5
1EB
330
1B
100
AcDbEntity
 67
     1
  8
0
  6
Continuous
 62
     7
370
    25
100
AcDbLine
 10
-255.5
 20
276.25
 30
0.0
 11
-254.7
 21
276.25
 31
0.0
  0
LINE
  5
1EC
330
1B
100
AcDbEntity
 67
     1
  8
0
  6
Continuous
 62
     7
370
    25
100
AcDbLine
 10
-249.3
 20
277.75
 30
0.0
 11
-249.3
 21
276.25
 31
0.0
  0
LINE
  5
1ED
330
1B
100
AcDbEntity
 67
     1
  8
0
  6
Continuous
 62
     7
370
    25
100
AcDbLine
 10
-254.7
 20
276.25
 30
0.0
 11
-254.7
 21
277.75
 31
0.0
  0
LINE
  5
1EE
330
1B
100
AcDbEntity
 67
     1
  8
0
  6
Continuous
 62
     7
370
    25
100
AcDbLine
 10
-248.5
 20
276.25
 30
0.0
 11
-249.3
 21
276.25
 31
0.0
  0
LINE
  5
1EF
330
1B
100
AcDbEntity
 67
     1
  8
0
  6
Continuous
 62
     7
370
    25
100
AcDbLine
 10
-248.5
 20
277.75
 30
0.0
 11
-249.3
 21
277.75
 31
0.0
  0
LINE
  5
1F0
330
1B
100
AcDbEntity
 67
     1
  8
0
  6
Continuous
 62
     7
370
    25
100
AcDbLine
 10
-250.0
 20
292.0
 30
0.0
 11
-250.0
 21
290.25
 31
0.0
  0
LINE
  5
1F1
330
1B
100
AcDbEntity
 67
     1
  8
0
  6
Continuous
 62
     7
370
    25
100
AcDbLine
 10
-254.0
 20
290.25
 30
0.0
 11
-254.0
 21
292.0
 31
0.0
  0
LINE
  5
1F2
330
1B
100
AcDbEntity
 67
     1
  8
0
  6
Continuous
 62
     7
370
    25
100
AcDbLine
 10
60.0
 20
308.0
 30
0.0
 11
-60.0
 21
308.0
 31
0.0
  0
LINE
  5
1F3
330
1B
100
AcDbEntity
 67
     1
  8
0
  6
Continuous
 62
     7
370
    25
100
AcDbLine
 10
60.0
 20
292.0
 30
0.0
 11
-60.0
 21
292.0
 31
0.0
  0
LINE
  5
1F4
330
1B
100
AcDbEntity
 67
     1
  8
0
  6
Continuous
 62
     7
370
    25
100
AcDbLine
 10
244.0
 20
280.5
 30
0.0
 11
244.0
 21
359.0
 31
0.0
  0
LINE
  5
1F5
330
1B
100
AcDbEntity
 67
     1
  8
0
  6
Continuous
 62
     7
370
    25
100
AcDbLine
 10
260.0
 20
280.5
 30
0.0
 11
60.0
 21
280.5
 31
0.0
  0
LINE
  5
1F6
330
1B
100
AcDbEntity
 67
     1
  8
0
  6
Continuous
 62
     7
370
    25
100
AcDbLine
 10
260.0
 20
280.5
 30
0.0
 11
260.0
 21
359.0
 31
0.0
  0
LINE
  5
1F7
330
1B
100
AcDbEntity
 67
     1
  8
0
  6
Continuous
 62
     7
370
    25
100
AcDbLine
 10
-260.0
 20
292.0
 30
0.0
 11
-260.0
 21
370.5
 31
0.0
  0
LINE
  5
1F8
330
1B
100
AcDbEntity
 67
     1
  8
0
  6
Continuous
 62
     7
370
    25
100
AcDbLine
 10
-260.0
 20
370.5
 30
0.0
 11
-244.0
 21
370.5
 31
0.0
  0
LINE
  5
1F9
330
1B
100
AcDbEntity
 67
     1
  8
0
  6
Continuous
 62
     7
370
    25
100
AcDbLine
 10
-260.0
 20
292.0
 30
0.0
 11
-244.0
 21
292.0
 31
0.0
  0
LINE
  5
1FA
330
1B
100
AcDbEntity
 67
     1
  8
0
  6
Continuous
 62
     7
370
    25
100
AcDbLine
 10
-244.0
 20
280.5
 30
0.0
 11
-244.0
 21
370.5
 31
0.0
  0
LINE
  5
1FB
330
1B
100
AcDbEntity
 67
     1
  8
0
  6
Continuous
 62
     7
370
    25
100
AcDbLine
 10
260.0
 20
359.0
 30
0.0
 11
-244.0
 21
359.0
 31
0.0
  0
LINE
  5
1FC
330
1B
100
AcDbEntity
 67
     1
  8
0
  6
Continuous
 62
     7
370
    25
100
AcDbLine
 10
-60.0
 20
280.5
 30
0.0
 11
-60.0
 21
359.0
 31
0.0
  0
LINE
  5
1FD
330
1B
100
AcDbEntity
 67
     1
  8
0
  6
Continuous
 62
     7
370
    25
100
AcDbLine
 10
-60.0
 20
280.5
 30
0.0
 11
-244.0
 21
280.5
 31
0.0
  0
LINE
  5
1FE
330
1B
100
AcDbEntity
 67
     1
  8
0
  6
Continuous
 62
     7
370
    25
100
AcDbLine
 10
60.0
 20
280.5
 30
0.0
 11
60.0
 21
359.0
 31
0.0
  0
LINE
  5
1FF
330
1B
100
AcDbEntity
 67
     1
  8
0
  6
Continuous
 62
     7
370
    25
100
AcDbLine
 10
279.0
 20
18.0
 30
0.0
 11
-279.0
 21
18.0
 31
0.0
  0
LINE
  5
200
330
1B
100
AcDbEntity
 67
     1
  8
0
  6
Continuous
 62
     7
370
    25
100
AcDbLine
 10
-279.0
 20
0.0
 30
0.0
 11
279.0
 21
0.0
 31
0.0
  0
LINE
  5
201
330
1B
100
AcDbEntity
 67
     1
  8
0
  6
Continuous
 62
     7
370
    25
100
AcDbLine
 10
-279.0
 20
480.0
 30
0.0
 11
-279.0
 21
0.0
 31
0.0
  0
LINE
  5
202
330
1B
100
AcDbEntity
 67
     1
  8
0
  6
Continuous
 62
     7
370
    25
100
AcDbLine
 10
257.5
 20
280.5
 30
0.0
 11
257.5
 21
279.75
 31
0.0
  0
LINE
  5
203
330
1B
100
AcDbEntity
 67
     1
  8
0
  6
Continuous
 62
     7
370
    25
100
AcDbLine
 10
246.5
 20
279.75
 30
0.0
 11
246.5
 21
280.5
 31
0.0
  0
LINE
  5
204
330
1B
100
AcDbEntity
 67
     1
  8
0
  6
Continuous
 62
     7
370
    25
100
AcDbLine
 10
245.0
 20
279.75
 30
0.0
 11
245.0
 21
280.5
 31
0.0
  0
LINE
  5
205
330
1B
100
AcDbEntity
 67
     1
  8
0
  6
Continuous
 62
     7
370
    25
100
AcDbLine
 10
259.0
 20
279.75
 30
0.0
 11
259.0
 21
280.5
 31
0.0
  0
LINE
  5
206
330
1B
100
AcDbEntity
 67
     1
  8
0
  6
Continuous
 62
     7
370
    25
100
AcDbLine
 10
254.7
 20
277.75
 30
0.0
 11
255.5
 21
277.75
 31
0.0
  0
LINE
  5
207
330
1B
100
AcDbEntity
 67
     1
  8
0
  6
Continuous
 62
     7
370
    25
100
AcDbLine
 10
248.5
 20
277.75
 30
0.0
 11
249.3
 21
277.75
 31
0.0
  0
LINE
  5
208
330
1B
100
AcDbEntity
 67
     1
  8
0
  6
Continuous
 62
     7
370
    25
100
AcDbLine
 10
254.7
 20
276.25
 30
0.0
 11
254.7
 21
277.75
 31
0.0
  0
LINE
  5
209
330
1B
100
AcDbEntity
 67
     1
  8
0
  6
Continuous
 62
     7
370
    25
100
AcDbLine
 10
248.5
 20
276.25
 30
0.0
 11
249.3
 21
276.25
 31
0.0
  0
LINE
  5
20A
330
1B
100
AcDbEntity
 67
     1
  8
0
  6
Continuous
 62
     7
370
    25
100
AcDbLine
 10
249.3
 20
277.75
 30
0.0
 11
249.3
 21
276.25
 31
0.0
  0
LINE
  5
20B
330
1B
100
AcDbEntity
 67
     1
  8
0
  6
Continuous
 62
     7
370
    25
100
AcDbLine
 10
255.5
 20
276.25
 30
0.0
 11
254.7
 21
276.25
 31
0.0
  0
LINE
  5
20C
330
1B
100
AcDbEntity
 67
     1
  8
0
  6
Continuous
 62
     7
370
    25
100
AcDbLine
 10
-277.62
 20
305.4
 30
0.0
 11
-279.0
 21
305.4
 31
0.0
  0
LINE
  5
20D
330
1B
100
AcDbEntity
 67
     1
  8
0
  6
Continuous
 62
     7
370
    25
100
AcDbLine
 10
-277.62
 20
305.4
 30
0.0
 11
-277.62
 21
272.8
 31
0.0
  0
LINE
  5
20E
330
1B
100
AcDbEntity
 67
     1
  8
0
  6
Continuous
 62
     7
370
    25
100
AcDbLine
 10
-277.2
 20
272.38
 30
0.0
 11
-252.3
 21
272.38
 31
0.0
  0
LINE
  5
20F
330
1B
100
AcDbEntity
 67
     1
  8
0
  6
Continuous
 62
     7
370
    25
100
AcDbLine
 10
-251.88
 20
272.8
 30
0.0
 11
-251.88
 21
280.5
 31
0.0
  0
LINE
  5
210
330
1B
100
AcDbEntity
 67
     1
  8
0
  6
Continuous
 62
     7
370
    25
100
AcDbLine
 10
-251.7957396742
 20
280.5
 30
0.0
 11
-251.88
 21
280.5
 31
0.0
  0
LINE
  5
211
330
1B
100
AcDbEntity
 67
     1
  8
0
  6
Continuous
 62
     7
370
    25
100
AcDbLine
 10
-249.25
 20
283.4542603258
 30
0.0
 11
-249.25
 21
283.0457396742
 31
0.0
  0
LINE
  5
212
330
1B
100
AcDbEntity
 67
     1
  8
0
  6
Continuous
 62
     7
370
    25
100
AcDbLine
 10
-252.2042603258
 20
286.0
 30
0.0
 11
-251.7957396742
 21
286.0
 31
0.0
  0
LINE
  5
213
330
1B
100
AcDbEntity
 67
     1
  8
0
  6
Continuous
 62
     7
370
    25
100
AcDbLine
 10
-254.75
 20
283.0457396742
 30
0.0
 11
-254.75
 21
283.4542603258
 31
0.0
  0
LINE
  5
214
330
1B
100
AcDbEntity
 67
     1
  8
0
  6
Continuous
 62
     7
370
    25
100
AcDbLine
 10
-252.12
 20
280.5
 30
0.0
 11
-252.2042603258
 21
280.5
 31
0.0
  0
LINE
  5
215
330
1B
100
AcDbEntity
 67
     1
  8
0
  6
Continuous
 62
     7
370
    25
100
AcDbLine
 10
-252.12
 20
280.5
 30
0.0
 11
-252.12
 21
276.25
 31
0.0
  0
LINE
  5
216
330
1B
100
AcDbEntity
 67
     1
  8
0
  6
Continuous
 62
     7
370
    25
100
AcDbLine
 10
-256.25
 20
283.7604348142
 30
0.0
 11
-256.25
 21
282.7395651858
 31
0.0
  0
LINE
  5
217
330
1B
100
AcDbEntity
 67
     1
  8
0
  6
Continuous
 62
     7
370
    25
100
AcDbLine
 10
-251.4895651858
 20
287.5
 30
0.0
 11
-252.5104348142
 21
287.5
 31
0.0
  0
LINE
  5
218
330
1B
100
AcDbEntity
 67
     1
  8
0
  6
Continuous
 62
     7
370
    25
100
AcDbLine
 10
-248.0
 20
282.7080398915
 30
0.0
 11
-248.0
 21
283.7919601085
 31
0.0
  0
LINE
  5
219
330
1B
100
AcDbEntity
 67
     1
  8
0
  6
Continuous
 62
     7
370
    25
100
AcDbLine
 10
-250.5
 20
271.0
 30
0.0
 11
-277.2
 21
271.0
 31
0.0
  0
LINE
  5
21A
330
1B
100
AcDbEntity
 67
     1
  8
0
  6
Continuous
 62
     7
370
    25
100
AcDbLine
 10
-253.5
 20
276.25
 30
0.0
 11
-253.5
 21
279.75
 31
0.0
  0
LINE
  5
21B
330
1B
100
AcDbEntity
 67
     1
  8
0
  6
Continuous
 62
     7
370
    25
100
AcDbLine
 10
-253.5
 20
276.25
 30
0.0
 11
-252.12
 21
276.25
 31
0.0
  0
LINE
  5
21C
330
1B
100
AcDbEntity
 67
     1
  8
0
  6
Continuous
 62
     7
370
    25
100
AcDbLine
 10
-250.5
 20
279.75
 30
0.0
 11
-250.5
 21
266.0
 31
0.0
  0
LINE
  5
21D
330
1B
100
AcDbEntity
 67
     1
  8
0
  6
Continuous
 62
     7
370
    25
100
AcDbLine
 10
-243.54
 20
266.0
 30
0.0
 11
-268.14
 21
266.0
 31
0.0
  0
LINE
  5
21E
330
1B
100
AcDbEntity
 67
     1
  8
0
  6
Continuous
 62
     7
370
    25
100
AcDbLine
 10
-268.14
 20
271.0
 30
0.0
 11
-268.14
 21
266.0
 31
0.0
  0
LINE
  5
21F
330
1B
100
AcDbEntity
 67
     1
  8
0
  6
Continuous
 62
     7
370
    25
100
AcDbLine
 10
-243.54
 20
274.7
 30
0.0
 11
-250.5
 21
274.7
 31
0.0
  0
LINE
  5
220
330
1B
100
AcDbEntity
 67
     1
  8
0
  6
Continuous
 62
     7
370
    25
100
AcDbLine
 10
-243.54
 20
274.7
 30
0.0
 11
-243.54
 21
266.0
 31
0.0
  0
LINE
  5
221
330
1B
100
AcDbEntity
 67
     1
  8
0
  6
Continuous
 62
     7
370
    25
100
AcDbLine
 10
298.0
 20
479.0
 30
0.0
 11
279.0
 21
479.0
 31
0.0
  0
LINE
  5
222
330
1B
100
AcDbEntity
 67
     1
  8
0
  6
Continuous
 62
     7
370
    25
100
AcDbLine
 10
297.0
 20
0.0
 30
0.0
 11
297.0
 21
480.0
 31
0.0
  0
LINE
  5
223
330
1B
100
AcDbEntity
 67
     1
  8
0
  6
Continuous
 62
     7
370
    25
100
AcDbLine
 10
279.0
 20
1.0
 30
0.0
 11
298.0
 21
1.0
 31
0.0
  0
LINE
  5
224
330
1B
100
AcDbEntity
 67
     1
  8
0
  6
Continuous
 62
     7
370
    25
100
AcDbLine
 10
280.0
 20
480.0
 30
0.0
 11
280.0
 21
0.0
 31
0.0
  0
LINE
  5
225
330
1B
100
AcDbEntity
 67
     1
  8
0
  6
Continuous
 62
     7
370
    25
100
AcDbLine
 10
297.0
 20
0.0
 30
0.0
 11
280.0
 21
0.0
 31
0.0
  0
LINE
  5
226
330
1B
100
AcDbEntity
 67
     1
  8
0
  6
Continuous
 62
     7
370
    25
100
AcDbLine
 10
279.0
 20
0.0
 30
0.0
 11
279.0
 21
480.0
 31
0.0
  0
LINE
  5
227
330
1B
100
AcDbEntity
 67
     1
  8
0
  6
Continuous
 62
     7
370
    25
100
AcDbLine
 10
298.0
 20
479.0
 30
0.0
 11
298.0
 21
1.0
 31
0.0
  0
LINE
  5
228
330
1B
100
AcDbEntity
 67
     1
  8
0
  6
Continuous
 62
     7
370
    25
100
AcDbLine
 10
280.0
 20
480.0
 30
0.0
 11
297.0
 21
480.0
 31
0.0
  0
LINE
  5
229
330
1B
100
AcDbEntity
 67
     1
  8
0
  6
Continuous
 62
     7
370
    25
100
AcDbLine
 10
-279.0
 20
480.0
 30
0.0
 11
279.0
 21
480.0
 31
0.0
  0
LINE
  5
22A
330
1B
100
AcDbEntity
 67
     1
  8
0
  6
Continuous
 62
     7
370
    25
100
AcDbLine
 10
279.0
 20
410.0
 30
0.0
 11
-279.0
 21
410.0
 31
0.0
  0
LINE
  5
22B
330
1B
100
AcDbEntity
 67
     1
  8
0
  6
Continuous
 62
     7
370
    25
100
AcDbLine
 10
-279.0
 20
88.0
 30
0.0
 11
279.0
 21
88.0
 31
0.0
  0
LINE
  5
22C
330
1B
100
AcDbEntity
 67
     1
  8
0
  6
Continuous
 62
     7
370
    25
100
AcDbLine
 10
253.5
 20
276.25
 30
0.0
 11
253.5
 21
279.75
 31
0.0
  0
LINE
  5
22D
330
1B
100
AcDbEntity
 67
     1
  8
0
  6
Continuous
 62
     7
370
    25
100
AcDbLine
 10
252.12
 20
280.5
 30
0.0
 11
252.12
 21
276.25
 31
0.0
  0
LINE
  5
22E
330
1B
100
AcDbEntity
 67
     1
  8
0
  6
Continuous
 62
     7
370
    25
100
AcDbLine
 10
251.88
 20
272.8
 30
0.0
 11
251.88
 21
280.5
 31
0.0
  0
LINE
  5
22F
330
1B
100
AcDbEntity
 67
     1
  8
0
  6
Continuous
 62
     7
370
    25
100
AcDbLine
 10
277.2
 20
272.38
 30
0.0
 11
252.3
 21
272.38
 31
0.0
  0
LINE
  5
230
330
1B
100
AcDbEntity
 67
     1
  8
0
  6
Continuous
 62
     7
370
    25
100
AcDbLine
 10
277.62
 20
305.4
 30
0.0
 11
277.62
 21
272.8
 31
0.0
  0
LINE
  5
231
330
1B
100
AcDbEntity
 67
     1
  8
0
  6
Continuous
 62
     7
370
    25
100
AcDbLine
 10
277.62
 20
305.4
 30
0.0
 11
279.0
 21
305.4
 31
0.0
  0
LINE
  5
232
330
1B
100
AcDbEntity
 67
     1
  8
0
  6
Continuous
 62
     7
370
    25
100
AcDbLine
 10
250.5
 20
271.0
 30
0.0
 11
277.2
 21
271.0
 31
0.0
  0
LINE
  5
233
330
1B
100
AcDbEntity
 67
     1
  8
0
  6
Continuous
 62
     7
370
    25
100
AcDbLine
 10
253.5
 20
276.25
 30
0.0
 11
252.12
 21
276.25
 31
0.0
  0
LINE
  5
234
330
1B
100
AcDbEntity
 67
     1
  8
0
  6
Continuous
 62
     7
370
    25
100
AcDbLine
 10
268.14
 20
271.0
 30
0.0
 11
268.14
 21
266.0
 31
0.0
  0
LINE
  5
235
330
1B
100
AcDbEntity
 67
     1
  8
0
  6
Continuous
 62
     7
370
    25
100
AcDbLine
 10
243.54
 20
266.0
 30
0.0
 11
268.14
 21
266.0
 31
0.0
  0
LINE
  5
236
330
1B
100
AcDbEntity
 67
     1
  8
0
  6
Continuous
 62
     7
370
    25
100
AcDbLine
 10
250.5
 20
279.75
 30
0.0
 11
250.5
 21
266.0
 31
0.0
  0
LINE
  5
237
330
1B
100
AcDbEntity
 67
     1
  8
0
  6
Continuous
 62
     7
370
    25
100
AcDbLine
 10
243.54
 20
274.7
 30
0.0
 11
243.54
 21
266.0
 31
0.0
  0
LINE
  5
238
330
1B
100
AcDbEntity
 67
     1
  8
0
  6
Continuous
 62
     7
370
    25
100
AcDbLine
 10
243.54
 20
274.7
 30
0.0
 11
250.5
 21
274.7
 31
0.0
  0
LINE
  5
239
330
1B
100
AcDbEntity
 67
     1
  8
0
  6
Continuous
 62
     7
370
    25
100
AcDbLine
 10
60.0
 20
296.5
 30
0.0
 11
-60.0
 21
296.5
 31
0.0
  0
LINE
  5
23A
330
1B
100
AcDbEntity
 67
     1
  8
0
  6
Continuous
 62
     7
370
    25
100
AcDbLine
 10
279.0
 20
264.0
 30
0.0
 11
-279.0
 21
264.0
 31
0.0
  0
LINE
  5
23B
330
1B
100
AcDbEntity
 67
     1
  8
0
  6
Continuous
 62
     7
370
    25
100
AcDbLine
 10
-244.0
 20
176.0
 30
0.0
 11
-260.0
 21
176.0
 31
0.0
  0
LINE
  5
23C
330
1B
100
AcDbEntity
 67
     1
  8
0
  6
Continuous
 62
     7
370
    25
100
AcDbLine
 10
-260.0
 20
176.0
 30
0.0
 11
-260.0
 21
88.0
 31
0.0
  0
LINE
  5
23D
330
1B
100
AcDbEntity
 67
     1
  8
0
  6
Continuous
 62
     8
370
    25
100
AcDbLine
 10
279.0
 20
261.0
 30
0.0
 11
-279.0
 21
261.0
 31
0.0
  0
LINE
  5
23E
330
1B
100
AcDbEntity
 67
     1
  8
0
  6
Continuous
 62
     8
370
    25
100
AcDbLine
 10
-279.0
 20
265.0
 30
0.0
 11
279.0
 21
265.0
 31
0.0
  0
ARC
  5
23F
330
1B
100
AcDbEntity
 67
     1
  8
0
  6
Continuous
 62
     7
370
    25
100
AcDbCircle
 10
-297.0
 20
1.0
 30
0.0
 40
1.000000000000061
100
AcDbArc
 50
180.0
 51
270.0
  0
ARC
  5
240
330
1B
100
AcDbEntity
 67
     1
  8
0
  6
Continuous
 62
     7
370
    25
100
AcDbCircle
 10
-280.0
 20
1.0
 30
0.0
 40
1.000000000000114
100
AcDbArc
 50
270.0
 51
360.0
  0
ARC
  5
241
330
1B
100
AcDbEntity
 67
     1
  8
0
  6
Continuous
 62
     7
370
    25
100
AcDbCircle
 10
-280.0
 20
479.0
 30
0.0
 40
1.000000000000114
100
AcDbArc
 50
0.0
 51
90.0
  0
ARC
  5
242
330
1B
100
AcDbEntity
 67
     1
  8
0
  6
Continuous
 62
     7
370
    25
100
AcDbCircle
 10
-297.0
 20
479.0
 30
0.0
 40
1.000000000000171
100
AcDbArc
 50
90.0
 51
180.0
  0
ARC
  5
243
330
1B
100
AcDbEntity
 67
     1
  8
0
  6
Continuous
 62
     7
370
    25
100
AcDbCircle
 10
-255.5
 20
279.75
 30
0.0
 40
3.500000000000114
100
AcDbArc
 50
180.0
 51
270.0
  0
ARC
  5
244
330
1B
100
AcDbEntity
 67
     1
  8
0
  6
Continuous
 62
     7
370
    25
100
AcDbCircle
 10
-255.5
 20
286.75
 30
0.0
 40
3.500000000000114
100
AcDbArc
 50
90.0
 51
180.0
  0
ARC
  5
245
330
1B
100
AcDbEntity
 67
     1
  8
0
  6
Continuous
 62
     7
370
    25
100
AcDbCircle
 10
-248.5
 20
286.75
 30
0.0
 40
3.500000000000057
100
AcDbArc
 50
0.0
 51
90.0
  0
ARC
  5
246
330
1B
100
AcDbEntity
 67
     1
  8
0
  6
Continuous
 62
     7
370
    25
100
AcDbCircle
 10
-248.5
 20
279.75
 30
0.0
 40
3.500000000000114
100
AcDbArc
 50
270.0
 51
0.0
  0
ARC
  5
247
330
1B
100
AcDbEntity
 67
     1
  8
0
  6
Continuous
 62
     7
370
    25
100
AcDbCircle
 10
-248.5
 20
279.75
 30
0.0
 40
2.0
100
AcDbArc
 50
270.0
 51
0.0
  0
ARC
  5
248
330
1B
100
AcDbEntity
 67
     1
  8
0
  6
Continuous
 62
     7
370
    25
100
AcDbCircle
 10
-248.5
 20
286.75
 30
0.0
 40
1.999999999999886
100
AcDbArc
 50
360.0
 51
90.0
  0
ARC
  5
249
330
1B
100
AcDbEntity
 67
     1
  8
0
  6
Continuous
 62
     7
370
    25
100
AcDbCircle
 10
-255.5
 20
286.75
 30
0.0
 40
2.0
100
AcDbArc
 50
90.0
 51
180.0
  0
ARC
  5
24A
330
1B
100
AcDbEntity
 67
     1
  8
0
  6
Continuous
 62
     7
370
    25
100
AcDbCircle
 10
-255.5
 20
279.75
 30
0.0
 40
1.999999999999943
100
AcDbArc
 50
180.0
 51
270.0
  0
ARC
  5
24B
330
1B
100
AcDbEntity
 67
     1
  8
0
  6
Continuous
 62
     7
370
    25
100
AcDbCircle
 10
255.5
 20
279.75
 30
0.0
 40
2.0
100
AcDbArc
 50
270.0
 51
360.0
  0
ARC
  5
24C
330
1B
100
AcDbEntity
 67
     1
  8
0
  6
Continuous
 62
     7
370
    25
100
AcDbCircle
 10
248.5
 20
279.75
 30
0.0
 40
2.000000000000057
100
AcDbArc
 50
180.0
 51
270.0
  0
ARC
  5
24D
330
1B
100
AcDbEntity
 67
     1
  8
0
  6
Continuous
 62
     7
370
    25
100
AcDbCircle
 10
248.5
 20
279.75
 30
0.0
 40
3.500000000000085
100
AcDbArc
 50
180.0
 51
270.0
  0
ARC
  5
24E
330
1B
100
AcDbEntity
 67
     1
  8
0
  6
Continuous
 62
     7
370
    25
100
AcDbCircle
 10
255.5
 20
279.75
 30
0.0
 40
3.500000000000171
100
AcDbArc
 50
270.0
 51
360.0
  0
ARC
  5
24F
330
1B
100
AcDbEntity
 67
     1
  8
0
  6
Continuous
 62
     7
370
    25
100
AcDbCircle
 10
-277.2
 20
272.8
 30
0.0
 40
1.799999999999727
100
AcDbArc
 50
180.0
 51
270.0
  0
ARC
  5
250
330
1B
100
AcDbEntity
 67
     1
  8
0
  6
Continuous
 62
     7
370
    25
100
AcDbCircle
 10
-277.2
 20
272.8
 30
0.0
 40
0.420000000000698
100
AcDbArc
 50
180.0
 51
270.0
  0
ARC
  5
251
330
1B
100
AcDbEntity
 67
     1
  8
0
  6
Continuous
 62
     7
370
    25
100
AcDbCircle
 10
-252.3
 20
272.8
 30
0.0
 40
0.4200000000012665
100
AcDbArc
 50
270.0000000001
 51
359.9999999999
  0
ARC
  5
252
330
1B
100
AcDbEntity
 67
     1
  8
0
  6
Continuous
 62
     7
370
    25
100
AcDbCircle
 10
-248.5
 20
279.75
 30
0.0
 40
3.37999999999397
100
AcDbArc
 50
102.8202712195
 51
167.1797287805
  0
ARC
  5
253
330
1B
100
AcDbEntity
 67
     1
  8
0
  6
Continuous
 62
     7
370
    25
100
AcDbCircle
 10
-248.5
 20
286.75
 30
0.0
 40
3.379999999993153
100
AcDbArc
 50
192.8202712195
 51
257.1797287805
  0
ARC
  5
254
330
1B
100
AcDbEntity
 67
     1
  8
0
  6
Continuous
 62
     7
370
    25
100
AcDbCircle
 10
-255.5
 20
286.75
 30
0.0
 40
3.379999999993073
100
AcDbArc
 50
282.8202712195
 51
347.1797287805
  0
ARC
  5
255
330
1B
100
AcDbEntity
 67
     1
  8
0
  6
Continuous
 62
     7
370
    25
100
AcDbCircle
 10
-255.5
 20
279.75
 30
0.0
 40
3.379999999993585
100
AcDbArc
 50
12.8202712195
 51
77.1797287805
  0
ARC
  5
256
330
1B
100
AcDbEntity
 67
     1
  8
0
  6
Continuous
 62
     7
370
    25
100
AcDbCircle
 10
-255.5
 20
279.75
 30
0.0
 40
1.999999999999357
100
AcDbArc
 50
360.0
 51
85.2198074134
  0
ARC
  5
257
330
1B
100
AcDbEntity
 67
     1
  8
0
  6
Continuous
 62
     7
370
    25
100
AcDbCircle
 10
-255.25
 20
282.7395651858
 30
0.0
 40
0.9999999999999519
100
AcDbArc
 50
180.0
 51
265.2198096316
  0
ARC
  5
258
330
1B
100
AcDbEntity
 67
     1
  8
0
  6
Continuous
 62
     7
370
    25
100
AcDbCircle
 10
-255.25
 20
283.7604348142
 30
0.0
 40
1.000000000000028
100
AcDbArc
 50
94.7801904314
 51
180.0
  0
ARC
  5
259
330
1B
100
AcDbEntity
 67
     1
  8
0
  6
Continuous
 62
     7
370
    25
100
AcDbCircle
 10
-255.5
 20
286.75
 30
0.0
 40
2.000000000001103
100
AcDbArc
 50
274.7801925551
 51
355.2198081528
  0
ARC
  5
25A
330
1B
100
AcDbEntity
 67
     1
  8
0
  6
Continuous
 62
     7
370
    25
100
AcDbCircle
 10
-252.5104348142
 20
286.5
 30
0.0
 40
0.9999999999992042
100
AcDbArc
 50
90.0
 51
175.2198081528
  0
ARC
  5
25B
330
1B
100
AcDbEntity
 67
     1
  8
0
  6
Continuous
 62
     7
370
    25
100
AcDbCircle
 10
-251.4895651858
 20
286.5
 30
0.0
 40
0.9999999999999432
100
AcDbArc
 50
4.7801929766
 51
90.0
  0
ARC
  5
25C
330
1B
100
AcDbEntity
 67
     1
  8
0
  6
Continuous
 62
     7
370
    25
100
AcDbCircle
 10
-248.5
 20
286.75
 30
0.0
 40
2.000000000000632
100
AcDbArc
 50
184.7801912825
 51
260.4059317731
  0
ARC
  5
25D
330
1B
100
AcDbEntity
 67
     1
  8
0
  6
Continuous
 62
     7
370
    25
100
AcDbCircle
 10
-249.0
 20
283.7919601085
 30
0.0
 40
0.9999999999991473
100
AcDbArc
 50
360.0
 51
80.4059317732
  0
ARC
  5
25E
330
1B
100
AcDbEntity
 67
     1
  8
0
  6
Continuous
 62
     7
370
    25
100
AcDbCircle
 10
-249.0
 20
282.7080398915
 30
0.0
 40
0.9999999999994077
100
AcDbArc
 50
279.5940682269
 51
0.0
  0
ARC
  5
25F
330
1B
100
AcDbEntity
 67
     1
  8
0
  6
Continuous
 62
     7
370
    25
100
AcDbCircle
 10
-248.5
 20
279.75
 30
0.0
 40
2.000000000000427
100
AcDbArc
 50
99.5940682269
 51
180.0
  0
ARC
  5
260
330
1B
100
AcDbEntity
 67
     1
  8
0
  6
Continuous
 62
     7
370
    25
100
AcDbCircle
 10
-252.3
 20
272.8
 30
0.0
 40
1.799999999999443
100
AcDbArc
 50
270.0
 51
0.0
  0
ARC
  5
261
330
1B
100
AcDbEntity
 67
     1
  8
0
  6
Continuous
 62
     7
370
    25
100
AcDbCircle
 10
-247.04
 20
270.0
 30
0.0
 40
3.60000000000019
100
AcDbArc
 50
346.4637972626
 51
13.5362027374
  0
ARC
  5
262
330
1B
100
AcDbEntity
 67
     1
  8
0
  6
Continuous
 62
     7
370
    25
100
AcDbCircle
 10
280.0
 20
1.0
 30
0.0
 40
1.000000000000114
100
AcDbArc
 50
180.0
 51
270.0
  0
ARC
  5
263
330
1B
100
AcDbEntity
 67
     1
  8
0
  6
Continuous
 62
     7
370
    25
100
AcDbCircle
 10
297.0
 20
1.0
 30
0.0
 40
1.000000000000061
100
AcDbArc
 50
270.0
 51
360.0
  0
ARC
  5
264
330
1B
100
AcDbEntity
 67
     1
  8
0
  6
Continuous
 62
     7
370
    25
100
AcDbCircle
 10
280.0
 20
479.0
 30
0.0
 40
1.000000000000171
100
AcDbArc
 50
90.0
 51
180.0
  0
ARC
  5
265
330
1B
100
AcDbEntity
 67
     1
  8
0
  6
Continuous
 62
     7
370
    25
100
AcDbCircle
 10
297.0
 20
479.0
 30
0.0
 40
1.000000000000057
100
AcDbArc
 50
0.0
 51
90.0
  0
ARC
  5
266
330
1B
100
AcDbEntity
 67
     1
  8
0
  6
Continuous
 62
     7
370
    25
100
AcDbCircle
 10
252.3
 20
272.8
 30
0.0
 40
1.799999999999358
100
AcDbArc
 50
180.0
 51
270.0
  0
ARC
  5
267
330
1B
100
AcDbEntity
 67
     1
  8
0
  6
Continuous
 62
     7
370
    25
100
AcDbCircle
 10
248.5
 20
279.75
 30
0.0
 40
2.000000000000171
100
AcDbArc
 50
360.0
 51
22.024312837
  0
ARC
  5
268
330
1B
100
AcDbEntity
 67
     1
  8
0
  6
Continuous
 62
     7
370
    25
100
AcDbCircle
 10
255.5
 20
279.75
 30
0.0
 40
2.000000000005122
100
AcDbArc
 50
157.975687163
 51
180.0
  0
ARC
  5
269
330
1B
100
AcDbEntity
 67
     1
  8
0
  6
Continuous
 62
     7
370
    25
100
AcDbCircle
 10
252.3
 20
272.8
 30
0.0
 40
0.4200000000012665
100
AcDbArc
 50
180.0000000001
 51
269.9999999999
  0
ARC
  5
26A
330
1B
100
AcDbEntity
 67
     1
  8
0
  6
Continuous
 62
     7
370
    25
100
AcDbCircle
 10
277.2
 20
272.8
 30
0.0
 40
0.4200000000005275
100
AcDbArc
 50
270.0
 51
360.0
  0
ARC
  5
26B
330
1B
100
AcDbEntity
 67
     1
  8
0
  6
Continuous
 62
     7
370
    25
100
AcDbCircle
 10
277.2
 20
272.8
 30
0.0
 40
1.79999999999967
100
AcDbArc
 50
270.0
 51
0.0
  0
ARC
  5
26C
330
1B
100
AcDbEntity
 67
     1
  8
0
  6
Continuous
 62
     7
370
    25
100
AcDbCircle
 10
247.04
 20
270.0
 30
0.0
 40
3.60000000000135
100
AcDbArc
 50
166.4637972626
 51
193.5362027374
  0
VIEWPORT
  5
4EC
330
1B
100
AcDbEntity
 67
     1
  8
0
100
AcDbViewport
 10
0.0
 20
0.0
 30
0.0
 40
205.6
 41
156.0
 68
     1
 69
     1
 12
0.0
 22
240.0
 13
0.0
 23
0.0
 14
10.0
 24
10.0
 15
10.0
 25
10.0
 16
0.0
 26
0.0
 36
1.0
 17
0.0
 27
0.0
 37
0.0
 42
50.0
 43
0.0
 44
0.0
 45
489.6
 50
0.0
 51
0.0
 72
   100
 90
   557152
  1

281
     0
 71
     1
 74
     0
110
0.0
120
0.0
130
0.0
111
1.0
121
0.0
131
0.0
112
0.0
122
1.0
132
0.0
 79
     0
146
0.0
  0
ENDSEC
  0
SECTION
  2
OBJECTS
  0
DICTIONARY
  5
C
330
0
100
AcDbDictionary
281
     1
  3
ACAD_GROUP
350
D
  3
ACAD_LAYOUT
350
1A
  3
ACAD_MLINESTYLE
350
17
  3
ACAD_PLOTSETTINGS
350
19
  3
ACAD_PLOTSTYLENAME
350
E
  3
ACAD_SCALELIST
350
47
  0
DICTIONARY
  5
D
102
{ACAD_REACTORS
330
C
102
}
330
C
100
AcDbDictionary
281
     1
  0
DICTIONARY
  5
1A
102
{ACAD_REACTORS
330
C
102
}
330
C
100
AcDbDictionary
281
     1
  3
_Back
350
1E
  3
_Isometric
350
378
  3
_Left
350
26
  3
_Top
350
2D3
  3
Model
350
22
  0
DICTIONARY
  5
17
102
{ACAD_REACTORS
330
C
102
}
330
C
100
AcDbDictionary
281
     1
  3
Standard
350
18
  0
DICTIONARY
  5
19
102
{ACAD_REACTORS
330
C
102
}
330
C
100
AcDbDictionary
281
     1
  0
ACDBDICTIONARYWDFLT
  5
E
102
{ACAD_REACTORS
330
C
102
}
330
C
100
AcDbDictionary
281
     1
  3
Normal
350
F
100
AcDbDictionaryWithDefault
340
F
  0
DICTIONARY
  5
47
102
{ACAD_REACTORS
330
C
102
}
330
C
100
AcDbDictionary
281
     1
  3
A0
350
48
  3
A1
350
49
  3
A2
350
4A
  3
A3
350
4B
  3
A4
350
4C
  3
A5
350
4D
  3
A6
350
4E
  3
A7
350
4F
  3
A8
350
50
  3
A9
350
51
  3
B0
350
52
  3
B1
350
53
  3
B2
350
54
  3
B3
350
55
  3
B4
350
56
  3
B5
350
57
  3
B6
350
58
  3
B7
350
59
  3
B8
350
5A
  3
B9
350
5B
  3
C0
350
5C
  3
C1
350
5D
  3
C2
350
5E
  3
C3
350
5F
  3
C4
350
60
  3
C5
350
61
  3
C6
350
62
  3
C7
350
63
  3
C8
350
64
  3
C9
350
65
  3
D0
350
66
  3
D1
350
67
  3
D2
350
68
  0
LAYOUT
  5
1E
102
{ACAD_REACTORS
330
1A
102
}
330
1A
100
AcDbPlotSettings
  1

  2
none_device
  4
ISO_A4_(210.00_x_297.00_MM)
  6

 40
7.5
 41
20.0
 42
7.5
 43
20.0
 44
210.0
 45
297.0
 46
0.0
 47
0.0
 48
0.0
 49
0.0
140
0.0
141
0.0
142
1.0
143
2.4615384615
 70
   688
 72
     1
 73
     1
 74
     1
  7

 75
     0
147
0.40625
148
298.0
149
0.0
100
AcDbLayout
  1
_Back
 70
     1
 71
     1
 10
-347.2307692308
 20
-18.4615384615
 11
383.8461538462
 21
498.4615384615
 12
0.0
 22
0.0
 32
0.0
 14
-298.0
 24
0.0
 34
0.0
 15
298.0
 25
480.0
 35
0.0
146
0.0
 13
0.0
 23
0.0
 33
0.0
 16
1.0
 26
0.0
 36
0.0
 17
0.0
 27
1.0
 37
0.0
 76
     0
330
1B
331
4EC
  0
LAYOUT
  5
378
102
{ACAD_REACTORS
330
1A
102
}
330
1A
100
AcDbPlotSettings
  1

  2
none_device
  4
ISO_A4_(210.00_x_297.00_MM)
  6

 40
7.5
 41
20.0
 42
7.5
 43
20.0
 44
210.0
 45
297.0
 46
0.0
 47
0.0
 48
0.0
 49
0.0
140
0.0
141
0.0
142
1.0
143
2.4615384615
 70
   688
 72
     1
 73
     1
 74
     1
  7

 75
     0
147
0.40625
148
298.0
149
0.0
100
AcDbLayout
  1
_Isometric
 70
     1
 71
     4
 10
0.0
 20
0.0
 11
0.0
 21
0.0
 12
0.0
 22
0.0
 32
0.0
 14
0.0
 24
0.0
 34
0.0
 15
0.0
 25
0.0
 35
0.0
146
0.0
 13
0.0
 23
0.0
 33
0.0
 16
1.0
 26
0.0
 36
0.0
 17
0.0
 27
1.0
 37
0.0
 76
     0
330
377
331
4F2
  0
LAYOUT
  5
26
102
{ACAD_REACTORS
330
1A
102
}
330
1A
100
AcDbPlotSettings
  1

  2
none_device
  4
ISO_A4_(210.00_x_297.00_MM)
  6

 40
7.5
 41
20.0
 42
7.5
 43
20.0
 44
210.0
 45
297.0
 46
0.0
 47
0.0
 48
0.0
 49
0.0
140
0.0
141
0.0
142
1.0
143
2.4615384615
 70
   688
 72
     1
 73
     1
 74
     1
  7

 75
     0
147
0.40625
148
298.0
149
0.0
100
AcDbLayout
  1
_Left
 70
     1
 71
     2
 10
0.0
 20
0.0
 11
0.0
 21
0.0
 12
0.0
 22
0.0
 32
0.0
 14
0.0
 24
0.0
 34
0.0
 15
0.0
 25
0.0
 35
0.0
146
0.0
 13
0.0
 23
0.0
 33
0.0
 16
1.0
 26
0.0
 36
0.0
 17
0.0
 27
1.0
 37
0.0
 76
     0
330
23
331
4EE
  0
LAYOUT
  5
2D3
102
{ACAD_REACTORS
330
1A
102
}
330
1A
100
AcDbPlotSettings
  1

  2
none_device
  4
ISO_A4_(210.00_x_297.00_MM)
  6

 40
7.5
 41
20.0
 42
7.5
 43
20.0
 44
210.0
 45
297.0
 46
0.0
 47
0.0
 48
0.0
 49
0.0
140
0.0
141
0.0
142
1.0
143
2.4615384615
 70
   688
 72
     1
 73
     1
 74
     1
  7

 75
     0
147
0.40625
148
298.0
149
0.0
100
AcDbLayout
  1
_Top
 70
     1
 71
     3
 10
0.0
 20
0.0
 11
0.0
 21
0.0
 12
0.0
 22
0.0
 32
0.0
 14
0.0
 24
0.0
 34
0.0
 15
0.0
 25
0.0
 35
0.0
146
0.0
 13
0.0
 23
0.0
 33
0.0
 16
1.0
 26
0.0
 36
0.0
 17
0.0
 27
1.0
 37
0.0
 76
     0
330
2D2
331
4F0
  0
LAYOUT
  5
22
102
{ACAD_REACTORS
330
1A
102
}
330
1A
100
AcDbPlotSettings
  1

  2
none_device
  4
ANSI_A_(11.00_x_8.50_Inches)
  6

 40
6.35
 41
19.05
 42
6.35000508
 43
19.05000254
 44
279.4
 45
215.9
 46
133.34999746
 47
-17.97050127
 48
0.0
 49
0.0
140
0.0
141
0.0
142
0.01753125
143
1.0
 70
  1696
 72
     0
 73
     0
 74
     0
  7

 75
     0
147
0.0179189148
148
-1300.4909072572
149
0.0
100
AcDbLayout
  1
Model
 70
     1
 71
     0
 10
0.0
 20
0.0
 11
420.0
 21
297.0
 12
0.0
 22
0.0
 32
0.0
 14
-298.0
 24
0.0
 34
0.0
 15
298.0
 25
480.0
 35
0.0
146
0.0
 13
0.0
 23
0.0
 33
0.0
 16
1.0
 26
0.0
 36
0.0
 17
0.0
 27
1.0
 37
0.0
 76
     0
330
1F
331
29
  0
MLINESTYLE
  5
18
102
{ACAD_REACTORS
330
17
102
}
330
17
100
AcDbMlineStyle
  2
Standard
 70
     0
  3

 62
   256
 51
90.0
 52
90.0
 71
     2
 49
0.5
 62
   256
  6
BYLAYER
 49
-0.5
 62
   256
  6
BYLAYER
  0
ACDBPLACEHOLDER
  5
F
102
{ACAD_REACTORS
330
E
102
}
330
E
  0
SCALE
  5
48
102
{ACAD_REACTORS
330
47
102
}
330
47
100
AcDbScale
 70
     0
300
1:1
140
1.0
141
1.0
290
     1
  0
SCALE
  5
49
102
{ACAD_REACTORS
330
47
102
}
330
47
100
AcDbScale
 70
     0
300
1:2
140
1.0
141
2.0
290
     0
  0
SCALE
  5
4A
102
{ACAD_REACTORS
330
47
102
}
330
47
100
AcDbScale
 70
     0
300
1:4
140
1.0
141
4.0
290
     0
  0
SCALE
  5
4B
102
{ACAD_REACTORS
330
47
102
}
330
47
100
AcDbScale
 70
     0
300
1:5
140
1.0
141
5.0
290
     0
  0
SCALE
  5
4C
102
{ACAD_REACTORS
330
47
102
}
330
47
100
AcDbScale
 70
     0
300
1:8
140
1.0
141
8.0
290
     0
  0
SCALE
  5
4D
102
{ACAD_REACTORS
330
47
102
}
330
47
100
AcDbScale
 70
     0
300
1:10
140
1.0
141
10.0
290
     0
  0
SCALE
  5
4E
102
{ACAD_REACTORS
330
47
102
}
330
47
100
AcDbScale
 70
     0
300
1:16
140
1.0
141
16.0
290
     0
  0
SCALE
  5
4F
102
{ACAD_REACTORS
330
47
102
}
330
47
100
AcDbScale
 70
     0
300
1:20
140
1.0
141
20.0
290
     0
  0
SCALE
  5
50
102
{ACAD_REACTORS
330
47
102
}
330
47
100
AcDbScale
 70
     0
300
1:30
140
1.0
141
30.0
290
     0
  0
SCALE
  5
51
102
{ACAD_REACTORS
330
47
102
}
330
47
100
AcDbScale
 70
     0
300
1:40
140
1.0
141
40.0
290
     0
  0
SCALE
  5
52
102
{ACAD_REACTORS
330
47
102
}
330
47
100
AcDbScale
 70
     0
300
1:50
140
1.0
141
50.0
290
     0
  0
SCALE
  5
53
102
{ACAD_REACTORS
330
47
102
}
330
47
100
AcDbScale
 70
     0
300
1:100
140
1.0
141
100.0
290
     0
  0
SCALE
  5
54
102
{ACAD_REACTORS
330
47
102
}
330
47
100
AcDbScale
 70
     0
300
2:1
140
2.0
141
1.0
290
     0
  0
SCALE
  5
55
102
{ACAD_REACTORS
330
47
102
}
330
47
100
AcDbScale
 70
     0
300
4:1
140
4.0
141
1.0
290
     0
  0
SCALE
  5
56
102
{ACAD_REACTORS
330
47
102
}
330
47
100
AcDbScale
 70
     0
300
8:1
140
8.0
141
1.0
290
     0
  0
SCALE
  5
57
102
{ACAD_REACTORS
330
47
102
}
330
47
100
AcDbScale
 70
     0
300
10:1
140
10.0
141
1.0
290
     0
  0
SCALE
  5
58
102
{ACAD_REACTORS
330
47
102
}
330
47
100
AcDbScale
 70
     0
300
100:1
140
100.0
141
1.0
290
     0
  0
SCALE
  5
59
102
{ACAD_REACTORS
330
47
102
}
330
47
100
AcDbScale
 70
     0
300
1/128" = 1'-0"
140
0.0078125
141
12.0
290
     0
  0
SCALE
  5
5A
102
{ACAD_REACTORS
330
47
102
}
330
47
100
AcDbScale
 70
     0
300
1/64" = 1'-0"
140
0.015625
141
12.0
290
     0
  0
SCALE
  5
5B
102
{ACAD_REACTORS
330
47
102
}
330
47
100
AcDbScale
 70
     0
300
1/32" = 1'-0"
140
0.03125
141
12.0
290
     0
  0
SCALE
  5
5C
102
{ACAD_REACTORS
330
47
102
}
330
47
100
AcDbScale
 70
     0
300
1/16" = 1'-0"
140
0.0625
141
12.0
290
     0
  0
SCALE
  5
5D
102
{ACAD_REACTORS
330
47
102
}
330
47
100
AcDbScale
 70
     0
300
3/32" = 1'-0"
140
0.09375
141
12.0
290
     0
  0
SCALE
  5
5E
102
{ACAD_REACTORS
330
47
102
}
330
47
100
AcDbScale
 70
     0
300
1/8" = 1'-0"
140
0.125
141
12.0
290
     0
  0
SCALE
  5
5F
102
{ACAD_REACTORS
330
47
102
}
330
47
100
AcDbScale
 70
     0
300
3/16" = 1'-0"
140
0.1875
141
12.0
290
     0
  0
SCALE
  5
60
102
{ACAD_REACTORS
330
47
102
}
330
47
100
AcDbScale
 70
     0
300
1/4" = 1'-0"
140
0.25
141
12.0
290
     0
  0
SCALE
  5
61
102
{ACAD_REACTORS
330
47
102
}
330
47
100
AcDbScale
 70
     0
300
3/8" = 1'-0"
140
0.375
141
12.0
290
     0
  0
SCALE
  5
62
102
{ACAD_REACTORS
330
47
102
}
330
47
100
AcDbScale
 70
     0
300
1/2" = 1'-0"
140
0.5
141
12.0
290
     0
  0
SCALE
  5
63
102
{ACAD_REACTORS
330
47
102
}
330
47
100
AcDbScale
 70
     0
300
3/4" = 1'-0"
140
0.75
141
12.0
290
     0
  0
SCALE
  5
64
102
{ACAD_REACTORS
330
47
102
}
330
47
100
AcDbScale
 70
     0
300
1" = 1'-0"
140
1.0
141
12.0
290
     0
  0
SCALE
  5
65
102
{ACAD_REACTORS
330
47
102
}
330
47
100
AcDbScale
 70
     0
300
1-1/2" = 1'-0"
140
1.5
141
12.0
290
     0
  0
SCALE
  5
66
102
{ACAD_REACTORS
330
47
102
}
330
47
100
AcDbScale
 70
     0
300
3" = 1'-0"
140
3.0
141
12.0
290
     0
  0
SCALE
  5
67
102
{ACAD_REACTORS
330
47
102
}
330
47
100
AcDbScale
 70
     0
300
6" = 1'-0"
140
6.0
141
12.0
290
     0
  0
SCALE
  5
68
102
{ACAD_REACTORS
330
47
102
}
330
47
100
AcDbScale
 70
     0
300
1'-0" = 1'-0"
140
12.0
141
12.0
290
     0
  0
ENDSEC
  0
EOF
