  0
SECTION
  2
HEADER
  9
$ACADVER
  1
AC1015
  9
$ACADMAINTVER
 70
     6
  9
$DWGCODEPAGE
  3
ANSI_1252
  9
$INSBASE
 10
0.0
 20
0.0
 30
0.0
  9
$EXTMIN
 10
-251.0
 20
-398.0
 30
0.0
  9
$EXTMAX
 10
251.0
 20
441.0
 30
0.0
  9
$LIMMIN
 10
0.0
 20
0.0
  9
$LIMMAX
 10
420.0
 20
297.0
  9
$ORTHOMODE
 70
     0
  9
$REGENMODE
 70
     1
  9
$FILLMODE
 70
     1
  9
$QTEXTMODE
 70
     0
  9
$MIRRTEXT
 70
     1
  9
$LTSCALE
 40
1.0
  9
$ATTMODE
 70
     1
  9
$TEXTSIZE
 40
3.5
  9
$TRACEWID
 40
1.0
  9
$TEXTSTYLE
  7
Standard
  9
$CLAYER
  8
0
  9
$CELTYPE
  6
ByLayer
  9
$CECOLOR
 62
   256
  9
$CELTSCALE
 40
1.0
  9
$DISPSILH
 70
     0
  9
$DIMSCALE
 40
1.0
  9
$DIMASZ
 40
3.302
  9
$DIMEXO
 40
1.0
  9
$DIMDLI
 40
3.75
  9
$DIMRND
 40
0.0
  9
$DIMDLE
 40
0.0
  9
$DIMEXE
 40
1.0
  9
$DIMTP
 40
0.0
  9
$DIMTM
 40
0.0
  9
$DIMTXT
 40
3.5
  9
$DIMCEN
 40
2.5
  9
$DIMTSZ
 40
0.0
  9
$DIMTOL
 70
     0
  9
$DIMLIM
 70
     0
  9
$DIMTIH
 70
     1
  9
$DIMTOH
 70
     1
  9
$DIMSE1
 70
     0
  9
$DIMSE2
 70
     0
  9
$DIMTAD
 70
     1
  9
$DIMZIN
 70
     1
  9
$DIMBLK
  1

  9
$DIMASO
 70
     1
  9
$DIMSHO
 70
     1
  9
$DIMPOST
  1

  9
$DIMAPOST
  1

  9
$DIMALT
 70
     0
  9
$DIMALTD
 70
     3
  9
$DIMALTF
 40
0.0393700787
  9
$DIMLFAC
 40
1.0
  9
$DIMTOFL
 70
     1
  9
$DIMTVP
 40
0.0
  9
$DIMTIX
 70
     0
  9
$DIMSOXD
 70
     0
  9
$DIMSAH
 70
     0
  9
$DIMBLK1
  1

  9
$DIMBLK2
  1

  9
$DIMSTYLE
  2
ISO-25
  9
$DIMCLRD
 70
     0
  9
$DIMCLRE
 70
     0
  9
$DIMCLRT
 70
     0
  9
$DIMTFAC
 40
1.0
  9
$DIMGAP
 40
1.524
  9
$DIMJUST
 70
     0
  9
$DIMSD1
 70
     0
  9
$DIMSD2
 70
     0
  9
$DIMTOLJ
 70
     0
  9
$DIMTZIN
 70
     1
  9
$DIMALTZ
 70
     0
  9
$DIMALTTZ
 70
     0
  9
$DIMUPT
 70
     0
  9
$DIMDEC
 70
     2
  9
$DIMTDEC
 70
     2
  9
$DIMALTU
 70
     2
  9
$DIMALTTD
 70
     3
  9
$DIMTXSTY
  7
Standard
  9
$DIMAUNIT
 70
     0
  9
$DIMADEC
 70
     2
  9
$DIMALTRND
 40
0.0
  9
$DIMAZIN
 70
     0
  9
$DIMDSEP
 70
    44
  9
$DIMATFIT
 70
     3
  9
$DIMFRAC
 70
     0
  9
$DIMLDRBLK
  1

  9
$DIMLUNIT
 70
     2
  9
$DIMLWD
 70
    -2
  9
$DIMLWE
 70
    -2
  9
$DIMTMOVE
 70
     0
  9
$LUNITS
 70
     2
  9
$LUPREC
 70
     2
  9
$SKETCHINC
 40
1.0
  9
$FILLETRAD
 40
10.0
  9
$AUNITS
 70
     0
  9
$AUPREC
 70
     2
  9
$MENU
  1
.
  9
$ELEVATION
 40
0.0
  9
$PELEVATION
 40
0.0
  9
$THICKNESS
 40
0.0
  9
$LIMCHECK
 70
     0
  9
$CHAMFERA
 40
0.0
  9
$CHAMFERB
 40
0.0
  9
$CHAMFERC
 40
0.0
  9
$CHAMFERD
 40
0.0
  9
$SKPOLY
 70
     0
  9
$TDCREATE
 40
2458862.473903681
  9
$TDUCREATE
 40
2458862.473903681
  9
$TDUPDATE
 40
2458862.473935405
  9
$TDUUPDATE
 40
2458862.473935405
  9
$TDINDWG
 40
0.0000000116
  9
$TDUSRTIMER
 40
0.0000000116
  9
$USRTIMER
 70
     1
  9
$ANGBASE
 50
0.0
  9
$ANGDIR
 70
     0
  9
$PDMODE
 70
     0
  9
$PDSIZE
 40
-1.0
  9
$PLINEWID
 40
0.0
  9
$SPLFRAME
 70
     0
  9
$SPLINETYPE
 70
     6
  9
$SPLINESEGS
 70
     8
  9
$HANDSEED
  5
649
  9
$SURFTAB1
 70
     6
  9
$SURFTAB2
 70
     6
  9
$SURFTYPE
 70
     6
  9
$SURFU
 70
     6
  9
$SURFV
 70
     6
  9
$UCSBASE
  2

  9
$UCSNAME
  2

  9
$UCSORG
 10
0.0
 20
0.0
 30
0.0
  9
$UCSXDIR
 10
1.0
 20
0.0
 30
0.0
  9
$UCSYDIR
 10
0.0
 20
1.0
 30
0.0
  9
$UCSORTHOREF
  2

  9
$UCSORTHOVIEW
 70
     0
  9
$UCSORGTOP
 10
0.0
 20
0.0
 30
0.0
  9
$UCSORGBOTTOM
 10
0.0
 20
0.0
 30
0.0
  9
$UCSORGLEFT
 10
0.0
 20
0.0
 30
0.0
  9
$UCSORGRIGHT
 10
0.0
 20
0.0
 30
0.0
  9
$UCSORGFRONT
 10
0.0
 20
0.0
 30
0.0
  9
$UCSORGBACK
 10
0.0
 20
0.0
 30
0.0
  9
$PUCSBASE
  2

  9
$PUCSNAME
  2

  9
$PUCSORG
 10
0.0
 20
0.0
 30
0.0
  9
$PUCSXDIR
 10
1.0
 20
0.0
 30
0.0
  9
$PUCSYDIR
 10
0.0
 20
1.0
 30
0.0
  9
$PUCSORTHOREF
  2

  9
$PUCSORTHOVIEW
 70
     0
  9
$PUCSORGTOP
 10
0.0
 20
0.0
 30
0.0
  9
$PUCSORGBOTTOM
 10
0.0
 20
0.0
 30
0.0
  9
$PUCSORGLEFT
 10
0.0
 20
0.0
 30
0.0
  9
$PUCSORGRIGHT
 10
0.0
 20
0.0
 30
0.0
  9
$PUCSORGFRONT
 10
0.0
 20
0.0
 30
0.0
  9
$PUCSORGBACK
 10
0.0
 20
0.0
 30
0.0
  9
$USERI1
 70
     0
  9
$USERI2
 70
     0
  9
$USERI3
 70
     0
  9
$USERI4
 70
     0
  9
$USERI5
 70
     0
  9
$USERR1
 40
0.0
  9
$USERR2
 40
0.0
  9
$USERR3
 40
0.0
  9
$USERR4
 40
0.0
  9
$USERR5
 40
0.0
  9
$WORLDVIEW
 70
     1
  9
$SHADEDGE
 70
     3
  9
$SHADEDIF
 70
    70
  9
$TILEMODE
 70
     1
  9
$MAXACTVP
 70
    64
  9
$PINSBASE
 10
0.0
 20
0.0
 30
0.0
  9
$PLIMCHECK
 70
     0
  9
$PEXTMIN
 10
-251.0
 20
0.0
 30
0.0
  9
$PEXTMAX
 10
251.0
 20
200.0
 30
0.0
  9
$PLIMMIN
 10
-290.0661478599
 20
-14.6498054475
  9
$PLIMMAX
 10
290.0661478599
 20
395.5447470817
  9
$UNITMODE
 70
     0
  9
$VISRETAIN
 70
     1
  9
$PLINEGEN
 70
     0
  9
$PSLTSCALE
 70
     1
  9
$TREEDEPTH
 70
  3020
  9
$CMLSTYLE
  2
Standard
  9
$CMLJUST
 70
     0
  9
$CMLSCALE
 40
20.0
  9
$PROXYGRAPHICS
 70
     1
  9
$MEASUREMENT
 70
     1
  9
$CELWEIGHT
370
    -1
  9
$ENDCAPS
280
     0
  9
$JOINSTYLE
280
     0
  9
$LWDISPLAY
290
     1
  9
$INSUNITS
 70
     4
  9
$HYPERLINKBASE
  1

  9
$STYLESHEET
  1

  9
$XEDIT
290
     1
  9
$CEPSNTYPE
380
     0
  9
$PSTYLEMODE
290
     1
  9
$FINGERPRINTGUID
  2
{4887cb94-35da-4ff7-97d3-beffab2e3214}
  9
$VERSIONGUID
  2
{FAEB1C32-E019-11D5-929B-00C0DF256EC4}
  9
$EXTNAMES
290
     1
  9
$PSVPSCALE
 40
0.0
  9
$OLESTARTUP
290
     0
  0
ENDSEC
  0
SECTION
  2
CLASSES
  0
CLASS
  1
ACDBDICTIONARYWDFLT
  2
AcDbDictionaryWithDefault
  3
ObjectDBX Classes
 90
        0
280
     0
281
     0
  0
CLASS
  1
VISUALSTYLE
  2
AcDbVisualStyle
  3
ObjectDBX Classes
 90
     4095
280
     0
281
     0
  0
CLASS
  1
MATERIAL
  2
AcDbMaterial
  3
ObjectDBX Classes
 90
     1153
280
     0
281
     0
  0
CLASS
  1
SCALE
  2
AcDbScale
  3
ObjectDBX Classes
 90
     1153
280
     0
281
     0
  0
CLASS
  1
TABLESTYLE
  2
AcDbTableStyle
  3
ObjectDBX Classes
 90
     4095
280
     0
281
     0
  0
CLASS
  1
MLEADERSTYLE
  2
AcDbMLeaderStyle
  3
ACDB_MLEADERSTYLE_CLASS
 90
     4095
280
     0
281
     0
  0
CLASS
  1
SUN
  2
AcDbSun
  3
SCENEOE
 90
     1153
280
     0
281
     0
  0
CLASS
  1
ACDBPLACEHOLDER
  2
AcDbPlaceHolder
  3
ObjectDBX Classes
 90
        0
280
     0
281
     0
  0
CLASS
  1
LAYOUT
  2
AcDbLayout
  3
ObjectDBX Classes
 90
        0
280
     0
281
     0
  0
ENDSEC
  0
SECTION
  2
TABLES
  0
TABLE
  2
VPORT
  5
8
330
0
100
AcDbSymbolTable
 70
     1
  0
VPORT
  5
29
330
8
100
AcDbSymbolTableRecord
100
AcDbViewportTableRecord
  2
*Active
 70
     0
 10
0.0
 20
0.0
 11
1.0
 21
1.0
 12
0.0
 22
21.5
 13
0.0
 23
0.0
 14
10.0
 24
10.0
 15
10.0
 25
10.0
 16
0.0
 26
0.0
 36
1.0
 17
0.0
 27
0.0
 37
0.0
 40
855.78
 41
0.5983313468
 42
50.0
 43
0.0
 44
0.0
 50
0.0
 51
0.0
 71
     0
 72
   100
 73
     1
 74
     3
 75
     0
 76
     0
 77
     0
 78
     0
281
     0
 65
     1
110
0.0
120
0.0
130
0.0
111
1.0
121
0.0
131
0.0
112
0.0
122
1.0
132
0.0
 79
     0
146
0.0
  0
ENDTAB
  0
TABLE
  2
LTYPE
  5
5
330
0
100
AcDbSymbolTable
 70
     6
  0
LTYPE
  5
14
330
5
100
AcDbSymbolTableRecord
100
AcDbLinetypeTableRecord
  2
ByBlock
 70
     0
  3

 72
    65
 73
     0
 40
0.0
  0
LTYPE
  5
15
330
5
100
AcDbSymbolTableRecord
100
AcDbLinetypeTableRecord
  2
ByLayer
 70
     0
  3

 72
    65
 73
     0
 40
0.0
  0
LTYPE
  5
16
330
5
100
AcDbSymbolTableRecord
100
AcDbLinetypeTableRecord
  2
Continuous
 70
     0
  3
Solid line
 72
    65
 73
     0
 40
0.0
  0
LTYPE
  5
6E
330
5
100
AcDbSymbolTableRecord
100
AcDbLinetypeTableRecord
  2
HIDDEN
 70
     0
  3
Hidden __ __ __ __ __ __ __ __ __ __ __ __ __ __
 72
    65
 73
     2
 40
1.905
 49
1.27
 74
     0
 49
-0.635
 74
     0
  0
LTYPE
  5
6F
330
5
100
AcDbSymbolTableRecord
100
AcDbLinetypeTableRecord
  2
PHANTOM
 70
     0
  3
Phantom ______  __  __  ______  __  __  ______
 72
    65
 73
     6
 40
12.7
 49
6.35
 74
     0
 49
-1.27
 74
     0
 49
1.27
 74
     0
 49
-1.27
 74
     0
 49
1.27
 74
     0
 49
-1.27
 74
     0
  0
LTYPE
  5
70
330
5
100
AcDbSymbolTableRecord
100
AcDbLinetypeTableRecord
  2
CENTER
 70
     0
  3
Center ____ _ ____ _ ____ _ ____ _ ____ _ ____
 72
    65
 73
     4
 40
10.16
 49
6.35
 74
     0
 49
-1.27
 74
     0
 49
1.27
 74
     0
 49
-1.27
 74
     0
  0
LTYPE
  5
71
330
5
100
AcDbSymbolTableRecord
100
AcDbLinetypeTableRecord
  2
CENTERX2
 70
     0
  3
Center (2x) ________  __  ________  __  _____
 72
    65
 73
     4
 40
20.32
 49
12.7
 74
     0
 49
-2.54
 74
     0
 49
2.54
 74
     0
 49
-2.54
 74
     0
  0
LTYPE
  5
72
330
5
100
AcDbSymbolTableRecord
100
AcDbLinetypeTableRecord
  2
DOT2
 70
     0
  3
Dot (.5x) ........................................
 72
    65
 73
     2
 40
0.635
 49
0.0
 74
     0
 49
-0.635
 74
     0
  0
ENDTAB
  0
TABLE
  2
LAYER
  5
2
330
0
100
AcDbSymbolTable
 70
     1
  0
LAYER
  5
10
330
2
100
AcDbSymbolTableRecord
100
AcDbLayerTableRecord
  2
0
 70
     0
 62
     7
  6
Continuous
370
    -3
390
F
  0
ENDTAB
  0
TABLE
  2
STYLE
  5
3
330
0
100
AcDbSymbolTable
 70
     1
  0
STYLE
  5
11
330
3
100
AcDbSymbolTableRecord
100
AcDbTextStyleTableRecord
  2
Standard
 70
     0
 40
0.0
 41
1.0
 50
0.0
 71
     0
 42
3.5
  3
txt
  4

  0
ENDTAB
  0
TABLE
  2
VIEW
  5
6
330
0
100
AcDbSymbolTable
 70
     0
  0
ENDTAB
  0
TABLE
  2
UCS
  5
7
330
0
100
AcDbSymbolTable
 70
     0
  0
ENDTAB
  0
TABLE
  2
APPID
  5
9
330
0
100
AcDbSymbolTable
 70
     1
  0
APPID
  5
12
330
9
100
AcDbSymbolTableRecord
100
AcDbRegAppTableRecord
  2
ACAD
 70
     0
  0
ENDTAB
  0
TABLE
  2
DIMSTYLE
  5
A
330
0
100
AcDbSymbolTable
 70
     1
100
AcDbDimStyleTable
  0
DIMSTYLE
105
27
330
A
100
AcDbSymbolTableRecord
100
AcDbDimStyleTableRecord
  2
ISO-25
 70
     0
 41
2.5
 42
0.625
 43
3.75
 44
1.25
 73
     0
 74
     0
 77
     1
 78
     8
140
2.5
141
2.5
143
0.0393700787
147
0.625
171
     3
172
     1
178
     0
271
     2
272
     2
274
     3
278
    44
283
     0
284
     8
340
11
  0
ENDTAB
  0
TABLE
  2
BLOCK_RECORD
  5
1
330
0
100
AcDbSymbolTable
 70
     7
  0
BLOCK_RECORD
  5
1F
330
1
100
AcDbSymbolTableRecord
100
AcDbBlockTableRecord
  2
*Model_Space
340
22
  0
BLOCK_RECORD
  5
1B
330
1
100
AcDbSymbolTableRecord
100
AcDbBlockTableRecord
  2
*Paper_Space
340
1E
  0
BLOCK_RECORD
  5
23
330
1
100
AcDbSymbolTableRecord
100
AcDbBlockTableRecord
  2
*Paper_Space0
340
26
  0
BLOCK_RECORD
  5
1A3
330
1
100
AcDbSymbolTableRecord
100
AcDbBlockTableRecord
  2
*Paper_Space1
340
1A4
  0
BLOCK_RECORD
  5
1E1
330
1
100
AcDbSymbolTableRecord
100
AcDbBlockTableRecord
  2
*Paper_Space2
340
1E2
  0
BLOCK_RECORD
  5
264
330
1
100
AcDbSymbolTableRecord
100
AcDbBlockTableRecord
  2
*Paper_Space3
340
265
  0
BLOCK_RECORD
  5
298
330
1
100
AcDbSymbolTableRecord
100
AcDbBlockTableRecord
  2
*Paper_Space4
340
299
  0
BLOCK_RECORD
  5
3D8
330
1
100
AcDbSymbolTableRecord
100
AcDbBlockTableRecord
  2
*Paper_Space5
340
3D9
  0
BLOCK_RECORD
  5
511
330
1
100
AcDbSymbolTableRecord
100
AcDbBlockTableRecord
  2
*Paper_Space6
340
512
  0
ENDTAB
  0
ENDSEC
  0
SECTION
  2
BLOCKS
  0
BLOCK
  5
20
330
1F
100
AcDbEntity
  8
0
100
AcDbBlockBegin
  2
*Model_Space
 70
     0
 10
0.0
 20
0.0
 30
0.0
  3
*Model_Space
  1

  0
ENDBLK
  5
21
330
1F
100
AcDbEntity
  8
0
100
AcDbBlockEnd
  0
BLOCK
  5
1C
330
1B
100
AcDbEntity
 67
     1
  8
0
100
AcDbBlockBegin
  2
*Paper_Space
 70
     0
 10
0.0
 20
0.0
 30
0.0
  3
*Paper_Space
  1

  0
ENDBLK
  5
1D
330
1B
100
AcDbEntity
 67
     1
  8
0
100
AcDbBlockEnd
  0
BLOCK
  5
24
330
23
100
AcDbEntity
  8
0
100
AcDbBlockBegin
  2
*Paper_Space0
 70
     0
 10
0.0
 20
0.0
 30
0.0
  3
*Paper_Space0
  1

  0
LINE
  5
175
330
23
100
AcDbEntity
  8
0
  6
Continuous
 62
     7
370
    25
100
AcDbLine
 10
0.0
 20
-315.0
 30
0.0
 11
16.0
 21
-315.0
 31
0.0
  0
LINE
  5
176
330
23
100
AcDbEntity
  8
0
  6
Continuous
 62
     7
370
    25
100
AcDbLine
 10
15.0
 20
-316.0
 30
0.0
 11
15.0
 21
316.0
 31
0.0
  0
LINE
  5
177
330
23
100
AcDbEntity
  8
0
  6
Continuous
 62
     7
370
    25
100
AcDbLine
 10
16.0
 20
315.0
 30
0.0
 11
0.0
 21
315.0
 31
0.0
  0
LINE
  5
178
330
23
100
AcDbEntity
  8
0
  6
Continuous
 62
     7
370
    25
100
AcDbLine
 10
15.0
 20
-316.0
 30
0.0
 11
1.0
 21
-316.0
 31
0.0
  0
LINE
  5
179
330
23
100
AcDbEntity
  8
0
  6
Continuous
 62
     7
370
    25
100
AcDbLine
 10
1.0
 20
316.0
 30
0.0
 11
1.0
 21
-316.0
 31
0.0
  0
LINE
  5
17A
330
23
100
AcDbEntity
  8
0
  6
Continuous
 62
     7
370
    25
100
AcDbLine
 10
1.0
 20
316.0
 30
0.0
 11
15.0
 21
316.0
 31
0.0
  0
LINE
  5
17B
330
23
100
AcDbEntity
  8
0
  6
Continuous
 62
     7
370
    25
100
AcDbLine
 10
0.0
 20
-315.0
 30
0.0
 11
0.0
 21
315.0
 31
0.0
  0
LINE
  5
17C
330
23
100
AcDbEntity
  8
0
  6
Continuous
 62
     7
370
    25
100
AcDbLine
 10
15.0
 20
318.0
 30
0.0
 11
15.0
 21
416.0
 31
0.0
  0
LINE
  5
17D
330
23
100
AcDbEntity
  8
0
  6
Continuous
 62
     7
370
    25
100
AcDbLine
 10
0.0
 20
319.0
 30
0.0
 11
0.0
 21
415.0
 31
0.0
  0
LINE
  5
17E
330
23
100
AcDbEntity
  8
0
  6
Continuous
 62
     7
370
    25
100
AcDbLine
 10
16.0
 20
415.0
 30
0.0
 11
0.0
 21
415.0
 31
0.0
  0
LINE
  5
17F
330
23
100
AcDbEntity
  8
0
  6
Continuous
 62
     7
370
    25
100
AcDbLine
 10
0.0
 20
319.0
 30
0.0
 11
16.0
 21
319.0
 31
0.0
  0
LINE
  5
180
330
23
100
AcDbEntity
  8
0
  6
Continuous
 62
     7
370
    25
100
AcDbLine
 10
15.0
 20
318.0
 30
0.0
 11
1.0
 21
318.0
 31
0.0
  0
LINE
  5
181
330
23
100
AcDbEntity
  8
0
  6
Continuous
 62
     7
370
    25
100
AcDbLine
 10
0.0
 20
-397.0
 30
0.0
 11
16.0
 21
-397.0
 31
0.0
  0
LINE
  5
182
330
23
100
AcDbEntity
  8
0
  6
Continuous
 62
     7
370
    25
100
AcDbLine
 10
15.0
 20
-398.0
 30
0.0
 11
15.0
 21
-318.0
 31
0.0
  0
LINE
  5
183
330
23
100
AcDbEntity
  8
0
  6
Continuous
 62
     7
370
    25
100
AcDbLine
 10
16.0
 20
-319.0
 30
0.0
 11
0.0
 21
-319.0
 31
0.0
  0
LINE
  5
184
330
23
100
AcDbEntity
  8
0
  6
Continuous
 62
     7
370
    25
100
AcDbLine
 10
1.0
 20
-318.0
 30
0.0
 11
1.0
 21
-398.0
 31
0.0
  0
LINE
  5
185
330
23
100
AcDbEntity
  8
0
  6
Continuous
 62
     7
370
    25
100
AcDbLine
 10
15.0
 20
-398.0
 30
0.0
 11
1.0
 21
-398.0
 31
0.0
  0
LINE
  5
186
330
23
100
AcDbEntity
  8
0
  6
Continuous
 62
     7
370
    25
100
AcDbLine
 10
0.0
 20
-397.0
 30
0.0
 11
0.0
 21
-319.0
 31
0.0
  0
LINE
  5
187
330
23
100
AcDbEntity
  8
0
  6
Continuous
 62
     7
370
    25
100
AcDbLine
 10
1.0
 20
-318.0
 30
0.0
 11
15.0
 21
-318.0
 31
0.0
  0
LINE
  5
188
330
23
100
AcDbEntity
  8
0
  6
Continuous
 62
     7
370
    25
100
AcDbLine
 10
16.0
 20
416.0
 30
0.0
 11
16.0
 21
-398.0
 31
0.0
  0
LINE
  5
189
330
23
100
AcDbEntity
  8
0
  6
Continuous
 62
     7
370
    25
100
AcDbLine
 10
200.0
 20
-398.0
 30
0.0
 11
16.0
 21
-398.0
 31
0.0
  0
LINE
  5
18A
330
23
100
AcDbEntity
  8
0
  6
Continuous
 62
     7
370
    25
100
AcDbLine
 10
200.0
 20
416.0
 30
0.0
 11
1.0
 21
416.0
 31
0.0
  0
LINE
  5
18B
330
23
100
AcDbEntity
  8
0
  6
Continuous
 62
     7
370
    25
100
AcDbLine
 10
200.0
 20
416.0
 30
0.0
 11
200.0
 21
-398.0
 31
0.0
  0
LINE
  5
18C
330
23
100
AcDbEntity
  8
0
  6
Continuous
 62
     7
370
    25
100
AcDbLine
 10
0.0
 20
417.0
 30
0.0
 11
200.0
 21
417.0
 31
0.0
  0
LINE
  5
18D
330
23
100
AcDbEntity
  8
0
  6
Continuous
 62
     7
370
    25
100
AcDbLine
 10
199.0
 20
416.0
 30
0.0
 11
199.0
 21
441.0
 31
0.0
  0
LINE
  5
18E
330
23
100
AcDbEntity
  8
0
  6
Continuous
 62
     7
370
    25
100
AcDbLine
 10
200.0
 20
440.0
 30
0.0
 11
200.0
 21
417.0
 31
0.0
  0
LINE
  5
18F
330
23
100
AcDbEntity
  8
0
  6
Continuous
 62
     7
370
    25
100
AcDbLine
 10
1.0
 20
441.0
 30
0.0
 11
1.0
 21
318.0
 31
0.0
  0
LINE
  5
190
330
23
100
AcDbEntity
  8
0
  6
Continuous
 62
     7
370
    25
100
AcDbLine
 10
200.0
 20
440.0
 30
0.0
 11
0.0
 21
440.0
 31
0.0
  0
LINE
  5
191
330
23
100
AcDbEntity
  8
0
  6
Continuous
 62
     7
370
    25
100
AcDbLine
 10
0.0
 20
417.0
 30
0.0
 11
0.0
 21
440.0
 31
0.0
  0
LINE
  5
192
330
23
100
AcDbEntity
  8
0
  6
Continuous
 62
     7
370
    25
100
AcDbLine
 10
1.0
 20
441.0
 30
0.0
 11
199.0
 21
441.0
 31
0.0
  0
ARC
  5
193
330
23
100
AcDbEntity
  8
0
  6
Continuous
 62
     7
370
    25
100
AcDbCircle
 10
15.0
 20
-315.0
 30
0.0
 40
1.000000000000057
100
AcDbArc
 50
270.0
 51
360.0
  0
ARC
  5
194
330
23
100
AcDbEntity
  8
0
  6
Continuous
 62
     7
370
    25
100
AcDbCircle
 10
15.0
 20
315.0
 30
0.0
 40
1.000000000000057
100
AcDbArc
 50
0.0
 51
90.0
  0
ARC
  5
195
330
23
100
AcDbEntity
  8
0
  6
Continuous
 62
     7
370
    25
100
AcDbCircle
 10
1.0
 20
-315.0
 30
0.0
 40
1.000000000000057
100
AcDbArc
 50
180.0
 51
270.0
  0
ARC
  5
196
330
23
100
AcDbEntity
  8
0
  6
Continuous
 62
     7
370
    25
100
AcDbCircle
 10
1.0
 20
315.0
 30
0.0
 40
1.000000000000057
100
AcDbArc
 50
90.0
 51
180.0
  0
ARC
  5
197
330
23
100
AcDbEntity
  8
0
  6
Continuous
 62
     7
370
    25
100
AcDbCircle
 10
15.0
 20
319.0
 30
0.0
 40
1.000000000000057
100
AcDbArc
 50
270.0
 51
360.0
  0
ARC
  5
198
330
23
100
AcDbEntity
  8
0
  6
Continuous
 62
     7
370
    25
100
AcDbCircle
 10
1.0
 20
319.0
 30
0.0
 40
1.000000000000057
100
AcDbArc
 50
180.0
 51
270.0
  0
ARC
  5
199
330
23
100
AcDbEntity
  8
0
  6
Continuous
 62
     7
370
    25
100
AcDbCircle
 10
15.0
 20
415.0
 30
0.0
 40
1.000000000000057
100
AcDbArc
 50
0.0
 51
90.0
  0
ARC
  5
19A
330
23
100
AcDbEntity
  8
0
  6
Continuous
 62
     7
370
    25
100
AcDbCircle
 10
1.0
 20
415.0
 30
0.0
 40
1.000000000000057
100
AcDbArc
 50
90.0
 51
180.0
  0
ARC
  5
19B
330
23
100
AcDbEntity
  8
0
  6
Continuous
 62
     7
370
    25
100
AcDbCircle
 10
1.0
 20
-319.0
 30
0.0
 40
1.000000000000057
100
AcDbArc
 50
90.0
 51
180.0
  0
ARC
  5
19C
330
23
100
AcDbEntity
  8
0
  6
Continuous
 62
     7
370
    25
100
AcDbCircle
 10
15.0
 20
-397.0
 30
0.0
 40
0.9999999999999432
100
AcDbArc
 50
270.0
 51
0.0
  0
ARC
  5
19D
330
23
100
AcDbEntity
  8
0
  6
Continuous
 62
     7
370
    25
100
AcDbCircle
 10
1.0
 20
-397.0
 30
0.0
 40
0.9999999999999433
100
AcDbArc
 50
180.0
 51
270.0
  0
ARC
  5
19E
330
23
100
AcDbEntity
  8
0
  6
Continuous
 62
     7
370
    25
100
AcDbCircle
 10
15.0
 20
-319.0
 30
0.0
 40
1.000000000000057
100
AcDbArc
 50
0.0
 51
90.0
  0
ARC
  5
19F
330
23
100
AcDbEntity
  8
0
  6
Continuous
 62
     7
370
    25
100
AcDbCircle
 10
1.0
 20
440.0
 30
0.0
 40
1.000000000000057
100
AcDbArc
 50
90.0
 51
180.0
  0
ARC
  5
1A0
330
23
100
AcDbEntity
  8
0
  6
Continuous
 62
     7
370
    25
100
AcDbCircle
 10
199.0
 20
440.0
 30
0.0
 40
1.000000000000114
100
AcDbArc
 50
0.0
 51
90.0
  0
ARC
  5
1A1
330
23
100
AcDbEntity
  8
0
  6
Continuous
 62
     7
370
    25
100
AcDbCircle
 10
199.0
 20
417.0
 30
0.0
 40
0.9999999999999432
100
AcDbArc
 50
270.0
 51
0.0
  0
ARC
  5
1A2
330
23
100
AcDbEntity
  8
0
  6
Continuous
 62
     7
370
    25
100
AcDbCircle
 10
1.0
 20
417.0
 30
0.0
 40
0.9999999999999433
100
AcDbArc
 50
180.0
 51
270.0
  0
VIEWPORT
  5
63B
330
23
100
AcDbEntity
  8
0
100
AcDbViewport
 10
0.0
 20
0.0
 30
0.0
 40
205.6
 41
156.0
 68
     1
 69
     1
 12
0.0
 22
21.5
 13
0.0
 23
0.0
 14
10.0
 24
10.0
 15
10.0
 25
10.0
 16
0.0
 26
0.0
 36
1.0
 17
0.0
 27
0.0
 37
0.0
 42
50.0
 43
0.0
 44
0.0
 45
855.78
 50
0.0
 51
0.0
 72
   100
 90
   557152
  1

281
     0
 71
     1
 74
     0
110
0.0
120
0.0
130
0.0
111
1.0
121
0.0
131
0.0
112
0.0
122
1.0
132
0.0
 79
     0
146
0.0
  0
ENDBLK
  5
25
330
23
100
AcDbEntity
  8
0
100
AcDbBlockEnd
  0
BLOCK
  5
1A5
330
1A3
100
AcDbEntity
  8
0
100
AcDbBlockBegin
  2
*Paper_Space1
 70
     0
 10
0.0
 20
0.0
 30
0.0
  3
*Paper_Space1
  1

  0
LINE
  5
1CC
330
1A3
100
AcDbEntity
  8
0
  6
Continuous
 62
     7
370
    25
100
AcDbLine
 10
251.0
 20
-398.0
 30
0.0
 11
-251.0
 21
-398.0
 31
0.0
  0
LINE
  5
1CD
330
1A3
100
AcDbEntity
  8
0
  6
Continuous
 62
     7
370
    25
100
AcDbLine
 10
251.0
 20
416.0
 30
0.0
 11
251.0
 21
-398.0
 31
0.0
  0
LINE
  5
1CE
330
1A3
100
AcDbEntity
  8
0
  6
Continuous
 62
     7
370
    25
100
AcDbLine
 10
235.0
 20
416.0
 30
0.0
 11
235.0
 21
-398.0
 31
0.0
  0
LINE
  5
1CF
330
1A3
100
AcDbEntity
  8
0
  6
Continuous
 62
     7
370
    25
100
AcDbLine
 10
-251.0
 20
416.0
 30
0.0
 11
-251.0
 21
-398.0
 31
0.0
  0
LINE
  5
1D0
330
1A3
100
AcDbEntity
  8
0
  6
Continuous
 62
     7
370
    25
100
AcDbLine
 10
251.0
 20
416.0
 30
0.0
 11
-251.0
 21
416.0
 31
0.0
  0
LINE
  5
1D1
330
1A3
100
AcDbEntity
  8
0
  6
Continuous
 62
     7
370
    25
100
AcDbLine
 10
-235.0
 20
416.0
 30
0.0
 11
-235.0
 21
-398.0
 31
0.0
  0
LINE
  5
1D2
330
1A3
100
AcDbEntity
  8
0
  6
Continuous
 62
     7
370
    25
100
AcDbLine
 10
-250.0
 20
441.0
 30
0.0
 11
-250.0
 21
416.0
 31
0.0
  0
LINE
  5
1D3
330
1A3
100
AcDbEntity
  8
0
  6
Continuous
 62
     7
370
    25
100
AcDbLine
 10
-251.0
 20
417.0
 30
0.0
 11
251.0
 21
417.0
 31
0.0
  0
LINE
  5
1D4
330
1A3
100
AcDbEntity
  8
0
  6
Continuous
 62
     7
370
    25
100
AcDbLine
 10
-251.0
 20
417.0
 30
0.0
 11
-251.0
 21
440.0
 31
0.0
  0
LINE
  5
1D5
330
1A3
100
AcDbEntity
  8
0
  6
Continuous
 62
     7
370
    25
100
AcDbLine
 10
251.0
 20
440.0
 30
0.0
 11
-251.0
 21
440.0
 31
0.0
  0
LINE
  5
1D6
330
1A3
100
AcDbEntity
  8
0
  6
Continuous
 62
     7
370
    25
100
AcDbLine
 10
250.0
 20
416.0
 30
0.0
 11
250.0
 21
441.0
 31
0.0
  0
LINE
  5
1D7
330
1A3
100
AcDbEntity
  8
0
  6
Continuous
 62
     7
370
    25
100
AcDbLine
 10
-250.0
 20
441.0
 30
0.0
 11
250.0
 21
441.0
 31
0.0
  0
LINE
  5
1D8
330
1A3
100
AcDbEntity
  8
0
  6
Continuous
 62
     7
370
    25
100
AcDbLine
 10
251.0
 20
440.0
 30
0.0
 11
251.0
 21
417.0
 31
0.0
  0
LINE
  5
1D9
330
1A3
100
AcDbEntity
  8
0
  6
Continuous
 62
     7
370
    25
100
AcDbLine
 10
235.0
 20
296.0
 30
0.0
 11
-235.0
 21
296.0
 31
0.0
  0
LINE
  5
1DA
330
1A3
100
AcDbEntity
  8
0
  6
Continuous
 62
     7
370
    25
100
AcDbLine
 10
235.0
 20
-336.0
 30
0.0
 11
-235.0
 21
-336.0
 31
0.0
  0
LINE
  5
1DB
330
1A3
100
AcDbEntity
  8
0
  6
Continuous
 62
     7
370
    25
100
AcDbLine
 10
235.0
 20
54.0
 30
0.0
 11
-235.0
 21
54.0
 31
0.0
  0
LINE
  5
1DC
330
1A3
100
AcDbEntity
  8
0
  6
Continuous
 62
     8
370
    25
100
AcDbLine
 10
-235.0
 20
-397.0
 30
0.0
 11
235.0
 21
-397.0
 31
0.0
  0
ARC
  5
1DD
330
1A3
100
AcDbEntity
  8
0
  6
Continuous
 62
     7
370
    25
100
AcDbCircle
 10
-250.0
 20
440.0
 30
0.0
 40
1.000000000000114
100
AcDbArc
 50
90.0
 51
180.0
  0
ARC
  5
1DE
330
1A3
100
AcDbEntity
  8
0
  6
Continuous
 62
     7
370
    25
100
AcDbCircle
 10
250.0
 20
440.0
 30
0.0
 40
1.000000000000085
100
AcDbArc
 50
0.0
 51
90.0
  0
ARC
  5
1DF
330
1A3
100
AcDbEntity
  8
0
  6
Continuous
 62
     7
370
    25
100
AcDbCircle
 10
-250.0
 20
417.0
 30
0.0
 40
0.9999999999999432
100
AcDbArc
 50
180.0
 51
270.0
  0
ARC
  5
1E0
330
1A3
100
AcDbEntity
  8
0
  6
Continuous
 62
     7
370
    25
100
AcDbCircle
 10
250.0
 20
417.0
 30
0.0
 40
0.9999999999999432
100
AcDbArc
 50
270.0
 51
0.0
  0
VIEWPORT
  5
63D
330
1A3
100
AcDbEntity
  8
0
100
AcDbViewport
 10
0.0
 20
0.0
 30
0.0
 40
205.6
 41
156.0
 68
     1
 69
     1
 12
0.0
 22
21.5
 13
0.0
 23
0.0
 14
10.0
 24
10.0
 15
10.0
 25
10.0
 16
0.0
 26
0.0
 36
1.0
 17
0.0
 27
0.0
 37
0.0
 42
50.0
 43
0.0
 44
0.0
 45
855.78
 50
0.0
 51
0.0
 72
   100
 90
   557152
  1

281
     0
 71
     1
 74
     0
110
0.0
120
0.0
130
0.0
111
1.0
121
0.0
131
0.0
112
0.0
122
1.0
132
0.0
 79
     0
146
0.0
  0
ENDBLK
  5
1A6
330
1A3
100
AcDbEntity
  8
0
100
AcDbBlockEnd
  0
BLOCK
  5
1E3
330
1E1
100
AcDbEntity
  8
0
100
AcDbBlockBegin
  2
*Paper_Space2
 70
     0
 10
0.0
 20
0.0
 30
0.0
  3
*Paper_Space2
  1

  0
LINE
  5
236
330
1E1
100
AcDbEntity
  8
0
  6
Continuous
 62
     7
370
    25
100
AcDbLine
 10
-15.0
 20
316.0
 30
0.0
 11
-1.0
 21
316.0
 31
0.0
  0
LINE
  5
237
330
1E1
100
AcDbEntity
  8
0
  6
Continuous
 62
     7
370
    25
100
AcDbLine
 10
-1.0
 20
-316.0
 30
0.0
 11
-1.0
 21
316.0
 31
0.0
  0
LINE
  5
238
330
1E1
100
AcDbEntity
  8
0
  6
Continuous
 62
     7
370
    25
100
AcDbLine
 10
0.0
 20
315.0
 30
0.0
 11
-16.0
 21
315.0
 31
0.0
  0
LINE
  5
239
330
1E1
100
AcDbEntity
  8
0
  6
Continuous
 62
     7
370
    25
100
AcDbLine
 10
-15.0
 20
316.0
 30
0.0
 11
-15.0
 21
-316.0
 31
0.0
  0
LINE
  5
23A
330
1E1
100
AcDbEntity
  8
0
  6
Continuous
 62
     7
370
    25
100
AcDbLine
 10
-16.0
 20
-315.0
 30
0.0
 11
0.0
 21
-315.0
 31
0.0
  0
LINE
  5
23B
330
1E1
100
AcDbEntity
  8
0
  6
Continuous
 62
     7
370
    25
100
AcDbLine
 10
0.0
 20
315.0
 30
0.0
 11
0.0
 21
-315.0
 31
0.0
  0
LINE
  5
23C
330
1E1
100
AcDbEntity
  8
0
  6
Continuous
 62
     7
370
    25
100
AcDbLine
 10
-1.0
 20
-316.0
 30
0.0
 11
-15.0
 21
-316.0
 31
0.0
  0
LINE
  5
23D
330
1E1
100
AcDbEntity
  8
0
  6
Continuous
 62
     7
370
    25
100
AcDbLine
 10
-16.0
 20
319.0
 30
0.0
 11
0.0
 21
319.0
 31
0.0
  0
LINE
  5
23E
330
1E1
100
AcDbEntity
  8
0
  6
Continuous
 62
     7
370
    25
100
AcDbLine
 10
-1.0
 20
318.0
 30
0.0
 11
-15.0
 21
318.0
 31
0.0
  0
LINE
  5
23F
330
1E1
100
AcDbEntity
  8
0
  6
Continuous
 62
     7
370
    25
100
AcDbLine
 10
-15.0
 20
416.0
 30
0.0
 11
-15.0
 21
318.0
 31
0.0
  0
LINE
  5
240
330
1E1
100
AcDbEntity
  8
0
  6
Continuous
 62
     7
370
    25
100
AcDbLine
 10
0.0
 20
415.0
 30
0.0
 11
0.0
 21
319.0
 31
0.0
  0
LINE
  5
241
330
1E1
100
AcDbEntity
  8
0
  6
Continuous
 62
     7
370
    25
100
AcDbLine
 10
0.0
 20
415.0
 30
0.0
 11
-16.0
 21
415.0
 31
0.0
  0
LINE
  5
242
330
1E1
100
AcDbEntity
  8
0
  6
Continuous
 62
     7
370
    25
100
AcDbLine
 10
-16.0
 20
-397.0
 30
0.0
 11
0.0
 21
-397.0
 31
0.0
  0
LINE
  5
243
330
1E1
100
AcDbEntity
  8
0
  6
Continuous
 62
     7
370
    25
100
AcDbLine
 10
-1.0
 20
-398.0
 30
0.0
 11
-15.0
 21
-398.0
 31
0.0
  0
LINE
  5
244
330
1E1
100
AcDbEntity
  8
0
  6
Continuous
 62
     7
370
    25
100
AcDbLine
 10
-15.0
 20
-318.0
 30
0.0
 11
-15.0
 21
-398.0
 31
0.0
  0
LINE
  5
245
330
1E1
100
AcDbEntity
  8
0
  6
Continuous
 62
     7
370
    25
100
AcDbLine
 10
0.0
 20
-319.0
 30
0.0
 11
-16.0
 21
-319.0
 31
0.0
  0
LINE
  5
246
330
1E1
100
AcDbEntity
  8
0
  6
Continuous
 62
     7
370
    25
100
AcDbLine
 10
-1.0
 20
-398.0
 30
0.0
 11
-1.0
 21
-318.0
 31
0.0
  0
LINE
  5
247
330
1E1
100
AcDbEntity
  8
0
  6
Continuous
 62
     7
370
    25
100
AcDbLine
 10
-15.0
 20
-318.0
 30
0.0
 11
-1.0
 21
-318.0
 31
0.0
  0
LINE
  5
248
330
1E1
100
AcDbEntity
  8
0
  6
Continuous
 62
     7
370
    25
100
AcDbLine
 10
0.0
 20
-319.0
 30
0.0
 11
0.0
 21
-397.0
 31
0.0
  0
LINE
  5
249
330
1E1
100
AcDbEntity
  8
0
  6
Continuous
 62
     7
370
    25
100
AcDbLine
 10
-200.0
 20
416.0
 30
0.0
 11
-200.0
 21
-398.0
 31
0.0
  0
LINE
  5
24A
330
1E1
100
AcDbEntity
  8
0
  6
Continuous
 62
     7
370
    25
100
AcDbLine
 10
-1.0
 20
416.0
 30
0.0
 11
-200.0
 21
416.0
 31
0.0
  0
LINE
  5
24B
330
1E1
100
AcDbEntity
  8
0
  6
Continuous
 62
     7
370
    25
100
AcDbLine
 10
-16.0
 20
416.0
 30
0.0
 11
-16.0
 21
-398.0
 31
0.0
  0
LINE
  5
24C
330
1E1
100
AcDbEntity
  8
0
  6
Continuous
 62
     7
370
    25
100
AcDbLine
 10
-16.0
 20
-398.0
 30
0.0
 11
-200.0
 21
-398.0
 31
0.0
  0
LINE
  5
24D
330
1E1
100
AcDbEntity
  8
0
  6
Continuous
 62
     7
370
    25
100
AcDbLine
 10
0.0
 20
440.0
 30
0.0
 11
-200.0
 21
440.0
 31
0.0
  0
LINE
  5
24E
330
1E1
100
AcDbEntity
  8
0
  6
Continuous
 62
     7
370
    25
100
AcDbLine
 10
-199.0
 20
441.0
 30
0.0
 11
-199.0
 21
416.0
 31
0.0
  0
LINE
  5
24F
330
1E1
100
AcDbEntity
  8
0
  6
Continuous
 62
     7
370
    25
100
AcDbLine
 10
-199.0
 20
441.0
 30
0.0
 11
-1.0
 21
441.0
 31
0.0
  0
LINE
  5
250
330
1E1
100
AcDbEntity
  8
0
  6
Continuous
 62
     7
370
    25
100
AcDbLine
 10
-1.0
 20
318.0
 30
0.0
 11
-1.0
 21
441.0
 31
0.0
  0
LINE
  5
251
330
1E1
100
AcDbEntity
  8
0
  6
Continuous
 62
     7
370
    25
100
AcDbLine
 10
0.0
 20
440.0
 30
0.0
 11
0.0
 21
417.0
 31
0.0
  0
LINE
  5
252
330
1E1
100
AcDbEntity
  8
0
  6
Continuous
 62
     7
370
    25
100
AcDbLine
 10
-200.0
 20
417.0
 30
0.0
 11
0.0
 21
417.0
 31
0.0
  0
LINE
  5
253
330
1E1
100
AcDbEntity
  8
0
  6
Continuous
 62
     7
370
    25
100
AcDbLine
 10
-200.0
 20
417.0
 30
0.0
 11
-200.0
 21
440.0
 31
0.0
  0
ARC
  5
254
330
1E1
100
AcDbEntity
  8
0
  6
Continuous
 62
     7
370
    25
100
AcDbCircle
 10
-1.0
 20
-315.0
 30
0.0
 40
1.000000000000057
100
AcDbArc
 50
270.0
 51
360.0
  0
ARC
  5
255
330
1E1
100
AcDbEntity
  8
0
  6
Continuous
 62
     7
370
    25
100
AcDbCircle
 10
-1.0
 20
315.0
 30
0.0
 40
1.000000000000057
100
AcDbArc
 50
0.0
 51
90.0
  0
ARC
  5
256
330
1E1
100
AcDbEntity
  8
0
  6
Continuous
 62
     7
370
    25
100
AcDbCircle
 10
-15.0
 20
-315.0
 30
0.0
 40
1.000000000000057
100
AcDbArc
 50
180.0
 51
270.0
  0
ARC
  5
257
330
1E1
100
AcDbEntity
  8
0
  6
Continuous
 62
     7
370
    25
100
AcDbCircle
 10
-15.0
 20
315.0
 30
0.0
 40
1.000000000000057
100
AcDbArc
 50
90.0
 51
180.0
  0
ARC
  5
258
330
1E1
100
AcDbEntity
  8
0
  6
Continuous
 62
     7
370
    25
100
AcDbCircle
 10
-1.0
 20
319.0
 30
0.0
 40
1.000000000000057
100
AcDbArc
 50
270.0
 51
360.0
  0
ARC
  5
259
330
1E1
100
AcDbEntity
  8
0
  6
Continuous
 62
     7
370
    25
100
AcDbCircle
 10
-15.0
 20
319.0
 30
0.0
 40
1.000000000000057
100
AcDbArc
 50
180.0
 51
270.0
  0
ARC
  5
25A
330
1E1
100
AcDbEntity
  8
0
  6
Continuous
 62
     7
370
    25
100
AcDbCircle
 10
-15.0
 20
415.0
 30
0.0
 40
1.000000000000057
100
AcDbArc
 50
90.0
 51
180.0
  0
ARC
  5
25B
330
1E1
100
AcDbEntity
  8
0
  6
Continuous
 62
     7
370
    25
100
AcDbCircle
 10
-1.0
 20
415.0
 30
0.0
 40
1.000000000000057
100
AcDbArc
 50
0.0
 51
90.0
  0
ARC
  5
25C
330
1E1
100
AcDbEntity
  8
0
  6
Continuous
 62
     7
370
    25
100
AcDbCircle
 10
-1.0
 20
-397.0
 30
0.0
 40
0.9999999999999432
100
AcDbArc
 50
270.0
 51
0.0
  0
ARC
  5
25D
330
1E1
100
AcDbEntity
  8
0
  6
Continuous
 62
     7
370
    25
100
AcDbCircle
 10
-1.0
 20
-319.0
 30
0.0
 40
1.000000000000057
100
AcDbArc
 50
0.0
 51
90.0
  0
ARC
  5
25E
330
1E1
100
AcDbEntity
  8
0
  6
Continuous
 62
     7
370
    25
100
AcDbCircle
 10
-15.0
 20
-397.0
 30
0.0
 40
0.9999999999999432
100
AcDbArc
 50
180.0
 51
270.0
  0
ARC
  5
25F
330
1E1
100
AcDbEntity
  8
0
  6
Continuous
 62
     7
370
    25
100
AcDbCircle
 10
-15.0
 20
-319.0
 30
0.0
 40
1.000000000000057
100
AcDbArc
 50
90.0
 51
180.0
  0
ARC
  5
260
330
1E1
100
AcDbEntity
  8
0
  6
Continuous
 62
     7
370
    25
100
AcDbCircle
 10
-199.0
 20
440.0
 30
0.0
 40
1.000000000000114
100
AcDbArc
 50
90.0
 51
180.0
  0
ARC
  5
261
330
1E1
100
AcDbEntity
  8
0
  6
Continuous
 62
     7
370
    25
100
AcDbCircle
 10
-199.0
 20
417.0
 30
0.0
 40
0.9999999999999432
100
AcDbArc
 50
180.0
 51
270.0
  0
ARC
  5
262
330
1E1
100
AcDbEntity
  8
0
  6
Continuous
 62
     7
370
    25
100
AcDbCircle
 10
-1.0
 20
440.0
 30
0.0
 40
1.000000000000057
100
AcDbArc
 50
0.0
 51
90.0
  0
ARC
  5
263
330
1E1
100
AcDbEntity
  8
0
  6
Continuous
 62
     7
370
    25
100
AcDbCircle
 10
-1.0
 20
417.0
 30
0.0
 40
0.9999999999999433
100
AcDbArc
 50
270.0
 51
0.0
  0
VIEWPORT
  5
63F
330
1E1
100
AcDbEntity
  8
0
100
AcDbViewport
 10
0.0
 20
0.0
 30
0.0
 40
205.6
 41
156.0
 68
     1
 69
     1
 12
0.0
 22
21.5
 13
0.0
 23
0.0
 14
10.0
 24
10.0
 15
10.0
 25
10.0
 16
0.0
 26
0.0
 36
1.0
 17
0.0
 27
0.0
 37
0.0
 42
50.0
 43
0.0
 44
0.0
 45
855.78
 50
0.0
 51
0.0
 72
   100
 90
   557152
  1

281
     0
 71
     1
 74
     0
110
0.0
120
0.0
130
0.0
111
1.0
121
0.0
131
0.0
112
0.0
122
1.0
132
0.0
 79
     0
146
0.0
  0
ENDBLK
  5
1E4
330
1E1
100
AcDbEntity
  8
0
100
AcDbBlockEnd
  0
BLOCK
  5
266
330
264
100
AcDbEntity
  8
0
100
AcDbBlockBegin
  2
*Paper_Space3
 70
     0
 10
0.0
 20
0.0
 30
0.0
  3
*Paper_Space3
  1

  0
LINE
  5
288
330
264
100
AcDbEntity
  8
0
  6
Continuous
 62
     7
370
    25
100
AcDbLine
 10
-251.0
 20
-15.0
 30
0.0
 11
251.0
 21
-15.0
 31
0.0
  0
LINE
  5
289
330
264
100
AcDbEntity
  8
0
  6
Continuous
 62
     7
370
    25
100
AcDbLine
 10
251.0
 20
-16.0
 30
0.0
 11
-251.0
 21
-16.0
 31
0.0
  0
LINE
  5
28A
330
264
100
AcDbEntity
  8
0
  6
Continuous
 62
     7
370
    25
100
AcDbLine
 10
-250.0
 20
0.0
 30
0.0
 11
-250.0
 21
-16.0
 31
0.0
  0
LINE
  5
28B
330
264
100
AcDbEntity
  8
0
  6
Continuous
 62
     7
370
    25
100
AcDbLine
 10
250.0
 20
-16.0
 30
0.0
 11
250.0
 21
0.0
 31
0.0
  0
LINE
  5
28C
330
264
100
AcDbEntity
  8
0
  6
Continuous
 62
     7
370
    25
100
AcDbLine
 10
251.0
 20
-1.0
 30
0.0
 11
-251.0
 21
-1.0
 31
0.0
  0
LINE
  5
28D
330
264
100
AcDbEntity
  8
0
  6
Continuous
 62
     7
370
    25
100
AcDbLine
 10
-250.0
 20
0.0
 30
0.0
 11
250.0
 21
0.0
 31
0.0
  0
LINE
  5
28E
330
264
100
AcDbEntity
  8
0
  6
Continuous
 62
     7
370
    25
100
AcDbLine
 10
-251.0
 20
-1.0
 30
0.0
 11
-251.0
 21
-200.0
 31
0.0
  0
LINE
  5
28F
330
264
100
AcDbEntity
  8
0
  6
Continuous
 62
     7
370
    25
100
AcDbLine
 10
-235.0
 20
-200.0
 30
0.0
 11
-235.0
 21
-16.0
 31
0.0
  0
LINE
  5
290
330
264
100
AcDbEntity
  8
0
  6
Continuous
 62
     7
370
    25
100
AcDbLine
 10
235.0
 20
-16.0
 30
0.0
 11
235.0
 21
-200.0
 31
0.0
  0
LINE
  5
291
330
264
100
AcDbEntity
  8
0
  6
Continuous
 62
     7
370
    25
100
AcDbLine
 10
-251.0
 20
-200.0
 30
0.0
 11
251.0
 21
-200.0
 31
0.0
  0
LINE
  5
292
330
264
100
AcDbEntity
  8
0
  6
Continuous
 62
     7
370
    25
100
AcDbLine
 10
251.0
 20
-200.0
 30
0.0
 11
251.0
 21
-1.0
 31
0.0
  0
LINE
  5
293
330
264
100
AcDbEntity
  8
0
  6
Continuous
 62
     7
370
    25
100
AcDbLine
 10
-235.0
 20
-184.0
 30
0.0
 11
235.0
 21
-184.0
 31
0.0
  0
ARC
  5
294
330
264
100
AcDbEntity
  8
0
  6
Continuous
 62
     7
370
    25
100
AcDbCircle
 10
-250.0
 20
-15.0
 30
0.0
 40
1.000000000000002
100
AcDbArc
 50
180.0
 51
270.0
  0
ARC
  5
295
330
264
100
AcDbEntity
  8
0
  6
Continuous
 62
     7
370
    25
100
AcDbCircle
 10
250.0
 20
-15.0
 30
0.0
 40
1.0
100
AcDbArc
 50
270.0
 51
0.0
  0
ARC
  5
296
330
264
100
AcDbEntity
  8
0
  6
Continuous
 62
     7
370
    25
100
AcDbCircle
 10
250.0
 20
-1.0
 30
0.0
 40
1.0
100
AcDbArc
 50
0.0
 51
90.0
  0
ARC
  5
297
330
264
100
AcDbEntity
  8
0
  6
Continuous
 62
     7
370
    25
100
AcDbCircle
 10
-250.0
 20
-1.0
 30
0.0
 40
1.0
100
AcDbArc
 50
90.0
 51
180.0
  0
VIEWPORT
  5
641
330
264
100
AcDbEntity
  8
0
100
AcDbViewport
 10
0.0
 20
0.0
 30
0.0
 40
205.6
 41
156.0
 68
     1
 69
     1
 12
0.0
 22
21.5
 13
0.0
 23
0.0
 14
10.0
 24
10.0
 15
10.0
 25
10.0
 16
0.0
 26
0.0
 36
1.0
 17
0.0
 27
0.0
 37
0.0
 42
50.0
 43
0.0
 44
0.0
 45
855.78
 50
0.0
 51
0.0
 72
   100
 90
   557152
  1

281
     0
 71
     1
 74
     0
110
0.0
120
0.0
130
0.0
111
1.0
121
0.0
131
0.0
112
0.0
122
1.0
132
0.0
 79
     0
146
0.0
  0
ENDBLK
  5
267
330
264
100
AcDbEntity
  8
0
100
AcDbBlockEnd
  0
BLOCK
  5
29A
330
298
100
AcDbEntity
  8
0
100
AcDbBlockBegin
  2
*Paper_Space4
 70
     0
 10
0.0
 20
0.0
 30
0.0
  3
*Paper_Space4
  1

  0
LINE
  5
33A
330
298
100
AcDbEntity
  8
0
  6
Continuous
 62
     7
370
    25
100
AcDbLine
 10
188.3832970144
 20
-353.1383088832
 30
0.0
 11
188.3832970144
 21
161.2824026048
 31
0.0
  0
LINE
  5
33B
330
298
100
AcDbEntity
  8
0
  6
Continuous
 62
     7
370
    25
100
AcDbLine
 10
187.8832563808
 20
162.1484514672
 30
0.0
 11
186.5545727013
 21
162.9154842286
 31
0.0
  0
LINE
  5
33C
330
298
100
AcDbEntity
  8
0
  6
Continuous
 62
     7
370
    25
100
AcDbLine
 10
-177.0695885155
 20
359.6695737778
 30
0.0
 11
-177.0695885155
 21
-154.7511377103
 31
0.0
  0
LINE
  5
33D
330
298
100
AcDbEntity
  8
0
  6
Continuous
 62
     7
370
    25
100
AcDbLine
 10
-175.2408642023
 20
361.3026554015
 30
0.0
 11
-176.5695478818
 21
360.5356226401
 31
0.0
  0
LINE
  5
33E
330
298
100
AcDbEntity
  8
0
  6
Continuous
 62
     7
370
    25
100
AcDbLine
 10
177.9837614441
 20
-359.7192145283
 30
0.0
 11
187.8832563808
 21
-354.0043577456
 31
0.0
  0
LINE
  5
33F
330
298
100
AcDbEntity
  8
0
  6
Continuous
 62
     7
370
    25
100
AcDbLine
 10
-176.5695478818
 20
-155.6171865726
 30
0.0
 11
176.9838427115
 21
-359.7192145283
 31
0.0
  0
LINE
  5
340
330
298
100
AcDbEntity
  8
0
  6
Continuous
 62
     7
370
    25
100
AcDbLine
 10
188.3832970144
 20
164.5485658524
 30
0.0
 11
188.3832970144
 21
242.9364837934
 31
0.0
  0
LINE
  5
341
330
298
100
AcDbEntity
  8
0
  6
Continuous
 62
     7
370
    25
100
AcDbLine
 10
-176.5695478818
 20
362.0696881629
 30
0.0
 11
176.9838427115
 21
157.9676602072
 31
0.0
  0
LINE
  5
342
330
298
100
AcDbEntity
  8
0
  6
Continuous
 62
     7
370
    25
100
AcDbLine
 10
177.9837614441
 20
157.9676602072
 30
0.0
 11
187.8832563808
 21
163.68251699
 31
0.0
  0
LINE
  5
343
330
298
100
AcDbEntity
  8
0
  6
Continuous
 62
     7
370
    25
100
AcDbLine
 10
-177.0695885155
 20
441.3236549663
 30
0.0
 11
-177.0695885155
 21
362.9357370253
 31
0.0
  0
LINE
  5
344
330
298
100
AcDbEntity
  8
0
  6
Continuous
 62
     7
370
    25
100
AcDbLine
 10
188.3832970144
 20
-420.0946554578
 30
0.0
 11
188.3832970144
 21
-356.4044721307
 31
0.0
  0
LINE
  5
345
330
298
100
AcDbEntity
  8
0
  6
Continuous
 62
     7
370
    25
100
AcDbLine
 10
187.8832563808
 20
-355.5384232683
 30
0.0
 11
186.5545727013
 21
-354.771390507
 31
0.0
  0
LINE
  5
346
330
298
100
AcDbEntity
  8
0
  6
Continuous
 62
     7
370
    25
100
AcDbLine
 10
177.9837614441
 20
-426.675561103
 30
0.0
 11
187.8832563808
 21
-420.9607043202
 31
0.0
  0
LINE
  5
347
330
298
100
AcDbEntity
  8
0
  6
Continuous
 62
     7
370
    25
100
AcDbLine
 10
-176.5695478818
 20
-222.5735331473
 30
0.0
 11
176.9838427115
 21
-426.675561103
 31
0.0
  0
LINE
  5
348
330
298
100
AcDbEntity
  8
0
  6
Continuous
 62
     7
370
    25
100
AcDbLine
 10
-177.0695885155
 20
-158.0173009578
 30
0.0
 11
-177.0695885155
 21
-221.7074842849
 31
0.0
  0
LINE
  5
349
330
298
100
AcDbEntity
  8
0
  6
Continuous
 62
     7
370
    25
100
AcDbLine
 10
-175.2408642023
 20
-156.384219334
 30
0.0
 11
-176.5695478818
 21
-157.1512520954
 31
0.0
  0
LINE
  5
34A
330
298
100
AcDbEntity
  8
0
  6
Continuous
 62
     7
370
    25
100
AcDbLine
 10
-176.5695478818
 20
442.0906877277
 30
0.0
 11
176.9838427115
 21
237.988659772
 31
0.0
  0
LINE
  5
34B
330
298
100
AcDbEntity
  8
0
  6
Continuous
 62
     7
370
    25
100
AcDbLine
 10
177.9837614441
 20
237.988659772
 30
0.0
 11
317.9909041191
 21
318.8130628425
 31
0.0
  0
LINE
  5
34C
330
298
100
AcDbEntity
  8
0
  6
Continuous
 62
     7
370
    25
100
AcDbLine
 10
318.4909447528
 20
319.6791117049
 30
0.0
 11
318.4909447528
 21
338.4595503783
 31
0.0
  0
LINE
  5
34D
330
298
100
AcDbEntity
  8
0
  6
Continuous
 62
     7
370
    25
100
AcDbLine
 10
317.9909041191
 20
339.3255992406
 30
0.0
 11
-35.5624864742
 21
543.4276271963
 31
0.0
  0
LINE
  5
34E
330
298
100
AcDbEntity
  8
0
  6
Continuous
 62
     7
370
    25
100
AcDbLine
 10
-177.0695885155
 20
461.7371752635
 30
0.0
 11
-177.0695885155
 21
442.9567365901
 31
0.0
  0
LINE
  5
34F
330
298
100
AcDbEntity
  8
0
  6
Continuous
 62
     7
370
    25
100
AcDbLine
 10
-36.5624052068
 20
543.4276271963
 30
0.0
 11
-176.5695478818
 21
462.6032241259
 31
0.0
  0
LINE
  5
350
330
298
100
AcDbEntity
  8
0
  6
Continuous
 62
     7
370
    25
100
AcDbLine
 10
176.7766952966
 20
-359.2613697219
 30
0.0
 11
176.7766952966
 21
155.1593417662
 31
0.0
  0
LINE
  5
351
330
298
100
AcDbEntity
  8
0
  6
Continuous
 62
     7
370
    25
100
AcDbLine
 10
178.190908859
 20
155.1593417662
 30
0.0
 11
178.190908859
 21
-359.2613697219
 31
0.0
  0
LINE
  5
352
330
298
100
AcDbEntity
  8
0
  6
Continuous
 62
     7
370
    25
100
AcDbLine
 10
176.7766952966
 20
155.1593417662
 30
0.0
 11
-176.7766952966
 21
359.2613697219
 31
0.0
  0
LINE
  5
353
330
298
100
AcDbEntity
  8
0
  6
Continuous
 62
     7
370
    25
100
AcDbLine
 10
-176.0695885155
 20
360.4861145896
 30
0.0
 11
177.4838020778
 21
156.384086634
 31
0.0
  0
LINE
  5
354
330
298
100
AcDbEntity
  8
0
  6
Continuous
 62
     7
370
    25
100
AcDbLine
 10
188.0904037956
 20
160.8741985489
 30
0.0
 11
178.190908859
 21
155.1593417662
 31
0.0
  0
LINE
  5
355
330
298
100
AcDbEntity
  8
0
  6
Continuous
 62
     7
370
    25
100
AcDbLine
 10
177.4838020778
 20
156.384086634
 30
0.0
 11
187.3832970144
 21
162.0989434167
 31
0.0
  0
LINE
  5
356
330
298
100
AcDbEntity
  8
0
  6
Continuous
 62
     7
370
    25
100
AcDbLine
 10
188.0904037956
 20
-353.5465129391
 30
0.0
 11
188.0904037956
 21
160.8741985489
 31
0.0
  0
LINE
  5
357
330
298
100
AcDbEntity
  8
0
  6
Continuous
 62
     7
370
    25
100
AcDbLine
 10
178.190908859
 20
-359.2613697219
 30
0.0
 11
188.0904037956
 21
-353.5465129391
 31
0.0
  0
LINE
  5
358
330
298
100
AcDbEntity
  8
0
  6
Continuous
 62
     7
370
    25
100
AcDbLine
 10
-176.7766952966
 20
-155.1593417662
 30
0.0
 11
176.7766952966
 21
-359.2613697219
 31
0.0
  0
LINE
  5
359
330
298
100
AcDbEntity
  8
0
  6
Continuous
 62
     7
370
    25
100
AcDbLine
 10
-176.7766952966
 20
359.2613697219
 30
0.0
 11
-176.7766952966
 21
-155.1593417662
 31
0.0
  0
LINE
  5
35A
330
298
100
AcDbEntity
  8
0
  6
Continuous
 62
     7
370
    25
100
AcDbLine
 10
176.7766952966
 20
158.4255050137
 30
0.0
 11
176.7766952966
 21
236.8134229547
 31
0.0
  0
LINE
  5
35B
330
298
100
AcDbEntity
  8
0
  6
Continuous
 62
     7
370
    25
100
AcDbLine
 10
178.190908859
 20
236.8134229547
 30
0.0
 11
178.190908859
 21
158.4255050137
 31
0.0
  0
LINE
  5
35C
330
298
100
AcDbEntity
  8
0
  6
Continuous
 62
     7
370
    25
100
AcDbLine
 10
176.7766952966
 20
236.8134229547
 30
0.0
 11
-176.7766952966
 21
440.9154509104
 31
0.0
  0
LINE
  5
35D
330
298
100
AcDbEntity
  8
0
  6
Continuous
 62
     7
370
    25
100
AcDbLine
 10
188.0904037956
 20
242.5282797375
 30
0.0
 11
178.190908859
 21
236.8134229547
 31
0.0
  0
LINE
  5
35E
330
298
100
AcDbEntity
  8
0
  6
Continuous
 62
     7
370
    25
100
AcDbLine
 10
-176.7766952966
 20
362.5275329694
 30
0.0
 11
176.7766952966
 21
158.4255050137
 31
0.0
  0
LINE
  5
35F
330
298
100
AcDbEntity
  8
0
  6
Continuous
 62
     7
370
    25
100
AcDbLine
 10
-176.7766952966
 20
440.9154509104
 30
0.0
 11
-176.7766952966
 21
362.5275329694
 31
0.0
  0
LINE
  5
360
330
298
100
AcDbEntity
  8
0
  6
Continuous
 62
     7
370
    25
100
AcDbLine
 10
188.0904037956
 20
164.1403617965
 30
0.0
 11
188.0904037956
 21
242.5282797375
 31
0.0
  0
LINE
  5
361
330
298
100
AcDbEntity
  8
0
  6
Continuous
 62
     7
370
    25
100
AcDbLine
 10
178.190908859
 20
158.4255050137
 30
0.0
 11
188.0904037956
 21
164.1403617965
 31
0.0
  0
LINE
  5
362
330
298
100
AcDbEntity
  8
0
  6
Continuous
 62
     7
370
    25
100
AcDbLine
 10
178.190908859
 20
-362.5275329694
 30
0.0
 11
178.190908859
 21
-426.2177162965
 31
0.0
  0
LINE
  5
363
330
298
100
AcDbEntity
  8
0
  6
Continuous
 62
     7
370
    25
100
AcDbLine
 10
176.7766952966
 20
-426.2177162965
 30
0.0
 11
176.7766952966
 21
-362.5275329694
 31
0.0
  0
LINE
  5
364
330
298
100
AcDbEntity
  8
0
  6
Continuous
 62
     7
370
    25
100
AcDbLine
 10
188.0904037956
 20
-356.8126761866
 30
0.0
 11
178.190908859
 21
-362.5275329694
 31
0.0
  0
LINE
  5
365
330
298
100
AcDbEntity
  8
0
  6
Continuous
 62
     7
370
    25
100
AcDbLine
 10
177.4838020778
 20
-361.3027881016
 30
0.0
 11
187.3832970144
 21
-355.5879313188
 31
0.0
  0
LINE
  5
366
330
298
100
AcDbEntity
  8
0
  6
Continuous
 62
     7
370
    25
100
AcDbLine
 10
176.7766952966
 20
-362.5275329694
 30
0.0
 11
-176.7766952966
 21
-158.4255050137
 31
0.0
  0
LINE
  5
367
330
298
100
AcDbEntity
  8
0
  6
Continuous
 62
     7
370
    25
100
AcDbLine
 10
-176.0695885155
 20
-157.2007601459
 30
0.0
 11
177.4838020778
 21
-361.3027881016
 31
0.0
  0
LINE
  5
368
330
298
100
AcDbEntity
  8
0
  6
Continuous
 62
     7
370
    25
100
AcDbLine
 10
188.0904037956
 20
-420.5028595137
 30
0.0
 11
188.0904037956
 21
-356.8126761866
 31
0.0
  0
LINE
  5
369
330
298
100
AcDbEntity
  8
0
  6
Continuous
 62
     7
370
    25
100
AcDbLine
 10
178.190908859
 20
-426.2177162965
 30
0.0
 11
188.0904037956
 21
-420.5028595137
 31
0.0
  0
LINE
  5
36A
330
298
100
AcDbEntity
  8
0
  6
Continuous
 62
     7
370
    25
100
AcDbLine
 10
-176.7766952966
 20
-222.1156883408
 30
0.0
 11
176.7766952966
 21
-426.2177162965
 31
0.0
  0
LINE
  5
36B
330
298
100
AcDbEntity
  8
0
  6
Continuous
 62
     7
370
    25
100
AcDbLine
 10
-176.7766952966
 20
-158.4255050137
 30
0.0
 11
-176.7766952966
 21
-222.1156883408
 31
0.0
  0
LINE
  5
36C
330
298
100
AcDbEntity
  8
0
  6
Continuous
 62
     7
370
    25
100
AcDbLine
 10
188.7975105768
 20
243.7530246053
 30
0.0
 11
188.3832633543
 21
243.9921644366
 31
0.0
  0
LINE
  5
36D
330
298
100
AcDbEntity
  8
0
  6
Continuous
 62
     7
370
    25
100
AcDbLine
 10
188.7975105768
 20
243.7530246053
 30
0.0
 11
188.7975105768
 21
-420.9111962697
 31
0.0
  0
LINE
  5
36E
330
298
100
AcDbEntity
  8
0
  6
Continuous
 62
     7
370
    25
100
AcDbLine
 10
188.7975105768
 20
-420.9111962697
 30
0.0
 11
188.2492884134
 21
-420.5947143513
 31
0.0
  0
LINE
  5
36F
330
298
100
AcDbEntity
  8
0
  6
Continuous
 62
     7
370
    25
100
AcDbLine
 10
318.3569361517
 20
319.1790528114
 30
0.0
 11
318.9051583151
 21
318.862570893
 31
0.0
  0
LINE
  5
370
330
298
100
AcDbEntity
  8
0
  6
Continuous
 62
     7
370
    25
100
AcDbLine
 10
318.9051583151
 20
318.862570893
 30
0.0
 11
188.7975105768
 21
243.7530246053
 31
0.0
  0
LINE
  5
371
330
298
100
AcDbEntity
  8
0
  6
Continuous
 62
     7
370
    25
100
AcDbLine
 10
318.9051583151
 20
318.862570893
 30
0.0
 11
318.9051583151
 21
-345.801649982
 31
0.0
  0
LINE
  5
372
330
298
100
AcDbEntity
  8
0
  6
Continuous
 62
     7
370
    25
100
AcDbLine
 10
318.9051583151
 20
-345.801649982
 30
0.0
 11
188.7975105768
 21
-420.9111962697
 31
0.0
  0
LINE
  5
373
330
298
100
AcDbEntity
  8
0
  6
Continuous
 62
     7
370
    25
100
AcDbLine
 10
178.190908859
 20
257.2269432519
 30
0.0
 11
178.190908859
 21
238.4465045785
 31
0.0
  0
LINE
  5
374
330
298
100
AcDbEntity
  8
0
  6
Continuous
 62
     7
370
    25
100
AcDbLine
 10
176.7766952966
 20
238.4465045785
 30
0.0
 11
176.7766952966
 21
257.2269432519
 31
0.0
  0
LINE
  5
375
330
298
100
AcDbEntity
  8
0
  6
Continuous
 62
     7
370
    25
100
AcDbLine
 10
176.7766952966
 20
257.2269432519
 30
0.0
 11
-176.7766952966
 21
461.3289712076
 31
0.0
  0
LINE
  5
376
330
298
100
AcDbEntity
  8
0
  6
Continuous
 62
     7
370
    25
100
AcDbLine
 10
-176.0695885155
 20
462.5537160754
 30
0.0
 11
177.4838020778
 21
258.4516881197
 31
0.0
  0
LINE
  5
377
330
298
100
AcDbEntity
  8
0
  6
Continuous
 62
     7
370
    25
100
AcDbLine
 10
318.1980515339
 20
338.0513463223
 30
0.0
 11
178.190908859
 21
257.2269432519
 31
0.0
  0
LINE
  5
378
330
298
100
AcDbEntity
  8
0
  6
Continuous
 62
     7
370
    25
100
AcDbLine
 10
177.4838020778
 20
258.4516881197
 30
0.0
 11
317.4909447528
 21
339.2760911901
 31
0.0
  0
LINE
  5
379
330
298
100
AcDbEntity
  8
0
  6
Continuous
 62
     7
370
    25
100
AcDbLine
 10
-176.7766952966
 20
461.3289712076
 30
0.0
 11
-176.7766952966
 21
442.5485325342
 31
0.0
  0
LINE
  5
37A
330
298
100
AcDbEntity
  8
0
  6
Continuous
 62
     7
370
    25
100
AcDbLine
 10
-176.7766952966
 20
442.5485325342
 30
0.0
 11
176.7766952966
 21
238.4465045785
 31
0.0
  0
LINE
  5
37B
330
298
100
AcDbEntity
  8
0
  6
Continuous
 62
     7
370
    25
100
AcDbLine
 10
318.1980515339
 20
319.270907649
 30
0.0
 11
318.1980515339
 21
338.0513463223
 31
0.0
  0
LINE
  5
37C
330
298
100
AcDbEntity
  8
0
  6
Continuous
 62
     7
370
    25
100
AcDbLine
 10
178.190908859
 20
238.4465045785
 30
0.0
 11
318.1980515339
 21
319.270907649
 31
0.0
  0
LINE
  5
37D
330
298
100
AcDbEntity
  8
0
  6
Continuous
 62
     7
370
    25
100
AcDbLine
 10
-36.0624458405
 20
543.3781191458
 30
0.0
 11
-176.0695885155
 21
462.5537160754
 31
0.0
  0
LINE
  5
37E
330
298
100
AcDbEntity
  8
0
  6
Continuous
 62
     7
370
    25
100
AcDbLine
 10
317.4909447528
 20
339.2760911901
 30
0.0
 11
-36.0624458405
 21
543.3781191458
 31
0.0
  0
LINE
  5
37F
330
298
100
AcDbEntity
  8
0
  6
Continuous
 62
     8
370
    25
100
AcDbLine
 10
-174.9480046436
 20
361.1335911769
 30
0.0
 11
-176.0695885155
 21
360.4861145896
 31
0.0
  0
LINE
  5
380
330
298
100
AcDbEntity
  8
0
  6
Continuous
 62
     8
370
    25
100
AcDbLine
 10
187.3832970144
 20
162.0989434167
 30
0.0
 11
186.2617131426
 21
162.746420004
 31
0.0
  0
LINE
  5
381
330
298
100
AcDbEntity
  8
0
  6
Continuous
 62
     8
370
    25
100
AcDbLine
 10
187.3832970144
 20
-355.5879313188
 30
0.0
 11
186.2617131426
 21
-354.9404547316
 31
0.0
  0
LINE
  5
382
330
298
100
AcDbEntity
  8
0
  6
Continuous
 62
     8
370
    25
100
AcDbLine
 10
-174.9480046436
 20
-156.5532835586
 30
0.0
 11
-176.0695885155
 21
-157.2007601459
 31
0.0
  0
ARC
  5
383
330
298
100
AcDbEntity
  8
0
  6
Continuous
 62
     7
370
    25
100
AcDbCircle
 10
187.3832970144
 20
161.2824026048
 30
0.0
 40
0.9999999999999786
100
AcDbArc
 50
0.0
 51
60.0026882664
  0
ARC
  5
384
330
298
100
AcDbEntity
  8
0
  6
Continuous
 62
     7
370
    25
100
AcDbCircle
 10
-176.0695885155
 20
359.6695737778
 30
0.0
 40
1.000000000000028
100
AcDbArc
 50
119.9973117337
 51
180.0
  0
ARC
  5
385
330
298
100
AcDbEntity
  8
0
  6
Continuous
 62
     7
370
    25
100
AcDbCircle
 10
177.4838020778
 20
-358.8531656659
 30
0.0
 40
1.000000000000091
100
AcDbArc
 50
240.0026882664
 51
299.9973117336
  0
ARC
  5
386
330
298
100
AcDbEntity
  8
0
  6
Continuous
 62
     7
370
    25
100
AcDbCircle
 10
187.3832970144
 20
-353.1383088832
 30
0.0
 40
0.9999999999998868
100
AcDbArc
 50
299.9973117336
 51
360.0
  0
ARC
  5
387
330
298
100
AcDbEntity
  8
0
  6
Continuous
 62
     7
370
    25
100
AcDbCircle
 10
-176.0695885154
 20
-154.7511377103
 30
0.0
 40
1.000000000000148
100
AcDbArc
 50
180.0
 51
240.0026882664
  0
ARC
  5
388
330
298
100
AcDbEntity
  8
0
  6
Continuous
 62
     7
370
    25
100
AcDbCircle
 10
187.3832970144
 20
242.9364837934
 30
0.0
 40
1.000000000000175
100
AcDbArc
 50
0.0
 51
54.4743466763
  0
ARC
  5
389
330
298
100
AcDbEntity
  8
0
  6
Continuous
 62
     7
370
    25
100
AcDbCircle
 10
177.4838020778
 20
158.8337090696
 30
0.0
 40
1.000000000000278
100
AcDbArc
 50
240.0026882664
 51
299.9973117336
  0
ARC
  5
38A
330
298
100
AcDbEntity
  8
0
  6
Continuous
 62
     7
370
    25
100
AcDbCircle
 10
187.3832970144
 20
164.5485658524
 30
0.0
 40
1.00000000000035
100
AcDbArc
 50
299.9973117337
 51
360.0
  0
ARC
  5
38B
330
298
100
AcDbEntity
  8
0
  6
Continuous
 62
     7
370
    25
100
AcDbCircle
 10
-176.0695885155
 20
441.3236549663
 30
0.0
 40
0.9999999999997576
100
AcDbArc
 50
125.2599999994
 51
180.0
  0
ARC
  5
38C
330
298
100
AcDbEntity
  8
0
  6
Continuous
 62
     7
370
    25
100
AcDbCircle
 10
-176.0695885155
 20
362.9357370253
 30
0.0
 40
0.9999999999998157
100
AcDbArc
 50
180.0
 51
240.0026882664
  0
ARC
  5
38D
330
298
100
AcDbEntity
  8
0
  6
Continuous
 62
     7
370
    25
100
AcDbCircle
 10
187.3832970144
 20
-356.4044721307
 30
0.0
 40
1.000000000000028
100
AcDbArc
 50
0.0
 51
60.0026882664
  0
ARC
  5
38E
330
298
100
AcDbEntity
  8
0
  6
Continuous
 62
     7
370
    25
100
AcDbCircle
 10
177.4838020778
 20
-425.8095122406
 30
0.0
 40
0.9999999999998451
100
AcDbArc
 50
240.0026882663
 51
299.9973117337
  0
ARC
  5
38F
330
298
100
AcDbEntity
  8
0
  6
Continuous
 62
     7
370
    25
100
AcDbCircle
 10
187.3832970144
 20
-420.0946554578
 30
0.0
 40
1.000000000000099
100
AcDbArc
 50
299.9973117337
 51
360.0
  0
ARC
  5
390
330
298
100
AcDbEntity
  8
0
  6
Continuous
 62
     7
370
    25
100
AcDbCircle
 10
-176.0695885154
 20
-158.0173009578
 30
0.0
 40
1.000000000000258
100
AcDbArc
 50
119.9973117337
 51
180.0
  0
ARC
  5
391
330
298
100
AcDbEntity
  8
0
  6
Continuous
 62
     7
370
    25
100
AcDbCircle
 10
-176.0695885154
 20
-221.7074842849
 30
0.0
 40
1.000000000000123
100
AcDbArc
 50
180.0
 51
240.0026882663
  0
ARC
  5
392
330
298
100
AcDbEntity
  8
0
  6
Continuous
 62
     7
370
    25
100
AcDbCircle
 10
177.4838020778
 20
238.8547086344
 30
0.0
 40
1.000000000000682
100
AcDbArc
 50
240.0026882664
 51
299.9973117336
  0
ARC
  5
393
330
298
100
AcDbEntity
  8
0
  6
Continuous
 62
     7
370
    25
100
AcDbCircle
 10
317.4909447528
 20
338.4595503783
 30
0.0
 40
1.00000000000024
100
AcDbArc
 50
0.0
 51
60.0026882663
  0
ARC
  5
394
330
298
100
AcDbEntity
  8
0
  6
Continuous
 62
     7
370
    25
100
AcDbCircle
 10
317.4909447528
 20
319.6791117049
 30
0.0
 40
1.000000000000114
100
AcDbArc
 50
299.9973117337
 51
360.0
  0
ARC
  5
395
330
298
100
AcDbEntity
  8
0
  6
Continuous
 62
     7
370
    25
100
AcDbCircle
 10
-176.0695885154
 20
461.7371752635
 30
0.0
 40
1.000000000000268
100
AcDbArc
 50
119.9973117337
 51
180.0
  0
ARC
  5
396
330
298
100
AcDbEntity
  8
0
  6
Continuous
 62
     7
370
    25
100
AcDbCircle
 10
-176.0695885155
 20
442.9567365901
 30
0.0
 40
1.000000000000057
100
AcDbArc
 50
180.0
 51
240.0026882664
  0
ARC
  5
397
330
298
100
AcDbEntity
  8
0
  6
Continuous
 62
     7
370
    25
100
AcDbCircle
 10
-36.0624458405
 20
542.5615783339
 30
0.0
 40
1.000000000000411
100
AcDbArc
 50
60.0026882664
 51
119.9973117336
  0
ARC
  5
398
330
298
100
AcDbEntity
  8
0
  6
Continuous
 62
     7
370
    25
100
AcDbCircle
 10
178.311911398
 20
155.0894809139
 30
0.0
 40
1.536804807572232
100
AcDbArc
 50
122.60547834
 51
177.3945215143
  0
ARC
  5
399
330
298
100
AcDbEntity
  8
0
  6
Continuous
 62
     7
370
    25
100
AcDbCircle
 10
176.6556927576
 20
155.0894809139
 30
0.0
 40
1.536804807572016
100
AcDbArc
 50
2.6054784857
 51
57.39452166
  0
ARC
  5
39A
330
298
100
AcDbEntity
  8
0
  6
Continuous
 62
     7
370
    25
100
AcDbCircle
 10
177.4838020778
 20
156.5240528511
 30
0.0
 40
1.537021907911381
100
AcDbArc
 50
242.6096722366
 51
297.3903277634
  0
ARC
  5
39B
330
298
100
AcDbEntity
  8
0
  6
Continuous
 62
     7
370
    25
100
AcDbCircle
 10
177.4838020778
 20
-357.8966586369
 30
0.0
 40
1.537021907911784
100
AcDbArc
 50
242.6096722366
 51
297.3903277634
  0
ARC
  5
39C
330
298
100
AcDbEntity
  8
0
  6
Continuous
 62
     7
370
    25
100
AcDbCircle
 10
-175.2414791953
 20
359.1915088696
 30
0.0
 40
1.536804807571798
100
AcDbArc
 50
122.60547834
 51
177.3945215143
  0
ARC
  5
39D
330
298
100
AcDbEntity
  8
0
  6
Continuous
 62
     7
370
    25
100
AcDbCircle
 10
186.5551876943
 20
160.8043376967
 30
0.0
 40
1.536804807571972
100
AcDbArc
 50
2.6054784857
 51
57.39452166
  0
ARC
  5
39E
330
298
100
AcDbEntity
  8
0
  6
Continuous
 62
     7
370
    25
100
AcDbCircle
 10
177.4838020778
 20
238.1781340397
 30
0.0
 40
1.537021907911936
100
AcDbArc
 50
242.6096722366
 51
297.3903277634
  0
ARC
  5
39F
330
298
100
AcDbEntity
  8
0
  6
Continuous
 62
     7
370
    25
100
AcDbCircle
 10
177.4838020778
 20
159.7902160987
 30
0.0
 40
1.537021907911759
100
AcDbArc
 50
242.6096722366
 51
297.3903277634
  0
ARC
  5
3A0
330
298
100
AcDbEntity
  8
0
  6
Continuous
 62
     7
370
    25
100
AcDbCircle
 10
177.4838020778
 20
-361.1628218844
 30
0.0
 40
1.537021907911771
100
AcDbArc
 50
242.6096722366
 51
297.3903277634
  0
ARC
  5
3A1
330
298
100
AcDbEntity
  8
0
  6
Continuous
 62
     7
370
    25
100
AcDbCircle
 10
178.311911398
 20
-362.5973938217
 30
0.0
 40
1.536804807572555
100
AcDbArc
 50
122.60547834
 51
177.3945215143
  0
ARC
  5
3A2
330
298
100
AcDbEntity
  8
0
  6
Continuous
 62
     7
370
    25
100
AcDbCircle
 10
176.6556927576
 20
-362.5973938217
 30
0.0
 40
1.536804807572383
100
AcDbArc
 50
2.6054784857
 51
57.39452166
  0
ARC
  5
3A3
330
298
100
AcDbEntity
  8
0
  6
Continuous
 62
     7
370
    25
100
AcDbCircle
 10
177.4838020778
 20
-424.8530052115
 30
0.0
 40
1.537021907911569
100
AcDbArc
 50
242.6096722366
 51
297.3903277634
  0
ARC
  5
3A4
330
298
100
AcDbEntity
  8
0
  6
Continuous
 62
     7
370
    25
100
AcDbCircle
 10
186.5551876943
 20
-356.8825370389
 30
0.0
 40
1.53680480757226
100
AcDbArc
 50
2.6054784857
 51
57.39452166
  0
ARC
  5
3A5
330
298
100
AcDbEntity
  8
0
  6
Continuous
 62
     7
370
    25
100
AcDbCircle
 10
-175.2414791953
 20
-158.495365866
 30
0.0
 40
1.536804807572156
100
AcDbArc
 50
122.60547834
 51
177.3945215143
  0
ARC
  5
3A6
330
298
100
AcDbEntity
  8
0
  6
Continuous
 62
     7
370
    25
100
AcDbCircle
 10
178.311911398
 20
257.1570823996
 30
0.0
 40
1.536804807572555
100
AcDbArc
 50
122.60547834
 51
177.3945215143
  0
ARC
  5
3A7
330
298
100
AcDbEntity
  8
0
  6
Continuous
 62
     7
370
    25
100
AcDbCircle
 10
176.6556927576
 20
257.1570823996
 30
0.0
 40
1.536804807572383
100
AcDbArc
 50
2.6054784857
 51
57.39452166
  0
ARC
  5
3A8
330
298
100
AcDbEntity
  8
0
  6
Continuous
 62
     7
370
    25
100
AcDbCircle
 10
177.4838020778
 20
258.5916543368
 30
0.0
 40
1.537021907911771
100
AcDbArc
 50
242.6096722366
 51
297.3903277634
  0
ARC
  5
3A9
330
298
100
AcDbEntity
  8
0
  6
Continuous
 62
     7
370
    25
100
AcDbCircle
 10
177.4838020778
 20
239.8112156635
 30
0.0
 40
1.537021907911847
100
AcDbArc
 50
242.6096722366
 51
297.3903277634
  0
ARC
  5
3AA
330
298
100
AcDbEntity
  8
0
  6
Continuous
 62
     7
370
    25
100
AcDbCircle
 10
-175.2414791953
 20
461.2591103553
 30
0.0
 40
1.536804807572056
100
AcDbArc
 50
122.60547834
 51
177.3945215143
  0
ARC
  5
3AB
330
298
100
AcDbEntity
  8
0
  6
Continuous
 62
     7
370
    25
100
AcDbCircle
 10
316.6628354326
 20
337.9814854701
 30
0.0
 40
1.536804807572112
100
AcDbArc
 50
2.6054784857
 51
57.39452166
  0
ARC
  5
3AC
330
298
100
AcDbEntity
  8
0
  6
Continuous
 62
     8
370
    25
100
AcDbCircle
 10
187.6762170693
 20
161.6900620876
 30
0.0
 40
0.5029772359015797
100
AcDbArc
 50
65.6928809539
 51
125.6175774752
  0
ARC
  5
3AD
330
298
100
AcDbEntity
  8
0
  6
Continuous
 62
     8
370
    25
100
AcDbCircle
 10
187.8828399519
 20
161.3323089817
 30
0.0
 40
0.5029392784938322
100
AcDbArc
 50
294.3746582936
 51
354.3052007488
  0
ARC
  5
3AE
330
298
100
AcDbEntity
  8
0
  6
Continuous
 62
     8
370
    25
100
AcDbCircle
 10
187.8828399519
 20
-353.0884025063
 30
0.0
 40
0.5029392784939576
100
AcDbArc
 50
294.3746582936
 51
354.3052007488
  0
ARC
  5
3AF
330
298
100
AcDbEntity
  8
0
  6
Continuous
 62
     8
370
    25
100
AcDbCircle
 10
-176.569131453
 20
359.7194801547
 30
0.0
 40
0.5029392784939224
100
AcDbArc
 50
185.6947992512
 51
245.6253417064
  0
ARC
  5
3B0
330
298
100
AcDbEntity
  8
0
  6
Continuous
 62
     8
370
    25
100
AcDbCircle
 10
-176.3625085703
 20
360.0772332605
 30
0.0
 40
0.5029772359016977
100
AcDbArc
 50
54.3824225248
 51
114.3071190461
  0
ARC
  5
3B1
330
298
100
AcDbEntity
  8
0
  6
Continuous
 62
     8
370
    25
100
AcDbCircle
 10
-176.569131453
 20
-154.7012313334
 30
0.0
 40
0.5029392784941951
100
AcDbArc
 50
185.6947992512
 51
245.6253417064
  0
ARC
  5
3B2
330
298
100
AcDbEntity
  8
0
  6
Continuous
 62
     8
370
    25
100
AcDbCircle
 10
177.7009069567
 20
-359.3154564592
 30
0.0
 40
0.4929779299533369
100
AcDbArc
 50
305.0133328716
 51
6.2988475218
  0
ARC
  5
3B3
330
298
100
AcDbEntity
  8
0
  6
Continuous
 62
     8
370
    25
100
AcDbCircle
 10
177.2523808523
 20
-359.3219337506
 30
0.0
 40
0.4795255461514384
100
AcDbArc
 50
172.7441704188
 51
235.9436491878
  0
ARC
  5
3B4
330
298
100
AcDbEntity
  8
0
  6
Continuous
 62
     8
370
    25
100
AcDbCircle
 10
187.6004018934
 20
-353.6005996765
 30
0.0
 40
0.4929779298889387
100
AcDbArc
 50
305.0133328672
 51
6.2988475262
  0
ARC
  5
3B5
330
298
100
AcDbEntity
  8
0
  6
Continuous
 62
     8
370
    25
100
AcDbCircle
 10
-176.2866933944
 20
-155.2134285036
 30
0.0
 40
0.4929779299062472
100
AcDbArc
 50
173.701152475
 51
234.9866671317
  0
ARC
  5
3B6
330
298
100
AcDbEntity
  8
0
  6
Continuous
 62
     8
370
    25
100
AcDbCircle
 10
178.3492686941
 20
236.7297155543
 30
0.0
 40
1.574799675890718
100
AcDbArc
 50
133.205822597
 51
176.9530460492
  0
ARC
  5
3B7
330
298
100
AcDbEntity
  8
0
  6
Continuous
 62
     8
370
    25
100
AcDbCircle
 10
176.6183354616
 20
236.7297155543
 30
0.0
 40
1.574799675889031
100
AcDbArc
 50
3.0469539507
 51
46.794177404
  0
ARC
  5
3B8
330
298
100
AcDbEntity
  8
0
  6
Continuous
 62
     8
370
    25
100
AcDbCircle
 10
-175.202424446
 20
440.8307498721
 30
0.0
 40
1.576547803632541
100
AcDbArc
 50
135.0169481559
 51
176.9202648341
  0
ARC
  5
3B9
330
298
100
AcDbEntity
  8
0
  6
Continuous
 62
     8
370
    25
100
AcDbCircle
 10
186.516132945
 20
242.4435786992
 30
0.0
 40
1.576547803631634
100
AcDbArc
 50
3.0797351658
 51
44.9830518441
  0
ARC
  5
3BA
330
298
100
AcDbEntity
  8
0
  6
Continuous
 62
     8
370
    25
100
AcDbCircle
 10
187.8828399519
 20
242.9863901703
 30
0.0
 40
0.5029392784937461
100
AcDbArc
 50
294.3746582936
 51
354.3052007488
  0
ARC
  5
3BB
330
298
100
AcDbEntity
  8
0
  6
Continuous
 62
     8
370
    25
100
AcDbCircle
 10
187.8828399519
 20
164.5984722293
 30
0.0
 40
0.5029392784937983
100
AcDbArc
 50
294.3746582936
 51
354.3052007488
  0
ARC
  5
3BC
330
298
100
AcDbEntity
  8
0
  6
Continuous
 62
     8
370
    25
100
AcDbCircle
 10
177.2666971989
 20
158.3714182763
 30
0.0
 40
0.4929779299533117
100
AcDbArc
 50
173.7011524782
 51
234.9866671284
  0
ARC
  5
3BD
330
298
100
AcDbEntity
  8
0
  6
Continuous
 62
     8
370
    25
100
AcDbCircle
 10
177.7009069568
 20
158.3714182763
 30
0.0
 40
0.4929779298889387
100
AcDbArc
 50
305.0133328671
 51
6.2988475262
  0
ARC
  5
3BE
330
298
100
AcDbEntity
  8
0
  6
Continuous
 62
     8
370
    25
100
AcDbCircle
 10
-176.2866933943
 20
362.473446232
 30
0.0
 40
0.4929779300175435
100
AcDbArc
 50
173.7011524826
 51
234.986667124
  0
ARC
  5
3BF
330
298
100
AcDbEntity
  8
0
  6
Continuous
 62
     8
370
    25
100
AcDbCircle
 10
187.6004018933
 20
164.0862750591
 30
0.0
 40
0.492977930000228
100
AcDbArc
 50
305.0133328748
 51
6.2988475186
  0
ARC
  5
3C0
330
298
100
AcDbEntity
  8
0
  6
Continuous
 62
     8
370
    25
100
AcDbCircle
 10
-176.569131453
 20
441.3735613432
 30
0.0
 40
0.5029392784938888
100
AcDbArc
 50
185.6947992512
 51
245.6253417064
  0
ARC
  5
3C1
330
298
100
AcDbEntity
  8
0
  6
Continuous
 62
     8
370
    25
100
AcDbCircle
 10
-176.569131453
 20
362.9856434022
 30
0.0
 40
0.502939278493736
100
AcDbArc
 50
185.6947992512
 51
245.6253417064
  0
ARC
  5
3C2
330
298
100
AcDbEntity
  8
0
  6
Continuous
 62
     8
370
    25
100
AcDbCircle
 10
187.6762170693
 20
-355.996812648
 30
0.0
 40
0.5029772359017869
100
AcDbArc
 50
65.6928809539
 51
125.6175774752
  0
ARC
  5
3C3
330
298
100
AcDbEntity
  8
0
  6
Continuous
 62
     8
370
    25
100
AcDbCircle
 10
187.8828399519
 20
-356.3545657538
 30
0.0
 40
0.5029392784939509
100
AcDbArc
 50
294.3746582936
 51
354.3052007488
  0
ARC
  5
3C4
330
298
100
AcDbEntity
  8
0
  6
Continuous
 62
     8
370
    25
100
AcDbCircle
 10
187.8828399519
 20
-420.0447490809
 30
0.0
 40
0.5029392784937983
100
AcDbArc
 50
294.3746582936
 51
354.3052007488
  0
ARC
  5
3C5
330
298
100
AcDbEntity
  8
0
  6
Continuous
 62
     8
370
    25
100
AcDbCircle
 10
177.2666971987
 20
-426.271803034
 30
0.0
 40
0.4929779297309012
100
AcDbArc
 50
173.7011524629
 51
234.9866671437
  0
ARC
  5
3C6
330
298
100
AcDbEntity
  8
0
  6
Continuous
 62
     8
370
    25
100
AcDbCircle
 10
177.7009069569
 20
-426.271803034
 30
0.0
 40
0.4929779297307927
100
AcDbArc
 50
305.0133328563
 51
6.2988475371
  0
ARC
  5
3C7
330
298
100
AcDbEntity
  8
0
  6
Continuous
 62
     8
370
    25
100
AcDbCircle
 10
187.6004018939
 20
-420.5569462513
 30
0.0
 40
0.4929779294439008
100
AcDbArc
 50
305.0133328365
 51
6.2988475569
  0
ARC
  5
3C8
330
298
100
AcDbEntity
  8
0
  6
Continuous
 62
     8
370
    25
100
AcDbCircle
 10
-176.3010097408
 20
-222.1762523694
 30
0.0
 40
0.4795255463251009
100
AcDbArc
 50
172.7441704316
 51
235.943649175
  0
ARC
  5
3C9
330
298
100
AcDbEntity
  8
0
  6
Continuous
 62
     8
370
    25
100
AcDbCircle
 10
-176.569131453
 20
-157.9673945809
 30
0.0
 40
0.5029392784941951
100
AcDbArc
 50
185.6947992512
 51
245.6253417064
  0
ARC
  5
3CA
330
298
100
AcDbEntity
  8
0
  6
Continuous
 62
     8
370
    25
100
AcDbCircle
 10
-176.3625085703
 20
-157.609641475
 30
0.0
 40
0.5029772359018694
100
AcDbArc
 50
54.3824225248
 51
114.3071190461
  0
ARC
  5
3CB
330
298
100
AcDbEntity
  8
0
  6
Continuous
 62
     8
370
    25
100
AcDbCircle
 10
-176.569131453
 20
-221.657577908
 30
0.0
 40
0.5029392784941951
100
AcDbArc
 50
185.6947992512
 51
245.6253417064
  0
ARC
  5
3CC
330
298
100
AcDbEntity
  8
0
  6
Continuous
 62
     8
370
    25
100
AcDbCircle
 10
177.2666971991
 20
238.3924178412
 30
0.0
 40
0.4929779300646152
100
AcDbArc
 50
173.7011524859
 51
234.9866671207
  0
ARC
  5
3CD
330
298
100
AcDbEntity
  8
0
  6
Continuous
 62
     8
370
    25
100
AcDbCircle
 10
177.7009069564
 20
238.3924178413
 30
0.0
 40
0.4929779302870707
100
AcDbArc
 50
305.0133328946
 51
6.2988474988
  0
ARC
  5
3CE
330
298
100
AcDbEntity
  8
0
  6
Continuous
 62
     8
370
    25
100
AcDbCircle
 10
-176.2866933943
 20
442.4944457969
 30
0.0
 40
0.4929779300175761
100
AcDbArc
 50
173.7011524826
 51
234.986667124
  0
ARC
  5
3CF
330
298
100
AcDbEntity
  8
0
  6
Continuous
 62
     8
370
    25
100
AcDbCircle
 10
317.7223659781
 20
319.2103436204
 30
0.0
 40
0.4795255463715306
100
AcDbArc
 50
304.0563508284
 51
7.255829565
  0
ARC
  5
3D0
330
298
100
AcDbEntity
  8
0
  6
Continuous
 62
     8
370
    25
100
AcDbCircle
 10
317.9904876903
 20
338.5094567551
 30
0.0
 40
0.50293927849377
100
AcDbArc
 50
294.3746582936
 51
354.3052007488
  0
ARC
  5
3D1
330
298
100
AcDbEntity
  8
0
  6
Continuous
 62
     8
370
    25
100
AcDbCircle
 10
317.7838648076
 20
338.867209861
 30
0.0
 40
0.5029772359016081
100
AcDbArc
 50
65.6928809539
 51
125.6175774752
  0
ARC
  5
3D2
330
298
100
AcDbEntity
  8
0
  6
Continuous
 62
     8
370
    25
100
AcDbCircle
 10
317.9904876903
 20
319.7290180818
 30
0.0
 40
0.502939278493538
100
AcDbArc
 50
294.3746582936
 51
354.3052007488
  0
ARC
  5
3D3
330
298
100
AcDbEntity
  8
0
  6
Continuous
 62
     8
370
    25
100
AcDbCircle
 10
-35.7695257857
 20
542.9692378167
 30
0.0
 40
0.5029772359017184
100
AcDbArc
 50
65.6928809539
 51
125.6175774752
  0
ARC
  5
3D4
330
298
100
AcDbEntity
  8
0
  6
Continuous
 62
     8
370
    25
100
AcDbCircle
 10
-176.569131453
 20
461.7870816404
 30
0.0
 40
0.5029392784941599
100
AcDbArc
 50
185.6947992512
 51
245.6253417064
  0
ARC
  5
3D5
330
298
100
AcDbEntity
  8
0
  6
Continuous
 62
     8
370
    25
100
AcDbCircle
 10
-176.3625085703
 20
462.1448347462
 30
0.0
 40
0.5029772359016054
100
AcDbArc
 50
54.3824225248
 51
114.3071190461
  0
ARC
  5
3D6
330
298
100
AcDbEntity
  8
0
  6
Continuous
 62
     8
370
    25
100
AcDbCircle
 10
-176.569131453
 20
443.006642967
 30
0.0
 40
0.5029392784939977
100
AcDbArc
 50
185.6947992512
 51
245.6253417064
  0
ARC
  5
3D7
330
298
100
AcDbEntity
  8
0
  6
Continuous
 62
     8
370
    25
100
AcDbCircle
 10
-36.3553658954
 20
542.9692378167
 30
0.0
 40
0.5029772359017102
100
AcDbArc
 50
54.3824225248
 51
114.3071190461
  0
VIEWPORT
  5
643
330
298
100
AcDbEntity
  8
0
100
AcDbViewport
 10
0.0
 20
0.0
 30
0.0
 40
205.6
 41
156.0
 68
     1
 69
     1
 12
0.0
 22
21.5
 13
0.0
 23
0.0
 14
10.0
 24
10.0
 15
10.0
 25
10.0
 16
0.0
 26
0.0
 36
1.0
 17
0.0
 27
0.0
 37
0.0
 42
50.0
 43
0.0
 44
0.0
 45
855.78
 50
0.0
 51
0.0
 72
   100
 90
   557152
  1

281
     0
 71
     1
 74
     0
110
0.0
120
0.0
130
0.0
111
1.0
121
0.0
131
0.0
112
0.0
122
1.0
132
0.0
 79
     0
146
0.0
  0
ENDBLK
  5
29B
330
298
100
AcDbEntity
  8
0
100
AcDbBlockEnd
  0
BLOCK
  5
3DA
330
3D8
100
AcDbEntity
  8
0
100
AcDbBlockBegin
  2
*Paper_Space5
 70
     0
 10
0.0
 20
0.0
 30
0.0
  3
*Paper_Space5
  1

  0
LWPOLYLINE
  5
450
330
3D8
100
AcDbEntity
  8
0
  6
Continuous
 62
     8
370
    25
100
AcDbPolyline
 90
        7
 70
   128
 43
0.0
 10
-221.6378350304
 20
330.554682399
 10
-221.6324838891
 20
330.5014720912
 10
-221.5932165559
 20
330.4025532455
 10
-221.5172344465
 20
330.3094806378
 10
-221.4074575106
 20
330.2258309963
 10
-221.2681044145
 20
330.1548189298
 10
-221.1045304194
 20
330.0991733922
  0
LWPOLYLINE
  5
452
330
3D8
100
AcDbEntity
  8
0
  6
Continuous
 62
     8
370
    25
100
AcDbPolyline
 90
        7
 70
   128
 43
0.0
 10
-221.6378350304
 20
-209.4607170434
 10
-221.6324838891
 20
-209.5139273512
 10
-221.5932165559
 20
-209.6128461969
 10
-221.5172344465
 20
-209.7059188046
 10
-221.4074575106
 20
-209.789568446
 10
-221.2681044145
 20
-209.8605805126
 10
-221.1045304194
 20
-209.9162260502
  0
LWPOLYLINE
  5
454
330
3D8
100
AcDbEntity
  8
0
  6
Continuous
 62
     8
370
    25
100
AcDbPolyline
 90
        6
 70
   128
 43
0.0
 10
221.1045304194
 20
-330.0991733922
 10
221.1134978404
 20
-330.257645959
 10
221.1400554905
 20
-330.3925235584
 10
221.1831827742
 20
-330.4986229196
 10
221.241222334
 20
-330.5718667039
 10
221.3089606166
 20
-330.6086602243
  0
LWPOLYLINE
  5
461
330
3D8
100
AcDbEntity
  8
0
  6
Continuous
 62
     8
370
    25
100
AcDbPolyline
 90
        7
 70
   128
 43
0.0
 10
-221.1045304194
 20
415.8159034624
 10
-221.2681044145
 20
415.871549
 10
-221.4074575106
 20
415.9425610665
 10
-221.5172344465
 20
416.026210708
 10
-221.5932165559
 20
416.1192833157
 10
-221.6324838891
 20
416.2182021614
 10
-221.6378350304
 20
416.2714124692
  0
LWPOLYLINE
  5
462
330
3D8
100
AcDbEntity
  8
0
  6
Continuous
 62
     8
370
    25
100
AcDbPolyline
 90
        3
 70
   128
 43
0.0
 10
-221.1322307471
 20
417.1165101203
 10
-221.2632130817
 20
417.0474856342
 10
-221.3363131891
 20
416.9870438421
  0
LWPOLYLINE
  5
463
330
3D8
100
AcDbEntity
  8
0
  6
Continuous
 62
     8
370
    25
100
AcDbPolyline
 90
        7
 70
   128
 43
0.0
 10
-221.6378350304
 20
333.9833516018
 10
-221.6324838891
 20
333.930141294
 10
-221.5932165559
 20
333.8312224483
 10
-221.5172344465
 20
333.7381498406
 10
-221.4074575106
 20
333.6545001991
 10
-221.2681044145
 20
333.5834881326
 10
-221.1045304194
 20
333.527842595
  0
LWPOLYLINE
  5
46B
330
3D8
100
AcDbEntity
  8
0
  6
Continuous
 62
     8
370
    25
100
AcDbPolyline
 90
        6
 70
   128
 43
0.0
 10
-221.1045304194
 20
-280.2039447078
 10
-221.0955629983
 20
-280.3624172746
 10
-221.0690053482
 20
-280.497294874
 10
-221.0258780645
 20
-280.6033942352
 10
-220.9678385047
 20
-280.6766380195
 10
-220.9001002221
 20
-280.7134315399
  0
LWPOLYLINE
  5
46D
330
3D8
100
AcDbEntity
  8
0
  6
Continuous
 62
     8
370
    25
100
AcDbPolyline
 90
        7
 70
   128
 43
0.0
 10
-221.1045304194
 20
-213.344895253
 10
-221.2681044145
 20
-213.2892497154
 10
-221.4074575106
 20
-213.2182376489
 10
-221.5172344465
 20
-213.1345880074
 10
-221.5932165559
 20
-213.0415153997
 10
-221.6324838891
 20
-212.942596554
 10
-221.6378350304
 20
-212.8893862462
  0
LWPOLYLINE
  5
46F
330
3D8
100
AcDbEntity
  8
0
  6
Continuous
 62
     8
370
    25
100
AcDbPolyline
 90
        7
 70
   128
 43
0.0
 10
-221.1045304194
 20
-280.2039447078
 10
-221.2681044145
 20
-280.1482991701
 10
-221.4074575106
 20
-280.0772871036
 10
-221.5172344465
 20
-279.9936374621
 10
-221.5932165559
 20
-279.9005648545
 10
-221.6324838891
 20
-279.8016460088
 10
-221.6378350304
 20
-279.748435701
  0
LWPOLYLINE
  5
478
330
3D8
100
AcDbEntity
  8
0
  6
Continuous
 62
     8
370
    25
100
AcDbPolyline
 90
        7
 70
   128
 43
0.0
 10
-221.1045304194
 20
437.2450859799
 10
-221.2681044145
 20
437.3007315176
 10
-221.4074575106
 20
437.3717435841
 10
-221.5172344465
 20
437.4553932256
 10
-221.5932165559
 20
437.5484658332
 10
-221.6324838891
 20
437.6473846789
 10
-221.6378350304
 20
437.7005949867
  0
LWPOLYLINE
  5
47A
330
3D8
100
AcDbEntity
  8
0
  6
Continuous
 62
     8
370
    25
100
AcDbPolyline
 90
        7
 70
   128
 43
0.0
 10
-221.1045304194
 20
417.5302380638
 10
-221.2681044145
 20
417.5858836014
 10
-221.4074575106
 20
417.6568956679
 10
-221.5172344465
 20
417.7405453094
 10
-221.5932165559
 20
417.8336179171
 10
-221.6324838891
 20
417.9325367628
 10
-221.6378350304
 20
417.9857470706
  0
LINE
  5
47C
330
3D8
100
AcDbEntity
  8
0
  6
Continuous
 62
     7
370
    25
100
AcDbLine
 10
228.367226445
 20
217.7138569912
 30
0.0
 11
227.3075414133
 21
218.0018566765
 31
0.0
  0
LINE
  5
47D
330
3D8
100
AcDbEntity
  8
0
  6
Continuous
 62
     7
370
    25
100
AcDbLine
 10
229.1049612533
 20
-323.2665382901
 30
0.0
 11
229.1049612533
 21
216.7488611523
 31
0.0
  0
LINE
  5
47E
330
3D8
100
AcDbEntity
  8
0
  6
Continuous
 62
     7
370
    25
100
AcDbLine
 10
-221.6378350304
 20
330.554682399
 30
0.0
 11
-221.6378350304
 21
-209.4607170434
 31
0.0
  0
LINE
  5
47F
330
3D8
100
AcDbEntity
  8
0
  6
Continuous
 62
     7
370
    25
100
AcDbLine
 10
-219.8404151904
 20
332.7303560775
 30
0.0
 11
-221.3363131891
 21
331.2703137719
 31
0.0
  0
LINE
  5
480
330
3D8
100
AcDbEntity
  8
0
  6
Continuous
 62
     7
370
    25
100
AcDbLine
 10
-220.9001002221
 20
-210.4257128824
 30
0.0
 11
221.3089606166
 21
-330.6086602243
 31
0.0
  0
LINE
  5
481
330
3D8
100
AcDbEntity
  8
0
  6
Continuous
 62
     7
370
    25
100
AcDbLine
 10
222.2697039669
 20
-330.3592957583
 30
0.0
 11
228.803439412
 21
-323.982169663
 31
0.0
  0
LINE
  5
482
330
3D8
100
AcDbEntity
  8
0
  6
Continuous
 62
     7
370
    25
100
AcDbLine
 10
229.1049612533
 20
220.1775303551
 30
0.0
 11
229.1049612533
 21
302.4655912225
 31
0.0
  0
LINE
  5
483
330
3D8
100
AcDbEntity
  8
0
  6
Continuous
 62
     7
370
    25
100
AcDbLine
 10
-220.9001002221
 20
333.0183557628
 30
0.0
 11
221.3089606166
 21
212.8354084208
 31
0.0
  0
LINE
  5
484
330
3D8
100
AcDbEntity
  8
0
  6
Continuous
 62
     7
370
    25
100
AcDbLine
 10
222.2697039669
 20
213.0847728869
 30
0.0
 11
228.803439412
 21
219.4618989822
 31
0.0
  0
LINE
  5
485
330
3D8
100
AcDbEntity
  8
0
  6
Continuous
 62
     7
370
    25
100
AcDbLine
 10
-221.6378350304
 20
416.2714124692
 30
0.0
 11
-221.6378350304
 21
333.9833516018
 31
0.0
  0
LINE
  5
486
330
3D8
100
AcDbEntity
  8
0
  6
Continuous
 62
     7
370
    25
100
AcDbLine
 10
-221.1763758125
 20
417.1431476248
 30
0.0
 11
-221.3363131891
 21
416.9870438421
 31
0.0
  0
LINE
  5
487
330
3D8
100
AcDbEntity
  8
0
  6
Continuous
 62
     7
370
    25
100
AcDbLine
 10
228.367226445
 20
-325.7302116539
 30
0.0
 11
227.3075414133
 21
-325.4422119686
 31
0.0
  0
LINE
  5
488
330
3D8
100
AcDbEntity
  8
0
  6
Continuous
 62
     7
370
    25
100
AcDbLine
 10
229.1049612533
 20
-393.5542569477
 30
0.0
 11
229.1049612533
 21
-326.6952074929
 31
0.0
  0
LINE
  5
489
330
3D8
100
AcDbEntity
  8
0
  6
Continuous
 62
     7
370
    25
100
AcDbLine
 10
-220.9001002221
 20
-280.7134315399
 30
0.0
 11
221.3089606166
 21
-400.8963788819
 31
0.0
  0
LINE
  5
48A
330
3D8
100
AcDbEntity
  8
0
  6
Continuous
 62
     7
370
    25
100
AcDbLine
 10
222.2697039669
 20
-400.6470144158
 30
0.0
 11
228.803439412
 21
-394.2698883206
 31
0.0
  0
LINE
  5
48B
330
3D8
100
AcDbEntity
  8
0
  6
Continuous
 62
     7
370
    25
100
AcDbLine
 10
-221.6378350304
 20
-212.8893862462
 30
0.0
 11
-221.6378350304
 21
-279.748435701
 31
0.0
  0
LINE
  5
48C
330
3D8
100
AcDbEntity
  8
0
  6
Continuous
 62
     7
370
    25
100
AcDbLine
 10
-219.8404151904
 20
-210.7137125677
 30
0.0
 11
-221.3363131891
 21
-212.1737548733
 31
0.0
  0
LINE
  5
48D
330
3D8
100
AcDbEntity
  8
0
  6
Continuous
 62
     7
370
    25
100
AcDbLine
 10
-220.9001002221
 20
417.0207512316
 30
0.0
 11
221.3089606166
 21
296.8378038896
 31
0.0
  0
LINE
  5
48E
330
3D8
100
AcDbEntity
  8
0
  6
Continuous
 62
     7
370
    25
100
AcDbLine
 10
222.2697039669
 20
297.0871683557
 30
0.0
 11
314.6753909751
 21
387.277951703
 31
0.0
  0
LINE
  5
48F
330
3D8
100
AcDbEntity
  8
0
  6
Continuous
 62
     7
370
    25
100
AcDbLine
 10
314.2391780081
 20
408.673426831
 30
0.0
 11
-127.9698828306
 21
528.8563741729
 31
0.0
  0
LINE
  5
490
330
3D8
100
AcDbEntity
  8
0
  6
Continuous
 62
     7
370
    25
100
AcDbLine
 10
314.9769128164
 20
387.9935830759
 30
0.0
 11
314.9769128164
 21
407.708430992
 31
0.0
  0
LINE
  5
491
330
3D8
100
AcDbEntity
  8
0
  6
Continuous
 62
     7
370
    25
100
AcDbLine
 10
-221.6378350304
 20
437.7005949867
 30
0.0
 11
-221.6378350304
 21
417.9857470706
 31
0.0
  0
LINE
  5
492
330
3D8
100
AcDbEntity
  8
0
  6
Continuous
 62
     7
370
    25
100
AcDbLine
 10
-128.9306261809
 20
528.6070097069
 30
0.0
 11
-221.3363131891
 21
438.4162263596
 31
0.0
  0
LINE
  5
493
330
3D8
100
AcDbEntity
  8
0
  6
Continuous
 62
     7
370
    25
100
AcDbLine
 10
221.1045304194
 20
209.9162260502
 30
0.0
 11
-221.1045304194
 21
330.0991733922
 31
0.0
  0
LINE
  5
494
330
3D8
100
AcDbEntity
  8
0
  6
Continuous
 62
     7
370
    25
100
AcDbLine
 10
-220.6378350304
 20
331.4118496997
 30
0.0
 11
221.5712258083
 21
211.2289023577
 31
0.0
  0
LINE
  5
495
330
3D8
100
AcDbEntity
  8
0
  6
Continuous
 62
     7
370
    25
100
AcDbLine
 10
221.1045304194
 20
-330.0991733922
 30
0.0
 11
221.1045304194
 21
209.9162260502
 31
0.0
  0
LINE
  5
496
330
3D8
100
AcDbEntity
  8
0
  6
Continuous
 62
     7
370
    25
100
AcDbLine
 10
222.45564393
 20
210.1313691623
 30
0.0
 11
222.45564393
 21
-329.88403028
 31
0.0
  0
LINE
  5
497
330
3D8
100
AcDbEntity
  8
0
  6
Continuous
 62
     7
370
    25
100
AcDbLine
 10
228.989379375
 20
216.5084952576
 30
0.0
 11
222.45564393
 21
210.1313691623
 31
0.0
  0
LINE
  5
498
330
3D8
100
AcDbEntity
  8
0
  6
Continuous
 62
     7
370
    25
100
AcDbLine
 10
221.5712258083
 20
211.2289023577
 30
0.0
 11
228.1049612533
 21
217.606028453
 31
0.0
  0
LINE
  5
499
330
3D8
100
AcDbEntity
  8
0
  6
Continuous
 62
     7
370
    25
100
AcDbLine
 10
-221.1045304194
 20
-209.9162260502
 30
0.0
 11
221.1045304194
 21
-330.0991733922
 31
0.0
  0
LINE
  5
49A
330
3D8
100
AcDbEntity
  8
0
  6
Continuous
 62
     7
370
    25
100
AcDbLine
 10
-221.1045304194
 20
330.0991733922
 30
0.0
 11
-221.1045304194
 21
-209.9162260502
 31
0.0
  0
LINE
  5
49B
330
3D8
100
AcDbEntity
  8
0
  6
Continuous
 62
     7
370
    25
100
AcDbLine
 10
228.989379375
 20
-323.5069041848
 30
0.0
 11
228.989379375
 21
216.5084952576
 31
0.0
  0
LINE
  5
49C
330
3D8
100
AcDbEntity
  8
0
  6
Continuous
 62
     7
370
    25
100
AcDbLine
 10
222.45564393
 20
-329.88403028
 30
0.0
 11
228.989379375
 21
-323.5069041848
 31
0.0
  0
LINE
  5
49D
330
3D8
100
AcDbEntity
  8
0
  6
Continuous
 62
     7
370
    25
100
AcDbLine
 10
221.1045304194
 20
295.6329561204
 30
0.0
 11
-221.1045304194
 21
415.8159034624
 31
0.0
  0
LINE
  5
49E
330
3D8
100
AcDbEntity
  8
0
  6
Continuous
 62
     7
370
    25
100
AcDbLine
 10
221.1045304194
 20
213.344895253
 30
0.0
 11
221.1045304194
 21
295.6329561204
 31
0.0
  0
LINE
  5
49F
330
3D8
100
AcDbEntity
  8
0
  6
Continuous
 62
     7
370
    25
100
AcDbLine
 10
222.45564393
 20
295.8480992325
 30
0.0
 11
222.45564393
 21
213.5600383651
 31
0.0
  0
LINE
  5
4A0
330
3D8
100
AcDbEntity
  8
0
  6
Continuous
 62
     7
370
    25
100
AcDbLine
 10
228.989379375
 20
302.2252253278
 30
0.0
 11
222.45564393
 21
295.8480992325
 31
0.0
  0
LINE
  5
4A1
330
3D8
100
AcDbEntity
  8
0
  6
Continuous
 62
     7
370
    25
100
AcDbLine
 10
-221.1045304194
 20
333.527842595
 30
0.0
 11
221.1045304194
 21
213.344895253
 31
0.0
  0
LINE
  5
4A2
330
3D8
100
AcDbEntity
  8
0
  6
Continuous
 62
     7
370
    25
100
AcDbLine
 10
-221.1045304194
 20
415.8159034624
 30
0.0
 11
-221.1045304194
 21
333.527842595
 31
0.0
  0
LINE
  5
4A3
330
3D8
100
AcDbEntity
  8
0
  6
Continuous
 62
     7
370
    25
100
AcDbLine
 10
228.989379375
 20
219.9371644604
 30
0.0
 11
228.989379375
 21
302.2252253278
 31
0.0
  0
LINE
  5
4A4
330
3D8
100
AcDbEntity
  8
0
  6
Continuous
 62
     7
370
    25
100
AcDbLine
 10
222.45564393
 20
213.5600383651
 30
0.0
 11
228.989379375
 21
219.9371644604
 31
0.0
  0
LINE
  5
4A5
330
3D8
100
AcDbEntity
  8
0
  6
Continuous
 62
     7
370
    25
100
AcDbLine
 10
221.1045304194
 20
-333.527842595
 30
0.0
 11
-221.1045304194
 21
-213.344895253
 31
0.0
  0
LINE
  5
4A6
330
3D8
100
AcDbEntity
  8
0
  6
Continuous
 62
     7
370
    25
100
AcDbLine
 10
-220.6378350304
 20
-212.0322189455
 30
0.0
 11
221.5712258083
 21
-332.2151662875
 31
0.0
  0
LINE
  5
4A7
330
3D8
100
AcDbEntity
  8
0
  6
Continuous
 62
     7
370
    25
100
AcDbLine
 10
222.45564393
 20
-333.3126994828
 30
0.0
 11
222.45564393
 21
-400.1717489376
 31
0.0
  0
LINE
  5
4A8
330
3D8
100
AcDbEntity
  8
0
  6
Continuous
 62
     7
370
    25
100
AcDbLine
 10
221.1045304194
 20
-400.3868920497
 30
0.0
 11
221.1045304194
 21
-333.527842595
 31
0.0
  0
LINE
  5
4A9
330
3D8
100
AcDbEntity
  8
0
  6
Continuous
 62
     7
370
    25
100
AcDbLine
 10
228.989379375
 20
-326.9355733876
 30
0.0
 11
222.45564393
 21
-333.3126994828
 31
0.0
  0
LINE
  5
4AA
330
3D8
100
AcDbEntity
  8
0
  6
Continuous
 62
     7
370
    25
100
AcDbLine
 10
221.5712258083
 20
-332.2151662875
 30
0.0
 11
228.1049612533
 21
-325.8380401922
 31
0.0
  0
LINE
  5
4AB
330
3D8
100
AcDbEntity
  8
0
  6
Continuous
 62
     7
370
    25
100
AcDbLine
 10
-221.1045304194
 20
-280.2039447078
 30
0.0
 11
221.1045304194
 21
-400.3868920497
 31
0.0
  0
LINE
  5
4AC
330
3D8
100
AcDbEntity
  8
0
  6
Continuous
 62
     7
370
    25
100
AcDbLine
 10
-221.1045304194
 20
-213.344895253
 30
0.0
 11
-221.1045304194
 21
-280.2039447078
 31
0.0
  0
LINE
  5
4AD
330
3D8
100
AcDbEntity
  8
0
  6
Continuous
 62
     7
370
    25
100
AcDbLine
 10
228.989379375
 20
-393.7946228423
 30
0.0
 11
228.989379375
 21
-326.9355733876
 31
0.0
  0
LINE
  5
4AE
330
3D8
100
AcDbEntity
  8
0
  6
Continuous
 62
     7
370
    25
100
AcDbLine
 10
222.45564393
 20
-400.1717489376
 30
0.0
 11
228.989379375
 21
-393.7946228423
 31
0.0
  0
LINE
  5
4AF
330
3D8
100
AcDbEntity
  8
0
  6
Continuous
 62
     7
370
    25
100
AcDbLine
 10
229.4560747639
 20
303.5379016353
 30
0.0
 11
229.0045755174
 21
303.660609456
 31
0.0
  0
LINE
  5
4B0
330
3D8
100
AcDbEntity
  8
0
  6
Continuous
 62
     7
370
    25
100
AcDbLine
 10
229.4560747639
 20
303.5379016353
 30
0.0
 11
229.4560747639
 21
-394.1962811362
 31
0.0
  0
LINE
  5
4B1
330
3D8
100
AcDbEntity
  8
0
  6
Continuous
 62
     7
370
    25
100
AcDbLine
 10
229.4560747639
 20
-394.1962811362
 30
0.0
 11
228.9658508365
 21
-394.063048777
 31
0.0
  0
LINE
  5
4B2
330
3D8
100
AcDbEntity
  8
0
  6
Continuous
 62
     7
370
    25
100
AcDbLine
 10
314.8378023996
 20
387.4847912465
 30
0.0
 11
315.328026327
 21
387.3515588873
 31
0.0
  0
LINE
  5
4B3
330
3D8
100
AcDbEntity
  8
0
  6
Continuous
 62
     7
370
    25
100
AcDbLine
 10
315.328026327
 20
387.3515588873
 30
0.0
 11
229.4560747639
 21
303.5379016353
 31
0.0
  0
LINE
  5
4B4
330
3D8
100
AcDbEntity
  8
0
  6
Continuous
 62
     7
370
    25
100
AcDbLine
 10
315.328026327
 20
387.3515588873
 30
0.0
 11
315.328026327
 21
-310.3826238843
 31
0.0
  0
LINE
  5
4B5
330
3D8
100
AcDbEntity
  8
0
  6
Continuous
 62
     7
370
    25
100
AcDbLine
 10
315.328026327
 20
-310.3826238843
 30
0.0
 11
229.4560747639
 21
-394.1962811362
 31
0.0
  0
LINE
  5
4B6
330
3D8
100
AcDbEntity
  8
0
  6
Continuous
 62
     7
370
    25
100
AcDbLine
 10
221.1045304194
 20
317.062138638
 30
0.0
 11
-221.1045304194
 21
437.2450859799
 31
0.0
  0
LINE
  5
4B7
330
3D8
100
AcDbEntity
  8
0
  6
Continuous
 62
     7
370
    25
100
AcDbLine
 10
-220.6378350304
 20
438.5577622874
 30
0.0
 11
221.5712258083
 21
318.3748149455
 31
0.0
  0
LINE
  5
4B8
330
3D8
100
AcDbEntity
  8
0
  6
Continuous
 62
     7
370
    25
100
AcDbLine
 10
222.45564393
 20
317.2772817501
 30
0.0
 11
222.45564393
 21
297.5624338339
 31
0.0
  0
LINE
  5
4B9
330
3D8
100
AcDbEntity
  8
0
  6
Continuous
 62
     7
370
    25
100
AcDbLine
 10
221.1045304194
 20
297.3472907218
 30
0.0
 11
221.1045304194
 21
317.062138638
 31
0.0
  0
LINE
  5
4BA
330
3D8
100
AcDbEntity
  8
0
  6
Continuous
 62
     7
370
    25
100
AcDbLine
 10
314.8613309381
 20
407.4680650973
 30
0.0
 11
222.45564393
 21
317.2772817501
 31
0.0
  0
LINE
  5
4BB
330
3D8
100
AcDbEntity
  8
0
  6
Continuous
 62
     7
370
    25
100
AcDbLine
 10
221.5712258083
 20
318.3748149455
 30
0.0
 11
313.9769128164
 21
408.5655982927
 31
0.0
  0
LINE
  5
4BC
330
3D8
100
AcDbEntity
  8
0
  6
Continuous
 62
     7
370
    25
100
AcDbLine
 10
-221.1045304194
 20
437.2450859799
 30
0.0
 11
-221.1045304194
 21
417.5302380638
 31
0.0
  0
LINE
  5
4BD
330
3D8
100
AcDbEntity
  8
0
  6
Continuous
 62
     7
370
    25
100
AcDbLine
 10
-221.1045304194
 20
417.5302380638
 30
0.0
 11
221.1045304194
 21
297.3472907218
 31
0.0
  0
LINE
  5
4BE
330
3D8
100
AcDbEntity
  8
0
  6
Continuous
 62
     7
370
    25
100
AcDbLine
 10
-128.2321480223
 20
528.7485456347
 30
0.0
 11
-220.6378350304
 21
438.5577622874
 31
0.0
  0
LINE
  5
4BF
330
3D8
100
AcDbEntity
  8
0
  6
Continuous
 62
     7
370
    25
100
AcDbLine
 10
313.9769128164
 20
408.5655982927
 30
0.0
 11
-128.2321480223
 21
528.7485456347
 31
0.0
  0
LINE
  5
4C0
330
3D8
100
AcDbEntity
  8
0
  6
Continuous
 62
     7
370
    25
100
AcDbLine
 10
314.8613309381
 20
387.7532171812
 30
0.0
 11
314.8613309381
 21
407.4680650973
 31
0.0
  0
LINE
  5
4C1
330
3D8
100
AcDbEntity
  8
0
  6
Continuous
 62
     7
370
    25
100
AcDbLine
 10
222.45564393
 20
297.5624338339
 30
0.0
 11
314.8613309381
 21
387.7532171812
 31
0.0
  0
LINE
  5
4C2
330
3D8
100
AcDbEntity
  8
0
  6
Continuous
 62
     8
370
    25
100
AcDbLine
 10
-219.4074963152
 20
332.6126980035
 30
0.0
 11
-220.6378350304
 21
331.4118496997
 31
0.0
  0
LINE
  5
4C3
330
3D8
100
AcDbEntity
  8
0
  6
Continuous
 62
     8
370
    25
100
AcDbLine
 10
228.1049612533
 20
217.606028453
 30
0.0
 11
227.16400457
 21
217.8617603172
 31
0.0
  0
LINE
  5
4C4
330
3D8
100
AcDbEntity
  8
0
  6
Continuous
 62
     8
370
    25
100
AcDbLine
 10
228.1049612533
 20
-325.8380401922
 30
0.0
 11
227.16400457
 21
-325.5823083279
 31
0.0
  0
LINE
  5
4C5
330
3D8
100
AcDbEntity
  8
0
  6
Continuous
 62
     8
370
    25
100
AcDbLine
 10
-219.4074963152
 20
-210.8313706416
 30
0.0
 11
-220.6378350304
 21
-212.0322189455
 31
0.0
  0
ARC
  5
4C6
330
3D8
100
AcDbEntity
  8
0
  6
Continuous
 62
     7
370
    25
100
AcDbCircle
 10
228.1049612533
 20
216.7488611523
 30
0.0
 40
1.000000000000057
100
AcDbArc
 50
0.0
 51
74.7954868413
  0
ARC
  5
4C7
330
3D8
100
AcDbEntity
  8
0
  6
Continuous
 62
     7
370
    25
100
AcDbCircle
 10
-220.6378350304
 20
330.554682399
 30
0.0
 40
1.00000000000011
100
AcDbArc
 50
134.305033619
 51
180.0
  0
ARC
  5
4C8
330
3D8
100
AcDbEntity
  8
0
  6
Continuous
 62
     7
370
    25
100
AcDbCircle
 10
221.5712258083
 20
-329.6436643853
 30
0.0
 40
1.000000000000392
100
AcDbArc
 50
254.7954868413
 51
314.305033619
  0
ARC
  5
4C9
330
3D8
100
AcDbEntity
  8
0
  6
Continuous
 62
     7
370
    25
100
AcDbCircle
 10
228.1049612533
 20
-323.2665382901
 30
0.0
 40
1.000000000000227
100
AcDbArc
 50
314.305033619
 51
360.0
  0
ARC
  5
4CA
330
3D8
100
AcDbEntity
  8
0
  6
Continuous
 62
     7
370
    25
100
AcDbCircle
 10
-220.6378350304
 20
-209.4607170434
 30
0.0
 40
0.9999999999999025
100
AcDbArc
 50
180.0
 51
254.7954868413
  0
ARC
  5
4CB
330
3D8
100
AcDbEntity
  8
0
  6
Continuous
 62
     7
370
    25
100
AcDbCircle
 10
228.1049612533
 20
302.4655912225
 30
0.0
 40
0.9999999999995453
100
AcDbArc
 50
360.0
 51
57.4156412986
  0
ARC
  5
4CC
330
3D8
100
AcDbEntity
  8
0
  6
Continuous
 62
     7
370
    25
100
AcDbCircle
 10
221.5712258083
 20
213.8004042598
 30
0.0
 40
1.000000000000266
100
AcDbArc
 50
254.7954868413
 51
314.305033619
  0
ARC
  5
4CD
330
3D8
100
AcDbEntity
  8
0
  6
Continuous
 62
     7
370
    25
100
AcDbCircle
 10
228.1049612533
 20
220.1775303551
 30
0.0
 40
1.000000000000114
100
AcDbArc
 50
314.305033619
 51
360.0
  0
ARC
  5
4CE
330
3D8
100
AcDbEntity
  8
0
  6
Continuous
 62
     7
370
    25
100
AcDbCircle
 10
-220.6378350304
 20
416.2714124692
 30
0.0
 40
0.9999999999997442
100
AcDbArc
 50
134.305033619
 51
180.0
  0
ARC
  5
4CF
330
3D8
100
AcDbEntity
  8
0
  6
Continuous
 62
     7
370
    25
100
AcDbCircle
 10
-220.6378350304
 20
333.9833516018
 30
0.0
 40
1.000000000000189
100
AcDbArc
 50
180.0
 51
254.7954868413
  0
ARC
  5
4D0
330
3D8
100
AcDbEntity
  8
0
  6
Continuous
 62
     7
370
    25
100
AcDbCircle
 10
228.1049612533
 20
-326.6952074929
 30
0.0
 40
1.000000000000085
100
AcDbArc
 50
0.0
 51
74.7954868413
  0
ARC
  5
4D1
330
3D8
100
AcDbEntity
  8
0
  6
Continuous
 62
     7
370
    25
100
AcDbCircle
 10
221.5712258083
 20
-399.9313830429
 30
0.0
 40
1.000000000000765
100
AcDbArc
 50
254.7954868414
 51
314.305033619
  0
ARC
  5
4D2
330
3D8
100
AcDbEntity
  8
0
  6
Continuous
 62
     7
370
    25
100
AcDbCircle
 10
228.1049612533
 20
-393.5542569477
 30
0.0
 40
1.000000000000057
100
AcDbArc
 50
314.305033619
 51
0.0
  0
ARC
  5
4D3
330
3D8
100
AcDbEntity
  8
0
  6
Continuous
 62
     7
370
    25
100
AcDbCircle
 10
-220.6378350304
 20
-212.8893862462
 30
0.0
 40
0.99999999999946
100
AcDbArc
 50
134.305033619
 51
180.0
  0
ARC
  5
4D4
330
3D8
100
AcDbEntity
  8
0
  6
Continuous
 62
     7
370
    25
100
AcDbCircle
 10
-220.6378350304
 20
-279.748435701
 30
0.0
 40
0.9999999999999432
100
AcDbArc
 50
180.0
 51
254.7954868413
  0
ARC
  5
4D5
330
3D8
100
AcDbEntity
  8
0
  6
Continuous
 62
     7
370
    25
100
AcDbCircle
 10
221.5712258083
 20
297.8027997286
 30
0.0
 40
1.000000000000089
100
AcDbArc
 50
254.7954868413
 51
314.305033619
  0
ARC
  5
4D6
330
3D8
100
AcDbEntity
  8
0
  6
Continuous
 62
     7
370
    25
100
AcDbCircle
 10
313.9769128164
 20
407.708430992
 30
0.0
 40
0.9999999999998876
100
AcDbArc
 50
360.0
 51
74.7954868413
  0
ARC
  5
4D7
330
3D8
100
AcDbEntity
  8
0
  6
Continuous
 62
     7
370
    25
100
AcDbCircle
 10
313.9769128164
 20
387.9935830759
 30
0.0
 40
1.000000000000171
100
AcDbArc
 50
314.305033619
 51
360.0
  0
ARC
  5
4D8
330
3D8
100
AcDbEntity
  8
0
  6
Continuous
 62
     7
370
    25
100
AcDbCircle
 10
-220.6378350304
 20
437.7005949867
 30
0.0
 40
1.000000000000369
100
AcDbArc
 50
134.305033619
 51
180.0
  0
ARC
  5
4D9
330
3D8
100
AcDbEntity
  8
0
  6
Continuous
 62
     7
370
    25
100
AcDbCircle
 10
-220.6378350304
 20
417.9857470706
 30
0.0
 40
0.9999999999999872
100
AcDbArc
 50
180.0
 51
254.7954868413
  0
ARC
  5
4DA
330
3D8
100
AcDbEntity
  8
0
  6
Continuous
 62
     7
370
    25
100
AcDbCircle
 10
-128.2321480223
 20
527.891378334
 30
0.0
 40
1.000000000000521
100
AcDbArc
 50
74.7954868413
 51
134.305033619
  0
ARC
  5
4DB
330
3D8
100
AcDbEntity
  8
0
  6
Continuous
 62
     7
370
    25
100
AcDbCircle
 10
223.1494858677
 20
209.928483877
 30
0.0
 40
2.044992185835514
100
AcDbArc
 50
140.5129436103
 51
180.3434369839
  0
ARC
  5
4DC
330
3D8
100
AcDbEntity
  8
0
  6
Continuous
 62
     7
370
    25
100
AcDbCircle
 10
221.2432717351
 20
210.0595201511
 30
0.0
 40
1.2144993286164
100
AcDbArc
 50
3.391562315
 51
74.3338098233
  0
ARC
  5
4DD
330
3D8
100
AcDbEntity
  8
0
  6
Continuous
 62
     7
370
    25
100
AcDbCircle
 10
221.5629237391
 20
211.387598887
 30
0.0
 40
1.541123765478791
100
AcDbArc
 50
252.6960345908
 51
305.398914916
  0
ARC
  5
4DE
330
3D8
100
AcDbEntity
  8
0
  6
Continuous
 62
     7
370
    25
100
AcDbCircle
 10
-219.059574971
 20
330.111431219
 30
0.0
 40
2.044992185836617
100
AcDbArc
 50
140.5129436103
 51
180.3434369839
  0
ARC
  5
4DF
330
3D8
100
AcDbEntity
  8
0
  6
Continuous
 62
     7
370
    25
100
AcDbCircle
 10
221.5629237391
 20
-328.6278005553
 30
0.0
 40
1.541123765478541
100
AcDbArc
 50
252.6960345908
 51
305.3989149161
  0
ARC
  5
4E0
330
3D8
100
AcDbEntity
  8
0
  6
Continuous
 62
     7
370
    25
100
AcDbCircle
 10
227.7770071802
 20
216.4366462464
 30
0.0
 40
1.2144993286166
100
AcDbArc
 50
3.391562315
 51
74.3338098233
  0
ARC
  5
4E1
330
3D8
100
AcDbEntity
  8
0
  6
Continuous
 62
     7
370
    25
100
AcDbCircle
 10
221.5629237391
 20
297.1043289572
 30
0.0
 40
1.541123765478549
100
AcDbArc
 50
252.6960345908
 51
305.398914916
  0
ARC
  5
4E2
330
3D8
100
AcDbEntity
  8
0
  6
Continuous
 62
     7
370
    25
100
AcDbCircle
 10
221.5629237391
 20
214.8162680898
 30
0.0
 40
1.541123765478883
100
AcDbArc
 50
252.6960345908
 51
305.398914916
  0
ARC
  5
4E3
330
3D8
100
AcDbEntity
  8
0
  6
Continuous
 62
     7
370
    25
100
AcDbCircle
 10
221.5629237391
 20
-332.0564697581
 30
0.0
 40
1.541123765479267
100
AcDbArc
 50
252.6960345908
 51
305.398914916
  0
ARC
  5
4E4
330
3D8
100
AcDbEntity
  8
0
  6
Continuous
 62
     7
370
    25
100
AcDbCircle
 10
223.1494858677
 20
-333.5155847681
 30
0.0
 40
2.044992185836224
100
AcDbArc
 50
140.5129436103
 51
180.3434369839
  0
ARC
  5
4E5
330
3D8
100
AcDbEntity
  8
0
  6
Continuous
 62
     7
370
    25
100
AcDbCircle
 10
221.2432717351
 20
-333.3845484941
 30
0.0
 40
1.214499328616623
100
AcDbArc
 50
3.391562315
 51
74.3338098233
  0
ARC
  5
4E6
330
3D8
100
AcDbEntity
  8
0
  6
Continuous
 62
     7
370
    25
100
AcDbCircle
 10
-219.059574971
 20
-213.3326374262
 30
0.0
 40
2.04499218583594
100
AcDbArc
 50
140.5129436103
 51
180.3434369839
  0
ARC
  5
4E7
330
3D8
100
AcDbEntity
  8
0
  6
Continuous
 62
     7
370
    25
100
AcDbCircle
 10
221.5629237391
 20
-398.9155192129
 30
0.0
 40
1.541123765478252
100
AcDbArc
 50
252.6960345908
 51
305.3989149161
  0
ARC
  5
4E8
330
3D8
100
AcDbEntity
  8
0
  6
Continuous
 62
     7
370
    25
100
AcDbCircle
 10
227.7770071802
 20
-327.0074223988
 30
0.0
 40
1.214499328616536
100
AcDbArc
 50
3.391562315
 51
74.3338098233
  0
ARC
  5
4E9
330
3D8
100
AcDbEntity
  8
0
  6
Continuous
 62
     7
370
    25
100
AcDbCircle
 10
223.1494858677
 20
317.0743964648
 30
0.0
 40
2.044992185835486
100
AcDbArc
 50
140.5129436103
 51
180.3434369839
  0
ARC
  5
4EA
330
3D8
100
AcDbEntity
  8
0
  6
Continuous
 62
     7
370
    25
100
AcDbCircle
 10
221.2432717351
 20
317.2054327389
 30
0.0
 40
1.21449932861639
100
AcDbArc
 50
3.391562315
 51
74.3338098233
  0
ARC
  5
4EB
330
3D8
100
AcDbEntity
  8
0
  6
Continuous
 62
     7
370
    25
100
AcDbCircle
 10
221.5629237391
 20
318.5335114748
 30
0.0
 40
1.541123765479496
100
AcDbArc
 50
252.6960345908
 51
305.398914916
  0
ARC
  5
4EC
330
3D8
100
AcDbEntity
  8
0
  6
Continuous
 62
     7
370
    25
100
AcDbCircle
 10
-219.059574971
 20
437.2573438067
 30
0.0
 40
2.044992185835287
100
AcDbArc
 50
140.5129436103
 51
180.3434369839
  0
ARC
  5
4ED
330
3D8
100
AcDbEntity
  8
0
  6
Continuous
 62
     7
370
    25
100
AcDbCircle
 10
221.5629237391
 20
298.8186635586
 30
0.0
 40
1.541123765478315
100
AcDbArc
 50
252.6960345908
 51
305.3989149161
  0
ARC
  5
4EE
330
3D8
100
AcDbEntity
  8
0
  6
Continuous
 62
     7
370
    25
100
AcDbCircle
 10
313.6489587433
 20
407.3962160861
 30
0.0
 40
1.214499328616404
100
AcDbArc
 50
3.391562315
 51
74.3338098233
  0
ARC
  5
4EF
330
3D8
100
AcDbEntity
  8
0
  6
Continuous
 62
     8
370
    25
100
AcDbCircle
 10
228.3236691019
 20
217.4469384395
 30
0.0
 40
0.2704491734418049
100
AcDbArc
 50
80.7318299957
 51
143.9675277131
  0
ARC
  5
4F0
330
3D8
100
AcDbEntity
  8
0
  6
Continuous
 62
     8
370
    25
100
AcDbCircle
 10
228.7731054246
 20
216.7604645166
 30
0.0
 40
0.3320586230400316
100
AcDbArc
 50
310.6406362013
 51
357.9974645044
  0
ARC
  5
4F1
330
3D8
100
AcDbEntity
  8
0
  6
Continuous
 62
     8
370
    25
100
AcDbCircle
 10
228.7731054246
 20
-323.2549349257
 30
0.0
 40
0.332058623039485
100
AcDbArc
 50
310.6406362013
 51
357.9974645044
  0
ARC
  5
4F2
330
3D8
100
AcDbEntity
  8
0
  6
Continuous
 62
     8
370
    25
100
AcDbCircle
 10
-220.866125545
 20
330.7442019742
 30
0.0
 40
0.7055990676826714
100
AcDbArc
 50
71.12277008
 51
131.7872519911
  0
ARC
  5
4F3
330
3D8
100
AcDbEntity
  8
0
  6
Continuous
 62
     8
370
    25
100
AcDbCircle
 10
221.8103240004
 20
-329.9055649989
 30
0.0
 40
0.6456791429334525
100
AcDbArc
 50
315.3544713609
 51
1.9112857849
  0
ARC
  5
4F4
330
3D8
100
AcDbEntity
  8
0
  6
Continuous
 62
     8
370
    25
100
AcDbCircle
 10
-220.6026242097
 20
-210.0105945017
 30
0.0
 40
0.5107007420494459
100
AcDbArc
 50
169.35156043
 51
234.3744174932
  0
ARC
  5
4F5
330
3D8
100
AcDbEntity
  8
0
  6
Continuous
 62
     8
370
    25
100
AcDbCircle
 10
228.3440594454
 20
-323.5284389037
 30
0.0
 40
0.645679142933783
100
AcDbArc
 50
315.3544713609
 51
1.9112857849
  0
ARC
  5
4F6
330
3D8
100
AcDbEntity
  8
0
  6
Continuous
 62
     8
370
    25
100
AcDbCircle
 10
223.2959369026
 20
295.6159901156
 30
0.0
 40
2.191472158157397
100
AcDbArc
 50
147.0093603745
 51
179.5564213863
  0
ARC
  5
4F7
330
3D8
100
AcDbEntity
  8
0
  6
Continuous
 62
     8
370
    25
100
AcDbCircle
 10
221.2439600038
 20
295.7746999492
 30
0.0
 40
1.213905017539954
100
AcDbArc
 50
3.4665281872
 51
61.073549709
  0
ARC
  5
4F8
330
3D8
100
AcDbEntity
  8
0
  6
Continuous
 62
     8
370
    25
100
AcDbCircle
 10
-218.9056198644
 20
415.7974038031
 30
0.0
 40
2.198988373371267
100
AcDbArc
 50
147.3994411205
 51
179.5179761225
  0
ARC
  5
4F9
330
3D8
100
AcDbEntity
  8
0
  6
Continuous
 62
     8
370
    25
100
AcDbCircle
 10
227.8086465429
 20
302.1670961935
 30
0.0
 40
1.182162855580536
100
AcDbArc
 50
2.8184760258
 51
55.6957145106
  0
ARC
  5
4FA
330
3D8
100
AcDbEntity
  8
0
  6
Continuous
 62
     8
370
    25
100
AcDbCircle
 10
228.7731054246
 20
302.4771945868
 30
0.0
 40
0.3320586230398602
100
AcDbArc
 50
310.6406362013
 51
357.9974645044
  0
ARC
  5
4FB
330
3D8
100
AcDbEntity
  8
0
  6
Continuous
 62
     8
370
    25
100
AcDbCircle
 10
228.7731054246
 20
220.1891337194
 30
0.0
 40
0.3320586230397436
100
AcDbArc
 50
310.6406362013
 51
357.9974645044
  0
ARC
  5
4FC
330
3D8
100
AcDbEntity
  8
0
  6
Continuous
 62
     8
370
    25
100
AcDbCircle
 10
221.606436629
 20
213.2505268015
 30
0.0
 40
0.5107007420494769
100
AcDbArc
 50
169.35156043
 51
234.3744174932
  0
ARC
  5
4FD
330
3D8
100
AcDbEntity
  8
0
  6
Continuous
 62
     8
370
    25
100
AcDbCircle
 10
221.8103240004
 20
213.5385036462
 30
0.0
 40
0.6456791429336239
100
AcDbArc
 50
315.3544713609
 51
1.9112857849
  0
ARC
  5
4FE
330
3D8
100
AcDbEntity
  8
0
  6
Continuous
 62
     8
370
    25
100
AcDbCircle
 10
-220.6026242097
 20
333.4334741435
 30
0.0
 40
0.5107007420497458
100
AcDbArc
 50
169.35156043
 51
234.3744174932
  0
ARC
  5
4FF
330
3D8
100
AcDbEntity
  8
0
  6
Continuous
 62
     8
370
    25
100
AcDbCircle
 10
228.3440594454
 20
219.9156297415
 30
0.0
 40
0.6456791429337356
100
AcDbArc
 50
315.3544713609
 51
1.9112857849
  0
ARC
  5
500
330
3D8
100
AcDbEntity
  8
0
  6
Continuous
 62
     8
370
    25
100
AcDbCircle
 10
228.3236691019
 20
-325.9971302057
 30
0.0
 40
0.2704491734388537
100
AcDbArc
 50
80.7318299953
 51
143.9675277135
  0
ARC
  5
501
330
3D8
100
AcDbEntity
  8
0
  6
Continuous
 62
     8
370
    25
100
AcDbCircle
 10
228.7731054246
 20
-326.6836041285
 30
0.0
 40
0.3320586230400185
100
AcDbArc
 50
310.6406362013
 51
357.9974645044
  0
ARC
  5
502
330
3D8
100
AcDbEntity
  8
0
  6
Continuous
 62
     8
370
    25
100
AcDbCircle
 10
228.7731054246
 20
-393.5426535833
 30
0.0
 40
0.3320586230395114
100
AcDbArc
 50
310.6406362013
 51
357.9974645044
  0
ARC
  5
503
330
3D8
100
AcDbEntity
  8
0
  6
Continuous
 62
     8
370
    25
100
AcDbCircle
 10
221.606436629
 20
-400.4812605012
 30
0.0
 40
0.5107007420497301
100
AcDbArc
 50
169.35156043
 51
234.3744174932
  0
ARC
  5
504
330
3D8
100
AcDbEntity
  8
0
  6
Continuous
 62
     8
370
    25
100
AcDbCircle
 10
221.8103240004
 20
-400.1932836565
 30
0.0
 40
0.6456791429345793
100
AcDbArc
 50
315.354471361
 51
1.9112857848
  0
ARC
  5
505
330
3D8
100
AcDbEntity
  8
0
  6
Continuous
 62
     8
370
    25
100
AcDbCircle
 10
228.3440594454
 20
-393.8161575612
 30
0.0
 40
0.6456791429336824
100
AcDbArc
 50
315.3544713609
 51
1.9112857849
  0
ARC
  5
506
330
3D8
100
AcDbEntity
  8
0
  6
Continuous
 62
     8
370
    25
100
AcDbCircle
 10
-220.866125545
 20
-212.6998666709
 30
0.0
 40
0.7055990676823204
100
AcDbArc
 50
71.12277008
 51
131.7872519911
  0
ARC
  5
507
330
3D8
100
AcDbEntity
  8
0
  6
Continuous
 62
     8
370
    25
100
AcDbCircle
 10
221.606436629
 20
297.2529222703
 30
0.0
 40
0.5107007420493963
100
AcDbArc
 50
169.35156043
 51
234.3744174932
  0
ARC
  5
508
330
3D8
100
AcDbEntity
  8
0
  6
Continuous
 62
     8
370
    25
100
AcDbCircle
 10
221.8103240004
 20
297.540899115
 30
0.0
 40
0.6456791429338483
100
AcDbArc
 50
315.3544713609
 51
1.9112857849
  0
ARC
  5
509
330
3D8
100
AcDbEntity
  8
0
  6
Continuous
 62
     8
370
    25
100
AcDbCircle
 10
-220.6026242097
 20
417.4358696123
 30
0.0
 40
0.5107007420496446
100
AcDbArc
 50
169.35156043
 51
234.3744174932
  0
ARC
  5
50A
330
3D8
100
AcDbEntity
  8
0
  6
Continuous
 62
     8
370
    25
100
AcDbCircle
 10
314.2160110085
 20
387.7316824623
 30
0.0
 40
0.6456791429341248
100
AcDbArc
 50
315.3544713609
 51
1.9112857848
  0
ARC
  5
50B
330
3D8
100
AcDbEntity
  8
0
  6
Continuous
 62
     8
370
    25
100
AcDbCircle
 10
314.6450569877
 20
407.7200343564
 30
0.0
 40
0.3320586230400042
100
AcDbArc
 50
310.6406362013
 51
357.9974645044
  0
ARC
  5
50C
330
3D8
100
AcDbEntity
  8
0
  6
Continuous
 62
     8
370
    25
100
AcDbCircle
 10
314.195620665
 20
408.4065082792
 30
0.0
 40
0.270449173438485
100
AcDbArc
 50
80.7318299953
 51
143.9675277135
  0
ARC
  5
50D
330
3D8
100
AcDbEntity
  8
0
  6
Continuous
 62
     8
370
    25
100
AcDbCircle
 10
-128.0134401737
 20
528.5894556212
 30
0.0
 40
0.2704491734406906
100
AcDbArc
 50
80.7318299955
 51
143.9675277133
  0
ARC
  5
50E
330
3D8
100
AcDbEntity
  8
0
  6
Continuous
 62
     8
370
    25
100
AcDbCircle
 10
314.6450569877
 20
388.0051864402
 30
0.0
 40
0.3320586230397122
100
AcDbArc
 50
310.6406362013
 51
357.9974645044
  0
ARC
  5
50F
330
3D8
100
AcDbEntity
  8
0
  6
Continuous
 62
     8
370
    25
100
AcDbCircle
 10
-220.866125545
 20
437.890114562
 30
0.0
 40
0.7055990676823035
100
AcDbArc
 50
71.12277008
 51
131.7872519911
  0
ARC
  5
510
330
3D8
100
AcDbEntity
  8
0
  6
Continuous
 62
     8
370
    25
100
AcDbCircle
 10
-128.4581744721
 20
528.0697247762
 30
0.0
 40
0.7154618884851404
100
AcDbArc
 50
71.583829316
 51
131.326192755
  0
VIEWPORT
  5
645
330
3D8
100
AcDbEntity
  8
0
100
AcDbViewport
 10
0.0
 20
0.0
 30
0.0
 40
205.6
 41
156.0
 68
     1
 69
     1
 12
0.0
 22
21.5
 13
0.0
 23
0.0
 14
10.0
 24
10.0
 15
10.0
 25
10.0
 16
0.0
 26
0.0
 36
1.0
 17
0.0
 27
0.0
 37
0.0
 42
50.0
 43
0.0
 44
0.0
 45
855.78
 50
0.0
 51
0.0
 72
   100
 90
   557152
  1

281
     0
 71
     1
 74
     0
110
0.0
120
0.0
130
0.0
111
1.0
121
0.0
131
0.0
112
0.0
122
1.0
132
0.0
 79
     0
146
0.0
  0
ENDBLK
  5
3DB
330
3D8
100
AcDbEntity
  8
0
100
AcDbBlockEnd
  0
BLOCK
  5
513
330
511
100
AcDbEntity
  8
0
100
AcDbBlockBegin
  2
*Paper_Space6
 70
     0
 10
0.0
 20
0.0
 30
0.0
  3
*Paper_Space6
  1

  0
LWPOLYLINE
  5
586
330
511
100
AcDbEntity
  8
0
  6
Continuous
 62
     8
370
    25
100
AcDbPolyline
 90
        3
 70
   128
 43
0.0
 10
239.2818875387
 20
273.1912940457
 10
239.2258623835
 20
273.1846606296
 10
239.1568875387
 20
273.1419463456
  0
LWPOLYLINE
  5
587
330
511
100
AcDbEntity
  8
0
  6
Continuous
 62
     8
370
    25
100
AcDbPolyline
 90
        3
 70
   128
 43
0.0
 10
240.0923018854
 20
272.0812861739
 10
240.1433030059
 20
272.1443807457
 10
240.1568875387
 20
272.199137304
  0
LWPOLYLINE
  5
588
330
511
100
AcDbEntity
  8
0
  6
Continuous
 62
     8
370
    25
100
AcDbPolyline
 90
        3
 70
   128
 43
0.0
 10
240.0923018854
 20
-321.8884100405
 10
240.1433030059
 20
-321.8253154687
 10
240.1568875387
 20
-321.7705589103
  0
LWPOLYLINE
  5
589
330
511
100
AcDbEntity
  8
0
  6
Continuous
 62
     8
370
    25
100
AcDbPolyline
 90
        8
 70
   128
 43
0.0
 10
-234.5000332905
 20
326.759435425
 10
-234.4995424849
 20
326.7489931478
 10
-234.4742256343
 20
326.684195603
 10
-234.4114711183
 20
326.6222894824
 10
-234.3136905576
 20
326.5656538035
 10
-234.1846416046
 20
326.5164650436
 10
-234.0292835379
 20
326.4766134992
 10
-233.853586681
 20
326.4476306429
  0
LWPOLYLINE
  5
58B
330
511
100
AcDbEntity
  8
0
  6
Continuous
 62
     8
370
    25
100
AcDbPolyline
 90
        8
 70
   128
 43
0.0
 10
-234.5000332905
 20
-267.2102607893
 10
-234.4995424849
 20
-267.2207030666
 10
-234.4742256343
 20
-267.2855006113
 10
-234.4114711183
 20
-267.3474067319
 10
-234.3136905576
 20
-267.4040424109
 10
-234.1846416046
 20
-267.4532311707
 10
-234.0292835379
 20
-267.4930827151
 10
-233.853586681
 20
-267.5220655715
  0
LWPOLYLINE
  5
58D
330
511
100
AcDbEntity
  8
0
  6
Continuous
 62
     8
370
    25
100
AcDbPolyline
 90
        8
 70
   128
 43
0.0
 10
233.853586681
 20
-326.4476306429
 10
233.8603801103
 20
-326.6255723209
 10
233.8804993304
 20
-326.7846933172
 10
233.913171171
 20
-326.918878701
 10
233.9571400716
 20
-327.0229718032
 10
234.010716332
 20
-327.0929723845
 10
234.0718410465
 20
-327.1261903616
 10
234.0821400716
 20
-327.1279826023
  0
LWPOLYLINE
  5
58E
330
511
100
AcDbEntity
  8
0
  6
Continuous
 62
     8
370
    25
100
AcDbPolyline
 90
        8
 70
   128
 43
0.0
 10
-233.6250332905
 20
-268.202417531
 10
-233.6353323155
 20
-268.2006252902
 10
-233.6964570301
 20
-268.1674073131
 10
-233.7500332905
 20
-268.0974067319
 10
-233.7940021911
 20
-267.9933136296
 10
-233.8266740317
 20
-267.8591282458
 10
-233.8467932518
 20
-267.7000072496
 10
-233.853586681
 20
-267.5220655715
  0
LWPOLYLINE
  5
594
330
511
100
AcDbEntity
  8
0
  6
Continuous
 62
     8
370
    25
100
AcDbPolyline
 90
        3
 70
   128
 43
0.0
 10
240.0923018854
 20
366.3621903349
 10
240.1433030059
 20
366.4252849067
 10
240.1568875387
 20
366.480041465
  0
LWPOLYLINE
  5
595
330
511
100
AcDbEntity
  8
0
  6
Continuous
 62
     8
370
    25
100
AcDbPolyline
 90
        3
 70
   128
 43
0.0
 10
240.1568875387
 20
275.9703734705
 10
240.1433030059
 20
275.9156169121
 10
240.0923018854
 20
275.8525223403
  0
LWPOLYLINE
  5
596
330
511
100
AcDbEntity
  8
0
  6
Continuous
 62
     8
370
    25
100
AcDbPolyline
 90
        8
 70
   128
 43
0.0
 10
234.0821400716
 20
270.6129497785
 10
234.0718410465
 20
270.6147420192
 10
234.010716332
 20
270.6479599963
 10
233.9571400716
 20
270.7179605776
 10
233.913171171
 20
270.8220536798
 10
233.8804993304
 20
270.9562390636
 10
233.8603801103
 20
271.1153600599
 10
233.853586681
 20
271.293301738
  0
LWPOLYLINE
  5
598
330
511
100
AcDbEntity
  8
0
  6
Continuous
 62
     8
370
    25
100
AcDbPolyline
 90
        8
 70
   128
 43
0.0
 10
-233.6250332905
 20
329.5385148498
 10
-233.6353323155
 20
329.5403070906
 10
-233.6964570301
 20
329.5735250677
 10
-233.7500332905
 20
329.6435256489
 10
-233.7940021911
 20
329.7476187512
 10
-233.8266740317
 20
329.881804135
 10
-233.8467932518
 20
330.0409251312
 10
-233.853586681
 20
330.2188668093
  0
LWPOLYLINE
  5
59A
330
511
100
AcDbEntity
  8
0
  6
Continuous
 62
     8
370
    25
100
AcDbPolyline
 90
        8
 70
   128
 43
0.0
 10
-233.853586681
 20
420.7285348039
 10
-234.0292835379
 20
420.7575176603
 10
-234.1846416046
 20
420.7973692046
 10
-234.3136905576
 20
420.8465579645
 10
-234.4114711183
 20
420.9031936434
 10
-234.4742256343
 20
420.965099764
 10
-234.4995424849
 20
421.0298973088
 10
-234.5000332905
 20
421.040339586
  0
LWPOLYLINE
  5
59C
330
511
100
AcDbEntity
  8
0
  6
Continuous
 62
     8
370
    25
100
AcDbPolyline
 90
        8
 70
   128
 43
0.0
 10
-234.5000332905
 20
330.5306715915
 10
-234.4995424849
 20
330.5202293142
 10
-234.4742256343
 20
330.4554317695
 10
-234.4114711183
 20
330.3935256489
 10
-234.3136905576
 20
330.33688997
 10
-234.1846416046
 20
330.2877012101
 10
-234.0292835379
 20
330.2478496657
 10
-233.853586681
 20
330.2188668093
  0
LWPOLYLINE
  5
59F
330
511
100
AcDbEntity
  8
0
  6
Continuous
 62
     8
370
    25
100
AcDbPolyline
 90
        3
 70
   128
 43
0.0
 10
239.2818875387
 20
-324.5496383351
 10
239.2258623835
 20
-324.5562717512
 10
239.1568875387
 20
-324.5989860352
  0
LWPOLYLINE
  5
5A0
330
511
100
AcDbEntity
  8
0
  6
Continuous
 62
     8
370
    25
100
AcDbPolyline
 90
        3
 70
   128
 43
0.0
 10
240.1568875387
 20
-325.5417950768
 10
240.1433030059
 20
-325.5965516351
 10
240.0923018854
 20
-325.6596462069
  0
LWPOLYLINE
  5
5A1
330
511
100
AcDbEntity
  8
0
  6
Continuous
 62
     8
370
    25
100
AcDbPolyline
 90
        3
 70
   128
 43
0.0
 10
240.1568875387
 20
-399.0809003224
 10
240.1433030059
 20
-399.1356568807
 10
240.0923018854
 20
-399.1987514525
  0
LWPOLYLINE
  5
5A2
330
511
100
AcDbEntity
  8
0
  6
Continuous
 62
     8
370
    25
100
AcDbPolyline
 90
        8
 70
   128
 43
0.0
 10
234.0821400716
 20
-404.4383240144
 10
234.0718410465
 20
-404.4365317736
 10
234.010716332
 20
-404.4033137965
 10
233.9571400716
 20
-404.3333132153
 10
233.913171171
 20
-404.229220113
 10
233.8804993304
 20
-404.0950347292
 10
233.8603801103
 20
-403.935913733
 10
233.853586681
 20
-403.7579720549
  0
LWPOLYLINE
  5
5A4
330
511
100
AcDbEntity
  8
0
  6
Continuous
 62
     8
370
    25
100
AcDbPolyline
 90
        8
 70
   128
 43
0.0
 10
-233.853586681
 20
-344.8324069835
 10
-233.8467932518
 20
-345.0103486616
 10
-233.8266740317
 20
-345.1694696579
 10
-233.7940021911
 20
-345.3036550417
 10
-233.7500332905
 20
-345.4077481439
 10
-233.6964570301
 20
-345.4777487252
 10
-233.6353323155
 20
-345.5109667023
 10
-233.6250332905
 20
-345.512758943
  0
LWPOLYLINE
  5
5A6
330
511
100
AcDbEntity
  8
0
  6
Continuous
 62
     8
370
    25
100
AcDbPolyline
 90
        8
 70
   128
 43
0.0
 10
-233.853586681
 20
-271.293301738
 10
-234.0292835379
 20
-271.2643188816
 10
-234.1846416046
 20
-271.2244673372
 10
-234.3136905576
 20
-271.1752785773
 10
-234.4114711183
 20
-271.1186428984
 10
-234.4742256343
 20
-271.0567367778
 10
-234.4995424849
 20
-270.991939233
 10
-234.5000332905
 20
-270.9814969558
  0
LWPOLYLINE
  5
5A8
330
511
100
AcDbEntity
  8
0
  6
Continuous
 62
     8
370
    25
100
AcDbPolyline
 90
        8
 70
   128
 43
0.0
 10
-233.853586681
 20
-344.8324069835
 10
-234.0292835379
 20
-344.8034241272
 10
-234.1846416046
 20
-344.7635725828
 10
-234.3136905576
 20
-344.7143838229
 10
-234.4114711183
 20
-344.657748144
 10
-234.4742256343
 20
-344.5958420234
 10
-234.4995424849
 20
-344.5310444786
 10
-234.5000332905
 20
-344.5206022014
  0
LWPOLYLINE
  5
5A9
330
511
100
AcDbEntity
  8
0
  6
Continuous
 62
     8
370
    25
100
AcDbPolyline
 90
        8
 70
   128
 43
0.0
 10
234.0821400716
 20
363.0082358563
 10
234.0718410465
 20
363.010028097
 10
234.010716332
 20
363.0432460741
 10
233.9571400716
 20
363.1132466553
 10
233.913171171
 20
363.2173397576
 10
233.8804993304
 20
363.3515251414
 10
233.8603801103
 20
363.5106461377
 10
233.853586681
 20
363.6885878157
  0
LWPOLYLINE
  5
5AB
330
511
100
AcDbEntity
  8
0
  6
Continuous
 62
     8
370
    25
100
AcDbPolyline
 90
        8
 70
   128
 43
0.0
 10
-233.6250332905
 20
421.9338009276
 10
-233.6353323155
 20
421.9355931684
 10
-233.6964570301
 20
421.9688111455
 10
-233.7500332905
 20
422.0388117267
 10
-233.7940021911
 20
422.142904829
 10
-233.8266740317
 20
422.2770902128
 10
-233.8467932518
 20
422.436211209
 10
-233.853586681
 20
422.6141528871
  0
LWPOLYLINE
  5
5AD
330
511
100
AcDbEntity
  8
0
  6
Continuous
 62
     8
370
    25
100
AcDbPolyline
 90
        8
 70
   128
 43
0.0
 10
-233.853586681
 20
444.2987608441
 10
-234.0292835379
 20
444.3277437005
 10
-234.1846416046
 20
444.3675952449
 10
-234.3136905576
 20
444.4167840048
 10
-234.4114711183
 20
444.4734196837
 10
-234.4742256343
 20
444.5353258043
 10
-234.4995424849
 20
444.600123349
 10
-234.5000332905
 20
444.6105656263
  0
LWPOLYLINE
  5
5AF
330
511
100
AcDbEntity
  8
0
  6
Continuous
 62
     8
370
    25
100
AcDbPolyline
 90
        8
 70
   128
 43
0.0
 10
-233.853586681
 20
422.6141528871
 10
-234.0292835379
 20
422.6431357435
 10
-234.1846416046
 20
422.6829872879
 10
-234.3136905576
 20
422.7321760477
 10
-234.4114711183
 20
422.7888117267
 10
-234.4742256343
 20
422.8507178473
 10
-234.4995424849
 20
422.915515392
 10
-234.5000332905
 20
422.9259576693
  0
LWPOLYLINE
  5
5B1
330
511
100
AcDbEntity
  8
0
  6
Continuous
 62
     8
370
    25
100
AcDbPolyline
 90
        3
 70
   128
 43
0.0
 10
305.210711393
 20
447.422347424
 10
305.1971268601
 20
447.3675908657
 10
305.1461257397
 20
447.3044962939
  0
LWPOLYLINE
  5
5B2
330
511
100
AcDbEntity
  8
0
  6
Continuous
 62
     8
370
    25
100
AcDbPolyline
 90
        3
 70
   128
 43
0.0
 10
304.210711393
 20
448.3651564657
 10
304.2796862378
 20
448.4078707496
 10
304.3357113929
 20
448.4145041657
  0
LWPOLYLINE
  5
5B3
330
511
100
AcDbEntity
  8
0
  6
Continuous
 62
     8
370
    25
100
AcDbPolyline
 90
        3
 70
   128
 43
0.0
 10
305.210711393
 20
425.737739467
 10
305.1971268601
 20
425.6829829087
 10
305.1461257397
 20
425.6198883369
  0
LWPOLYLINE
  5
5B4
330
511
100
AcDbEntity
  8
0
  6
Continuous
 62
     8
370
    25
100
AcDbPolyline
 90
        3
 70
   128
 43
0.0
 10
-163.4964619691
 20
507.290721537
 10
-163.4274871243
 20
507.333435821
 10
-163.3714619692
 20
507.340069237
  0
LINE
  5
5B5
330
511
100
AcDbEntity
  8
0
  6
Continuous
 62
     7
370
    25
100
AcDbLine
 10
240.1568875387
 20
-321.7705589103
 30
0.0
 11
240.1568875387
 21
272.199137304
 31
0.0
  0
LINE
  5
5B6
330
511
100
AcDbEntity
  8
0
  6
Continuous
 62
     7
370
    25
100
AcDbLine
 10
239.2818875387
 20
273.1912940457
 30
0.0
 11
237.7381058073
 21
273.3857922618
 31
0.0
  0
LINE
  5
5B7
330
511
100
AcDbEntity
  8
0
  6
Continuous
 62
     7
370
    25
100
AcDbLine
 10
-234.5000332905
 20
326.759435425
 30
0.0
 11
-234.5000332905
 21
-267.2102607893
 31
0.0
  0
LINE
  5
5B8
330
511
100
AcDbEntity
  8
0
  6
Continuous
 62
     7
370
    25
100
AcDbLine
 10
-232.0812515591
 20
329.3440166337
 30
0.0
 11
-234.1614711183
 21
327.509435425
 31
0.0
  0
LINE
  5
5B9
330
511
100
AcDbEntity
  8
0
  6
Continuous
 62
     7
370
    25
100
AcDbLine
 10
-233.6250332905
 20
-268.202417531
 30
0.0
 11
234.0821400716
 21
-327.1279826023
 31
0.0
  0
LINE
  5
5BA
330
511
100
AcDbEntity
  8
0
  6
Continuous
 62
     7
370
    25
100
AcDbLine
 10
234.8685778993
 20
-326.8858258607
 30
0.0
 11
239.8183253665
 21
-322.5205589103
 31
0.0
  0
LINE
  5
5BB
330
511
100
AcDbEntity
  8
0
  6
Continuous
 62
     7
370
    25
100
AcDbLine
 10
240.1568875387
 20
275.9703734705
 30
0.0
 11
240.1568875387
 21
366.480041465
 31
0.0
  0
LINE
  5
5BC
330
511
100
AcDbEntity
  8
0
  6
Continuous
 62
     7
370
    25
100
AcDbLine
 10
-233.6250332905
 20
329.5385148498
 30
0.0
 11
234.0821400716
 21
270.6129497785
 31
0.0
  0
LINE
  5
5BD
330
511
100
AcDbEntity
  8
0
  6
Continuous
 62
     7
370
    25
100
AcDbLine
 10
234.8685778993
 20
270.8551065201
 30
0.0
 11
239.8183253665
 21
275.2203734705
 31
0.0
  0
LINE
  5
5BE
330
511
100
AcDbEntity
  8
0
  6
Continuous
 62
     7
370
    25
100
AcDbLine
 10
-234.5000332905
 20
421.040339586
 30
0.0
 11
-234.5000332905
 21
330.5306715915
 31
0.0
  0
LINE
  5
5BF
330
511
100
AcDbEntity
  8
0
  6
Continuous
 62
     7
370
    25
100
AcDbLine
 10
-233.9086915624
 20
422.0132701998
 30
0.0
 11
-234.1614711183
 21
421.790339586
 31
0.0
  0
LINE
  5
5C0
330
511
100
AcDbEntity
  8
0
  6
Continuous
 62
     7
370
    25
100
AcDbLine
 10
240.1568875387
 20
-399.0809003224
 30
0.0
 11
240.1568875387
 21
-325.5417950768
 31
0.0
  0
LINE
  5
5C1
330
511
100
AcDbEntity
  8
0
  6
Continuous
 62
     7
370
    25
100
AcDbLine
 10
239.2818875387
 20
-324.5496383351
 30
0.0
 11
237.7381058073
 21
-324.355140119
 31
0.0
  0
LINE
  5
5C2
330
511
100
AcDbEntity
  8
0
  6
Continuous
 62
     7
370
    25
100
AcDbLine
 10
-233.6250332905
 20
-345.512758943
 30
0.0
 11
234.0821400716
 21
-404.4383240144
 31
0.0
  0
LINE
  5
5C3
330
511
100
AcDbEntity
  8
0
  6
Continuous
 62
     7
370
    25
100
AcDbLine
 10
234.8685778993
 20
-404.1961672727
 30
0.0
 11
239.8183253665
 21
-399.8309003224
 31
0.0
  0
LINE
  5
5C4
330
511
100
AcDbEntity
  8
0
  6
Continuous
 62
     7
370
    25
100
AcDbLine
 10
-234.5000332905
 20
-270.9814969558
 30
0.0
 11
-234.5000332905
 21
-344.5206022014
 31
0.0
  0
LINE
  5
5C5
330
511
100
AcDbEntity
  8
0
  6
Continuous
 62
     7
370
    25
100
AcDbLine
 10
-232.0812515591
 20
-268.3969157471
 30
0.0
 11
-234.1614711183
 21
-270.2314969558
 31
0.0
  0
LINE
  5
5C6
330
511
100
AcDbEntity
  8
0
  6
Continuous
 62
     7
370
    25
100
AcDbLine
 10
-233.6250332905
 20
421.9338009276
 30
0.0
 11
234.0821400716
 21
363.0082358563
 31
0.0
  0
LINE
  5
5C7
330
511
100
AcDbEntity
  8
0
  6
Continuous
 62
     7
370
    25
100
AcDbLine
 10
234.8685778993
 20
363.2503925979
 30
0.0
 11
304.8721492207
 21
424.987739467
 31
0.0
  0
LINE
  5
5C8
330
511
100
AcDbEntity
  8
0
  6
Continuous
 62
     7
370
    25
100
AcDbLine
 10
-234.5000332905
 20
444.6105656263
 30
0.0
 11
-234.5000332905
 21
422.9259576693
 31
0.0
  0
LINE
  5
5C9
330
511
100
AcDbEntity
  8
0
  6
Continuous
 62
     7
370
    25
100
AcDbLine
 10
-164.1578997969
 20
507.0979124954
 30
0.0
 11
-234.1614711183
 21
445.3605656263
 31
0.0
  0
LINE
  5
5CA
330
511
100
AcDbEntity
  8
0
  6
Continuous
 62
     7
370
    25
100
AcDbLine
 10
305.210711393
 20
425.737739467
 30
0.0
 11
305.210711393
 21
447.422347424
 31
0.0
  0
LINE
  5
5CB
330
511
100
AcDbEntity
  8
0
  6
Continuous
 62
     7
370
    25
100
AcDbLine
 10
304.3357113929
 20
448.4145041657
 30
0.0
 11
-163.3714619692
 21
507.340069237
 31
0.0
  0
LINE
  5
5CC
330
511
100
AcDbEntity
  8
0
  6
Continuous
 62
     7
370
    25
100
AcDbLine
 10
233.853586681
 20
-326.4476306429
 30
0.0
 11
233.853586681
 21
267.5220655715
 31
0.0
  0
LINE
  5
5CD
330
511
100
AcDbEntity
  8
0
  6
Continuous
 62
     7
370
    25
100
AcDbLine
 10
235.1425544183
 20
267.7160192235
 30
0.0
 11
235.1425544183
 21
-326.2536769908
 31
0.0
  0
LINE
  5
5CE
330
511
100
AcDbEntity
  8
0
  6
Continuous
 62
     7
370
    25
100
AcDbLine
 10
233.853586681
 20
267.5220655715
 30
0.0
 11
-233.853586681
 21
326.4476306429
 31
0.0
  0
LINE
  5
5CF
330
511
100
AcDbEntity
  8
0
  6
Continuous
 62
     7
370
    25
100
AcDbLine
 10
-233.5000332905
 20
327.7022444666
 30
0.0
 11
234.2071400715
 21
268.7766793953
 31
0.0
  0
LINE
  5
5D0
330
511
100
AcDbEntity
  8
0
  6
Continuous
 62
     7
370
    25
100
AcDbLine
 10
-233.853586681
 20
-267.5220655715
 30
0.0
 11
233.853586681
 21
-326.4476306429
 31
0.0
  0
LINE
  5
5D1
330
511
100
AcDbEntity
  8
0
  6
Continuous
 62
     7
370
    25
100
AcDbLine
 10
-233.853586681
 20
326.4476306429
 30
0.0
 11
-233.853586681
 21
-267.5220655715
 31
0.0
  0
LINE
  5
5D2
330
511
100
AcDbEntity
  8
0
  6
Continuous
 62
     7
370
    25
100
AcDbLine
 10
240.0923018854
 20
272.0812861739
 30
0.0
 11
235.1425544183
 21
267.7160192235
 31
0.0
  0
LINE
  5
5D3
330
511
100
AcDbEntity
  8
0
  6
Continuous
 62
     7
370
    25
100
AcDbLine
 10
234.2071400715
 20
268.7766793953
 30
0.0
 11
239.1568875387
 21
273.1419463456
 31
0.0
  0
LINE
  5
5D4
330
511
100
AcDbEntity
  8
0
  6
Continuous
 62
     7
370
    25
100
AcDbLine
 10
240.0923018854
 20
-321.8884100405
 30
0.0
 11
240.0923018854
 21
272.0812861739
 31
0.0
  0
LINE
  5
5D5
330
511
100
AcDbEntity
  8
0
  6
Continuous
 62
     7
370
    25
100
AcDbLine
 10
235.1425544183
 20
-326.2536769908
 30
0.0
 11
240.0923018854
 21
-321.8884100405
 31
0.0
  0
LINE
  5
5D6
330
511
100
AcDbEntity
  8
0
  6
Continuous
 62
     7
370
    25
100
AcDbLine
 10
233.853586681
 20
271.293301738
 30
0.0
 11
233.853586681
 21
361.8029697325
 31
0.0
  0
LINE
  5
5D7
330
511
100
AcDbEntity
  8
0
  6
Continuous
 62
     7
370
    25
100
AcDbLine
 10
235.1425544183
 20
361.9969233845
 30
0.0
 11
235.1425544183
 21
271.48725539
 31
0.0
  0
LINE
  5
5D8
330
511
100
AcDbEntity
  8
0
  6
Continuous
 62
     7
370
    25
100
AcDbLine
 10
233.853586681
 20
361.8029697325
 30
0.0
 11
-233.853586681
 21
420.7285348039
 31
0.0
  0
LINE
  5
5D9
330
511
100
AcDbEntity
  8
0
  6
Continuous
 62
     7
370
    25
100
AcDbLine
 10
-233.853586681
 20
330.2188668093
 30
0.0
 11
233.853586681
 21
271.293301738
 31
0.0
  0
LINE
  5
5DA
330
511
100
AcDbEntity
  8
0
  6
Continuous
 62
     7
370
    25
100
AcDbLine
 10
-233.853586681
 20
420.7285348039
 30
0.0
 11
-233.853586681
 21
330.2188668093
 31
0.0
  0
LINE
  5
5DB
330
511
100
AcDbEntity
  8
0
  6
Continuous
 62
     7
370
    25
100
AcDbLine
 10
240.0923018854
 20
366.3621903349
 30
0.0
 11
235.1425544183
 21
361.9969233845
 31
0.0
  0
LINE
  5
5DC
330
511
100
AcDbEntity
  8
0
  6
Continuous
 62
     7
370
    25
100
AcDbLine
 10
240.0923018854
 20
275.8525223403
 30
0.0
 11
240.0923018854
 21
366.3621903349
 31
0.0
  0
LINE
  5
5DD
330
511
100
AcDbEntity
  8
0
  6
Continuous
 62
     7
370
    25
100
AcDbLine
 10
235.1425544183
 20
271.48725539
 30
0.0
 11
240.0923018854
 21
275.8525223403
 31
0.0
  0
LINE
  5
5DE
330
511
100
AcDbEntity
  8
0
  6
Continuous
 62
     7
370
    25
100
AcDbLine
 10
235.1425544183
 20
-330.0249131573
 30
0.0
 11
235.1425544183
 21
-403.5640184029
 31
0.0
  0
LINE
  5
5DF
330
511
100
AcDbEntity
  8
0
  6
Continuous
 62
     7
370
    25
100
AcDbLine
 10
233.853586681
 20
-403.7579720549
 30
0.0
 11
233.853586681
 21
-330.2188668093
 31
0.0
  0
LINE
  5
5E0
330
511
100
AcDbEntity
  8
0
  6
Continuous
 62
     7
370
    25
100
AcDbLine
 10
233.853586681
 20
-330.2188668093
 30
0.0
 11
-233.853586681
 21
-271.293301738
 31
0.0
  0
LINE
  5
5E1
330
511
100
AcDbEntity
  8
0
  6
Continuous
 62
     7
370
    25
100
AcDbLine
 10
-233.5000332905
 20
-270.0386879142
 30
0.0
 11
234.2071400715
 21
-328.9642529855
 31
0.0
  0
LINE
  5
5E2
330
511
100
AcDbEntity
  8
0
  6
Continuous
 62
     7
370
    25
100
AcDbLine
 10
-233.853586681
 20
-344.8324069835
 30
0.0
 11
233.853586681
 21
-403.7579720549
 31
0.0
  0
LINE
  5
5E3
330
511
100
AcDbEntity
  8
0
  6
Continuous
 62
     7
370
    25
100
AcDbLine
 10
-233.853586681
 20
-271.293301738
 30
0.0
 11
-233.853586681
 21
-344.8324069835
 31
0.0
  0
LINE
  5
5E4
330
511
100
AcDbEntity
  8
0
  6
Continuous
 62
     7
370
    25
100
AcDbLine
 10
240.0923018854
 20
-325.6596462069
 30
0.0
 11
235.1425544183
 21
-330.0249131573
 31
0.0
  0
LINE
  5
5E5
330
511
100
AcDbEntity
  8
0
  6
Continuous
 62
     7
370
    25
100
AcDbLine
 10
234.2071400715
 20
-328.9642529855
 30
0.0
 11
239.1568875387
 21
-324.5989860352
 31
0.0
  0
LINE
  5
5E6
330
511
100
AcDbEntity
  8
0
  6
Continuous
 62
     7
370
    25
100
AcDbLine
 10
240.0923018854
 20
-399.1987514525
 30
0.0
 11
240.0923018854
 21
-325.6596462069
 31
0.0
  0
LINE
  5
5E7
330
511
100
AcDbEntity
  8
0
  6
Continuous
 62
     7
370
    25
100
AcDbLine
 10
235.1425544183
 20
-403.5640184029
 30
0.0
 11
240.0923018854
 21
-399.1987514525
 31
0.0
  0
LINE
  5
5E8
330
511
100
AcDbEntity
  8
0
  6
Continuous
 62
     7
370
    25
100
AcDbLine
 10
240.445855276
 20
367.6168041587
 30
0.0
 11
239.8979022381
 21
367.6858397524
 31
0.0
  0
LINE
  5
5E9
330
511
100
AcDbEntity
  8
0
  6
Continuous
 62
     7
370
    25
100
AcDbLine
 10
240.445855276
 20
367.6168041587
 30
0.0
 11
240.445855276
 21
-399.829755712
 31
0.0
  0
LINE
  5
5EA
330
511
100
AcDbEntity
  8
0
  6
Continuous
 62
     7
370
    25
100
AcDbLine
 10
240.445855276
 20
-399.829755712
 30
0.0
 11
239.8910643699
 21
-399.7598586278
 31
0.0
  0
LINE
  5
5EB
330
511
100
AcDbEntity
  8
0
  6
Continuous
 62
     7
370
    25
100
AcDbLine
 10
304.9448882241
 20
425.0587811615
 30
0.0
 11
305.4996791302
 21
424.9888840774
 31
0.0
  0
LINE
  5
5EC
330
511
100
AcDbEntity
  8
0
  6
Continuous
 62
     7
370
    25
100
AcDbLine
 10
305.4996791302
 20
424.9888840774
 30
0.0
 11
240.445855276
 21
367.6168041587
 31
0.0
  0
LINE
  5
5ED
330
511
100
AcDbEntity
  8
0
  6
Continuous
 62
     7
370
    25
100
AcDbLine
 10
305.4996791302
 20
424.9888840774
 30
0.0
 11
305.4996791302
 21
-342.4576757932
 31
0.0
  0
LINE
  5
5EE
330
511
100
AcDbEntity
  8
0
  6
Continuous
 62
     7
370
    25
100
AcDbLine
 10
305.4996791302
 20
-342.4576757932
 30
0.0
 11
240.445855276
 21
-399.829755712
 31
0.0
  0
LINE
  5
5EF
330
511
100
AcDbEntity
  8
0
  6
Continuous
 62
     7
370
    25
100
AcDbLine
 10
235.1425544183
 20
385.5671494248
 30
0.0
 11
235.1425544183
 21
363.8825414678
 31
0.0
  0
LINE
  5
5F0
330
511
100
AcDbEntity
  8
0
  6
Continuous
 62
     7
370
    25
100
AcDbLine
 10
233.853586681
 20
363.6885878157
 30
0.0
 11
233.853586681
 21
385.3731957728
 31
0.0
  0
LINE
  5
5F1
330
511
100
AcDbEntity
  8
0
  6
Continuous
 62
     7
370
    25
100
AcDbLine
 10
233.853586681
 20
385.3731957728
 30
0.0
 11
-233.853586681
 21
444.2987608441
 31
0.0
  0
LINE
  5
5F2
330
511
100
AcDbEntity
  8
0
  6
Continuous
 62
     7
370
    25
100
AcDbLine
 10
-233.5000332905
 20
445.5533746679
 30
0.0
 11
234.2071400715
 21
386.6278095966
 31
0.0
  0
LINE
  5
5F3
330
511
100
AcDbEntity
  8
0
  6
Continuous
 62
     7
370
    25
100
AcDbLine
 10
-233.853586681
 20
444.2987608441
 30
0.0
 11
-233.853586681
 21
422.6141528871
 31
0.0
  0
LINE
  5
5F4
330
511
100
AcDbEntity
  8
0
  6
Continuous
 62
     7
370
    25
100
AcDbLine
 10
-233.853586681
 20
422.6141528871
 30
0.0
 11
233.853586681
 21
363.6885878157
 31
0.0
  0
LINE
  5
5F5
330
511
100
AcDbEntity
  8
0
  6
Continuous
 62
     7
370
    25
100
AcDbLine
 10
305.1461257397
 20
447.3044962939
 30
0.0
 11
235.1425544183
 21
385.5671494248
 31
0.0
  0
LINE
  5
5F6
330
511
100
AcDbEntity
  8
0
  6
Continuous
 62
     7
370
    25
100
AcDbLine
 10
234.2071400715
 20
386.6278095966
 30
0.0
 11
304.210711393
 21
448.3651564657
 31
0.0
  0
LINE
  5
5F7
330
511
100
AcDbEntity
  8
0
  6
Continuous
 62
     7
370
    25
100
AcDbLine
 10
305.1461257397
 20
425.6198883369
 30
0.0
 11
305.1461257397
 21
447.3044962939
 31
0.0
  0
LINE
  5
5F8
330
511
100
AcDbEntity
  8
0
  6
Continuous
 62
     7
370
    25
100
AcDbLine
 10
235.1425544183
 20
363.8825414678
 30
0.0
 11
305.1461257397
 21
425.6198883369
 31
0.0
  0
LINE
  5
5F9
330
511
100
AcDbEntity
  8
0
  6
Continuous
 62
     7
370
    25
100
AcDbLine
 10
-163.4964619691
 20
507.290721537
 30
0.0
 11
-233.5000332905
 21
445.5533746679
 31
0.0
  0
LINE
  5
5FA
330
511
100
AcDbEntity
  8
0
  6
Continuous
 62
     7
370
    25
100
AcDbLine
 10
304.210711393
 20
448.3651564657
 30
0.0
 11
-163.4964619691
 21
507.290721537
 31
0.0
  0
LINE
  5
5FB
330
511
100
AcDbEntity
  8
0
  6
Continuous
 62
     8
370
    25
100
AcDbLine
 10
-231.6937902503
 20
329.2952010973
 30
0.0
 11
-233.5000332905
 21
327.7022444666
 31
0.0
  0
LINE
  5
5FC
330
511
100
AcDbEntity
  8
0
  6
Continuous
 62
     8
370
    25
100
AcDbLine
 10
239.1568875387
 20
273.1419463456
 30
0.0
 11
237.673520154
 21
273.3288330695
 31
0.0
  0
LINE
  5
5FD
330
511
100
AcDbEntity
  8
0
  6
Continuous
 62
     8
370
    25
100
AcDbLine
 10
239.1568875387
 20
-324.5989860352
 30
0.0
 11
237.673520154
 21
-324.4120993113
 31
0.0
  0
LINE
  5
5FE
330
511
100
AcDbEntity
  8
0
  6
Continuous
 62
     8
370
    25
100
AcDbLine
 10
-231.6937902503
 20
-268.4457312835
 30
0.0
 11
-233.5000332905
 21
-270.0386879142
 31
0.0
  0
ARC
  5
5FF
330
511
100
AcDbEntity
  8
0
  6
Continuous
 62
     7
370
    25
100
AcDbCircle
 10
239.1568875387
 20
272.199137304
 30
0.0
 40
1.000000000000028
100
AcDbArc
 50
360.0
 51
82.8192442221
  0
ARC
  5
600
330
511
100
AcDbEntity
  8
0
  6
Continuous
 62
     7
370
    25
100
AcDbCircle
 10
-233.5000332905
 20
326.759435425
 30
0.0
 40
1.000000000000057
100
AcDbArc
 50
131.40962211
 51
180.0
  0
ARC
  5
601
330
511
100
AcDbEntity
  8
0
  6
Continuous
 62
     7
370
    25
100
AcDbCircle
 10
234.2071400715
 20
-326.1358258607
 30
0.0
 40
0.9999999999999122
100
AcDbArc
 50
262.8192442221
 51
311.40962211
  0
ARC
  5
602
330
511
100
AcDbEntity
  8
0
  6
Continuous
 62
     7
370
    25
100
AcDbCircle
 10
239.1568875387
 20
-321.7705589103
 30
0.0
 40
1.00000000000011
100
AcDbArc
 50
311.40962211
 51
0.0
  0
ARC
  5
603
330
511
100
AcDbEntity
  8
0
  6
Continuous
 62
     7
370
    25
100
AcDbCircle
 10
-233.5000332905
 20
-267.2102607893
 30
0.0
 40
0.9999999999998657
100
AcDbArc
 50
180.0
 51
262.8192442221
  0
ARC
  5
604
330
511
100
AcDbEntity
  8
0
  6
Continuous
 62
     7
370
    25
100
AcDbCircle
 10
239.1568875387
 20
366.480041465
 30
0.0
 40
1.000000000000144
100
AcDbArc
 50
0.0
 51
65.8794226324
  0
ARC
  5
605
330
511
100
AcDbEntity
  8
0
  6
Continuous
 62
     7
370
    25
100
AcDbCircle
 10
234.2071400715
 20
271.6051065201
 30
0.0
 40
0.9999999999996649
100
AcDbArc
 50
262.8192442221
 51
311.40962211
  0
ARC
  5
606
330
511
100
AcDbEntity
  8
0
  6
Continuous
 62
     7
370
    25
100
AcDbCircle
 10
239.1568875387
 20
275.9703734705
 30
0.0
 40
1.000000000000035
100
AcDbArc
 50
311.40962211
 51
0.0
  0
ARC
  5
607
330
511
100
AcDbEntity
  8
0
  6
Continuous
 62
     7
370
    25
100
AcDbCircle
 10
-233.5000332905
 20
421.040339586
 30
0.0
 40
1.000000000000028
100
AcDbArc
 50
131.40962211
 51
180.0
  0
ARC
  5
608
330
511
100
AcDbEntity
  8
0
  6
Continuous
 62
     7
370
    25
100
AcDbCircle
 10
-233.5000332905
 20
330.5306715915
 30
0.0
 40
1.000000000000056
100
AcDbArc
 50
180.0
 51
262.8192442221
  0
ARC
  5
609
330
511
100
AcDbEntity
  8
0
  6
Continuous
 62
     7
370
    25
100
AcDbCircle
 10
239.1568875387
 20
-325.5417950768
 30
0.0
 40
1.00000000000006
100
AcDbArc
 50
0.0
 51
82.8192442221
  0
ARC
  5
60A
330
511
100
AcDbEntity
  8
0
  6
Continuous
 62
     7
370
    25
100
AcDbCircle
 10
234.2071400715
 20
-403.4461672727
 30
0.0
 40
1.00000000000038
100
AcDbArc
 50
262.8192442221
 51
311.40962211
  0
ARC
  5
60B
330
511
100
AcDbEntity
  8
0
  6
Continuous
 62
     7
370
    25
100
AcDbCircle
 10
239.1568875387
 20
-399.0809003224
 30
0.0
 40
0.9999999999998082
100
AcDbArc
 50
311.40962211
 51
0.0
  0
ARC
  5
60C
330
511
100
AcDbEntity
  8
0
  6
Continuous
 62
     7
370
    25
100
AcDbCircle
 10
-233.5000332905
 20
-270.9814969558
 30
0.0
 40
0.9999999999999432
100
AcDbArc
 50
131.40962211
 51
180.0
  0
ARC
  5
60D
330
511
100
AcDbEntity
  8
0
  6
Continuous
 62
     7
370
    25
100
AcDbCircle
 10
-233.5000332905
 20
-344.5206022014
 30
0.0
 40
1.000000000000085
100
AcDbArc
 50
180.0
 51
262.8192442221
  0
ARC
  5
60E
330
511
100
AcDbEntity
  8
0
  6
Continuous
 62
     7
370
    25
100
AcDbCircle
 10
234.2071400715
 20
364.0003925979
 30
0.0
 40
1.000000000000387
100
AcDbArc
 50
262.8192442221
 51
311.4096221099
  0
ARC
  5
60F
330
511
100
AcDbEntity
  8
0
  6
Continuous
 62
     7
370
    25
100
AcDbCircle
 10
-233.5000332905
 20
444.6105656263
 30
0.0
 40
0.9999999999997755
100
AcDbArc
 50
131.40962211
 51
180.0
  0
ARC
  5
610
330
511
100
AcDbEntity
  8
0
  6
Continuous
 62
     7
370
    25
100
AcDbCircle
 10
-233.5000332905
 20
422.9259576693
 30
0.0
 40
1.000000000000053
100
AcDbArc
 50
180.0
 51
262.8192442221
  0
ARC
  5
611
330
511
100
AcDbEntity
  8
0
  6
Continuous
 62
     7
370
    25
100
AcDbCircle
 10
304.210711393
 20
447.422347424
 30
0.0
 40
1.0
100
AcDbArc
 50
0.0
 51
82.8192442221
  0
ARC
  5
612
330
511
100
AcDbEntity
  8
0
  6
Continuous
 62
     7
370
    25
100
AcDbCircle
 10
304.210711393
 20
425.737739467
 30
0.0
 40
0.9999999999993747
100
AcDbArc
 50
311.4096221099
 51
0.0
  0
ARC
  5
613
330
511
100
AcDbEntity
  8
0
  6
Continuous
 62
     7
370
    25
100
AcDbCircle
 10
-163.4964619691
 20
506.3479124954
 30
0.0
 40
1.000000000000753
100
AcDbArc
 50
82.8192442221
 51
131.4096221099
  0
ARC
  5
614
330
511
100
AcDbEntity
  8
0
  6
Continuous
 62
     7
370
    25
100
AcDbCircle
 10
235.8185601897
 20
267.6454540391
 30
0.0
 40
1.968843722548196
100
AcDbArc
 50
144.9309440897
 51
183.5931111895
  0
ARC
  5
615
330
511
100
AcDbEntity
  8
0
  6
Continuous
 62
     7
370
    25
100
AcDbCircle
 10
234.0506287816
 20
267.6958403702
 30
0.0
 40
1.092112073957682
100
AcDbArc
 50
1.0587090425
 51
81.7605351794
  0
ARC
  5
616
330
511
100
AcDbEntity
  8
0
  6
Continuous
 62
     7
370
    25
100
AcDbCircle
 10
234.2216290695
 20
269.456203727
 30
0.0
 40
1.968843722643971
100
AcDbArc
 50
259.2261330329
 51
297.8883001309
  0
ARC
  5
617
330
511
100
AcDbEntity
  8
0
  6
Continuous
 62
     7
370
    25
100
AcDbCircle
 10
234.2216290695
 20
-324.5134924874
 30
0.0
 40
1.968843722643921
100
AcDbArc
 50
259.2261330329
 51
297.8883001309
  0
ARC
  5
618
330
511
100
AcDbEntity
  8
0
  6
Continuous
 62
     7
370
    25
100
AcDbCircle
 10
-231.8886131723
 20
326.5710191104
 30
0.0
 40
1.968843722548583
100
AcDbArc
 50
144.9309440897
 51
183.5931111895
  0
ARC
  5
619
330
511
100
AcDbEntity
  8
0
  6
Continuous
 62
     7
370
    25
100
AcDbCircle
 10
239.0003762488
 20
272.0611073205
 30
0.0
 40
1.092112073957595
100
AcDbArc
 50
1.0587090425
 51
81.7605351794
  0
ARC
  5
61A
330
511
100
AcDbEntity
  8
0
  6
Continuous
 62
     7
370
    25
100
AcDbCircle
 10
234.2216290695
 20
363.737107888
 30
0.0
 40
1.968843722643971
100
AcDbArc
 50
259.2261330329
 51
297.8883001309
  0
ARC
  5
61B
330
511
100
AcDbEntity
  8
0
  6
Continuous
 62
     7
370
    25
100
AcDbCircle
 10
234.2216290695
 20
273.2274398934
 30
0.0
 40
1.968843722643479
100
AcDbArc
 50
259.2261330329
 51
297.8883001309
  0
ARC
  5
61C
330
511
100
AcDbEntity
  8
0
  6
Continuous
 62
     7
370
    25
100
AcDbCircle
 10
234.2216290695
 20
-328.2847286538
 30
0.0
 40
1.968843722643971
100
AcDbArc
 50
259.2261330329
 51
297.8883001309
  0
ARC
  5
61D
330
511
100
AcDbEntity
  8
0
  6
Continuous
 62
     7
370
    25
100
AcDbCircle
 10
235.8185601897
 20
-330.0954783417
 30
0.0
 40
1.968843722548716
100
AcDbArc
 50
144.9309440897
 51
183.5931111895
  0
ARC
  5
61E
330
511
100
AcDbEntity
  8
0
  6
Continuous
 62
     7
370
    25
100
AcDbCircle
 10
234.0506287816
 20
-330.0450920106
 30
0.0
 40
1.092112073957795
100
AcDbArc
 50
1.0587090425
 51
81.7605351794
  0
ARC
  5
61F
330
511
100
AcDbEntity
  8
0
  6
Continuous
 62
     7
370
    25
100
AcDbCircle
 10
234.2216290695
 20
-401.8238338994
 30
0.0
 40
1.968843722644021
100
AcDbArc
 50
259.2261330329
 51
297.8883001309
  0
ARC
  5
620
330
511
100
AcDbEntity
  8
0
  6
Continuous
 62
     7
370
    25
100
AcDbCircle
 10
-231.8886131723
 20
-271.1699132704
 30
0.0
 40
1.968843722548919
100
AcDbArc
 50
144.9309440897
 51
183.5931111895
  0
ARC
  5
621
330
511
100
AcDbEntity
  8
0
  6
Continuous
 62
     7
370
    25
100
AcDbCircle
 10
239.0003762488
 20
-325.6798250603
 30
0.0
 40
1.09211207395768
100
AcDbArc
 50
1.0587090425
 51
81.7605351794
  0
ARC
  5
622
330
511
100
AcDbEntity
  8
0
  6
Continuous
 62
     7
370
    25
100
AcDbCircle
 10
235.8185601897
 20
385.4965842403
 30
0.0
 40
1.968843722548301
100
AcDbArc
 50
144.9309440897
 51
183.5931111895
  0
ARC
  5
623
330
511
100
AcDbEntity
  8
0
  6
Continuous
 62
     7
370
    25
100
AcDbCircle
 10
234.0506287816
 20
385.5469705714
 30
0.0
 40
1.092112073957785
100
AcDbArc
 50
1.0587090425
 51
81.7605351794
  0
ARC
  5
624
330
511
100
AcDbEntity
  8
0
  6
Continuous
 62
     7
370
    25
100
AcDbCircle
 10
234.2216290695
 20
387.3073339283
 30
0.0
 40
1.968843722643655
100
AcDbArc
 50
259.2261330329
 51
297.8883001309
  0
ARC
  5
625
330
511
100
AcDbEntity
  8
0
  6
Continuous
 62
     7
370
    25
100
AcDbCircle
 10
234.2216290695
 20
365.6227259712
 30
0.0
 40
1.968843722643101
100
AcDbArc
 50
259.2261330329
 51
297.8883001309
  0
ARC
  5
626
330
511
100
AcDbEntity
  8
0
  6
Continuous
 62
     7
370
    25
100
AcDbCircle
 10
-231.8886131723
 20
444.4221493117
 30
0.0
 40
1.968843722548664
100
AcDbArc
 50
144.9309440897
 51
183.5931111895
  0
ARC
  5
627
330
511
100
AcDbEntity
  8
0
  6
Continuous
 62
     7
370
    25
100
AcDbCircle
 10
304.054200103
 20
447.2843174405
 30
0.0
 40
1.092112073957654
100
AcDbArc
 50
1.0587090425
 51
81.7605351794
  0
ARC
  5
628
330
511
100
AcDbEntity
  8
0
  6
Continuous
 62
     8
370
    25
100
AcDbCircle
 10
-233.6183263022
 20
326.8771058257
 30
0.0
 40
0.8335748397245113
100
AcDbArc
 50
81.8415869733
 51
130.6612067915
  0
ARC
  5
629
330
511
100
AcDbEntity
  8
0
  6
Continuous
 62
     8
370
    25
100
AcDbCircle
 10
234.3091009264
 20
-326.2678998698
 30
0.0
 40
0.8335748397327578
100
AcDbArc
 50
312.158037431
 51
0.9776572489
  0
ARC
  5
62A
330
511
100
AcDbEntity
  8
0
  6
Continuous
 62
     8
370
    25
100
AcDbCircle
 10
239.2588483935
 20
-321.9026329195
 30
0.0
 40
0.833574839732701
100
AcDbArc
 50
312.158037431
 51
0.9776572489
  0
ARC
  5
62B
330
511
100
AcDbEntity
  8
0
  6
Continuous
 62
     8
370
    25
100
AcDbCircle
 10
235.9922780438
 20
361.9019688629
 30
0.0
 40
2.140981450898223
100
AcDbArc
 50
149.0911541959
 51
182.6503058358
  0
ARC
  5
62C
330
511
100
AcDbEntity
  8
0
  6
Continuous
 62
     8
370
    25
100
AcDbCircle
 10
234.0444104175
 20
361.9737420844
 30
0.0
 40
1.09838864661159
100
AcDbArc
 50
1.2093071833
 51
71.7579057736
  0
ARC
  5
62D
330
511
100
AcDbEntity
  8
0
  6
Continuous
 62
     8
370
    25
100
AcDbCircle
 10
-231.7085985803
 20
420.8266446828
 30
0.0
 40
2.147230658505175
100
AcDbArc
 50
149.2403108045
 51
182.6188335829
  0
ARC
  5
62E
330
511
100
AcDbEntity
  8
0
  6
Continuous
 62
     8
370
    25
100
AcDbCircle
 10
238.9921601048
 20
366.3377292864
 30
0.0
 40
1.10041368601537
100
AcDbArc
 50
1.27373033
 51
63.3966234669
  0
ARC
  5
62F
330
511
100
AcDbEntity
  8
0
  6
Continuous
 62
     8
370
    25
100
AcDbCircle
 10
234.3091009264
 20
271.473032511
 30
0.0
 40
0.8335748397325599
100
AcDbArc
 50
312.158037431
 51
0.9776572489
  0
ARC
  5
630
330
511
100
AcDbEntity
  8
0
  6
Continuous
 62
     8
370
    25
100
AcDbCircle
 10
239.2588483935
 20
275.8382994613
 30
0.0
 40
0.8335748397325599
100
AcDbArc
 50
312.158037431
 51
0.9776572489
  0
ARC
  5
631
330
511
100
AcDbEntity
  8
0
  6
Continuous
 62
     8
370
    25
100
AcDbCircle
 10
-233.6337384036
 20
421.1870587544
 30
0.0
 40
0.801529525337937
100
AcDbArc
 50
101.8529676465
 51
131.1785005512
  0
ARC
  5
632
330
511
100
AcDbEntity
  8
0
  6
Continuous
 62
     8
370
    25
100
AcDbCircle
 10
234.3091009264
 20
-403.5782412818
 30
0.0
 40
0.8335748397326697
100
AcDbArc
 50
312.158037431
 51
0.9776572488
  0
ARC
  5
633
330
511
100
AcDbEntity
  8
0
  6
Continuous
 62
     8
370
    25
100
AcDbCircle
 10
239.2588483935
 20
-399.2129743315
 30
0.0
 40
0.833574839732702
100
AcDbArc
 50
312.158037431
 51
0.9776572489
  0
ARC
  5
634
330
511
100
AcDbEntity
  8
0
  6
Continuous
 62
     8
370
    25
100
AcDbCircle
 10
-233.6183263022
 20
-270.8638265551
 30
0.0
 40
0.8335748397240801
100
AcDbArc
 50
81.8415869733
 51
130.6612067915
  0
ARC
  5
635
330
511
100
AcDbEntity
  8
0
  6
Continuous
 62
     8
370
    25
100
AcDbCircle
 10
234.3091009264
 20
363.8683185888
 30
0.0
 40
0.8335748397327568
100
AcDbArc
 50
312.158037431
 51
0.9776572489
  0
ARC
  5
636
330
511
100
AcDbEntity
  8
0
  6
Continuous
 62
     8
370
    25
100
AcDbCircle
 10
304.3126722478
 20
425.6056654579
 30
0.0
 40
0.8335748397326596
100
AcDbArc
 50
312.158037431
 51
0.9776572489
  0
ARC
  5
637
330
511
100
AcDbEntity
  8
0
  6
Continuous
 62
     8
370
    25
100
AcDbCircle
 10
-233.6183263022
 20
444.7282360269
 30
0.0
 40
0.8335748397238715
100
AcDbArc
 50
81.8415869733
 51
130.6612067915
  0
ARC
  5
638
330
511
100
AcDbEntity
  8
0
  6
Continuous
 62
     8
370
    25
100
AcDbCircle
 10
-163.6147549808
 20
506.465582896
 30
0.0
 40
0.8335748397247836
100
AcDbArc
 50
81.8415869733
 51
130.6612067915
  0
VIEWPORT
  5
647
330
511
100
AcDbEntity
  8
0
100
AcDbViewport
 10
0.0
 20
0.0
 30
0.0
 40
205.6
 41
156.0
 68
     1
 69
     1
 12
0.0
 22
21.5
 13
0.0
 23
0.0
 14
10.0
 24
10.0
 15
10.0
 25
10.0
 16
0.0
 26
0.0
 36
1.0
 17
0.0
 27
0.0
 37
0.0
 42
50.0
 43
0.0
 44
0.0
 45
855.78
 50
0.0
 51
0.0
 72
   100
 90
   557152
  1

281
     0
 71
     1
 74
     0
110
0.0
120
0.0
130
0.0
111
1.0
121
0.0
131
0.0
112
0.0
122
1.0
132
0.0
 79
     0
146
0.0
  0
ENDBLK
  5
514
330
511
100
AcDbEntity
  8
0
100
AcDbBlockEnd
  0
ENDSEC
  0
SECTION
  2
ENTITIES
  0
LINE
  5
D3
330
1F
100
AcDbEntity
  8
0
  6
Continuous
 62
     7
370
    25
100
AcDbLine
 10
250.0
 20
-316.0
 30
0.0
 11
250.0
 21
316.0
 31
0.0
  0
LINE
  5
D4
330
1F
100
AcDbEntity
  8
0
  6
Continuous
 62
     7
370
    25
100
AcDbLine
 10
-251.0
 20
-315.0
 30
0.0
 11
251.0
 21
-315.0
 31
0.0
  0
LINE
  5
D5
330
1F
100
AcDbEntity
  8
0
  6
Continuous
 62
     7
370
    25
100
AcDbLine
 10
-250.0
 20
316.0
 30
0.0
 11
-250.0
 21
-316.0
 31
0.0
  0
LINE
  5
D6
330
1F
100
AcDbEntity
  8
0
  6
Continuous
 62
     7
370
    25
100
AcDbLine
 10
251.0
 20
315.0
 30
0.0
 11
-251.0
 21
315.0
 31
0.0
  0
LINE
  5
D7
330
1F
100
AcDbEntity
  8
0
  6
Continuous
 62
     7
370
    25
100
AcDbLine
 10
250.0
 20
-316.0
 30
0.0
 11
-250.0
 21
-316.0
 31
0.0
  0
LINE
  5
D8
330
1F
100
AcDbEntity
  8
0
  6
Continuous
 62
     7
370
    25
100
AcDbLine
 10
-250.0
 20
316.0
 30
0.0
 11
250.0
 21
316.0
 31
0.0
  0
LINE
  5
D9
330
1F
100
AcDbEntity
  8
0
  6
Continuous
 62
     7
370
    25
100
AcDbLine
 10
-251.0
 20
319.0
 30
0.0
 11
251.0
 21
319.0
 31
0.0
  0
LINE
  5
DA
330
1F
100
AcDbEntity
  8
0
  6
Continuous
 62
     7
370
    25
100
AcDbLine
 10
251.0
 20
415.0
 30
0.0
 11
-251.0
 21
415.0
 31
0.0
  0
LINE
  5
DB
330
1F
100
AcDbEntity
  8
0
  6
Continuous
 62
     7
370
    25
100
AcDbLine
 10
-251.0
 20
416.0
 30
0.0
 11
251.0
 21
416.0
 31
0.0
  0
LINE
  5
DC
330
1F
100
AcDbEntity
  8
0
  6
Continuous
 62
     7
370
    25
100
AcDbLine
 10
250.0
 20
318.0
 30
0.0
 11
-250.0
 21
318.0
 31
0.0
  0
LINE
  5
DD
330
1F
100
AcDbEntity
  8
0
  6
Continuous
 62
     7
370
    25
100
AcDbLine
 10
-250.0
 20
-318.0
 30
0.0
 11
-250.0
 21
-398.0
 31
0.0
  0
LINE
  5
DE
330
1F
100
AcDbEntity
  8
0
  6
Continuous
 62
     7
370
    25
100
AcDbLine
 10
-251.0
 20
-398.0
 30
0.0
 11
-251.0
 21
416.0
 31
0.0
  0
LINE
  5
DF
330
1F
100
AcDbEntity
  8
0
  6
Continuous
 62
     7
370
    25
100
AcDbLine
 10
251.0
 20
416.0
 30
0.0
 11
251.0
 21
-398.0
 31
0.0
  0
LINE
  5
E0
330
1F
100
AcDbEntity
  8
0
  6
Continuous
 62
     7
370
    25
100
AcDbLine
 10
-251.0
 20
-397.0
 30
0.0
 11
251.0
 21
-397.0
 31
0.0
  0
LINE
  5
E1
330
1F
100
AcDbEntity
  8
0
  6
Continuous
 62
     7
370
    25
100
AcDbLine
 10
250.0
 20
-398.0
 30
0.0
 11
250.0
 21
-318.0
 31
0.0
  0
LINE
  5
E2
330
1F
100
AcDbEntity
  8
0
  6
Continuous
 62
     7
370
    25
100
AcDbLine
 10
251.0
 20
-319.0
 30
0.0
 11
-251.0
 21
-319.0
 31
0.0
  0
LINE
  5
E3
330
1F
100
AcDbEntity
  8
0
  6
Continuous
 62
     7
370
    25
100
AcDbLine
 10
251.0
 20
-398.0
 30
0.0
 11
-251.0
 21
-398.0
 31
0.0
  0
LINE
  5
E4
330
1F
100
AcDbEntity
  8
0
  6
Continuous
 62
     7
370
    25
100
AcDbLine
 10
-250.0
 20
-318.0
 30
0.0
 11
250.0
 21
-318.0
 31
0.0
  0
LINE
  5
E5
330
1F
100
AcDbEntity
  8
0
  6
Continuous
 62
     7
370
    25
100
AcDbLine
 10
-235.0
 20
318.0
 30
0.0
 11
-235.0
 21
316.0
 31
0.0
  0
LINE
  5
E6
330
1F
100
AcDbEntity
  8
0
  6
Continuous
 62
     7
370
    25
100
AcDbLine
 10
-235.0
 20
-316.0
 30
0.0
 11
-235.0
 21
-318.0
 31
0.0
  0
LINE
  5
E7
330
1F
100
AcDbEntity
  8
0
  6
Continuous
 62
     7
370
    25
100
AcDbLine
 10
235.0
 20
318.0
 30
0.0
 11
235.0
 21
316.0
 31
0.0
  0
LINE
  5
E8
330
1F
100
AcDbEntity
  8
0
  6
Continuous
 62
     7
370
    25
100
AcDbLine
 10
235.0
 20
-316.0
 30
0.0
 11
235.0
 21
-318.0
 31
0.0
  0
LINE
  5
E9
330
1F
100
AcDbEntity
  8
0
  6
Continuous
 62
     7
370
    25
100
AcDbLine
 10
250.0
 20
318.0
 30
0.0
 11
250.0
 21
441.0
 31
0.0
  0
LINE
  5
EA
330
1F
100
AcDbEntity
  8
0
  6
Continuous
 62
     7
370
    25
100
AcDbLine
 10
251.0
 20
440.0
 30
0.0
 11
-251.0
 21
440.0
 31
0.0
  0
LINE
  5
EB
330
1F
100
AcDbEntity
  8
0
  6
Continuous
 62
     7
370
    25
100
AcDbLine
 10
-250.0
 20
441.0
 30
0.0
 11
-250.0
 21
318.0
 31
0.0
  0
LINE
  5
EC
330
1F
100
AcDbEntity
  8
0
  6
Continuous
 62
     7
370
    25
100
AcDbLine
 10
-250.0
 20
441.0
 30
0.0
 11
250.0
 21
441.0
 31
0.0
  0
LINE
  5
ED
330
1F
100
AcDbEntity
  8
0
  6
Continuous
 62
     7
370
    25
100
AcDbLine
 10
251.0
 20
440.0
 30
0.0
 11
251.0
 21
417.0
 31
0.0
  0
LINE
  5
EE
330
1F
100
AcDbEntity
  8
0
  6
Continuous
 62
     7
370
    25
100
AcDbLine
 10
-251.0
 20
417.0
 30
0.0
 11
251.0
 21
417.0
 31
0.0
  0
LINE
  5
EF
330
1F
100
AcDbEntity
  8
0
  6
Continuous
 62
     7
370
    25
100
AcDbLine
 10
-251.0
 20
417.0
 30
0.0
 11
-251.0
 21
440.0
 31
0.0
  0
ARC
  5
F0
330
1F
100
AcDbEntity
  8
0
  6
Continuous
 62
     7
370
    25
100
AcDbCircle
 10
250.0
 20
-315.0
 30
0.0
 40
1.000000000000114
100
AcDbArc
 50
270.0
 51
0.0
  0
ARC
  5
F1
330
1F
100
AcDbEntity
  8
0
  6
Continuous
 62
     7
370
    25
100
AcDbCircle
 10
-250.0
 20
-315.0
 30
0.0
 40
1.000000000000085
100
AcDbArc
 50
180.0
 51
270.0
  0
ARC
  5
F2
330
1F
100
AcDbEntity
  8
0
  6
Continuous
 62
     7
370
    25
100
AcDbCircle
 10
250.0
 20
315.0
 30
0.0
 40
1.000000000000085
100
AcDbArc
 50
0.0
 51
90.0
  0
ARC
  5
F3
330
1F
100
AcDbEntity
  8
0
  6
Continuous
 62
     7
370
    25
100
AcDbCircle
 10
-250.0
 20
315.0
 30
0.0
 40
1.000000000000114
100
AcDbArc
 50
90.0
 51
180.0
  0
ARC
  5
F4
330
1F
100
AcDbEntity
  8
0
  6
Continuous
 62
     7
370
    25
100
AcDbCircle
 10
250.0
 20
415.0
 30
0.0
 40
1.000000000000085
100
AcDbArc
 50
0.0
 51
90.0
  0
ARC
  5
F5
330
1F
100
AcDbEntity
  8
0
  6
Continuous
 62
     7
370
    25
100
AcDbCircle
 10
-250.0
 20
415.0
 30
0.0
 40
1.000000000000114
100
AcDbArc
 50
90.0
 51
180.0
  0
ARC
  5
F6
330
1F
100
AcDbEntity
  8
0
  6
Continuous
 62
     7
370
    25
100
AcDbCircle
 10
-250.0
 20
319.0
 30
0.0
 40
1.000000000000057
100
AcDbArc
 50
180.0
 51
270.0
  0
ARC
  5
F7
330
1F
100
AcDbEntity
  8
0
  6
Continuous
 62
     7
370
    25
100
AcDbCircle
 10
250.0
 20
319.0
 30
0.0
 40
1.000000000000057
100
AcDbArc
 50
270.0
 51
0.0
  0
ARC
  5
F8
330
1F
100
AcDbEntity
  8
0
  6
Continuous
 62
     7
370
    25
100
AcDbCircle
 10
-250.0
 20
-319.0
 30
0.0
 40
1.000000000000114
100
AcDbArc
 50
90.0
 51
180.0
  0
ARC
  5
F9
330
1F
100
AcDbEntity
  8
0
  6
Continuous
 62
     7
370
    25
100
AcDbCircle
 10
250.0
 20
-397.0
 30
0.0
 40
0.9999999999999432
100
AcDbArc
 50
270.0
 51
0.0
  0
ARC
  5
FA
330
1F
100
AcDbEntity
  8
0
  6
Continuous
 62
     7
370
    25
100
AcDbCircle
 10
-250.0
 20
-397.0
 30
0.0
 40
0.9999999999999432
100
AcDbArc
 50
180.0
 51
270.0
  0
ARC
  5
FB
330
1F
100
AcDbEntity
  8
0
  6
Continuous
 62
     7
370
    25
100
AcDbCircle
 10
250.0
 20
-319.0
 30
0.0
 40
1.000000000000085
100
AcDbArc
 50
0.0
 51
90.0
  0
ARC
  5
FC
330
1F
100
AcDbEntity
  8
0
  6
Continuous
 62
     7
370
    25
100
AcDbCircle
 10
250.0
 20
440.0
 30
0.0
 40
1.000000000000085
100
AcDbArc
 50
0.0
 51
90.0
  0
ARC
  5
FD
330
1F
100
AcDbEntity
  8
0
  6
Continuous
 62
     7
370
    25
100
AcDbCircle
 10
-250.0
 20
417.0
 30
0.0
 40
0.9999999999999432
100
AcDbArc
 50
180.0
 51
270.0
  0
ARC
  5
FE
330
1F
100
AcDbEntity
  8
0
  6
Continuous
 62
     7
370
    25
100
AcDbCircle
 10
250.0
 20
417.0
 30
0.0
 40
0.9999999999999432
100
AcDbArc
 50
270.0
 51
0.0
  0
ARC
  5
FF
330
1F
100
AcDbEntity
  8
0
  6
Continuous
 62
     7
370
    25
100
AcDbCircle
 10
-250.0
 20
440.0
 30
0.0
 40
1.000000000000114
100
AcDbArc
 50
90.0
 51
180.0
  0
LINE
  5
118
330
1B
100
AcDbEntity
 67
     1
  8
0
  6
Continuous
 62
     7
370
    25
100
AcDbLine
 10
-251.0
 20
1.0
 30
0.0
 11
-251.0
 21
200.0
 31
0.0
  0
LINE
  5
119
330
1B
100
AcDbEntity
 67
     1
  8
0
  6
Continuous
 62
     7
370
    25
100
AcDbLine
 10
-251.0
 20
200.0
 30
0.0
 11
251.0
 21
200.0
 31
0.0
  0
LINE
  5
11A
330
1B
100
AcDbEntity
 67
     1
  8
0
  6
Continuous
 62
     7
370
    25
100
AcDbLine
 10
251.0
 20
200.0
 30
0.0
 11
251.0
 21
1.0
 31
0.0
  0
LINE
  5
11B
330
1B
100
AcDbEntity
 67
     1
  8
0
  6
Continuous
 62
     7
370
    25
100
AcDbLine
 10
250.0
 20
0.0
 30
0.0
 11
250.0
 21
200.0
 31
0.0
  0
LINE
  5
11C
330
1B
100
AcDbEntity
 67
     1
  8
0
  6
Continuous
 62
     7
370
    25
100
AcDbLine
 10
251.0
 20
199.0
 30
0.0
 11
-251.0
 21
199.0
 31
0.0
  0
LINE
  5
11D
330
1B
100
AcDbEntity
 67
     1
  8
0
  6
Continuous
 62
     7
370
    25
100
AcDbLine
 10
-251.0
 20
1.0
 30
0.0
 11
251.0
 21
1.0
 31
0.0
  0
LINE
  5
11E
330
1B
100
AcDbEntity
 67
     1
  8
0
  6
Continuous
 62
     7
370
    25
100
AcDbLine
 10
-250.0
 20
200.0
 30
0.0
 11
-250.0
 21
0.0
 31
0.0
  0
LINE
  5
11F
330
1B
100
AcDbEntity
 67
     1
  8
0
  6
Continuous
 62
     7
370
    25
100
AcDbLine
 10
250.0
 20
0.0
 30
0.0
 11
-250.0
 21
0.0
 31
0.0
  0
ARC
  5
120
330
1B
100
AcDbEntity
 67
     1
  8
0
  6
Continuous
 62
     7
370
    25
100
AcDbCircle
 10
250.0
 20
199.0
 30
0.0
 40
1.0
100
AcDbArc
 50
0.0
 51
90.0
  0
ARC
  5
121
330
1B
100
AcDbEntity
 67
     1
  8
0
  6
Continuous
 62
     7
370
    25
100
AcDbCircle
 10
250.0
 20
1.0
 30
0.0
 40
1.0
100
AcDbArc
 50
270.0
 51
0.0
  0
ARC
  5
122
330
1B
100
AcDbEntity
 67
     1
  8
0
  6
Continuous
 62
     7
370
    25
100
AcDbCircle
 10
-250.0
 20
1.0
 30
0.0
 40
1.0
100
AcDbArc
 50
180.0
 51
270.0
  0
ARC
  5
123
330
1B
100
AcDbEntity
 67
     1
  8
0
  6
Continuous
 62
     7
370
    25
100
AcDbCircle
 10
-250.0
 20
199.0
 30
0.0
 40
1.0
100
AcDbArc
 50
90.0
 51
180.0
  0
VIEWPORT
  5
639
330
1B
100
AcDbEntity
 67
     1
  8
0
100
AcDbViewport
 10
0.0
 20
0.0
 30
0.0
 40
205.6
 41
156.0
 68
     1
 69
     1
 12
0.0
 22
21.5
 13
0.0
 23
0.0
 14
10.0
 24
10.0
 15
10.0
 25
10.0
 16
0.0
 26
0.0
 36
1.0
 17
0.0
 27
0.0
 37
0.0
 42
50.0
 43
0.0
 44
0.0
 45
855.78
 50
0.0
 51
0.0
 72
   100
 90
   557152
  1

281
     0
 71
     1
 74
     0
110
0.0
120
0.0
130
0.0
111
1.0
121
0.0
131
0.0
112
0.0
122
1.0
132
0.0
 79
     0
146
0.0
  0
ENDSEC
  0
SECTION
  2
OBJECTS
  0
DICTIONARY
  5
C
330
0
100
AcDbDictionary
281
     1
  3
ACAD_GROUP
350
D
  3
ACAD_LAYOUT
350
1A
  3
ACAD_MLINESTYLE
350
17
  3
ACAD_PLOTSETTINGS
350
19
  3
ACAD_PLOTSTYLENAME
350
E
  3
ACAD_SCALELIST
350
47
  0
DICTIONARY
  5
D
102
{ACAD_REACTORS
330
C
102
}
330
C
100
AcDbDictionary
281
     1
  0
DICTIONARY
  5
1A
102
{ACAD_REACTORS
330
C
102
}
330
C
100
AcDbDictionary
281
     1
  3
_Back
350
1A4
  3
_Bottom
350
265
  3
_Dimetric
350
512
  3
_Isometric
350
299
  3
_Left
350
1E2
  3
_Right
350
26
  3
_Top
350
1E
  3
_Trimetric
350
3D9
  3
Model
350
22
  0
DICTIONARY
  5
17
102
{ACAD_REACTORS
330
C
102
}
330
C
100
AcDbDictionary
281
     1
  3
Standard
350
18
  0
DICTIONARY
  5
19
102
{ACAD_REACTORS
330
C
102
}
330
C
100
AcDbDictionary
281
     1
  0
ACDBDICTIONARYWDFLT
  5
E
102
{ACAD_REACTORS
330
C
102
}
330
C
100
AcDbDictionary
281
     1
  3
Normal
350
F
100
AcDbDictionaryWithDefault
340
F
  0
DICTIONARY
  5
47
102
{ACAD_REACTORS
330
C
102
}
330
C
100
AcDbDictionary
281
     1
  3
A0
350
48
  3
A1
350
49
  3
A2
350
4A
  3
A3
350
4B
  3
A4
350
4C
  3
A5
350
4D
  3
A6
350
4E
  3
A7
350
4F
  3
A8
350
50
  3
A9
350
51
  3
B0
350
52
  3
B1
350
53
  3
B2
350
54
  3
B3
350
55
  3
B4
350
56
  3
B5
350
57
  3
B6
350
58
  3
B7
350
59
  3
B8
350
5A
  3
B9
350
5B
  3
C0
350
5C
  3
C1
350
5D
  3
C2
350
5E
  3
C3
350
5F
  3
C4
350
60
  3
C5
350
61
  3
C6
350
62
  3
C7
350
63
  3
C8
350
64
  3
C9
350
65
  3
D0
350
66
  3
D1
350
67
  3
D2
350
68
  0
LAYOUT
  5
1A4
102
{ACAD_REACTORS
330
1A
102
}
330
1A
100
AcDbPlotSettings
  1

  2
none_device
  4
ISO_A4_(210.00_x_297.00_MM)
  6

 40
7.5
 41
20.0
 42
7.5
 43
20.0
 44
210.0
 45
297.0
 46
0.0
 47
0.0
 48
0.0
 49
0.0
140
0.0
141
0.0
142
1.0
143
1.953307393
 70
   688
 72
     1
 73
     1
 74
     1
  7

 75
     0
147
0.5119521912
148
251.0
149
0.0
100
AcDbLayout
  1
_Back
 70
     1
 71
     3
 10
0.0
 20
0.0
 11
0.0
 21
0.0
 12
0.0
 22
0.0
 32
0.0
 14
0.0
 24
0.0
 34
0.0
 15
0.0
 25
0.0
 35
0.0
146
0.0
 13
0.0
 23
0.0
 33
0.0
 16
1.0
 26
0.0
 36
0.0
 17
0.0
 27
1.0
 37
0.0
 76
     0
330
1A3
331
63D
  0
LAYOUT
  5
265
102
{ACAD_REACTORS
330
1A
102
}
330
1A
100
AcDbPlotSettings
  1

  2
none_device
  4
ISO_A4_(210.00_x_297.00_MM)
  6

 40
7.5
 41
20.0
 42
7.5
 43
20.0
 44
210.0
 45
297.0
 46
0.0
 47
0.0
 48
0.0
 49
0.0
140
0.0
141
0.0
142
1.0
143
1.953307393
 70
   688
 72
     1
 73
     1
 74
     1
  7

 75
     0
147
0.5119521912
148
251.0
149
0.0
100
AcDbLayout
  1
_Bottom
 70
     1
 71
     5
 10
0.0
 20
0.0
 11
0.0
 21
0.0
 12
0.0
 22
0.0
 32
0.0
 14
0.0
 24
0.0
 34
0.0
 15
0.0
 25
0.0
 35
0.0
146
0.0
 13
0.0
 23
0.0
 33
0.0
 16
1.0
 26
0.0
 36
0.0
 17
0.0
 27
1.0
 37
0.0
 76
     0
330
264
331
641
  0
LAYOUT
  5
512
102
{ACAD_REACTORS
330
1A
102
}
330
1A
100
AcDbPlotSettings
  1

  2
none_device
  4
ISO_A4_(210.00_x_297.00_MM)
  6

 40
7.5
 41
20.0
 42
7.5
 43
20.0
 44
210.0
 45
297.0
 46
0.0
 47
0.0
 48
0.0
 49
0.0
140
0.0
141
0.0
142
1.0
143
1.953307393
 70
   688
 72
     1
 73
     1
 74
     1
  7

 75
     0
147
0.5119521912
148
251.0
149
0.0
100
AcDbLayout
  1
_Dimetric
 70
     1
 71
     8
 10
0.0
 20
0.0
 11
0.0
 21
0.0
 12
0.0
 22
0.0
 32
0.0
 14
0.0
 24
0.0
 34
0.0
 15
0.0
 25
0.0
 35
0.0
146
0.0
 13
0.0
 23
0.0
 33
0.0
 16
1.0
 26
0.0
 36
0.0
 17
0.0
 27
1.0
 37
0.0
 76
     0
330
511
331
647
  0
LAYOUT
  5
299
102
{ACAD_REACTORS
330
1A
102
}
330
1A
100
AcDbPlotSettings
  1

  2
none_device
  4
ISO_A4_(210.00_x_297.00_MM)
  6

 40
7.5
 41
20.0
 42
7.5
 43
20.0
 44
210.0
 45
297.0
 46
0.0
 47
0.0
 48
0.0
 49
0.0
140
0.0
141
0.0
142
1.0
143
1.953307393
 70
   688
 72
     1
 73
     1
 74
     1
  7

 75
     0
147
0.5119521912
148
251.0
149
0.0
100
AcDbLayout
  1
_Isometric
 70
     1
 71
     6
 10
0.0
 20
0.0
 11
0.0
 21
0.0
 12
0.0
 22
0.0
 32
0.0
 14
0.0
 24
0.0
 34
0.0
 15
0.0
 25
0.0
 35
0.0
146
0.0
 13
0.0
 23
0.0
 33
0.0
 16
1.0
 26
0.0
 36
0.0
 17
0.0
 27
1.0
 37
0.0
 76
     0
330
298
331
643
  0
LAYOUT
  5
1E2
102
{ACAD_REACTORS
330
1A
102
}
330
1A
100
AcDbPlotSettings
  1

  2
none_device
  4
ISO_A4_(210.00_x_297.00_MM)
  6

 40
7.5
 41
20.0
 42
7.5
 43
20.0
 44
210.0
 45
297.0
 46
0.0
 47
0.0
 48
0.0
 49
0.0
140
0.0
141
0.0
142
1.0
143
1.953307393
 70
   688
 72
     1
 73
     1
 74
     1
  7

 75
     0
147
0.5119521912
148
251.0
149
0.0
100
AcDbLayout
  1
_Left
 70
     1
 71
     4
 10
0.0
 20
0.0
 11
0.0
 21
0.0
 12
0.0
 22
0.0
 32
0.0
 14
0.0
 24
0.0
 34
0.0
 15
0.0
 25
0.0
 35
0.0
146
0.0
 13
0.0
 23
0.0
 33
0.0
 16
1.0
 26
0.0
 36
0.0
 17
0.0
 27
1.0
 37
0.0
 76
     0
330
1E1
331
63F
  0
LAYOUT
  5
26
102
{ACAD_REACTORS
330
1A
102
}
330
1A
100
AcDbPlotSettings
  1

  2
none_device
  4
ISO_A4_(210.00_x_297.00_MM)
  6

 40
7.5
 41
20.0
 42
7.5
 43
20.0
 44
210.0
 45
297.0
 46
0.0
 47
0.0
 48
0.0
 49
0.0
140
0.0
141
0.0
142
1.0
143
1.953307393
 70
   688
 72
     1
 73
     1
 74
     1
  7

 75
     0
147
0.5119521912
148
251.0
149
0.0
100
AcDbLayout
  1
_Right
 70
     1
 71
     2
 10
0.0
 20
0.0
 11
0.0
 21
0.0
 12
0.0
 22
0.0
 32
0.0
 14
0.0
 24
0.0
 34
0.0
 15
0.0
 25
0.0
 35
0.0
146
0.0
 13
0.0
 23
0.0
 33
0.0
 16
1.0
 26
0.0
 36
0.0
 17
0.0
 27
1.0
 37
0.0
 76
     0
330
23
331
63B
  0
LAYOUT
  5
1E
102
{ACAD_REACTORS
330
1A
102
}
330
1A
100
AcDbPlotSettings
  1

  2
none_device
  4
ISO_A4_(210.00_x_297.00_MM)
  6

 40
7.5
 41
20.0
 42
7.5
 43
20.0
 44
210.0
 45
297.0
 46
0.0
 47
0.0
 48
0.0
 49
0.0
140
0.0
141
0.0
142
1.0
143
1.953307393
 70
   688
 72
     1
 73
     1
 74
     1
  7

 75
     0
147
0.5119521912
148
251.0
149
0.0
100
AcDbLayout
  1
_Top
 70
     1
 71
     1
 10
-290.0661478599
 20
-14.6498054475
 11
290.0661478599
 21
395.5447470817
 12
0.0
 22
0.0
 32
0.0
 14
-251.0
 24
0.0
 34
0.0
 15
251.0
 25
200.0
 35
0.0
146
0.0
 13
0.0
 23
0.0
 33
0.0
 16
1.0
 26
0.0
 36
0.0
 17
0.0
 27
1.0
 37
0.0
 76
     0
330
1B
331
639
  0
LAYOUT
  5
3D9
102
{ACAD_REACTORS
330
1A
102
}
330
1A
100
AcDbPlotSettings
  1

  2
none_device
  4
ISO_A4_(210.00_x_297.00_MM)
  6

 40
7.5
 41
20.0
 42
7.5
 43
20.0
 44
210.0
 45
297.0
 46
0.0
 47
0.0
 48
0.0
 49
0.0
140
0.0
141
0.0
142
1.0
143
1.953307393
 70
   688
 72
     1
 73
     1
 74
     1
  7

 75
     0
147
0.5119521912
148
251.0
149
0.0
100
AcDbLayout
  1
_Trimetric
 70
     1
 71
     7
 10
0.0
 20
0.0
 11
0.0
 21
0.0
 12
0.0
 22
0.0
 32
0.0
 14
0.0
 24
0.0
 34
0.0
 15
0.0
 25
0.0
 35
0.0
146
0.0
 13
0.0
 23
0.0
 33
0.0
 16
1.0
 26
0.0
 36
0.0
 17
0.0
 27
1.0
 37
0.0
 76
     0
330
3D8
331
645
  0
LAYOUT
  5
22
102
{ACAD_REACTORS
330
1A
102
}
330
1A
100
AcDbPlotSettings
  1

  2
none_device
  4
ANSI_A_(11.00_x_8.50_Inches)
  6

 40
6.35
 41
19.05
 42
6.35000508
 43
19.05000254
 44
279.4
 45
215.9
 46
133.34999746
 47
83.422726382
 48
0.0
 49
0.0
140
0.0
141
0.0
142
0.0100297974
143
1.0
 70
  1696
 72
     0
 73
     0
 74
     0
  7

 75
     0
147
0.0179189148
148
-1300.4909072572
149
0.0
100
AcDbLayout
  1
Model
 70
     1
 71
     0
 10
0.0
 20
0.0
 11
420.0
 21
297.0
 12
0.0
 22
0.0
 32
0.0
 14
-251.0
 24
-398.0
 34
0.0
 15
251.0
 25
441.0
 35
0.0
146
0.0
 13
0.0
 23
0.0
 33
0.0
 16
1.0
 26
0.0
 36
0.0
 17
0.0
 27
1.0
 37
0.0
 76
     0
330
1F
331
29
  0
MLINESTYLE
  5
18
102
{ACAD_REACTORS
330
17
102
}
330
17
100
AcDbMlineStyle
  2
Standard
 70
     0
  3

 62
   256
 51
90.0
 52
90.0
 71
     2
 49
0.5
 62
   256
  6
BYLAYER
 49
-0.5
 62
   256
  6
BYLAYER
  0
ACDBPLACEHOLDER
  5
F
102
{ACAD_REACTORS
330
E
102
}
330
E
  0
SCALE
  5
48
102
{ACAD_REACTORS
330
47
102
}
330
47
100
AcDbScale
 70
     0
300
1:1
140
1.0
141
1.0
290
     1
  0
SCALE
  5
49
102
{ACAD_REACTORS
330
47
102
}
330
47
100
AcDbScale
 70
     0
300
1:2
140
1.0
141
2.0
290
     0
  0
SCALE
  5
4A
102
{ACAD_REACTORS
330
47
102
}
330
47
100
AcDbScale
 70
     0
300
1:4
140
1.0
141
4.0
290
     0
  0
SCALE
  5
4B
102
{ACAD_REACTORS
330
47
102
}
330
47
100
AcDbScale
 70
     0
300
1:5
140
1.0
141
5.0
290
     0
  0
SCALE
  5
4C
102
{ACAD_REACTORS
330
47
102
}
330
47
100
AcDbScale
 70
     0
300
1:8
140
1.0
141
8.0
290
     0
  0
SCALE
  5
4D
102
{ACAD_REACTORS
330
47
102
}
330
47
100
AcDbScale
 70
     0
300
1:10
140
1.0
141
10.0
290
     0
  0
SCALE
  5
4E
102
{ACAD_REACTORS
330
47
102
}
330
47
100
AcDbScale
 70
     0
300
1:16
140
1.0
141
16.0
290
     0
  0
SCALE
  5
4F
102
{ACAD_REACTORS
330
47
102
}
330
47
100
AcDbScale
 70
     0
300
1:20
140
1.0
141
20.0
290
     0
  0
SCALE
  5
50
102
{ACAD_REACTORS
330
47
102
}
330
47
100
AcDbScale
 70
     0
300
1:30
140
1.0
141
30.0
290
     0
  0
SCALE
  5
51
102
{ACAD_REACTORS
330
47
102
}
330
47
100
AcDbScale
 70
     0
300
1:40
140
1.0
141
40.0
290
     0
  0
SCALE
  5
52
102
{ACAD_REACTORS
330
47
102
}
330
47
100
AcDbScale
 70
     0
300
1:50
140
1.0
141
50.0
290
     0
  0
SCALE
  5
53
102
{ACAD_REACTORS
330
47
102
}
330
47
100
AcDbScale
 70
     0
300
1:100
140
1.0
141
100.0
290
     0
  0
SCALE
  5
54
102
{ACAD_REACTORS
330
47
102
}
330
47
100
AcDbScale
 70
     0
300
2:1
140
2.0
141
1.0
290
     0
  0
SCALE
  5
55
102
{ACAD_REACTORS
330
47
102
}
330
47
100
AcDbScale
 70
     0
300
4:1
140
4.0
141
1.0
290
     0
  0
SCALE
  5
56
102
{ACAD_REACTORS
330
47
102
}
330
47
100
AcDbScale
 70
     0
300
8:1
140
8.0
141
1.0
290
     0
  0
SCALE
  5
57
102
{ACAD_REACTORS
330
47
102
}
330
47
100
AcDbScale
 70
     0
300
10:1
140
10.0
141
1.0
290
     0
  0
SCALE
  5
58
102
{ACAD_REACTORS
330
47
102
}
330
47
100
AcDbScale
 70
     0
300
100:1
140
100.0
141
1.0
290
     0
  0
SCALE
  5
59
102
{ACAD_REACTORS
330
47
102
}
330
47
100
AcDbScale
 70
     0
300
1/128" = 1'-0"
140
0.0078125
141
12.0
290
     0
  0
SCALE
  5
5A
102
{ACAD_REACTORS
330
47
102
}
330
47
100
AcDbScale
 70
     0
300
1/64" = 1'-0"
140
0.015625
141
12.0
290
     0
  0
SCALE
  5
5B
102
{ACAD_REACTORS
330
47
102
}
330
47
100
AcDbScale
 70
     0
300
1/32" = 1'-0"
140
0.03125
141
12.0
290
     0
  0
SCALE
  5
5C
102
{ACAD_REACTORS
330
47
102
}
330
47
100
AcDbScale
 70
     0
300
1/16" = 1'-0"
140
0.0625
141
12.0
290
     0
  0
SCALE
  5
5D
102
{ACAD_REACTORS
330
47
102
}
330
47
100
AcDbScale
 70
     0
300
3/32" = 1'-0"
140
0.09375
141
12.0
290
     0
  0
SCALE
  5
5E
102
{ACAD_REACTORS
330
47
102
}
330
47
100
AcDbScale
 70
     0
300
1/8" = 1'-0"
140
0.125
141
12.0
290
     0
  0
SCALE
  5
5F
102
{ACAD_REACTORS
330
47
102
}
330
47
100
AcDbScale
 70
     0
300
3/16" = 1'-0"
140
0.1875
141
12.0
290
     0
  0
SCALE
  5
60
102
{ACAD_REACTORS
330
47
102
}
330
47
100
AcDbScale
 70
     0
300
1/4" = 1'-0"
140
0.25
141
12.0
290
     0
  0
SCALE
  5
61
102
{ACAD_REACTORS
330
47
102
}
330
47
100
AcDbScale
 70
     0
300
3/8" = 1'-0"
140
0.375
141
12.0
290
     0
  0
SCALE
  5
62
102
{ACAD_REACTORS
330
47
102
}
330
47
100
AcDbScale
 70
     0
300
1/2" = 1'-0"
140
0.5
141
12.0
290
     0
  0
SCALE
  5
63
102
{ACAD_REACTORS
330
47
102
}
330
47
100
AcDbScale
 70
     0
300
3/4" = 1'-0"
140
0.75
141
12.0
290
     0
  0
SCALE
  5
64
102
{ACAD_REACTORS
330
47
102
}
330
47
100
AcDbScale
 70
     0
300
1" = 1'-0"
140
1.0
141
12.0
290
     0
  0
SCALE
  5
65
102
{ACAD_REACTORS
330
47
102
}
330
47
100
AcDbScale
 70
     0
300
1-1/2" = 1'-0"
140
1.5
141
12.0
290
     0
  0
SCALE
  5
66
102
{ACAD_REACTORS
330
47
102
}
330
47
100
AcDbScale
 70
     0
300
3" = 1'-0"
140
3.0
141
12.0
290
     0
  0
SCALE
  5
67
102
{ACAD_REACTORS
330
47
102
}
330
47
100
AcDbScale
 70
     0
300
6" = 1'-0"
140
6.0
141
12.0
290
     0
  0
SCALE
  5
68
102
{ACAD_REACTORS
330
47
102
}
330
47
100
AcDbScale
 70
     0
300
1'-0" = 1'-0"
140
12.0
141
12.0
290
     0
  0
ENDSEC
  0
EOF
