  0
SECTION
  2
HEADER
  9
$ACADVER
  1
AC1015
  9
$ACADMAINTVER
 70
     6
  9
$DWGCODEPAGE
  3
ANSI_1252
  9
$INSBASE
 10
0.0
 20
0.0
 30
0.0
  9
$EXTMIN
 10
-195.0
 20
286.2336521829
 30
0.0
  9
$EXTMAX
 10
195.0
 20
656.1376518677
 30
0.0
  9
$LIMMIN
 10
0.0
 20
0.0
  9
$LIMMAX
 10
420.0
 20
297.0
  9
$ORTHOMODE
 70
     0
  9
$REGENMODE
 70
     1
  9
$FILLMODE
 70
     1
  9
$QTEXTMODE
 70
     0
  9
$MIRRTEXT
 70
     1
  9
$LTSCALE
 40
1.0
  9
$ATTMODE
 70
     1
  9
$TEXTSIZE
 40
3.5
  9
$TRACEWID
 40
1.0
  9
$TEXTSTYLE
  7
Standard
  9
$CLAYER
  8
0
  9
$CELTYPE
  6
ByLayer
  9
$CECOLOR
 62
   256
  9
$CELTSCALE
 40
1.0
  9
$DISPSILH
 70
     0
  9
$DIMSCALE
 40
1.0
  9
$DIMASZ
 40
3.302
  9
$DIMEXO
 40
1.0
  9
$DIMDLI
 40
3.75
  9
$DIMRND
 40
0.0
  9
$DIMDLE
 40
0.0
  9
$DIMEXE
 40
1.0
  9
$DIMTP
 40
0.0
  9
$DIMTM
 40
0.0
  9
$DIMTXT
 40
3.5
  9
$DIMCEN
 40
2.5
  9
$DIMTSZ
 40
0.0
  9
$DIMTOL
 70
     0
  9
$DIMLIM
 70
     0
  9
$DIMTIH
 70
     1
  9
$DIMTOH
 70
     1
  9
$DIMSE1
 70
     0
  9
$DIMSE2
 70
     0
  9
$DIMTAD
 70
     1
  9
$DIMZIN
 70
     1
  9
$DIMBLK
  1

  9
$DIMASO
 70
     1
  9
$DIMSHO
 70
     1
  9
$DIMPOST
  1

  9
$DIMAPOST
  1

  9
$DIMALT
 70
     0
  9
$DIMALTD
 70
     3
  9
$DIMALTF
 40
0.0393700787
  9
$DIMLFAC
 40
1.0
  9
$DIMTOFL
 70
     1
  9
$DIMTVP
 40
0.0
  9
$DIMTIX
 70
     0
  9
$DIMSOXD
 70
     0
  9
$DIMSAH
 70
     0
  9
$DIMBLK1
  1

  9
$DIMBLK2
  1

  9
$DIMSTYLE
  2
ISO-25
  9
$DIMCLRD
 70
     0
  9
$DIMCLRE
 70
     0
  9
$DIMCLRT
 70
     0
  9
$DIMTFAC
 40
1.0
  9
$DIMGAP
 40
1.524
  9
$DIMJUST
 70
     0
  9
$DIMSD1
 70
     0
  9
$DIMSD2
 70
     0
  9
$DIMTOLJ
 70
     0
  9
$DIMTZIN
 70
     1
  9
$DIMALTZ
 70
     0
  9
$DIMALTTZ
 70
     0
  9
$DIMUPT
 70
     0
  9
$DIMDEC
 70
     2
  9
$DIMTDEC
 70
     2
  9
$DIMALTU
 70
     2
  9
$DIMALTTD
 70
     3
  9
$DIMTXSTY
  7
Standard
  9
$DIMAUNIT
 70
     0
  9
$DIMADEC
 70
     2
  9
$DIMALTRND
 40
0.0
  9
$DIMAZIN
 70
     0
  9
$DIMDSEP
 70
    44
  9
$DIMATFIT
 70
     3
  9
$DIMFRAC
 70
     0
  9
$DIMLDRBLK
  1

  9
$DIMLUNIT
 70
     2
  9
$DIMLWD
 70
    -2
  9
$DIMLWE
 70
    -2
  9
$DIMTMOVE
 70
     0
  9
$LUNITS
 70
     2
  9
$LUPREC
 70
     2
  9
$SKETCHINC
 40
1.0
  9
$FILLETRAD
 40
10.0
  9
$AUNITS
 70
     0
  9
$AUPREC
 70
     2
  9
$MENU
  1
.
  9
$ELEVATION
 40
0.0
  9
$PELEVATION
 40
0.0
  9
$THICKNESS
 40
0.0
  9
$LIMCHECK
 70
     0
  9
$CHAMFERA
 40
0.0
  9
$CHAMFERB
 40
0.0
  9
$CHAMFERC
 40
0.0
  9
$CHAMFERD
 40
0.0
  9
$SKPOLY
 70
     0
  9
$TDCREATE
 40
2459676.353266169
  9
$TDUCREATE
 40
2459676.311599502
  9
$TDUPDATE
 40
2459676.353301505
  9
$TDUUPDATE
 40
2459676.311634838
  9
$TDINDWG
 40
0.0000000116
  9
$TDUSRTIMER
 40
0.0000000116
  9
$USRTIMER
 70
     1
  9
$ANGBASE
 50
0.0
  9
$ANGDIR
 70
     0
  9
$PDMODE
 70
     0
  9
$PDSIZE
 40
-1.0
  9
$PLINEWID
 40
0.0
  9
$SPLFRAME
 70
     0
  9
$SPLINETYPE
 70
     6
  9
$SPLINESEGS
 70
     8
  9
$HANDSEED
  5
2A2
  9
$SURFTAB1
 70
     6
  9
$SURFTAB2
 70
     6
  9
$SURFTYPE
 70
     6
  9
$SURFU
 70
     6
  9
$SURFV
 70
     6
  9
$UCSBASE
  2

  9
$UCSNAME
  2

  9
$UCSORG
 10
0.0
 20
0.0
 30
0.0
  9
$UCSXDIR
 10
1.0
 20
0.0
 30
0.0
  9
$UCSYDIR
 10
0.0
 20
1.0
 30
0.0
  9
$UCSORTHOREF
  2

  9
$UCSORTHOVIEW
 70
     0
  9
$UCSORGTOP
 10
0.0
 20
0.0
 30
0.0
  9
$UCSORGBOTTOM
 10
0.0
 20
0.0
 30
0.0
  9
$UCSORGLEFT
 10
0.0
 20
0.0
 30
0.0
  9
$UCSORGRIGHT
 10
0.0
 20
0.0
 30
0.0
  9
$UCSORGFRONT
 10
0.0
 20
0.0
 30
0.0
  9
$UCSORGBACK
 10
0.0
 20
0.0
 30
0.0
  9
$PUCSBASE
  2

  9
$PUCSNAME
  2

  9
$PUCSORG
 10
0.0
 20
0.0
 30
0.0
  9
$PUCSXDIR
 10
1.0
 20
0.0
 30
0.0
  9
$PUCSYDIR
 10
0.0
 20
1.0
 30
0.0
  9
$PUCSORTHOREF
  2

  9
$PUCSORTHOVIEW
 70
     0
  9
$PUCSORGTOP
 10
0.0
 20
0.0
 30
0.0
  9
$PUCSORGBOTTOM
 10
0.0
 20
0.0
 30
0.0
  9
$PUCSORGLEFT
 10
0.0
 20
0.0
 30
0.0
  9
$PUCSORGRIGHT
 10
0.0
 20
0.0
 30
0.0
  9
$PUCSORGFRONT
 10
0.0
 20
0.0
 30
0.0
  9
$PUCSORGBACK
 10
0.0
 20
0.0
 30
0.0
  9
$USERI1
 70
     0
  9
$USERI2
 70
     0
  9
$USERI3
 70
     0
  9
$USERI4
 70
     0
  9
$USERI5
 70
     0
  9
$USERR1
 40
0.0
  9
$USERR2
 40
0.0
  9
$USERR3
 40
0.0
  9
$USERR4
 40
0.0
  9
$USERR5
 40
0.0
  9
$WORLDVIEW
 70
     1
  9
$SHADEDGE
 70
     3
  9
$SHADEDIF
 70
    70
  9
$TILEMODE
 70
     1
  9
$MAXACTVP
 70
    64
  9
$PINSBASE
 10
0.0
 20
0.0
 30
0.0
  9
$PLIMCHECK
 70
     0
  9
$PEXTMIN
 10
-195.0
 20
286.2336521829
 30
0.0
  9
$PEXTMAX
 10
195.0
 20
656.0840449664
 30
0.0
  9
$PLIMMIN
 10
-232.9333736188
 20
272.0086370758
  9
$PLIMMAX
 10
330.3772246207
 20
670.3090600735
  9
$UNITMODE
 70
     0
  9
$VISRETAIN
 70
     1
  9
$PLINEGEN
 70
     0
  9
$PSLTSCALE
 70
     1
  9
$TREEDEPTH
 70
  3020
  9
$CMLSTYLE
  2
Standard
  9
$CMLJUST
 70
     0
  9
$CMLSCALE
 40
20.0
  9
$PROXYGRAPHICS
 70
     1
  9
$MEASUREMENT
 70
     1
  9
$CELWEIGHT
370
    -1
  9
$ENDCAPS
280
     0
  9
$JOINSTYLE
280
     0
  9
$LWDISPLAY
290
     1
  9
$INSUNITS
 70
     4
  9
$HYPERLINKBASE
  1

  9
$STYLESHEET
  1

  9
$XEDIT
290
     1
  9
$CEPSNTYPE
380
     0
  9
$PSTYLEMODE
290
     1
  9
$FINGERPRINTGUID
  2
{df2eea26-d519-44a1-a2ae-d517b519174c}
  9
$VERSIONGUID
  2
{FAEB1C32-E019-11D5-929B-00C0DF256EC4}
  9
$EXTNAMES
290
     1
  9
$PSVPSCALE
 40
0.0
  9
$OLESTARTUP
290
     0
  0
ENDSEC
  0
SECTION
  2
CLASSES
  0
CLASS
  1
ACDBDICTIONARYWDFLT
  2
AcDbDictionaryWithDefault
  3
ObjectDBX Classes
 90
        0
280
     0
281
     0
  0
CLASS
  1
VISUALSTYLE
  2
AcDbVisualStyle
  3
ObjectDBX Classes
 90
     4095
280
     0
281
     0
  0
CLASS
  1
MATERIAL
  2
AcDbMaterial
  3
ObjectDBX Classes
 90
     1153
280
     0
281
     0
  0
CLASS
  1
SCALE
  2
AcDbScale
  3
ObjectDBX Classes
 90
     1153
280
     0
281
     0
  0
CLASS
  1
TABLESTYLE
  2
AcDbTableStyle
  3
ObjectDBX Classes
 90
     4095
280
     0
281
     0
  0
CLASS
  1
MLEADERSTYLE
  2
AcDbMLeaderStyle
  3
ACDB_MLEADERSTYLE_CLASS
 90
     4095
280
     0
281
     0
  0
CLASS
  1
SUN
  2
AcDbSun
  3
SCENEOE
 90
     1153
280
     0
281
     0
  0
CLASS
  1
ACDBPLACEHOLDER
  2
AcDbPlaceHolder
  3
ObjectDBX Classes
 90
        0
280
     0
281
     0
  0
CLASS
  1
LAYOUT
  2
AcDbLayout
  3
ObjectDBX Classes
 90
        0
280
     0
281
     0
  0
ENDSEC
  0
SECTION
  2
TABLES
  0
TABLE
  2
VPORT
  5
8
330
0
100
AcDbSymbolTable
 70
     1
  0
VPORT
  5
29
330
8
100
AcDbSymbolTableRecord
100
AcDbViewportTableRecord
  2
*Active
 70
     0
 10
0.0
 20
0.0
 11
1.0
 21
1.0
 12
0.0
 22
471.1856520253
 13
0.0
 23
0.0
 14
10.0
 24
10.0
 15
10.0
 25
10.0
 16
0.0
 26
0.0
 36
1.0
 17
0.0
 27
0.0
 37
0.0
 40
377.3020796785
 41
1.0543276102
 42
50.0
 43
0.0
 44
0.0
 50
0.0
 51
0.0
 71
     0
 72
   100
 73
     1
 74
     3
 75
     0
 76
     0
 77
     0
 78
     0
281
     0
 65
     1
110
0.0
120
0.0
130
0.0
111
1.0
121
0.0
131
0.0
112
0.0
122
1.0
132
0.0
 79
     0
146
0.0
  0
ENDTAB
  0
TABLE
  2
LTYPE
  5
5
330
0
100
AcDbSymbolTable
 70
     6
  0
LTYPE
  5
14
330
5
100
AcDbSymbolTableRecord
100
AcDbLinetypeTableRecord
  2
ByBlock
 70
     0
  3

 72
    65
 73
     0
 40
0.0
  0
LTYPE
  5
15
330
5
100
AcDbSymbolTableRecord
100
AcDbLinetypeTableRecord
  2
ByLayer
 70
     0
  3

 72
    65
 73
     0
 40
0.0
  0
LTYPE
  5
16
330
5
100
AcDbSymbolTableRecord
100
AcDbLinetypeTableRecord
  2
Continuous
 70
     0
  3
Solid line
 72
    65
 73
     0
 40
0.0
  0
LTYPE
  5
6E
330
5
100
AcDbSymbolTableRecord
100
AcDbLinetypeTableRecord
  2
HIDDEN
 70
     0
  3
Hidden __ __ __ __ __ __ __ __ __ __ __ __ __ __
 72
    65
 73
     2
 40
1.905
 49
1.27
 74
     0
 49
-0.635
 74
     0
  0
LTYPE
  5
6F
330
5
100
AcDbSymbolTableRecord
100
AcDbLinetypeTableRecord
  2
PHANTOM
 70
     0
  3
Phantom ______  __  __  ______  __  __  ______
 72
    65
 73
     6
 40
12.7
 49
6.35
 74
     0
 49
-1.27
 74
     0
 49
1.27
 74
     0
 49
-1.27
 74
     0
 49
1.27
 74
     0
 49
-1.27
 74
     0
  0
LTYPE
  5
70
330
5
100
AcDbSymbolTableRecord
100
AcDbLinetypeTableRecord
  2
CENTER
 70
     0
  3
Center ____ _ ____ _ ____ _ ____ _ ____ _ ____
 72
    65
 73
     4
 40
10.16
 49
6.35
 74
     0
 49
-1.27
 74
     0
 49
1.27
 74
     0
 49
-1.27
 74
     0
  0
LTYPE
  5
71
330
5
100
AcDbSymbolTableRecord
100
AcDbLinetypeTableRecord
  2
CENTERX2
 70
     0
  3
Center (2x) ________  __  ________  __  _____
 72
    65
 73
     4
 40
20.32
 49
12.7
 74
     0
 49
-2.54
 74
     0
 49
2.54
 74
     0
 49
-2.54
 74
     0
  0
LTYPE
  5
72
330
5
100
AcDbSymbolTableRecord
100
AcDbLinetypeTableRecord
  2
DOT2
 70
     0
  3
Dot (.5x) ........................................
 72
    65
 73
     2
 40
0.635
 49
0.0
 74
     0
 49
-0.635
 74
     0
  0
ENDTAB
  0
TABLE
  2
LAYER
  5
2
330
0
100
AcDbSymbolTable
 70
     1
  0
LAYER
  5
10
330
2
100
AcDbSymbolTableRecord
100
AcDbLayerTableRecord
  2
0
 70
     0
 62
     7
  6
Continuous
370
    -3
390
F
  0
ENDTAB
  0
TABLE
  2
STYLE
  5
3
330
0
100
AcDbSymbolTable
 70
     1
  0
STYLE
  5
11
330
3
100
AcDbSymbolTableRecord
100
AcDbTextStyleTableRecord
  2
Standard
 70
     0
 40
0.0
 41
1.0
 50
0.0
 71
     0
 42
3.5
  3
txt
  4

  0
ENDTAB
  0
TABLE
  2
VIEW
  5
6
330
0
100
AcDbSymbolTable
 70
     0
  0
ENDTAB
  0
TABLE
  2
UCS
  5
7
330
0
100
AcDbSymbolTable
 70
     0
  0
ENDTAB
  0
TABLE
  2
APPID
  5
9
330
0
100
AcDbSymbolTable
 70
     1
  0
APPID
  5
12
330
9
100
AcDbSymbolTableRecord
100
AcDbRegAppTableRecord
  2
ACAD
 70
     0
  0
ENDTAB
  0
TABLE
  2
DIMSTYLE
  5
A
330
0
100
AcDbSymbolTable
 70
     1
100
AcDbDimStyleTable
  0
DIMSTYLE
105
27
330
A
100
AcDbSymbolTableRecord
100
AcDbDimStyleTableRecord
  2
ISO-25
 70
     0
 41
2.5
 42
0.625
 43
3.75
 44
1.25
 73
     0
 74
     0
 77
     1
 78
     8
140
2.5
141
2.5
143
0.0393700787
147
0.625
171
     3
172
     1
178
     0
271
     2
272
     2
274
     3
278
    44
283
     0
284
     8
340
11
  0
ENDTAB
  0
TABLE
  2
BLOCK_RECORD
  5
1
330
0
100
AcDbSymbolTable
 70
     3
  0
BLOCK_RECORD
  5
1F
330
1
100
AcDbSymbolTableRecord
100
AcDbBlockTableRecord
  2
*Model_Space
340
22
  0
BLOCK_RECORD
  5
1B
330
1
100
AcDbSymbolTableRecord
100
AcDbBlockTableRecord
  2
*Paper_Space
340
1E
  0
BLOCK_RECORD
  5
23
330
1
100
AcDbSymbolTableRecord
100
AcDbBlockTableRecord
  2
*Paper_Space0
340
26
  0
BLOCK_RECORD
  5
1C5
330
1
100
AcDbSymbolTableRecord
100
AcDbBlockTableRecord
  2
*Paper_Space1
340
1C6
  0
BLOCK_RECORD
  5
1EB
330
1
100
AcDbSymbolTableRecord
100
AcDbBlockTableRecord
  2
*Paper_Space2
340
1EC
  0
ENDTAB
  0
ENDSEC
  0
SECTION
  2
BLOCKS
  0
BLOCK
  5
20
330
1F
100
AcDbEntity
  8
0
100
AcDbBlockBegin
  2
*Model_Space
 70
     0
 10
0.0
 20
0.0
 30
0.0
  3
*Model_Space
  1

  0
ENDBLK
  5
21
330
1F
100
AcDbEntity
  8
0
100
AcDbBlockEnd
  0
BLOCK
  5
1C
330
1B
100
AcDbEntity
 67
     1
  8
0
100
AcDbBlockBegin
  2
*Paper_Space
 70
     0
 10
0.0
 20
0.0
 30
0.0
  3
*Paper_Space
  1

  0
ENDBLK
  5
1D
330
1B
100
AcDbEntity
 67
     1
  8
0
100
AcDbBlockEnd
  0
BLOCK
  5
24
330
23
100
AcDbEntity
  8
0
100
AcDbBlockBegin
  2
*Paper_Space0
 70
     0
 10
0.0
 20
0.0
 30
0.0
  3
*Paper_Space0
  1

  0
SPLINE
  5
174
330
23
100
AcDbEntity
  8
0
  6
Continuous
 62
     7
370
    25
100
AcDbSpline
210
0.0
220
0.0
230
1.0
 70
     8
 71
     3
 72
    12
 73
     8
 74
     0
 42
0.000000001
 43
0.00000001
 40
0.0
 40
0.0
 40
0.0
 40
0.0
 40
0.0355549439225588
 40
0.248518386612119
 40
0.4831429525087809
 40
0.7394658617168999
 40
1.0
 40
1.0
 40
1.0
 40
1.0
 10
59.79971413808693
 20
655.8456251176733
 30
0.0
 10
59.14288081765436
 20
655.8243561889797
 30
0.0
 10
54.55181304878037
 20
655.6756927610354
 30
0.0
 10
45.63612082176903
 20
655.1424704287755
 30
0.0
 10
32.65797732530918
 20
654.2274503596884
 30
0.0
 10
18.81769588432824
 20
653.0476329408559
 30
0.0
 10
9.308117095473579
 20
652.1356523890881
 30
0.0
 10
4.514586800752007
 20
651.6759468121994
 30
0.0
  0
SPLINE
  5
175
330
23
100
AcDbEntity
  8
0
  6
Continuous
 62
     7
370
    25
100
AcDbSpline
210
0.0
220
0.0
230
1.0
 70
     8
 71
     3
 72
    19
 73
    15
 74
     0
 42
0.000000001
 43
0.00000001
 40
0.0
 40
0.0
 40
0.0
 40
0.0
 40
0.1525479834591061
 40
0.3060205269028964
 40
0.442902800442144
 40
0.56317004734024
 40
0.6668043279527107
 40
0.7537961643928087
 40
0.8241434588809419
 40
0.8778488638381637
 40
0.9188549006437354
 40
0.9464434320203925
 40
0.9746277168359185
 40
1.0
 40
1.0
 40
1.0
 40
1.0
 10
165.2800488208784
 20
651.4925644528569
 30
0.0
 10
162.4755791466606
 20
651.6539673920297
 30
0.0
 10
156.8496425205144
 20
651.9777514983116
 30
0.0
 10
148.7114229579356
 20
652.5148216040203
 30
0.0
 10
141.168279492853
 20
653.0401034681156
 30
0.0
 10
134.541796526781
 20
653.5176476830273
 30
0.0
 10
128.8318371624913
 20
653.9317217359829
 30
0.0
 10
124.038433690556
 20
654.2753351769468
 30
0.0
 10
120.1616409167623
 20
654.5468330931233
 30
0.0
 10
117.1291687644855
 20
654.7531223782674
 30
0.0
 10
114.8819721401837
 20
654.9016201610508
 30
0.0
 10
113.1035156416169
 20
655.0160990907672
 30
0.0
 10
111.6122269405792
 20
655.1101219276659
 30
0.0
 10
110.6278296901316
 20
655.17004017766
 30
0.0
 10
110.1614740828454
 20
655.1984262909397
 30
0.0
  0
SPLINE
  5
178
330
23
100
AcDbEntity
  8
0
  6
Continuous
 62
     7
370
    25
100
AcDbSpline
210
0.0
220
0.0
230
1.0
 70
     8
 71
     3
 72
    14
 73
    10
 74
     0
 42
0.000000001
 43
0.00000001
 40
0.0
 40
0.0
 40
0.0
 40
0.0
 40
0.4999999999999997
 40
0.4999999999999997
 40
0.7499999999999996
 40
0.7499999999999996
 40
0.8749999999999998
 40
0.8749999999999998
 40
1.0
 40
1.0
 40
1.0
 40
1.0
 10
4.982258208520662
 20
651.2510034360449
 30
0.0
 10
22.48760256817114
 20
651.3128978865088
 30
0.0
 10
39.9930395050223
 20
651.364906639078
 30
0.0
 10
66.25131071605499
 20
651.3936867070418
 30
0.0
 10
75.00405837914855
 20
651.3962174051034
 30
0.0
 10
88.13316271518703
 20
651.382487836744
 30
0.0
 10
92.50952828738326
 20
651.3758126928269
 30
0.0
 10
101.2622556909794
 20
651.3606068152147
 30
0.0
 10
105.6386173612515
 20
651.3516234947249
 30
0.0
 10
110.0149767548722
 20
651.3387518195505
 30
0.0
  0
SPLINE
  5
17A
330
23
100
AcDbEntity
  8
0
  6
Continuous
 62
     7
370
    25
100
AcDbSpline
210
0.0
220
0.0
230
1.0
 70
     8
 71
     3
 72
    12
 73
     8
 74
     0
 42
0.000000001
 43
0.00000001
 40
0.0
 40
0.0
 40
0.0
 40
0.0
 40
0.25
 40
0.25
 40
0.5
 40
0.5
 40
1.0
 40
1.0
 40
1.0
 40
1.0
 10
110.0
 20
646.3399692129517
 30
0.0
 10
101.2500052763664
 20
646.3661849011345
 30
0.0
 10
92.50000349048874
 20
646.3801885623199
 30
0.0
 10
74.99999459370511
 20
646.398987849721
 30
0.0
 10
66.2499832316944
 20
646.3964324687232
 30
0.0
 10
39.99993639458037
 20
646.3667171651956
 30
0.0
 10
22.49994420327503
 20
646.3131641508382
 30
0.0
 10
5.000000000000019
 20
646.2510672856753
 30
0.0
  0
SPLINE
  5
17F
330
23
100
AcDbEntity
  8
0
  6
Continuous
 62
     7
370
    25
100
AcDbSpline
210
0.0
220
0.0
230
1.0
 70
     8
 71
     3
 72
    38
 73
    34
 74
     0
 42
0.000000001
 43
0.00000001
 40
0.0
 40
0.0
 40
0.0
 40
0.0
 40
0.1250000000000017
 40
0.1250000000000017
 40
0.1562500000000017
 40
0.1562500000000017
 40
0.1875000000000018
 40
0.1875000000000018
 40
0.2500000000000028
 40
0.2500000000000028
 40
0.3125000000000037
 40
0.3125000000000037
 40
0.3437500000000038
 40
0.3437500000000038
 40
0.3750000000000039
 40
0.3750000000000039
 40
0.5000000000000044
 40
0.5000000000000044
 40
0.5625000000000051
 40
0.5625000000000051
 40
0.5937500000000051
 40
0.5937500000000051
 40
0.625000000000005
 40
0.625000000000005
 40
0.7500000000000057
 40
0.7500000000000057
 40
0.7812500000000052
 40
0.7812500000000052
 40
0.8125000000000048
 40
0.8125000000000048
 40
0.8750000000000034
 40
0.8750000000000034
 40
1.0
 40
1.0
 40
1.0
 40
1.0
 10
110.0149767548722
 20
651.3387518195505
 30
0.0
 10
113.6493027704104
 20
651.3280626005582
 30
0.0
 10
117.2433166269422
 20
651.3222264562511
 30
0.0
 10
121.6860123566441
 20
651.3149355381046
 30
0.0
 10
122.5734689906921
 20
651.3135061045384
 30
0.0
 10
124.3280286305238
 20
651.3107103302261
 30
0.0
 10
125.1967562048532
 20
651.309341692377
 30
0.0
 10
127.7776992131562
 20
651.3053564472805
 30
0.0
 10
129.464721743512
 20
651.3028922413425
 30
0.0
 10
132.7723606156461
 20
651.2985518083992
 30
0.0
 10
134.3929721908877
 20
651.2966456237262
 30
0.0
 10
136.7732744504625
 20
651.2940138751035
 30
0.0
 10
137.5582585123345
 20
651.2931733929628
 30
0.0
 10
139.1110086521933
 20
651.2915324943513
 30
0.0
 10
139.8791357073997
 20
651.2907315192411
 30
0.0
 10
143.6341439873701
 20
651.2867952020675
 30
0.0
 10
146.4012567025768
 20
651.2837273804619
 30
0.0
 10
150.2047030545251
 20
651.2789528575005
 30
0.0
 10
151.4142327591762
 20
651.2773537680455
 30
0.0
 10
153.1382679778048
 20
651.2750422379878
 30
0.0
 10
153.6968487633752
 20
651.2742882843845
 30
0.0
 10
154.771748669425
 20
651.2728467646849
 30
0.0
 10
155.2895977665438
 20
651.2721572027162
 30
0.0
 10
157.7823850161071
 20
651.2689090330609
 30
0.0
 10
159.4706403331816
 20
651.2669719772274
 30
0.0
 10
161.1956909131559
 20
651.2658437630736
 30
0.0
 10
161.5212684891033
 20
651.2656816853722
 30
0.0
 10
162.1327844711728
 20
651.2654965369159
 30
0.0
 10
162.4172528240785
 20
651.2654740432803
 30
0.0
 10
163.2031927767405
 20
651.2656344128802
 30
0.0
 10
163.6394726799284
 20
651.2660369361847
 30
0.0
 10
164.6913891248672
 20
651.2684548236585
 30
0.0
 10
165.0526868115022
 20
651.2714354285963
 30
0.0
 10
165.0597481123295
 20
651.2787433255231
 30
0.0
  0
SPLINE
  5
181
330
23
100
AcDbEntity
  8
0
  6
Continuous
 62
     7
370
    25
100
AcDbSpline
210
0.0
220
0.0
230
1.0
 70
     8
 71
     3
 72
    38
 73
    34
 74
     0
 42
0.000000001
 43
0.00000001
 40
0.0
 40
0.0
 40
0.0
 40
0.0
 40
0.1249999999999974
 40
0.1249999999999974
 40
0.1874999999999961
 40
0.1874999999999961
 40
0.218749999999995
 40
0.218749999999995
 40
0.2499999999999939
 40
0.2499999999999939
 40
0.3749999999999917
 40
0.3749999999999917
 40
0.4062499999999918
 40
0.4062499999999918
 40
0.437499999999992
 40
0.437499999999992
 40
0.4999999999999923
 40
0.4999999999999923
 40
0.624999999999993
 40
0.624999999999993
 40
0.6562499999999936
 40
0.6562499999999936
 40
0.6874999999999941
 40
0.6874999999999941
 40
0.7499999999999953
 40
0.7499999999999953
 40
0.8124999999999967
 40
0.8124999999999967
 40
0.8437499999999969
 40
0.8437499999999969
 40
0.8749999999999974
 40
0.8749999999999974
 40
1.0
 40
1.0
 40
1.0
 40
1.0
 10
170.0
 20
646.2791106646107
 30
0.0
 10
170.0
 20
646.2717240257297
 30
0.0
 10
169.6114901260592
 20
646.2687008318569
 30
0.0
 10
168.469796753533
 20
646.2662467202582
 30
0.0
 10
167.9953855928376
 20
646.2658368135818
 30
0.0
 10
167.1397946134929
 20
646.2656702051164
 30
0.0
 10
166.829992480725
 20
646.2656914301477
 30
0.0
 10
166.163738639872
 20
646.265875436339
 30
0.0
 10
165.8089339645494
 20
646.2660376312658
 30
0.0
 10
163.9287256057437
 20
646.2671691427722
 30
0.0
 10
162.0877864356608
 20
646.2691168773886
 30
0.0
 10
159.3694834348963
 20
646.2723842729648
 30
0.0
 10
158.8047787797033
 20
646.2730780104688
 30
0.0
 10
157.6326112361917
 20
646.2745285649139
 30
0.0
 10
157.0234913072081
 20
646.2752873780931
 30
0.0
 10
155.1432698094278
 20
646.2776147183088
 30
0.0
 10
153.8241873212585
 20
646.2792255915443
 30
0.0
 10
149.6763012245084
 20
646.28403977159
 30
0.0
 10
146.6586606140559
 20
646.2871398247238
 30
0.0
 10
142.5637007030284
 20
646.2911260548547
 30
0.0
 10
141.7260228777153
 20
646.2919375335234
 30
0.0
 10
140.0326190656323
 20
646.2936003347352
 30
0.0
 10
139.1765478037078
 20
646.2944521701652
 30
0.0
 10
136.5807468379461
 20
646.29711931506
 30
0.0
 10
134.8134950475314
 20
646.2990507380913
 30
0.0
 10
131.2066801155313
 20
646.303447683285
 30
0.0
 10
129.3671166416443
 20
646.3059433390624
 30
0.0
 10
126.5528104844898
 20
646.309985103219
 30
0.0
 10
125.6055320585884
 20
646.3113742277603
 30
0.0
 10
123.6922964037583
 20
646.3142154356085
 30
0.0
 10
122.7245413604589
 20
646.3156699170586
 30
0.0
 10
117.8800649572397
 20
646.3230981519392
 30
0.0
 10
113.9616158232811
 20
646.3290890031877
 30
0.0
 10
110.0
 20
646.3399692129517
 30
0.0
  0
LWPOLYLINE
  5
18E
330
23
100
AcDbEntity
  8
0
  6
Continuous
 62
     7
370
    25
100
AcDbPolyline
 90
       21
 70
   128
 43
0.0
 10
110.1614080267
 20
655.1973471573
 10
110.1597784983
 20
655.1974368442
 10
109.3716872021
 20
655.2379424787
 10
107.8642221529
 20
655.3135947848
 10
105.7619678955
 20
655.4148823443
 10
103.0073078265
 20
655.5396195223
 10
99.8210806072
 20
655.6716243967
 10
96.1222601446
 20
655.8068195858
 10
92.2060469943
 20
655.9269204512
 10
87.9746427504
 20
656.0278265414
 10
83.7760081692
 20
656.096218791
 10
79.494543135
 20
656.1317761852
 10
75.4950856065
 20
656.1338429274
 10
71.6532732323
 20
656.1080136746
 10
68.2982717605
 20
656.0635617523
 10
65.3247982049
 20
656.0073937373
 10
62.9889128538
 20
655.9523854199
 10
61.2182020803
 20
655.9043847373
 10
60.1670398532
 20
655.8733360239
 10
59.7991679614
 20
655.862004334
 10
59.7991679614
 20
655.862004334
  0
SPLINE
  5
190
330
23
100
AcDbEntity
  8
0
  6
Continuous
 62
     7
370
    25
100
AcDbSpline
210
0.0
220
0.0
230
1.0
 70
    24
 71
     3
 72
    10
 73
     6
 74
     0
 42
0.000000001
 43
0.00000001
 40
0.0
 40
0.0
 40
0.0
 40
0.0
 40
0.5
 40
0.5
 40
1.0
 40
1.0
 40
1.0
 40
1.0
 10
170.0
 20
646.4972505697983
 30
0.0
 10
170.0
 20
646.4972558589922
 30
0.0
 10
170.0
 20
646.4714797337341
 30
0.0
 10
170.0
 20
646.3855449807156
 30
0.0
 10
170.0
 20
646.324876657727
 30
0.0
 10
170.0
 20
646.2791106646107
 30
0.0
  0
SPLINE
  5
1A5
330
23
100
AcDbEntity
  8
0
  6
Continuous
 62
     8
370
    25
100
AcDbSpline
210
0.0
220
0.0
230
1.0
 70
     8
 71
     3
 72
     9
 73
     5
 74
     0
 42
0.000000001
 43
0.00000001
 40
0.0
 40
0.0
 40
0.0
 40
0.0
 40
0.4998966748143222
 40
0.9999999999999999
 40
0.9999999999999999
 40
0.9999999999999999
 40
0.9999999999999999
 10
4.514254337087159
 20
651.6794795687416
 30
0.0
 10
4.549020102126961
 20
651.6523485284076
 30
0.0
 10
4.618566003892973
 20
651.598075232143
 30
0.0
 10
4.861010773210869
 20
651.3667099719833
 30
0.0
 10
4.982258208520621
 20
651.2510034360449
 30
0.0
  0
LINE
  5
1A7
330
23
100
AcDbEntity
  8
0
  6
Continuous
 62
     7
370
    25
100
AcDbLine
 10
110.0149767549
 20
651.3387518196
 30
0.0
 11
110.0
 21
646.339969213
 31
0.0
  0
LINE
  5
1A8
330
23
100
AcDbEntity
  8
0
  6
Continuous
 62
     7
370
    25
100
AcDbLine
 10
4.9822582085
 20
651.251003436
 30
0.0
 11
5.0
 21
646.2510672857
 31
0.0
  0
LINE
  5
1A9
330
23
100
AcDbEntity
  8
0
  6
Continuous
 62
     7
370
    25
100
AcDbLine
 10
5.0
 20
646.2510672857
 30
0.0
 11
5.0
 21
286.2336521829
 31
0.0
  0
LINE
  5
1AA
330
23
100
AcDbEntity
  8
0
  6
Continuous
 62
     7
370
    25
100
AcDbLine
 10
0.0
 20
611.2336521829
 30
0.0
 11
170.0
 21
611.2336521829
 31
0.0
  0
LINE
  5
1AB
330
23
100
AcDbEntity
  8
0
  6
Continuous
 62
     7
370
    25
100
AcDbLine
 10
110.0
 20
606.2336521829
 30
0.0
 11
110.0
 21
646.339969213
 31
0.0
  0
LINE
  5
1AC
330
23
100
AcDbEntity
  8
0
  6
Continuous
 62
     7
370
    25
100
AcDbLine
 10
165.0
 20
606.2336521829
 30
0.0
 11
5.0
 21
606.2336521829
 31
0.0
  0
LINE
  5
1AD
330
23
100
AcDbEntity
  8
0
  6
Continuous
 62
     7
370
    25
100
AcDbLine
 10
5.0
 20
646.2510672857
 30
0.0
 11
0.0
 21
646.2510672857
 31
0.0
  0
LINE
  5
1AE
330
23
100
AcDbEntity
  8
0
  6
Continuous
 62
     7
370
    25
100
AcDbLine
 10
0.0
 20
611.2336521829
 30
0.0
 11
0.0
 21
646.7031129694
 31
0.0
  0
LINE
  5
1AF
330
23
100
AcDbEntity
  8
0
  6
Continuous
 62
     7
370
    25
100
AcDbLine
 10
170.0
 20
646.2791106646
 30
0.0
 11
170.0
 21
611.2336521829
 31
0.0
  0
LINE
  5
1B0
330
23
100
AcDbEntity
  8
0
  6
Continuous
 62
     7
370
    25
100
AcDbLine
 10
100.0
 20
601.0852800522
 30
0.0
 11
5.0
 21
601.0852800522
 31
0.0
  0
LINE
  5
1B1
330
23
100
AcDbEntity
  8
0
  6
Continuous
 62
     7
370
    25
100
AcDbLine
 10
100.0
 20
286.2336521829
 30
0.0
 11
100.0
 21
606.2336521829
 31
0.0
  0
LINE
  5
1B2
330
23
100
AcDbEntity
  8
0
  6
Continuous
 62
     7
370
    25
100
AcDbLine
 10
100.0
 20
601.0852800522
 30
0.0
 11
160.0
 21
601.2336521829
 31
0.0
  0
LINE
  5
1B3
330
23
100
AcDbEntity
  8
0
  6
Continuous
 62
     7
370
    25
100
AcDbLine
 10
0.0
 20
291.2336521829
 30
0.0
 11
0.0
 21
601.2336521829
 31
0.0
  0
LINE
  5
1B4
330
23
100
AcDbEntity
  8
0
  6
Continuous
 62
     7
370
    25
100
AcDbLine
 10
5.0
 20
291.0852800522
 30
0.0
 11
100.0
 21
291.0852800522
 31
0.0
  0
LINE
  5
1B5
330
23
100
AcDbEntity
  8
0
  6
Continuous
 62
     7
370
    25
100
AcDbLine
 10
100.0
 20
291.0852800522
 30
0.0
 11
160.0
 21
291.2336521829
 31
0.0
  0
LINE
  5
1B6
330
23
100
AcDbEntity
  8
0
  6
Continuous
 62
     7
370
    25
100
AcDbLine
 10
160.0
 20
601.2336521829
 30
0.0
 11
160.0
 21
291.2336521829
 31
0.0
  0
LINE
  5
1B7
330
23
100
AcDbEntity
  8
0
  6
Continuous
 62
     7
370
    25
100
AcDbLine
 10
155.0
 20
286.2336521829
 30
0.0
 11
5.0
 21
286.2336521829
 31
0.0
  0
LINE
  5
1B8
330
23
100
AcDbEntity
  8
0
  6
Continuous
 62
     8
370
    25
100
AcDbLine
 10
165.0597481123
 20
651.2787433255
 30
0.0
 11
165.2798621094
 21
651.4893973772
 31
0.0
  0
ARC
  5
1B9
330
23
100
AcDbEntity
  8
0
  6
Continuous
 62
     7
370
    25
100
AcDbCircle
 10
5.0
 20
646.7031870858
 30
0.0
 40
5.00000000000014
100
AcDbArc
 50
95.5513112218
 51
180.0000000266
  0
ARC
  5
1BA
330
23
100
AcDbEntity
  8
0
  6
Continuous
 62
     7
370
    25
100
AcDbCircle
 10
165.0
 20
646.4972505706
 30
0.0
 40
5.000000000000057
100
AcDbArc
 50
359.9999999983
 51
86.8065850259
  0
ARC
  5
1BB
330
23
100
AcDbEntity
  8
0
  6
Continuous
 62
     7
370
    25
100
AcDbCircle
 10
5.0
 20
611.2336521829
 30
0.0
 40
5.0
100
AcDbArc
 50
180.0
 51
270.0
  0
ARC
  5
1BC
330
23
100
AcDbEntity
  8
0
  6
Continuous
 62
     7
370
    25
100
AcDbCircle
 10
165.000005317
 20
646.2791055758
 30
0.0
 40
4.999994682989981
100
AcDbArc
 50
0.0000583134
 51
89.3153809754
  0
ARC
  5
1BD
330
23
100
AcDbEntity
  8
0
  6
Continuous
 62
     7
370
    25
100
AcDbCircle
 10
165.0
 20
611.2336521829
 30
0.0
 40
4.999999999999915
100
AcDbArc
 50
270.0
 51
0.0
  0
ARC
  5
1BE
330
23
100
AcDbEntity
  8
0
  6
Continuous
 62
     7
370
    25
100
AcDbCircle
 10
4.9999836791
 20
646.2510511764
 30
0.0
 40
4.999983679076444
100
AcDbArc
 50
90.2031200187
 51
179.9998154007
  0
ARC
  5
1BF
330
23
100
AcDbEntity
  8
0
  6
Continuous
 62
     7
370
    25
100
AcDbCircle
 10
155.0
 20
601.2336521829
 30
0.0
 40
5.000000000000114
100
AcDbArc
 50
0.0
 51
90.0
  0
ARC
  5
1C0
330
23
100
AcDbEntity
  8
0
  6
Continuous
 62
     7
370
    25
100
AcDbCircle
 10
5.0
 20
601.2336521829
 30
0.0
 40
5.0
100
AcDbArc
 50
90.0
 51
180.0
  0
ARC
  5
1C1
330
23
100
AcDbEntity
  8
0
  6
Continuous
 62
     7
370
    25
100
AcDbCircle
 10
3.7511007145
 20
643.3203729091
 30
0.0
 40
42.2535539104308
100
AcDbArc
 50
264.9068058872
 51
271.6937529415
  0
ARC
  5
1C2
330
23
100
AcDbEntity
  8
0
  6
Continuous
 62
     7
370
    25
100
AcDbCircle
 10
3.7511007145
 20
333.3203729091
 30
0.0
 40
42.25355391037021
100
AcDbArc
 50
264.9068058872
 51
271.6937529415
  0
ARC
  5
1C3
330
23
100
AcDbEntity
  8
0
  6
Continuous
 62
     7
370
    25
100
AcDbCircle
 10
5.0
 20
291.2336521829
 30
0.0
 40
5.0
100
AcDbArc
 50
180.0
 51
270.0
  0
ARC
  5
1C4
330
23
100
AcDbEntity
  8
0
  6
Continuous
 62
     7
370
    25
100
AcDbCircle
 10
155.0
 20
291.2336521829
 30
0.0
 40
5.0
100
AcDbArc
 50
270.0
 51
0.0
  0
VIEWPORT
  5
29C
330
23
100
AcDbEntity
  8
0
100
AcDbViewport
 10
0.0
 20
0.0
 30
0.0
 40
205.6
 41
156.0
 68
     1
 69
     1
 12
0.0
 22
471.1856520253
 13
0.0
 23
0.0
 14
10.0
 24
10.0
 15
10.0
 25
10.0
 16
0.0
 26
0.0
 36
1.0
 17
0.0
 27
0.0
 37
0.0
 42
50.0
 43
0.0
 44
0.0
 45
377.3020796785
 50
0.0
 51
0.0
 72
   100
 90
   557152
  1

281
     0
 71
     1
 74
     0
110
0.0
120
0.0
130
0.0
111
1.0
121
0.0
131
0.0
112
0.0
122
1.0
132
0.0
 79
     0
146
0.0
  0
ENDBLK
  5
25
330
23
100
AcDbEntity
  8
0
100
AcDbBlockEnd
  0
BLOCK
  5
1C7
330
1C5
100
AcDbEntity
  8
0
100
AcDbBlockBegin
  2
*Paper_Space1
 70
     0
 10
0.0
 20
0.0
 30
0.0
  3
*Paper_Space1
  1

  0
SPLINE
  5
1C9
330
1C5
100
AcDbEntity
  8
0
  6
Continuous
 62
     7
370
    25
100
AcDbSpline
210
0.0
220
0.0
230
1.0
 70
    11
 71
     3
 72
   105
 73
   101
 74
     0
 42
0.000000001
 43
0.00000001
 40
0.0
 40
0.0
 40
0.0
 40
0.0
 40
0.0312499999999996
 40
0.0312499999999996
 40
0.0468749999999994
 40
0.0468749999999994
 40
0.0624999999999992
 40
0.0624999999999992
 40
0.0937499999999988
 40
0.0937499999999988
 40
0.1093749999999986
 40
0.1093749999999986
 40
0.1249999999999984
 40
0.1249999999999984
 40
0.1562499999999981
 40
0.1562499999999981
 40
0.1640624999999981
 40
0.1640624999999981
 40
0.1718749999999982
 40
0.1718749999999982
 40
0.1874999999999984
 40
0.2031249999999985
 40
0.2031249999999985
 40
0.2109374999999985
 40
0.2109374999999985
 40
0.2187499999999984
 40
0.2187499999999984
 40
0.2499999999999982
 40
0.2499999999999982
 40
0.2656249999999982
 40
0.2656249999999982
 40
0.2812499999999982
 40
0.2812499999999982
 40
0.3124999999999984
 40
0.3124999999999984
 40
0.3281249999999985
 40
0.3281249999999985
 40
0.3437499999999986
 40
0.3437499999999986
 40
0.3749999999999988
 40
0.3749999999999988
 40
0.406249999999999
 40
0.406249999999999
 40
0.4218749999999991
 40
0.4218749999999991
 40
0.4374999999999992
 40
0.4374999999999992
 40
0.4687499999999994
 40
0.4687499999999994
 40
0.4843749999999996
 40
0.4843749999999996
 40
0.4999999999999998
 40
0.5156249999999999
 40
0.5156249999999999
 40
0.53125
 40
0.53125
 40
0.5625000000000004
 40
0.5625000000000004
 40
0.5781250000000006
 40
0.5781250000000006
 40
0.5937500000000007
 40
0.5937500000000007
 40
0.625000000000001
 40
0.625000000000001
 40
0.6562500000000012
 40
0.6562500000000012
 40
0.6718750000000013
 40
0.6718750000000013
 40
0.6875000000000016
 40
0.6875000000000016
 40
0.7187500000000014
 40
0.7187500000000014
 40
0.7343750000000012
 40
0.7343750000000012
 40
0.750000000000001
 40
0.750000000000001
 40
0.7812500000000008
 40
0.7812500000000008
 40
0.7890625000000007
 40
0.7890625000000007
 40
0.7968750000000006
 40
0.7968750000000006
 40
0.8125000000000004
 40
0.8281250000000004
 40
0.8281250000000004
 40
0.8437500000000003
 40
0.8437500000000003
 40
0.875
 40
0.875
 40
0.890625
 40
0.890625
 40
0.9062500000000001
 40
0.9062500000000001
 40
0.9375000000000001
 40
0.9375000000000001
 40
0.953125
 40
0.953125
 40
0.96875
 40
0.96875
 40
1.0
 40
1.0
 40
1.0
 40
1.0
 10
-0.0000369896005158
 20
-65.00000000003422
 30
0.0
 10
-1.321690899886053
 20
-65.0000024444067
 30
0.0
 10
-2.621255358645857
 20
-65.12972413004712
 30
0.0
 10
-4.538825914850848
 20
-65.51093203830683
 30
0.0
 10
-5.172680743009775
 20
-65.66933699560303
 30
0.0
 10
-6.429477236654313
 20
-66.05025116994928
 30
0.0
 10
-7.054032498488808
 20
-66.27380587719887
 30
0.0
 10
-8.87068632725989
 20
-67.02697000109235
 30
0.0
 10
-10.01952169124875
 20
-67.64148474970473
 30
0.0
 10
-11.65022349360059
 20
-68.73041152323786
 30
0.0
 10
-12.18007704006844
 20
-69.1229595176421
 30
0.0
 10
-13.19928754255353
 20
-69.95960440847962
 30
0.0
 10
-13.6843239797005
 20
-70.39983043448883
 30
0.0
 10
-15.06801726985337
 20
-71.78419309887809
 30
0.0
 10
-15.89593624119513
 20
-72.79140935953741
 30
0.0
 10
-16.8097777880316
 20
-74.1584352896984
 30
0.0
 10
-16.98688007037874
 20
-74.43806930429781
 30
0.0
 10
-17.32543723395415
 20
-75.00311552539684
 30
0.0
 10
-17.48711556595033
 20
-75.2887725176029
 30
0.0
 10
-17.94976617977359
 20
-76.15497380072327
 30
0.0
 10
-18.50704856138103
 20
-77.33447907499915
 30
0.0
 10
-18.94691772265222
 20
-78.56240364518074
 30
0.0
 10
-19.23217206176827
 20
-79.50176007337977
 30
0.0
 10
-19.31980238797491
 20
-79.81795315714767
 30
0.0
 10
-19.47988410379896
 20
-80.45659939093215
 30
0.0
 10
-19.55241493439152
 20
-80.77965167412043
 30
0.0
 10
-19.87303622000508
 20
-82.39332634718151
 30
0.0
 10
-19.99971375224381
 20
-83.69113280477117
 30
0.0
 10
-20.00014240403268
 20
-85.64786163262129
 30
0.0
 10
-19.96846011127402
 20
-86.30178698227716
 30
0.0
 10
-19.83949884158611
 20
-87.61310816413537
 30
0.0
 10
-19.74235084228102
 20
-88.26600946064814
 30
0.0
 10
-19.35928521376767
 20
-90.189124619724
 30
0.0
 10
-18.98161314507686
 20
-91.43534280134855
 30
0.0
 10
-18.23061815732804
 20
-93.25065938224097
 30
0.0
 10
-17.94747207399464
 20
-93.84981734678763
 30
0.0
 10
-17.32845059116764
 20
-95.00778801872738
 30
0.0
 10
-16.99250082311929
 20
-95.56783227941119
 30
0.0
 10
-15.9072048777221
 20
-97.1925176323872
 30
0.0
 10
-15.08117149421726
 20
-98.20225467758873
 30
0.0
 10
-13.21586157607045
 20
-100.0692489863313
 30
0.0
 10
-12.20436197819969
 20
-100.8981186327001
 30
0.0
 10
-10.58049835815246
 20
-101.9846169027069
 30
0.0
 10
-10.02093145784379
 20
-102.3208319473589
 30
0.0
 10
-8.864434758068546
 20
-102.9402364268534
 30
0.0
 10
-8.26496253092141
 20
-103.224172508575
 30
0.0
 10
-6.447555040732389
 20
-103.977600244395
 30
0.0
 10
-5.200855338357819
 20
-104.3561029166888
 30
0.0
 10
-3.278726368760087
 20
-104.740234484215
 30
0.0
 10
-2.627984101304485
 20
-104.8375820784768
 30
0.0
 10
-1.31386177945668
 20
-104.9677172644559
 30
0.0
 10
0.0003006896428005
 20
-105.0323037888998
 30
0.0
 10
1.314542302964179
 20
-104.9676751474742
 30
0.0
 10
2.628824078421812
 20
-104.8374735343504
 30
0.0
 10
3.279278124271849
 20
-104.7401404311198
 30
0.0
 10
5.201184231044767
 20
-104.3560047432668
 30
0.0
 10
6.447877278199534
 20
-103.9775001976818
 30
0.0
 10
8.26545612063113
 20
-103.2239511057524
 30
0.0
 10
8.864927269393398
 20
-102.9399900265454
 30
0.0
 10
10.02126302094359
 20
-102.3206369718106
 30
0.0
 10
10.58077296138714
 20
-101.9844443398918
 30
0.0
 10
12.20452376279911
 20
-100.8979880395125
 30
0.0
 10
13.21614336966229
 20
-100.0689942586702
 30
0.0
 10
15.08130347747356
 20
-98.20209524869624
 30
0.0
 10
15.90731391963828
 20
-97.19237774467346
 30
0.0
 10
16.99261222773691
 20
-95.56765383041326
 30
0.0
 10
17.32856906679953
 20
-95.00758539746894
 30
0.0
 10
17.9476109856734
 20
-93.8495384793451
 30
0.0
 10
18.23073323033042
 20
-93.25040371002673
 30
0.0
 10
18.98168411795793
 20
-91.43512626306946
 30
0.0
 10
19.35937074217977
 20
-90.1888464703162
 30
0.0
 10
19.74244052248442
 20
-88.26548358173696
 30
0.0
 10
19.83959376448374
 20
-87.61235960537469
 30
0.0
 10
19.96849124959433
 20
-86.30125349659835
 30
0.0
 10
20.00015669117647
 20
-85.64739406806446
 30
0.0
 10
19.99968487325679
 20
-83.6907437323699
 30
0.0
 10
19.87298973975774
 20
-82.39283162803636
 30
0.0
 10
19.5522383950867
 20
-80.77882845065908
 30
0.0
 10
19.47968988502934
 20
-80.45577185582287
 30
0.0
 10
19.31961751781568
 20
-79.81726844139548
 30
0.0
 10
19.23199266006333
 20
-79.50113549776833
 30
0.0
 10
18.94675298678994
 20
-78.56192796580275
 30
0.0
 10
18.50689727660329
 20
-77.33411859898602
 30
0.0
 10
17.9495751907898
 20
-76.15458115574584
 30
0.0
 10
17.3326182278312
 20
-74.99954853877301
 30
0.0
 10
16.99217671388105
 20
-74.43125297645393
 30
0.0
 10
15.89569013621546
 20
-72.79111112396691
 30
0.0
 10
15.06781590361365
 20
-71.7839594544882
 30
0.0
 10
13.68405487153441
 20
-70.3995772929587
 30
0.0
 10
13.19897340629123
 20
-69.95932506259803
 30
0.0
 10
12.17961244336976
 20
-69.12259963716076
 30
0.0
 10
11.64989275368737
 20
-68.73017631004046
 30
0.0
 10
10.01927140690847
 20
-67.64134634328305
 30
0.0
 10
8.870405965935623
 20
-67.02682094359135
 30
0.0
 10
7.053531734959664
 20
-66.27361468642508
 30
0.0
 10
6.428929553359413
 20
-66.05006856056872
 30
0.0
 10
5.172300922998097
 20
-65.66923850638166
 30
0.0
 10
4.53851708485832
 20
-65.5108621351226
 30
0.0
 10
2.62111921850242
 20
-65.12971408798066
 30
0.0
 10
1.321616920685038
 20
-64.99999755566171
 30
0.0
 10
-0.0000369896005168
 20
-65.00000000003422
 30
0.0
  0
SPLINE
  5
1CA
330
1C5
100
AcDbEntity
  8
0
  6
Continuous
 62
     7
370
    25
100
AcDbSpline
210
0.0
220
0.0
230
1.0
 70
    11
 71
     3
 72
   124
 73
   120
 74
     0
 42
0.000000001
 43
0.00000001
 40
0.0
 40
0.0
 40
0.0
 40
0.0
 40
0.0312500000000007
 40
0.0312500000000007
 40
0.0468750000000011
 40
0.0468750000000011
 40
0.0625000000000014
 40
0.0625000000000014
 40
0.0937500000000021
 40
0.0937500000000021
 40
0.1015625000000023
 40
0.1015625000000023
 40
0.1093750000000024
 40
0.1093750000000024
 40
0.1250000000000025
 40
0.1250000000000025
 40
0.1562500000000026
 40
0.1562500000000026
 40
0.1640625000000026
 40
0.1640625000000026
 40
0.1718750000000026
 40
0.1718750000000026
 40
0.1875000000000028
 40
0.1875000000000028
 40
0.203125000000003
 40
0.203125000000003
 40
0.2109375000000031
 40
0.2109375000000031
 40
0.2187500000000032
 40
0.2187500000000032
 40
0.2500000000000036
 40
0.2500000000000036
 40
0.2656250000000039
 40
0.2656250000000039
 40
0.2734375000000041
 40
0.2734375000000041
 40
0.2812500000000041
 40
0.2812500000000041
 40
0.3125000000000047
 40
0.3125000000000047
 40
0.3203125000000048
 40
0.3203125000000048
 40
0.3281250000000048
 40
0.3281250000000048
 40
0.3437500000000047
 40
0.3437500000000047
 40
0.3750000000000043
 40
0.3750000000000043
 40
0.3906250000000042
 40
0.3906250000000042
 40
0.4062500000000041
 40
0.4062500000000041
 40
0.4218750000000039
 40
0.4218750000000039
 40
0.4375000000000037
 40
0.4375000000000037
 40
0.4687500000000035
 40
0.4687500000000035
 40
0.4843750000000034
 40
0.4843750000000034
 40
0.5000000000000032
 40
0.515625000000003
 40
0.515625000000003
 40
0.5312500000000028
 40
0.5312500000000028
 40
0.5625000000000024
 40
0.5625000000000024
 40
0.5781250000000023
 40
0.5781250000000023
 40
0.5937500000000022
 40
0.5937500000000022
 40
0.6093750000000021
 40
0.6093750000000021
 40
0.625000000000002
 40
0.625000000000002
 40
0.6562500000000018
 40
0.6562500000000018
 40
0.6718750000000016
 40
0.6718750000000016
 40
0.6796875000000014
 40
0.6796875000000014
 40
0.6875000000000012
 40
0.6875000000000012
 40
0.7187500000000007
 40
0.7187500000000007
 40
0.7265625000000006
 40
0.7265625000000006
 40
0.7343750000000006
 40
0.7343750000000006
 40
0.7500000000000003
 40
0.7500000000000003
 40
0.78125
 40
0.78125
 40
0.7890625000000001
 40
0.7890625000000001
 40
0.7968750000000002
 40
0.7968750000000002
 40
0.8125000000000006
 40
0.8281250000000009
 40
0.8281250000000009
 40
0.835937500000001
 40
0.835937500000001
 40
0.843750000000001
 40
0.843750000000001
 40
0.8750000000000008
 40
0.8750000000000008
 40
0.8906250000000007
 40
0.8906250000000007
 40
0.8984375000000006
 40
0.8984375000000006
 40
0.9062500000000006
 40
0.9062500000000006
 40
0.9375000000000003
 40
0.9375000000000003
 40
0.9531250000000002
 40
0.9531250000000002
 40
0.9687500000000002
 40
0.9687500000000002
 40
1.0
 40
1.0
 40
1.0
 40
1.0
 10
-0.0000090432738058
 20
-59.7991679614053
 30
0.0
 10
1.662314129960605
 20
-59.79916449792179
 30
0.0
 10
3.296479308984549
 20
-59.96435732587963
 30
0.0
 10
5.706616513614962
 20
-60.44936489175021
 30
0.0
 10
6.503131346506085
 20
-60.65086831848488
 30
0.0
 10
8.0821280546564
 20
-61.13531801721894
 30
0.0
 10
8.866591296924849
 20
-61.41958954540666
 30
0.0
 10
11.14702320700597
 20
-62.37670512571889
 30
0.0
 10
12.58772127643978
 20
-63.15703924361186
 30
0.0
 10
14.29034594151645
 20
-64.30811748664502
 30
0.0
 10
14.62591398078335
 20
-64.54719576969603
 30
0.0
 10
15.28698618149793
 20
-65.04334756407572
 30
0.0
 10
15.61336923730492
 20
-65.30117009393783
 30
0.0
 10
16.56975532603582
 20
-66.0960462414745
 30
0.0
 10
17.17624264289313
 20
-66.65340747796526
 30
0.0
 10
18.90549240201924
 20
-68.40510187968208
 30
0.0
 10
19.93888862302326
 20
-69.67829901268527
 30
0.0
 10
21.07840852691543
 20
-71.4041751958762
 30
0.0
 10
21.29916664054016
 20
-71.7570886613579
 30
0.0
 10
21.72103244613758
 20
-72.46992579496023
 30
0.0
 10
21.92245408434786
 20
-72.83021788670811
 30
0.0
 10
22.49873212213358
 20
-73.92249227910186
 30
0.0
 10
22.84566735724893
 20
-74.66584594045246
 30
0.0
 10
23.46628005071813
 20
-76.18239005095157
 30
0.0
 10
23.73995664208992
 20
-76.95558085125691
 30
0.0
 10
24.09487828302636
 20
-78.13801020302908
 30
0.0
 10
24.20390368246432
 20
-78.53593380521333
 30
0.0
 10
24.4030777506037
 20
-79.33946962931195
 30
0.0
 10
24.49334182535936
 20
-79.74589502095338
 30
0.0
 10
24.89255646545487
 20
-81.77631058059771
 30
0.0
 10
25.0507454343529
 20
-83.4089361149369
 30
0.0
 10
25.05295514698958
 20
-85.86996199819892
 30
0.0
 10
25.01422050165252
 20
-86.69233402340542
 30
0.0
 10
24.89510646151051
 20
-87.92903168231405
 30
0.0
 10
24.84509946029404
 20
-88.3421463569795
 30
0.0
 10
24.72572976815183
 20
-89.16047378997335
 30
0.0
 10
24.65628584272845
 20
-89.56679448863298
 30
0.0
 10
24.26103662015592
 20
-91.58440864565557
 30
0.0
 10
23.7925043929083
 20
-93.15412943276365
 30
0.0
 10
23.01475478840068
 20
-95.0603873909166
 30
0.0
 10
22.84951510969678
 20
-95.43881950191789
 30
0.0
 10
22.49925902392708
 20
-96.18993084688978
 30
0.0
 10
22.31434029624562
 20
-96.56223717227688
 30
0.0
 10
21.73601237474782
 20
-97.65828531991956
 30
0.0
 10
21.31723001674927
 20
-98.36531781735795
 30
0.0
 10
19.96338748519156
 20
-100.4170093211251
 30
0.0
 10
18.93178471653423
 20
-101.6929403815271
 30
0.0
 10
17.18257009367983
 20
-103.4632861607938
 30
0.0
 10
16.57236636115175
 20
-104.0221840337729
 30
0.0
 10
15.30808713320403
 20
-105.0711235554177
 30
0.0
 10
14.65262281794694
 20
-105.5625717222665
 30
0.0
 10
13.29536110860057
 20
-106.4798905713509
 30
0.0
 10
12.59356549403349
 20
-106.9057637336455
 30
0.0
 10
11.14261206426896
 20
-107.690491565037
 30
0.0
 10
10.38987356220822
 20
-108.0504928940216
 30
0.0
 10
8.106522535470098
 20
-109.0060573312749
 30
0.0
 10
6.539794737818492
 20
-109.4860647711514
 30
0.0
 10
4.123732477167544
 20
-109.973295382187
 30
0.0
 10
3.305972472546819
 20
-110.0967628095496
 30
0.0
 10
1.653056224837891
 20
-110.2619632639613
 30
0.0
 10
0.0001910569979151
 20
-110.3439504383383
 30
0.0
 10
-1.652573471937149
 20
-110.2619919773142
 30
0.0
 10
-3.305286939997778
 20
-110.096851186018
 30
0.0
 10
-4.12340933820481
 20
-109.9733528031536
 30
0.0
 10
-6.539741541652142
 20
-109.4860917525376
 30
0.0
 10
-8.106469125646354
 20
-109.0060637600409
 30
0.0
 10
-10.38958947120062
 20
-108.0506194499726
 30
0.0
 10
-11.14233570958696
 20
-107.6906325817448
 30
0.0
 10
-12.59347580471874
 20
-106.9058187070961
 30
0.0
 10
-13.29533510426961
 20
-106.4799069831999
 30
0.0
 10
-14.65267530378476
 20
-105.56253262907
 30
0.0
 10
-15.30815437857537
 20
-105.0710674576943
 30
0.0
 10
-16.57242274406007
 20
-104.0221281868945
 30
0.0
 10
-17.18254168329352
 20
-103.463308553151
 30
0.0
 10
-18.93186222446683
 20
-101.692849642963
 30
0.0
 10
-19.96347125371842
 20
-100.416879491617
 30
0.0
 10
-21.31727665108826
 20
-98.3652143742819
 30
0.0
 10
-21.73603868372332
 20
-97.6582048512413
 30
0.0
 10
-22.3143298491648
 20
-96.56221712766391
 30
0.0
 10
-22.49923231589472
 20
-96.18994353895496
 30
0.0
 10
-22.84950801253877
 20
-95.43878561423978
 30
0.0
 10
-23.01475295592303
 20
-95.06033693908724
 30
0.0
 10
-23.79251209162763
 20
-93.15403069838449
 30
0.0
 10
-24.2609985863908
 20
-91.58438080258603
 30
0.0
 10
-24.65620807849649
 20
-89.56701525891562
 30
0.0
 10
-24.72564493024717
 20
-89.16075235237868
 30
0.0
 10
-24.84500448818205
 20
-88.34255755126331
 30
0.0
 10
-24.89501348850909
 20
-87.92949477160228
 30
0.0
 10
-25.01416258871306
 20
-86.69260092697277
 30
0.0
 10
-25.05290273692707
 20
-85.87014926550636
 30
0.0
 10
-25.0507012279181
 20
-83.4090310997881
 30
0.0
 10
-24.89250506098334
 20
-81.77653819421879
 30
0.0
 10
-24.49341216640169
 20
-79.74653023690337
 30
0.0
 10
-24.40316352558434
 20
-79.34011651521367
 30
0.0
 10
-24.20396429951937
 20
-78.5364088509992
 30
0.0
 10
-24.09492543926393
 20
-78.13841317750608
 30
0.0
 10
-23.73996602391441
 20
-76.95580633635267
 30
0.0
 10
-23.19256871628817
 20
-75.40929145260836
 30
0.0
 10
-22.4987212264443
 20
-73.92263275173082
 30
0.0
 10
-21.92250573420855
 20
-72.83045611833013
 30
0.0
 10
-21.72111251551246
 20
-72.47020684391318
 30
0.0
 10
-21.29932252705002
 20
-71.75747475674254
 30
0.0
 10
-21.07855434497025
 20
-71.40452851070569
 30
0.0
 10
-19.9388803183732
 20
-69.67836965208063
 30
0.0
 10
-18.90540782490928
 20
-68.40510616978997
 30
0.0
 10
-17.17621143098716
 20
-66.65345998782097
 30
0.0
 10
-16.56976984470899
 20
-66.09613981650605
 30
0.0
 10
-15.61350878021783
 20
-65.30135246560747
 30
0.0
 10
-15.2870782864246
 20
-65.04348509423643
 30
0.0
 10
-14.62593964744721
 20
-64.54727606424373
 30
0.0
 10
-14.29034452361864
 20
-64.308176456088
 30
0.0
 10
-12.58761789603641
 20
-63.15702168494045
 30
0.0
 10
-11.14694413757906
 20
-62.37672220028652
 30
0.0
 10
-8.866770885727513
 20
-61.41969411912038
 30
0.0
 10
-8.082368218876214
 20
-61.13542633905041
 30
0.0
 10
-6.503171870702372
 20
-60.65089889484149
 30
0.0
 10
-5.706584793022643
 20
-60.44937612924997
 30
0.0
 10
-3.296316379794899
 20
-59.9643410516608
 30
0.0
 10
-1.662332216508167
 20
-59.79917142488881
 30
0.0
 10
-0.0000090432738047
 20
-59.7991679614053
 30
0.0
  0
SPLINE
  5
1CB
330
1C5
100
AcDbEntity
  8
0
  6
Continuous
 62
     7
370
    25
100
AcDbSpline
210
0.0
220
0.0
230
1.0
 70
     8
 71
     3
 72
    14
 73
    10
 74
     0
 42
0.000000001
 43
0.00000001
 40
0.0
 40
0.0
 40
0.0
 40
0.0
 40
0.25
 40
0.25
 40
0.5
 40
0.5
 40
0.75
 40
0.75
 40
1.0
 40
1.0
 40
1.0
 40
1.0
 10
190.0179661932093
 20
-4.982283672958291
 30
0.0
 10
158.3484793904918
 20
-4.871033689138798
 30
0.0
 10
126.6790016424068
 20
-4.752444613797035
 30
0.0
 10
63.33977458114877
 20
-4.571450871919014
 30
0.0
 10
31.67000254237159
 20
-4.514231074394512
 30
0.0
 10
-31.67003034664537
 20
-4.51415820880538
 30
0.0
 10
-63.339802411714
 20
-4.571294363837477
 30
0.0
 10
-126.6790291491654
 20
-4.752229664572269
 30
0.0
 10
-158.348506482211
 20
-4.87085924396971
 30
0.0
 10
-190.0179922500593
 20
-4.982258208520621
 30
0.0
  0
SPLINE
  5
1CC
330
1C5
100
AcDbEntity
  8
0
  6
Continuous
 62
     7
370
    25
100
AcDbSpline
210
0.0
220
0.0
230
1.0
 70
     8
 71
     3
 72
    14
 73
    10
 74
     0
 42
0.000000001
 43
0.00000001
 40
0.0
 40
0.0
 40
0.0
 40
0.0
 40
0.125
 40
0.125
 40
0.25
 40
0.25
 40
0.5
 40
0.5
 40
1.0
 40
1.0
 40
1.0
 40
1.0
 10
190.1093884352749
 20
-110.0149354229294
 30
0.0
 10
190.1203475987818
 20
-105.6385793329544
 30
0.0
 10
190.1311354672108
 20
-101.2622184721641
 30
0.0
 10
190.148367218034
 20
-92.50948835102714
 30
0.0
 10
190.1546531964076
 20
-88.13311943496261
 30
0.0
 10
190.1664475627651
 20
-75.00399688392585
 30
0.0
 10
190.1658544383768
 20
-66.25120502851983
 30
0.0
 10
190.1358275229117
 20
-39.99294216286175
 30
0.0
 10
190.0794585021376
 20
-22.48759543463344
 30
0.0
 10
190.0179661932094
 20
-4.982283672958249
 30
0.0
  0
SPLINE
  5
1CD
330
1C5
100
AcDbEntity
  8
0
  6
Continuous
 62
     7
370
    25
100
AcDbSpline
210
0.0
220
0.0
230
1.0
 70
     8
 71
     3
 72
    38
 73
    34
 74
     0
 42
0.000000001
 43
0.00000001
 40
0.0
 40
0.0
 40
0.0
 40
0.0
 40
0.1249999999999993
 40
0.1249999999999993
 40
0.1562499999999991
 40
0.1562499999999991
 40
0.187499999999999
 40
0.187499999999999
 40
0.2499999999999981
 40
0.2499999999999981
 40
0.3124999999999972
 40
0.3124999999999972
 40
0.3437499999999967
 40
0.3437499999999967
 40
0.3749999999999963
 40
0.3749999999999963
 40
0.499999999999996
 40
0.499999999999996
 40
0.5624999999999959
 40
0.5624999999999959
 40
0.5937499999999959
 40
0.5937499999999959
 40
0.624999999999996
 40
0.624999999999996
 40
0.7499999999999968
 40
0.7499999999999968
 40
0.7812499999999977
 40
0.7812499999999977
 40
0.8124999999999987
 40
0.8124999999999987
 40
0.8749999999999991
 40
0.8749999999999991
 40
1.0
 40
1.0
 40
1.0
 40
1.0
 10
135.0101667509188
 20
-165.0597224458857
 30
0.0
 10
138.6444450184896
 20
-165.0526602568625
 30
0.0
 10
142.2389111703778
 20
-164.6912782472417
 30
0.0
 10
146.6825650773309
 20
-163.7996774261031
 30
0.0
 10
147.5702035894473
 20
-163.5987200815374
 30
0.0
 10
149.3251386163146
 20
-163.1558371651602
 30
0.0
 10
150.1940823176801
 20
-162.9136541920573
 30
0.0
 10
152.7757676081238
 20
-162.1259164022603
 30
0.0
 10
154.4634218765616
 20
-161.5193150488019
 30
0.0
 10
157.7725775297141
 20
-160.1451383685034
 30
0.0
 10
159.3940789852341
 20
-159.3775632159693
 30
0.0
 10
161.7758915095109
 20
-158.1034624643163
 30
0.0
 10
162.5614077748045
 20
-157.6582702691853
 30
0.0
 10
164.115274346724
 20
-156.7261148545631
 30
0.0
 10
164.8838838630889
 20
-156.2387938178097
 30
0.0
 10
168.6413683557714
 20
-153.7245889301206
 30
0.0
 10
171.4107900770695
 20
-151.4471190340998
 30
0.0
 10
175.2182118175074
 20
-147.6409082712235
 30
0.0
 10
176.4291604728596
 20
-146.3067127850371
 30
0.0
 10
178.155491302919
 20
-144.2040772395995
 30
0.0
 10
178.7147502842089
 20
-143.4874496660348
 30
0.0
 10
179.791110481771
 20
-142.0360481500241
 30
0.0
 10
180.309717123074
 20
-141.2994731582162
 30
0.0
 10
182.8064085475589
 20
-137.5630746051073
 30
0.0
 10
184.4981541054054
 20
-134.4041725605617
 30
0.0
 10
186.2274907673585
 20
-130.2414642654061
 30
0.0
 10
186.553925562029
 20
-129.3981267477795
 30
0.0
 10
187.1671585691211
 20
-127.6894313872863
 30
0.0
 10
187.452414738184
 20
-126.8280907918696
 30
0.0
 10
188.2407654080814
 20
-124.2369321817841
 30
0.0
 10
188.6786523569087
 20
-122.494385322774
 30
0.0
 10
189.7354746833302
 20
-117.2224900389088
 30
0.0
 10
190.1002872132793
 20
-113.6493540792311
 30
0.0
 10
190.109388435275
 20
-110.0149354229294
 30
0.0
  0
SPLINE
  5
1CE
330
1C5
100
AcDbEntity
  8
0
  6
Continuous
 62
     7
370
    25
100
AcDbSpline
210
0.0
220
0.0
230
1.0
 70
     8
 71
     3
 72
    14
 73
    10
 74
     0
 42
0.000000001
 43
0.00000001
 40
0.0
 40
0.0
 40
0.0
 40
0.0
 40
0.25
 40
0.25
 40
0.5
 40
0.5
 40
0.75
 40
0.75
 40
1.0
 40
1.0
 40
1.0
 40
1.0
 10
-135.0101695138075
 20
-165.0597481123295
 30
0.0
 10
-112.5085021054601
 20
-165.1034683912358
 30
0.0
 10
-90.00688615917596
 20
-165.1655871454115
 30
0.0
 10
-45.00353873844191
 20
-165.2531716481164
 30
0.0
 10
-22.50181068393193
 20
-165.2798808270288
 30
0.0
 10
22.50180793408002
 20
-165.2798725471558
 30
0.0
 10
45.00353596755307
 20
-165.2531518669411
 30
0.0
 10
90.00688333570373
 20
-165.1655427647194
 30
0.0
 10
112.5084993223243
 20
-165.1034480543889
 30
0.0
 10
135.0101667509188
 20
-165.0597224458857
 30
0.0
  0
SPLINE
  5
1CF
330
1C5
100
AcDbEntity
  8
0
  6
Continuous
 62
     7
370
    25
100
AcDbSpline
210
0.0
220
0.0
230
1.0
 70
     8
 71
     3
 72
    38
 73
    34
 74
     0
 42
0.000000001
 43
0.00000001
 40
0.0
 40
0.0
 40
0.0
 40
0.0
 40
0.1250000000000017
 40
0.1250000000000017
 40
0.1562500000000017
 40
0.1562500000000017
 40
0.1875000000000018
 40
0.1875000000000018
 40
0.2500000000000028
 40
0.2500000000000028
 40
0.3125000000000037
 40
0.3125000000000037
 40
0.3437500000000038
 40
0.3437500000000038
 40
0.3750000000000039
 40
0.3750000000000039
 40
0.5000000000000044
 40
0.5000000000000044
 40
0.5625000000000051
 40
0.5625000000000051
 40
0.5937500000000051
 40
0.5937500000000051
 40
0.625000000000005
 40
0.625000000000005
 40
0.7500000000000057
 40
0.7500000000000057
 40
0.7812500000000052
 40
0.7812500000000052
 40
0.8125000000000048
 40
0.8125000000000048
 40
0.8750000000000034
 40
0.8750000000000034
 40
1.0
 40
1.0
 40
1.0
 40
1.0
 10
-190.1093075879272
 20
-110.0149767548722
 30
0.0
 10
-190.1001835380761
 20
-113.6493027704104
 30
0.0
 10
-189.735278992396
 20
-117.2433166269422
 30
0.0
 10
-188.8395481298674
 20
-121.6860123566441
 30
0.0
 10
-188.6377598032727
 20
-122.5734689906921
 30
0.0
 10
-188.1932249640677
 20
-124.3280286305238
 30
0.0
 10
-187.9502253097296
 20
-125.1967562048532
 30
0.0
 10
-187.1600404704338
 20
-127.7776992131562
 30
0.0
 10
-186.5517827846924
 20
-129.464721743512
 30
0.0
 10
-185.1742852868303
 20
-132.7723606156461
 30
0.0
 10
-184.405034016767
 20
-134.3929721908877
 30
0.0
 10
-183.1284565064881
 20
-136.7732744504625
 30
0.0
 10
-182.6824462120893
 20
-137.5582585123345
 30
0.0
 10
-181.748686087292
 20
-139.1110086521933
 30
0.0
 10
-181.2605148458988
 20
-139.8791357073997
 30
0.0
 10
-178.7421512896522
 20
-143.6341439873701
 30
0.0
 10
-176.46177944734
 20
-146.4012567025768
 30
0.0
 10
-172.6518052225092
 20
-150.2047030545251
 30
0.0
 10
-171.3164452844902
 20
-151.4142327591762
 30
0.0
 10
-169.2121777491057
 20
-153.1382679778048
 30
0.0
 10
-168.4948822154331
 20
-153.6968487633752
 30
0.0
 10
-167.0422502212419
 20
-154.771748669425
 30
0.0
 10
-166.3050817125477
 20
-155.2895977665438
 30
0.0
 10
-162.5658325897102
 20
-157.7823850161071
 30
0.0
 10
-159.4050226450356
 20
-159.4706403331816
 30
0.0
 10
-155.2406960820818
 20
-161.1956909131559
 30
0.0
 10
-154.3970714306967
 20
-161.5212684891033
 30
0.0
 10
-152.6878748495264
 20
-162.1327844711728
 30
0.0
 10
-151.826168340068
 20
-162.4172528240785
 30
0.0
 10
-149.2341480786677
 20
-163.2031927767405
 30
0.0
 10
-147.4911199749046
 20
-163.6394726799284
 30
0.0
 10
-142.2180396058583
 20
-164.6913891248672
 30
0.0
 10
-138.6444336736605
 20
-165.0526868115022
 30
0.0
 10
-135.0101695138075
 20
-165.0597481123295
 30
0.0
  0
SPLINE
  5
1D0
330
1C5
100
AcDbEntity
  8
0
  6
Continuous
 62
     7
370
    25
100
AcDbSpline
210
0.0
220
0.0
230
1.0
 70
     8
 71
     3
 72
    14
 73
    10
 74
     0
 42
0.000000001
 43
0.00000001
 40
0.0
 40
0.0
 40
0.0
 40
0.0
 40
0.4999999999999997
 40
0.4999999999999997
 40
0.7499999999999996
 40
0.7499999999999996
 40
0.8749999999999998
 40
0.8749999999999998
 40
1.0
 40
1.0
 40
1.0
 40
1.0
 10
-190.0179922500592
 20
-4.982258208520662
 30
0.0
 10
-190.0795670401961
 20
-22.48760256817114
 30
0.0
 10
-190.1360394558562
 20
-39.9930395050223
 30
0.0
 10
-190.1660487275718
 20
-66.25131071605499
 30
0.0
 10
-190.1666029919352
 20
-75.00405837914855
 30
0.0
 10
-190.1547591886698
 20
-88.13316271518703
 30
0.0
 10
-190.1484485417232
 20
-92.50952828738326
 30
0.0
 10
-190.1311343313983
 20
-101.2622556909794
 30
0.0
 10
-190.1202945277622
 20
-105.6386173612515
 30
0.0
 10
-190.1093075879272
 20
-110.0149767548722
 30
0.0
  0
SPLINE
  5
1D2
330
1C5
100
AcDbEntity
  8
0
  6
Continuous
 62
     7
370
    25
100
AcDbSpline
210
0.0
220
0.0
230
1.0
 70
     8
 71
     3
 72
    38
 73
    34
 74
     0
 42
0.000000001
 43
0.00000001
 40
0.0
 40
0.0
 40
0.0
 40
0.0
 40
0.1249999999999974
 40
0.1249999999999974
 40
0.1874999999999961
 40
0.1874999999999961
 40
0.218749999999995
 40
0.218749999999995
 40
0.2499999999999939
 40
0.2499999999999939
 40
0.3749999999999917
 40
0.3749999999999917
 40
0.4062499999999918
 40
0.4062499999999918
 40
0.437499999999992
 40
0.437499999999992
 40
0.4999999999999923
 40
0.4999999999999923
 40
0.624999999999993
 40
0.624999999999993
 40
0.6562499999999936
 40
0.6562499999999936
 40
0.6874999999999941
 40
0.6874999999999941
 40
0.7499999999999953
 40
0.7499999999999953
 40
0.8124999999999967
 40
0.8124999999999967
 40
0.8437499999999969
 40
0.8437499999999969
 40
0.8749999999999974
 40
0.8749999999999974
 40
1.0
 40
1.0
 40
1.0
 40
1.0
 10
-135.0
 20
-170.0
 30
0.0
 10
-138.9616247367204
 20
-170.0
 30
0.0
 10
-142.8570889502713
 20
-169.6114901260592
 30
0.0
 10
-148.60510081021
 20
-168.469796753533
 30
0.0
 10
-150.5051228897736
 20
-167.9953855928376
 30
0.0
 10
-153.3306374139056
 20
-167.1397946134929
 30
0.0
 10
-154.2699476650268
 20
-166.829992480725
 30
0.0
 10
-156.13322952992
 20
-166.163738639872
 30
0.0
 10
-157.0528570458686
 20
-165.8089339645494
 30
0.0
 10
-161.5921488575024
 20
-163.9287256057437
 30
0.0
 10
-165.036949163822
 20
-162.0877864356608
 30
0.0
 10
-169.1117845260084
 20
-159.3694834348963
 30
0.0
 10
-169.915089382273
 20
-158.8047787797033
 30
0.0
 10
-171.4980033033275
 20
-157.6326112361917
 30
0.0
 10
-172.2795962056751
 20
-157.0234913072081
 30
0.0
 10
-174.5726332561058
 20
-155.1432698094278
 30
0.0
 10
-176.027632921712
 20
-153.8241873212585
 30
0.0
 10
-180.1784832774636
 20
-149.6763012245084
 30
0.0
 10
-182.6622092420786
 20
-146.6586606140559
 30
0.0
 10
-185.4041354529999
 20
-142.5637007030284
 30
0.0
 10
-185.9355934470178
 20
-141.7260228777153
 30
0.0
 10
-186.9520644392098
 20
-140.0326190656323
 30
0.0
 10
-187.4375073929324
 20
-139.1765478037078
 30
0.0
 10
-188.8267256187903
 20
-136.5807468379461
 30
0.0
 10
-189.6635485923962
 20
-134.8134950475314
 30
0.0
 10
-191.1612838142492
 20
-131.2066801155313
 30
0.0
 10
-191.8221951630829
 20
-129.3671166416443
 30
0.0
 10
-192.6798598525101
 20
-126.5528104844898
 30
0.0
 10
-192.9434249361532
 20
-125.6055320585884
 30
0.0
 10
-193.4251156897005
 20
-123.6922964037583
 30
0.0
 10
-193.6435186567452
 20
-122.7245413604589
 30
0.0
 10
-194.6114444441544
 20
-117.8800649572397
 30
0.0
 10
-195.0
 20
-113.9616158232811
 30
0.0
 10
-195.0
 20
-110.0
 30
0.0
  0
SPLINE
  5
1D4
330
1C5
100
AcDbEntity
  8
0
  6
Continuous
 62
     7
370
    25
100
AcDbSpline
210
0.0
220
0.0
230
1.0
 70
     8
 71
     3
 72
    38
 73
    34
 74
     0
 42
0.000000001
 43
0.00000001
 40
0.0
 40
0.0
 40
0.0
 40
0.0
 40
0.1249999999999999
 40
0.1249999999999999
 40
0.1874999999999998
 40
0.1874999999999998
 40
0.2187499999999993
 40
0.2187499999999993
 40
0.2499999999999987
 40
0.2499999999999987
 40
0.3750000000000002
 40
0.3750000000000002
 40
0.4062500000000003
 40
0.4062500000000003
 40
0.4375000000000004
 40
0.4375000000000004
 40
0.5000000000000012
 40
0.5000000000000012
 40
0.625000000000003
 40
0.625000000000003
 40
0.6562500000000031
 40
0.6562500000000031
 40
0.6875000000000032
 40
0.6875000000000032
 40
0.7500000000000027
 40
0.7500000000000027
 40
0.8125000000000022
 40
0.8125000000000022
 40
0.8437500000000016
 40
0.8437500000000016
 40
0.8750000000000009
 40
0.8750000000000009
 40
1.0
 40
1.0
 40
1.0
 40
1.0
 10
195.0
 20
-110.0
 30
0.0
 10
194.9999999999999
 20
-113.9616167324107
 30
0.0
 10
194.6114912582826
 20
-117.8570783636965
 30
0.0
 10
193.4698004595824
 20
-123.6050845947025
 30
0.0
 10
192.9953903870539
 20
-125.5051046528484
 30
0.0
 10
192.1398014513503
 20
-128.3306160346812
 30
0.0
 10
191.8300002546837
 20
-129.2699247195904
 30
0.0
 10
191.1637474245593
 20
-131.1332061665131
 30
0.0
 10
190.8089432619643
 20
-132.0528335015531
 30
0.0
 10
188.9287375067817
 20
-136.5921245175072
 30
0.0
 10
187.087800460223
 20
-140.0369245419328
 30
0.0
 10
184.3695011394488
 20
-144.1117588858604
 30
0.0
 10
183.8047972764161
 20
-144.9150635064975
 30
0.0
 10
182.6326314694214
 20
-146.4979768775354
 30
0.0
 10
182.0235128015468
 20
-147.2795691155886
 30
0.0
 10
180.143290991994
 20
-149.5726091757529
 30
0.0
 10
178.8242084773422
 20
-151.0276103516583
 30
0.0
 10
174.6763232291139
 20
-155.1784640548022
 30
0.0
 10
171.6586844861562
 20
-157.6621906533291
 30
0.0
 10
167.5637289415192
 20
-160.4041171959829
 30
0.0
 10
166.7260519259535
 20
-160.9355753755654
 30
0.0
 10
165.0326467547297
 20
-161.9520484538755
 30
0.0
 10
164.1765748805104
 20
-162.4374923440112
 30
0.0
 10
161.5807722388414
 20
-163.8267131407068
 30
0.0
 10
159.8135195417798
 20
-164.6635375167937
 30
0.0
 10
156.2067030213016
 20
-166.161275206912
 30
0.0
 10
154.3671388309118
 20
-166.8221876263506
 30
0.0
 10
151.5528319086394
 20
-167.6798537107137
 30
0.0
 10
150.6055532883198
 20
-167.943419222082
 30
0.0
 10
148.6923173980596
 20
-168.4251107731198
 30
0.0
 10
147.7245615534034
 20
-168.6435143033541
 30
0.0
 10
142.8800772784647
 20
-169.6114432577334
 30
0.0
 10
138.9616240581275
 20
-170.0
 30
0.0
 10
135.0
 20
-170.0
 30
0.0
  0
SPLINE
  5
1D8
330
1C5
100
AcDbEntity
  8
0
  6
Continuous
 62
     7
370
    25
100
AcDbSpline
210
0.0
220
0.0
230
1.0
 70
    24
 71
     3
 72
    14
 73
    10
 74
     0
 42
0.000000001
 43
0.00000001
 40
0.0
 40
0.0
 40
0.0
 40
0.0
 40
0.2499999999999999
 40
0.2499999999999999
 40
0.4999999999999998
 40
0.4999999999999998
 40
0.7499999999999999
 40
0.7499999999999999
 40
1.0
 40
1.0
 40
1.0
 40
1.0
 10
-190.0
 20
0.0
 30
0.0
 10
-158.3334252569665
 20
0.0
 30
0.0
 10
-126.6668513241941
 20
-0.0000000000000139
 30
0.0
 10
-63.33356870160159
 20
-0.0000000000000139
 30
0.0
 10
-31.66684643619185
 20
0.0000000000000971
 30
0.0
 10
31.6668455277495
 20
0.0000000000000971
 30
0.0
 10
63.33356778627906
 20
0.0000000000001249
 30
0.0
 10
126.6668505793436
 20
0.0000000000001249
 30
0.0
 10
158.3334247093991
 20
0.0
 30
0.0
 10
190.0
 20
0.0
 30
0.0
  0
SPLINE
  5
1DA
330
1C5
100
AcDbEntity
  8
0
  6
Continuous
 62
     7
370
    25
100
AcDbSpline
210
0.0
220
0.0
230
1.0
 70
    24
 71
     3
 72
    14
 73
    10
 74
     0
 42
0.000000001
 43
0.00000001
 40
0.0
 40
0.0
 40
0.0
 40
0.0
 40
0.25
 40
0.25
 40
0.5
 40
0.5
 40
0.75
 40
0.75
 40
1.0
 40
1.0
 40
1.0
 40
1.0
 10
135.0
 20
-170.0
 30
0.0
 10
112.5000151777821
 20
-170.0
 30
0.0
 10
90.00005445974459
 20
-170.0000000000001
 30
0.0
 10
45.00007584539347
 20
-170.0
 30
0.0
 10
22.50005875706595
 20
-170.0000000000002
 30
0.0
 10
-22.50005875379665
 20
-170.0000000000002
 30
0.0
 10
-45.00007585194317
 20
-170.0000000000003
 30
0.0
 10
-90.00005448839703
 20
-170.0000000000003
 30
0.0
 10
-112.5000152041171
 20
-170.0
 30
0.0
 10
-135.0
 20
-170.0
 30
0.0
  0
SPLINE
  5
1DB
330
1C5
100
AcDbEntity
  8
0
  6
Continuous
 62
     7
370
    25
100
AcDbSpline
210
0.0
220
0.0
230
1.0
 70
    24
 71
     3
 72
    12
 73
     8
 74
     0
 42
0.000000001
 43
0.00000001
 40
0.0
 40
0.0
 40
0.0
 40
0.0
 40
0.25
 40
0.25
 40
0.5
 40
0.5
 40
1.0
 40
1.0
 40
1.0
 40
1.0
 10
-195.0
 20
-110.0
 30
0.0
 10
-194.9999999999999
 20
-101.2500052763664
 30
0.0
 10
-195.0000000000001
 20
-92.50000349048874
 30
0.0
 10
-195.0
 20
-74.99999459370511
 30
0.0
 10
-195.0000000000002
 20
-66.2499832316944
 30
0.0
 10
-195.0000000000002
 20
-39.99993639458037
 30
0.0
 10
-195.0
 20
-22.49994420327503
 30
0.0
 10
-195.0
 20
-5.000000000000019
 30
0.0
  0
SPLINE
  5
1DD
330
1C5
100
AcDbEntity
  8
0
  6
Continuous
 62
     7
370
    25
100
AcDbSpline
210
0.0
220
0.0
230
1.0
 70
    24
 71
     3
 72
    12
 73
     8
 74
     0
 42
0.000000001
 43
0.00000001
 40
0.0
 40
0.0
 40
0.0
 40
0.0
 40
0.5000000000000002
 40
0.5000000000000002
 40
0.7500000000000001
 40
0.7500000000000001
 40
1.0
 40
1.0
 40
1.0
 40
1.0
 10
195.0
 20
-5.000000000000004
 30
0.0
 10
195.0000000000001
 20
-22.4999353131488
 30
0.0
 10
195.0
 20
-39.99989068002223
 30
0.0
 10
195.0
 20
-66.24994194281285
 30
0.0
 10
195.0000000000001
 20
-74.99997770695312
 30
0.0
 10
195.0000000000001
 20
-92.50000163674966
 30
0.0
 10
195.0
 20
-101.2500081733203
 30
0.0
 10
195.0
 20
-110.0
 30
0.0
  0
LINE
  5
1E1
330
1C5
100
AcDbEntity
  8
0
  6
Continuous
 62
     7
370
    25
100
AcDbLine
 10
-135.0101695138
 20
-165.0597481123
 30
0.0
 11
-135.0
 21
-170.0
 31
0.0
  0
LINE
  5
1E2
330
1C5
100
AcDbEntity
  8
0
  6
Continuous
 62
     7
370
    25
100
AcDbLine
 10
135.0
 20
-170.0
 30
0.0
 11
135.0101667509
 21
-165.0597224459
 31
0.0
  0
ARC
  5
1E3
330
1C5
100
AcDbEntity
  8
0
  6
Continuous
 62
     7
370
    25
100
AcDbCircle
 10
-191.314452937
 20
294.9828431376
 30
0.0
 40
404.9996129540854
100
AcDbArc
 50
269.4785940535
 51
270.1704936052
  0
ARC
  5
1E4
330
1C5
100
AcDbEntity
  8
0
  6
Continuous
 62
     7
370
    25
100
AcDbCircle
 10
191.3145010156
 20
296.0944046744
 30
0.0
 40
406.1111281540894
100
AcDbArc
 50
269.8299776558
 51
270.5199720499
  0
ARC
  5
1E5
330
1C5
100
AcDbEntity
  8
0
  6
Continuous
 62
     7
370
    25
100
AcDbCircle
 10
155.7107899655
 20
-3.7396145463
 30
0.0
 40
345.7310154086875
100
AcDbArc
 50
179.3802456267
 51
180.2059357923
  0
ARC
  5
1E6
330
1C5
100
AcDbEntity
  8
0
  6
Continuous
 62
     7
370
    25
100
AcDbCircle
 10
-156.2145801085
 20
-3.7396294455
 30
0.0
 40
346.2347762834752
100
AcDbArc
 50
359.7943620908
 51
0.6188550805
  0
ARC
  5
1E7
330
1C5
100
AcDbEntity
  8
0
  6
Continuous
 62
     7
370
    25
100
AcDbCircle
 10
-191.2605329149
 20
-355.5675292125
 30
0.0
 40
350.5874728969523
100
AcDbArc
 50
89.7969337455
 51
90.6111448954
  0
ARC
  5
1E8
330
1C5
100
AcDbEntity
  8
0
  6
Continuous
 62
     7
370
    25
100
AcDbCircle
 10
191.2605176658
 20
-356.0739011569
 30
0.0
 40
351.0938162395512
100
AcDbArc
 50
89.3897340352
 51
90.2027751573
  0
ARC
  5
1E9
330
1C5
100
AcDbEntity
  8
0
  6
Continuous
 62
     7
370
    25
100
AcDbCircle
 10
-190.0
 20
-5.0
 30
0.0
 40
5.000000000000057
100
AcDbArc
 50
90.0
 51
180.0
  0
ARC
  5
1EA
330
1C5
100
AcDbEntity
  8
0
  6
Continuous
 62
     7
370
    25
100
AcDbCircle
 10
190.0
 20
-5.0
 30
0.0
 40
5.000000000000001
100
AcDbArc
 50
0.0
 51
90.0
  0
VIEWPORT
  5
29E
330
1C5
100
AcDbEntity
  8
0
100
AcDbViewport
 10
0.0
 20
0.0
 30
0.0
 40
205.6
 41
156.0
 68
     1
 69
     1
 12
0.0
 22
471.1856520253
 13
0.0
 23
0.0
 14
10.0
 24
10.0
 15
10.0
 25
10.0
 16
0.0
 26
0.0
 36
1.0
 17
0.0
 27
0.0
 37
0.0
 42
50.0
 43
0.0
 44
0.0
 45
377.3020796785
 50
0.0
 51
0.0
 72
   100
 90
   557152
  1

281
     0
 71
     1
 74
     0
110
0.0
120
0.0
130
0.0
111
1.0
121
0.0
131
0.0
112
0.0
122
1.0
132
0.0
 79
     0
146
0.0
  0
ENDBLK
  5
1C8
330
1C5
100
AcDbEntity
  8
0
100
AcDbBlockEnd
  0
BLOCK
  5
1ED
330
1EB
100
AcDbEntity
  8
0
100
AcDbBlockBegin
  2
*Paper_Space2
 70
     0
 10
0.0
 20
0.0
 30
0.0
  3
*Paper_Space2
  1

  0
SPLINE
  5
209
330
1EB
100
AcDbEntity
  8
0
  6
Continuous
 62
     7
370
    25
100
AcDbSpline
210
0.0
220
0.0
230
1.0
 70
    11
 71
     3
 72
   125
 73
   121
 74
     0
 42
0.000000001
 43
0.00000001
 40
0.0
 40
0.0
 40
0.0
 40
0.0
 40
0.0156250000000001
 40
0.0156250000000001
 40
0.0312500000000002
 40
0.0312500000000002
 40
0.0625000000000004
 40
0.0625000000000004
 40
0.0703125000000004
 40
0.0703125000000004
 40
0.0781250000000005
 40
0.0781250000000005
 40
0.0937500000000006
 40
0.0937500000000006
 40
0.1250000000000007
 40
0.1250000000000007
 40
0.1328125000000007
 40
0.1328125000000007
 40
0.1406250000000007
 40
0.1406250000000007
 40
0.1562500000000003
 40
0.1562500000000003
 40
0.171875
 40
0.171875
 40
0.1874999999999997
 40
0.1874999999999997
 40
0.2187499999999993
 40
0.2187499999999993
 40
0.2343749999999989
 40
0.2343749999999989
 40
0.2499999999999986
 40
0.2499999999999986
 40
0.2812499999999982
 40
0.2812499999999982
 40
0.2968749999999981
 40
0.2968749999999981
 40
0.3124999999999979
 40
0.3124999999999979
 40
0.3281249999999978
 40
0.3281249999999978
 40
0.3359374999999977
 40
0.3359374999999977
 40
0.3437499999999977
 40
0.3437499999999977
 40
0.3749999999999975
 40
0.3749999999999975
 40
0.3906249999999973
 40
0.3906249999999973
 40
0.3984374999999971
 40
0.3984374999999971
 40
0.4062499999999969
 40
0.4062499999999969
 40
0.4374999999999966
 40
0.4374999999999966
 40
0.4453124999999965
 40
0.4453124999999965
 40
0.4531249999999964
 40
0.4531249999999964
 40
0.4687499999999963
 40
0.4687499999999963
 40
0.4843749999999962
 40
0.4843749999999962
 40
0.4999999999999961
 40
0.4999999999999961
 40
0.5312499999999959
 40
0.5312499999999959
 40
0.5468749999999958
 40
0.5468749999999958
 40
0.5624999999999957
 40
0.5781249999999956
 40
0.5781249999999956
 40
0.5859374999999954
 40
0.5859374999999954
 40
0.5937499999999954
 40
0.5937499999999954
 40
0.6249999999999952
 40
0.6249999999999952
 40
0.6406249999999952
 40
0.6406249999999952
 40
0.6484374999999953
 40
0.6484374999999953
 40
0.6562499999999953
 40
0.6562499999999953
 40
0.6874999999999954
 40
0.6874999999999954
 40
0.6953124999999957
 40
0.6953124999999957
 40
0.7031249999999958
 40
0.7031249999999958
 40
0.718749999999996
 40
0.718749999999996
 40
0.7499999999999967
 40
0.7499999999999967
 40
0.7578124999999968
 40
0.7578124999999968
 40
0.765624999999997
 40
0.765624999999997
 40
0.7812499999999973
 40
0.7812499999999973
 40
0.7968749999999977
 40
0.7968749999999977
 40
0.812499999999998
 40
0.812499999999998
 40
0.8437499999999984
 40
0.8437499999999984
 40
0.8593749999999987
 40
0.8593749999999987
 40
0.8749999999999988
 40
0.8749999999999988
 40
0.9062499999999992
 40
0.9062499999999992
 40
0.9218749999999993
 40
0.9218749999999993
 40
0.9374999999999994
 40
0.9374999999999994
 40
0.9531249999999996
 40
0.9531249999999996
 40
0.9687499999999997
 40
0.9687499999999997
 40
1.0
 40
1.0
 40
1.0
 40
1.0
 10
-0.0000012421546393
 20
60.20272848238268
 30
0.0
 10
-0.8204281751063298
 20
60.20272712682634
 30
0.0
 10
-1.638350639753332
 20
60.24276011012346
 30
0.0
 10
-3.269205606710829
 20
60.40259300948716
 30
0.0
 10
-4.080950867471778
 20
60.5226355409022
 30
0.0
 10
-6.472950081654421
 20
60.99556197728517
 30
0.0
 10
-8.02238105306391
 20
61.46111445517651
 30
0.0
 10
-9.902505858122872
 20
62.23132879177803
 30
0.0
 10
-10.27567240403708
 20
62.39486922933188
 30
0.0
 10
-11.01618142965985
 20
62.74130294163316
 30
0.0
 10
-11.38409097905389
 20
62.92455277152798
 30
0.0
 10
-12.46728338234276
 20
63.49763835869178
 30
0.0
 10
-13.16573761534516
 20
63.91231458386952
 30
0.0
 10
-15.19183942137066
 20
65.2517892257122
 30
0.0
 10
-16.45089967121489
 20
66.27110463166066
 30
0.0
 10
-17.90586299296973
 20
67.70910658449341
 30
0.0
 10
-18.19080603393211
 20
68.00503059777678
 30
0.0
 10
-18.74233057345615
 20
68.60685238777766
 30
0.0
 10
-19.00974567619735
 20
68.91354788441146
 30
0.0
 10
-19.78732705635598
 20
69.85072770265272
 30
0.0
 10
-20.27288777394732
 20
70.4982649070089
 30
0.0
 10
-21.17890944540516
 20
71.83846283709539
 30
0.0
 10
-21.59937229513174
 20
72.53112223921242
 30
0.0
 10
-22.37385330903545
 20
73.962502682854
 30
0.0
 10
-22.72941497798778
 20
74.70546614330067
 30
0.0
 10
-23.67419270568767
 20
76.96262926498335
 30
0.0
 10
-24.14773475145811
 20
78.51010187366707
 30
0.0
 10
-24.62702683563218
 20
80.89441055504328
 30
0.0
 10
-24.74801387168027
 20
81.6997714767002
 30
0.0
 10
-24.90953947651858
 20
83.3324660763263
 30
0.0
 10
-24.94872593399326
 20
84.14677622354846
 30
0.0
 10
-24.94564883492554
 20
86.57919211313403
 30
0.0
 10
-24.78410157994609
 20
88.18895514368309
 30
0.0
 10
-24.29949558895946
 20
90.58562877941023
 30
0.0
 10
-24.09614053379151
 20
91.38374853158226
 30
0.0
 10
-23.61642485691137
 20
92.93899200364352
 30
0.0
 10
-23.33946838285621
 20
93.70034882779173
 30
0.0
 10
-22.71294286174395
 20
95.19124163569491
 30
0.0
 10
-22.36337148349965
 20
95.92077658201082
 30
0.0
 10
-21.78413814895022
 20
96.9910423690455
 30
0.0
 10
-21.58189796461625
 20
97.34378436553598
 30
0.0
 10
-21.15881956165054
 20
98.04112418783954
 30
0.0
 10
-20.93734459967135
 20
98.38664092709598
 30
0.0
 10
-19.7909818993757
 20
100.0809899330317
 30
0.0
 10
-18.75512902276463
 20
101.3258522432772
 30
0.0
 10
-17.02977942951054
 20
103.0334632061901
 30
0.0
 10
-16.42585555561035
 20
103.5758551902586
 30
0.0
 10
-15.47566775362449
 20
104.3482239921203
 30
0.0
 10
-15.15062950484081
 20
104.5994356643266
 30
0.0
 10
-14.49157075097068
 20
105.0833652451373
 30
0.0
 10
-14.15731296642559
 20
105.3163566572505
 30
0.0
 10
-12.46282331791905
 20
106.4372898515354
 30
0.0
 10
-11.03364647761546
 20
107.1944086921217
 30
0.0
 10
-9.155452230594669
 20
107.9668329919027
 30
0.0
 10
-8.775186254531947
 20
108.1125413152128
 30
0.0
 10
-8.005238344172183
 20
108.3860995204345
 30
0.0
 10
-7.614840115228028
 20
108.5141316353402
 30
0.0
 10
-6.439148517084624
 20
108.8679686497562
 30
0.0
 10
-5.646955411355792
 20
109.0645964220399
 30
0.0
 10
-4.045936961107962
 20
109.3801044804594
 30
0.0
 10
-3.235598570662497
 20
109.4991265787093
 30
0.0
 10
-1.604421062766801
 20
109.6573387922774
 30
0.0
 10
-0.7914142024600639
 20
109.6959283630561
 30
0.0
 10
1.640110929458031
 20
109.6940763991706
 30
0.0
 10
3.251203302355827
 20
109.5371070801092
 30
0.0
 10
5.652652376741478
 20
109.0632798432355
 30
0.0
 10
6.451436048931405
 20
108.8645298340278
 30
0.0
 10
8.009140041690143
 20
108.3952010833971
 30
0.0
 10
9.535899214678063
 20
107.8526425637888
 30
0.0
 10
11.00178886762084
 20
107.1660190341057
 30
0.0
 10
12.07810749457455
 20
106.5963722287669
 30
0.0
 10
12.4330238379193
 20
106.3973607343279
 30
0.0
 10
13.13501269331083
 20
105.9807678135518
 30
0.0
 10
13.48301720051076
 20
105.7625432805988
 30
0.0
 10
15.18794979378367
 20
104.6340431696717
 30
0.0
 10
16.44396189253691
 20
103.6119858358185
 30
0.0
 10
18.17064030740328
 20
101.9049484513373
 30
0.0
 10
18.71978674671179
 20
101.3067342073298
 30
0.0
 10
19.50270522666762
 20
100.3642880076187
 30
0.0
 10
19.75738692440046
 20
100.0418432209751
 30
0.0
 10
20.24778109659827
 20
99.38838934109474
 30
0.0
 10
20.48404057009133
 20
99.05679261833039
 30
0.0
 10
21.62139121223249
 20
97.37485855508676
 30
0.0
 10
22.391910666506
 20
95.9533611677809
 30
0.0
 10
23.17972729648198
 20
94.08084823946926
 30
0.0
 10
23.32844439743023
 20
93.70152021071728
 30
0.0
 10
23.60782757059205
 20
92.93301559909331
 30
0.0
 10
23.73853241546868
 20
92.54349045994317
 30
0.0
 10
24.09907208910754
 20
91.37319841674649
 30
0.0
 10
24.29906227466
 20
90.58647512799952
 30
0.0
 10
24.78083117750679
 20
88.20717705518724
 30
0.0
 10
24.94556848413169
 20
86.59566081484412
 30
0.0
 10
24.94817075198369
 20
84.5483346672813
 30
0.0
 10
24.93836592946468
 20
84.13799338479394
 30
0.0
 10
24.89851490268091
 20
83.32316633051838
 30
0.0
 10
24.86847815007344
 20
82.91759706059011
 30
0.0
 10
24.74852771298877
 20
81.70633202121034
 30
0.0
 10
24.62884737092453
 20
80.90606562832359
 30
0.0
 10
24.31090166811471
 20
79.31986791046629
 30
0.0
 10
24.112637803598
 20
78.53393630987432
 30
0.0
 10
23.63606896589368
 20
76.9766757898332
 30
0.0
 10
23.35594425142198
 20
76.20175350092327
 30
0.0
 10
22.41108575935484
 20
73.94659107327875
 30
0.0
 10
21.64090803793184
 20
72.5235197515205
 30
0.0
 10
20.27930279463622
 20
70.50711291318835
 30
0.0
 10
19.7901603538766
 20
69.85405192075109
 30
0.0
 10
18.7428305046063
 20
68.59214233147621
 30
0.0
 10
18.19225356943471
 20
67.99230433113183
 30
0.0
 10
16.46271232247647
 20
66.28274181393301
 30
0.0
 10
15.20666236045198
 20
65.26213089074459
 30
0.0
 10
13.16592723641609
 20
63.91225638052696
 30
0.0
 10
12.45768425415498
 20
63.49232641784256
 30
0.0
 10
11.01896550941847
 20
62.73170333178216
 30
0.0
 10
10.28492798737605
 20
62.38841093804914
 30
0.0
 10
8.78805725710562
 20
61.77443982150096
 30
0.0
 10
8.025223330583295
 20
61.50376292892125
 30
0.0
 10
6.470488613762985
 20
61.03569787360467
 30
0.0
 10
5.676044129428231
 20
60.83782373823551
 30
0.0
 10
3.264941121404714
 20
60.36171501329638
 30
0.0
 10
1.640852623748748
 20
60.20273119349537
 30
0.0
 10
-0.0000012421546429
 20
60.20272848238269
 30
0.0
  0
SPLINE
  5
20A
330
1EB
100
AcDbEntity
  8
0
  6
Continuous
 62
     7
370
    25
100
AcDbSpline
210
0.0
220
0.0
230
1.0
 70
    11
 71
     3
 72
   113
 73
   109
 74
     0
 42
0.000000001
 43
0.00000001
 40
0.0
 40
0.0
 40
0.0
 40
0.0
 40
0.0312499999999998
 40
0.0312499999999998
 40
0.0468749999999998
 40
0.0468749999999998
 40
0.0624999999999997
 40
0.0624999999999997
 40
0.0781249999999996
 40
0.0781249999999996
 40
0.0937499999999996
 40
0.0937499999999996
 40
0.1249999999999996
 40
0.1249999999999996
 40
0.1406249999999996
 40
0.1406249999999996
 40
0.1562499999999996
 40
0.1562499999999996
 40
0.1874999999999994
 40
0.1874999999999994
 40
0.2031249999999992
 40
0.2031249999999992
 40
0.218749999999999
 40
0.218749999999999
 40
0.2343749999999989
 40
0.2343749999999989
 40
0.2499999999999987
 40
0.2499999999999987
 40
0.2812499999999984
 40
0.2812499999999984
 40
0.2968749999999983
 40
0.2968749999999983
 40
0.3124999999999982
 40
0.3124999999999982
 40
0.3437499999999979
 40
0.3437499999999979
 40
0.3515624999999979
 40
0.3515624999999979
 40
0.3593749999999979
 40
0.3593749999999979
 40
0.3749999999999978
 40
0.3749999999999978
 40
0.4062499999999972
 40
0.4062499999999972
 40
0.4140624999999972
 40
0.4140624999999972
 40
0.4218749999999971
 40
0.4218749999999971
 40
0.4374999999999968
 40
0.4531249999999965
 40
0.4531249999999965
 40
0.4687499999999962
 40
0.4687499999999962
 40
0.4999999999999957
 40
0.4999999999999957
 40
0.5156249999999953
 40
0.5156249999999953
 40
0.5312499999999951
 40
0.5312499999999951
 40
0.5468749999999948
 40
0.5468749999999948
 40
0.5624999999999944
 40
0.5624999999999944
 40
0.593749999999994
 40
0.593749999999994
 40
0.6093749999999937
 40
0.6093749999999937
 40
0.6249999999999934
 40
0.6249999999999934
 40
0.6562499999999931
 40
0.6562499999999931
 40
0.671874999999993
 40
0.671874999999993
 40
0.687499999999993
 40
0.687499999999993
 40
0.7031249999999929
 40
0.7031249999999929
 40
0.7187499999999928
 40
0.7187499999999928
 40
0.749999999999993
 40
0.749999999999993
 40
0.7656249999999932
 40
0.7656249999999932
 40
0.7812499999999936
 40
0.7812499999999936
 40
0.812499999999994
 40
0.812499999999994
 40
0.8281249999999946
 40
0.8281249999999946
 40
0.843749999999995
 40
0.843749999999995
 40
0.8593749999999954
 40
0.8593749999999954
 40
0.8749999999999959
 40
0.8749999999999959
 40
0.9062499999999969
 40
0.9062499999999969
 40
0.9218749999999973
 40
0.9218749999999973
 40
0.9296874999999976
 40
0.9296874999999976
 40
0.9374999999999978
 40
0.9374999999999978
 40
0.9687499999999988
 40
0.9687499999999988
 40
0.9843749999999994
 40
0.9843749999999994
 40
1.0
 40
1.0
 40
1.0
 40
1.0
 10
0.0000289729991341
 20
65.000000000021
 30
0.0
 10
1.321207680974501
 20
65.00000191394645
 30
0.0
 10
2.628605204870298
 20
65.12964577782489
 30
0.0
 10
4.569120423130816
 20
65.51774463470991
 30
0.0
 10
5.208096657702891
 20
65.67895519371294
 30
0.0
 10
6.458243699724123
 20
66.06014436386849
 30
0.0
 10
7.071407005918442
 20
66.28051084300758
 30
0.0
 10
8.274165328472886
 20
66.78016851177803
 30
0.0
 10
8.863760787884548
 20
67.0594585696568
 30
0.0
 10
10.01895329591401
 20
67.67805273726437
 30
0.0
 10
10.58733669265708
 20
68.0194466305283
 30
0.0
 10
12.22332297721418
 20
69.11560705272771
 30
0.0
 10
13.22910574821796
 20
69.94361893713818
 30
0.0
 10
14.61268571652
 20
71.32903154300612
 30
0.0
 10
15.05288240226071
 20
71.81490406951544
 30
0.0
 10
15.88979214677993
 20
72.83650836130921
 30
0.0
 10
16.27992408955231
 20
73.36426615930033
 30
0.0
 10
17.36620547320795
 20
74.99401034604384
 30
0.0
 10
17.97998601734664
 20
76.14320291572638
 30
0.0
 10
18.73245391628591
 20
77.96253893664637
 30
0.0
 10
18.95536234956986
 20
78.58720766200307
 30
0.0
 10
19.33458473631536
 20
79.84214187399424
 30
0.0
 10
19.4923516356051
 20
80.47535910654585
 30
0.0
 10
19.74541964071357
 20
81.7530705716143
 30
0.0
 10
19.84071925343275
 20
82.39756507709657
 30
0.0
 10
19.96826076735995
 20
83.6979362733731
 30
0.0
 10
20.00049433351096
 20
84.3559136617931
 30
0.0
 10
19.99899407050128
 20
86.33368637675086
 30
0.0
 10
19.86889592372834
 20
87.63138280636005
 30
0.0
 10
19.48695504529422
 20
89.54784380097549
 30
0.0
 10
19.32828062800478
 20
90.18161370648151
 30
0.0
 10
18.94659255262374
 20
91.43880293866529
 30
0.0
 10
18.72315762924777
 20
92.06196430402112
 30
0.0
 10
17.97087964906356
 20
93.87464762131762
 30
0.0
 10
17.35696910969944
 20
95.0221716642957
 30
0.0
 10
16.44948682602509
 20
96.38073600462232
 30
0.0
 10
16.26092258093206
 20
96.64862268926672
 30
0.0
 10
15.86940913273805
 20
97.17661149572139
 30
0.0
 10
15.66593811169455
 20
97.43730331061313
 30
0.0
 10
15.03993487473788
 20
98.19973034581272
 30
0.0
 10
14.60059331902952
 20
98.68382611983904
 30
0.0
 10
13.2183786548275
 20
100.0655951067428
 30
0.0
 10
12.2119319437793
 20
100.8934276732679
 30
0.0
 10
10.8443338495514
 20
101.8079949331346
 30
0.0
 10
10.56493750628171
 20
101.9849963251219
 30
0.0
 10
10.00118839066266
 20
102.3229395730204
 30
0.0
 10
9.716117246702504
 20
102.4843892048428
 30
0.0
 10
8.851472785296547
 20
102.9465492617249
 30
0.0
 10
7.673508136674639
 20
103.5036963299785
 30
0.0
 10
6.445909712700915
 20
103.9441006713442
 30
0.0
 10
5.193063774734711
 20
104.3251336580593
 30
0.0
 10
4.550354527203032
 20
104.4865561523718
 30
0.0
 10
2.617426309060675
 20
104.8714737130326
 30
0.0
 10
1.320530741599181
 20
104.9989809766952
 30
0.0
 10
-0.6369781776672598
 20
105.0005004734283
 30
0.0
 10
-1.291523127430085
 20
104.9691586161425
 30
0.0
 10
-2.604835298738919
 20
104.8406189644322
 30
0.0
 10
-3.257046692386578
 20
104.743938848046
 30
0.0
 10
-4.545544539059541
 20
104.4876755729151
 30
0.0
 10
-5.183000137145808
 20
104.3279812770508
 30
0.0
 10
-6.444190569157404
 20
103.94483461464
 30
0.0
 10
-7.065717636751032
 20
103.721728386796
 30
0.0
 10
-8.877222059011535
 20
102.9695533211048
 30
0.0
 10
-10.0250915131049
 20
102.3554001858662
 30
0.0
 10
-11.65704666580271
 20
101.2647273846112
 30
0.0
 10
-12.18875170071658
 20
100.8702799427864
 30
0.0
 10
-13.20380365909501
 20
100.0363234341444
 30
0.0
 10
-13.68740005638292
 20
99.59723049989921
 30
0.0
 10
-15.06825685251465
 20
98.21528924047007
 30
0.0
 10
-15.8962634032036
 20
97.20840750574592
 30
0.0
 10
-16.99453798728002
 20
95.56502624708014
 30
0.0
 10
-17.33266447241966
 20
95.0002493715262
 30
0.0
 10
-17.94795983234987
 20
93.84855824767764
 30
0.0
 10
-18.22627034675996
 20
93.25994655796752
 30
0.0
 10
-18.72476016194991
 20
92.0574077940214
 30
0.0
 10
-18.94494090743551
 20
91.44348136874727
 30
0.0
 10
-19.32602536330716
 20
90.18979592974759
 30
0.0
 10
-19.48734975705032
 20
89.54680995111563
 30
0.0
 10
-19.87142644597353
 20
87.6167797276324
 30
0.0
 10
-19.99901572138059
 20
86.32058306594232
 30
0.0
 10
-20.00048371100801
 20
84.36219619770375
 30
0.0
 10
-19.9690560306263
 20
83.70661753980497
 30
0.0
 10
-19.84025416104647
 20
82.39225159041156
 30
0.0
 10
-19.74392523018683
 20
81.74370671215135
 30
0.0
 10
-19.3624333894799
 20
79.82310024003375
 30
0.0
 10
-18.98563127488621
 20
78.57583238601407
 30
0.0
 10
-18.23347391670696
 20
76.75551941973299
 30
0.0
 10
-17.9502593872445
 20
76.15593294486057
 30
0.0
 10
-17.33289366686375
 20
74.99999343608431
 30
0.0
 10
-16.99757474406556
 20
74.4403344602931
 30
0.0
 10
-16.27463595794507
 20
73.35696311407843
 30
0.0
 10
-15.88701508205133
 20
72.83325145161126
 30
0.0
 10
-15.05892261551793
 20
71.82214478312619
 30
0.0
 10
-14.6166587384942
 20
71.33297687329942
 30
0.0
 10
-13.21966058680092
 20
69.93422722648286
 30
0.0
 10
-12.21124994843378
 20
69.10710242215706
 30
0.0
 10
-10.58676141431754
 20
68.01927011471389
 30
0.0
 10
-10.02648374836974
 20
67.68232129697495
 30
0.0
 10
-9.157123587429224
 20
67.2164350984138
 30
0.0
 10
-8.861704772860438
 20
67.06738875079515
 30
0.0
 10
-8.266763909645297
 20
66.78547359499474
 30
0.0
 10
-7.966908607037361
 20
66.65237312348418
 30
0.0
 10
-6.455922644706249
 20
66.02544390903232
 30
0.0
 10
-5.209996648878315
 20
65.6462358246861
 30
0.0
 10
-3.285407261617318
 20
65.26084697019502
 30
0.0
 10
-2.632058808678642
 20
65.1629770371048
 30
0.0
 10
-1.319097109545793
 20
65.03264673477324
 30
0.0
 10
-0.6605603809885761
 20
64.99999904305827
 30
0.0
 10
0.0000289729991351
 20
65.00000000002099
 30
0.0
  0
CIRCLE
  5
230
330
1EB
100
AcDbEntity
  8
0
  6
Continuous
 62
     7
370
    25
100
AcDbCircle
 10
80.0
 20
80.0
 30
0.0
 40
6.000000000000014
  0
CIRCLE
  5
231
330
1EB
100
AcDbEntity
  8
0
  6
Continuous
 62
     7
370
    25
100
AcDbCircle
 10
0.0
 20
80.0
 30
0.0
 40
35.00000000000004
  0
CIRCLE
  5
232
330
1EB
100
AcDbEntity
  8
0
  6
Continuous
 62
     7
370
    25
100
AcDbCircle
 10
-80.0
 20
80.0
 30
0.0
 40
5.999999999999986
  0
CIRCLE
  5
233
330
1EB
100
AcDbEntity
  8
0
  6
Continuous
 62
     7
370
    25
100
AcDbCircle
 10
-110.1440327024
 20
50.0
 30
0.0
 40
15.0
  0
SPLINE
  5
255
330
1EB
100
AcDbEntity
  8
0
  6
Continuous
 62
     8
370
    25
100
AcDbSpline
210
0.0
220
0.0
230
1.0
 70
     8
 71
     3
 72
     9
 73
     5
 74
     0
 42
0.000000001
 43
0.00000001
 40
0.0
 40
0.0
 40
0.0
 40
0.0
 40
0.5059187123239022
 40
1.0
 40
1.0
 40
1.0
 40
1.0
 10
-15.84839541610751
 20
48.83300348557074
 30
0.0
 10
-10.55246488953429
 20
48.81687898657013
 30
0.0
 10
-0.0845173762930084
 20
48.78500726764015
 30
0.0
 10
10.38342694916352
 20
48.81671520268598
 30
0.0
 10
15.55544236080677
 20
48.83238150006296
 30
0.0
  0
LINE
  5
256
330
1EB
100
AcDbEntity
  8
0
  6
Continuous
 62
     7
370
    25
100
AcDbLine
 10
189.3493596161
 20
5.0
 30
0.0
 11
189.3493596161
 21
100.0
 31
0.0
  0
LINE
  5
257
330
1EB
100
AcDbEntity
  8
0
  6
Continuous
 62
     7
370
    25
100
AcDbLine
 10
-189.3493596161
 20
100.0
 30
0.0
 11
-189.3493596161
 21
5.0
 31
0.0
  0
LINE
  5
258
330
1EB
100
AcDbEntity
  8
0
  6
Continuous
 62
     7
370
    25
100
AcDbLine
 10
-190.0
 20
110.0
 30
0.0
 11
-190.0
 21
0.0
 31
0.0
  0
LINE
  5
259
330
1EB
100
AcDbEntity
  8
0
  6
Continuous
 62
     7
370
    25
100
AcDbLine
 10
190.0
 20
0.0
 30
0.0
 11
190.0
 21
110.0
 31
0.0
  0
LINE
  5
25A
330
1EB
100
AcDbEntity
  8
0
  6
Continuous
 62
     7
370
    25
100
AcDbLine
 10
-135.0
 20
170.0
 30
0.0
 11
-135.0
 21
165.0
 31
0.0
  0
LINE
  5
25B
330
1EB
100
AcDbEntity
  8
0
  6
Continuous
 62
     7
370
    25
100
AcDbLine
 10
-195.0
 20
110.0
 30
0.0
 11
-190.0
 21
110.0
 31
0.0
  0
LINE
  5
25C
330
1EB
100
AcDbEntity
  8
0
  6
Continuous
 62
     7
370
    25
100
AcDbLine
 10
135.0
 20
165.0
 30
0.0
 11
-135.0
 21
165.0
 31
0.0
  0
LINE
  5
25D
330
1EB
100
AcDbEntity
  8
0
  6
Continuous
 62
     7
370
    25
100
AcDbLine
 10
190.0
 20
110.0
 30
0.0
 11
195.0
 21
110.0
 31
0.0
  0
LINE
  5
25E
330
1EB
100
AcDbEntity
  8
0
  6
Continuous
 62
     7
370
    25
100
AcDbLine
 10
195.0
 20
110.0
 30
0.0
 11
195.0
 21
5.0
 31
0.0
  0
LINE
  5
25F
330
1EB
100
AcDbEntity
  8
0
  6
Continuous
 62
     7
370
    25
100
AcDbLine
 10
135.0
 20
165.0
 30
0.0
 11
135.0
 21
170.0
 31
0.0
  0
LINE
  5
260
330
1EB
100
AcDbEntity
  8
0
  6
Continuous
 62
     7
370
    25
100
AcDbLine
 10
-135.0
 20
170.0
 30
0.0
 11
135.0
 21
170.0
 31
0.0
  0
LINE
  5
261
330
1EB
100
AcDbEntity
  8
0
  6
Continuous
 62
     7
370
    25
100
AcDbLine
 10
-195.0
 20
5.0
 30
0.0
 11
-195.0
 21
110.0
 31
0.0
  0
LINE
  5
262
330
1EB
100
AcDbEntity
  8
0
  6
Continuous
 62
     7
370
    25
100
AcDbLine
 10
120.1220028935
 20
155.0
 30
0.0
 11
-120.1220028935
 21
155.0
 31
0.0
  0
LINE
  5
263
330
1EB
100
AcDbEntity
  8
0
  6
Continuous
 62
     7
370
    25
100
AcDbLine
 10
-120.1220028935
 20
155.0
 30
0.0
 11
-120.1220028935
 21
160.0
 31
0.0
  0
LINE
  5
264
330
1EB
100
AcDbEntity
  8
0
  6
Continuous
 62
     7
370
    25
100
AcDbLine
 10
-129.3251278935
 20
160.0
 30
0.0
 11
129.3251278935
 21
160.0
 31
0.0
  0
LINE
  5
265
330
1EB
100
AcDbEntity
  8
0
  6
Continuous
 62
     7
370
    25
100
AcDbLine
 10
120.1220028935
 20
155.0
 30
0.0
 11
120.1220028935
 21
160.0
 31
0.0
  0
LINE
  5
266
330
1EB
100
AcDbEntity
  8
0
  6
Continuous
 62
     7
370
    25
100
AcDbLine
 10
-175.1462346161
 20
100.0
 30
0.0
 11
-189.3493596161
 21
100.0
 31
0.0
  0
LINE
  5
267
330
1EB
100
AcDbEntity
  8
0
  6
Continuous
 62
     7
370
    25
100
AcDbLine
 10
-175.1462346161
 20
100.0
 30
0.0
 11
-175.1462346161
 21
0.0
 31
0.0
  0
LINE
  5
268
330
1EB
100
AcDbEntity
  8
0
  6
Continuous
 62
     7
370
    25
100
AcDbLine
 10
-195.0
 20
5.0
 30
0.0
 11
-109.233495283
 21
5.0
 31
0.0
  0
LINE
  5
269
330
1EB
100
AcDbEntity
  8
0
  6
Continuous
 62
     7
370
    25
100
AcDbLine
 10
-180.1440327024
 20
5.0
 30
0.0
 11
-180.1440327024
 21
100.0
 31
0.0
  0
LINE
  5
26A
330
1EB
100
AcDbEntity
  8
0
  6
Continuous
 62
     7
370
    25
100
AcDbLine
 10
-111.108495283
 20
0.0
 30
0.0
 11
-109.233495283
 21
5.0
 31
0.0
  0
LINE
  5
26B
330
1EB
100
AcDbEntity
  8
0
  6
Continuous
 62
     7
370
    25
100
AcDbLine
 10
175.1462346161
 20
0.0
 30
0.0
 11
175.1462346161
 21
100.0
 31
0.0
  0
LINE
  5
26C
330
1EB
100
AcDbEntity
  8
0
  6
Continuous
 62
     7
370
    25
100
AcDbLine
 10
190.0
 20
0.0
 30
0.0
 11
-190.0
 21
0.0
 31
0.0
  0
LINE
  5
26D
330
1EB
100
AcDbEntity
  8
0
  6
Continuous
 62
     7
370
    25
100
AcDbLine
 10
109.233495283
 20
5.0
 30
0.0
 11
111.108495283
 21
0.0
 31
0.0
  0
LINE
  5
26E
330
1EB
100
AcDbEntity
  8
0
  6
Continuous
 62
     7
370
    25
100
AcDbLine
 10
109.233495283
 20
5.0
 30
0.0
 11
195.0
 21
5.0
 31
0.0
  0
LINE
  5
26F
330
1EB
100
AcDbEntity
  8
0
  6
Continuous
 62
     7
370
    25
100
AcDbLine
 10
-107.283497933
 20
8.11999576
 30
0.0
 11
-105.587501325
 21
7.05999788
 31
0.0
  0
LINE
  5
270
330
1EB
100
AcDbEntity
  8
0
  6
Continuous
 62
     7
370
    25
100
AcDbLine
 10
-105.587501325
 20
7.05999788
 30
0.0
 11
-109.412498675
 21
0.94000212
 31
0.0
  0
LINE
  5
271
330
1EB
100
AcDbEntity
  8
0
  6
Continuous
 62
     7
370
    25
100
AcDbLine
 10
-109.233495283
 20
5.0
 30
0.0
 11
-107.537498675
 21
3.94000212
 31
0.0
  0
LINE
  5
272
330
1EB
100
AcDbEntity
  8
0
  6
Continuous
 62
     7
370
    25
100
AcDbLine
 10
-109.233495283
 20
5.0
 30
0.0
 11
-107.283497933
 21
8.11999576
 31
0.0
  0
LINE
  5
273
330
1EB
100
AcDbEntity
  8
0
  6
Continuous
 62
     7
370
    25
100
AcDbLine
 10
-103.891504717
 20
10.0
 30
0.0
 11
-103.891504717
 21
8.0
 31
0.0
  0
LINE
  5
274
330
1EB
100
AcDbEntity
  8
0
  6
Continuous
 62
     7
370
    25
100
AcDbLine
 10
-103.891504717
 20
10.0
 30
0.0
 11
103.891504717
 21
10.0
 31
0.0
  0
LINE
  5
275
330
1EB
100
AcDbEntity
  8
0
  6
Continuous
 62
     7
370
    25
100
AcDbLine
 10
103.891504717
 20
10.0
 30
0.0
 11
103.891504717
 21
8.0
 31
0.0
  0
LINE
  5
276
330
1EB
100
AcDbEntity
  8
0
  6
Continuous
 62
     7
370
    25
100
AcDbLine
 10
103.891504717
 20
8.0
 30
0.0
 11
-103.891504717
 21
8.0
 31
0.0
  0
LINE
  5
277
330
1EB
100
AcDbEntity
  8
0
  6
Continuous
 62
     7
370
    25
100
AcDbLine
 10
107.283497933
 20
8.11999576
 30
0.0
 11
109.233495283
 21
5.0
 31
0.0
  0
LINE
  5
278
330
1EB
100
AcDbEntity
  8
0
  6
Continuous
 62
     7
370
    25
100
AcDbLine
 10
109.412498675
 20
0.94000212
 30
0.0
 11
105.587501325
 21
7.05999788
 31
0.0
  0
LINE
  5
279
330
1EB
100
AcDbEntity
  8
0
  6
Continuous
 62
     7
370
    25
100
AcDbLine
 10
107.537498675
 20
3.94000212
 30
0.0
 11
109.233495283
 21
5.0
 31
0.0
  0
LINE
  5
27A
330
1EB
100
AcDbEntity
  8
0
  6
Continuous
 62
     7
370
    25
100
AcDbLine
 10
107.283497933
 20
8.11999576
 30
0.0
 11
105.587501325
 21
7.05999788
 31
0.0
  0
LINE
  5
27B
330
1EB
100
AcDbEntity
  8
0
  6
Continuous
 62
     7
370
    25
100
AcDbLine
 10
189.3493596161
 20
100.0
 30
0.0
 11
175.1462346161
 21
100.0
 31
0.0
  0
LINE
  5
27C
330
1EB
100
AcDbEntity
  8
0
  6
Continuous
 62
     7
370
    25
100
AcDbLine
 10
180.1440327024
 20
100.0
 30
0.0
 11
180.1440327024
 21
5.0
 31
0.0
  0
LINE
  5
27D
330
1EB
100
AcDbEntity
  8
0
  6
Continuous
 62
     7
370
    25
100
AcDbLine
 10
-189.3471577024
 20
100.0
 30
0.0
 11
-189.3471577024
 21
5.0
 31
0.0
  0
LINE
  5
27E
330
1EB
100
AcDbEntity
  8
0
  6
Continuous
 62
     7
370
    25
100
AcDbLine
 10
189.3471577024
 20
5.0
 30
0.0
 11
189.3471577024
 21
100.0
 31
0.0
  0
LINE
  5
27F
330
1EB
100
AcDbEntity
  8
0
  6
Continuous
 62
     7
370
    25
100
AcDbLine
 10
105.3057182794
 20
7.4142135624
 30
0.0
 11
-105.3057182794
 21
7.4142135624
 31
0.0
  0
LINE
  5
280
330
1EB
100
AcDbEntity
  8
0
  6
Continuous
 62
     7
370
    25
100
AcDbLine
 10
-109.6942817206
 20
0.5857864376
 30
0.0
 11
109.6942817206
 21
0.5857864376
 31
0.0
  0
LINE
  5
281
330
1EB
100
AcDbEntity
  8
0
  6
Continuous
 62
     8
370
    25
100
AcDbLine
 10
-124.9888914325
 20
49.4837577619
 30
0.0
 11
-95.310420923
 21
49.2526603969
 31
0.0
  0
ARC
  5
282
330
1EB
100
AcDbEntity
  8
0
  6
Continuous
 62
     7
370
    25
100
AcDbCircle
 10
184.3493596161
 20
5.0
 30
0.0
 40
5.000000000000012
100
AcDbArc
 50
270.0
 51
0.0
  0
ARC
  5
283
330
1EB
100
AcDbEntity
  8
0
  6
Continuous
 62
     7
370
    25
100
AcDbCircle
 10
-184.3493596161
 20
5.0
 30
0.0
 40
4.999999999999972
100
AcDbArc
 50
180.0
 51
270.0
  0
ARC
  5
284
330
1EB
100
AcDbEntity
  8
0
  6
Continuous
 62
     7
370
    25
100
AcDbCircle
 10
-190.0
 20
5.0
 30
0.0
 40
4.999999999999972
100
AcDbArc
 50
180.0
 51
270.0
  0
ARC
  5
285
330
1EB
100
AcDbEntity
  8
0
  6
Continuous
 62
     7
370
    25
100
AcDbCircle
 10
-135.0
 20
110.0
 30
0.0
 40
59.99999999999999
100
AcDbArc
 50
90.0
 51
180.0
  0
ARC
  5
286
330
1EB
100
AcDbEntity
  8
0
  6
Continuous
 62
     7
370
    25
100
AcDbCircle
 10
-135.0
 20
110.0
 30
0.0
 40
54.99999999999997
100
AcDbArc
 50
90.0
 51
180.0
  0
ARC
  5
287
330
1EB
100
AcDbEntity
  8
0
  6
Continuous
 62
     7
370
    25
100
AcDbCircle
 10
135.0
 20
110.0
 30
0.0
 40
55.00000000000007
100
AcDbArc
 50
0.0
 51
90.0
  0
ARC
  5
288
330
1EB
100
AcDbEntity
  8
0
  6
Continuous
 62
     7
370
    25
100
AcDbCircle
 10
135.0
 20
110.0
 30
0.0
 40
59.99999999999997
100
AcDbArc
 50
0.0
 51
90.0
  0
ARC
  5
289
330
1EB
100
AcDbEntity
  8
0
  6
Continuous
 62
     7
370
    25
100
AcDbCircle
 10
190.0
 20
5.0
 30
0.0
 40
5.000000000000001
100
AcDbArc
 50
270.0
 51
0.0
  0
ARC
  5
28A
330
1EB
100
AcDbEntity
  8
0
  6
Continuous
 62
     7
370
    25
100
AcDbCircle
 10
-120.1347842597
 20
99.9885499368
 30
0.0
 40
55.01145154803006
100
AcDbArc
 50
89.9866878927
 51
179.9880744775
  0
ARC
  5
28B
330
1EB
100
AcDbEntity
  8
0
  6
Continuous
 62
     7
370
    25
100
AcDbCircle
 10
-120.1330157766
 20
99.9889830735
 30
0.0
 40
60.01101793705682
100
AcDbArc
 50
89.9894854021
 51
179.9894815416
  0
ARC
  5
28C
330
1EB
100
AcDbEntity
  8
0
  6
Continuous
 62
     7
370
    25
100
AcDbCircle
 10
-175.1451334167
 20
4.9988992855
 30
0.0
 40
4.998899406832542
100
AcDbArc
 50
179.9873839643
 51
269.987378406
  0
ARC
  5
28D
330
1EB
100
AcDbEntity
  8
0
  6
Continuous
 62
     7
370
    25
100
AcDbCircle
 10
175.1451334167
 20
4.9988992855
 30
0.0
 40
4.998899406832533
100
AcDbArc
 50
270.012621594
 51
0.0126160357
  0
ARC
  5
28E
330
1EB
100
AcDbEntity
  8
0
  6
Continuous
 62
     7
370
    25
100
AcDbCircle
 10
-111.108495283
 20
2.0
 30
0.0
 40
2.000000000000055
100
AcDbArc
 50
270.0
 51
327.9946167919
  0
ARC
  5
28F
330
1EB
100
AcDbEntity
  8
0
  6
Continuous
 62
     7
370
    25
100
AcDbCircle
 10
-103.891504717
 20
6.0
 30
0.0
 40
3.99999999999999
100
AcDbArc
 50
90.0
 51
147.9946167919
  0
ARC
  5
290
330
1EB
100
AcDbEntity
  8
0
  6
Continuous
 62
     7
370
    25
100
AcDbCircle
 10
-103.891504717
 20
6.0
 30
0.0
 40
1.999999999999994
100
AcDbArc
 50
90.0
 51
147.9946167919
  0
ARC
  5
291
330
1EB
100
AcDbEntity
  8
0
  6
Continuous
 62
     7
370
    25
100
AcDbCircle
 10
120.1334479144
 20
99.9872130027
 30
0.0
 40
55.01278818785658
100
AcDbArc
 50
0.0133176487
 51
90.0119199811
  0
ARC
  5
292
330
1EB
100
AcDbEntity
  8
0
  6
Continuous
 62
     7
370
    25
100
AcDbCircle
 10
103.891504717
 20
6.0
 30
0.0
 40
3.999999999999963
100
AcDbArc
 50
32.0053832081
 51
90.0
  0
ARC
  5
293
330
1EB
100
AcDbEntity
  8
0
  6
Continuous
 62
     7
370
    25
100
AcDbCircle
 10
111.108495283
 20
2.0
 30
0.0
 40
2.000000000000064
100
AcDbArc
 50
212.0053832081
 51
270.0
  0
ARC
  5
294
330
1EB
100
AcDbEntity
  8
0
  6
Continuous
 62
     7
370
    25
100
AcDbCircle
 10
120.1330157766
 20
99.9889830735
 30
0.0
 40
60.01101793705688
100
AcDbArc
 50
0.0105184584
 51
90.0105145979
  0
ARC
  5
295
330
1EB
100
AcDbEntity
  8
0
  6
Continuous
 62
     7
370
    25
100
AcDbCircle
 10
103.891504717
 20
6.0
 30
0.0
 40
1.999999999999994
100
AcDbArc
 50
32.0053832081
 51
90.0
  0
ARC
  5
296
330
1EB
100
AcDbEntity
  8
0
  6
Continuous
 62
     7
370
    25
100
AcDbCircle
 10
184.3482584167
 20
4.9988992855
 30
0.0
 40
4.998899406832463
100
AcDbArc
 50
270.012621594
 51
0.0126160357
  0
ARC
  5
297
330
1EB
100
AcDbEntity
  8
0
  6
Continuous
 62
     7
370
    25
100
AcDbCircle
 10
-184.3482584167
 20
4.9988992855
 30
0.0
 40
4.998899406832513
100
AcDbArc
 50
179.9873839643
 51
269.987378406
  0
ARC
  5
298
330
1EB
100
AcDbEntity
  8
0
  6
Continuous
 62
     7
370
    25
100
AcDbCircle
 10
129.3361407766
 20
99.9889830735
 30
0.0
 40
60.01101793705684
100
AcDbArc
 50
0.0105184584
 51
90.0105145979
  0
ARC
  5
299
330
1EB
100
AcDbEntity
  8
0
  6
Continuous
 62
     7
370
    25
100
AcDbCircle
 10
-129.3361407766
 20
99.9889830735
 30
0.0
 40
60.01101793705683
100
AcDbArc
 50
89.9894854021
 51
179.9894815416
  0
VIEWPORT
  5
2A0
330
1EB
100
AcDbEntity
  8
0
100
AcDbViewport
 10
0.0
 20
0.0
 30
0.0
 40
205.6
 41
156.0
 68
     1
 69
     1
 12
0.0
 22
471.1856520253
 13
0.0
 23
0.0
 14
10.0
 24
10.0
 15
10.0
 25
10.0
 16
0.0
 26
0.0
 36
1.0
 17
0.0
 27
0.0
 37
0.0
 42
50.0
 43
0.0
 44
0.0
 45
377.3020796785
 50
0.0
 51
0.0
 72
   100
 90
   557152
  1

281
     0
 71
     1
 74
     0
110
0.0
120
0.0
130
0.0
111
1.0
121
0.0
131
0.0
112
0.0
122
1.0
132
0.0
 79
     0
146
0.0
  0
ENDBLK
  5
1EE
330
1EB
100
AcDbEntity
  8
0
100
AcDbBlockEnd
  0
ENDSEC
  0
SECTION
  2
ENTITIES
  0
SPLINE
  5
73
330
1F
100
AcDbEntity
  8
0
  6
Continuous
 62
     7
370
    25
100
AcDbSpline
210
0.0
220
0.0
230
1.0
 70
     8
 71
     3
 72
    11
 73
     7
 74
     0
 42
0.000000001
 43
0.00000001
 40
0.0
 40
0.0
 40
0.0
 40
0.0
 40
0.1459013905834436
 40
0.4352247065428834
 40
0.7246099382171309
 40
1.0
 40
1.0
 40
1.0
 40
1.0
 10
-23.84910666975411
 20
655.94136292944
 30
0.0
 10
-31.93940148476133
 20
655.8854429484427
 30
0.0
 10
-56.07279851837731
 20
655.7186333161143
 30
0.0
 10
-96.23828361151608
 20
654.5243839841457
 30
0.0
 10
-143.5717205328729
 20
652.9551471600066
 30
0.0
 10
-174.8714459874682
 20
651.9063218404431
 30
0.0
 10
-190.1335040600958
 20
651.3949041617658
 30
0.0
  0
SPLINE
  5
74
330
1F
100
AcDbEntity
  8
0
  6
Continuous
 62
     7
370
    25
100
AcDbSpline
210
0.0
220
0.0
230
1.0
 70
     8
 71
     3
 72
    11
 73
     7
 74
     0
 42
0.000000001
 43
0.00000001
 40
0.0
 40
0.0
 40
0.0
 40
0.0
 40
0.2755553530604759
 40
0.5648999177299674
 40
0.8541826284877272
 40
1.0
 40
1.0
 40
1.0
 40
1.0
 10
190.1578197498173
 20
651.3939499993135
 30
0.0
 10
174.8844421659913
 20
651.9053778458657
 30
0.0
 10
143.5733838078961
 20
652.9538261711601
 30
0.0
 10
96.22864419173948
 20
654.523651365965
 30
0.0
 10
56.06668834072511
 20
655.7182422845813
 30
0.0
 10
31.9368112310135
 20
655.885175658775
 30
0.0
 10
23.85003901829621
 20
655.9411209155895
 30
0.0
  0
SPLINE
  5
75
330
1F
100
AcDbEntity
  8
0
  6
Continuous
 62
     7
370
    25
100
AcDbSpline
210
0.0
220
0.0
230
1.0
 70
     8
 71
     3
 72
    12
 73
     8
 74
     0
 42
0.000000001
 43
0.00000001
 40
0.0
 40
0.0
 40
0.0
 40
0.0
 40
0.2700541962381137
 40
0.5686212613803457
 40
0.8086046555419009
 40
0.9784065079585476
 40
1.0
 40
1.0
 40
1.0
 40
1.0
 10
-21.49649152880894
 20
655.7567344847548
 30
0.0
 10
-21.86600113395879
 20
655.7810203722714
 30
0.0
 10
-22.64403391663478
 20
655.8321563004885
 30
0.0
 10
-23.42229117974526
 20
655.8977451536023
 30
0.0
 10
-23.85608811740029
 20
655.9395436663534
 30
0.0
 10
-24.03429677299476
 20
655.9645601996735
 30
0.0
 10
-24.00439932339538
 20
655.9595972570716
 30
0.0
 10
-24.00102625106799
 20
655.9590373309047
 30
0.0
  0
SPLINE
  5
76
330
1F
100
AcDbEntity
  8
0
  6
Continuous
 62
     7
370
    25
100
AcDbSpline
210
0.0
220
0.0
230
1.0
 70
     8
 71
     3
 72
    14
 73
    10
 74
     0
 42
0.000000001
 43
0.00000001
 40
0.0
 40
0.0
 40
0.0
 40
0.0
 40
0.0271804504355167
 40
0.1406997479596144
 40
0.2922474895570947
 40
0.4770018359576896
 40
0.6801008190576405
 40
0.8911683613920649
 40
1.0
 40
1.0
 40
1.0
 40
1.0
 10
23.99662071577442
 20
655.95819364181
 30
0.0
 10
24.00082758999227
 20
655.9588695803452
 30
0.0
 10
24.02260449702163
 20
655.9623685798105
 30
0.0
 10
23.85249743971574
 20
655.9395922019598
 30
0.0
 10
23.46771243792119
 20
655.9016983584168
 30
0.0
 10
22.75416618523643
 20
655.8413156364953
 30
0.0
 10
21.69895100483233
 20
655.7674853445656
 30
0.0
 10
20.58879085810914
 20
655.6984431175018
 30
0.0
 10
19.74996945095162
 20
655.6558124740966
 30
0.0
 10
19.46459732848653
 20
655.6413092710466
 30
0.0
  0
SPLINE
  5
79
330
1F
100
AcDbEntity
  8
0
  6
Continuous
 62
     7
370
    25
100
AcDbSpline
210
0.0
220
0.0
230
1.0
 70
     8
 71
     3
 72
    38
 73
    34
 74
     0
 42
0.000000001
 43
0.00000001
 40
0.0
 40
0.0
 40
0.0
 40
0.0
 40
0.1249999999999999
 40
0.1249999999999999
 40
0.1874999999999998
 40
0.1874999999999998
 40
0.2187499999999993
 40
0.2187499999999993
 40
0.2499999999999987
 40
0.2499999999999987
 40
0.3750000000000002
 40
0.3750000000000002
 40
0.4062500000000003
 40
0.4062500000000003
 40
0.4375000000000004
 40
0.4375000000000004
 40
0.5000000000000012
 40
0.5000000000000012
 40
0.625000000000003
 40
0.625000000000003
 40
0.6562500000000031
 40
0.6562500000000031
 40
0.6875000000000032
 40
0.6875000000000032
 40
0.7500000000000027
 40
0.7500000000000027
 40
0.8125000000000022
 40
0.8125000000000022
 40
0.8437500000000016
 40
0.8437500000000016
 40
0.8750000000000009
 40
0.8750000000000009
 40
1.0
 40
1.0
 40
1.0
 40
1.0
 10
195.0
 20
646.3400617525539
 30
0.0
 10
194.9999999999999
 20
646.3292115632746
 30
0.0
 10
194.6114912582826
 20
646.3232836035651
 30
0.0
 10
193.4698004595824
 20
646.3144537065647
 30
0.0
 10
192.9953903870539
 20
646.3116211056221
 30
0.0
 10
192.1398014513503
 20
646.307532227617
 30
0.0
 10
191.8300002546837
 20
646.3062000677932
 30
0.0
 10
191.1637474245593
 20
646.3036697085453
 30
0.0
 10
190.8089432619643
 20
646.3024805299556
 30
0.0
 10
188.9287375067817
 20
646.2968903884146
 30
0.0
 10
187.087800460223
 20
646.2935859653563
 30
0.0
 10
184.3695011394488
 20
646.289620552061
 30
0.0
 10
183.8047972764161
 20
646.2888359255422
 30
0.0
 10
182.6326314694214
 20
646.2872612642964
 30
0.0
 10
182.0235128015468
 20
646.2864691043787
 30
0.0
 10
180.143290991994
 20
646.2840816849591
 30
0.0
 10
178.8242084773422
 20
646.2824765696993
 30
0.0
 10
174.6763232291139
 20
646.2776571426688
 30
0.0
 10
171.6586844861562
 20
646.2744307955061
 30
0.0
 10
167.5637289415192
 20
646.2711194236119
 30
0.0
 10
166.7260519259535
 20
646.27049262918
 30
0.0
 10
165.0326467547297
 20
646.2693416779473
 30
0.0
 10
164.1765748805104
 20
646.2688168934711
 30
0.0
 10
161.5807722388414
 20
646.2674112568104
 30
0.0
 10
159.8135195417798
 20
646.2666995030171
 30
0.0
 10
156.2067030213016
 20
646.2657899252687
 30
0.0
 10
154.3671388309118
 20
646.2655886227021
 30
0.0
 10
151.5528319086394
 20
646.2657384442339
 30
0.0
 10
150.6055532883198
 20
646.2658642338472
 30
0.0
 10
148.6923173980596
 20
646.2662929538103
 30
0.0
 10
147.7245615534034
 20
646.2665967723382
 30
0.0
 10
142.8800772784647
 20
646.26864129187
 30
0.0
 10
138.9616240581275
 20
646.2716925703834
 30
0.0
 10
135.0
 20
646.279077200711
 30
0.0
  0
SPLINE
  5
7B
330
1F
100
AcDbEntity
  8
0
  6
Continuous
 62
     7
370
    25
100
AcDbSpline
210
0.0
220
0.0
230
1.0
 70
     8
 71
     3
 72
    38
 73
    34
 74
     0
 42
0.000000001
 43
0.00000001
 40
0.0
 40
0.0
 40
0.0
 40
0.0
 40
0.1249999999999993
 40
0.1249999999999993
 40
0.1562499999999991
 40
0.1562499999999991
 40
0.187499999999999
 40
0.187499999999999
 40
0.2499999999999981
 40
0.2499999999999981
 40
0.3124999999999972
 40
0.3124999999999972
 40
0.3437499999999967
 40
0.3437499999999967
 40
0.3749999999999963
 40
0.3749999999999963
 40
0.499999999999996
 40
0.499999999999996
 40
0.5624999999999959
 40
0.5624999999999959
 40
0.5937499999999959
 40
0.5937499999999959
 40
0.624999999999996
 40
0.624999999999996
 40
0.7499999999999968
 40
0.7499999999999968
 40
0.7812499999999977
 40
0.7812499999999977
 40
0.8124999999999987
 40
0.8124999999999987
 40
0.8749999999999991
 40
0.8749999999999991
 40
1.0
 40
1.0
 40
1.0
 40
1.0
 10
135.0101667509188
 20
651.2787101739035
 30
0.0
 10
138.6444450184896
 20
651.2714042314652
 30
0.0
 10
142.2389111703778
 20
651.2683962174285
 30
0.0
 10
146.6825650773309
 20
651.2663819335694
 30
0.0
 10
147.5702035894473
 20
651.2660829613843
 30
0.0
 10
149.3251386163146
 20
651.2656618201756
 30
0.0
 10
150.1940823176801
 20
651.2655387853703
 30
0.0
 10
152.7757676081238
 20
651.2653947799434
 30
0.0
 10
154.4634218765616
 20
651.2655967353681
 30
0.0
 10
157.7725775297141
 20
651.2665034718003
 30
0.0
 10
159.3940789852341
 20
651.2672117198132
 30
0.0
 10
161.7758915095109
 20
651.2686098217343
 30
0.0
 10
162.5614077748045
 20
651.2691317072412
 30
0.0
 10
164.115274346724
 20
651.2702761394532
 30
0.0
 10
164.8838838630889
 20
651.2708992639954
 30
0.0
 10
168.6413683557714
 20
651.2741907850773
 30
0.0
 10
171.4107900770695
 20
651.2773966254746
 30
0.0
 10
175.2182118175074
 20
651.282176362515
 30
0.0
 10
176.4291604728596
 20
651.283766704346
 30
0.0
 10
178.155491302919
 20
651.2861291628759
 30
0.0
 10
178.7147502842089
 20
651.2869124796314
 30
0.0
 10
179.791110481771
 20
651.2884687360223
 30
0.0
 10
180.309717123074
 20
651.289243759037
 30
0.0
 10
182.8064085475589
 20
651.2931590707134
 30
0.0
 10
184.4981541054054
 20
651.2964179837882
 30
0.0
 10
186.2274907673585
 20
651.3019364620899
 30
0.0
 10
186.553925562029
 20
651.3031104318385
 30
0.0
 10
187.1671585691211
 20
651.3056077080086
 30
0.0
 10
187.452414738184
 20
651.3069221809027
 30
0.0
 10
188.2407654080814
 20
651.3109536282999
 30
0.0
 10
188.6786523569087
 20
651.3137417343829
 30
0.0
 10
189.7354746833302
 20
651.3224084758227
 30
0.0
 10
190.1002872132793
 20
651.3281829130842
 30
0.0
 10
190.109388435275
 20
651.3388427142854
 30
0.0
  0
SPLINE
  5
7D
330
1F
100
AcDbEntity
  8
0
  6
Continuous
 62
     7
370
    25
100
AcDbSpline
210
0.0
220
0.0
230
1.0
 70
     8
 71
     3
 72
    14
 73
    10
 74
     0
 42
0.000000001
 43
0.00000001
 40
0.0
 40
0.0
 40
0.0
 40
0.0
 40
0.25
 40
0.25
 40
0.5
 40
0.5
 40
0.75
 40
0.75
 40
1.0
 40
1.0
 40
1.0
 40
1.0
 10
135.0
 20
646.279077200711
 30
0.0
 10
112.5000151777821
 20
646.3248309075514
 30
0.0
 10
90.00005445974459
 20
646.3854997025502
 30
0.0
 10
45.00007584539347
 20
646.471456747922
 30
0.0
 10
22.50005875706595
 20
646.497244960625
 30
0.0
 10
-22.50005875379665
 20
646.4972561787564
 30
0.0
 10
-45.00007585194317
 20
646.4714801956409
 30
0.0
 10
-90.00005448839703
 20
646.385545366208
 30
0.0
 10
-112.5000152041171
 20
646.3248768081595
 30
0.0
 10
-135.0
 20
646.2791106646107
 30
0.0
  0
SPLINE
  5
7F
330
1F
100
AcDbEntity
  8
0
  6
Continuous
 62
     7
370
    25
100
AcDbSpline
210
0.0
220
0.0
230
1.0
 70
     8
 71
     3
 72
    14
 73
    10
 74
     0
 42
0.000000001
 43
0.00000001
 40
0.0
 40
0.0
 40
0.0
 40
0.0
 40
0.25
 40
0.25
 40
0.5
 40
0.5
 40
0.75
 40
0.75
 40
1.0
 40
1.0
 40
1.0
 40
1.0
 10
-135.0101695138075
 20
651.2787433255231
 30
0.0
 10
-112.5085021054601
 20
651.3239904123811
 30
0.0
 10
-90.00688615917596
 20
651.3829930242213
 30
0.0
 10
-45.00353873844191
 20
651.4652593025777
 30
0.0
 10
-22.50181068393193
 20
651.4894167038378
 30
0.0
 10
22.50180793408002
 20
651.4894059528089
 30
0.0
 10
45.00353596755307
 20
651.4652369718361
 30
0.0
 10
90.00688333570373
 20
651.3829489475344
 30
0.0
 10
112.5084993223243
 20
651.3239449839241
 30
0.0
 10
135.0101667509188
 20
651.2787101739034
 30
0.0
  0
SPLINE
  5
8C
330
1F
100
AcDbEntity
  8
0
  6
Continuous
 62
     7
370
    25
100
AcDbSpline
210
0.0
220
0.0
230
1.0
 70
     8
 71
     3
 72
    38
 73
    34
 74
     0
 42
0.000000001
 43
0.00000001
 40
0.0
 40
0.0
 40
0.0
 40
0.0
 40
0.1250000000000017
 40
0.1250000000000017
 40
0.1562500000000017
 40
0.1562500000000017
 40
0.1875000000000018
 40
0.1875000000000018
 40
0.2500000000000028
 40
0.2500000000000028
 40
0.3125000000000037
 40
0.3125000000000037
 40
0.3437500000000038
 40
0.3437500000000038
 40
0.3750000000000039
 40
0.3750000000000039
 40
0.5000000000000044
 40
0.5000000000000044
 40
0.5625000000000051
 40
0.5625000000000051
 40
0.5937500000000051
 40
0.5937500000000051
 40
0.625000000000005
 40
0.625000000000005
 40
0.7500000000000057
 40
0.7500000000000057
 40
0.7812500000000052
 40
0.7812500000000052
 40
0.8125000000000048
 40
0.8125000000000048
 40
0.8750000000000034
 40
0.8750000000000034
 40
1.0
 40
1.0
 40
1.0
 40
1.0
 10
-190.1093075879272
 20
651.3387518195505
 30
0.0
 10
-190.1001835380761
 20
651.3280626005582
 30
0.0
 10
-189.735278992396
 20
651.3222264562511
 30
0.0
 10
-188.8395481298674
 20
651.3149355381046
 30
0.0
 10
-188.6377598032727
 20
651.3135061045384
 30
0.0
 10
-188.1932249640677
 20
651.3107103302261
 30
0.0
 10
-187.9502253097296
 20
651.309341692377
 30
0.0
 10
-187.1600404704338
 20
651.3053564472805
 30
0.0
 10
-186.5517827846924
 20
651.3028922413425
 30
0.0
 10
-185.1742852868303
 20
651.2985518083992
 30
0.0
 10
-184.405034016767
 20
651.2966456237262
 30
0.0
 10
-183.1284565064881
 20
651.2940138751035
 30
0.0
 10
-182.6824462120893
 20
651.2931733929628
 30
0.0
 10
-181.748686087292
 20
651.2915324943513
 30
0.0
 10
-181.2605148458988
 20
651.2907315192411
 30
0.0
 10
-178.7421512896522
 20
651.2867952020675
 30
0.0
 10
-176.46177944734
 20
651.2837273804619
 30
0.0
 10
-172.6518052225092
 20
651.2789528575005
 30
0.0
 10
-171.3164452844902
 20
651.2773537680455
 30
0.0
 10
-169.2121777491057
 20
651.2750422379878
 30
0.0
 10
-168.4948822154331
 20
651.2742882843845
 30
0.0
 10
-167.0422502212419
 20
651.2728467646849
 30
0.0
 10
-166.3050817125477
 20
651.2721572027162
 30
0.0
 10
-162.5658325897102
 20
651.2689090330609
 30
0.0
 10
-159.4050226450356
 20
651.2669719772274
 30
0.0
 10
-155.2406960820818
 20
651.2658437630736
 30
0.0
 10
-154.3970714306967
 20
651.2656816853722
 30
0.0
 10
-152.6878748495264
 20
651.2654965369159
 30
0.0
 10
-151.826168340068
 20
651.2654740432803
 30
0.0
 10
-149.2341480786677
 20
651.2656344128802
 30
0.0
 10
-147.4911199749046
 20
651.2660369361847
 30
0.0
 10
-142.2180396058583
 20
651.2684548236585
 30
0.0
 10
-138.6444336736605
 20
651.2714354285963
 30
0.0
 10
-135.0101695138075
 20
651.2787433255231
 30
0.0
  0
SPLINE
  5
8D
330
1F
100
AcDbEntity
  8
0
  6
Continuous
 62
     7
370
    25
100
AcDbSpline
210
0.0
220
0.0
230
1.0
 70
     8
 71
     3
 72
    38
 73
    34
 74
     0
 42
0.000000001
 43
0.00000001
 40
0.0
 40
0.0
 40
0.0
 40
0.0
 40
0.1249999999999974
 40
0.1249999999999974
 40
0.1874999999999961
 40
0.1874999999999961
 40
0.218749999999995
 40
0.218749999999995
 40
0.2499999999999939
 40
0.2499999999999939
 40
0.3749999999999917
 40
0.3749999999999917
 40
0.4062499999999918
 40
0.4062499999999918
 40
0.437499999999992
 40
0.437499999999992
 40
0.4999999999999923
 40
0.4999999999999923
 40
0.624999999999993
 40
0.624999999999993
 40
0.6562499999999936
 40
0.6562499999999936
 40
0.6874999999999941
 40
0.6874999999999941
 40
0.7499999999999953
 40
0.7499999999999953
 40
0.8124999999999967
 40
0.8124999999999967
 40
0.8437499999999969
 40
0.8437499999999969
 40
0.8749999999999974
 40
0.8749999999999974
 40
1.0
 40
1.0
 40
1.0
 40
1.0
 10
-135.0
 20
646.2791106646107
 30
0.0
 10
-138.9616247367204
 20
646.2717240257297
 30
0.0
 10
-142.8570889502713
 20
646.2687008318569
 30
0.0
 10
-148.60510081021
 20
646.2662467202582
 30
0.0
 10
-150.5051228897736
 20
646.2658368135818
 30
0.0
 10
-153.3306374139056
 20
646.2656702051164
 30
0.0
 10
-154.2699476650268
 20
646.2656914301477
 30
0.0
 10
-156.13322952992
 20
646.265875436339
 30
0.0
 10
-157.0528570458686
 20
646.2660376312658
 30
0.0
 10
-161.5921488575024
 20
646.2671691427722
 30
0.0
 10
-165.036949163822
 20
646.2691168773886
 30
0.0
 10
-169.1117845260084
 20
646.2723842729648
 30
0.0
 10
-169.915089382273
 20
646.2730780104688
 30
0.0
 10
-171.4980033033275
 20
646.2745285649139
 30
0.0
 10
-172.2795962056751
 20
646.2752873780931
 30
0.0
 10
-174.5726332561058
 20
646.2776147183088
 30
0.0
 10
-176.027632921712
 20
646.2792255915443
 30
0.0
 10
-180.1784832774636
 20
646.28403977159
 30
0.0
 10
-182.6622092420786
 20
646.2871398247238
 30
0.0
 10
-185.4041354529999
 20
646.2911260548547
 30
0.0
 10
-185.9355934470178
 20
646.2919375335234
 30
0.0
 10
-186.9520644392098
 20
646.2936003347352
 30
0.0
 10
-187.4375073929324
 20
646.2944521701652
 30
0.0
 10
-188.8267256187903
 20
646.29711931506
 30
0.0
 10
-189.6635485923962
 20
646.2990507380913
 30
0.0
 10
-191.1612838142492
 20
646.303447683285
 30
0.0
 10
-191.8221951630829
 20
646.3059433390624
 30
0.0
 10
-192.6798598525101
 20
646.309985103219
 30
0.0
 10
-192.9434249361532
 20
646.3113742277603
 30
0.0
 10
-193.4251156897005
 20
646.3142154356085
 30
0.0
 10
-193.6435186567452
 20
646.3156699170586
 30
0.0
 10
-194.6114444441544
 20
646.3230981519392
 30
0.0
 10
-195.0
 20
646.3290890031877
 30
0.0
 10
-195.0
 20
646.3399692129517
 30
0.0
  0
SPLINE
  5
93
330
1F
100
AcDbEntity
  8
0
  6
Continuous
 62
     7
370
    25
100
AcDbSpline
210
0.0
220
0.0
230
1.0
 70
     8
 71
     3
 72
    17
 73
    13
 74
     0
 42
0.000000001
 43
0.00000001
 40
0.0
 40
0.0
 40
0.0
 40
0.0
 40
0.0003757514519284
 40
0.1158182208642011
 40
0.2346620592601574
 40
0.3503250979876529
 40
0.4693743919700871
 40
0.5854503013230716
 40
0.7048934941816681
 40
0.8213274830987559
 40
0.9411075608028256
 40
1.0
 40
1.0
 40
1.0
 40
1.0
 10
-0.0000090432737965
 20
655.8620043339881
 30
0.0
 10
0.0045026811094315
 20
655.8620043252416
 30
0.0
 10
1.395155700314813
 20
655.8620016293415
 30
0.0
 10
4.218221862460247
 20
655.8694523049478
 30
0.0
 10
8.304397893783687
 20
655.9014280696642
 30
0.0
 10
12.19134307689293
 20
655.9499654770068
 30
0.0
 10
15.70069916766007
 20
656.0070418837934
 30
0.0
 10
18.79109466884929
 20
656.0642248135033
 30
0.0
 10
21.33383613365087
 20
656.1112806568424
 30
0.0
 10
23.25430126019149
 20
656.1369777221024
 30
0.0
 10
24.40978361839147
 20
656.140558453234
 30
0.0
 10
24.65187359305994
 20
656.1205983701607
 30
0.0
 10
24.73166912826971
 20
656.1140193058528
 30
0.0
  0
SPLINE
  5
94
330
1F
100
AcDbEntity
  8
0
  6
Continuous
 62
     7
370
    25
100
AcDbSpline
210
0.0
220
0.0
230
1.0
 70
     8
 71
     3
 72
    19
 73
    15
 74
     0
 42
0.000000001
 43
0.00000001
 40
0.0
 40
0.0
 40
0.0
 40
0.0
 40
0.0660731454783173
 40
0.1504828745015699
 40
0.2373563423005674
 40
0.3215688105574451
 40
0.4082500279811618
 40
0.515614767777578
 40
0.5997530480528558
 40
0.6863555380599232
 40
0.7706348840735961
 40
0.8573712006085065
 40
0.9419671787103262
 40
1.0
 40
1.0
 40
1.0
 40
1.0
 10
19.7319089065541
 20
655.6423407788939
 30
0.0
 10
19.05495350802039
 20
655.6075735541364
 30
0.0
 10
17.5131744154216
 20
655.528390523238
 30
0.0
 10
14.46125447301675
 20
655.4132287534696
 30
0.0
 10
10.82939019966002
 20
655.3092252395318
 30
0.0
 10
6.83562364750876
 20
655.2330350800848
 30
0.0
 10
2.316148674173741
 20
655.1875180838651
 30
0.0
 10
-2.304348033388214
 20
655.1876814400609
 30
0.0
 10
-6.822284618951892
 20
655.2328537662743
 30
0.0
 10
-10.7720162427972
 20
655.3080373644657
 30
0.0
 10
-14.45592033355025
 20
655.4125868726023
 30
0.0
 10
-17.67637690012591
 20
655.5365854366802
 30
0.0
 10
-20.19398126990685
 20
655.6582767865365
 30
0.0
 10
-21.33372835607437
 20
655.7318299128215
 30
0.0
 10
-21.79746877350183
 20
655.7617572167826
 30
0.0
  0
SPLINE
  5
95
330
1F
100
AcDbEntity
  8
0
  6
Continuous
 62
     7
370
    25
100
AcDbSpline
210
0.0
220
0.0
230
1.0
 70
     8
 71
     3
 72
    16
 73
    12
 74
     0
 42
0.000000001
 43
0.00000001
 40
0.0
 40
0.0
 40
0.0
 40
0.0
 40
0.0593365492274728
 40
0.1757284731620336
 40
0.2954515052613901
 40
0.4115073501420353
 40
0.5309148363495674
 40
0.6466916678660367
 40
0.7658523199680444
 40
0.8812321304647288
 40
1.0
 40
1.0
 40
1.0
 40
1.0
 10
-24.7237112434752
 20
656.1141988075715
 30
0.0
 10
-24.64459514117791
 20
656.1208892223076
 30
0.0
 10
-24.41028842735239
 20
656.1407032556764
 30
0.0
 10
-23.2564366828709
 20
656.1372411375603
 30
0.0
 10
-21.3616185230616
 20
656.1120163667504
 30
0.0
 10
-18.80268784838968
 20
656.0647241556894
 30
0.0
 10
-15.74655078400519
 20
656.0080795907544
 30
0.0
 10
-12.20881235886226
 20
655.9503478601381
 30
0.0
 10
-8.36107281430664
 20
655.902397961138
 30
0.0
 10
-4.240454149772069
 20
655.8686533317342
 30
0.0
 10
-1.427060449191318
 20
655.8642419438011
 30
0.0
 10
-0.0000090432737965
 20
655.8620043339881
 30
0.0
  0
SPLINE
  5
AD
330
1F
100
AcDbEntity
  8
0
  6
Continuous
 62
     8
370
    25
100
AcDbSpline
210
0.0
220
0.0
230
1.0
 70
     8
 71
     3
 72
    13
 73
     9
 74
     0
 42
0.000000001
 43
0.00000001
 40
0.0
 40
0.0
 40
0.0
 40
0.0
 40
0.1032470940393899
 40
0.3179482369373314
 40
0.5262890324369087
 40
0.7405832780561867
 40
0.9484858928824564
 40
1.0
 40
1.0
 40
1.0
 40
1.0
 10
24.73166912826971
 20
656.1140193058528
 30
0.0
 10
24.84221132676842
 20
656.109161545069
 30
0.0
 10
25.18262475386625
 20
656.0942021266849
 30
0.0
 10
24.98146388604977
 20
656.0319303380502
 30
0.0
 10
24.17856726625671
 20
655.93241160542
 30
0.0
 10
22.61889513777008
 20
655.8097798446299
 30
0.0
 10
21.10111754049867
 20
655.7080826257409
 30
0.0
 10
19.95875537413731
 20
655.6532326951148
 30
0.0
 10
19.7319089065541
 20
655.6423407788939
 30
0.0
  0
SPLINE
  5
AE
330
1F
100
AcDbEntity
  8
0
  6
Continuous
 62
     8
370
    25
100
AcDbSpline
210
0.0
220
0.0
230
1.0
 70
     8
 71
     3
 72
    12
 73
     8
 74
     0
 42
0.000000001
 43
0.00000001
 40
0.0
 40
0.0
 40
0.0
 40
0.0
 40
0.0877793316519606
 40
0.3447159001662783
 40
0.6090397994687972
 40
0.8662323062589652
 40
1.0
 40
1.0
 40
1.0
 40
1.0
 10
-21.79746877350183
 20
655.7617572167827
 30
0.0
 10
-22.04893919663697
 20
655.7768959180204
 30
0.0
 10
-23.03648206857325
 20
655.8363467127155
 30
0.0
 10
-24.13768312397954
 20
655.9317453509046
 30
0.0
 10
-24.98450636872717
 20
656.031136189491
 30
0.0
 10
-25.17998305141121
 20
656.0941590314538
 30
0.0
 10
-24.84002758215832
 20
656.1090901128297
 30
0.0
 10
-24.7237112434752
 20
656.1141988075715
 30
0.0
  0
LINE
  5
AF
330
1F
100
AcDbEntity
  8
0
  6
Continuous
 62
     7
370
    25
100
AcDbLine
 10
135.0
 20
646.2790772007
 30
0.0
 11
135.0101667509
 21
651.2787101739
 31
0.0
  0
LINE
  5
B0
330
1F
100
AcDbEntity
  8
0
  6
Continuous
 62
     7
370
    25
100
AcDbLine
 10
-135.0
 20
646.2791106646
 30
0.0
 11
-135.0101695138
 21
651.2787433255
 31
0.0
  0
LINE
  5
B1
330
1F
100
AcDbEntity
  8
0
  6
Continuous
 62
     7
370
    25
100
AcDbLine
 10
190.0
 20
606.2336521829
 30
0.0
 11
-190.0
 21
606.2336521829
 31
0.0
  0
LINE
  5
B2
330
1F
100
AcDbEntity
  8
0
  6
Continuous
 62
     7
370
    25
100
AcDbLine
 10
135.0
 20
606.2336521829
 30
0.0
 11
135.0
 21
646.2790772007
 31
0.0
  0
LINE
  5
B3
330
1F
100
AcDbEntity
  8
0
  6
Continuous
 62
     7
370
    25
100
AcDbLine
 10
-195.0
 20
611.2336521829
 30
0.0
 11
195.0
 21
611.2336521829
 31
0.0
  0
LINE
  5
B4
330
1F
100
AcDbEntity
  8
0
  6
Continuous
 62
     7
370
    25
100
AcDbLine
 10
-135.0
 20
646.2791106646
 30
0.0
 11
-135.0
 21
606.2336521829
 31
0.0
  0
LINE
  5
B5
330
1F
100
AcDbEntity
  8
0
  6
Continuous
 62
     7
370
    25
100
AcDbLine
 10
195.0
 20
646.3400617526
 30
0.0
 11
195.0
 21
611.2336521829
 31
0.0
  0
LINE
  5
B6
330
1F
100
AcDbEntity
  8
0
  6
Continuous
 62
     7
370
    25
100
AcDbLine
 10
-195.0
 20
611.2336521829
 30
0.0
 11
-195.0
 21
646.339969213
 31
0.0
  0
LINE
  5
B7
330
1F
100
AcDbEntity
  8
0
  6
Continuous
 62
     7
370
    25
100
AcDbLine
 10
190.1093884353
 20
651.3388427143
 30
0.0
 11
190.1575447588
 21
651.385724497
 31
0.0
  0
LINE
  5
B8
330
1F
100
AcDbEntity
  8
0
  6
Continuous
 62
     7
370
    25
100
AcDbLine
 10
-190.1323836086
 20
651.3614091053
 30
0.0
 11
-190.1093075879
 21
651.3387518196
 31
0.0
  0
LINE
  5
B9
330
1F
100
AcDbEntity
  8
0
  6
Continuous
 62
     7
370
    25
100
AcDbLine
 10
175.1462346161
 20
286.2336521829
 30
0.0
 11
-175.1462346161
 21
286.2336521829
 31
0.0
  0
LINE
  5
BA
330
1F
100
AcDbEntity
  8
0
  6
Continuous
 62
     7
370
    25
100
AcDbLine
 10
-180.1440327024
 20
291.0852800522
 30
0.0
 11
-120.1220028935
 21
291.2336521829
 31
0.0
  0
LINE
  5
BB
330
1F
100
AcDbEntity
  8
0
  6
Continuous
 62
     7
370
    25
100
AcDbLine
 10
-120.1220028935
 20
286.2336521829
 30
0.0
 11
-120.1220028935
 21
291.2336521829
 31
0.0
  0
LINE
  5
BC
330
1F
100
AcDbEntity
  8
0
  6
Continuous
 62
     7
370
    25
100
AcDbLine
 10
-129.3251278935
 20
606.2336521829
 30
0.0
 11
-129.3251278935
 21
601.2336521829
 31
0.0
  0
LINE
  5
BD
330
1F
100
AcDbEntity
  8
0
  6
Continuous
 62
     7
370
    25
100
AcDbLine
 10
-129.3251278935
 20
601.2336521829
 30
0.0
 11
-189.3471577024
 21
601.0852800522
 31
0.0
  0
LINE
  5
BE
330
1F
100
AcDbEntity
  8
0
  6
Continuous
 62
     7
370
    25
100
AcDbLine
 10
-120.1220028935
 20
291.2336521829
 30
0.0
 11
120.1220028935
 21
291.2336521829
 31
0.0
  0
LINE
  5
BF
330
1F
100
AcDbEntity
  8
0
  6
Continuous
 62
     7
370
    25
100
AcDbLine
 10
-129.3251278935
 20
601.2336521829
 30
0.0
 11
-120.1220028935
 21
291.2336521829
 31
0.0
  0
LINE
  5
C0
330
1F
100
AcDbEntity
  8
0
  6
Continuous
 62
     7
370
    25
100
AcDbLine
 10
129.3251278935
 20
601.2336521829
 30
0.0
 11
-129.3251278935
 21
601.2336521829
 31
0.0
  0
LINE
  5
C1
330
1F
100
AcDbEntity
  8
0
  6
Continuous
 62
     7
370
    25
100
AcDbLine
 10
120.1220028935
 20
291.2336521829
 30
0.0
 11
129.3251278935
 21
601.2336521829
 31
0.0
  0
LINE
  5
C2
330
1F
100
AcDbEntity
  8
0
  6
Continuous
 62
     7
370
    25
100
AcDbLine
 10
120.1220028935
 20
291.2336521829
 30
0.0
 11
180.1440327024
 21
291.0852800522
 31
0.0
  0
LINE
  5
C3
330
1F
100
AcDbEntity
  8
0
  6
Continuous
 62
     7
370
    25
100
AcDbLine
 10
189.3471577024
 20
601.0852800522
 30
0.0
 11
129.3251278935
 21
601.2336521829
 31
0.0
  0
LINE
  5
C4
330
1F
100
AcDbEntity
  8
0
  6
Continuous
 62
     7
370
    25
100
AcDbLine
 10
189.3471577024
 20
601.0852800522
 30
0.0
 11
180.1440327024
 21
291.0852800522
 31
0.0
  0
LINE
  5
C5
330
1F
100
AcDbEntity
  8
0
  6
Continuous
 62
     7
370
    25
100
AcDbLine
 10
120.1220028935
 20
286.2336521829
 30
0.0
 11
120.1220028935
 21
291.2336521829
 31
0.0
  0
LINE
  5
C6
330
1F
100
AcDbEntity
  8
0
  6
Continuous
 62
     7
370
    25
100
AcDbLine
 10
129.3251278935
 20
606.2336521829
 30
0.0
 11
129.3251278935
 21
601.2336521829
 31
0.0
  0
LINE
  5
C7
330
1F
100
AcDbEntity
  8
0
  6
Continuous
 62
     7
370
    25
100
AcDbLine
 10
-180.1440327024
 20
291.0852800522
 30
0.0
 11
-189.3471577024
 21
601.0852800522
 31
0.0
  0
ARC
  5
C8
330
1F
100
AcDbEntity
  8
0
  6
Continuous
 62
     7
370
    25
100
AcDbCircle
 10
-190.0
 20
646.3953727006
 30
0.0
 40
4.99999999996553
100
AcDbArc
 50
91.5372417507
 51
180.0074543551
  0
ARC
  5
C9
330
1F
100
AcDbEntity
  8
0
  6
Continuous
 62
     7
370
    25
100
AcDbCircle
 10
190.0000000003
 20
646.395202697
 30
0.0
 40
4.999999999692591
100
AcDbArc
 50
0.0001665242
 51
88.2537086446
  0
ARC
  5
CA
330
1F
100
AcDbEntity
  8
0
  6
Continuous
 62
     7
370
    25
100
AcDbCircle
 10
190.0000117346
 20
646.3400509211
 30
0.0
 40
4.999988265425906
100
AcDbArc
 50
0.0001241198
 51
88.7465324087
  0
ARC
  5
CB
330
1F
100
AcDbEntity
  8
0
  6
Continuous
 62
     7
370
    25
100
AcDbCircle
 10
190.0
 20
611.2336521829
 30
0.0
 40
5.0
100
AcDbArc
 50
270.0
 51
0.0
  0
ARC
  5
CC
330
1F
100
AcDbEntity
  8
0
  6
Continuous
 62
     7
370
    25
100
AcDbCircle
 10
-190.0
 20
611.2336521829
 30
0.0
 40
5.0
100
AcDbArc
 50
180.0
 51
270.0
  0
ARC
  5
CD
330
1F
100
AcDbEntity
  8
0
  6
Continuous
 62
     7
370
    25
100
AcDbCircle
 10
-190.0000117992
 20
646.3399583212
 30
0.0
 40
4.999988200827669
100
AcDbArc
 50
91.2525402009
 51
179.9998751896
  0
ARC
  5
CE
330
1F
100
AcDbEntity
  8
0
  6
Continuous
 62
     7
370
    25
100
AcDbCircle
 10
-175.1462346161
 20
291.2336521829
 30
0.0
 40
5.0
100
AcDbArc
 50
181.7004690035
 51
270.0
  0
ARC
  5
CF
330
1F
100
AcDbEntity
  8
0
  6
Continuous
 62
     7
370
    25
100
AcDbCircle
 10
-184.3493596161
 20
601.2336521829
 30
0.0
 40
4.999999999999926
100
AcDbArc
 50
90.0
 51
181.7004690035
  0
ARC
  5
D0
330
1F
100
AcDbEntity
  8
0
  6
Continuous
 62
     7
370
    25
100
AcDbCircle
 10
175.1462346161
 20
291.2336521829
 30
0.0
 40
5.0
100
AcDbArc
 50
270.0
 51
358.2995309965
  0
ARC
  5
D1
330
1F
100
AcDbEntity
  8
0
  6
Continuous
 62
     7
370
    25
100
AcDbCircle
 10
184.3493596161
 20
601.2336521829
 30
0.0
 40
4.999999999999892
100
AcDbArc
 50
358.2995309965
 51
90.0
  0
SPLINE
  5
D2
330
1B
100
AcDbEntity
 67
     1
  8
0
  6
Continuous
 62
     7
370
    25
100
AcDbSpline
210
0.0
220
0.0
230
1.0
 70
     8
 71
     3
 72
    11
 73
     7
 74
     0
 42
0.000000001
 43
0.00000001
 40
0.0
 40
0.0
 40
0.0
 40
0.0
 40
0.165704967583468
 40
0.4482524234787913
 40
0.7308602931656999
 40
1.0
 40
1.0
 40
1.0
 40
1.0
 10
-19.88422471490458
 20
655.9786663169582
 30
0.0
 10
-29.29302503900302
 20
655.9159132355976
 30
0.0
 10
-54.74499312910112
 20
655.746158392331
 30
0.0
 10
-96.22870234681571
 20
654.5273388238031
 30
0.0
 10
-143.5733700734272
 20
652.9529553052229
 30
0.0
 10
-174.884437662948
 20
651.9050923199381
 30
0.0
 10
-190.1578197498173
 20
651.3939499993133
 30
0.0
  0
SPLINE
  5
D3
330
1B
100
AcDbEntity
 67
     1
  8
0
  6
Continuous
 62
     7
370
    25
100
AcDbSpline
210
0.0
220
0.0
230
1.0
 70
     8
 71
     3
 72
    11
 73
     7
 74
     0
 42
0.000000001
 43
0.00000001
 40
0.0
 40
0.0
 40
0.0
 40
0.0
 40
0.2689840408255659
 40
0.5516377011176155
 40
0.8342308859551344
 40
1.0
 40
1.0
 40
1.0
 40
1.0
 10
190.1335040600958
 20
651.3949041617657
 30
0.0
 10
174.871441498394
 20
651.9060370590146
 30
0.0
 10
143.571706837518
 20
652.9542783432878
 30
0.0
 10
96.23834165114818
 20
654.5280659480854
 30
0.0
 10
54.75250784082484
 20
655.7465094793137
 30
0.0
 10
29.29842504896958
 20
655.9161318347619
 30
0.0
 10
19.88750721812543
 20
655.978844840862
 30
0.0
  0
SPLINE
  5
D6
330
1B
100
AcDbEntity
 67
     1
  8
0
  6
Continuous
 62
     7
370
    25
100
AcDbSpline
210
0.0
220
0.0
230
1.0
 70
     8
 71
     3
 72
    14
 73
    10
 74
     0
 42
0.000000001
 43
0.00000001
 40
0.0
 40
0.0
 40
0.0
 40
0.0
 40
0.25
 40
0.25
 40
0.5
 40
0.5
 40
0.75
 40
0.75
 40
1.0
 40
1.0
 40
1.0
 40
1.0
 10
-190.0179661932093
 20
651.2509777647482
 30
0.0
 10
-158.3484793904918
 20
651.3643810442545
 30
0.0
 10
-126.6790016424068
 20
651.4737829015065
 30
0.0
 10
-63.33977458114877
 20
651.6335448682258
 30
0.0
 10
-31.67000254237159
 20
651.6794988971823
 30
0.0
 10
31.67003034664537
 20
651.679561940641
 30
0.0
 10
63.339802411714
 20
651.6336769051027
 30
0.0
 10
126.6790291491654
 20
651.4739803729035
 30
0.0
 10
158.348506482211
 20
651.3645706642861
 30
0.0
 10
190.0179922500593
 20
651.2510034360449
 30
0.0
  0
SPLINE
  5
D8
330
1B
100
AcDbEntity
 67
     1
  8
0
  6
Continuous
 62
     7
370
    25
100
AcDbSpline
210
0.0
220
0.0
230
1.0
 70
     8
 71
     3
 72
    14
 73
    10
 74
     0
 42
0.000000001
 43
0.00000001
 40
0.0
 40
0.0
 40
0.0
 40
0.0
 40
0.2499999999999999
 40
0.2499999999999999
 40
0.4999999999999998
 40
0.4999999999999998
 40
0.7499999999999999
 40
0.7499999999999999
 40
1.0
 40
1.0
 40
1.0
 40
1.0
 10
190.0
 20
646.2510672856753
 30
0.0
 10
158.3334252569665
 20
646.3650193270937
 30
0.0
 10
126.6668513241941
 20
646.4793118776113
 30
0.0
 10
63.33356870160159
 20
646.6512658399547
 30
0.0
 10
31.66684643619185
 20
646.703222161623
 30
0.0
 10
-31.6668455277495
 20
646.7031519728168
 30
0.0
 10
-63.33356778627906
 20
646.6511197452442
 30
0.0
 10
-126.6668505793436
 20
646.4791031306424
 30
0.0
 10
-158.3334247093991
 20
646.3648284412415
 30
0.0
 10
-190.0
 20
646.2510414303877
 30
0.0
  0
SPLINE
  5
EC
330
1B
100
AcDbEntity
 67
     1
  8
0
  6
Continuous
 62
     7
370
    25
100
AcDbSpline
210
0.0
220
0.0
230
1.0
 70
     8
 71
     3
 72
    14
 73
    10
 74
     0
 42
0.000000001
 43
0.00000001
 40
0.0
 40
0.0
 40
0.0
 40
0.0
 40
0.0005855957214791
 40
0.1804987159978024
 40
0.3657127529140862
 40
0.5459696228861757
 40
0.7315038552715066
 40
0.9124041699211081
 40
1.0
 40
1.0
 40
1.0
 40
1.0
 10
0.0000090432737965
 20
655.8620043339881
 30
0.0
 10
-0.0045026803958588
 20
655.8620043252226
 30
0.0
 10
-1.395155479656065
 20
655.8620016234438
 30
0.0
 10
-4.218633272717635
 20
655.8694632582572
 30
0.0
 10
-8.302928849191451
 20
655.9013889581329
 30
0.0
 10
-12.19669827147035
 20
655.9501080525603
 30
0.0
 10
-15.68026896947854
 20
656.0064979545751
 30
0.0
 10
-18.29788143972767
 20
656.0555692828856
 30
0.0
 10
-19.49474657928533
 20
656.0767692354347
 30
0.0
 10
-19.88521920785159
 20
656.0836856380632
 30
0.0
  0
SPLINE
  5
ED
330
1B
100
AcDbEntity
 67
     1
  8
0
  6
Continuous
 62
     7
370
    25
100
AcDbSpline
210
0.0
220
0.0
230
1.0
 70
     8
 71
     3
 72
    13
 73
     9
 74
     0
 42
0.000000001
 43
0.00000001
 40
0.0
 40
0.0
 40
0.0
 40
0.0
 40
0.0833027713691058
 40
0.2693042646938656
 40
0.4496502734612289
 40
0.6352672723653354
 40
0.8149948399871163
 40
1.0
 40
1.0
 40
1.0
 40
1.0
 10
19.88850230172017
 20
656.0840449663918
 30
0.0
 10
19.51728885606548
 20
656.0774686890977
 30
0.0
 10
18.31721636887821
 20
656.0562086578642
 30
0.0
 10
15.72662163232311
 20
656.0075472579581
 30
0.0
 10
12.21425797427815
 20
655.9504933193988
 30
0.0
 10
8.35965635687815
 20
655.9023601257722
 30
0.0
 10
4.240815501149579
 20
655.8686629838854
 30
0.0
 10
1.427182055998707
 20
655.8642451920722
 30
0.0
 10
0.0000090432737965
 20
655.8620043339881
 30
0.0
  0
SPLINE
  5
EE
330
1B
100
AcDbEntity
 67
     1
  8
0
  6
Continuous
 62
     7
370
    25
100
AcDbSpline
210
0.0
220
0.0
230
1.0
 70
    24
 71
     3
 72
     9
 73
     5
 74
     0
 42
0.000000001
 43
0.00000001
 40
0.0
 40
0.0
 40
0.0
 40
0.0
 40
0.8980606229214516
 40
1.0
 40
1.0
 40
1.0
 40
1.0
 10
-195.0
 20
646.2510414303878
 30
0.0
 10
-195.0
 20
646.3306385390339
 30
0.0
 10
-195.0000000000001
 20
646.4192707611966
 30
0.0
 10
-195.0
 20
646.3881621467448
 30
0.0
 10
-195.0
 20
646.3849909539658
 30
0.0
  0
LWPOLYLINE
  5
F9
330
1B
100
AcDbEntity
 67
     1
  8
0
  6
Continuous
 62
     7
370
    25
100
AcDbPolyline
 90
       10
 70
   128
 43
0.0
 10
111.108495283
 20
291.2336521829
 10
111.0800098199
 20
290.3654112945
 10
110.995418947
 20
289.5235514662
 10
110.8572929151
 20
288.7336521829
 10
110.6698286139
 20
288.0197141344
 10
110.4387220512
 20
287.4034299673
 10
110.170995283
 20
286.9035251639
 10
109.8747830517
 20
286.5351890789
 10
109.5590856161
 20
286.3096134178
 10
109.233495283
 20
286.2336521829
  0
LWPOLYLINE
  5
FB
330
1B
100
AcDbEntity
 67
     1
  8
0
  6
Continuous
 62
     7
370
    25
100
AcDbPolyline
 90
        9
 70
   128
 43
0.0
 10
107.537498675
 20
288.2336521829
 10
107.9032930288
 20
288.2912963416
 10
108.2550301107
 20
288.4620135853
 10
108.5791928619
 20
288.7392433459
 10
108.8633238897
 20
289.1123318393
 10
109.0965041981
 20
289.5669414838
 10
109.2697727985
 20
290.0856018858
 10
109.3764710758
 20
290.6483812168
 10
109.412498675
 20
291.2336521829
  0
LWPOLYLINE
  5
107
330
1B
100
AcDbEntity
 67
     1
  8
0
  6
Continuous
 62
     7
370
    25
100
AcDbPolyline
 90
        9
 70
   128
 43
0.0
 10
-109.233495283
 20
286.2336521829
 10
-109.5992896368
 20
286.3297257808
 10
-109.9510267187
 20
286.6142545203
 10
-110.2751894699
 20
287.0763041213
 10
-110.5593204977
 20
287.6981182769
 10
-110.7925008061
 20
288.4558010178
 10
-110.9657694065
 20
289.320235021
 10
-111.0724676838
 20
290.2582005728
 10
-111.108495283
 20
291.2336521829
  0
LWPOLYLINE
  5
115
330
1B
100
AcDbEntity
 67
     1
  8
0
  6
Continuous
 62
     7
370
    25
100
AcDbPolyline
 90
        9
 70
   128
 43
0.0
 10
-109.412498675
 20
291.2336521829
 10
-109.3764710758
 20
290.6483812168
 10
-109.2697727985
 20
290.0856018858
 10
-109.0965041981
 20
289.5669414838
 10
-108.8633238897
 20
289.1123318393
 10
-108.5791928619
 20
288.7392433459
 10
-108.2550301107
 20
288.4620135853
 10
-107.9032930288
 20
288.2912963416
 10
-107.537498675
 20
288.2336521829
  0
SPLINE
  5
131
330
1B
100
AcDbEntity
 67
     1
  8
0
  6
Continuous
 62
     8
370
    25
100
AcDbSpline
210
0.0
220
0.0
230
1.0
 70
     8
 71
     3
 72
     9
 73
     5
 74
     0
 42
0.000000001
 43
0.00000001
 40
0.0
 40
0.0
 40
0.0
 40
0.0
 40
0.0645480772030887
 40
1.0
 40
1.0
 40
1.0
 40
1.0
 10
-190.157544758805
 20
651.3857244970364
 30
0.0
 10
-190.1593809466051
 20
651.3875112424347
 30
0.0
 10
-190.1878277707361
 20
651.415192088645
 30
0.0
 10
-190.1000645070115
 20
651.330346620792
 30
0.0
 10
-190.0179661932093
 20
651.2509777647482
 30
0.0
  0
SPLINE
  5
132
330
1B
100
AcDbEntity
 67
     1
  8
0
  6
Continuous
 62
     8
370
    25
100
AcDbSpline
210
0.0
220
0.0
230
1.0
 70
     8
 71
     3
 72
     9
 73
     5
 74
     0
 42
0.000000001
 43
0.00000001
 40
0.0
 40
0.0
 40
0.0
 40
0.0
 40
0.6835492923937827
 40
1.0
 40
1.0
 40
1.0
 40
1.0
 10
190.0179922500592
 20
651.2510034360449
 30
0.0
 10
190.0773240924358
 20
651.3084044057256
 30
0.0
 10
190.1641237468818
 20
651.392379285547
 30
0.0
 10
190.1400133581358
 20
651.3688537710075
 30
0.0
 10
190.1323836085565
 20
651.3614091052846
 30
0.0
  0
LINE
  5
133
330
1B
100
AcDbEntity
 67
     1
  8
0
  6
Continuous
 62
     7
370
    25
100
AcDbLine
 10
190.0179922501
 20
651.251003436
 30
0.0
 11
190.0
 21
646.2510672857
 31
0.0
  0
LINE
  5
134
330
1B
100
AcDbEntity
 67
     1
  8
0
  6
Continuous
 62
     7
370
    25
100
AcDbLine
 10
-190.0179661932
 20
651.2509777647
 30
0.0
 11
-190.0
 21
646.2510414304
 31
0.0
  0
LINE
  5
135
330
1B
100
AcDbEntity
 67
     1
  8
0
  6
Continuous
 62
     7
370
    25
100
AcDbLine
 10
195.0
 20
646.2510672857
 30
0.0
 11
190.0
 21
646.2510672857
 31
0.0
  0
LINE
  5
136
330
1B
100
AcDbEntity
 67
     1
  8
0
  6
Continuous
 62
     7
370
    25
100
AcDbLine
 10
-190.0
 20
646.2510414304
 30
0.0
 11
-195.0
 21
646.2510414304
 31
0.0
  0
LINE
  5
137
330
1B
100
AcDbEntity
 67
     1
  8
0
  6
Continuous
 62
     7
370
    25
100
AcDbLine
 10
-195.0
 20
611.2336521829
 30
0.0
 11
195.0
 21
611.2336521829
 31
0.0
  0
LINE
  5
138
330
1B
100
AcDbEntity
 67
     1
  8
0
  6
Continuous
 62
     7
370
    25
100
AcDbLine
 10
-190.0
 20
646.2510414304
 30
0.0
 11
-190.0
 21
606.2336521829
 31
0.0
  0
LINE
  5
139
330
1B
100
AcDbEntity
 67
     1
  8
0
  6
Continuous
 62
     7
370
    25
100
AcDbLine
 10
190.0
 20
606.2336521829
 30
0.0
 11
-190.0
 21
606.2336521829
 31
0.0
  0
LINE
  5
13A
330
1B
100
AcDbEntity
 67
     1
  8
0
  6
Continuous
 62
     7
370
    25
100
AcDbLine
 10
190.0
 20
606.2336521829
 30
0.0
 11
190.0
 21
646.2510672857
 31
0.0
  0
LINE
  5
13B
330
1B
100
AcDbEntity
 67
     1
  8
0
  6
Continuous
 62
     7
370
    25
100
AcDbLine
 10
195.0
 20
646.2510672857
 30
0.0
 11
195.0
 21
611.2336521829
 31
0.0
  0
LINE
  5
13C
330
1B
100
AcDbEntity
 67
     1
  8
0
  6
Continuous
 62
     7
370
    25
100
AcDbLine
 10
-195.0
 20
611.2336521829
 30
0.0
 11
-195.0
 21
646.2510414304
 31
0.0
  0
LINE
  5
13D
330
1B
100
AcDbEntity
 67
     1
  8
0
  6
Continuous
 62
     7
370
    25
100
AcDbLine
 10
-190.1540675604
 20
651.3823393287
 30
0.0
 11
-190.1575447588
 21
651.385724497
 31
0.0
  0
LINE
  5
13E
330
1B
100
AcDbEntity
 67
     1
  8
0
  6
Continuous
 62
     7
370
    25
100
AcDbLine
 10
190.1323836086
 20
651.3614091053
 30
0.0
 11
190.1307865356
 21
651.3598410127
 31
0.0
  0
LINE
  5
13F
330
1B
100
AcDbEntity
 67
     1
  8
0
  6
Continuous
 62
     7
370
    25
100
AcDbLine
 10
-175.1462346161
 20
291.2336521829
 30
0.0
 11
-109.412498675
 21
291.2336521829
 31
0.0
  0
LINE
  5
140
330
1B
100
AcDbEntity
 67
     1
  8
0
  6
Continuous
 62
     7
370
    25
100
AcDbLine
 10
-111.108495283
 20
291.2336521829
 30
0.0
 11
-111.108495283
 21
557.0620793076
 31
0.0
  0
LINE
  5
141
330
1B
100
AcDbEntity
 67
     1
  8
0
  6
Continuous
 62
     7
370
    25
100
AcDbLine
 10
-111.108495283
 20
557.0620793076
 30
0.0
 11
-109.6942817206
 21
555.6478657452
 31
0.0
  0
LINE
  5
142
330
1B
100
AcDbEntity
 67
     1
  8
0
  6
Continuous
 62
     7
370
    25
100
AcDbLine
 10
-109.412498675
 20
555.2936500629
 30
0.0
 11
-109.412498675
 21
291.2336521829
 31
0.0
  0
LINE
  5
143
330
1B
100
AcDbEntity
 67
     1
  8
0
  6
Continuous
 62
     7
370
    25
100
AcDbLine
 10
111.108495283
 20
557.0620793076
 30
0.0
 11
109.6942817206
 21
555.6478657452
 31
0.0
  0
LINE
  5
144
330
1B
100
AcDbEntity
 67
     1
  8
0
  6
Continuous
 62
     7
370
    25
100
AcDbLine
 10
111.108495283
 20
557.0620793076
 30
0.0
 11
111.108495283
 21
291.2336521829
 31
0.0
  0
LINE
  5
145
330
1B
100
AcDbEntity
 67
     1
  8
0
  6
Continuous
 62
     7
370
    25
100
AcDbLine
 10
109.412498675
 20
291.2336521829
 30
0.0
 11
175.1462346161
 21
291.2336521829
 31
0.0
  0
LINE
  5
146
330
1B
100
AcDbEntity
 67
     1
  8
0
  6
Continuous
 62
     7
370
    25
100
AcDbLine
 10
109.412498675
 20
291.2336521829
 30
0.0
 11
109.412498675
 21
555.2936500629
 31
0.0
  0
LINE
  5
147
330
1B
100
AcDbEntity
 67
     1
  8
0
  6
Continuous
 62
     7
370
    25
100
AcDbLine
 10
184.3493596161
 20
601.2336521829
 30
0.0
 11
184.3493596161
 21
606.2336521829
 31
0.0
  0
LINE
  5
148
330
1B
100
AcDbEntity
 67
     1
  8
0
  6
Continuous
 62
     7
370
    25
100
AcDbLine
 10
189.3471577024
 20
601.0852800522
 30
0.0
 11
184.3493596161
 21
601.2336521829
 31
0.0
  0
LINE
  5
149
330
1B
100
AcDbEntity
 67
     1
  8
0
  6
Continuous
 62
     7
370
    25
100
AcDbLine
 10
184.3493596161
 20
601.2336521829
 30
0.0
 11
-184.3493596161
 21
601.2336521829
 31
0.0
  0
LINE
  5
14A
330
1B
100
AcDbEntity
 67
     1
  8
0
  6
Continuous
 62
     7
370
    25
100
AcDbLine
 10
-184.3493596161
 20
601.2336521829
 30
0.0
 11
-184.3493596161
 21
606.2336521829
 31
0.0
  0
LINE
  5
14B
330
1B
100
AcDbEntity
 67
     1
  8
0
  6
Continuous
 62
     7
370
    25
100
AcDbLine
 10
175.1462346161
 20
286.2336521829
 30
0.0
 11
175.1462346161
 21
291.2336521829
 31
0.0
  0
LINE
  5
14C
330
1B
100
AcDbEntity
 67
     1
  8
0
  6
Continuous
 62
     7
370
    25
100
AcDbLine
 10
175.1462346161
 20
291.2336521829
 30
0.0
 11
180.1440327024
 21
291.0852800522
 31
0.0
  0
LINE
  5
14D
330
1B
100
AcDbEntity
 67
     1
  8
0
  6
Continuous
 62
     7
370
    25
100
AcDbLine
 10
-175.1462346161
 20
286.2336521829
 30
0.0
 11
-175.1462346161
 21
291.2336521829
 31
0.0
  0
LINE
  5
14E
330
1B
100
AcDbEntity
 67
     1
  8
0
  6
Continuous
 62
     7
370
    25
100
AcDbLine
 10
-180.1440327024
 20
291.0852800522
 30
0.0
 11
-175.1462346161
 21
291.2336521829
 31
0.0
  0
LINE
  5
14F
330
1B
100
AcDbEntity
 67
     1
  8
0
  6
Continuous
 62
     7
370
    25
100
AcDbLine
 10
-111.108495283
 20
557.0620793076
 30
0.0
 11
111.108495283
 21
557.0620793076
 31
0.0
  0
LINE
  5
150
330
1B
100
AcDbEntity
 67
     1
  8
0
  6
Continuous
 62
     7
370
    25
100
AcDbLine
 10
109.6942817206
 20
555.6478657452
 30
0.0
 11
-109.6942817206
 21
555.6478657452
 31
0.0
  0
LINE
  5
151
330
1B
100
AcDbEntity
 67
     1
  8
0
  6
Continuous
 62
     7
370
    25
100
AcDbLine
 10
-184.3493596161
 20
601.2336521829
 30
0.0
 11
-189.3471577024
 21
601.0852800522
 31
0.0
  0
LINE
  5
152
330
1B
100
AcDbEntity
 67
     1
  8
0
  6
Continuous
 62
     7
370
    25
100
AcDbLine
 10
175.1462346161
 20
291.2336521829
 30
0.0
 11
184.3493596161
 21
601.2336521829
 31
0.0
  0
LINE
  5
153
330
1B
100
AcDbEntity
 67
     1
  8
0
  6
Continuous
 62
     7
370
    25
100
AcDbLine
 10
189.3471577024
 20
601.0852800522
 30
0.0
 11
180.1440327024
 21
291.0852800522
 31
0.0
  0
LINE
  5
154
330
1B
100
AcDbEntity
 67
     1
  8
0
  6
Continuous
 62
     7
370
    25
100
AcDbLine
 10
-180.1440327024
 20
291.0852800522
 30
0.0
 11
-189.3471577024
 21
601.0852800522
 31
0.0
  0
LINE
  5
155
330
1B
100
AcDbEntity
 67
     1
  8
0
  6
Continuous
 62
     7
370
    25
100
AcDbLine
 10
-184.3493596161
 20
601.2336521829
 30
0.0
 11
-175.1462346161
 21
291.2336521829
 31
0.0
  0
LINE
  5
156
330
1B
100
AcDbEntity
 67
     1
  8
0
  6
Continuous
 62
     7
370
    25
100
AcDbLine
 10
175.1462346161
 20
286.2336521829
 30
0.0
 11
-175.1462346161
 21
286.2336521829
 31
0.0
  0
LINE
  5
157
330
1B
100
AcDbEntity
 67
     1
  8
0
  6
Continuous
 62
     7
370
    25
100
AcDbLine
 10
109.412498675
 20
555.2936500629
 30
0.0
 11
105.587501325
 21
549.1736543028
 31
0.0
  0
LINE
  5
158
330
1B
100
AcDbEntity
 67
     1
  8
0
  6
Continuous
 62
     7
370
    25
100
AcDbLine
 10
-105.3057182794
 20
548.8194386205
 30
0.0
 11
105.3057182794
 21
548.8194386205
 31
0.0
  0
LINE
  5
159
330
1B
100
AcDbEntity
 67
     1
  8
0
  6
Continuous
 62
     7
370
    25
100
AcDbLine
 10
-105.587501325
 20
549.1736543028
 30
0.0
 11
-109.412498675
 21
555.2936500629
 31
0.0
  0
LINE
  5
15A
330
1B
100
AcDbEntity
 67
     1
  8
0
  6
Continuous
 62
     7
370
    25
100
AcDbLine
 10
-105.587501325
 20
288.2336521829
 30
0.0
 11
-105.587501325
 21
549.1736543028
 31
0.0
  0
LINE
  5
15B
330
1B
100
AcDbEntity
 67
     1
  8
0
  6
Continuous
 62
     7
370
    25
100
AcDbLine
 10
105.587501325
 20
549.1736543028
 30
0.0
 11
105.587501325
 21
288.2336521829
 31
0.0
  0
LINE
  5
15C
330
1B
100
AcDbEntity
 67
     1
  8
0
  6
Continuous
 62
     7
370
    25
100
AcDbLine
 10
-107.537498675
 20
288.2336521829
 30
0.0
 11
107.537498675
 21
288.2336521829
 31
0.0
  0
LINE
  5
15D
330
1B
100
AcDbEntity
 67
     1
  8
0
  6
Continuous
 62
     7
370
    25
100
AcDbLine
 10
103.891504717
 20
286.2336521829
 30
0.0
 11
103.891504717
 21
547.4052250581
 31
0.0
  0
LINE
  5
15E
330
1B
100
AcDbEntity
 67
     1
  8
0
  6
Continuous
 62
     7
370
    25
100
AcDbLine
 10
103.891504717
 20
547.4052250581
 30
0.0
 11
105.3057182794
 21
548.8194386205
 31
0.0
  0
LINE
  5
15F
330
1B
100
AcDbEntity
 67
     1
  8
0
  6
Continuous
 62
     7
370
    25
100
AcDbLine
 10
-103.891504717
 20
547.4052250581
 30
0.0
 11
-105.3057182794
 21
548.8194386205
 31
0.0
  0
LINE
  5
160
330
1B
100
AcDbEntity
 67
     1
  8
0
  6
Continuous
 62
     7
370
    25
100
AcDbLine
 10
-103.891504717
 20
547.4052250581
 30
0.0
 11
-103.891504717
 21
286.2336521829
 31
0.0
  0
LINE
  5
161
330
1B
100
AcDbEntity
 67
     1
  8
0
  6
Continuous
 62
     7
370
    25
100
AcDbLine
 10
103.891504717
 20
547.4052250581
 30
0.0
 11
-103.891504717
 21
547.4052250581
 31
0.0
  0
ARC
  5
162
330
1B
100
AcDbEntity
 67
     1
  8
0
  6
Continuous
 62
     7
370
    25
100
AcDbCircle
 10
190.0
 20
646.3953727006
 30
0.0
 40
4.999999999965929
100
AcDbArc
 50
359.9925456449
 51
88.5624693612
  0
ARC
  5
163
330
1B
100
AcDbEntity
 67
     1
  8
0
  6
Continuous
 62
     7
370
    25
100
AcDbCircle
 10
-190.0000000003
 20
646.395202697
 30
0.0
 40
4.999999999692335
100
AcDbArc
 50
91.75809423
 51
179.9998334758
  0
ARC
  5
164
330
1B
100
AcDbEntity
 67
     1
  8
0
  6
Continuous
 62
     7
370
    25
100
AcDbCircle
 10
190.0000158716
 20
646.2510516228
 30
0.0
 40
4.999984128442516
100
AcDbArc
 50
0.0001794836
 51
89.7940047788
  0
ARC
  5
165
330
1B
100
AcDbEntity
 67
     1
  8
0
  6
Continuous
 62
     7
370
    25
100
AcDbCircle
 10
-190.0000158259
 20
646.2510258124
 30
0.0
 40
4.999984174163024
100
AcDbArc
 50
90.2056971509
 51
179.99982103
  0
ARC
  5
166
330
1B
100
AcDbEntity
 67
     1
  8
0
  6
Continuous
 62
     7
370
    25
100
AcDbCircle
 10
-190.0
 20
611.2336521829
 30
0.0
 40
5.0
100
AcDbArc
 50
180.0
 51
270.0
  0
ARC
  5
167
330
1B
100
AcDbEntity
 67
     1
  8
0
  6
Continuous
 62
     7
370
    25
100
AcDbCircle
 10
190.0
 20
611.2336521829
 30
0.0
 40
5.0
100
AcDbArc
 50
270.0
 51
0.0
  0
ARC
  5
168
330
1B
100
AcDbEntity
 67
     1
  8
0
  6
Continuous
 62
     7
370
    25
100
AcDbCircle
 10
-111.108495283
 20
554.2336521829
 30
0.0
 40
2.000000000006374
100
AcDbArc
 50
32.0053832081
 51
45.0
  0
ARC
  5
169
330
1B
100
AcDbEntity
 67
     1
  8
0
  6
Continuous
 62
     7
370
    25
100
AcDbCircle
 10
111.108495283
 20
554.2336521829
 30
0.0
 40
1.999999999993962
100
AcDbArc
 50
135.0
 51
147.9946167919
  0
ARC
  5
16A
330
1B
100
AcDbEntity
 67
     1
  8
0
  6
Continuous
 62
     7
370
    25
100
AcDbCircle
 10
109.3991199518
 20
288.0932027447
 30
0.0
 40
1.866911841191473
100
AcDbArc
 50
175.6855112286
 51
264.9102648735
  0
ARC
  5
16B
330
1B
100
AcDbEntity
 67
     1
  8
0
  6
Continuous
 62
     7
370
    25
100
AcDbCircle
 10
184.3493596161
 20
601.2336521829
 30
0.0
 40
4.999999999999886
100
AcDbArc
 50
358.2995309965
 51
90.0
  0
ARC
  5
16C
330
1B
100
AcDbEntity
 67
     1
  8
0
  6
Continuous
 62
     7
370
    25
100
AcDbCircle
 10
175.1462346161
 20
291.2336521829
 30
0.0
 40
5.000000000000004
100
AcDbArc
 50
270.0
 51
358.2995309965
  0
ARC
  5
16D
330
1B
100
AcDbEntity
 67
     1
  8
0
  6
Continuous
 62
     7
370
    25
100
AcDbCircle
 10
-175.1462346161
 20
291.2336521829
 30
0.0
 40
5.0
100
AcDbArc
 50
181.7004690035
 51
270.0
  0
ARC
  5
16E
330
1B
100
AcDbEntity
 67
     1
  8
0
  6
Continuous
 62
     7
370
    25
100
AcDbCircle
 10
-184.3493596161
 20
601.2336521829
 30
0.0
 40
4.999999999999898
100
AcDbArc
 50
90.0
 51
181.7004690035
  0
ARC
  5
16F
330
1B
100
AcDbEntity
 67
     1
  8
0
  6
Continuous
 62
     7
370
    25
100
AcDbCircle
 10
-109.3991199518
 20
288.0932027447
 30
0.0
 40
1.86691184119162
100
AcDbArc
 50
275.0897351265
 51
4.3144887714
  0
ARC
  5
170
330
1B
100
AcDbEntity
 67
     1
  8
0
  6
Continuous
 62
     7
370
    25
100
AcDbCircle
 10
103.891504717
 20
550.2336521829
 30
0.0
 40
2.000000000000674
100
AcDbArc
 50
315.0
 51
327.9946167919
  0
ARC
  5
171
330
1B
100
AcDbEntity
 67
     1
  8
0
  6
Continuous
 62
     7
370
    25
100
AcDbCircle
 10
-103.891504717
 20
550.2336521829
 30
0.0
 40
2.000000000001755
100
AcDbArc
 50
212.0053832081
 51
225.0
  0
ARC
  5
172
330
1B
100
AcDbEntity
 67
     1
  8
0
  6
Continuous
 62
     7
370
    25
100
AcDbCircle
 10
-107.4491226018
 20
288.0932027447
 30
0.0
 40
1.866911841191473
100
AcDbArc
 50
275.0897351265
 51
4.3144887714
  0
ARC
  5
173
330
1B
100
AcDbEntity
 67
     1
  8
0
  6
Continuous
 62
     7
370
    25
100
AcDbCircle
 10
107.4491226018
 20
288.0932027447
 30
0.0
 40
1.86691184119153
100
AcDbArc
 50
175.6855112286
 51
264.9102648735
  0
VIEWPORT
  5
29A
330
1B
100
AcDbEntity
 67
     1
  8
0
100
AcDbViewport
 10
0.0
 20
0.0
 30
0.0
 40
205.6
 41
156.0
 68
     1
 69
     1
 12
0.0
 22
471.1856520253
 13
0.0
 23
0.0
 14
10.0
 24
10.0
 15
10.0
 25
10.0
 16
0.0
 26
0.0
 36
1.0
 17
0.0
 27
0.0
 37
0.0
 42
50.0
 43
0.0
 44
0.0
 45
377.3020796785
 50
0.0
 51
0.0
 72
   100
 90
   557152
  1

281
     0
 71
     1
 74
     0
110
0.0
120
0.0
130
0.0
111
1.0
121
0.0
131
0.0
112
0.0
122
1.0
132
0.0
 79
     0
146
0.0
  0
ENDSEC
  0
SECTION
  2
OBJECTS
  0
DICTIONARY
  5
C
330
0
100
AcDbDictionary
281
     1
  3
ACAD_GROUP
350
D
  3
ACAD_LAYOUT
350
1A
  3
ACAD_MLINESTYLE
350
17
  3
ACAD_PLOTSETTINGS
350
19
  3
ACAD_PLOTSTYLENAME
350
E
  3
ACAD_SCALELIST
350
47
  0
DICTIONARY
  5
D
102
{ACAD_REACTORS
330
C
102
}
330
C
100
AcDbDictionary
281
     1
  0
DICTIONARY
  5
1A
102
{ACAD_REACTORS
330
C
102
}
330
C
100
AcDbDictionary
281
     1
  3
_Back
350
1E
  3
_Bottom
350
1EC
  3
_Left
350
26
  3
_Top
350
1C6
  3
Model
350
22
  0
DICTIONARY
  5
17
102
{ACAD_REACTORS
330
C
102
}
330
C
100
AcDbDictionary
281
     1
  3
Standard
350
18
  0
DICTIONARY
  5
19
102
{ACAD_REACTORS
330
C
102
}
330
C
100
AcDbDictionary
281
     1
  0
ACDBDICTIONARYWDFLT
  5
E
102
{ACAD_REACTORS
330
C
102
}
330
C
100
AcDbDictionary
281
     1
  3
Normal
350
F
100
AcDbDictionaryWithDefault
340
F
  0
DICTIONARY
  5
47
102
{ACAD_REACTORS
330
C
102
}
330
C
100
AcDbDictionary
281
     1
  3
A0
350
48
  3
A1
350
49
  3
A2
350
4A
  3
A3
350
4B
  3
A4
350
4C
  3
A5
350
4D
  3
A6
350
4E
  3
A7
350
4F
  3
A8
350
50
  3
A9
350
51
  3
B0
350
52
  3
B1
350
53
  3
B2
350
54
  3
B3
350
55
  3
B4
350
56
  3
B5
350
57
  3
B6
350
58
  3
B7
350
59
  3
B8
350
5A
  3
B9
350
5B
  3
C0
350
5C
  3
C1
350
5D
  3
C2
350
5E
  3
C3
350
5F
  3
C4
350
60
  3
C5
350
61
  3
C6
350
62
  3
C7
350
63
  3
C8
350
64
  3
C9
350
65
  3
D0
350
66
  3
D1
350
67
  3
D2
350
68
  0
LAYOUT
  5
1E
102
{ACAD_REACTORS
330
1A
102
}
330
1A
100
AcDbPlotSettings
  1

  2
none_device
  4
ISO_A4_(210.00_x_297.00_MM)
  6

 40
7.5
 41
20.0
 42
7.5
 43
20.0
 44
210.0
 45
297.0
 46
0.0
 47
0.0
 48
0.0
 49
0.0
140
0.0
141
0.0
142
1.0
143
1.8966686809
 70
   688
 72
     1
 73
     1
 74
     1
  7

 75
     0
147
0.5272402134
148
195.0
149
-286.2336521829
100
AcDbLayout
  1
_Back
 70
     1
 71
     1
 10
-232.9333736188
 20
272.0086370758
 11
330.3772246207
 21
670.3090600735
 12
0.0
 22
0.0
 32
0.0
 14
-195.0
 24
286.2336521829
 34
0.0
 15
195.0
 25
656.0840449664
 35
0.0
146
0.0
 13
0.0
 23
0.0
 33
0.0
 16
1.0
 26
0.0
 36
0.0
 17
0.0
 27
1.0
 37
0.0
 76
     0
330
1B
331
29A
  0
LAYOUT
  5
1EC
102
{ACAD_REACTORS
330
1A
102
}
330
1A
100
AcDbPlotSettings
  1

  2
none_device
  4
ISO_A4_(210.00_x_297.00_MM)
  6

 40
7.5
 41
20.0
 42
7.5
 43
20.0
 44
210.0
 45
297.0
 46
0.0
 47
0.0
 48
0.0
 49
0.0
140
0.0
141
0.0
142
1.0
143
1.8966686809
 70
   688
 72
     1
 73
     1
 74
     1
  7

 75
     0
147
0.5272402134
148
195.0
149
-286.2336521829
100
AcDbLayout
  1
_Bottom
 70
     1
 71
     4
 10
0.0
 20
0.0
 11
0.0
 21
0.0
 12
0.0
 22
0.0
 32
0.0
 14
0.0
 24
0.0
 34
0.0
 15
0.0
 25
0.0
 35
0.0
146
0.0
 13
0.0
 23
0.0
 33
0.0
 16
1.0
 26
0.0
 36
0.0
 17
0.0
 27
1.0
 37
0.0
 76
     0
330
1EB
331
2A0
  0
LAYOUT
  5
26
102
{ACAD_REACTORS
330
1A
102
}
330
1A
100
AcDbPlotSettings
  1

  2
none_device
  4
ISO_A4_(210.00_x_297.00_MM)
  6

 40
7.5
 41
20.0
 42
7.5
 43
20.0
 44
210.0
 45
297.0
 46
0.0
 47
0.0
 48
0.0
 49
0.0
140
0.0
141
0.0
142
1.0
143
1.8966686809
 70
   688
 72
     1
 73
     1
 74
     1
  7

 75
     0
147
0.5272402134
148
195.0
149
-286.2336521829
100
AcDbLayout
  1
_Left
 70
     1
 71
     2
 10
0.0
 20
0.0
 11
0.0
 21
0.0
 12
0.0
 22
0.0
 32
0.0
 14
0.0
 24
0.0
 34
0.0
 15
0.0
 25
0.0
 35
0.0
146
0.0
 13
0.0
 23
0.0
 33
0.0
 16
1.0
 26
0.0
 36
0.0
 17
0.0
 27
1.0
 37
0.0
 76
     0
330
23
331
29C
  0
LAYOUT
  5
1C6
102
{ACAD_REACTORS
330
1A
102
}
330
1A
100
AcDbPlotSettings
  1

  2
none_device
  4
ISO_A4_(210.00_x_297.00_MM)
  6

 40
7.5
 41
20.0
 42
7.5
 43
20.0
 44
210.0
 45
297.0
 46
0.0
 47
0.0
 48
0.0
 49
0.0
140
0.0
141
0.0
142
1.0
143
1.8966686809
 70
   688
 72
     1
 73
     1
 74
     1
  7

 75
     0
147
0.5272402134
148
195.0
149
-286.2336521829
100
AcDbLayout
  1
_Top
 70
     1
 71
     3
 10
0.0
 20
0.0
 11
0.0
 21
0.0
 12
0.0
 22
0.0
 32
0.0
 14
0.0
 24
0.0
 34
0.0
 15
0.0
 25
0.0
 35
0.0
146
0.0
 13
0.0
 23
0.0
 33
0.0
 16
1.0
 26
0.0
 36
0.0
 17
0.0
 27
1.0
 37
0.0
 76
     0
330
1C5
331
29E
  0
LAYOUT
  5
22
102
{ACAD_REACTORS
330
1A
102
}
330
1A
100
AcDbPlotSettings
  1

  2
none_device
  4
ANSI_A_(11.00_x_8.50_Inches)
  6

 40
6.35
 41
19.05
 42
6.35000508
 43
19.05000254
 44
279.4
 45
215.9
 46
133.34999746
 47
-183.3644064544
 48
0.0
 49
0.0
140
0.0
141
0.0
142
0.0227491457
143
1.0
 70
  1696
 72
     0
 73
     0
 74
     0
  7

 75
     0
147
0.0179189148
148
-1300.4909072572
149
0.0
100
AcDbLayout
  1
Model
 70
     1
 71
     0
 10
0.0
 20
0.0
 11
420.0
 21
297.0
 12
0.0
 22
0.0
 32
0.0
 14
-195.0
 24
286.2336521829
 34
0.0
 15
195.0
 25
656.1376518677
 35
0.0
146
0.0
 13
0.0
 23
0.0
 33
0.0
 16
1.0
 26
0.0
 36
0.0
 17
0.0
 27
1.0
 37
0.0
 76
     0
330
1F
331
29
  0
MLINESTYLE
  5
18
102
{ACAD_REACTORS
330
17
102
}
330
17
100
AcDbMlineStyle
  2
Standard
 70
     0
  3

 62
   256
 51
90.0
 52
90.0
 71
     2
 49
0.5
 62
   256
  6
BYLAYER
 49
-0.5
 62
   256
  6
BYLAYER
  0
ACDBPLACEHOLDER
  5
F
102
{ACAD_REACTORS
330
E
102
}
330
E
  0
SCALE
  5
48
102
{ACAD_REACTORS
330
47
102
}
330
47
100
AcDbScale
 70
     0
300
1:1
140
1.0
141
1.0
290
     1
  0
SCALE
  5
49
102
{ACAD_REACTORS
330
47
102
}
330
47
100
AcDbScale
 70
     0
300
1:2
140
1.0
141
2.0
290
     0
  0
SCALE
  5
4A
102
{ACAD_REACTORS
330
47
102
}
330
47
100
AcDbScale
 70
     0
300
1:4
140
1.0
141
4.0
290
     0
  0
SCALE
  5
4B
102
{ACAD_REACTORS
330
47
102
}
330
47
100
AcDbScale
 70
     0
300
1:5
140
1.0
141
5.0
290
     0
  0
SCALE
  5
4C
102
{ACAD_REACTORS
330
47
102
}
330
47
100
AcDbScale
 70
     0
300
1:8
140
1.0
141
8.0
290
     0
  0
SCALE
  5
4D
102
{ACAD_REACTORS
330
47
102
}
330
47
100
AcDbScale
 70
     0
300
1:10
140
1.0
141
10.0
290
     0
  0
SCALE
  5
4E
102
{ACAD_REACTORS
330
47
102
}
330
47
100
AcDbScale
 70
     0
300
1:16
140
1.0
141
16.0
290
     0
  0
SCALE
  5
4F
102
{ACAD_REACTORS
330
47
102
}
330
47
100
AcDbScale
 70
     0
300
1:20
140
1.0
141
20.0
290
     0
  0
SCALE
  5
50
102
{ACAD_REACTORS
330
47
102
}
330
47
100
AcDbScale
 70
     0
300
1:30
140
1.0
141
30.0
290
     0
  0
SCALE
  5
51
102
{ACAD_REACTORS
330
47
102
}
330
47
100
AcDbScale
 70
     0
300
1:40
140
1.0
141
40.0
290
     0
  0
SCALE
  5
52
102
{ACAD_REACTORS
330
47
102
}
330
47
100
AcDbScale
 70
     0
300
1:50
140
1.0
141
50.0
290
     0
  0
SCALE
  5
53
102
{ACAD_REACTORS
330
47
102
}
330
47
100
AcDbScale
 70
     0
300
1:100
140
1.0
141
100.0
290
     0
  0
SCALE
  5
54
102
{ACAD_REACTORS
330
47
102
}
330
47
100
AcDbScale
 70
     0
300
2:1
140
2.0
141
1.0
290
     0
  0
SCALE
  5
55
102
{ACAD_REACTORS
330
47
102
}
330
47
100
AcDbScale
 70
     0
300
4:1
140
4.0
141
1.0
290
     0
  0
SCALE
  5
56
102
{ACAD_REACTORS
330
47
102
}
330
47
100
AcDbScale
 70
     0
300
8:1
140
8.0
141
1.0
290
     0
  0
SCALE
  5
57
102
{ACAD_REACTORS
330
47
102
}
330
47
100
AcDbScale
 70
     0
300
10:1
140
10.0
141
1.0
290
     0
  0
SCALE
  5
58
102
{ACAD_REACTORS
330
47
102
}
330
47
100
AcDbScale
 70
     0
300
100:1
140
100.0
141
1.0
290
     0
  0
SCALE
  5
59
102
{ACAD_REACTORS
330
47
102
}
330
47
100
AcDbScale
 70
     0
300
1/128" = 1'-0"
140
0.0078125
141
12.0
290
     0
  0
SCALE
  5
5A
102
{ACAD_REACTORS
330
47
102
}
330
47
100
AcDbScale
 70
     0
300
1/64" = 1'-0"
140
0.015625
141
12.0
290
     0
  0
SCALE
  5
5B
102
{ACAD_REACTORS
330
47
102
}
330
47
100
AcDbScale
 70
     0
300
1/32" = 1'-0"
140
0.03125
141
12.0
290
     0
  0
SCALE
  5
5C
102
{ACAD_REACTORS
330
47
102
}
330
47
100
AcDbScale
 70
     0
300
1/16" = 1'-0"
140
0.0625
141
12.0
290
     0
  0
SCALE
  5
5D
102
{ACAD_REACTORS
330
47
102
}
330
47
100
AcDbScale
 70
     0
300
3/32" = 1'-0"
140
0.09375
141
12.0
290
     0
  0
SCALE
  5
5E
102
{ACAD_REACTORS
330
47
102
}
330
47
100
AcDbScale
 70
     0
300
1/8" = 1'-0"
140
0.125
141
12.0
290
     0
  0
SCALE
  5
5F
102
{ACAD_REACTORS
330
47
102
}
330
47
100
AcDbScale
 70
     0
300
3/16" = 1'-0"
140
0.1875
141
12.0
290
     0
  0
SCALE
  5
60
102
{ACAD_REACTORS
330
47
102
}
330
47
100
AcDbScale
 70
     0
300
1/4" = 1'-0"
140
0.25
141
12.0
290
     0
  0
SCALE
  5
61
102
{ACAD_REACTORS
330
47
102
}
330
47
100
AcDbScale
 70
     0
300
3/8" = 1'-0"
140
0.375
141
12.0
290
     0
  0
SCALE
  5
62
102
{ACAD_REACTORS
330
47
102
}
330
47
100
AcDbScale
 70
     0
300
1/2" = 1'-0"
140
0.5
141
12.0
290
     0
  0
SCALE
  5
63
102
{ACAD_REACTORS
330
47
102
}
330
47
100
AcDbScale
 70
     0
300
3/4" = 1'-0"
140
0.75
141
12.0
290
     0
  0
SCALE
  5
64
102
{ACAD_REACTORS
330
47
102
}
330
47
100
AcDbScale
 70
     0
300
1" = 1'-0"
140
1.0
141
12.0
290
     0
  0
SCALE
  5
65
102
{ACAD_REACTORS
330
47
102
}
330
47
100
AcDbScale
 70
     0
300
1-1/2" = 1'-0"
140
1.5
141
12.0
290
     0
  0
SCALE
  5
66
102
{ACAD_REACTORS
330
47
102
}
330
47
100
AcDbScale
 70
     0
300
3" = 1'-0"
140
3.0
141
12.0
290
     0
  0
SCALE
  5
67
102
{ACAD_REACTORS
330
47
102
}
330
47
100
AcDbScale
 70
     0
300
6" = 1'-0"
140
6.0
141
12.0
290
     0
  0
SCALE
  5
68
102
{ACAD_REACTORS
330
47
102
}
330
47
100
AcDbScale
 70
     0
300
1'-0" = 1'-0"
140
12.0
141
12.0
290
     0
  0
ENDSEC
  0
EOF
