  0
SECTION
  2
HEADER
  9
$ACADVER
  1
AC1015
  9
$ACADMAINTVER
 70
     6
  9
$DWGCODEPAGE
  3
ANSI_1252
  9
$INSBASE
 10
0.0
 20
0.0
 30
0.0
  9
$EXTMIN
 10
-179.0
 20
-7.1721719172
 30
0.0
  9
$EXTMAX
 10
179.0
 20
46.5304968284
 30
0.0
  9
$LIMMIN
 10
0.0
 20
0.0
  9
$LIMMAX
 10
420.0
 20
297.0
  9
$ORTHOMODE
 70
     0
  9
$REGENMODE
 70
     1
  9
$FILLMODE
 70
     1
  9
$QTEXTMODE
 70
     0
  9
$MIRRTEXT
 70
     1
  9
$LTSCALE
 40
1.0
  9
$ATTMODE
 70
     1
  9
$TEXTSIZE
 40
3.5
  9
$TRACEWID
 40
1.0
  9
$TEXTSTYLE
  7
Standard
  9
$CLAYER
  8
0
  9
$CELTYPE
  6
ByLayer
  9
$CECOLOR
 62
   256
  9
$CELTSCALE
 40
1.0
  9
$DISPSILH
 70
     0
  9
$DIMSCALE
 40
1.0
  9
$DIMASZ
 40
3.302
  9
$DIMEXO
 40
1.0
  9
$DIMDLI
 40
3.75
  9
$DIMRND
 40
0.0
  9
$DIMDLE
 40
0.0
  9
$DIMEXE
 40
1.0
  9
$DIMTP
 40
0.0
  9
$DIMTM
 40
0.0
  9
$DIMTXT
 40
3.5
  9
$DIMCEN
 40
2.5
  9
$DIMTSZ
 40
0.0
  9
$DIMTOL
 70
     0
  9
$DIMLIM
 70
     0
  9
$DIMTIH
 70
     1
  9
$DIMTOH
 70
     1
  9
$DIMSE1
 70
     0
  9
$DIMSE2
 70
     0
  9
$DIMTAD
 70
     1
  9
$DIMZIN
 70
     1
  9
$DIMBLK
  1

  9
$DIMASO
 70
     1
  9
$DIMSHO
 70
     1
  9
$DIMPOST
  1

  9
$DIMAPOST
  1

  9
$DIMALT
 70
     0
  9
$DIMALTD
 70
     3
  9
$DIMALTF
 40
0.0393700787
  9
$DIMLFAC
 40
1.0
  9
$DIMTOFL
 70
     1
  9
$DIMTVP
 40
0.0
  9
$DIMTIX
 70
     0
  9
$DIMSOXD
 70
     0
  9
$DIMSAH
 70
     0
  9
$DIMBLK1
  1

  9
$DIMBLK2
  1

  9
$DIMSTYLE
  2
ISO-25
  9
$DIMCLRD
 70
     0
  9
$DIMCLRE
 70
     0
  9
$DIMCLRT
 70
     0
  9
$DIMTFAC
 40
1.0
  9
$DIMGAP
 40
1.524
  9
$DIMJUST
 70
     0
  9
$DIMSD1
 70
     0
  9
$DIMSD2
 70
     0
  9
$DIMTOLJ
 70
     0
  9
$DIMTZIN
 70
     1
  9
$DIMALTZ
 70
     0
  9
$DIMALTTZ
 70
     0
  9
$DIMUPT
 70
     0
  9
$DIMDEC
 70
     2
  9
$DIMTDEC
 70
     2
  9
$DIMALTU
 70
     2
  9
$DIMALTTD
 70
     3
  9
$DIMTXSTY
  7
Standard
  9
$DIMAUNIT
 70
     0
  9
$DIMADEC
 70
     2
  9
$DIMALTRND
 40
0.0
  9
$DIMAZIN
 70
     0
  9
$DIMDSEP
 70
    44
  9
$DIMATFIT
 70
     3
  9
$DIMFRAC
 70
     0
  9
$DIMLDRBLK
  1

  9
$DIMLUNIT
 70
     2
  9
$DIMLWD
 70
    -2
  9
$DIMLWE
 70
    -2
  9
$DIMTMOVE
 70
     0
  9
$LUNITS
 70
     2
  9
$LUPREC
 70
     2
  9
$SKETCHINC
 40
1.0
  9
$FILLETRAD
 40
10.0
  9
$AUNITS
 70
     0
  9
$AUPREC
 70
     2
  9
$MENU
  1
.
  9
$ELEVATION
 40
0.0
  9
$PELEVATION
 40
0.0
  9
$THICKNESS
 40
0.0
  9
$LIMCHECK
 70
     0
  9
$CHAMFERA
 40
0.0
  9
$CHAMFERB
 40
0.0
  9
$CHAMFERC
 40
0.0
  9
$CHAMFERD
 40
0.0
  9
$SKPOLY
 70
     0
  9
$TDCREATE
 40
2458837.515585046
  9
$TDUCREATE
 40
2458837.515585046
  9
$TDUPDATE
 40
2458837.515662882
  9
$TDUUPDATE
 40
2458837.515662882
  9
$TDINDWG
 40
0.0000000116
  9
$TDUSRTIMER
 40
0.0000000116
  9
$USRTIMER
 70
     1
  9
$ANGBASE
 50
0.0
  9
$ANGDIR
 70
     0
  9
$PDMODE
 70
     0
  9
$PDSIZE
 40
-1.0
  9
$PLINEWID
 40
0.0
  9
$SPLFRAME
 70
     0
  9
$SPLINETYPE
 70
     6
  9
$SPLINESEGS
 70
     8
  9
$HANDSEED
  5
5BA
  9
$SURFTAB1
 70
     6
  9
$SURFTAB2
 70
     6
  9
$SURFTYPE
 70
     6
  9
$SURFU
 70
     6
  9
$SURFV
 70
     6
  9
$UCSBASE
  2

  9
$UCSNAME
  2

  9
$UCSORG
 10
0.0
 20
0.0
 30
0.0
  9
$UCSXDIR
 10
1.0
 20
0.0
 30
0.0
  9
$UCSYDIR
 10
0.0
 20
1.0
 30
0.0
  9
$UCSORTHOREF
  2

  9
$UCSORTHOVIEW
 70
     0
  9
$UCSORGTOP
 10
0.0
 20
0.0
 30
0.0
  9
$UCSORGBOTTOM
 10
0.0
 20
0.0
 30
0.0
  9
$UCSORGLEFT
 10
0.0
 20
0.0
 30
0.0
  9
$UCSORGRIGHT
 10
0.0
 20
0.0
 30
0.0
  9
$UCSORGFRONT
 10
0.0
 20
0.0
 30
0.0
  9
$UCSORGBACK
 10
0.0
 20
0.0
 30
0.0
  9
$PUCSBASE
  2

  9
$PUCSNAME
  2

  9
$PUCSORG
 10
0.0
 20
0.0
 30
0.0
  9
$PUCSXDIR
 10
1.0
 20
0.0
 30
0.0
  9
$PUCSYDIR
 10
0.0
 20
1.0
 30
0.0
  9
$PUCSORTHOREF
  2

  9
$PUCSORTHOVIEW
 70
     0
  9
$PUCSORGTOP
 10
0.0
 20
0.0
 30
0.0
  9
$PUCSORGBOTTOM
 10
0.0
 20
0.0
 30
0.0
  9
$PUCSORGLEFT
 10
0.0
 20
0.0
 30
0.0
  9
$PUCSORGRIGHT
 10
0.0
 20
0.0
 30
0.0
  9
$PUCSORGFRONT
 10
0.0
 20
0.0
 30
0.0
  9
$PUCSORGBACK
 10
0.0
 20
0.0
 30
0.0
  9
$USERI1
 70
     0
  9
$USERI2
 70
     0
  9
$USERI3
 70
     0
  9
$USERI4
 70
     0
  9
$USERI5
 70
     0
  9
$USERR1
 40
0.0
  9
$USERR2
 40
0.0
  9
$USERR3
 40
0.0
  9
$USERR4
 40
0.0
  9
$USERR5
 40
0.0
  9
$WORLDVIEW
 70
     1
  9
$SHADEDGE
 70
     3
  9
$SHADEDIF
 70
    70
  9
$TILEMODE
 70
     1
  9
$MAXACTVP
 70
    64
  9
$PINSBASE
 10
0.0
 20
0.0
 30
0.0
  9
$PLIMCHECK
 70
     0
  9
$PEXTMIN
 10
-179.0
 20
-7.1721719172
 30
0.0
  9
$PEXTMAX
 10
179.0
 20
46.5304968284
 30
0.0
  9
$PLIMMIN
 10
-206.859922179
 20
-17.6196427343
  9
$PLIMMAX
 10
206.859922179
 20
274.9095401451
  9
$UNITMODE
 70
     0
  9
$VISRETAIN
 70
     1
  9
$PLINEGEN
 70
     0
  9
$PSLTSCALE
 70
     1
  9
$TREEDEPTH
 70
  3020
  9
$CMLSTYLE
  2
Standard
  9
$CMLJUST
 70
     0
  9
$CMLSCALE
 40
20.0
  9
$PROXYGRAPHICS
 70
     1
  9
$MEASUREMENT
 70
     1
  9
$CELWEIGHT
370
    -1
  9
$ENDCAPS
280
     0
  9
$JOINSTYLE
280
     0
  9
$LWDISPLAY
290
     1
  9
$INSUNITS
 70
     4
  9
$HYPERLINKBASE
  1

  9
$STYLESHEET
  1

  9
$XEDIT
290
     1
  9
$CEPSNTYPE
380
     0
  9
$PSTYLEMODE
290
     1
  9
$FINGERPRINTGUID
  2
{31b2b732-84bc-4d33-a8af-90857f95080e}
  9
$VERSIONGUID
  2
{FAEB1C32-E019-11D5-929B-00C0DF256EC4}
  9
$EXTNAMES
290
     1
  9
$PSVPSCALE
 40
0.0
  9
$OLESTARTUP
290
     0
  0
ENDSEC
  0
SECTION
  2
CLASSES
  0
CLASS
  1
ACDBDICTIONARYWDFLT
  2
AcDbDictionaryWithDefault
  3
ObjectDBX Classes
 90
        0
280
     0
281
     0
  0
CLASS
  1
VISUALSTYLE
  2
AcDbVisualStyle
  3
ObjectDBX Classes
 90
     4095
280
     0
281
     0
  0
CLASS
  1
MATERIAL
  2
AcDbMaterial
  3
ObjectDBX Classes
 90
     1153
280
     0
281
     0
  0
CLASS
  1
SCALE
  2
AcDbScale
  3
ObjectDBX Classes
 90
     1153
280
     0
281
     0
  0
CLASS
  1
TABLESTYLE
  2
AcDbTableStyle
  3
ObjectDBX Classes
 90
     4095
280
     0
281
     0
  0
CLASS
  1
MLEADERSTYLE
  2
AcDbMLeaderStyle
  3
ACDB_MLEADERSTYLE_CLASS
 90
     4095
280
     0
281
     0
  0
CLASS
  1
SUN
  2
AcDbSun
  3
SCENEOE
 90
     1153
280
     0
281
     0
  0
CLASS
  1
ACDBPLACEHOLDER
  2
AcDbPlaceHolder
  3
ObjectDBX Classes
 90
        0
280
     0
281
     0
  0
CLASS
  1
LAYOUT
  2
AcDbLayout
  3
ObjectDBX Classes
 90
        0
280
     0
281
     0
  0
ENDSEC
  0
SECTION
  2
TABLES
  0
TABLE
  2
VPORT
  5
8
330
0
100
AcDbSymbolTable
 70
     1
  0
VPORT
  5
29
330
8
100
AcDbSymbolTableRecord
100
AcDbViewportTableRecord
  2
*Active
 70
     0
 10
0.0
 20
0.0
 11
1.0
 21
1.0
 12
0.0
 22
19.6791624556
 13
0.0
 23
0.0
 14
10.0
 24
10.0
 15
10.0
 25
10.0
 16
0.0
 26
0.0
 36
1.0
 17
0.0
 27
0.0
 37
0.0
 40
54.7767221205
 41
6.6663353677
 42
50.0
 43
0.0
 44
0.0
 50
0.0
 51
0.0
 71
     0
 72
   100
 73
     1
 74
     3
 75
     0
 76
     0
 77
     0
 78
     0
281
     0
 65
     1
110
0.0
120
0.0
130
0.0
111
1.0
121
0.0
131
0.0
112
0.0
122
1.0
132
0.0
 79
     0
146
0.0
  0
ENDTAB
  0
TABLE
  2
LTYPE
  5
5
330
0
100
AcDbSymbolTable
 70
     6
  0
LTYPE
  5
14
330
5
100
AcDbSymbolTableRecord
100
AcDbLinetypeTableRecord
  2
ByBlock
 70
     0
  3

 72
    65
 73
     0
 40
0.0
  0
LTYPE
  5
15
330
5
100
AcDbSymbolTableRecord
100
AcDbLinetypeTableRecord
  2
ByLayer
 70
     0
  3

 72
    65
 73
     0
 40
0.0
  0
LTYPE
  5
16
330
5
100
AcDbSymbolTableRecord
100
AcDbLinetypeTableRecord
  2
Continuous
 70
     0
  3
Solid line
 72
    65
 73
     0
 40
0.0
  0
LTYPE
  5
6E
330
5
100
AcDbSymbolTableRecord
100
AcDbLinetypeTableRecord
  2
HIDDEN
 70
     0
  3
Hidden __ __ __ __ __ __ __ __ __ __ __ __ __ __
 72
    65
 73
     2
 40
1.905
 49
1.27
 74
     0
 49
-0.635
 74
     0
  0
LTYPE
  5
6F
330
5
100
AcDbSymbolTableRecord
100
AcDbLinetypeTableRecord
  2
PHANTOM
 70
     0
  3
Phantom ______  __  __  ______  __  __  ______
 72
    65
 73
     6
 40
12.7
 49
6.35
 74
     0
 49
-1.27
 74
     0
 49
1.27
 74
     0
 49
-1.27
 74
     0
 49
1.27
 74
     0
 49
-1.27
 74
     0
  0
LTYPE
  5
70
330
5
100
AcDbSymbolTableRecord
100
AcDbLinetypeTableRecord
  2
CENTER
 70
     0
  3
Center ____ _ ____ _ ____ _ ____ _ ____ _ ____
 72
    65
 73
     4
 40
10.16
 49
6.35
 74
     0
 49
-1.27
 74
     0
 49
1.27
 74
     0
 49
-1.27
 74
     0
  0
LTYPE
  5
71
330
5
100
AcDbSymbolTableRecord
100
AcDbLinetypeTableRecord
  2
CENTERX2
 70
     0
  3
Center (2x) ________  __  ________  __  _____
 72
    65
 73
     4
 40
20.32
 49
12.7
 74
     0
 49
-2.54
 74
     0
 49
2.54
 74
     0
 49
-2.54
 74
     0
  0
LTYPE
  5
72
330
5
100
AcDbSymbolTableRecord
100
AcDbLinetypeTableRecord
  2
DOT2
 70
     0
  3
Dot (.5x) ........................................
 72
    65
 73
     2
 40
0.635
 49
0.0
 74
     0
 49
-0.635
 74
     0
  0
ENDTAB
  0
TABLE
  2
LAYER
  5
2
330
0
100
AcDbSymbolTable
 70
     1
  0
LAYER
  5
10
330
2
100
AcDbSymbolTableRecord
100
AcDbLayerTableRecord
  2
0
 70
     0
 62
     7
  6
Continuous
370
    -3
390
F
  0
ENDTAB
  0
TABLE
  2
STYLE
  5
3
330
0
100
AcDbSymbolTable
 70
     1
  0
STYLE
  5
11
330
3
100
AcDbSymbolTableRecord
100
AcDbTextStyleTableRecord
  2
Standard
 70
     0
 40
0.0
 41
1.0
 50
0.0
 71
     0
 42
3.5
  3
txt
  4

  0
ENDTAB
  0
TABLE
  2
VIEW
  5
6
330
0
100
AcDbSymbolTable
 70
     0
  0
ENDTAB
  0
TABLE
  2
UCS
  5
7
330
0
100
AcDbSymbolTable
 70
     0
  0
ENDTAB
  0
TABLE
  2
APPID
  5
9
330
0
100
AcDbSymbolTable
 70
     1
  0
APPID
  5
12
330
9
100
AcDbSymbolTableRecord
100
AcDbRegAppTableRecord
  2
ACAD
 70
     0
  0
ENDTAB
  0
TABLE
  2
DIMSTYLE
  5
A
330
0
100
AcDbSymbolTable
 70
     1
100
AcDbDimStyleTable
  0
DIMSTYLE
105
27
330
A
100
AcDbSymbolTableRecord
100
AcDbDimStyleTableRecord
  2
ISO-25
 70
     0
 41
2.5
 42
0.625
 43
3.75
 44
1.25
 73
     0
 74
     0
 77
     1
 78
     8
140
2.5
141
2.5
143
0.0393700787
147
0.625
171
     3
172
     1
178
     0
271
     2
272
     2
274
     3
278
    44
283
     0
284
     8
340
11
  0
ENDTAB
  0
TABLE
  2
BLOCK_RECORD
  5
1
330
0
100
AcDbSymbolTable
 70
     3
  0
BLOCK_RECORD
  5
1F
330
1
100
AcDbSymbolTableRecord
100
AcDbBlockTableRecord
  2
*Model_Space
340
22
  0
BLOCK_RECORD
  5
1B
330
1
100
AcDbSymbolTableRecord
100
AcDbBlockTableRecord
  2
*Paper_Space
340
1E
  0
BLOCK_RECORD
  5
23
330
1
100
AcDbSymbolTableRecord
100
AcDbBlockTableRecord
  2
*Paper_Space0
340
26
  0
BLOCK_RECORD
  5
2DA
330
1
100
AcDbSymbolTableRecord
100
AcDbBlockTableRecord
  2
*Paper_Space1
340
2DB
  0
BLOCK_RECORD
  5
30E
330
1
100
AcDbSymbolTableRecord
100
AcDbBlockTableRecord
  2
*Paper_Space2
340
30F
  0
ENDTAB
  0
ENDSEC
  0
SECTION
  2
BLOCKS
  0
BLOCK
  5
20
330
1F
100
AcDbEntity
  8
0
100
AcDbBlockBegin
  2
*Model_Space
 70
     0
 10
0.0
 20
0.0
 30
0.0
  3
*Model_Space
  1

  0
ENDBLK
  5
21
330
1F
100
AcDbEntity
  8
0
100
AcDbBlockEnd
  0
BLOCK
  5
1C
330
1B
100
AcDbEntity
 67
     1
  8
0
100
AcDbBlockBegin
  2
*Paper_Space
 70
     0
 10
0.0
 20
0.0
 30
0.0
  3
*Paper_Space
  1

  0
ENDBLK
  5
1D
330
1B
100
AcDbEntity
 67
     1
  8
0
100
AcDbBlockEnd
  0
BLOCK
  5
24
330
23
100
AcDbEntity
  8
0
100
AcDbBlockBegin
  2
*Paper_Space0
 70
     0
 10
0.0
 20
0.0
 30
0.0
  3
*Paper_Space0
  1

  0
LWPOLYLINE
  5
27E
330
23
100
AcDbEntity
  8
0
  6
Continuous
 62
     7
370
    25
100
AcDbPolyline
 90
        3
 70
   128
 43
0.0
 10
-50.5
 20
-1.6429959296
 10
-50.4331401866
 20
-0.5480044201
 10
-50.2454537827
 20
0.4823365468
  0
SPLINE
  5
280
330
23
100
AcDbEntity
  8
0
  6
Continuous
 62
     7
370
    25
100
AcDbSpline
210
0.0
220
0.0
230
1.0
 70
     8
 71
     3
 72
    22
 73
    18
 74
     0
 42
0.000000001
 43
0.00000001
 40
0.0
 40
0.0
 40
0.0
 40
0.0
 40
0.125
 40
0.125
 40
0.25
 40
0.25
 40
0.375
 40
0.375
 40
0.5
 40
0.5
 40
0.625
 40
0.625
 40
0.75
 40
0.75
 40
0.875
 40
0.875
 40
1.0
 40
1.0
 40
1.0
 40
1.0
 10
38.00890806799814
 20
18.35596647503268
 30
0.0
 10
37.99872661763115
 20
17.29535517108178
 30
0.0
 10
37.89387851039164
 20
16.19598586238253
 30
0.0
 10
37.46007762777131
 20
13.97134817197255
 30
0.0
 10
37.13076557492096
 20
12.8463098431277
 30
0.0
 10
36.23234340816858
 20
10.639087144015
 30
0.0
 10
35.66303064539686
 20
9.557353858142827
 30
0.0
 10
34.297795047107
 20
7.512265030470963
 30
0.0
 10
33.50196938822098
 20
6.549442948893522
 30
0.0
 10
31.72782186290377
 20
4.809033782189335
 30
0.0
 10
30.74989940051831
 20
4.03183850577776
 30
0.0
 10
28.6789784261674
 20
2.706114978831234
 30
0.0
 10
27.58651514165669
 20
2.157673645948044
 30
0.0
 10
25.36245179913546
 20
1.301790078140172
 30
0.0
 10
24.23129885205116
 20
0.9941365720247466
 30
0.0
 10
21.99874326794424
 20
0.603122987570568
 30
0.0
 10
20.89756374418297
 20
0.5193992815460056
 30
0.0
 10
19.83695244023206
 20
0.5295807319129764
 30
0.0
  0
SPLINE
  5
282
330
23
100
AcDbEntity
  8
0
  6
Continuous
 62
     7
370
    25
100
AcDbSpline
210
0.0
220
0.0
230
1.0
 70
     8
 71
     3
 72
    29
 73
    25
 74
     0
 42
0.000000001
 43
0.00000001
 40
0.0
 40
0.0
 40
0.0
 40
0.0
 40
0.1249999999999998
 40
0.1249999999999998
 40
0.1874999999999998
 40
0.1874999999999998
 40
0.2499999999999997
 40
0.3124999999999996
 40
0.3124999999999996
 40
0.3749999999999995
 40
0.3749999999999995
 40
0.4999999999999993
 40
0.4999999999999993
 40
0.5624999999999994
 40
0.5624999999999994
 40
0.6249999999999996
 40
0.6249999999999996
 40
0.7499999999999997
 40
0.7499999999999997
 40
0.8124999999999998
 40
0.8124999999999998
 40
0.8749999999999999
 40
0.8749999999999999
 40
1.0
 40
1.0
 40
1.0
 40
1.0
 10
19.84655160369447
 20
1.529534658882028
 30
0.0
 10
20.96896108304727
 20
1.518759970395415
 30
0.0
 10
22.0801952318847
 20
1.618188862468874
 30
0.0
 10
23.73040301083348
 20
1.931458635408018
 30
0.0
 10
24.27605407227606
 20
2.063412798896984
 30
0.0
 10
25.34229693086409
 20
2.377199090064102
 30
0.0
 10
26.3882629008583
 20
2.741692454375076
 30
0.0
 10
27.39421177074383
 20
3.206257879191828
 30
0.0
 10
28.37984107518704
 20
3.721637100532232
 30
0.0
 10
28.86508544882216
 20
4.006535306632201
 30
0.0
 10
30.26625382163431
 20
4.925381573817234
 30
0.0
 10
31.12796705793197
 20
5.620863934439179
 30
0.0
 10
32.31443666501255
 20
6.785603493361585
 30
0.0
 10
32.69211692440524
 20
7.194247258988356
 30
0.0
 10
33.41070606098476
 20
8.05364884796133
 30
0.0
 10
33.74809376411999
 20
8.500504025128222
 30
0.0
 10
34.68557176851078
 20
9.877010992307858
 30
0.0
 10
35.21651578098805
 20
10.8479852918829
 30
0.0
 10
35.87057185568152
 20
12.38513691126878
 30
0.0
 10
36.06538201736812
 20
12.91383935002226
 30
0.0
 10
36.39883621213244
 20
13.97810292317017
 30
0.0
 10
36.53841398274709
 20
14.51512693926922
 30
0.0
 10
36.87751186291871
 20
16.14054906016317
 30
0.0
 10
36.99817945254249
 20
17.24315615914228
 30
0.0
 10
37.00895414102909
 20
18.36556563849507
 30
0.0
  0
LINE
  5
2B3
330
23
100
AcDbEntity
  8
0
  6
Continuous
 62
     7
370
    25
100
AcDbLine
 10
-401.7884356926
 20
41.5787230109
 30
0.0
 11
-402.1340055772
 21
5.58038164
 31
0.0
  0
LINE
  5
2B4
330
23
100
AcDbEntity
  8
0
  6
Continuous
 62
     7
370
    25
100
AcDbLine
 10
-395.0
 20
4.5118519239
 30
0.0
 11
-395.0
 21
3.7918442694
 31
0.0
  0
LINE
  5
2B5
330
23
100
AcDbEntity
  8
0
  6
Continuous
 62
     7
370
    25
100
AcDbLine
 10
-50.5
 20
-7.1721719172
 30
0.0
 11
-50.5
 21
-1.6429959296
 31
0.0
  0
LINE
  5
2B6
330
23
100
AcDbEntity
  8
0
  6
Continuous
 62
     7
370
    25
100
AcDbLine
 10
19.8369524402
 20
0.5295807319
 30
0.0
 11
19.8465516037
 21
1.5295346589
 31
0.0
  0
LINE
  5
2B7
330
23
100
AcDbEntity
  8
0
  6
Continuous
 62
     7
370
    25
100
AcDbLine
 10
38.008908068
 20
18.355966475
 30
0.0
 11
37.008954141
 21
18.3655656385
 31
0.0
  0
LINE
  5
2B8
330
23
100
AcDbEntity
  8
0
  6
Continuous
 62
     7
370
    25
100
AcDbLine
 10
19.8369524402
 20
0.5295807319
 30
0.0
 11
-401.1436508137
 21
4.5708285496
 31
0.0
  0
LINE
  5
2B9
330
23
100
AcDbEntity
  8
0
  6
Continuous
 62
     7
370
    25
100
AcDbLine
 10
-396.7406702404
 20
46.5304968284
 30
0.0
 11
33.2395183563
 21
42.4028565396
 31
0.0
  0
LINE
  5
2BA
330
23
100
AcDbEntity
  8
0
  6
Continuous
 62
     7
370
    25
100
AcDbLine
 10
-222.7486869478
 20
44.860242386
 30
0.0
 11
-223.1518518132
 21
2.8621774533
 31
0.0
  0
LINE
  5
2BB
330
23
100
AcDbEntity
  8
0
  6
Continuous
 62
     7
370
    25
100
AcDbLine
 10
38.1912921738
 20
37.3550910874
 30
0.0
 11
-401.7884356926
 21
41.5787230109
 31
0.0
  0
LINE
  5
2BC
330
23
100
AcDbEntity
  8
0
  6
Continuous
 62
     7
370
    25
100
AcDbLine
 10
-402.1340055772
 20
5.58038164
 30
0.0
 11
19.8465516037
 21
1.5295346589
 31
0.0
  0
LINE
  5
2BD
330
23
100
AcDbEntity
  8
0
  6
Continuous
 62
     7
370
    25
100
AcDbLine
 10
38.1912921738
 20
37.3550910874
 30
0.0
 11
38.008908068
 21
18.355966475
 31
0.0
  0
LINE
  5
2BE
330
23
100
AcDbEntity
  8
0
  6
Continuous
 62
     7
370
    25
100
AcDbLine
 10
37.008954141
 20
18.3655656385
 30
0.0
 11
37.1913382468
 21
37.3646902509
 31
0.0
  0
LINE
  5
2BF
330
23
100
AcDbEntity
  8
0
  6
Continuous
 62
     7
370
    25
100
AcDbLine
 10
0.0
 20
0.7200076545
 30
0.0
 11
0.0
 21
0.0
 31
0.0
  0
LINE
  5
2C0
330
23
100
AcDbEntity
  8
0
  6
Continuous
 62
     7
370
    25
100
AcDbLine
 10
-395.0
 20
3.7918442694
 30
0.0
 11
0.0
 21
0.0
 31
0.0
  0
LINE
  5
2C1
330
23
100
AcDbEntity
  8
0
  6
Continuous
 62
     7
370
    25
100
AcDbLine
 10
-123.9316677379
 20
-2.810489151
 30
0.0
 11
-132.1333308739
 21
-2.7317564184
 31
0.0
  0
LINE
  5
2C2
330
23
100
AcDbEntity
  8
0
  6
Continuous
 62
     7
370
    25
100
AcDbLine
 10
-264.0097924241
 20
-1.4657943804
 30
0.0
 11
-278.1902097371
 21
-1.3296679649
 31
0.0
  0
LINE
  5
2C3
330
23
100
AcDbEntity
  8
0
  6
Continuous
 62
     7
370
    25
100
AcDbLine
 10
-346.5
 20
2.6471593977
 30
0.0
 11
-282.0153266376
 21
0.5079824636
 31
0.0
  0
LINE
  5
2C4
330
23
100
AcDbEntity
  8
0
  6
Continuous
 62
     7
370
    25
100
AcDbLine
 10
-135.2004606495
 20
-1.6429959296
 30
0.0
 11
-217.1749027861
 21
-1.6429959296
 31
0.0
  0
LINE
  5
2C5
330
23
100
AcDbEntity
  8
0
  6
Continuous
 62
     7
370
    25
100
AcDbLine
 10
-164.0
 20
-3.4069891326
 30
0.0
 11
-164.0
 21
1.5743353422
 31
0.0
  0
LINE
  5
2C6
330
23
100
AcDbEntity
  8
0
  6
Continuous
 62
     7
370
    25
100
AcDbLine
 10
-260.6378524416
 20
-0.2011813938
 30
0.0
 11
-50.5
 21
-7.1721719172
 31
0.0
  0
LINE
  5
2C7
330
23
100
AcDbEntity
  8
0
  6
Continuous
 62
     7
370
    25
100
AcDbLine
 10
33.9016498605
 20
7.196892201
 30
0.0
 11
34.6124208597
 21
8.0051760533
 31
0.0
  0
LINE
  5
2C8
330
23
100
AcDbEntity
  8
0
  6
Continuous
 62
     7
370
    25
100
AcDbLine
 10
0.0
 20
0.0
 30
0.0
 11
6.0865301551
 21
0.6615793647
 31
0.0
  0
LINE
  5
2C9
330
23
100
AcDbEntity
  8
0
  6
Continuous
 62
     8
370
    25
100
AcDbLine
 10
-222.5
 20
2.8559199329
 30
0.0
 11
-222.5
 21
2.1359122783
 31
0.0
  0
LINE
  5
2CA
330
23
100
AcDbEntity
  8
0
  6
Continuous
 62
     8
370
    25
100
AcDbLine
 10
-10.0
 20
0.0959960575
 30
0.0
 11
-10.0
 21
0.816003712
 31
0.0
  0
LINE
  5
2CB
330
23
100
AcDbEntity
  8
0
  6
Continuous
 62
     8
370
    25
100
AcDbLine
 10
-233.0
 20
-1.1180233869
 30
0.0
 11
-233.0061260042
 21
2.2367669459
 31
0.0
  0
LINE
  5
2CC
330
23
100
AcDbEntity
  8
0
  6
Continuous
 62
     8
370
    25
100
AcDbLine
 10
-232.9822462837
 20
-1.1186123383
 30
0.0
 11
-232.988713919
 21
2.2365997967
 31
0.0
  0
LINE
  5
2CD
330
23
100
AcDbEntity
  8
0
  6
Continuous
 62
     8
370
    25
100
AcDbLine
 10
-217.1749027861
 20
-1.6429959296
 30
0.0
 11
-217.1749027861
 21
2.0847934445
 31
0.0
  0
LINE
  5
2CE
330
23
100
AcDbEntity
  8
0
  6
Continuous
 62
     8
370
    25
100
AcDbLine
 10
-50.5
 20
-1.6429959296
 30
0.0
 11
-120.6721835599
 21
-1.6429959296
 31
0.0
  0
ARC
  5
2CF
330
23
100
AcDbEntity
  8
0
  6
Continuous
 62
     7
370
    25
100
AcDbCircle
 10
-401.1340516503
 20
5.5707824766
 30
0.0
 40
0.9999999999999513
100
AcDbArc
 50
179.45
 51
269.45
  0
ARC
  5
2D0
330
23
100
AcDbEntity
  8
0
  6
Continuous
 62
     7
370
    25
100
AcDbCircle
 10
-396.7886660578
 20
41.5307271936
 30
0.0
 40
5.000000000000091
100
AcDbArc
 50
89.45
 51
179.45
  0
ARC
  5
2D1
330
23
100
AcDbEntity
  8
0
  6
Continuous
 62
     7
370
    25
100
AcDbCircle
 10
-278.1422139198
 20
3.6701016699
 30
0.0
 40
4.999999999999913
100
AcDbArc
 50
190.9869590328
 51
269.45
  0
ARC
  5
2D2
330
23
100
AcDbEntity
  8
0
  6
Continuous
 62
     7
370
    25
100
AcDbCircle
 10
-263.9617966068
 20
3.5339752544
 30
0.0
 40
4.999999999999956
100
AcDbArc
 50
269.45
 51
347.9130409672
  0
ARC
  5
2D3
330
23
100
AcDbEntity
  8
0
  6
Continuous
 62
     7
370
    25
100
AcDbCircle
 10
32.6333680786
 20
37.8584657013
 30
0.0
 40
4.58463807186564
100
AcDbArc
 50
353.8171276226
 51
82.4024888855
  0
ARC
  5
2D4
330
23
100
AcDbEntity
  8
0
  6
Continuous
 62
     7
370
    25
100
AcDbCircle
 10
33.1915225389
 20
37.4030869048
 30
0.0
 40
5.000000000000005
100
AcDbArc
 50
359.45
 51
89.45
  0
ARC
  5
2D5
330
23
100
AcDbEntity
  8
0
  6
Continuous
 62
     7
370
    25
100
AcDbCircle
 10
-123.8836719206
 20
2.1892804839
 30
0.0
 40
4.999999999999983
100
AcDbArc
 50
269.45
 51
347.9130409672
  0
ARC
  5
2D6
330
23
100
AcDbEntity
  8
0
  6
Continuous
 62
     7
370
    25
100
AcDbCircle
 10
-132.0853350566
 20
2.2680132164
 30
0.0
 40
5.000000000000044
100
AcDbArc
 50
190.9869590328
 51
269.45
  0
ARC
  5
2D7
330
23
100
AcDbEntity
  8
0
  6
Continuous
 62
     7
370
    25
100
AcDbCircle
 10
-270.2830810445
 20
3.3880643547
 30
0.0
 40
4.794626714996576
100
AcDbArc
 50
270.7372127874
 51
349.9248565832
  0
ARC
  5
2D8
330
23
100
AcDbEntity
  8
0
  6
Continuous
 62
     7
370
    25
100
AcDbCircle
 10
-264.3043268675
 20
3.3306706717
 30
0.0
 40
4.794626714996481
100
AcDbArc
 50
270.7372127874
 51
349.9248565832
  0
ARC
  5
2D9
330
23
100
AcDbEntity
  8
0
  6
Continuous
 62
     7
370
    25
100
AcDbCircle
 10
-353.4222520744
 20
-3.104573056
 30
0.0
 40
8.999999999996282
100
AcDbArc
 50
39.723354656
 51
45.6605410965
  0
VIEWPORT
  5
5B4
330
23
100
AcDbEntity
  8
0
100
AcDbViewport
 10
0.0
 20
0.0
 30
0.0
 40
205.6
 41
156.0
 68
     1
 69
     1
 12
0.0
 22
19.6791624556
 13
0.0
 23
0.0
 14
10.0
 24
10.0
 15
10.0
 25
10.0
 16
0.0
 26
0.0
 36
1.0
 17
0.0
 27
0.0
 37
0.0
 42
50.0
 43
0.0
 44
0.0
 45
277.06692607
 50
0.0
 51
0.0
 72
   100
 90
   557152
  1

281
     0
 71
     1
 74
     0
110
0.0
120
0.0
130
0.0
111
1.0
121
0.0
131
0.0
112
0.0
122
1.0
132
0.0
 79
     0
146
0.0
  0
ENDBLK
  5
25
330
23
100
AcDbEntity
  8
0
100
AcDbBlockEnd
  0
BLOCK
  5
2DC
330
2DA
100
AcDbEntity
  8
0
100
AcDbBlockBegin
  2
*Paper_Space1
 70
     0
 10
0.0
 20
0.0
 30
0.0
  3
*Paper_Space1
  1

  0
SPLINE
  5
2EE
330
2DA
100
AcDbEntity
  8
0
  6
Continuous
 62
     7
370
    25
100
AcDbSpline
210
0.0
220
0.0
230
1.0
 70
     8
 71
     3
 72
    12
 73
     8
 74
     0
 42
0.000000001
 43
0.00000001
 40
0.0
 40
0.0
 40
0.0
 40
0.0
 40
0.2500000000000011
 40
0.2500000000000011
 40
0.5000000000000021
 40
0.5000000000000021
 40
1.0
 40
1.0
 40
1.0
 40
1.0
 10
106.4999999999999
 20
-38.15807716600717
 30
0.0
 10
106.652517771795
 20
-38.15807716600717
 30
0.0
 10
106.8027425647372
 20
-38.1598183146292
 30
0.0
 10
107.0988631602772
 20
-38.1658763227857
 30
0.0
 10
107.2462235184395
 20
-38.17024369070174
 30
0.0
 10
107.6681226491049
 20
-38.18366836333906
 30
0.0
 10
107.9240925239208
 20
-38.19315637795933
 30
0.0
 10
108.1583123951776
 20
-38.19129217378364
 30
0.0
  0
SPLINE
  5
2F0
330
2DA
100
AcDbEntity
  8
0
  6
Continuous
 62
     7
370
    25
100
AcDbSpline
210
0.0
220
0.0
230
1.0
 70
     8
 71
     3
 72
    14
 73
    10
 74
     0
 42
0.000000001
 43
0.00000001
 40
0.0
 40
0.0
 40
0.0
 40
0.0
 40
0.25
 40
0.25
 40
0.5
 40
0.5
 40
0.75
 40
0.75
 40
1.0
 40
1.0
 40
1.0
 40
1.0
 10
-108.1583123951777
 20
-38.19129217378369
 30
0.0
 10
-108.0415251419433
 20
-38.19222170757594
 30
0.0
 10
-107.9187796731181
 20
-38.19026521414126
 30
0.0
 10
-107.6605680458757
 20
-38.18371388089026
 30
0.0
 10
-107.5238778159108
 20
-38.17907384249963
 30
0.0
 10
-107.2424666587713
 20
-38.17012897697394
 30
0.0
 10
-107.0985012250743
 20
-38.16587078757328
 30
0.0
 10
-106.803753325283
 20
-38.15983712756188
 30
0.0
 10
-106.6519716734004
 20
-38.1580771660072
 30
0.0
 10
-106.5
 20
-38.1580771660072
 30
0.0
  0
LINE
  5
2F8
330
2DA
100
AcDbEntity
  8
0
  6
Continuous
 62
     7
370
    25
100
AcDbLine
 10
-106.5
 20
-38.1647662406
 30
0.0
 11
106.5
 21
-38.1647662406
 31
0.0
  0
LINE
  5
2F9
330
2DA
100
AcDbEntity
  8
0
  6
Continuous
 62
     7
370
    25
100
AcDbLine
 10
174.0
 20
-33.2395183563
 30
0.0
 11
174.0
 21
222.7486869478
 31
0.0
  0
LINE
  5
2FA
330
2DA
100
AcDbEntity
  8
0
  6
Continuous
 62
     7
370
    25
100
AcDbLine
 10
-174.0
 20
-33.2395183563
 30
0.0
 11
174.0
 21
-33.2395183563
 31
0.0
  0
LINE
  5
2FB
330
2DA
100
AcDbEntity
  8
0
  6
Continuous
 62
     7
370
    25
100
AcDbLine
 10
-174.0
 20
222.7486869478
 30
0.0
 11
-174.0
 21
-33.2395183563
 31
0.0
  0
LINE
  5
2FC
330
2DA
100
AcDbEntity
  8
0
  6
Continuous
 62
     7
370
    25
100
AcDbLine
 10
-179.0
 20
-37.1913382468
 30
0.0
 11
-179.0
 21
223.1422526498
 31
0.0
  0
LINE
  5
2FD
330
2DA
100
AcDbEntity
  8
0
  6
Continuous
 62
     7
370
    25
100
AcDbLine
 10
179.0
 20
223.1422526498
 30
0.0
 11
179.0
 21
-37.1913382468
 31
0.0
  0
LINE
  5
2FE
330
2DA
100
AcDbEntity
  8
0
  6
Continuous
 62
     7
370
    25
100
AcDbLine
 10
178.0
 20
-38.1912921738
 30
0.0
 11
108.1583123952
 21
-38.1912921738
 31
0.0
  0
LINE
  5
2FF
330
2DA
100
AcDbEntity
  8
0
  6
Continuous
 62
     7
370
    25
100
AcDbLine
 10
-106.5
 20
-38.158077166
 30
0.0
 11
106.5
 21
-38.158077166
 31
0.0
  0
LINE
  5
300
330
2DA
100
AcDbEntity
  8
0
  6
Continuous
 62
     7
370
    25
100
AcDbLine
 10
-108.1583123952
 20
-38.1912921738
 30
0.0
 11
-178.0
 21
-38.1912921738
 31
0.0
  0
LINE
  5
301
330
2DA
100
AcDbEntity
  8
0
  6
Continuous
 62
     7
370
    25
100
AcDbLine
 10
106.5
 20
-38.1647662406
 30
0.0
 11
106.5
 21
-38.158077166
 31
0.0
  0
LINE
  5
302
330
2DA
100
AcDbEntity
  8
0
  6
Continuous
 62
     7
370
    25
100
AcDbLine
 10
-106.5
 20
-38.1647662406
 30
0.0
 11
-106.5
 21
-38.158077166
 31
0.0
  0
ARC
  5
303
330
2DA
100
AcDbEntity
  8
0
  6
Continuous
 62
     7
370
    25
100
AcDbCircle
 10
0.0
 20
222.7423212007
 30
0.0
 40
174.0000001164447
100
AcDbArc
 50
0.002096152
 51
179.997903848
  0
ARC
  5
304
330
2DA
100
AcDbEntity
  8
0
  6
Continuous
 62
     7
370
    25
100
AcDbCircle
 10
-175.2498848201
 20
353.0043644004
 30
0.0
 40
130.2616740284607
100
AcDbArc
 50
268.3502786547
 51
270.5497720225
  0
ARC
  5
305
330
2DA
100
AcDbEntity
  8
0
  6
Continuous
 62
     7
370
    25
100
AcDbCircle
 10
0.0
 20
222.790090738
 30
0.0
 40
179.0000001213821
100
AcDbArc
 50
0.0021100298
 51
179.9978899702
  0
ARC
  5
306
330
2DA
100
AcDbEntity
  8
0
  6
Continuous
 62
     7
370
    25
100
AcDbCircle
 10
175.2498848201
 20
353.0043644002
 30
0.0
 40
130.2616740282679
100
AcDbArc
 50
269.4502279775
 51
271.6497213453
  0
ARC
  5
307
330
2DA
100
AcDbEntity
  8
0
  6
Continuous
 62
     7
370
    25
100
AcDbCircle
 10
-343.1718185735
 20
175.664398195
 30
0.0
 40
268.8121101251008
100
AcDbArc
 50
307.6423589005
 51
309.0007888772
  0
ARC
  5
308
330
2DA
100
AcDbEntity
  8
0
  6
Continuous
 62
     7
370
    25
100
AcDbCircle
 10
343.1718185736
 20
175.6643981951
 30
0.0
 40
268.8121101253097
100
AcDbArc
 50
230.9992111228
 51
232.3576410995
  0
ARC
  5
309
330
2DA
100
AcDbEntity
  8
0
  6
Continuous
 62
     7
370
    25
100
AcDbCircle
 10
-178.000023036
 20
-37.1913152098
 30
0.0
 40
0.9999769642806053
100
AcDbArc
 50
180.0013199559
 51
270.0013198951
  0
ARC
  5
30A
330
2DA
100
AcDbEntity
  8
0
  6
Continuous
 62
     7
370
    25
100
AcDbCircle
 10
-425.4170659328
 20
165.7615402689
 30
0.0
 40
320.6430451080915
100
AcDbArc
 50
320.5002836887
 51
321.6377616768
  0
ARC
  5
30B
330
2DA
100
AcDbEntity
  8
0
  6
Continuous
 62
     7
370
    25
100
AcDbCircle
 10
436.2210552798
 20
174.4889092846
 30
0.0
 40
334.530987327364
100
AcDbArc
 50
218.3858500605
 51
219.476104574
  0
ARC
  5
30C
330
2DA
100
AcDbEntity
  8
0
  6
Continuous
 62
     7
370
    25
100
AcDbCircle
 10
178.000023036
 20
-37.1913152098
 30
0.0
 40
0.999976964280588
100
AcDbArc
 50
269.9986801049
 51
359.9986800441
  0
ARC
  5
30D
330
2DA
100
AcDbEntity
  8
0
  6
Continuous
 62
     7
370
    25
100
AcDbCircle
 10
0.0
 20
223.1356606226
 30
0.0
 40
179.0000001213821
100
AcDbArc
 50
0.0021100298
 51
179.9978899702
  0
VIEWPORT
  5
5B6
330
2DA
100
AcDbEntity
  8
0
100
AcDbViewport
 10
0.0
 20
0.0
 30
0.0
 40
205.6
 41
156.0
 68
     1
 69
     1
 12
0.0
 22
19.6791624556
 13
0.0
 23
0.0
 14
10.0
 24
10.0
 15
10.0
 25
10.0
 16
0.0
 26
0.0
 36
1.0
 17
0.0
 27
0.0
 37
0.0
 42
50.0
 43
0.0
 44
0.0
 45
277.06692607
 50
0.0
 51
0.0
 72
   100
 90
   557152
  1

281
     0
 71
     1
 74
     0
110
0.0
120
0.0
130
0.0
111
1.0
121
0.0
131
0.0
112
0.0
122
1.0
132
0.0
 79
     0
146
0.0
  0
ENDBLK
  5
2DD
330
2DA
100
AcDbEntity
  8
0
100
AcDbBlockEnd
  0
BLOCK
  5
310
330
30E
100
AcDbEntity
  8
0
100
AcDbBlockBegin
  2
*Paper_Space2
 70
     0
 10
0.0
 20
0.0
 30
0.0
  3
*Paper_Space2
  1

  0
SPLINE
  5
31B
330
30E
100
AcDbEntity
  8
0
  6
Continuous
 62
     7
370
    25
100
AcDbSpline
210
0.0
220
0.0
230
1.0
 70
    24
 71
     3
 72
    22
 73
    18
 74
     0
 42
0.000000001
 43
0.00000001
 40
0.0
 40
0.0
 40
0.0
 40
0.0
 40
0.125
 40
0.125
 40
0.2500000000000001
 40
0.2500000000000001
 40
0.3750000000000001
 40
0.3750000000000001
 40
0.5000000000000001
 40
0.5000000000000001
 40
0.6250000000000002
 40
0.6250000000000002
 40
0.7500000000000002
 40
0.7500000000000002
 40
0.8750000000000002
 40
0.8750000000000002
 40
1.0
 40
1.0
 40
1.0
 40
1.0
 10
178.0
 20
19.83695244023201
 30
0.0
 10
178.0000000000001
 20
20.89756374418289
 30
0.0
 10
178.0
 20
21.99874326794415
 30
0.0
 10
178.0
 20
24.23129885205111
 30
0.0
 10
178.0
 20
25.3624517991354
 30
0.0
 10
178.0
 20
27.58651514165664
 30
0.0
 10
178.0
 20
28.67897842616732
 30
0.0
 10
178.0
 20
30.74989940051826
 30
0.0
 10
178.0
 20
31.72782186290371
 30
0.0
 10
178.0
 20
33.50196938822092
 30
0.0
 10
178.0
 20
34.29779504710695
 30
0.0
 10
178.0
 20
35.6630306453968
 30
0.0
 10
178.0000000000001
 20
36.23234340816852
 30
0.0
 10
178.0
 20
37.13076557492087
 30
0.0
 10
177.9999999999999
 20
37.46007762777126
 30
0.0
 10
178.0
 20
37.89387851039155
 30
0.0
 10
178.0
 20
37.99872661763109
 30
0.0
 10
178.0
 20
38.00890806799806
 30
0.0
  0
SPLINE
  5
31D
330
30E
100
AcDbEntity
  8
0
  6
Continuous
 62
     7
370
    25
100
AcDbSpline
210
0.0
220
0.0
230
1.0
 70
    24
 71
     3
 72
    29
 73
    25
 74
     0
 42
0.000000001
 43
0.00000001
 40
0.0
 40
0.0
 40
0.0
 40
0.0
 40
0.125
 40
0.125
 40
0.1875000000000001
 40
0.1875000000000001
 40
0.2500000000000001
 40
0.3125000000000001
 40
0.3125000000000001
 40
0.3750000000000001
 40
0.3750000000000001
 40
0.5000000000000006
 40
0.5000000000000006
 40
0.5625000000000004
 40
0.5625000000000004
 40
0.6250000000000003
 40
0.6250000000000003
 40
0.7500000000000003
 40
0.7500000000000003
 40
0.8125000000000002
 40
0.8125000000000002
 40
0.8750000000000001
 40
0.8750000000000001
 40
1.0
 40
1.0
 40
1.0
 40
1.0
 10
179.0
 20
37.00895414102903
 30
0.0
 10
179.0
 20
36.99817945254241
 30
0.0
 10
179.0
 20
36.87743603044363
 30
0.0
 10
179.0
 20
36.53254422054242
 30
0.0
 10
179.0000000000001
 20
36.39013926978393
 30
0.0
 10
179.0
 20
36.05594166976483
 30
0.0
 10
178.9999999999998
 20
35.67143560570166
 30
0.0
 10
179.0
 20
35.18764414917474
 30
0.0
 10
179.0
 20
34.65343834417808
 30
0.0
 10
178.9999999999999
 20
34.35927719045143
 30
0.0
 10
178.9999999999999
 20
33.41370140636618
 30
0.0
 10
179.0000000000001
 20
32.70180452449403
 30
0.0
 10
179.0000000000001
 20
31.51450243101286
 30
0.0
 10
178.9999999999999
 20
31.09868347845349
 30
0.0
 10
178.9999999999999
 20
30.22564519321749
 30
0.0
 10
178.9999999999999
 20
29.77239538504581
 30
0.0
 10
178.9999999999999
 20
28.37814491142443
 30
0.0
 10
178.9999999999999
 20
27.39715678354601
 30
0.0
 10
179.0
 20
25.8477322387507
 30
0.0
 10
179.0000000000001
 20
25.31538737659006
 30
0.0
 10
179.0
 20
24.24491846662114
 30
0.0
 10
178.9999999999999
 20
23.70531388132699
 30
0.0
 10
178.9999999999999
 20
22.07368149400468
 30
0.0
 10
179.0000000000001
 20
20.96896108304722
 30
0.0
 10
179.0
 20
19.84655160369439
 30
0.0
  0
SPLINE
  5
320
330
30E
100
AcDbEntity
  8
0
  6
Continuous
 62
     7
370
    25
100
AcDbSpline
210
0.0
220
0.0
230
1.0
 70
    24
 71
     3
 72
    10
 73
     6
 74
     0
 42
0.000000001
 43
0.00000001
 40
0.0
 40
0.0
 40
0.0
 40
0.0
 40
0.5
 40
0.5
 40
1.0
 40
1.0
 40
1.0
 40
1.0
 10
174.4999999999999
 20
25.66950624437442
 30
0.0
 10
174.4999999999999
 20
24.68470424588923
 30
0.0
 10
174.5
 20
23.6918058787085
 30
0.0
 10
174.4999999999999
 20
21.73443517278098
 30
0.0
 10
174.4999999999999
 20
20.77006490482455
 30
0.0
 10
174.4999999999999
 20
19.83695244023201
 30
0.0
  0
SPLINE
  5
321
330
30E
100
AcDbEntity
  8
0
  6
Continuous
 62
     7
370
    25
100
AcDbSpline
210
0.0
220
0.0
230
1.0
 70
     8
 71
     3
 72
    28
 73
    24
 74
     0
 42
0.000000001
 43
0.00000001
 40
0.0
 40
0.0
 40
0.0
 40
0.0
 40
0.0624999999999999
 40
0.0624999999999999
 40
0.1249999999999997
 40
0.1249999999999997
 40
0.1874999999999996
 40
0.1874999999999996
 40
0.2499999999999994
 40
0.2499999999999994
 40
0.3749999999999992
 40
0.3749999999999992
 40
0.4999999999999989
 40
0.4999999999999989
 40
0.6249999999999994
 40
0.6249999999999994
 40
0.7500000000000001
 40
0.7500000000000001
 40
0.8124999999999999
 40
0.8124999999999999
 40
0.8749999999999996
 40
0.8749999999999996
 40
1.0
 40
1.0
 40
1.0
 40
1.0
 10
166.5
 20
34.19818397681426
 30
0.0
 10
166.8048647487119
 20
34.19818397681426
 30
0.0
 10
167.1095754047553
 20
34.1791750042113
 30
0.0
 10
167.6997716206926
 20
34.1071712169454
 30
0.0
 10
167.9873616911667
 20
34.05433331840524
 30
0.0
 10
168.549516127247
 20
33.91779773281936
 30
0.0
 10
168.825075189239
 20
33.83348175603379
 30
0.0
 10
169.3491541598607
 20
33.64166054375708
 30
0.0
 10
169.5999453589195
 20
33.53372943572744
 30
0.0
 10
170.3247596750901
 20
33.17708221668641
 30
0.0
 10
170.7740841257155
 20
32.89323724372714
 30
0.0
 10
171.5894066559408
 20
32.26427803147524
 30
0.0
 10
171.9594811613643
 20
31.91749533007687
 30
0.0
 10
172.6362311981516
 20
31.15769199633603
 30
0.0
 10
172.9439560822254
 20
30.74166904997114
 30
0.0
 10
173.4800028562342
 20
29.86058964175678
 30
0.0
 10
173.7106484294238
 20
29.3936538947526
 30
0.0
 10
173.997550334897
 20
28.64870514580409
 30
0.0
 10
174.0833983470112
 20
28.3920716631772
 30
0.0
 10
174.2312785108218
 20
27.87189260560546
 30
0.0
 10
174.2937319720092
 20
27.60745622326055
 30
0.0
 10
174.4456041223048
 20
26.80070796230741
 30
0.0
 10
174.5
 20
26.24505940560748
 30
0.0
 10
174.5
 20
25.66950624437428
 30
0.0
  0
SPLINE
  5
323
330
30E
100
AcDbEntity
  8
0
  6
Continuous
 62
     7
370
    25
100
AcDbSpline
210
0.0
220
0.0
230
1.0
 70
    24
 71
     3
 72
     8
 73
     4
 74
     0
 42
0.000000001
 43
0.00000001
 40
0.0
 40
0.0
 40
0.0
 40
0.0
 40
1.0
 40
1.0
 40
1.0
 40
1.0
 10
123.5000000000002
 20
34.19818397681426
 30
0.0
 10
123.5000000000002
 20
34.34159808458998
 30
0.0
 10
123.5000000000002
 20
34.48125845510511
 30
0.0
 10
123.5000000000002
 20
34.61704035453392
 30
0.0
  0
SPLINE
  5
325
330
30E
100
AcDbEntity
  8
0
  6
Continuous
 62
     7
370
    25
100
AcDbSpline
210
0.0
220
0.0
230
1.0
 70
    24
 71
     3
 72
    14
 73
    10
 74
     0
 42
0.000000001
 43
0.00000001
 40
0.0
 40
0.0
 40
0.0
 40
0.0
 40
0.25
 40
0.25
 40
0.5
 40
0.5
 40
0.75
 40
0.75
 40
1.0
 40
1.0
 40
1.0
 40
1.0
 10
109.4999999999999
 20
38.00890806799809
 30
0.0
 10
109.4999999999999
 20
38.00083267279717
 30
0.0
 10
109.4999999999999
 20
37.93334737013757
 30
0.0
 10
109.4999999999999
 20
37.66144823425907
 30
0.0
 10
109.4999999999999
 20
37.45691747235932
 30
0.0
 10
109.4999999999999
 20
36.89954019007533
 30
0.0
 10
109.4999999999999
 20
36.54660197266931
 30
0.0
 10
109.4999999999999
 20
35.69122626389282
 30
0.0
 10
109.4999999999999
 20
35.18875664883031
 30
0.0
 10
109.4999999999999
 20
34.61704035453392
 30
0.0
  0
SPLINE
  5
327
330
30E
100
AcDbEntity
  8
0
  6
Continuous
 62
     7
370
    25
100
AcDbSpline
210
0.0
220
0.0
230
1.0
 70
    24
 71
     3
 72
     8
 73
     4
 74
     0
 42
0.000000001
 43
0.00000001
 40
0.0
 40
0.0
 40
0.0
 40
0.0
 40
1.0
 40
1.0
 40
1.0
 40
1.0
 10
-123.5000000000001
 20
34.61704035455329
 30
0.0
 10
-123.5000000000001
 20
34.4812584551184
 30
0.0
 10
-123.5000000000001
 20
34.3415980845968
 30
0.0
 10
-123.5000000000001
 20
34.19818397681429
 30
0.0
  0
SPLINE
  5
329
330
30E
100
AcDbEntity
  8
0
  6
Continuous
 62
     7
370
    25
100
AcDbSpline
210
0.0
220
0.0
230
1.0
 70
     8
 71
     3
 72
    32
 73
    28
 74
     0
 42
0.000000001
 43
0.00000001
 40
0.0
 40
0.0
 40
0.0
 40
0.0
 40
0.1250000000000003
 40
0.1250000000000003
 40
0.1875000000000013
 40
0.1875000000000013
 40
0.2500000000000023
 40
0.2500000000000023
 40
0.3750000000000043
 40
0.3750000000000043
 40
0.437500000000005
 40
0.437500000000005
 40
0.5000000000000058
 40
0.5000000000000058
 40
0.6250000000000072
 40
0.6250000000000072
 40
0.687500000000006
 40
0.687500000000006
 40
0.7500000000000049
 40
0.7500000000000049
 40
0.8125000000000037
 40
0.8125000000000037
 40
0.8750000000000024
 40
0.8750000000000024
 40
0.9375000000000013
 40
0.9375000000000013
 40
1.0
 40
1.0
 40
1.0
 40
1.0
 10
-174.5
 20
25.66950624437434
 30
0.0
 10
-174.5
 20
26.245234520094
 30
0.0
 10
-174.4455608440269
 20
26.80164095729886
 30
0.0
 10
-174.2931600121415
 20
27.61014087774688
 30
0.0
 10
-174.2304547383736
 20
27.87526523884351
 30
0.0
 10
-174.0818602695654
 20
28.39699938979515
 30
0.0
 10
-173.9958933527612
 20
28.65335245465245
 30
0.0
 10
-173.7094622474019
 20
29.39603583395714
 30
0.0
 10
-173.4794699516988
 20
29.86134364822987
 30
0.0
 10
-173.0790640234232
 20
30.51965810267318
 30
0.0
 10
-172.9362739247106
 20
30.73244397214206
 30
0.0
 10
-172.6314941262956
 20
31.14507221823687
 30
0.0
 10
-172.4691696655805
 20
31.3451402635182
 30
0.0
 10
-171.960236193586
 20
31.91687730259168
 30
0.0
 10
-171.5898405399621
 20
32.2638113756292
 30
0.0
 10
-170.979642582454
 20
32.73473021476858
 30
0.0
 10
-170.7670398540425
 20
32.88339013541972
 30
0.0
 10
-170.3202162077261
 20
33.16335827093594
 30
0.0
 10
-170.0857693847823
 20
33.29459345256131
 30
0.0
 10
-169.6012444163933
 20
33.53317425523392
 30
0.0
 10
-169.3501050166034
 20
33.64126770806444
 30
0.0
 10
-168.8262889274504
 20
33.83308213088221
 30
0.0
 10
-168.5512336651505
 20
33.91733662939087
 30
0.0
 10
-167.9878026168778
 20
34.05427000800685
 30
0.0
 10
-167.6997779541891
 20
34.10717673992972
 30
0.0
 10
-167.1092567269173
 20
34.17920758382589
 30
0.0
 10
-166.8047393243749
 20
34.19818397681432
 30
0.0
 10
-166.4999999999999
 20
34.19818397681432
 30
0.0
  0
SPLINE
  5
32A
330
30E
100
AcDbEntity
  8
0
  6
Continuous
 62
     7
370
    25
100
AcDbSpline
210
0.0
220
0.0
230
1.0
 70
    24
 71
     3
 72
    10
 73
     6
 74
     0
 42
0.000000001
 43
0.00000001
 40
0.0
 40
0.0
 40
0.0
 40
0.0
 40
0.5
 40
0.5
 40
1.0
 40
1.0
 40
1.0
 40
1.0
 10
-174.5
 20
19.83695244023206
 30
0.0
 10
-174.5
 20
20.77006490482461
 30
0.0
 10
-174.4999999999999
 20
21.73443517278104
 30
0.0
 10
-174.5
 20
23.69180587870859
 30
0.0
 10
-174.5
 20
24.68470424588928
 30
0.0
 10
-174.5
 20
25.66950624437447
 30
0.0
  0
SPLINE
  5
32C
330
30E
100
AcDbEntity
  8
0
  6
Continuous
 62
     7
370
    25
100
AcDbSpline
210
0.0
220
0.0
230
1.0
 70
    24
 71
     3
 72
    22
 73
    18
 74
     0
 42
0.000000001
 43
0.00000001
 40
0.0
 40
0.0
 40
0.0
 40
0.0
 40
0.125
 40
0.125
 40
0.25
 40
0.25
 40
0.375
 40
0.375
 40
0.5
 40
0.5
 40
0.625
 40
0.625
 40
0.75
 40
0.75
 40
0.875
 40
0.875
 40
1.0
 40
1.0
 40
1.0
 40
1.0
 10
-178.0
 20
38.00890806799814
 30
0.0
 10
-178.0
 20
37.99872661763115
 30
0.0
 10
-178.0
 20
37.89387851039164
 30
0.0
 10
-178.0
 20
37.46007762777131
 30
0.0
 10
-178.0
 20
37.13076557492096
 30
0.0
 10
-178.0
 20
36.23234340816858
 30
0.0
 10
-178.0
 20
35.66303064539686
 30
0.0
 10
-178.0
 20
34.297795047107
 30
0.0
 10
-178.0
 20
33.50196938822098
 30
0.0
 10
-178.0
 20
31.72782186290377
 30
0.0
 10
-178.0
 20
30.74989940051831
 30
0.0
 10
-178.0
 20
28.6789784261674
 30
0.0
 10
-178.0
 20
27.58651514165669
 30
0.0
 10
-178.0
 20
25.36245179913546
 30
0.0
 10
-178.0000000000001
 20
24.23129885205116
 30
0.0
 10
-178.0
 20
21.99874326794424
 30
0.0
 10
-178.0
 20
20.89756374418297
 30
0.0
 10
-178.0
 20
19.83695244023206
 30
0.0
  0
SPLINE
  5
32E
330
30E
100
AcDbEntity
  8
0
  6
Continuous
 62
     7
370
    25
100
AcDbSpline
210
0.0
220
0.0
230
1.0
 70
    24
 71
     3
 72
    14
 73
    10
 74
     0
 42
0.000000001
 43
0.00000001
 40
0.0
 40
0.0
 40
0.0
 40
0.0
 40
0.2499999999999999
 40
0.2499999999999999
 40
0.4999999999999998
 40
0.4999999999999998
 40
0.7499999999999996
 40
0.7499999999999996
 40
1.0
 40
1.0
 40
1.0
 40
1.0
 10
-109.5
 20
34.61704035455323
 30
0.0
 10
-109.5
 20
35.18875664884646
 30
0.0
 10
-109.5
 20
35.69122626390611
 30
0.0
 10
-109.5
 20
36.5466019726777
 30
0.0
 10
-109.5
 20
36.89954019008165
 30
0.0
 10
-109.5
 20
37.45691747236243
 30
0.0
 10
-109.5
 20
37.66144823426107
 30
0.0
 10
-109.5
 20
37.93334737013798
 30
0.0
 10
-109.5
 20
38.00083267279722
 30
0.0
 10
-109.5
 20
38.00890806799811
 30
0.0
  0
SPLINE
  5
331
330
30E
100
AcDbEntity
  8
0
  6
Continuous
 62
     7
370
    25
100
AcDbSpline
210
0.0
220
0.0
230
1.0
 70
    24
 71
     3
 72
    29
 73
    25
 74
     0
 42
0.000000001
 43
0.00000001
 40
0.0
 40
0.0
 40
0.0
 40
0.0
 40
0.1249999999999998
 40
0.1249999999999998
 40
0.1874999999999998
 40
0.1874999999999998
 40
0.2499999999999997
 40
0.3124999999999996
 40
0.3124999999999996
 40
0.3749999999999995
 40
0.3749999999999995
 40
0.4999999999999993
 40
0.4999999999999993
 40
0.5624999999999994
 40
0.5624999999999994
 40
0.6249999999999996
 40
0.6249999999999996
 40
0.7499999999999997
 40
0.7499999999999997
 40
0.8124999999999998
 40
0.8124999999999998
 40
0.8749999999999999
 40
0.8749999999999999
 40
1.0
 40
1.0
 40
1.0
 40
1.0
 10
-179.0
 20
19.84655160369447
 30
0.0
 10
-179.0
 20
20.96896108304727
 30
0.0
 10
-179.0000000000001
 20
22.0801952318847
 30
0.0
 10
-179.0000000000001
 20
23.73040301083348
 30
0.0
 10
-178.9999999999999
 20
24.27605407227606
 30
0.0
 10
-178.9999999999999
 20
25.34229693086409
 30
0.0
 10
-179.0
 20
26.3882629008583
 30
0.0
 10
-179.0
 20
27.39421177074383
 30
0.0
 10
-179.0000000000001
 20
28.37984107518704
 30
0.0
 10
-178.9999999999999
 20
28.86508544882216
 30
0.0
 10
-178.9999999999999
 20
30.26625382163431
 30
0.0
 10
-179.0
 20
31.12796705793197
 30
0.0
 10
-179.0
 20
32.31443666501255
 30
0.0
 10
-179.0000000000001
 20
32.69211692440524
 30
0.0
 10
-179.0
 20
33.41070606098476
 30
0.0
 10
-178.9999999999999
 20
33.74809376411999
 30
0.0
 10
-178.9999999999999
 20
34.68557176851078
 30
0.0
 10
-179.0
 20
35.21651578098805
 30
0.0
 10
-179.0000000000001
 20
35.87057185568152
 30
0.0
 10
-178.9999999999999
 20
36.06538201736812
 30
0.0
 10
-179.0
 20
36.39883621213244
 30
0.0
 10
-179.0000000000001
 20
36.53841398274709
 30
0.0
 10
-179.0000000000001
 20
36.87751186291871
 30
0.0
 10
-179.0
 20
36.99817945254249
 30
0.0
 10
-179.0
 20
37.00895414102909
 30
0.0
  0
SPLINE
  5
333
330
30E
100
AcDbEntity
  8
0
  6
Continuous
 62
     7
370
    25
100
AcDbSpline
210
0.0
220
0.0
230
1.0
 70
    24
 71
     3
 72
     9
 73
     5
 74
     0
 42
0.000000001
 43
0.00000001
 40
0.0
 40
0.0
 40
0.0
 40
0.0
 40
0.5
 40
1.0
 40
1.0
 40
1.0
 40
1.0
 10
173.5
 20
19.84655160369439
 30
0.0
 10
173.5
 20
20.78850608078658
 30
0.0
 10
173.4999999999999
 20
22.64805978702955
 30
0.0
 10
173.5000000000001
 20
24.46085477228358
 30
0.0
 10
173.5
 20
25.35507464093986
 30
0.0
  0
LWPOLYLINE
  5
334
330
30E
100
AcDbEntity
  8
0
  6
Continuous
 62
     7
370
    25
100
AcDbPolyline
 90
        9
 70
   128
 43
0.0
 10
173.5
 20
25.3550746409
 10
173.5192147196
 20
25.4164172037
 10
173.5761204675
 20
25.4754024062
 10
173.6685303877
 20
25.5297634801
 10
173.7928932188
 20
25.5774113599
 10
173.944429767
 20
25.6165149643
 10
174.1173165676
 20
25.6455715637
 10
174.304909678
 20
25.6634645293
 10
174.5
 20
25.6695062444
  0
SPLINE
  5
336
330
30E
100
AcDbEntity
  8
0
  6
Continuous
 62
     7
370
    25
100
AcDbSpline
210
0.0
220
0.0
230
1.0
 70
    24
 71
     3
 72
     9
 73
     5
 74
     0
 42
0.000000001
 43
0.00000001
 40
0.0
 40
0.0
 40
0.0
 40
0.0
 40
0.5
 40
1.0
 40
1.0
 40
1.0
 40
1.0
 10
-173.5
 20
25.35507464093995
 30
0.0
 10
-173.5
 20
24.46085477228363
 30
0.0
 10
-173.5
 20
22.64805978702963
 30
0.0
 10
-173.5
 20
20.78850608078667
 30
0.0
 10
-173.5
 20
19.84655160369447
 30
0.0
  0
LWPOLYLINE
  5
338
330
30E
100
AcDbEntity
  8
0
  6
Continuous
 62
     7
370
    25
100
AcDbPolyline
 90
        9
 70
   128
 43
0.0
 10
-173.5
 20
25.3550746409
 10
-173.5192147196
 20
25.4164172037
 10
-173.5761204675
 20
25.4754024062
 10
-173.6685303877
 20
25.5297634801
 10
-173.7928932188
 20
25.5774113599
 10
-173.944429767
 20
25.6165149643
 10
-174.1173165676
 20
25.6455715637
 10
-174.304909678
 20
25.6634645293
 10
-174.5
 20
25.6695062444
  0
SPLINE
  5
347
330
30E
100
AcDbEntity
  8
0
  6
Continuous
 62
     7
370
    25
100
AcDbSpline
210
0.0
220
0.0
230
1.0
 70
     8
 71
     3
 72
    30
 73
    26
 74
     0
 42
0.000000001
 43
0.00000001
 40
0.0
 40
0.0
 40
0.0
 40
0.0
 40
0.0624999999999993
 40
0.0624999999999993
 40
0.1249999999999987
 40
0.1249999999999987
 40
0.1874999999999981
 40
0.1874999999999981
 40
0.2499999999999974
 40
0.2499999999999974
 40
0.3124999999999967
 40
0.3124999999999967
 40
0.3749999999999961
 40
0.3749999999999961
 40
0.4999999999999953
 40
0.4999999999999953
 40
0.6249999999999946
 40
0.6249999999999946
 40
0.7499999999999938
 40
0.7499999999999938
 40
0.8124999999999949
 40
0.8124999999999949
 40
0.8749999999999959
 40
0.8749999999999959
 40
1.0
 40
1.0
 40
1.0
 40
1.0
 10
-166.4999999999999
 20
32.40998301683087
 30
0.0
 10
-166.7648091379372
 20
32.40998301683087
 30
0.0
 10
-167.0247385019631
 20
32.3948078602764
 30
0.0
 10
-167.5358413385092
 20
32.33666694068773
 30
0.0
 10
-167.7880955770833
 20
32.29343289506628
 30
0.0
 10
-168.2796455933089
 20
32.18152160657564
 30
0.0
 10
-168.5172014588503
 20
32.11325327440298
 30
0.0
 10
-168.9707451730631
 20
31.9577409969796
 30
0.0
 10
-169.1880332061851
 20
31.87021217103914
 30
0.0
 10
-169.6071943262769
 20
31.67722947158075
 30
0.0
 10
-169.8099250705521
 20
31.57121936100071
 30
0.0
 10
-170.197313396335
 20
31.34463083351349
 30
0.0
 10
-170.3818178778435
 20
31.22429091714965
 30
0.0
 10
-170.9120561846745
 20
30.84284675175061
 30
0.0
 10
-171.2348771794395
 20
30.56154557333121
 30
0.0
 10
-171.8286900073651
 20
29.94179954318182
 30
0.0
 10
-172.0992395611613
 20
29.6024475654261
 30
0.0
 10
-172.5731858752615
 20
28.88118440128545
 30
0.0
 10
-172.7790595078999
 20
28.49700455868942
 30
0.0
 10
-173.0374544435636
 20
27.87947292946436
 30
0.0
 10
-173.1154067444029
 20
27.66567897567026
 30
0.0
 10
-173.2510508995721
 20
27.22776844738117
 30
0.0
 10
-173.308576215024
 20
27.00455345665448
 30
0.0
 10
-173.4489164973901
 20
26.32154667504969
 30
0.0
 10
-173.5
 20
25.84851271447256
 30
0.0
 10
-173.5
 20
25.35507464093995
 30
0.0
  0
SPLINE
  5
349
330
30E
100
AcDbEntity
  8
0
  6
Continuous
 62
     7
370
    25
100
AcDbSpline
210
0.0
220
0.0
230
1.0
 70
     8
 71
     3
 72
    28
 73
    24
 74
     0
 42
0.000000001
 43
0.00000001
 40
0.0
 40
0.0
 40
0.0
 40
0.0
 40
0.1249999999999996
 40
0.1249999999999996
 40
0.1874999999999988
 40
0.1874999999999988
 40
0.2499999999999979
 40
0.2499999999999979
 40
0.3749999999999979
 40
0.3749999999999979
 40
0.4999999999999979
 40
0.4999999999999979
 40
0.6249999999999979
 40
0.6249999999999979
 40
0.7499999999999982
 40
0.7499999999999982
 40
0.8124999999999987
 40
0.8124999999999987
 40
0.8749999999999991
 40
0.8749999999999991
 40
0.9374999999999996
 40
0.9374999999999996
 40
1.0
 40
1.0
 40
1.0
 40
1.0
 10
173.5
 20
25.35507464093986
 30
0.0
 10
173.5
 20
25.84828991868651
 30
0.0
 10
173.4489762284309
 20
26.32053957303884
 30
0.0
 10
173.3092085784628
 20
27.00183154007291
 30
0.0
 10
173.2519524126577
 20
27.22438312906761
 30
0.0
 10
173.1170573519599
 20
27.66081619354363
 30
0.0
 10
173.0391177768456
 20
27.87516791441558
 30
0.0
 10
172.7803591695997
 20
28.49454947997643
 30
0.0
 10
172.5739498592348
 20
28.88004824819659
 30
0.0
 10
172.0982140522224
 20
29.60398169907297
 30
0.0
 10
171.8272742235714
 20
29.9433598352096
 30
0.0
 10
171.2349847608782
 20
30.56135043310423
 30
0.0
 10
170.9124297166543
 20
30.8426081990644
 30
0.0
 10
170.2040575613996
 20
31.35213839323972
 30
0.0
 10
169.8152365040767
 20
31.58147747935097
 30
0.0
 10
169.1882187828792
 20
31.87011116794417
 30
0.0
 10
168.9712466017182
 20
31.95755325416872
 30
0.0
 10
168.5175193280704
 20
32.11316006564977
 30
0.0
 10
168.2788544343455
 20
32.18164552256486
 30
0.0
 10
167.7918414008124
 20
32.29263595000539
 30
0.0
 10
167.542473439633
 20
32.33568379302218
 30
0.0
 10
167.0300626541575
 20
32.39442563988118
 30
0.0
 10
166.7650980941971
 20
32.40998301683081
 30
0.0
 10
166.5
 20
32.40998301683081
 30
0.0
  0
SPLINE
  5
351
330
30E
100
AcDbEntity
  8
0
  6
Continuous
 62
     7
370
    25
100
AcDbSpline
210
0.0
220
0.0
230
1.0
 70
     8
 71
     3
 72
    14
 73
    10
 74
     0
 42
0.000000001
 43
0.00000001
 40
0.0
 40
0.0
 40
0.0
 40
0.0
 40
0.25
 40
0.25
 40
0.5
 40
0.5
 40
0.75
 40
0.75
 40
1.0
 40
1.0
 40
1.0
 40
1.0
 10
-109.5
 20
34.61704035455407
 30
0.0
 10
-109.3679056584017
 20
34.61704035455407
 30
0.0
 10
-109.2382874982935
 20
34.59640505019348
 30
0.0
 10
-108.996153003579
 20
34.51677475812848
 30
0.0
 10
-108.8852558293817
 20
34.45784687632916
 30
0.0
 10
-108.7007974458032
 20
34.31149554158705
 30
0.0
 10
-108.6263003368455
 20
34.2230239595912
 30
0.0
 10
-108.5265007317016
 20
34.03218900018024
 30
0.0
 10
-108.5
 20
33.92664736134654
 30
0.0
 10
-108.5
 20
33.82334324360087
 30
0.0
  0
SPLINE
  5
354
330
30E
100
AcDbEntity
  8
0
  6
Continuous
 62
     7
370
    25
100
AcDbSpline
210
0.0
220
0.0
230
1.0
 70
     8
 71
     3
 72
    18
 73
    14
 74
     0
 42
0.000000001
 43
0.00000001
 40
0.0
 40
0.0
 40
0.0
 40
0.0
 40
0.2499999999999917
 40
0.2499999999999917
 40
0.3749999999999918
 40
0.3749999999999918
 40
0.499999999999992
 40
0.499999999999992
 40
0.7499999999999923
 40
0.7499999999999923
 40
0.8749999999999961
 40
0.8749999999999961
 40
1.0
 40
1.0
 40
1.0
 40
1.0
 10
123.4999999999999
 20
32.67919192059612
 30
0.0
 10
123.4999999999999
 20
32.78104170068005
 30
0.0
 10
123.465652647326
 20
32.90462991834109
 30
0.0
 10
123.3797576448767
 20
33.09302509392909
 30
0.0
 10
123.3452328084213
 20
33.1569186582398
 30
0.0
 10
123.2695473628793
 20
33.28028545638045
 30
0.0
 10
123.2280419894388
 20
33.34057626119014
 30
0.0
 10
123.0932947899051
 20
33.517254345025
 30
0.0
 10
122.9951277406741
 20
33.62458130205776
 30
0.0
 10
122.8299572175553
 20
33.76431936285254
 30
0.0
 10
122.7719036474526
 20
33.80738075943113
 30
0.0
 10
122.6449130889617
 20
33.87614628864774
 30
0.0
 10
122.5736671431551
 20
33.90164986054381
 30
0.0
 10
122.4999999999999
 20
33.90164986054381
 30
0.0
  0
SPLINE
  5
358
330
30E
100
AcDbEntity
  8
0
  6
Continuous
 62
     7
370
    25
100
AcDbSpline
210
0.0
220
0.0
230
1.0
 70
     8
 71
     3
 72
    14
 73
    10
 74
     0
 42
0.000000001
 43
0.00000001
 40
0.0
 40
0.0
 40
0.0
 40
0.0
 40
0.25
 40
0.25
 40
0.5
 40
0.5
 40
0.75
 40
0.75
 40
1.0
 40
1.0
 40
1.0
 40
1.0
 10
109.4999999999999
 20
34.61704035453392
 30
0.0
 10
109.3679056584016
 20
34.61704035453403
 30
0.0
 10
109.2382874982936
 20
34.5964050501931
 30
0.0
 10
108.9961530035792
 20
34.51677475812809
 30
0.0
 10
108.8852558293819
 20
34.4578468763285
 30
0.0
 10
108.7007974458034
 20
34.3114955415865
 30
0.0
 10
108.6263003368457
 20
34.22302395959123
 30
0.0
 10
108.5265007317016
 20
34.03218900018015
 30
0.0
 10
108.5
 20
33.92664736134901
 30
0.0
 10
108.4999999999999
 20
33.82334324360095
 30
0.0
  0
SPLINE
  5
35B
330
30E
100
AcDbEntity
  8
0
  6
Continuous
 62
     7
370
    25
100
AcDbSpline
210
0.0
220
0.0
230
1.0
 70
     8
 71
     3
 72
    18
 73
    14
 74
     0
 42
0.000000001
 43
0.00000001
 40
0.0
 40
0.0
 40
0.0
 40
0.0
 40
0.2500000000000127
 40
0.2500000000000127
 40
0.3750000000000137
 40
0.3750000000000137
 40
0.5000000000000148
 40
0.5000000000000148
 40
0.7500000000000075
 40
0.7500000000000075
 40
0.8750000000000038
 40
0.8750000000000038
 40
1.0
 40
1.0
 40
1.0
 40
1.0
 10
-123.5
 20
32.67919192059615
 30
0.0
 10
-123.5
 20
32.78104170068005
 30
0.0
 10
-123.4656526473261
 20
32.90462991834106
 30
0.0
 10
-123.3797576448768
 20
33.09302509392903
 30
0.0
 10
-123.3452328084214
 20
33.15691865823975
 30
0.0
 10
-123.2695473628794
 20
33.28028545638037
 30
0.0
 10
-123.228041989439
 20
33.34057626119002
 30
0.0
 10
-123.0932947899053
 20
33.51725434502487
 30
0.0
 10
-122.9951277406743
 20
33.62458130205759
 30
0.0
 10
-122.8299572175555
 20
33.76431936285235
 30
0.0
 10
-122.7719036474528
 20
33.80738075943093
 30
0.0
 10
-122.6449130889618
 20
33.87614628864746
 30
0.0
 10
-122.5736671431553
 20
33.90164986054353
 30
0.0
 10
-122.5
 20
33.90164986054353
 30
0.0
  0
SPLINE
  5
376
330
30E
100
AcDbEntity
  8
0
  6
Continuous
 62
     7
370
    25
100
AcDbSpline
210
0.0
220
0.0
230
1.0
 70
     8
 71
     3
 72
    26
 73
    22
 74
     0
 42
0.000000001
 43
0.00000001
 40
0.0
 40
0.0
 40
0.0
 40
0.0
 40
0.1250000000000029
 40
0.1250000000000029
 40
0.1875000000000027
 40
0.1875000000000027
 40
0.2500000000000026
 40
0.2500000000000026
 40
0.375000000000002
 40
0.375000000000002
 40
0.5000000000000017
 40
0.5000000000000017
 40
0.6250000000000013
 40
0.6250000000000013
 40
0.7500000000000009
 40
0.7500000000000009
 40
0.8750000000000006
 40
0.8750000000000006
 40
0.9375000000000003
 40
0.9375000000000003
 40
1.0
 40
1.0
 40
1.0
 40
1.0
 10
-123.722279144137
 20
9.13743310177248
 30
0.0
 10
-123.8414593964111
 20
9.141863913710496
 30
0.0
 10
-124.0028619931605
 20
9.077961587230204
 30
0.0
 10
-124.3006300944428
 20
8.903892169428024
 30
0.0
 10
-124.4098654562456
 20
8.832063162186627
 30
0.0
 10
-124.6394386181933
 20
8.669140675530763
 30
0.0
 10
-124.7604522281295
 20
8.577703274048554
 30
0.0
 10
-125.14039870729
 20
8.277916284568393
 30
0.0
 10
-125.417909198104
 20
8.042598762479452
 30
0.0
 10
-125.990332436304
 20
7.538120299918571
 30
0.0
 10
-126.2877412653258
 20
7.266949815414176
 30
0.0
 10
-126.9024855121722
 20
6.695069800596393
 30
0.0
 10
-127.2209482877395
 20
6.393156756065055
 30
0.0
 10
-127.8600312190956
 20
5.780266364031922
 30
0.0
 10
-128.1827277784661
 20
5.467348269001137
 30
0.0
 10
-128.8347004348713
 20
4.830970952667268
 30
0.0
 10
-129.1639738619049
 20
4.507491077305636
 30
0.0
 10
-129.663297694709
 20
4.015297104199317
 30
0.0
 10
-129.8306901655691
 20
3.850017360286451
 30
0.0
 10
-130.1651824344516
 20
3.519415840242929
 30
0.0
 10
-130.3340293386224
 20
3.352365913197652
 30
0.0
 10
-130.5
 20
3.188105148135806
 30
0.0
  0
SPLINE
  5
37C
330
30E
100
AcDbEntity
  8
0
  6
Continuous
 62
     7
370
    25
100
AcDbSpline
210
0.0
220
0.0
230
1.0
 70
     8
 71
     3
 72
    26
 73
    22
 74
     0
 42
0.000000001
 43
0.00000001
 40
0.0
 40
0.0
 40
0.0
 40
0.0
 40
0.125000000000001
 40
0.125000000000001
 40
0.1875000000000015
 40
0.1875000000000015
 40
0.2500000000000019
 40
0.2500000000000019
 40
0.3750000000000009
 40
0.3750000000000009
 40
0.4999999999999997
 40
0.4999999999999997
 40
0.6249999999999986
 40
0.6249999999999986
 40
0.7499999999999973
 40
0.7499999999999973
 40
0.8749999999999961
 40
0.8749999999999961
 40
0.937499999999998
 40
0.937499999999998
 40
1.0
 40
1.0
 40
1.0
 40
1.0
 10
123.722279144137
 20
9.13743310177248
 30
0.0
 10
123.841459396411
 20
9.141863913710496
 30
0.0
 10
124.0028619931605
 20
9.077961587230204
 30
0.0
 10
124.3006300944428
 20
8.903892169427996
 30
0.0
 10
124.4098654562455
 20
8.832063162186627
 30
0.0
 10
124.6394386181933
 20
8.669140675530763
 30
0.0
 10
124.7604522281294
 20
8.577703274048554
 30
0.0
 10
125.14039870729
 20
8.277916284568393
 30
0.0
 10
125.4179091981041
 20
8.042598762479452
 30
0.0
 10
125.990332436304
 20
7.538120299918543
 30
0.0
 10
126.2877412653258
 20
7.266949815414176
 30
0.0
 10
126.9024855121722
 20
6.695069800596393
 30
0.0
 10
127.2209482877395
 20
6.393156756065055
 30
0.0
 10
127.8600312190955
 20
5.780266364031922
 30
0.0
 10
128.1827277784661
 20
5.467348269001137
 30
0.0
 10
128.8347004348714
 20
4.830970952667268
 30
0.0
 10
129.1639738619049
 20
4.507491077305636
 30
0.0
 10
129.663297694709
 20
4.015297104199317
 30
0.0
 10
129.8306901655691
 20
3.850017360286423
 30
0.0
 10
130.1651824344516
 20
3.519415840242957
 30
0.0
 10
130.334029338623
 20
3.352365913198235
 30
0.0
 10
130.5
 20
3.188105148135806
 30
0.0
  0
SPLINE
  5
380
330
30E
100
AcDbEntity
  8
0
  6
Continuous
 62
     7
370
    25
100
AcDbSpline
210
0.0
220
0.0
230
1.0
 70
     8
 71
     3
 72
    26
 73
    22
 74
     0
 42
0.000000001
 43
0.00000001
 40
0.0
 40
0.0
 40
0.0
 40
0.0
 40
0.1250000000000003
 40
0.1250000000000003
 40
0.1875000000000004
 40
0.1875000000000004
 40
0.2500000000000005
 40
0.2500000000000005
 40
0.3749999999999983
 40
0.3749999999999983
 40
0.4999999999999987
 40
0.4999999999999987
 40
0.624999999999999
 40
0.624999999999999
 40
0.7499999999999993
 40
0.7499999999999993
 40
0.8749999999999997
 40
0.8749999999999997
 40
0.9374999999999998
 40
0.9374999999999998
 40
1.0
 40
1.0
 40
1.0
 40
1.0
 10
122.7540333075852
 20
8.139878965669034
 30
0.0
 10
122.8942619584093
 20
8.14422341289822
 30
0.0
 10
123.0843051943071
 20
8.088338609396589
 30
0.0
 10
123.4315594726824
 20
7.939376674613613
 30
0.0
 10
123.5582631266454
 20
7.878296222504827
 30
0.0
 10
123.8238686601186
 20
7.740335368616402
 30
0.0
 10
123.9635810166436
 20
7.663132133384848
 30
0.0
 10
124.4012039620853
 20
7.410804613263378
 30
0.0
 10
124.7189389881133
 20
7.214092515211712
 30
0.0
 10
125.3734859781634
 20
6.79323198620807
 30
0.0
 10
125.7130677219981
 20
6.567420882024166
 30
0.0
 10
126.4136604240691
 20
6.092197107985752
 30
0.0
 10
126.7755901750581
 20
5.842043571283123
 30
0.0
 10
127.5022207591945
 20
5.334036777199041
 30
0.0
 10
127.8691153502013
 20
5.074683151046449
 30
0.0
 10
128.6100445143588
 20
4.5474684207433
 30
0.0
 10
128.9840789224809
 20
4.279589154583846
 30
0.0
 10
129.5507966990768
 20
3.872319395364005
 30
0.0
 10
129.7406774168277
 20
3.735628838782618
 30
0.0
 10
130.1201653412264
 20
3.462160610125303
 30
0.0
 10
130.3115726318236
 20
3.324084603887917
 30
0.0
 10
130.5
 20
3.188105148135778
 30
0.0
  0
SPLINE
  5
381
330
30E
100
AcDbEntity
  8
0
  6
Continuous
 62
     7
370
    25
100
AcDbSpline
210
0.0
220
0.0
230
1.0
 70
     8
 71
     3
 72
    26
 73
    22
 74
     0
 42
0.000000001
 43
0.00000001
 40
0.0
 40
0.0
 40
0.0
 40
0.0
 40
0.1249999999999964
 40
0.1249999999999964
 40
0.1874999999999947
 40
0.1874999999999947
 40
0.249999999999993
 40
0.249999999999993
 40
0.374999999999992
 40
0.374999999999992
 40
0.4999999999999936
 40
0.4999999999999936
 40
0.6249999999999952
 40
0.6249999999999952
 40
0.7499999999999967
 40
0.7499999999999967
 40
0.8749999999999982
 40
0.8749999999999982
 40
0.9374999999999991
 40
0.9374999999999991
 40
1.0
 40
1.0
 40
1.0
 40
1.0
 10
-122.7540333075852
 20
8.139878965669034
 30
0.0
 10
-122.8942619584093
 20
8.14422341289822
 30
0.0
 10
-123.0843051943071
 20
8.088338609396589
 30
0.0
 10
-123.4315594726824
 20
7.939376674613613
 30
0.0
 10
-123.5582631266454
 20
7.878296222504827
 30
0.0
 10
-123.8238686601186
 20
7.740335368616402
 30
0.0
 10
-123.9635810166436
 20
7.663132133384848
 30
0.0
 10
-124.4012039620853
 20
7.410804613263378
 30
0.0
 10
-124.7189389881133
 20
7.214092515211684
 30
0.0
 10
-125.3734859781633
 20
6.79323198620807
 30
0.0
 10
-125.7130677219981
 20
6.567420882024166
 30
0.0
 10
-126.4136604240691
 20
6.092197107985752
 30
0.0
 10
-126.775590175058
 20
5.842043571283123
 30
0.0
 10
-127.5022207591945
 20
5.334036777199041
 30
0.0
 10
-127.8691153502012
 20
5.074683151046449
 30
0.0
 10
-128.6100445143587
 20
4.5474684207433
 30
0.0
 10
-128.9840789224809
 20
4.279589154583818
 30
0.0
 10
-129.5507966990767
 20
3.872319395364005
 30
0.0
 10
-129.7406774168276
 20
3.73562883878259
 30
0.0
 10
-130.1201653412264
 20
3.462160610125276
 30
0.0
 10
-130.3115726318234
 20
3.324084603887695
 30
0.0
 10
-130.5
 20
3.188105148135778
 30
0.0
  0
SPLINE
  5
384
330
30E
100
AcDbEntity
  8
0
  6
Continuous
 62
     7
370
    25
100
AcDbSpline
210
0.0
220
0.0
230
1.0
 70
     8
 71
     3
 72
    12
 73
     8
 74
     0
 42
0.000000001
 43
0.00000001
 40
0.0
 40
0.0
 40
0.0
 40
0.0
 40
0.2500000000000011
 40
0.2500000000000011
 40
0.5000000000000021
 40
0.5000000000000021
 40
1.0
 40
1.0
 40
1.0
 40
1.0
 10
106.4999999999999
 20
38.15807716600717
 30
0.0
 10
106.652517771795
 20
38.15807716600717
 30
0.0
 10
106.8027425647372
 20
38.1598183146292
 30
0.0
 10
107.0988631602772
 20
38.1658763227857
 30
0.0
 10
107.2462235184395
 20
38.17024369070174
 30
0.0
 10
107.6681226491049
 20
38.18366836333906
 30
0.0
 10
107.9240925239208
 20
38.19315637795933
 30
0.0
 10
108.1583123951776
 20
38.19129217378364
 30
0.0
  0
SPLINE
  5
385
330
30E
100
AcDbEntity
  8
0
  6
Continuous
 62
     7
370
    25
100
AcDbSpline
210
0.0
220
0.0
230
1.0
 70
     8
 71
     3
 72
    14
 73
    10
 74
     0
 42
0.000000001
 43
0.00000001
 40
0.0
 40
0.0
 40
0.0
 40
0.0
 40
0.25
 40
0.25
 40
0.5
 40
0.5
 40
0.75
 40
0.75
 40
1.0
 40
1.0
 40
1.0
 40
1.0
 10
-108.1583123951777
 20
38.19129217378369
 30
0.0
 10
-108.0415251419433
 20
38.19222170757594
 30
0.0
 10
-107.9187796731181
 20
38.19026521414126
 30
0.0
 10
-107.6605680458757
 20
38.18371388089026
 30
0.0
 10
-107.5238778159108
 20
38.17907384249963
 30
0.0
 10
-107.2424666587713
 20
38.17012897697394
 30
0.0
 10
-107.0985012250743
 20
38.16587078757328
 30
0.0
 10
-106.803753325283
 20
38.15983712756188
 30
0.0
 10
-106.6519716734004
 20
38.1580771660072
 30
0.0
 10
-106.5
 20
38.1580771660072
 30
0.0
  0
SPLINE
  5
3AB
330
30E
100
AcDbEntity
  8
0
  6
Continuous
 62
     7
370
    25
100
AcDbSpline
210
0.0
220
0.0
230
1.0
 70
     8
 71
     3
 72
    50
 73
    46
 74
     0
 42
0.000000001
 43
0.00000001
 40
0.0
 40
0.0
 40
0.0
 40
0.0
 40
0.0624999999999993
 40
0.0624999999999993
 40
0.1249999999999986
 40
0.1249999999999986
 40
0.1874999999999979
 40
0.1874999999999979
 40
0.2187499999999977
 40
0.2187499999999977
 40
0.2499999999999975
 40
0.2499999999999975
 40
0.3124999999999967
 40
0.3124999999999967
 40
0.3749999999999959
 40
0.3749999999999959
 40
0.4062499999999955
 40
0.4062499999999955
 40
0.4218749999999955
 40
0.4218749999999955
 40
0.4374999999999955
 40
0.4374999999999955
 40
0.4999999999999958
 40
0.4999999999999958
 40
0.5624999999999961
 40
0.5624999999999961
 40
0.6249999999999964
 40
0.6249999999999964
 40
0.6562499999999966
 40
0.6562499999999966
 40
0.6874999999999967
 40
0.6874999999999967
 40
0.7499999999999976
 40
0.7499999999999976
 40
0.8124999999999986
 40
0.8124999999999986
 40
0.8437499999999986
 40
0.8437499999999986
 40
0.8749999999999986
 40
0.8749999999999986
 40
0.9374999999999994
 40
0.9374999999999994
 40
0.9687499999999997
 40
0.9687499999999997
 40
1.0
 40
1.0
 40
1.0
 40
1.0
 10
0.0
 20
-348.1125870386585
 30
0.0
 10
-3.839597016064575
 20
-348.1125870386587
 30
0.0
 10
-7.650164609240909
 20
-347.93613307462
 30
0.0
 10
-15.21460315721025
 20
-347.2384673198828
 30
0.0
 10
-18.96845061949791
 20
-346.7171072243969
 30
0.0
 10
-26.41869548698245
 20
-345.3247502219286
 30
0.0
 10
-30.11508526386171
 20
-344.4537035718799
 30
0.0
 10
-35.61485717423195
 20
-342.8741850619828
 30
0.0
 10
-37.44063422463139
 20
-342.30211800898
 30
0.0
 10
-41.0767941988619
 20
-341.0641914687781
 30
0.0
 10
-42.87283066786729
 20
-340.403197624672
 30
0.0
 10
-48.19332135241882
 20
-338.2967307951716
 30
0.0
 10
-51.65137751185409
 20
-336.7276507778524
 30
0.0
 10
-58.39152232903327
 20
-333.2634104223295
 30
0.0
 10
-61.67362247507065
 20
-331.3682719590885
 30
0.0
 10
-66.46289819909845
 20
-328.2774520906465
 30
0.0
 10
-68.03697531053545
 20
-327.2057607887344
 30
0.0
 10
-70.36398250237119
 20
-325.5350075395236
 30
0.0
 10
-71.1339642724634
 20
-324.9675490265963
 30
0.0
 10
-72.6624233261552
 20
-323.8113093680062
 30
0.0
 10
-73.42190863193855
 20
-323.2217038400188
 30
0.0
 10
-77.17224036773781
 20
-320.234175276775
 30
0.0
 10
-80.02916291159697
 20
-317.7134678428011
 30
0.0
 10
-85.46506721807721
 20
-312.4186508816926
 30
0.0
 10
-88.04403122521289
 20
-309.6445252520916
 30
0.0
 10
-92.92459117326203
 20
-303.8433930121594
 30
0.0
 10
-95.22620635268595
 20
-300.8164039789458
 30
0.0
 10
-98.4649713225752
 20
-296.0811263911874
 30
0.0
 10
-99.51153838792126
 20
-294.4655898053168
 30
0.0
 10
-101.5126086264951
 20
-291.1997361196051
 30
0.0
 10
-102.468489933545
 20
-289.5479298148937
 30
0.0
 10
-105.2047052748201
 20
-284.5369437311334
 30
0.0
 10
-106.8539263075554
 20
-281.1223301947558
 30
0.0
 10
-109.8080125841443
 20
-274.1475137888403
 30
0.0
 10
-111.1128762020982
 20
-270.5873102298684
 30
0.0
 10
-112.8084068500538
 20
-265.136335902062
 30
0.0
 10
-113.3298776724116
 20
-263.3008664009988
 30
0.0
 10
-114.2838301296745
 20
-259.5923048770082
 30
0.0
 10
-114.7165520788704
 20
-257.7169857377131
 30
0.0
 10
-115.8686762045978
 20
-252.0840211788591
 30
0.0
 10
-116.4468349177652
 20
-248.3040764261116
 30
0.0
 10
-117.031556653136
 20
-242.5975150556384
 30
0.0
 10
-117.1792903648573
 20
-240.6892092122782
 30
0.0
 10
-117.3797528201948
 20
-236.8602749173935
 30
0.0
 10
-117.4324147505163
 20
-234.938316499657
 30
0.0
 10
-117.4370095171035
 20
-233.01704165872
 30
0.0
  0
SPLINE
  5
3AE
330
30E
100
AcDbEntity
  8
0
  6
Continuous
 62
     7
370
    25
100
AcDbSpline
210
0.0
220
0.0
230
1.0
 70
     8
 71
     3
 72
    12
 73
     8
 74
     0
 42
0.000000001
 43
0.00000001
 40
0.0
 40
0.0
 40
0.0
 40
0.0
 40
0.5000000000000024
 40
0.5000000000000024
 40
0.7500000000000012
 40
0.7500000000000012
 40
1.0
 40
1.0
 40
1.0
 40
1.0
 10
-159.4193537234174
 20
-233.0
 30
0.0
 10
-159.0187550958853
 20
-238.5476591292843
 30
0.0
 10
-158.3308578260319
 20
-244.0519082768127
 30
0.0
 10
-156.8715248430798
 20
-252.2436901432194
 30
0.0
 10
-156.313585530261
 20
-254.9639348545339
 30
0.0
 10
-155.0541567839548
 20
-260.3809031827867
 30
0.0
 10
-154.3565636900011
 20
-263.0609903253414
 30
0.0
 10
-153.5925878699458
 20
-265.7133064129711
 30
0.0
  0
SPLINE
  5
3B2
330
30E
100
AcDbEntity
  8
0
  6
Continuous
 62
     7
370
    25
100
AcDbSpline
210
0.0
220
0.0
230
1.0
 70
     8
 71
     3
 72
    36
 73
    32
 74
     0
 42
0.000000001
 43
0.00000001
 40
0.0
 40
0.0
 40
0.0
 40
0.0
 40
0.1249999999999987
 40
0.1249999999999987
 40
0.1562499999999987
 40
0.1562499999999987
 40
0.1874999999999988
 40
0.1874999999999988
 40
0.2499999999999988
 40
0.2499999999999988
 40
0.3749999999999989
 40
0.3749999999999989
 40
0.4062499999999992
 40
0.4062499999999992
 40
0.4374999999999994
 40
0.4374999999999994
 40
0.4999999999999994
 40
0.4999999999999994
 40
0.6249999999999993
 40
0.6249999999999993
 40
0.6874999999999993
 40
0.6874999999999993
 40
0.7031249999999993
 40
0.7031249999999993
 40
0.7187499999999994
 40
0.7187499999999994
 40
0.7499999999999993
 40
0.7499999999999993
 40
0.8749999999999997
 40
0.8749999999999997
 40
1.0
 40
1.0
 40
1.0
 40
1.0
 10
-146.8639873463075
 20
-284.5495272814232
 30
0.0
 10
-143.8162551368146
 20
-291.6445208371427
 30
0.0
 10
-140.2548753093897
 20
-298.5246343087368
 30
0.0
 10
-135.1375299332126
 20
-306.8463269117561
 30
0.0
 10
-134.0800996361167
 20
-308.4971057540071
 30
0.0
 10
-131.9157195505801
 20
-311.7434289479172
 30
0.0
 10
-130.8066979030901
 20
-313.3424526007248
 30
0.0
 10
-127.4002525082238
 20
-318.0681127571485
 30
0.0
 10
-125.0235535043238
 20
-321.1234330878871
 30
0.0
 10
-117.5811944165036
 20
-330.0084870660343
 30
0.0
 10
-112.2049159333946
 20
-335.5587922071746
 30
0.0
 10
-104.9577326352061
 20
-342.0227558980097
 30
0.0
 10
-103.4818235205279
 20
-343.2917351870341
 30
0.0
 10
-100.47630848747
 20
-345.7813909344788
 30
0.0
 10
-98.94361189082937
 20
-347.0043468408313
 30
0.0
 10
-94.29681852607627
 20
-350.5743960824366
 30
0.0
 10
-91.12925073435134
 20
-352.8276163050693
 30
0.0
 10
-81.42271167368173
 20
-359.216453145812
 30
0.0
 10
-74.68094774166967
 20
-362.9831435333402
 30
0.0
 10
-64.16346612173437
 20
-367.8967145577324
 30
0.0
 10
-60.58990459462566
 20
-369.4113513511289
 30
0.0
 10
-56.03637193619414
 20
-371.1471445302984
 30
0.0
 10
-55.1213307200513
 20
-371.4864177520816
 30
0.0
 10
-53.28250789595334
 20
-372.1490642188118
 30
0.0
 10
-52.357804799467
 20
-372.4727409830928
 30
0.0
 10
-49.58020264069928
 20
-373.4164492193013
 30
0.0
 10
-47.72241031491142
 20
-374.0097583968446
 30
0.0
 10
-38.40363231101912
 20
-376.7999453082686
 30
0.0
 10
-30.85367140218727
 20
-378.4705495871497
 30
0.0
 10
-15.56805047224529
 20
-380.7133983151377
 30
0.0
 10
-7.832409665146468
 20
-381.2857563928084
 30
0.0
 10
-0.000000000000059
 20
-381.2857563928084
 30
0.0
  0
SPLINE
  5
3B3
330
30E
100
AcDbEntity
  8
0
  6
Continuous
 62
     7
370
    25
100
AcDbSpline
210
0.0
220
0.0
230
1.0
 70
     8
 71
     3
 72
    15
 73
    11
 74
     0
 42
0.000000001
 43
0.00000001
 40
0.0
 40
0.0
 40
0.0
 40
0.0
 40
0.1930519737448096
 40
0.3859481759397185
 40
0.4848185241227079
 40
0.583624925178439
 40
0.6765214915879211
 40
0.7693348798347824
 40
0.9295670110571561
 40
1.0
 40
1.0
 40
1.0
 40
1.0
 10
-132.5785020468972
 20
-258.3566994799933
 30
0.0
 10
-131.4010605979788
 20
-258.0817076256698
 30
0.0
 10
-129.0471277649142
 20
-257.5319458049762
 30
0.0
 10
-126.0602943777896
 20
-258.2114039328558
 30
0.0
 10
-123.8968645884406
 20
-259.3142762766358
 30
0.0
 10
-122.4362012629632
 20
-260.4388251719571
 30
0.0
 10
-121.2053234657413
 20
-261.8116971476209
 30
0.0
 10
-120.028884793562
 20
-263.746670775388
 30
0.0
 10
-119.2691052180106
 20
-265.8587101356403
 30
0.0
 10
-119.3396550129975
 20
-267.3722822221701
 30
0.0
 10
-119.3611972077025
 20
-267.8344474856411
 30
0.0
  0
SPLINE
  5
3B4
330
30E
100
AcDbEntity
  8
0
  6
Continuous
 62
     7
370
    25
100
AcDbSpline
210
0.0
220
0.0
230
1.0
 70
     8
 71
     3
 72
    10
 73
     6
 74
     0
 42
0.000000001
 43
0.00000001
 40
0.0
 40
0.0
 40
0.0
 40
0.0
 40
0.5
 40
0.5
 40
1.0
 40
1.0
 40
1.0
 40
1.0
 10
-153.5925878699457
 20
-265.7133064129712
 30
0.0
 10
-150.0127151186777
 20
-264.4548471576846
 30
0.0
 10
-146.471745223656
 20
-263.2126255115814
 30
0.0
 10
-139.4666106249989
 20
-260.7602398316257
 30
0.0
 10
-136.002431733674
 20
-259.5500698759931
 30
0.0
 10
-132.5785020468972
 20
-258.3566994799933
 30
0.0
  0
SPLINE
  5
3B5
330
30E
100
AcDbEntity
  8
0
  6
Continuous
 62
     7
370
    25
100
AcDbSpline
210
0.0
220
0.0
230
1.0
 70
     8
 71
     3
 72
    36
 73
    32
 74
     0
 42
0.000000001
 43
0.00000001
 40
0.0
 40
0.0
 40
0.0
 40
0.0
 40
0.1250000000000001
 40
0.1250000000000001
 40
0.2500000000000001
 40
0.2500000000000001
 40
0.2812500000000002
 40
0.2812500000000002
 40
0.2968750000000001
 40
0.2968750000000001
 40
0.3125000000000001
 40
0.3125000000000001
 40
0.3749999999999998
 40
0.3749999999999998
 40
0.4999999999999986
 40
0.4999999999999986
 40
0.5624999999999982
 40
0.5624999999999982
 40
0.5937499999999982
 40
0.5937499999999982
 40
0.6249999999999982
 40
0.6249999999999982
 40
0.7499999999999982
 40
0.7499999999999982
 40
0.8124999999999982
 40
0.8124999999999982
 40
0.8437499999999982
 40
0.8437499999999982
 40
0.8749999999999982
 40
0.8749999999999982
 40
1.0
 40
1.0
 40
1.0
 40
1.0
 10
0.0
 20
-381.2857563928083
 30
0.0
 10
7.83240966514645
 20
-381.2857563928083
 30
0.0
 10
15.5680504722453
 20
-380.7133983151376
 30
0.0
 10
30.85367140218728
 20
-378.4705495871497
 30
0.0
 10
38.40363231101913
 20
-376.7999453082686
 30
0.0
 10
47.72241031491141
 20
-374.0097583968445
 30
0.0
 10
49.58020264069928
 20
-373.4164492193012
 30
0.0
 10
52.35780479946698
 20
-372.4727409830926
 30
0.0
 10
53.28250789595329
 20
-372.1490642188115
 30
0.0
 10
55.12133072005127
 20
-371.4864177520815
 30
0.0
 10
56.03637193619415
 20
-371.1471445302983
 30
0.0
 10
60.58990459462563
 20
-369.4113513511287
 30
0.0
 10
64.16346612173433
 20
-367.8967145577324
 30
0.0
 10
74.6809477416696
 20
-362.9831435333401
 30
0.0
 10
81.42271167368165
 20
-359.2164531458117
 30
0.0
 10
91.12925073435132
 20
-352.8276163050693
 30
0.0
 10
94.2968185260762
 20
-350.5743960824365
 30
0.0
 10
98.9436118908293
 20
-347.0043468408311
 30
0.0
 10
100.4763084874699
 20
-345.7813909344787
 30
0.0
 10
103.4818235205278
 20
-343.2917351870339
 30
0.0
 10
104.9577326352061
 20
-342.0227558980094
 30
0.0
 10
112.2049159333945
 20
-335.5587922071745
 30
0.0
 10
117.5811944165035
 20
-330.0084870660342
 30
0.0
 10
125.0235535043237
 20
-321.123433087887
 30
0.0
 10
127.4002525082237
 20
-318.0681127571483
 30
0.0
 10
130.8066979030901
 20
-313.3424526007246
 30
0.0
 10
131.91571955058
 20
-311.743428947917
 30
0.0
 10
134.0800996361166
 20
-308.497105754007
 30
0.0
 10
135.1375299332125
 20
-306.8463269117559
 30
0.0
 10
140.2548753093896
 20
-298.5246343087365
 30
0.0
 10
143.8162551368144
 20
-291.6445208371425
 30
0.0
 10
146.8639873463074
 20
-284.5495272814231
 30
0.0
  0
SPLINE
  5
3B6
330
30E
100
AcDbEntity
  8
0
  6
Continuous
 62
     7
370
    25
100
AcDbSpline
210
0.0
220
0.0
230
1.0
 70
     8
 71
     3
 72
    51
 73
    47
 74
     0
 42
0.000000001
 43
0.00000001
 40
0.0
 40
0.0
 40
0.0
 40
0.0
 40
0.0625000000000007
 40
0.0625000000000007
 40
0.0937500000000013
 40
0.0937500000000013
 40
0.1250000000000014
 40
0.1250000000000014
 40
0.1875000000000008
 40
0.2500000000000002
 40
0.2500000000000002
 40
0.2812499999999995
 40
0.2812499999999995
 40
0.2968749999999997
 40
0.2968749999999997
 40
0.3124999999999998
 40
0.3124999999999998
 40
0.375
 40
0.375
 40
0.4375000000000002
 40
0.4375000000000002
 40
0.4687499999999999
 40
0.4687499999999999
 40
0.4999999999999997
 40
0.4999999999999997
 40
0.562499999999999
 40
0.562499999999999
 40
0.6249999999999984
 40
0.6249999999999984
 40
0.6874999999999979
 40
0.6874999999999979
 40
0.7031249999999981
 40
0.7031249999999981
 40
0.7187499999999983
 40
0.7187499999999983
 40
0.7499999999999984
 40
0.7499999999999984
 40
0.8124999999999987
 40
0.8124999999999987
 40
0.8749999999999991
 40
0.8749999999999991
 40
0.9062499999999993
 40
0.9062499999999993
 40
0.9374999999999996
 40
0.9374999999999996
 40
1.0
 40
1.0
 40
1.0
 40
1.0
 10
117.4370095171034
 20
-233.01704165872
 30
0.0
 10
117.4278273661481
 20
-236.8565045088148
 30
0.0
 10
117.2276263615953
 20
-240.6811336366519
 30
0.0
 10
116.6424954022584
 20
-246.3959578833656
 30
0.0
 10
116.399892304744
 20
-248.2972059015821
 30
0.0
 10
115.8187858740965
 20
-252.092254337098
 30
0.0
 10
115.4818431200295
 20
-253.9757784130944
 30
0.0
 10
114.3347955365943
 20
-259.5825613134029
 30
0.0
 10
112.4424543357012
 20
-266.9439957081848
 30
0.0
 10
109.8347972540034
 20
-274.0802025457525
 30
0.0
 10
107.6068389532579
 20
-279.3466452057654
 30
0.0
 10
106.8187348380704
 20
-281.0878148318562
 30
0.0
 10
105.5671241236199
 20
-283.6776999580921
 30
0.0
 10
105.1384514571087
 20
-284.5370225419363
 30
0.0
 10
104.2625917497485
 20
-286.239130005579
 30
0.0
 10
103.8148531117013
 20
-287.0830753539474
 30
0.0
 10
101.5276200744152
 20
-291.2676253485679
 30
0.0
 10
99.54286848517857
 20
-294.5029623016657
 30
0.0
 10
95.27035611510114
 20
-300.7540432099423
 30
0.0
 10
92.98258188765017
 20
-303.7697774069353
 30
0.0
 10
89.32215116360165
 20
-308.1275868832798
 30
0.0
 10
88.06381141076368
 20
-309.5525088422885
 30
0.0
 10
85.46964828491919
 20
-312.3461995451699
 30
0.0
 10
84.13297327046402
 20
-313.7157991017626
 30
0.0
 10
80.00945986087883
 20
-317.733398139713
 30
0.0
 10
77.14954850493609
 20
-320.2516693866961
 30
0.0
 10
71.21595086692933
 20
-324.9795584120395
 30
0.0
 10
68.14223591216798
 20
-327.1891346114028
 30
0.0
 10
61.78280336737544
 20
-331.3022113386942
 30
0.0
 10
58.49708159264321
 20
-333.2057054835497
 30
0.0
 10
54.25499053220724
 20
-335.39027983492
 30
0.0
 10
53.39981141966634
 20
-335.8174349449861
 30
0.0
 10
51.67581405865208
 20
-336.652057086241
 30
0.0
 10
50.80603512223217
 20
-337.0599346848159
 30
0.0
 10
48.18951947281397
 20
-338.247761062582
 30
0.0
 10
46.43226331829335
 20
-338.9936581493969
 30
0.0
 10
41.12268407083998
 20
-341.0967113898442
 30
0.0
 10
37.53262213110091
 20
-342.3194835941171
 30
0.0
 10
30.25481855768961
 20
-344.4173784423547
 30
0.0
 10
26.56707251917924
 20
-345.2924856149365
 30
0.0
 10
20.9627424061907
 20
-346.3465438979852
 30
0.0
 10
19.08249700680184
 20
-346.6547367626038
 30
0.0
 10
15.29760046100336
 20
-347.1843554749839
 30
0.0
 10
13.38994287132822
 20
-347.4059801857529
 30
0.0
 10
7.664211777423957
 20
-347.9363579949369
 30
0.0
 10
3.837070173355076
 20
-348.1125870386585
 30
0.0
 10
-0.0000000000000306
 20
-348.1125870386584
 30
0.0
  0
SPLINE
  5
3B9
330
30E
100
AcDbEntity
  8
0
  6
Continuous
 62
     7
370
    25
100
AcDbSpline
210
0.0
220
0.0
230
1.0
 70
     8
 71
     3
 72
    12
 73
     8
 74
     0
 42
0.000000001
 43
0.00000001
 40
0.0
 40
0.0
 40
0.0
 40
0.0
 40
0.25
 40
0.25
 40
0.5
 40
0.5
 40
1.0
 40
1.0
 40
1.0
 40
1.0
 10
153.5925878699515
 20
-265.7133064129505
 30
0.0
 10
154.3565636900059
 20
-263.0609903253223
 30
0.0
 10
155.0541567839589
 20
-260.3809031827693
 30
0.0
 10
156.3135855302638
 20
-254.9639348545197
 30
0.0
 10
156.8715248430821
 20
-252.2436901432071
 30
0.0
 10
158.3308578260327
 20
-244.0519082768056
 30
0.0
 10
159.0187550958853
 20
-238.5476591292808
 30
0.0
 10
159.4193537234172
 20
-233.0000000000001
 30
0.0
  0
SPLINE
  5
3BA
330
30E
100
AcDbEntity
  8
0
  6
Continuous
 62
     7
370
    25
100
AcDbSpline
210
0.0
220
0.0
230
1.0
 70
     8
 71
     3
 72
    10
 73
     6
 74
     0
 42
0.000000001
 43
0.00000001
 40
0.0
 40
0.0
 40
0.0
 40
0.0
 40
0.5
 40
0.5
 40
1.0
 40
1.0
 40
1.0
 40
1.0
 10
132.578502046897
 20
-258.3566994799932
 30
0.0
 10
136.0024317336736
 20
-259.550069875993
 30
0.0
 10
139.4666106249984
 20
-260.7602398316255
 30
0.0
 10
146.4717452236551
 20
-263.2126255115809
 30
0.0
 10
150.0127151186766
 20
-264.4548471576842
 30
0.0
 10
153.5925878699445
 20
-265.7133064129707
 30
0.0
  0
SPLINE
  5
3BB
330
30E
100
AcDbEntity
  8
0
  6
Continuous
 62
     7
370
    25
100
AcDbSpline
210
0.0
220
0.0
230
1.0
 70
     8
 71
     3
 72
    15
 73
    11
 74
     0
 42
0.000000001
 43
0.00000001
 40
0.0
 40
0.0
 40
0.0
 40
0.0
 40
0.0704329889428436
 40
0.2306651201652176
 40
0.3234785084120798
 40
0.4163750748215623
 40
0.5151814758772931
 40
0.6140518240602817
 40
0.8069480262551919
 40
1.0
 40
1.0
 40
1.0
 40
1.0
 10
119.3611972077022
 20
-267.8344474856409
 30
0.0
 10
119.3396550129973
 20
-267.3722822221698
 30
0.0
 10
119.2691052180104
 20
-265.8587101356403
 30
0.0
 10
120.0288847935618
 20
-263.7466707753879
 30
0.0
 10
121.2053234657412
 20
-261.8116971476207
 30
0.0
 10
122.436201262963
 20
-260.4388251719569
 30
0.0
 10
123.8968645884404
 20
-259.3142762766356
 30
0.0
 10
126.0602943777894
 20
-258.2114039328557
 30
0.0
 10
129.047127764914
 20
-257.5319458049761
 30
0.0
 10
131.4010605979787
 20
-258.0817076256696
 30
0.0
 10
132.5785020468971
 20
-258.356699479993
 30
0.0
  0
SPLINE
  5
3C4
330
30E
100
AcDbEntity
  8
0
  6
Continuous
 62
     7
370
    25
100
AcDbSpline
210
0.0
220
0.0
230
1.0
 70
     8
 71
     3
 72
     8
 73
     4
 74
     0
 42
0.000000001
 43
0.00000001
 40
0.0
 40
0.0
 40
0.0
 40
0.0
 40
1.0
 40
1.0
 40
1.0
 40
1.0
 10
117.4550253011657
 20
-217.174902786084
 30
0.0
 10
117.4550253011657
 20
-222.4499451162638
 30
0.0
 10
117.4492967424802
 20
-227.7249779585091
 30
0.0
 10
117.4370505265191
 20
-233.0000000000001
 30
0.0
  0
SPLINE
  5
3C7
330
30E
100
AcDbEntity
  8
0
  6
Continuous
 62
     7
370
    25
100
AcDbSpline
210
0.0
220
0.0
230
1.0
 70
     8
 71
     3
 72
     8
 73
     4
 74
     0
 42
0.000000001
 43
0.00000001
 40
0.0
 40
0.0
 40
0.0
 40
0.0
 40
1.0
 40
1.0
 40
1.0
 40
1.0
 10
-117.4370505265191
 20
-233.0
 30
0.0
 10
-117.4492967424802
 20
-227.724977958509
 30
0.0
 10
-117.4550253011657
 20
-222.4499451162638
 30
0.0
 10
-117.4550253011657
 20
-217.174902786084
 30
0.0
  0
SPLINE
  5
403
330
30E
100
AcDbEntity
  8
0
  6
Continuous
 62
     7
370
    25
100
AcDbSpline
210
0.0
220
0.0
230
1.0
 70
     8
 71
     3
 72
    16
 73
    12
 74
     0
 42
0.000000001
 43
0.00000001
 40
0.0
 40
0.0
 40
0.0
 40
0.0
 40
0.2500000000000004
 40
0.2500000000000004
 40
0.5000000000000009
 40
0.5000000000000009
 40
0.7500000000000013
 40
0.7500000000000013
 40
0.8750000000000007
 40
0.8750000000000007
 40
1.0
 40
1.0
 40
1.0
 40
1.0
 10
-103.5
 20
18.09254738963348
 30
0.0
 10
-103.5
 20
18.5231404581471
 30
0.0
 10
-103.4652407767329
 20
18.94788191178384
 30
0.0
 10
-103.3457394590633
 20
19.78895034701697
 30
0.0
 10
-103.2607906821766
 20
20.20524253421391
 30
0.0
 10
-103.0473536276757
 20
21.03049715937166
 30
0.0
 10
-102.9185778016838
 20
21.44128506257459
 30
0.0
 10
-102.6907798710605
 20
22.04110171746276
 30
0.0
 10
-102.6089928111588
 20
22.23851652137218
 30
0.0
 10
-102.4287922619878
 20
22.62617778776027
 30
0.0
 10
-102.3310793156339
 20
22.81672628326681
 30
0.0
 10
-102.2164930664932
 20
22.99999999999999
 30
0.0
  0
SPLINE
  5
408
330
30E
100
AcDbEntity
  8
0
  6
Continuous
 62
     7
370
    25
100
AcDbSpline
210
0.0
220
0.0
230
1.0
 70
     8
 71
     3
 72
    16
 73
    12
 74
     0
 42
0.000000001
 43
0.00000001
 40
0.0
 40
0.0
 40
0.0
 40
0.0
 40
0.125
 40
0.125
 40
0.2500000000000001
 40
0.2500000000000001
 40
0.5
 40
0.5
 40
0.75
 40
0.75
 40
1.0
 40
1.0
 40
1.0
 40
1.0
 10
102.2164930664932
 20
22.99999999999999
 30
0.0
 10
102.3313931556882
 20
22.81622431524152
 30
0.0
 10
102.4289848252544
 20
22.62576421163881
 30
0.0
 10
102.6088085632442
 20
22.23891220883789
 30
0.0
 10
102.6902997937567
 20
22.04223420201118
 30
0.0
 10
102.9171207423588
 20
21.44538278687222
 30
0.0
 10
103.0450635753613
 20
21.03849465677646
 30
0.0
 10
103.2600565991326
 20
20.20892587744089
 30
0.0
 10
103.3455406155306
 20
19.79027386178464
 30
0.0
 10
103.4653661352961
 20
18.94707554881531
 30
0.0
 10
103.5
 20
18.5221144903393
 30
0.0
 10
103.5
 20
18.09254738963348
 30
0.0
  0
SPLINE
  5
40B
330
30E
100
AcDbEntity
  8
0
  6
Continuous
 62
     7
370
    25
100
AcDbSpline
210
0.0
220
0.0
230
1.0
 70
     8
 71
     3
 72
    13
 73
     9
 74
     0
 42
0.000000001
 43
0.00000001
 40
0.0
 40
0.0
 40
0.0
 40
0.0
 40
0.0743774295687195
 40
0.2685260512266746
 40
0.4769841599362278
 40
0.6996708797590551
 40
0.9262821833271058
 40
1.0
 40
1.0
 40
1.0
 40
1.0
 10
127.112433744244
 20
-127.8710149690517
 30
0.0
 10
127.0842345780315
 20
-127.4708401830366
 30
0.0
 10
126.9824266667492
 20
-126.0260826038593
 30
0.0
 10
127.8252142161127
 20
-123.5737479345375
 30
0.0
 10
129.6064370169337
 20
-120.8351064172861
 30
0.0
 10
132.375247568125
 20
-118.7592577304531
 30
0.0
 10
135.0324558244035
 20
-117.9120018262082
 30
0.0
 10
136.6122329939948
 20
-117.851781842995
 30
0.0
 10
136.9999999999999
 20
-117.8370004402492
 30
0.0
  0
SPLINE
  5
40D
330
30E
100
AcDbEntity
  8
0
  6
Continuous
 62
     7
370
    25
100
AcDbSpline
210
0.0
220
0.0
230
1.0
 70
     8
 71
     3
 72
    13
 73
     9
 74
     0
 42
0.000000001
 43
0.00000001
 40
0.0
 40
0.0
 40
0.0
 40
0.0
 40
0.2189844995861827
 40
0.4377742199483758
 40
0.66253661292093
 40
0.774124642790369
 40
0.8893051856990539
 40
1.0
 40
1.0
 40
1.0
 40
1.0
 10
-136.9999999999999
 20
-117.8370004402492
 30
0.0
 10
-135.8459027434695
 20
-117.9572361427384
 30
0.0
 10
-133.5387347604528
 20
-118.1976006021711
 30
0.0
 10
-130.5191469763394
 20
-119.9978233583547
 30
0.0
 10
-128.6028821327465
 20
-122.2011429675031
 30
0.0
 10
-127.6025200295358
 20
-124.3384900459324
 30
0.0
 10
-127.0543157399686
 20
-126.0568164345137
 30
0.0
 10
-127.1169825060907
 20
-127.2774237260978
 30
0.0
 10
-127.1476936298025
 20
-127.8756071629518
 30
0.0
  0
SPLINE
  5
410
330
30E
100
AcDbEntity
  8
0
  6
Continuous
 62
     7
370
    25
100
AcDbSpline
210
0.0
220
0.0
230
1.0
 70
     8
 71
     3
 72
    10
 73
     6
 74
     0
 42
0.000000001
 43
0.00000001
 40
0.0
 40
0.0
 40
0.0
 40
0.0
 40
0.5
 40
0.5
 40
1.0
 40
1.0
 40
1.0
 40
1.0
 10
-155.3840553126313
 20
-117.8182445561112
 30
0.0
 10
-152.2942365625947
 20
-117.8182445561112
 30
0.0
 10
-149.2174740591808
 20
-117.8198258934243
 30
0.0
 10
-143.0894974936396
 20
-117.8260829262274
 30
0.0
 10
-140.0382839432535
 20
-117.8307586836982
 30
0.0
 10
-136.9999999999999
 20
-117.8370004402492
 30
0.0
  0
SPLINE
  5
411
330
30E
100
AcDbEntity
  8
0
  6
Continuous
 62
     7
370
    25
100
AcDbSpline
210
0.0
220
0.0
230
1.0
 70
     8
 71
     3
 72
    10
 73
     6
 74
     0
 42
0.000000001
 43
0.00000001
 40
0.0
 40
0.0
 40
0.0
 40
0.0
 40
0.5
 40
0.5
 40
1.0
 40
1.0
 40
1.0
 40
1.0
 10
137.0000000000002
 20
-117.8370004402493
 30
0.0
 10
140.0382903430648
 20
-117.8307586705507
 30
0.0
 10
143.0895071308036
 20
-117.8260829130954
 30
0.0
 10
149.2174837607419
 20
-117.8198258868105
 30
0.0
 10
152.294243092247
 20
-117.8182445561113
 30
0.0
 10
155.3840553126314
 20
-117.8182445561113
 30
0.0
  0
SPLINE
  5
414
330
30E
100
AcDbEntity
  8
0
  6
Continuous
 62
     7
370
    25
100
AcDbSpline
210
0.0
220
0.0
230
1.0
 70
     8
 71
     3
 72
    14
 73
    10
 74
     0
 42
0.000000001
 43
0.00000001
 40
0.0
 40
0.0
 40
0.0
 40
0.0
 40
0.5000000000000064
 40
0.5000000000000064
 40
0.7500000000000061
 40
0.7500000000000061
 40
0.875000000000003
 40
0.875000000000003
 40
1.0
 40
1.0
 40
1.0
 40
1.0
 10
-102.2164930664932
 20
22.99999999999999
 30
0.0
 10
-102.1465131017641
 20
23.20317489634829
 30
0.0
 10
-102.0683947251211
 20
23.40271191704862
 30
0.0
 10
-101.9113119454293
 20
23.68451319569728
 30
0.0
 10
-101.852031146542
 20
23.77613737983686
 30
0.0
 10
-101.7416092374133
 20
23.89270942118532
 30
0.0
 10
-101.7008132998535
 20
23.9283207343573
 30
0.0
 10
-101.6073100111463
 20
23.98252295384526
 30
0.0
 10
-101.5545796635223
 20
23.99999999999999
 30
0.0
 10
-101.5
 20
23.99999999999999
 30
0.0
  0
SPLINE
  5
419
330
30E
100
AcDbEntity
  8
0
  6
Continuous
 62
     7
370
    25
100
AcDbSpline
210
0.0
220
0.0
230
1.0
 70
     8
 71
     3
 72
    14
 73
    10
 74
     0
 42
0.000000001
 43
0.00000001
 40
0.0
 40
0.0
 40
0.0
 40
0.0
 40
0.1249999999999885
 40
0.1249999999999885
 40
0.2499999999999769
 40
0.2499999999999769
 40
0.4999999999999818
 40
0.4999999999999818
 40
1.0
 40
1.0
 40
1.0
 40
1.0
 10
101.5
 20
23.99999999999999
 30
0.0
 10
101.5548994057372
 20
23.99999999999999
 30
0.0
 10
101.6077901007769
 20
23.98230870061946
 30
0.0
 10
101.7010611114952
 20
23.92811253418014
 30
0.0
 10
101.7425504293262
 20
23.8918631373462
 30
0.0
 10
101.8532816378038
 20
23.77451623978299
 30
0.0
 10
101.9124829879209
 20
23.68258620969618
 30
0.0
 10
102.0685068851611
 20
23.4021589214953
 30
0.0
 10
102.1465642290117
 20
23.20302645710196
 30
0.0
 10
102.2164930664932
 20
22.99999999999999
 30
0.0
  0
SPLINE
  5
41D
330
30E
100
AcDbEntity
  8
0
  6
Continuous
 62
     7
370
    25
100
AcDbSpline
210
0.0
220
0.0
230
1.0
 70
     8
 71
     3
 72
    26
 73
    22
 74
     0
 42
0.000000001
 43
0.00000001
 40
0.0
 40
0.0
 40
0.0
 40
0.0
 40
0.1250000000000034
 40
0.1250000000000034
 40
0.187500000000004
 40
0.187500000000004
 40
0.2500000000000047
 40
0.2500000000000047
 40
0.3750000000000048
 40
0.3750000000000048
 40
0.5000000000000049
 40
0.5000000000000049
 40
0.5625000000000044
 40
0.5625000000000044
 40
0.625000000000004
 40
0.625000000000004
 40
0.7500000000000027
 40
0.7500000000000027
 40
0.8750000000000014
 40
0.8750000000000014
 40
1.0
 40
1.0
 40
1.0
 40
1.0
 10
160.5862568461451
 20
-268.2374869014009
 30
0.0
 10
160.5497641188618
 20
-268.2203259858285
 30
0.0
 10
160.4729733756543
 20
-268.189042985995
 30
0.0
 10
160.2968114143391
 20
-268.120750038632
 30
0.0
 10
160.2273952773219
 20
-268.0942265685224
 30
0.0
 10
160.0704035913935
 20
-268.0348991701193
 30
0.0
 10
159.982775936062
 20
-268.0020709037
 30
0.0
 10
159.6931318586983
 20
-267.8943122240404
 30
0.0
 10
159.4646074457885
 20
-267.8101956475759
 30
0.0
 10
158.9340081440176
 20
-267.6164740794587
 30
0.0
 10
158.6395070969913
 20
-267.5096368400233
 30
0.0
 10
158.1581494888455
 20
-267.3359019390995
 30
0.0
 10
157.990922031668
 20
-267.275681484914
 30
0.0
 10
157.6426589380683
 20
-267.1505348969773
 30
0.0
 10
157.4606835339314
 20
-267.0852731573443
 30
0.0
 10
156.9043446107522
 20
-266.886128524945
 30
0.0
 10
156.5176338793541
 20
-266.7481825312607
 30
0.0
 10
155.7131143204842
 20
-266.4621010566493
 30
0.0
 10
155.2915937233658
 20
-266.3126588758436
 30
0.0
 10
154.4471852225953
 20
-266.0141515518614
 30
0.0
 10
154.02161554806
 20
-265.8641256989656
 30
0.0
 10
153.5925878699443
 20
-265.7133064129707
 30
0.0
  0
SPLINE
  5
420
330
30E
100
AcDbEntity
  8
0
  6
Continuous
 62
     7
370
    25
100
AcDbSpline
210
0.0
220
0.0
230
1.0
 70
     8
 71
     3
 72
    26
 73
    22
 74
     0
 42
0.000000001
 43
0.00000001
 40
0.0
 40
0.0
 40
0.0
 40
0.0
 40
0.1250000000000027
 40
0.1250000000000027
 40
0.1875000000000015
 40
0.1875000000000015
 40
0.2500000000000003
 40
0.2500000000000003
 40
0.3749999999999978
 40
0.3749999999999978
 40
0.4999999999999954
 40
0.4999999999999954
 40
0.624999999999993
 40
0.624999999999993
 40
0.687499999999994
 40
0.687499999999994
 40
0.749999999999995
 40
0.749999999999995
 40
0.8749999999999976
 40
0.8749999999999976
 40
1.0
 40
1.0
 40
1.0
 40
1.0
 10
-153.5925878699458
 20
-265.7133064129711
 30
0.0
 10
-154.0216538637916
 20
-265.8641391683793
 30
0.0
 10
-154.4461597826027
 20
-266.0137911049923
 30
0.0
 10
-155.0763621021716
 20
-266.2365712072174
 30
0.0
 10
-155.2853288962601
 20
-266.3105462321207
 30
0.0
 10
-155.701014870898
 20
-266.4579142686289
 30
0.0
 10
-155.9085650513377
 20
-266.5316036600269
 30
0.0
 10
-156.515153026348
 20
-266.7472970080609
 30
0.0
 10
-156.901794134291
 20
-266.8852193205191
 30
0.0
 10
-157.6400521107438
 20
-267.1494754343812
 30
0.0
 10
-157.9940690553003
 20
-267.2766839788169
 30
0.0
 10
-158.6377505162036
 20
-267.5089997893588
 30
0.0
 10
-158.9309085384453
 20
-267.6153499592035
 30
0.0
 10
-159.3269802068241
 20
-267.7599443244631
 30
0.0
 10
-159.4521036155506
 20
-267.8057956125789
 30
0.0
 10
-159.6824038786207
 20
-267.8905528244013
 30
0.0
 10
-159.7881939768628
 20
-267.9296812097195
 30
0.0
 10
-160.078054654073
 20
-268.0375138007889
 30
0.0
 10
-160.234879582902
 20
-268.0967571028893
 30
0.0
 10
-160.4724860512811
 20
-268.1888380542398
 30
0.0
 10
-160.5496708073059
 20
-268.2202821055308
 30
0.0
 10
-160.5862568461453
 20
-268.237486901401
 30
0.0
  0
SPLINE
  5
423
330
30E
100
AcDbEntity
  8
0
  6
Continuous
 62
     7
370
    25
100
AcDbSpline
210
0.0
220
0.0
230
1.0
 70
     8
 71
     3
 72
    26
 73
    22
 74
     0
 42
0.000000001
 43
0.00000001
 40
0.0
 40
0.0
 40
0.0
 40
0.0
 40
0.2500000000000004
 40
0.2500000000000004
 40
0.3750000000000003
 40
0.3750000000000003
 40
0.5000000000000003
 40
0.5000000000000003
 40
0.6250000000000003
 40
0.6250000000000003
 40
0.7500000000000002
 40
0.7500000000000002
 40
0.8750000000000002
 40
0.8750000000000002
 40
0.9375000000000002
 40
0.9375000000000002
 40
0.968749999999999
 40
0.968749999999999
 40
0.9843749999999996
 40
0.9843749999999996
 40
1.0
 40
1.0
 40
1.0
 40
1.0
 10
72.62212685517294
 20
13.73113645418403
 30
0.0
 10
72.65573547534161
 20
14.47911124004894
 30
0.0
 10
72.69899234636297
 20
15.27253687896596
 30
0.0
 10
72.78744490176193
 20
16.52857321995124
 30
0.0
 10
72.82102654090616
 20
16.95965988303896
 30
0.0
 10
72.8983323164096
 20
17.838215720582
 30
0.0
 10
72.94175710041327
 20
18.28281000144763
 30
0.0
 10
73.04157162364912
 20
19.18190717983575
 30
0.0
 10
73.09786934605683
 20
19.63642274361463
 30
0.0
 10
73.22970819680718
 20
20.55456692049501
 30
0.0
 10
73.30520950156232
 20
21.01983752934619
 30
0.0
 10
73.48852788687844
 20
21.9490822238142
 30
0.0
 10
73.59393802983715
 20
22.41430388615617
 30
0.0
 10
73.81233439693126
 20
23.09443492945293
 30
0.0
 10
73.89427254732611
 20
23.31886324001112
 30
0.0
 10
74.05883342872052
 20
23.63614678685147
 30
0.0
 10
74.11965647268086
 20
23.73806480450266
 30
0.0
 10
74.23756504469715
 20
23.87323109137435
 30
0.0
 10
74.28143961637258
 20
23.91492588041625
 30
0.0
 10
74.3818610832031
 20
23.97857898025202
 30
0.0
 10
74.43948791274396
 20
24.00000000000002
 30
0.0
 10
74.49999999999999
 20
23.99999999999999
 30
0.0
  0
SPLINE
  5
428
330
30E
100
AcDbEntity
  8
0
  6
Continuous
 62
     7
370
    25
100
AcDbSpline
210
0.0
220
0.0
230
1.0
 70
     8
 71
     3
 72
    10
 73
     6
 74
     0
 42
0.000000001
 43
0.00000001
 40
0.0
 40
0.0
 40
0.0
 40
0.0
 40
0.5
 40
0.5
 40
1.0
 40
1.0
 40
1.0
 40
1.0
 10
72.49999999999999
 20
11.63376771041236
 30
0.0
 10
72.49999999999996
 20
12.0090666518044
 30
0.0
 10
72.52536004116021
 20
12.37064897659629
 30
0.0
 10
72.5791537573119
 20
13.06920140372453
 30
0.0
 10
72.60752498336767
 20
13.40616530446542
 30
0.0
 10
72.62212685517281
 20
13.73113645418403
 30
0.0
  0
SPLINE
  5
429
330
30E
100
AcDbEntity
  8
0
  6
Continuous
 62
     7
370
    25
100
AcDbSpline
210
0.0
220
0.0
230
1.0
 70
     8
 71
     3
 72
    10
 73
     6
 74
     0
 42
0.000000001
 43
0.00000001
 40
0.0
 40
0.0
 40
0.0
 40
0.0
 40
0.5
 40
0.5
 40
1.0
 40
1.0
 40
1.0
 40
1.0
 10
-72.62212685517294
 20
13.73113645418403
 30
0.0
 10
-72.60752498336781
 20
13.40616530446542
 30
0.0
 10
-72.57915375731193
 20
13.06920140372453
 30
0.0
 10
-72.52536004116023
 20
12.37064897659629
 30
0.0
 10
-72.5
 20
12.0090666518044
 30
0.0
 10
-72.49999999999999
 20
11.63376771041236
 30
0.0
  0
SPLINE
  5
42C
330
30E
100
AcDbEntity
  8
0
  6
Continuous
 62
     7
370
    25
100
AcDbSpline
210
0.0
220
0.0
230
1.0
 70
     8
 71
     3
 72
    26
 73
    22
 74
     0
 42
0.000000001
 43
0.00000001
 40
0.0
 40
0.0
 40
0.0
 40
0.0
 40
0.0156249999999989
 40
0.0156249999999989
 40
0.0312499999999979
 40
0.0312499999999979
 40
0.0624999999999974
 40
0.0624999999999974
 40
0.1249999999999974
 40
0.1249999999999974
 40
0.2499999999999977
 40
0.2499999999999977
 40
0.3749999999999979
 40
0.3749999999999979
 40
0.4999999999999981
 40
0.4999999999999981
 40
0.749999999999999
 40
0.749999999999999
 40
0.8749999999999996
 40
0.8749999999999996
 40
1.0
 40
1.0
 40
1.0
 40
1.0
 10
-74.49999999999999
 20
23.99999999999999
 30
0.0
 10
-74.4387654747534
 20
23.99999999999999
 30
0.0
 10
-74.38031426107287
 20
23.97797735788873
 30
0.0
 10
-74.27896788386138
 20
23.91296497882711
 30
0.0
 10
-74.23482714584571
 20
23.87048590487478
 30
0.0
 10
-74.11714735827246
 20
23.73436010601729
 30
0.0
 10
-74.05513911634988
 20
23.6297664189887
 30
0.0
 10
-73.89157094808058
 20
23.31209852742497
 30
0.0
 10
-73.80949552350305
 20
23.08654269128712
 30
0.0
 10
-73.5914340679112
 20
22.40455445529446
 30
0.0
 10
-73.4873954732052
 20
21.94360568387557
 30
0.0
 10
-73.3054903179586
 20
21.02099606778496
 30
0.0
 10
-73.23033323292609
 20
20.55876679663412
 30
0.0
 10
-73.09771354209786
 20
19.63549012557997
 30
0.0
 10
-73.04092120696208
 20
19.17647426776625
 30
0.0
 10
-72.89137511897832
 20
17.8281259962452
 30
0.0
 10
-72.81790838615734
 20
16.95935169985385
 30
0.0
 10
-72.72927783982067
 20
15.70347795245536
 30
0.0
 10
-72.70344383619279
 20
15.29130741183543
 30
0.0
 10
-72.65828321471729
 20
14.49217758774202
 30
0.0
 10
-72.6389379846995
 20
14.10527561683375
 30
0.0
 10
-72.62212685517301
 20
13.73113645418403
 30
0.0
  0
SPLINE
  5
43A
330
30E
100
AcDbEntity
  8
0
  6
Continuous
 62
     7
370
    25
100
AcDbSpline
210
0.0
220
0.0
230
1.0
 70
     8
 71
     3
 72
     8
 73
     4
 74
     0
 42
0.000000001
 43
0.00000001
 40
0.0
 40
0.0
 40
0.0
 40
0.0
 40
1.0
 40
1.0
 40
1.0
 40
1.0
 10
159.4193537234172
 20
-233.0000000000001
 30
0.0
 10
159.6713893773595
 20
-229.5045424098626
 30
0.0
 10
159.7974900475585
 20
-226.0045437249181
 30
0.0
 10
159.7974900475585
 20
-222.5000000000002
 30
0.0
  0
SPLINE
  5
43C
330
30E
100
AcDbEntity
  8
0
  6
Continuous
 62
     7
370
    25
100
AcDbSpline
210
0.0
220
0.0
230
1.0
 70
     8
 71
     3
 72
     8
 73
     4
 74
     0
 42
0.000000001
 43
0.00000001
 40
0.0
 40
0.0
 40
0.0
 40
0.0
 40
1.0
 40
1.0
 40
1.0
 40
1.0
 10
-159.7974900475587
 20
-222.5000000000001
 30
0.0
 10
-159.7974900475587
 20
-226.0045437249181
 30
0.0
 10
-159.6713893773597
 20
-229.5045424098626
 30
0.0
 10
-159.4193537234174
 20
-233.0
 30
0.0
  0
SPLINE
  5
43F
330
30E
100
AcDbEntity
  8
0
  6
Continuous
 62
     7
370
    25
100
AcDbSpline
210
0.0
220
0.0
230
1.0
 70
     8
 71
     3
 72
    10
 73
     6
 74
     0
 42
0.000000001
 43
0.00000001
 40
0.0
 40
0.0
 40
0.0
 40
0.0
 40
0.5
 40
0.5
 40
1.0
 40
1.0
 40
1.0
 40
1.0
 10
159.7974900475585
 20
-164.0
 30
0.0
 10
159.7974900475585
 20
-159.6633908650119
 30
0.0
 10
159.8148400923142
 20
-155.326863031823
 30
0.0
 10
159.88308875711
 20
-146.6539549083685
 30
0.0
 10
159.9339723062287
 20
-142.3176663540536
 30
0.0
 10
159.9999999999999
 20
-137.9815607447707
 30
0.0
  0
SPLINE
  5
440
330
30E
100
AcDbEntity
  8
0
  6
Continuous
 62
     7
370
    25
100
AcDbSpline
210
0.0
220
0.0
230
1.0
 70
     8
 71
     3
 72
    10
 73
     6
 74
     0
 42
0.000000001
 43
0.00000001
 40
0.0
 40
0.0
 40
0.0
 40
0.0
 40
0.5
 40
0.5
 40
1.0
 40
1.0
 40
1.0
 40
1.0
 10
-160.0
 20
-137.9815607447711
 30
0.0
 10
-159.9339723082936
 20
-142.3176662184538
 30
0.0
 10
-159.8830890360164
 20
-146.6539280663579
 30
0.0
 10
-159.8148402287568
 20
-155.3268370921494
 30
0.0
 10
-159.7974900475586
 20
-159.6633921347825
 30
0.0
 10
-159.7974900475586
 20
-164.0
 30
0.0
  0
SPLINE
  5
442
330
30E
100
AcDbEntity
  8
0
  6
Continuous
 62
     7
370
    25
100
AcDbSpline
210
0.0
220
0.0
230
1.0
 70
     8
 71
     3
 72
    14
 73
    10
 74
     0
 42
0.000000001
 43
0.00000001
 40
0.0
 40
0.0
 40
0.0
 40
0.0
 40
0.25
 40
0.25
 40
0.5
 40
0.5
 40
0.75
 40
0.75
 40
1.0
 40
1.0
 40
1.0
 40
1.0
 10
42.24581850642777
 20
-7.500000000000035
 30
0.0
 10
35.20475227849845
 20
-7.545551677303059
 30
0.0
 10
28.16396645496524
 20
-7.582017098074684
 30
0.0
 10
14.08220377949428
 20
-7.631412363169416
 30
0.0
 10
7.041221803750286
 20
-7.644285090793873
 30
0.0
 10
-7.041221803750227
 20
-7.644285090793873
 30
0.0
 10
-14.08220377949424
 20
-7.631412363169416
 30
0.0
 10
-28.1639664549652
 20
-7.582017098074684
 30
0.0
 10
-35.20475227849841
 20
-7.545551677303059
 30
0.0
 10
-42.24581850642773
 20
-7.500000000000035
 30
0.0
  0
SPLINE
  5
468
330
30E
100
AcDbEntity
  8
0
  6
Continuous
 62
     7
370
    25
100
AcDbSpline
210
0.0
220
0.0
230
1.0
 70
     8
 71
     3
 72
    18
 73
    14
 74
     0
 42
0.000000001
 43
0.00000001
 40
0.0
 40
0.0
 40
0.0
 40
0.0
 40
0.1249999999999996
 40
0.1249999999999996
 40
0.2499999999999991
 40
0.2499999999999991
 40
0.5000000000000001
 40
0.5000000000000001
 40
0.7500000000000011
 40
0.7500000000000011
 40
0.8750000000000006
 40
0.8750000000000006
 40
1.0
 40
1.0
 40
1.0
 40
1.0
 10
-103.5
 20
-7.601020514433649
 30
0.0
 10
-103.5
 20
-7.777033574710934
 30
0.0
 10
-103.4781355335682
 20
-7.958978584538922
 30
0.0
 10
-103.4040324398848
 20
-8.3348933190118
 30
0.0
 10
-103.3513622152889
 20
-8.529619796882187
 30
0.0
 10
-103.159479090612
 20
-9.127328944111445
 30
0.0
 10
-102.9913699224737
 20
-9.533117165985344
 30
0.0
 10
-102.6114672838497
 20
-10.36505902647314
 30
0.0
 10
-102.3981333792743
 20
-10.79208043831106
 30
0.0
 10
-102.0685358364506
 20
-11.42954145770372
 30
0.0
 10
-101.9565460363406
 20
-11.64245832453353
 30
0.0
 10
-101.7299015000511
 20
-12.06989293026361
 30
0.0
 10
-101.6144703131725
 20
-12.28584537221455
 30
0.0
 10
-101.5
 20
-12.50000000000001
 30
0.0
  0
SPLINE
  5
46B
330
30E
100
AcDbEntity
  8
0
  6
Continuous
 62
     7
370
    25
100
AcDbSpline
210
0.0
220
0.0
230
1.0
 70
     8
 71
     3
 72
    18
 73
    14
 74
     0
 42
0.000000001
 43
0.00000001
 40
0.0
 40
0.0
 40
0.0
 40
0.0
 40
0.1250000000000007
 40
0.1250000000000007
 40
0.2500000000000015
 40
0.2500000000000015
 40
0.500000000000002
 40
0.500000000000002
 40
0.7500000000000024
 40
0.7500000000000024
 40
0.8750000000000012
 40
0.8750000000000012
 40
1.0
 40
1.0
 40
1.0
 40
1.0
 10
103.5
 20
-7.601020514433704
 30
0.0
 10
103.5
 20
-7.777033574710989
 30
0.0
 10
103.4781355335682
 20
-7.958978584538978
 30
0.0
 10
103.4040324398848
 20
-8.334893319011854
 30
0.0
 10
103.3513622152889
 20
-8.529619796882216
 30
0.0
 10
103.159479090612
 20
-9.1273289441115
 30
0.0
 10
102.9913699224737
 20
-9.5331171659854
 30
0.0
 10
102.6114672838497
 20
-10.36505902647319
 30
0.0
 10
102.3981333792743
 20
-10.79208043831109
 30
0.0
 10
102.0685358364506
 20
-11.42954145770375
 30
0.0
 10
101.9565460363406
 20
-11.64245832453356
 30
0.0
 10
101.7299015000511
 20
-12.06989293026364
 30
0.0
 10
101.6144703131725
 20
-12.28584537221461
 30
0.0
 10
101.5
 20
-12.50000000000004
 30
0.0
  0
SPLINE
  5
47F
330
30E
100
AcDbEntity
  8
0
  6
Continuous
 62
     7
370
    25
100
AcDbSpline
210
0.0
220
0.0
230
1.0
 70
     8
 71
     3
 72
    40
 73
    36
 74
     0
 42
0.000000001
 43
0.00000001
 40
0.0
 40
0.0
 40
0.0
 40
0.0
 40
0.0624999999999992
 40
0.0624999999999992
 40
0.1249999999999983
 40
0.1249999999999983
 40
0.1874999999999975
 40
0.1874999999999975
 40
0.2499999999999967
 40
0.2499999999999967
 40
0.3124999999999958
 40
0.3124999999999958
 40
0.374999999999995
 40
0.374999999999995
 40
0.4062499999999952
 40
0.4062499999999952
 40
0.4374999999999954
 40
0.4374999999999954
 40
0.4999999999999959
 40
0.4999999999999959
 40
0.5624999999999963
 40
0.5624999999999963
 40
0.6249999999999969
 40
0.6249999999999969
 40
0.6874999999999973
 40
0.6874999999999973
 40
0.7499999999999979
 40
0.7499999999999979
 40
0.8124999999999983
 40
0.8124999999999983
 40
0.8749999999999989
 40
0.8749999999999989
 40
0.9374999999999993
 40
0.9374999999999993
 40
1.0
 40
1.0
 40
1.0
 40
1.0
 10
-58.15000000000001
 20
37.77734145983217
 30
0.0
 10
-57.84080377807434
 20
37.77734145983217
 30
0.0
 10
-57.53718115082783
 20
37.78295361162287
 30
0.0
 10
-56.94049271019107
 20
37.80365882154243
 30
0.0
 10
-56.64425756038623
 20
37.81899368661659
 30
0.0
 10
-56.08228314973711
 20
37.85488816776408
 30
0.0
 10
-55.81604741940385
 20
37.87533417643748
 30
0.0
 10
-55.3121692246536
 20
37.91637990088534
 30
0.0
 10
-55.07520333825619
 20
37.93691661853418
 30
0.0
 10
-54.64922638740866
 20
37.97107826886412
 30
0.0
 10
-54.4573672216459
 20
37.98496720109865
 30
0.0
 10
-54.1172223798949
 20
38.00082365923799
 30
0.0
 10
-53.97400908403133
 20
38.00249147933177
 30
0.0
 10
-53.79944890316938
 20
37.99271407776506
 30
0.0
 10
-53.74793919282909
 20
37.98741151556143
 30
0.0
 10
-53.65863126740863
 20
37.9722004065445
 30
0.0
 10
-53.62071586149615
 20
37.96220795797186
 30
0.0
 10
-53.53040309163131
 20
37.92533508133872
 30
0.0
 10
-53.50031027249737
 20
37.8915735830326
 30
0.0
 10
-53.4996944554909
 20
37.80492223566098
 30
0.0
 10
-53.53023006572703
 20
37.75136336506279
 30
0.0
 10
-53.64953597619805
 20
37.63037046766082
 30
0.0
 10
-53.73784220766048
 20
37.56262905292687
 30
0.0
 10
-53.97254056099028
 20
37.41522665555141
 30
0.0
 10
-54.11699800079641
 20
37.33696567188318
 30
0.0
 10
-54.45261506771684
 20
37.17870848262736
 30
0.0
 10
-54.64665627874793
 20
37.09746090915134
 30
0.0
 10
-55.07530944808471
 20
36.94112050917433
 30
0.0
 10
-55.30786186525062
 20
36.8665867238516
 30
0.0
 10
-55.80967888541768
 20
36.72989955543893
 30
0.0
 10
-56.08162554610054
 20
36.66743175787812
 30
0.0
 10
-56.64139352904623
 20
36.56531867390464
 30
0.0
 10
-56.93121441540026
 20
36.52492124286608
 30
0.0
 10
-57.53165354027519
 20
36.46951373616239
 30
0.0
 10
-57.84078014632672
 20
36.4549363383084
 30
0.0
 10
-58.15000000000001
 20
36.4549363383084
 30
0.0
  0
SPLINE
  5
484
330
30E
100
AcDbEntity
  8
0
  6
Continuous
 62
     7
370
    25
100
AcDbSpline
210
0.0
220
0.0
230
1.0
 70
     8
 71
     3
 72
    40
 73
    36
 74
     0
 42
0.000000001
 43
0.00000001
 40
0.0
 40
0.0
 40
0.0
 40
0.0
 40
0.0625000000000006
 40
0.0625000000000006
 40
0.1250000000000011
 40
0.1250000000000011
 40
0.1875000000000017
 40
0.1875000000000017
 40
0.2500000000000022
 40
0.2500000000000022
 40
0.3125000000000028
 40
0.3125000000000028
 40
0.3750000000000033
 40
0.3750000000000033
 40
0.4062500000000032
 40
0.4062500000000032
 40
0.437500000000003
 40
0.437500000000003
 40
0.5000000000000027
 40
0.5000000000000027
 40
0.5625000000000023
 40
0.5625000000000023
 40
0.625000000000002
 40
0.625000000000002
 40
0.6875000000000017
 40
0.6875000000000017
 40
0.7500000000000013
 40
0.7500000000000013
 40
0.812500000000001
 40
0.812500000000001
 40
0.8750000000000007
 40
0.8750000000000007
 40
0.9375000000000003
 40
0.9375000000000003
 40
1.0
 40
1.0
 40
1.0
 40
1.0
 10
58.14999999999999
 20
36.4549363383084
 30
0.0
 10
57.84080377807434
 20
36.4549363383084
 30
0.0
 10
57.53718115082782
 20
36.46923045191472
 30
0.0
 10
56.94049271019106
 20
36.52384382202714
 30
0.0
 10
56.6442575603862
 20
36.56484916020977
 30
0.0
 10
56.08228314973707
 20
36.66725918435654
 30
0.0
 10
55.81604741940383
 20
36.72832721464309
 30
0.0
 10
55.31216922465359
 20
36.86525452131009
 30
0.0
 10
55.07520333825617
 20
36.94119887857286
 30
0.0
 10
54.64922638740862
 20
37.09648408732838
 30
0.0
 10
54.45736722164588
 20
37.17656995547178
 30
0.0
 10
54.11722237989486
 20
37.3367590466826
 30
0.0
 10
53.9740090840313
 20
37.41447715159902
 30
0.0
 10
53.79944890316935
 20
37.52385323892724
 30
0.0
 10
53.74793919282909
 20
37.55915691365463
 30
0.0
 10
53.65863126740862
 20
37.62699695302743
 30
0.0
 10
53.62071586149613
 20
37.65968950682574
 30
0.0
 10
53.53040309163131
 20
37.75100836222481
 30
0.0
 10
53.50031027249735
 20
37.80339982397376
 30
0.0
 10
53.4996944554909
 20
37.89042909810084
 30
0.0
 10
53.530230065727
 20
37.92508963447963
 30
0.0
 10
53.64953597619803
 20
37.97414731380289
 30
0.0
 10
53.73784220766045
 20
37.98912447669331
 30
0.0
 10
53.97254056099021
 20
38.00254527590211
 30
0.0
 10
54.11699800079639
 20
38.00078567030516
 30
0.0
 10
54.45261506771681
 20
37.98523646767046
 30
0.0
 10
54.64665627874792
 20
37.97127847601031
 30
0.0
 10
55.07530944808466
 20
37.93691398043212
 30
0.0
 10
55.30786186525061
 20
37.91674806821746
 30
0.0
 10
55.80967888541766
 20
37.87583602803837
 30
0.0
 10
56.08162554610053
 20
37.85494447497359
 30
0.0
 10
56.64139352904618
 20
37.8191624033235
 30
0.0
 10
56.93121441540026
 20
37.80406298640465
 30
0.0
 10
57.53165354027515
 20
37.78306521741664
 30
0.0
 10
57.84078014632669
 20
37.77734145983217
 30
0.0
 10
58.14999999999999
 20
37.77734145983217
 30
0.0
  0
SPLINE
  5
490
330
30E
100
AcDbEntity
  8
0
  6
Continuous
 62
     8
370
    25
100
AcDbSpline
210
0.0
220
0.0
230
1.0
 70
     8
 71
     3
 72
    11
 73
     7
 74
     0
 42
0.000000001
 43
0.00000001
 40
0.0
 40
0.0
 40
0.0
 40
0.0
 40
0.0101820643614284
 40
0.5540406912821186
 40
0.6003405731876821
 40
1.0
 40
1.0
 40
1.0
 40
1.0
 10
-108.5
 20
5.62498058165839
 30
0.0
 10
-108.505947209468
 20
5.632323349647306
 30
0.0
 10
-108.8295550681376
 20
6.031868285535924
 30
0.0
 10
-109.0835283708686
 20
6.431820249658466
 30
0.0
 10
-109.411175004484
 20
7.047602508300471
 30
0.0
 10
-109.4580192049881
 20
7.283040310649941
 30
0.0
 10
-109.5
 20
7.494034756325818
 30
0.0
  0
SPLINE
  5
493
330
30E
100
AcDbEntity
  8
0
  6
Continuous
 62
     8
370
    25
100
AcDbSpline
210
0.0
220
0.0
230
1.0
 70
     8
 71
     3
 72
    11
 73
     7
 74
     0
 42
0.000000001
 43
0.00000001
 40
0.0
 40
0.0
 40
0.0
 40
0.0
 40
0.3996594268123121
 40
0.4459593087178768
 40
0.9898179356385638
 40
1.0
 40
1.0
 40
1.0
 40
1.0
 10
109.5
 20
7.494034756325818
 30
0.0
 10
109.458019204988
 20
7.283040310649941
 30
0.0
 10
109.4111750044839
 20
7.047602508300471
 30
0.0
 10
109.0835283708687
 20
6.431820249658466
 30
0.0
 10
108.829555068137
 20
6.031868285535868
 30
0.0
 10
108.505947209468
 20
5.632323349647306
 30
0.0
 10
108.5
 20
5.62498058165839
 30
0.0
  0
LINE
  5
49B
330
30E
100
AcDbEntity
  8
0
  6
Continuous
 62
     7
370
    25
100
AcDbLine
 10
106.5
 20
38.1647662406
 30
0.0
 11
-106.5
 21
38.1647662406
 31
0.0
  0
LINE
  5
49C
330
30E
100
AcDbEntity
  8
0
  6
Continuous
 62
     7
370
    25
100
AcDbLine
 10
127.0
 20
-127.874816397
 30
0.0
 11
127.0
 21
-127.994102652
 31
0.0
  0
LINE
  5
49D
330
30E
100
AcDbEntity
  8
0
  6
Continuous
 62
     7
370
    25
100
AcDbLine
 10
-127.0
 20
-127.994102652
 30
0.0
 11
-127.0
 21
-127.8746886823
 31
0.0
  0
LINE
  5
49E
330
30E
100
AcDbEntity
  8
0
  6
Continuous
 62
     7
370
    25
100
AcDbLine
 10
119.2568189085
 20
-267.8350141603
 30
0.0
 11
119.2568189085
 21
-267.9061508333
 31
0.0
  0
LINE
  5
49F
330
30E
100
AcDbEntity
  8
0
  6
Continuous
 62
     7
370
    25
100
AcDbLine
 10
-119.2568189085
 20
-267.9061508333
 30
0.0
 11
-119.2568189085
 21
-267.8350141603
 31
0.0
  0
LINE
  5
4A0
330
30E
100
AcDbEntity
  8
0
  6
Continuous
 62
     7
370
    25
100
AcDbLine
 10
108.5
 20
38.0
 30
0.0
 11
63.5
 21
38.0
 31
0.0
  0
LINE
  5
4A1
330
30E
100
AcDbEntity
  8
0
  6
Continuous
 62
     7
370
    25
100
AcDbLine
 10
-63.5
 20
38.0
 30
0.0
 11
-108.5
 21
38.0
 31
0.0
  0
LINE
  5
4A2
330
30E
100
AcDbEntity
  8
0
  6
Continuous
 62
     7
370
    25
100
AcDbLine
 10
-63.5
 20
8.0
 30
0.0
 11
63.5
 21
8.0
 31
0.0
  0
LINE
  5
4A3
330
30E
100
AcDbEntity
  8
0
  6
Continuous
 62
     7
370
    25
100
AcDbLine
 10
54.0613727487
 20
38.0
 30
0.0
 11
-54.0814440268
 21
38.0
 31
0.0
  0
LINE
  5
4A4
330
30E
100
AcDbEntity
  8
0
  6
Continuous
 62
     7
370
    25
100
AcDbLine
 10
178.0
 20
19.8369524402
 30
0.0
 11
174.5
 21
19.8369524402
 31
0.0
  0
LINE
  5
4A5
330
30E
100
AcDbEntity
  8
0
  6
Continuous
 62
     7
370
    25
100
AcDbLine
 10
123.5
 20
34.1981839768
 30
0.0
 11
166.5
 21
34.1981839768
 31
0.0
  0
LINE
  5
4A6
330
30E
100
AcDbEntity
  8
0
  6
Continuous
 62
     7
370
    25
100
AcDbLine
 10
123.5
 20
34.6170403545
 30
0.0
 11
109.5
 21
34.6170403545
 31
0.0
  0
LINE
  5
4A7
330
30E
100
AcDbEntity
  8
0
  6
Continuous
 62
     7
370
    25
100
AcDbLine
 10
109.5
 20
38.008908068
 30
0.0
 11
178.0
 21
38.008908068
 31
0.0
  0
LINE
  5
4A8
330
30E
100
AcDbEntity
  8
0
  6
Continuous
 62
     7
370
    25
100
AcDbLine
 10
-166.5
 20
34.1981839768
 30
0.0
 11
-123.5
 21
34.1981839768
 31
0.0
  0
LINE
  5
4A9
330
30E
100
AcDbEntity
  8
0
  6
Continuous
 62
     7
370
    25
100
AcDbLine
 10
-174.5
 20
19.8369524402
 30
0.0
 11
-178.0
 21
19.8369524402
 31
0.0
  0
LINE
  5
4AA
330
30E
100
AcDbEntity
  8
0
  6
Continuous
 62
     7
370
    25
100
AcDbLine
 10
-178.0
 20
38.008908068
 30
0.0
 11
-109.5
 21
38.008908068
 31
0.0
  0
LINE
  5
4AB
330
30E
100
AcDbEntity
  8
0
  6
Continuous
 62
     7
370
    25
100
AcDbLine
 10
-109.5
 20
34.6170403546
 30
0.0
 11
-123.5
 21
34.6170403546
 31
0.0
  0
LINE
  5
4AC
330
30E
100
AcDbEntity
  8
0
  6
Continuous
 62
     7
370
    25
100
AcDbLine
 10
178.0
 20
-223.1518518132
 30
0.0
 11
178.0
 21
19.8369524402
 31
0.0
  0
LINE
  5
4AD
330
30E
100
AcDbEntity
  8
0
  6
Continuous
 62
     7
370
    25
100
AcDbLine
 10
-178.0
 20
19.8369524402
 30
0.0
 11
-178.0
 21
-223.1518518132
 31
0.0
  0
LINE
  5
4AE
330
30E
100
AcDbEntity
  8
0
  6
Continuous
 62
     7
370
    25
100
AcDbLine
 10
-174.5
 20
-223.1518518132
 30
0.0
 11
-174.5
 21
19.8369524402
 31
0.0
  0
LINE
  5
4AF
330
30E
100
AcDbEntity
  8
0
  6
Continuous
 62
     7
370
    25
100
AcDbLine
 10
174.5
 20
19.8369524402
 30
0.0
 11
174.5
 21
-223.1518518132
 31
0.0
  0
LINE
  5
4B0
330
30E
100
AcDbEntity
  8
0
  6
Continuous
 62
     7
370
    25
100
AcDbLine
 10
-173.5
 20
19.8465516037
 30
0.0
 11
-173.5
 21
-223.1422526498
 31
0.0
  0
LINE
  5
4B1
330
30E
100
AcDbEntity
  8
0
  6
Continuous
 62
     7
370
    25
100
AcDbLine
 10
-179.0
 20
-223.1422526498
 30
0.0
 11
-179.0
 21
19.8465516037
 31
0.0
  0
LINE
  5
4B2
330
30E
100
AcDbEntity
  8
0
  6
Continuous
 62
     7
370
    25
100
AcDbLine
 10
179.0
 20
19.8465516037
 30
0.0
 11
179.0
 21
-223.1422526498
 31
0.0
  0
LINE
  5
4B3
330
30E
100
AcDbEntity
  8
0
  6
Continuous
 62
     7
370
    25
100
AcDbLine
 10
173.5
 20
-223.1422526498
 30
0.0
 11
173.5
 21
19.8465516037
 31
0.0
  0
LINE
  5
4B4
330
30E
100
AcDbEntity
  8
0
  6
Continuous
 62
     7
370
    25
100
AcDbLine
 10
-166.5
 20
34.1981839768
 30
0.0
 11
-166.5
 21
-0.8348486101
 31
0.0
  0
LINE
  5
4B5
330
30E
100
AcDbEntity
  8
0
  6
Continuous
 62
     7
370
    25
100
AcDbLine
 10
166.5
 20
-0.8348486101
 30
0.0
 11
166.5
 21
34.1981839768
 31
0.0
  0
LINE
  5
4B6
330
30E
100
AcDbEntity
  8
0
  6
Continuous
 62
     7
370
    25
100
AcDbLine
 10
122.5
 20
33.9016498605
 30
0.0
 11
123.5
 21
33.9016498605
 31
0.0
  0
LINE
  5
4B7
330
30E
100
AcDbEntity
  8
0
  6
Continuous
 62
     7
370
    25
100
AcDbLine
 10
122.5
 20
8.0006910955
 30
0.0
 11
122.5
 21
33.9016498605
 31
0.0
  0
LINE
  5
4B8
330
30E
100
AcDbEntity
  8
0
  6
Continuous
 62
     7
370
    25
100
AcDbLine
 10
122.5
 20
8.0006910955
 30
0.0
 11
109.5
 21
8.0006910955
 31
0.0
  0
LINE
  5
4B9
330
30E
100
AcDbEntity
  8
0
  6
Continuous
 62
     7
370
    25
100
AcDbLine
 10
109.5
 20
34.6170403545
 30
0.0
 11
109.5
 21
7.4940347563
 31
0.0
  0
LINE
  5
4BA
330
30E
100
AcDbEntity
  8
0
  6
Continuous
 62
     7
370
    25
100
AcDbLine
 10
-109.5
 20
7.4940347563
 30
0.0
 11
-109.5
 21
34.6170403546
 31
0.0
  0
LINE
  5
4BB
330
30E
100
AcDbEntity
  8
0
  6
Continuous
 62
     7
370
    25
100
AcDbLine
 10
123.5
 20
32.6791919206
 30
0.0
 11
123.5
 21
9.0006450224
 31
0.0
  0
LINE
  5
4BC
330
30E
100
AcDbEntity
  8
0
  6
Continuous
 62
     7
370
    25
100
AcDbLine
 10
-122.5
 20
33.9016498605
 30
0.0
 11
-122.5
 21
8.0006910955
 31
0.0
  0
LINE
  5
4BD
330
30E
100
AcDbEntity
  8
0
  6
Continuous
 62
     7
370
    25
100
AcDbLine
 10
-123.5
 20
33.9016498605
 30
0.0
 11
-122.5
 21
33.9016498605
 31
0.0
  0
LINE
  5
4BE
330
30E
100
AcDbEntity
  8
0
  6
Continuous
 62
     7
370
    25
100
AcDbLine
 10
-122.5
 20
8.0006910955
 30
0.0
 11
-109.5
 21
8.0006910955
 31
0.0
  0
LINE
  5
4BF
330
30E
100
AcDbEntity
  8
0
  6
Continuous
 62
     7
370
    25
100
AcDbLine
 10
-123.5
 20
9.0006450224
 30
0.0
 11
-123.5
 21
32.6791919206
 31
0.0
  0
LINE
  5
4C0
330
30E
100
AcDbEntity
  8
0
  6
Continuous
 62
     7
370
    25
100
AcDbLine
 10
-123.5
 20
32.4099830168
 30
0.0
 11
-166.5
 21
32.4099830168
 31
0.0
  0
LINE
  5
4C1
330
30E
100
AcDbEntity
  8
0
  6
Continuous
 62
     7
370
    25
100
AcDbLine
 10
-123.5
 20
34.1981839768
 30
0.0
 11
-123.5
 21
33.9016498605
 31
0.0
  0
LINE
  5
4C2
330
30E
100
AcDbEntity
  8
0
  6
Continuous
 62
     7
370
    25
100
AcDbLine
 10
166.5
 20
32.4099830168
 30
0.0
 11
123.5
 21
32.4099830168
 31
0.0
  0
LINE
  5
4C3
330
30E
100
AcDbEntity
  8
0
  6
Continuous
 62
     7
370
    25
100
AcDbLine
 10
123.5
 20
33.9016498605
 30
0.0
 11
123.5
 21
34.1981839768
 31
0.0
  0
LINE
  5
4C4
330
30E
100
AcDbEntity
  8
0
  6
Continuous
 62
     7
370
    25
100
AcDbLine
 10
-178.0
 20
38.1912921738
 30
0.0
 11
-178.0
 21
38.008908068
 31
0.0
  0
LINE
  5
4C5
330
30E
100
AcDbEntity
  8
0
  6
Continuous
 62
     7
370
    25
100
AcDbLine
 10
-108.1583123952
 20
38.1912921738
 30
0.0
 11
-178.0
 21
38.1912921738
 31
0.0
  0
LINE
  5
4C6
330
30E
100
AcDbEntity
  8
0
  6
Continuous
 62
     7
370
    25
100
AcDbLine
 10
-109.5
 20
38.008908068
 30
0.0
 11
-109.5
 21
38.1672942651
 31
0.0
  0
LINE
  5
4C7
330
30E
100
AcDbEntity
  8
0
  6
Continuous
 62
     7
370
    25
100
AcDbLine
 10
109.5
 20
38.1672942651
 30
0.0
 11
109.5
 21
38.008908068
 31
0.0
  0
LINE
  5
4C8
330
30E
100
AcDbEntity
  8
0
  6
Continuous
 62
     7
370
    25
100
AcDbLine
 10
178.0
 20
38.008908068
 30
0.0
 11
178.0
 21
38.1912921738
 31
0.0
  0
LINE
  5
4C9
330
30E
100
AcDbEntity
  8
0
  6
Continuous
 62
     7
370
    25
100
AcDbLine
 10
178.0
 20
38.1912921738
 30
0.0
 11
108.1583123952
 21
38.1912921738
 31
0.0
  0
LINE
  5
4CA
330
30E
100
AcDbEntity
  8
0
  6
Continuous
 62
     7
370
    25
100
AcDbLine
 10
179.0
 20
37.1913382468
 30
0.0
 11
179.0
 21
37.008954141
 31
0.0
  0
LINE
  5
4CB
330
30E
100
AcDbEntity
  8
0
  6
Continuous
 62
     7
370
    25
100
AcDbLine
 10
-179.0
 20
37.008954141
 30
0.0
 11
-179.0
 21
37.1913382468
 31
0.0
  0
LINE
  5
4CC
330
30E
100
AcDbEntity
  8
0
  6
Continuous
 62
     7
370
    25
100
AcDbLine
 10
-130.5
 20
3.1881051481
 30
0.0
 11
-130.5
 21
25.6870685049
 31
0.0
  0
LINE
  5
4CD
330
30E
100
AcDbEntity
  8
0
  6
Continuous
 62
     7
370
    25
100
AcDbLine
 10
-130.5
 20
25.6870685049
 30
0.0
 11
-166.5
 21
25.6870685049
 31
0.0
  0
LINE
  5
4CE
330
30E
100
AcDbEntity
  8
0
  6
Continuous
 62
     7
370
    25
100
AcDbLine
 10
130.5
 20
25.6870685049
 30
0.0
 11
130.5
 21
3.1881051481
 31
0.0
  0
LINE
  5
4CF
330
30E
100
AcDbEntity
  8
0
  6
Continuous
 62
     7
370
    25
100
AcDbLine
 10
166.5
 20
25.6870685049
 30
0.0
 11
130.5
 21
25.6870685049
 31
0.0
  0
LINE
  5
4D0
330
30E
100
AcDbEntity
  8
0
  6
Continuous
 62
     7
370
    25
100
AcDbLine
 10
-108.0
 20
-233.0
 30
0.0
 11
-108.0
 21
-164.0
 31
0.0
  0
LINE
  5
4D1
330
30E
100
AcDbEntity
  8
0
  6
Continuous
 62
     7
370
    25
100
AcDbLine
 10
108.0
 20
-164.0
 30
0.0
 11
108.0
 21
-233.0
 31
0.0
  0
LINE
  5
4D2
330
30E
100
AcDbEntity
  8
0
  6
Continuous
 62
     7
370
    25
100
AcDbLine
 10
113.5
 20
-164.0
 30
0.0
 11
113.5
 21
-233.0
 31
0.0
  0
LINE
  5
4D3
330
30E
100
AcDbEntity
  8
0
  6
Continuous
 62
     7
370
    25
100
AcDbLine
 10
-113.5
 20
-233.0
 30
0.0
 11
-113.5
 21
-164.0
 31
0.0
  0
LINE
  5
4D4
330
30E
100
AcDbEntity
  8
0
  6
Continuous
 62
     7
370
    25
100
AcDbLine
 10
155.5
 20
-123.9316677379
 30
0.0
 11
137.5
 21
-123.9316677379
 31
0.0
  0
LINE
  5
4D5
330
30E
100
AcDbEntity
  8
0
  6
Continuous
 62
     7
370
    25
100
AcDbLine
 10
137.5
 20
-123.9316677379
 30
0.0
 11
137.5
 21
-118.9945173093
 31
0.0
  0
LINE
  5
4D6
330
30E
100
AcDbEntity
  8
0
  6
Continuous
 62
     7
370
    25
100
AcDbLine
 10
155.5
 20
-118.9945173093
 30
0.0
 11
137.5
 21
-118.9945173093
 31
0.0
  0
LINE
  5
4D7
330
30E
100
AcDbEntity
  8
0
  6
Continuous
 62
     7
370
    25
100
AcDbLine
 10
155.5
 20
-118.9945173093
 30
0.0
 11
155.5
 21
-123.9316677379
 31
0.0
  0
LINE
  5
4D8
330
30E
100
AcDbEntity
  8
0
  6
Continuous
 62
     7
370
    25
100
AcDbLine
 10
137.5
 20
-132.1333308739
 30
0.0
 11
137.5
 21
-136.9936879948
 31
0.0
  0
LINE
  5
4D9
330
30E
100
AcDbEntity
  8
0
  6
Continuous
 62
     7
370
    25
100
AcDbLine
 10
155.5
 20
-136.9936879948
 30
0.0
 11
155.5
 21
-132.1333308739
 31
0.0
  0
LINE
  5
4DA
330
30E
100
AcDbEntity
  8
0
  6
Continuous
 62
     7
370
    25
100
AcDbLine
 10
-137.5
 20
-123.9316677379
 30
0.0
 11
-155.5
 21
-123.9316677379
 31
0.0
  0
LINE
  5
4DB
330
30E
100
AcDbEntity
  8
0
  6
Continuous
 62
     7
370
    25
100
AcDbLine
 10
-155.5
 20
-118.9945173093
 30
0.0
 11
-155.5
 21
-123.9316677379
 31
0.0
  0
LINE
  5
4DC
330
30E
100
AcDbEntity
  8
0
  6
Continuous
 62
     7
370
    25
100
AcDbLine
 10
-137.5
 20
-118.9945173093
 30
0.0
 11
-155.5
 21
-118.9945173093
 31
0.0
  0
LINE
  5
4DD
330
30E
100
AcDbEntity
  8
0
  6
Continuous
 62
     7
370
    25
100
AcDbLine
 10
-137.5
 20
-123.9316677379
 30
0.0
 11
-137.5
 21
-118.9945173093
 31
0.0
  0
LINE
  5
4DE
330
30E
100
AcDbEntity
  8
0
  6
Continuous
 62
     7
370
    25
100
AcDbLine
 10
-155.5
 20
-136.9936879948
 30
0.0
 11
-155.5
 21
-132.1333308739
 31
0.0
  0
LINE
  5
4DF
330
30E
100
AcDbEntity
  8
0
  6
Continuous
 62
     7
370
    25
100
AcDbLine
 10
-137.5
 20
-132.1333308739
 30
0.0
 11
-137.5
 21
-136.9936879948
 31
0.0
  0
LINE
  5
4E0
330
30E
100
AcDbEntity
  8
0
  6
Continuous
 62
     7
370
    25
100
AcDbLine
 10
137.5
 20
-132.1333308739
 30
0.0
 11
155.5
 21
-132.1333308739
 31
0.0
  0
LINE
  5
4E1
330
30E
100
AcDbEntity
  8
0
  6
Continuous
 62
     7
370
    25
100
AcDbLine
 10
-155.5
 20
-132.1333308739
 30
0.0
 11
-137.5
 21
-132.1333308739
 31
0.0
  0
LINE
  5
4E2
330
30E
100
AcDbEntity
  8
0
  6
Continuous
 62
     7
370
    25
100
AcDbLine
 10
137.5
 20
-136.9936879948
 30
0.0
 11
155.5
 21
-136.9936879948
 31
0.0
  0
LINE
  5
4E3
330
30E
100
AcDbEntity
  8
0
  6
Continuous
 62
     7
370
    25
100
AcDbLine
 10
-155.5
 20
-136.9936879948
 30
0.0
 11
-137.5
 21
-136.9936879948
 31
0.0
  0
LINE
  5
4E4
330
30E
100
AcDbEntity
  8
0
  6
Continuous
 62
     7
370
    25
100
AcDbLine
 10
-117.4370095171
 20
-233.0170416587
 30
0.0
 11
-113.5
 21
-233.0
 31
0.0
  0
LINE
  5
4E5
330
30E
100
AcDbEntity
  8
0
  6
Continuous
 62
     7
370
    25
100
AcDbLine
 10
0.0
 20
-346.5
 30
0.0
 11
0.0
 21
-389.5
 31
0.0
  0
LINE
  5
4E6
330
30E
100
AcDbEntity
  8
0
  6
Continuous
 62
     7
370
    25
100
AcDbLine
 10
-117.4370505265
 20
-233.0
 30
0.0
 11
-159.4193537234
 21
-233.0
 31
0.0
  0
LINE
  5
4E7
330
30E
100
AcDbEntity
  8
0
  6
Continuous
 62
     7
370
    25
100
AcDbLine
 10
-117.4370095171
 20
-233.0170416587
 30
0.0
 11
-117.4370505265
 21
-233.0
 31
0.0
  0
LINE
  5
4E8
330
30E
100
AcDbEntity
  8
0
  6
Continuous
 62
     7
370
    25
100
AcDbLine
 10
117.4370505265
 20
-233.0
 30
0.0
 11
117.4370095171
 21
-233.0170416587
 31
0.0
  0
LINE
  5
4E9
330
30E
100
AcDbEntity
  8
0
  6
Continuous
 62
     7
370
    25
100
AcDbLine
 10
117.4370505265
 20
-233.0
 30
0.0
 11
159.4193537234
 21
-233.0
 31
0.0
  0
LINE
  5
4EA
330
30E
100
AcDbEntity
  8
0
  6
Continuous
 62
     7
370
    25
100
AcDbLine
 10
113.5
 20
-233.0
 30
0.0
 11
117.4370095171
 21
-233.0170416587
 31
0.0
  0
LINE
  5
4EB
330
30E
100
AcDbEntity
  8
0
  6
Continuous
 62
     7
370
    25
100
AcDbLine
 10
-113.5
 20
-217.1749027861
 30
0.0
 11
-117.4550253012
 21
-217.1749027861
 31
0.0
  0
LINE
  5
4EC
330
30E
100
AcDbEntity
  8
0
  6
Continuous
 62
     7
370
    25
100
AcDbLine
 10
-117.4550253012
 20
-217.1749027861
 30
0.0
 11
-117.4550253012
 21
-164.0
 31
0.0
  0
LINE
  5
4ED
330
30E
100
AcDbEntity
  8
0
  6
Continuous
 62
     7
370
    25
100
AcDbLine
 10
-113.5
 20
-164.0
 30
0.0
 11
-167.0
 21
-164.0
 31
0.0
  0
LINE
  5
4EE
330
30E
100
AcDbEntity
  8
0
  6
Continuous
 62
     7
370
    25
100
AcDbLine
 10
113.5
 20
-164.0
 30
0.0
 11
167.0
 21
-164.0
 31
0.0
  0
LINE
  5
4EF
330
30E
100
AcDbEntity
  8
0
  6
Continuous
 62
     7
370
    25
100
AcDbLine
 10
117.4550253012
 20
-164.0
 30
0.0
 11
117.4550253012
 21
-217.1749027861
 31
0.0
  0
LINE
  5
4F0
330
30E
100
AcDbEntity
  8
0
  6
Continuous
 62
     7
370
    25
100
AcDbLine
 10
113.5
 20
-217.1749027861
 30
0.0
 11
117.4550253012
 21
-217.1749027861
 31
0.0
  0
LINE
  5
4F1
330
30E
100
AcDbEntity
  8
0
  6
Continuous
 62
     7
370
    25
100
AcDbLine
 10
113.5
 20
-232.9822462837
 30
0.0
 11
117.4370505265
 21
-233.0
 31
0.0
  0
LINE
  5
4F2
330
30E
100
AcDbEntity
  8
0
  6
Continuous
 62
     7
370
    25
100
AcDbLine
 10
-117.4370505265
 20
-233.0
 30
0.0
 11
-113.5
 21
-232.9822462837
 31
0.0
  0
LINE
  5
4F3
330
30E
100
AcDbEntity
  8
0
  6
Continuous
 62
     7
370
    25
100
AcDbLine
 10
126.7389141484
 20
-276.5608173839
 30
0.0
 11
128.3661999036
 21
-271.9786108716
 31
0.0
  0
LINE
  5
4F4
330
30E
100
AcDbEntity
  8
0
  6
Continuous
 62
     7
370
    25
100
AcDbLine
 10
131.0906580422
 20
-264.2426371125
 30
0.0
 11
132.7179437974
 21
-259.5836372926
 31
0.0
  0
LINE
  5
4F5
330
30E
100
AcDbEntity
  8
0
  6
Continuous
 62
     7
370
    25
100
AcDbLine
 10
-132.7179437974
 20
-259.5836372926
 30
0.0
 11
-131.0906580422
 21
-264.2426371125
 31
0.0
  0
LINE
  5
4F6
330
30E
100
AcDbEntity
  8
0
  6
Continuous
 62
     7
370
    25
100
AcDbLine
 10
-128.3661999036
 20
-271.9786108716
 30
0.0
 11
-126.7389141484
 21
-276.5608173839
 31
0.0
  0
LINE
  5
4F7
330
30E
100
AcDbEntity
  8
0
  6
Continuous
 62
     7
370
    25
100
AcDbLine
 10
148.0686203598
 20
-270.2213912896
 30
0.0
 11
131.0906580422
 21
-264.2426371125
 31
0.0
  0
LINE
  5
4F8
330
30E
100
AcDbEntity
  8
0
  6
Continuous
 62
     7
370
    25
100
AcDbLine
 10
128.3661999036
 20
-271.9786108716
 30
0.0
 11
145.3441622212
 21
-277.9573650487
 31
0.0
  0
LINE
  5
4F9
330
30E
100
AcDbEntity
  8
0
  6
Continuous
 62
     7
370
    25
100
AcDbLine
 10
-145.3441622212
 20
-277.9573650487
 30
0.0
 11
-128.3661999036
 21
-271.9786108716
 31
0.0
  0
LINE
  5
4FA
330
30E
100
AcDbEntity
  8
0
  6
Continuous
 62
     7
370
    25
100
AcDbLine
 10
-131.0906580422
 20
-264.2426371125
 30
0.0
 11
-148.0686203598
 21
-270.2213912896
 31
0.0
  0
LINE
  5
4FB
330
30E
100
AcDbEntity
  8
0
  6
Continuous
 62
     7
370
    25
100
AcDbLine
 10
-149.695906115
 20
-265.5623914696
 30
0.0
 11
-148.0686203598
 21
-270.2213912896
 31
0.0
  0
LINE
  5
4FC
330
30E
100
AcDbEntity
  8
0
  6
Continuous
 62
     7
370
    25
100
AcDbLine
 10
-132.7179437974
 20
-259.5836372926
 30
0.0
 11
-149.695906115
 21
-265.5623914696
 31
0.0
  0
LINE
  5
4FD
330
30E
100
AcDbEntity
  8
0
  6
Continuous
 62
     7
370
    25
100
AcDbLine
 10
149.695906115
 20
-265.5623914696
 30
0.0
 11
132.7179437974
 21
-259.5836372926
 31
0.0
  0
LINE
  5
4FE
330
30E
100
AcDbEntity
  8
0
  6
Continuous
 62
     7
370
    25
100
AcDbLine
 10
148.0686203598
 20
-270.2213912896
 30
0.0
 11
149.695906115
 21
-265.5623914696
 31
0.0
  0
LINE
  5
4FF
330
30E
100
AcDbEntity
  8
0
  6
Continuous
 62
     7
370
    25
100
AcDbLine
 10
143.716876466
 20
-282.5395715609
 30
0.0
 11
145.3441622212
 21
-277.9573650487
 31
0.0
  0
LINE
  5
500
330
30E
100
AcDbEntity
  8
0
  6
Continuous
 62
     7
370
    25
100
AcDbLine
 10
-145.3441622212
 20
-277.9573650487
 30
0.0
 11
-143.716876466
 21
-282.5395715609
 31
0.0
  0
LINE
  5
501
330
30E
100
AcDbEntity
  8
0
  6
Continuous
 62
     7
370
    25
100
AcDbLine
 10
126.7389141484
 20
-276.5608173839
 30
0.0
 11
143.716876466
 21
-282.5395715609
 31
0.0
  0
LINE
  5
502
330
30E
100
AcDbEntity
  8
0
  6
Continuous
 62
     7
370
    25
100
AcDbLine
 10
-143.716876466
 20
-282.5395715609
 30
0.0
 11
-126.7389141484
 21
-276.5608173839
 31
0.0
  0
LINE
  5
503
330
30E
100
AcDbEntity
  8
0
  6
Continuous
 62
     7
370
    25
100
AcDbLine
 10
-157.0
 20
-5.5
 30
0.0
 11
-103.5
 21
-5.5
 31
0.0
  0
LINE
  5
504
330
30E
100
AcDbEntity
  8
0
  6
Continuous
 62
     7
370
    25
100
AcDbLine
 10
-167.0
 20
-117.9945633823
 30
0.0
 11
-167.0
 21
-15.5
 31
0.0
  0
LINE
  5
505
330
30E
100
AcDbEntity
  8
0
  6
Continuous
 62
     7
370
    25
100
AcDbLine
 10
-137.0
 20
-117.9945633823
 30
0.0
 11
-167.0
 21
-117.9945633823
 31
0.0
  0
LINE
  5
506
330
30E
100
AcDbEntity
  8
0
  6
Continuous
 62
     7
370
    25
100
AcDbLine
 10
-167.0
 20
-137.9936419217
 30
0.0
 11
-137.0
 21
-137.9936419217
 31
0.0
  0
LINE
  5
507
330
30E
100
AcDbEntity
  8
0
  6
Continuous
 62
     7
370
    25
100
AcDbLine
 10
-167.0
 20
-222.5
 30
0.0
 11
-167.0
 21
-137.9936419217
 31
0.0
  0
LINE
  5
508
330
30E
100
AcDbEntity
  8
0
  6
Continuous
 62
     7
370
    25
100
AcDbLine
 10
-132.5785020469
 20
-258.4743841159
 30
0.0
 11
-160.5862568461
 21
-268.337256813
 31
0.0
  0
LINE
  5
509
330
30E
100
AcDbEntity
  8
0
  6
Continuous
 62
     7
370
    25
100
AcDbLine
 10
-153.9553221935
 20
-287.2051680185
 30
0.0
 11
-125.9351357702
 21
-277.3379175508
 31
0.0
  0
LINE
  5
50A
330
30E
100
AcDbEntity
  8
0
  6
Continuous
 62
     7
370
    25
100
AcDbLine
 10
125.9351357702
 20
-277.3379175508
 30
0.0
 11
153.9553221935
 21
-287.2051680185
 31
0.0
  0
LINE
  5
50B
330
30E
100
AcDbEntity
  8
0
  6
Continuous
 62
     7
370
    25
100
AcDbLine
 10
160.5862568461
 20
-268.337256813
 30
0.0
 11
132.5785020469
 21
-258.4743841159
 31
0.0
  0
LINE
  5
50C
330
30E
100
AcDbEntity
  8
0
  6
Continuous
 62
     7
370
    25
100
AcDbLine
 10
167.0
 20
-137.9936419217
 30
0.0
 11
167.0
 21
-222.5
 31
0.0
  0
LINE
  5
50D
330
30E
100
AcDbEntity
  8
0
  6
Continuous
 62
     7
370
    25
100
AcDbLine
 10
137.0
 20
-137.9936419217
 30
0.0
 11
167.0
 21
-137.9936419217
 31
0.0
  0
LINE
  5
50E
330
30E
100
AcDbEntity
  8
0
  6
Continuous
 62
     7
370
    25
100
AcDbLine
 10
167.0
 20
-117.9945633823
 30
0.0
 11
137.0
 21
-117.9945633823
 31
0.0
  0
LINE
  5
50F
330
30E
100
AcDbEntity
  8
0
  6
Continuous
 62
     7
370
    25
100
AcDbLine
 10
167.0
 20
-15.5
 30
0.0
 11
167.0
 21
-117.9945633823
 31
0.0
  0
LINE
  5
510
330
30E
100
AcDbEntity
  8
0
  6
Continuous
 62
     7
370
    25
100
AcDbLine
 10
103.5
 20
-5.5
 30
0.0
 11
157.0
 21
-5.5
 31
0.0
  0
LINE
  5
511
330
30E
100
AcDbEntity
  8
0
  6
Continuous
 62
     7
370
    25
100
AcDbLine
 10
103.5
 20
18.0925473896
 30
0.0
 11
103.5
 21
-7.6010205144
 31
0.0
  0
LINE
  5
512
330
30E
100
AcDbEntity
  8
0
  6
Continuous
 62
     7
370
    25
100
AcDbLine
 10
103.5
 20
0.0
 30
0.0
 11
162.5
 21
0.0
 31
0.0
  0
LINE
  5
513
330
30E
100
AcDbEntity
  8
0
  6
Continuous
 62
     7
370
    25
100
AcDbLine
 10
172.5
 20
-10.0
 30
0.0
 11
172.5
 21
-222.5
 31
0.0
  0
LINE
  5
514
330
30E
100
AcDbEntity
  8
0
  6
Continuous
 62
     7
370
    25
100
AcDbLine
 10
-172.5
 20
-222.5
 30
0.0
 11
-172.5
 21
-10.0
 31
0.0
  0
LINE
  5
515
330
30E
100
AcDbEntity
  8
0
  6
Continuous
 62
     7
370
    25
100
AcDbLine
 10
-162.5
 20
0.0
 30
0.0
 11
-103.5
 21
0.0
 31
0.0
  0
LINE
  5
516
330
30E
100
AcDbEntity
  8
0
  6
Continuous
 62
     7
370
    25
100
AcDbLine
 10
-103.5
 20
18.0925473896
 30
0.0
 11
-103.5
 21
-7.6010205144
 31
0.0
  0
LINE
  5
517
330
30E
100
AcDbEntity
  8
0
  6
Continuous
 62
     7
370
    25
100
AcDbLine
 10
-102.2164930665
 20
23.0
 30
0.0
 11
-108.5
 21
23.0
 31
0.0
  0
LINE
  5
518
330
30E
100
AcDbEntity
  8
0
  6
Continuous
 62
     7
370
    25
100
AcDbLine
 10
-108.5
 20
0.0
 30
0.0
 11
-108.5
 21
38.0
 31
0.0
  0
LINE
  5
519
330
30E
100
AcDbEntity
  8
0
  6
Continuous
 62
     7
370
    25
100
AcDbLine
 10
108.5
 20
0.0
 30
0.0
 11
108.5
 21
38.0
 31
0.0
  0
LINE
  5
51A
330
30E
100
AcDbEntity
  8
0
  6
Continuous
 62
     7
370
    25
100
AcDbLine
 10
102.2164930665
 20
23.0
 30
0.0
 11
108.5
 21
23.0
 31
0.0
  0
LINE
  5
51B
330
30E
100
AcDbEntity
  8
0
  6
Continuous
 62
     7
370
    25
100
AcDbLine
 10
137.0
 20
-117.8370004402
 30
0.0
 11
137.0
 21
-117.9945633823
 31
0.0
  0
LINE
  5
51C
330
30E
100
AcDbEntity
  8
0
  6
Continuous
 62
     7
370
    25
100
AcDbLine
 10
-137.0
 20
-117.8370004402
 30
0.0
 11
-137.0
 21
-117.9945633823
 31
0.0
  0
LINE
  5
51D
330
30E
100
AcDbEntity
  8
0
  6
Continuous
 62
     7
370
    25
100
AcDbLine
 10
-160.0
 20
-117.8182445561
 30
0.0
 11
-155.3840553126
 21
-117.8182445561
 31
0.0
  0
LINE
  5
51E
330
30E
100
AcDbEntity
  8
0
  6
Continuous
 62
     7
370
    25
100
AcDbLine
 10
155.3840553126
 20
-117.8182445561
 30
0.0
 11
160.0
 21
-117.8182445561
 31
0.0
  0
LINE
  5
51F
330
30E
100
AcDbEntity
  8
0
  6
Continuous
 62
     7
370
    25
100
AcDbLine
 10
-101.5
 20
24.0
 30
0.0
 11
-101.5
 21
-12.5
 31
0.0
  0
LINE
  5
520
330
30E
100
AcDbEntity
  8
0
  6
Continuous
 62
     7
370
    25
100
AcDbLine
 10
101.5
 20
-12.5
 30
0.0
 11
101.5
 21
24.0
 31
0.0
  0
LINE
  5
521
330
30E
100
AcDbEntity
  8
0
  6
Continuous
 62
     7
370
    25
100
AcDbLine
 10
132.5785020469
 20
-258.35669948
 30
0.0
 11
132.5785020469
 21
-258.4743841159
 31
0.0
  0
LINE
  5
522
330
30E
100
AcDbEntity
  8
0
  6
Continuous
 62
     7
370
    25
100
AcDbLine
 10
-132.5785020469
 20
-258.35669948
 30
0.0
 11
-132.5785020469
 21
-258.4743841159
 31
0.0
  0
LINE
  5
523
330
30E
100
AcDbEntity
  8
0
  6
Continuous
 62
     7
370
    25
100
AcDbLine
 10
160.5862568461
 20
-268.2374869014
 30
0.0
 11
160.5862568461
 21
-268.337256813
 31
0.0
  0
LINE
  5
524
330
30E
100
AcDbEntity
  8
0
  6
Continuous
 62
     7
370
    25
100
AcDbLine
 10
-160.5862568462
 20
-268.2374869014
 30
0.0
 11
-160.5862568461
 21
-268.337256813
 31
0.0
  0
LINE
  5
525
330
30E
100
AcDbEntity
  8
0
  6
Continuous
 62
     7
370
    25
100
AcDbLine
 10
74.5
 20
24.0
 30
0.0
 11
101.5
 21
24.0
 31
0.0
  0
LINE
  5
526
330
30E
100
AcDbEntity
  8
0
  6
Continuous
 62
     7
370
    25
100
AcDbLine
 10
72.6221268552
 20
13.7311364542
 30
0.0
 11
63.5
 21
13.7311364542
 31
0.0
  0
LINE
  5
527
330
30E
100
AcDbEntity
  8
0
  6
Continuous
 62
     7
370
    25
100
AcDbLine
 10
74.5
 20
24.0
 30
0.0
 11
74.5
 21
-0.5
 31
0.0
  0
LINE
  5
528
330
30E
100
AcDbEntity
  8
0
  6
Continuous
 62
     7
370
    25
100
AcDbLine
 10
-74.5
 20
-0.5
 30
0.0
 11
-74.5
 21
24.0
 31
0.0
  0
LINE
  5
529
330
30E
100
AcDbEntity
  8
0
  6
Continuous
 62
     7
370
    25
100
AcDbLine
 10
-72.6221268552
 20
13.7311364542
 30
0.0
 11
-63.5
 21
13.7311364542
 31
0.0
  0
LINE
  5
52A
330
30E
100
AcDbEntity
  8
0
  6
Continuous
 62
     7
370
    25
100
AcDbLine
 10
-101.5
 20
24.0
 30
0.0
 11
-74.5
 21
24.0
 31
0.0
  0
LINE
  5
52B
330
30E
100
AcDbEntity
  8
0
  6
Continuous
 62
     7
370
    25
100
AcDbLine
 10
-101.5
 20
11.0094686076
 30
0.0
 11
-74.5
 21
11.0094686076
 31
0.0
  0
LINE
  5
52C
330
30E
100
AcDbEntity
  8
0
  6
Continuous
 62
     7
370
    25
100
AcDbLine
 10
101.5
 20
11.0094686076
 30
0.0
 11
74.5
 21
11.0094686076
 31
0.0
  0
LINE
  5
52D
330
30E
100
AcDbEntity
  8
0
  6
Continuous
 62
     7
370
    25
100
AcDbLine
 10
-72.5
 20
7.1021793566
 30
0.0
 11
-63.5
 21
7.1021793566
 31
0.0
  0
LINE
  5
52E
330
30E
100
AcDbEntity
  8
0
  6
Continuous
 62
     7
370
    25
100
AcDbLine
 10
72.5
 20
7.1021793566
 30
0.0
 11
63.5
 21
7.1021793566
 31
0.0
  0
LINE
  5
52F
330
30E
100
AcDbEntity
  8
0
  6
Continuous
 62
     7
370
    25
100
AcDbLine
 10
159.7974900476
 20
-222.5
 30
0.0
 11
159.7974900476
 21
-164.0
 31
0.0
  0
LINE
  5
530
330
30E
100
AcDbEntity
  8
0
  6
Continuous
 62
     7
370
    25
100
AcDbLine
 10
-159.7974900476
 20
-164.0
 30
0.0
 11
-159.7974900476
 21
-222.5
 31
0.0
  0
LINE
  5
531
330
30E
100
AcDbEntity
  8
0
  6
Continuous
 62
     7
370
    25
100
AcDbLine
 10
-63.5
 20
0.0767933077
 30
0.0
 11
-72.5
 21
0.0767933077
 31
0.0
  0
LINE
  5
532
330
30E
100
AcDbEntity
  8
0
  6
Continuous
 62
     7
370
    25
100
AcDbLine
 10
-63.5
 20
0.0
 30
0.0
 11
63.5
 21
0.0
 31
0.0
  0
LINE
  5
533
330
30E
100
AcDbEntity
  8
0
  6
Continuous
 62
     7
370
    25
100
AcDbLine
 10
63.5
 20
0.0767933077
 30
0.0
 11
72.5
 21
0.0767933077
 31
0.0
  0
LINE
  5
534
330
30E
100
AcDbEntity
  8
0
  6
Continuous
 62
     7
370
    25
100
AcDbLine
 10
-67.5
 20
-5.5
 30
0.0
 11
67.5
 21
-5.5
 31
0.0
  0
LINE
  5
535
330
30E
100
AcDbEntity
  8
0
  6
Continuous
 62
     7
370
    25
100
AcDbLine
 10
-72.5
 20
11.6337677104
 30
0.0
 11
-72.5
 21
-0.5
 31
0.0
  0
LINE
  5
536
330
30E
100
AcDbEntity
  8
0
  6
Continuous
 62
     7
370
    25
100
AcDbLine
 10
72.5
 20
11.6337677104
 30
0.0
 11
72.5
 21
-0.5
 31
0.0
  0
LINE
  5
537
330
30E
100
AcDbEntity
  8
0
  6
Continuous
 62
     7
370
    25
100
AcDbLine
 10
63.5
 20
0.0
 30
0.0
 11
63.5
 21
38.0
 31
0.0
  0
LINE
  5
538
330
30E
100
AcDbEntity
  8
0
  6
Continuous
 62
     7
370
    25
100
AcDbLine
 10
-63.5
 20
0.0
 30
0.0
 11
-63.5
 21
38.0
 31
0.0
  0
LINE
  5
539
330
30E
100
AcDbEntity
  8
0
  6
Continuous
 62
     7
370
    25
100
AcDbLine
 10
-166.6400075
 20
-233.459375
 30
0.0
 11
-159.4193537234
 21
-233.0
 31
0.0
  0
LINE
  5
53A
330
30E
100
AcDbEntity
  8
0
  6
Continuous
 62
     7
370
    25
100
AcDbLine
 10
159.4193537234
 20
-233.0
 30
0.0
 11
166.6400075
 21
-233.459375
 31
0.0
  0
LINE
  5
53B
330
30E
100
AcDbEntity
  8
0
  6
Continuous
 62
     7
370
    25
100
AcDbLine
 10
-103.5
 20
0.2
 30
0.0
 11
-72.5
 21
0.2
 31
0.0
  0
LINE
  5
53C
330
30E
100
AcDbEntity
  8
0
  6
Continuous
 62
     7
370
    25
100
AcDbLine
 10
103.5
 20
0.2
 30
0.0
 11
72.5
 21
0.2
 31
0.0
  0
LINE
  5
53D
330
30E
100
AcDbEntity
  8
0
  6
Continuous
 62
     7
370
    25
100
AcDbLine
 10
-159.7974900476
 20
-222.5
 30
0.0
 11
-167.0
 21
-222.5
 31
0.0
  0
LINE
  5
53E
330
30E
100
AcDbEntity
  8
0
  6
Continuous
 62
     7
370
    25
100
AcDbLine
 10
159.7974900476
 20
-222.5
 30
0.0
 11
167.0
 21
-222.5
 31
0.0
  0
LINE
  5
53F
330
30E
100
AcDbEntity
  8
0
  6
Continuous
 62
     7
370
    25
100
AcDbLine
 10
-160.0
 20
-15.5
 30
0.0
 11
-167.0
 21
-15.5
 31
0.0
  0
LINE
  5
540
330
30E
100
AcDbEntity
  8
0
  6
Continuous
 62
     7
370
    25
100
AcDbLine
 10
-157.0
 20
-5.5
 30
0.0
 11
-157.0
 21
-12.5
 31
0.0
  0
LINE
  5
541
330
30E
100
AcDbEntity
  8
0
  6
Continuous
 62
     7
370
    25
100
AcDbLine
 10
-160.0
 20
-15.5
 30
0.0
 11
-160.0
 21
-117.8182445561
 31
0.0
  0
LINE
  5
542
330
30E
100
AcDbEntity
  8
0
  6
Continuous
 62
     7
370
    25
100
AcDbLine
 10
167.0
 20
-15.5
 30
0.0
 11
160.0
 21
-15.5
 31
0.0
  0
LINE
  5
543
330
30E
100
AcDbEntity
  8
0
  6
Continuous
 62
     7
370
    25
100
AcDbLine
 10
160.0
 20
-117.8182445561
 30
0.0
 11
160.0
 21
-15.5
 31
0.0
  0
LINE
  5
544
330
30E
100
AcDbEntity
  8
0
  6
Continuous
 62
     7
370
    25
100
AcDbLine
 10
-101.5
 20
-12.5
 30
0.0
 11
-157.0
 21
-12.5
 31
0.0
  0
LINE
  5
545
330
30E
100
AcDbEntity
  8
0
  6
Continuous
 62
     7
370
    25
100
AcDbLine
 10
157.0
 20
-12.5
 30
0.0
 11
157.0
 21
-5.5
 31
0.0
  0
LINE
  5
546
330
30E
100
AcDbEntity
  8
0
  6
Continuous
 62
     7
370
    25
100
AcDbLine
 10
157.0
 20
-12.5
 30
0.0
 11
101.5
 21
-12.5
 31
0.0
  0
LINE
  5
547
330
30E
100
AcDbEntity
  8
0
  6
Continuous
 62
     7
370
    25
100
AcDbLine
 10
-42.2458185064
 20
-7.5
 30
0.0
 11
-42.2458185064
 21
-5.5
 31
0.0
  0
LINE
  5
548
330
30E
100
AcDbEntity
  8
0
  6
Continuous
 62
     7
370
    25
100
AcDbLine
 10
42.2458185064
 20
-7.5
 30
0.0
 11
42.2458185064
 21
-5.5
 31
0.0
  0
LINE
  5
549
330
30E
100
AcDbEntity
  8
0
  6
Continuous
 62
     7
370
    25
100
AcDbLine
 10
74.5
 20
-0.5
 30
0.0
 11
72.5
 21
-0.5
 31
0.0
  0
LINE
  5
54A
330
30E
100
AcDbEntity
  8
0
  6
Continuous
 62
     7
370
    25
100
AcDbLine
 10
-74.5
 20
-0.5
 30
0.0
 11
-72.5
 21
-0.5
 31
0.0
  0
LINE
  5
54B
330
30E
100
AcDbEntity
  8
0
  6
Continuous
 62
     7
370
    25
100
AcDbLine
 10
67.5
 20
-7.5
 30
0.0
 11
67.5
 21
-5.5
 31
0.0
  0
LINE
  5
54C
330
30E
100
AcDbEntity
  8
0
  6
Continuous
 62
     7
370
    25
100
AcDbLine
 10
-42.2458185064
 20
-7.5
 30
0.0
 11
-67.5
 21
-7.5
 31
0.0
  0
LINE
  5
54D
330
30E
100
AcDbEntity
  8
0
  6
Continuous
 62
     7
370
    25
100
AcDbLine
 10
-67.5
 20
-7.5
 30
0.0
 11
-67.5
 21
-5.5
 31
0.0
  0
LINE
  5
54E
330
30E
100
AcDbEntity
  8
0
  6
Continuous
 62
     7
370
    25
100
AcDbLine
 10
67.5
 20
-7.5
 30
0.0
 11
42.2458185064
 21
-7.5
 31
0.0
  0
LINE
  5
54F
330
30E
100
AcDbEntity
  8
0
  6
Continuous
 62
     7
370
    25
100
AcDbLine
 10
-58.15
 20
36.4549363383
 30
0.0
 11
-63.5
 21
36.4549363383
 31
0.0
  0
LINE
  5
550
330
30E
100
AcDbEntity
  8
0
  6
Continuous
 62
     7
370
    25
100
AcDbLine
 10
-63.5
 20
37.7773414598
 30
0.0
 11
-58.15
 21
37.7773414598
 31
0.0
  0
LINE
  5
551
330
30E
100
AcDbEntity
  8
0
  6
Continuous
 62
     7
370
    25
100
AcDbLine
 10
58.15
 20
37.7773414598
 30
0.0
 11
63.5
 21
37.7773414598
 31
0.0
  0
LINE
  5
552
330
30E
100
AcDbEntity
  8
0
  6
Continuous
 62
     7
370
    25
100
AcDbLine
 10
63.5
 20
36.4549363383
 30
0.0
 11
58.15
 21
36.4549363383
 31
0.0
  0
LINE
  5
553
330
30E
100
AcDbEntity
  8
0
  6
Continuous
 62
     8
370
    25
100
AcDbLine
 10
-108.5
 20
3.1881051481
 30
0.0
 11
-130.5
 21
3.1881051481
 31
0.0
  0
LINE
  5
554
330
30E
100
AcDbEntity
  8
0
  6
Continuous
 62
     8
370
    25
100
AcDbLine
 10
130.5
 20
3.1881051481
 30
0.0
 11
108.5
 21
3.1881051481
 31
0.0
  0
LINE
  5
555
330
30E
100
AcDbEntity
  8
0
  6
Continuous
 62
     8
370
    25
100
AcDbLine
 10
106.5
 20
38.0
 30
0.0
 11
106.5
 21
38.1647662406
 31
0.0
  0
LINE
  5
556
330
30E
100
AcDbEntity
  8
0
  6
Continuous
 62
     8
370
    25
100
AcDbLine
 10
-106.5
 20
38.0
 30
0.0
 11
-106.5
 21
38.1647662406
 31
0.0
  0
LINE
  5
557
330
30E
100
AcDbEntity
  8
0
  6
Continuous
 62
     8
370
    25
100
AcDbLine
 10
-58.15
 20
36.4549363383
 30
0.0
 11
-58.15
 21
37.7773414598
 31
0.0
  0
LINE
  5
558
330
30E
100
AcDbEntity
  8
0
  6
Continuous
 62
     8
370
    25
100
AcDbLine
 10
58.15
 20
36.4549363383
 30
0.0
 11
58.15
 21
37.7773414598
 31
0.0
  0
ARC
  5
559
330
30E
100
AcDbEntity
  8
0
  6
Continuous
 62
     7
370
    25
100
AcDbCircle
 10
178.000023036
 20
37.008931104
 30
0.0
 40
0.9999769642805809
100
AcDbArc
 50
0.0013199559
 51
90.0013198951
  0
ARC
  5
55A
330
30E
100
AcDbEntity
  8
0
  6
Continuous
 62
     7
370
    25
100
AcDbCircle
 10
178.249976964
 20
45.8880879308
 30
0.0
 40
26.05233480571393
100
AcDbArc
 50
269.4502279775
 51
271.6497213453
  0
ARC
  5
55B
330
30E
100
AcDbEntity
  8
0
  6
Continuous
 62
     7
370
    25
100
AcDbCircle
 10
-178.249976964
 20
45.8880879307
 30
0.0
 40
26.05233480563702
100
AcDbArc
 50
268.3502786547
 51
270.5497720225
  0
ARC
  5
55C
330
30E
100
AcDbEntity
  8
0
  6
Continuous
 62
     7
370
    25
100
AcDbCircle
 10
-178.000023036
 20
37.008931104
 30
0.0
 40
0.9999769642806338
100
AcDbArc
 50
89.9986801049
 51
179.9986800441
  0
ARC
  5
55D
330
30E
100
AcDbEntity
  8
0
  6
Continuous
 62
     7
370
    25
100
AcDbCircle
 10
174.250023036
 20
45.8880879308
 30
0.0
 40
26.05233480571109
100
AcDbArc
 50
268.3502786547
 51
270.5497720225
  0
ARC
  5
55E
330
30E
100
AcDbEntity
  8
0
  6
Continuous
 62
     7
370
    25
100
AcDbCircle
 10
-174.250023036
 20
45.8880879307
 30
0.0
 40
26.05233480561103
100
AcDbArc
 50
269.4502279775
 51
271.6497213453
  0
ARC
  5
55F
330
30E
100
AcDbEntity
  8
0
  6
Continuous
 62
     7
370
    25
100
AcDbCircle
 10
0.0
 20
-223.1453397271
 30
0.0
 40
178.0000001191215
100
AcDbArc
 50
180.002096152
 51
359.997903848
  0
ARC
  5
560
330
30E
100
AcDbEntity
  8
0
  6
Continuous
 62
     7
370
    25
100
AcDbCircle
 10
0.0
 20
-223.1454677737
 30
0.0
 40
174.5000001167792
100
AcDbArc
 50
180.002096152
 51
359.997903848
  0
ARC
  5
561
330
30E
100
AcDbEntity
  8
0
  6
Continuous
 62
     7
370
    25
100
AcDbCircle
 10
-174.250023036
 20
-197.1007163228
 30
0.0
 40
26.05233480561765
100
AcDbArc
 50
269.4502279775
 51
271.6497213453
  0
ARC
  5
562
330
30E
100
AcDbEntity
  8
0
  6
Continuous
 62
     7
370
    25
100
AcDbCircle
 10
-178.249976964
 20
-197.1007163227
 30
0.0
 40
26.05233480575165
100
AcDbArc
 50
268.3502786547
 51
270.5497720225
  0
ARC
  5
563
330
30E
100
AcDbEntity
  8
0
  6
Continuous
 62
     7
370
    25
100
AcDbCircle
 10
178.249976964
 20
-197.1007163227
 30
0.0
 40
26.05233480574887
100
AcDbArc
 50
269.4502279775
 51
271.6497213453
  0
ARC
  5
564
330
30E
100
AcDbEntity
  8
0
  6
Continuous
 62
     7
370
    25
100
AcDbCircle
 10
174.250023036
 20
-197.1007163228
 30
0.0
 40
26.05233480561876
100
AcDbArc
 50
268.3502786547
 51
270.5497720225
  0
ARC
  5
565
330
30E
100
AcDbEntity
  8
0
  6
Continuous
 62
     7
370
    25
100
AcDbCircle
 10
-109.499976964
 20
9.0006680595
 30
0.0
 40
0.9999769642810037
100
AcDbArc
 50
269.9986801049
 51
359.9986800441
  0
ARC
  5
566
330
30E
100
AcDbEntity
  8
0
  6
Continuous
 62
     7
370
    25
100
AcDbCircle
 10
122.500023036
 20
9.0006680595
 30
0.0
 40
0.9999769642810037
100
AcDbArc
 50
269.9986801049
 51
359.9986800441
  0
ARC
  5
567
330
30E
100
AcDbEntity
  8
0
  6
Continuous
 62
     7
370
    25
100
AcDbCircle
 10
109.499976964
 20
9.0006680595
 30
0.0
 40
0.9999769642805934
100
AcDbArc
 50
180.0013199559
 51
270.0013198951
  0
ARC
  5
568
330
30E
100
AcDbEntity
  8
0
  6
Continuous
 62
     7
370
    25
100
AcDbCircle
 10
-122.500023036
 20
9.0006680595
 30
0.0
 40
0.9999769642805827
100
AcDbArc
 50
180.0013199559
 51
270.0013198951
  0
ARC
  5
569
330
30E
100
AcDbEntity
  8
0
  6
Continuous
 62
     7
370
    25
100
AcDbCircle
 10
0.0
 20
-223.1358635191
 30
0.0
 40
173.5000001176398
100
AcDbArc
 50
180.0021099148
 51
359.9978900852
  0
ARC
  5
56A
330
30E
100
AcDbEntity
  8
0
  6
Continuous
 62
     7
370
    25
100
AcDbCircle
 10
0.0
 20
-223.1356606226
 30
0.0
 40
179.0000001213821
100
AcDbArc
 50
180.0021100298
 51
359.9978899702
  0
ARC
  5
56B
330
30E
100
AcDbEntity
  8
0
  6
Continuous
 62
     7
370
    25
100
AcDbCircle
 10
0.0
 20
-222.8622873604
 30
0.0
 40
173.5000001176397
100
AcDbArc
 50
180.0021099148
 51
359.9978900852
  0
ARC
  5
56C
330
30E
100
AcDbEntity
  8
0
  6
Continuous
 62
     7
370
    25
100
AcDbCircle
 10
109.499976964
 20
37.008931104
 30
0.0
 40
0.9999769642805911
100
AcDbArc
 50
89.9986801049
 51
179.9986800441
  0
ARC
  5
56D
330
30E
100
AcDbEntity
  8
0
  6
Continuous
 62
     7
370
    25
100
AcDbCircle
 10
-109.499976964
 20
37.008931104
 30
0.0
 40
0.9999769642805525
100
AcDbArc
 50
0.0013199559
 51
90.0013198951
  0
ARC
  5
56E
330
30E
100
AcDbEntity
  8
0
  6
Continuous
 62
     7
370
    25
100
AcDbCircle
 10
-107.8122303897
 20
-39.3965402355
 30
0.0
 40
77.58860425813113
100
AcDbArc
 50
90.2555672218
 51
91.0738048779
  0
ARC
  5
56F
330
30E
100
AcDbEntity
  8
0
  6
Continuous
 62
     7
370
    25
100
AcDbCircle
 10
109.499976964
 20
37.1673173011
 30
0.0
 40
0.9999769642805911
100
AcDbArc
 50
89.9986801049
 51
179.9986800441
  0
ARC
  5
570
330
30E
100
AcDbEntity
  8
0
  6
Continuous
 62
     7
370
    25
100
AcDbCircle
 10
-109.499976964
 20
37.1673173011
 30
0.0
 40
0.9999769642805201
100
AcDbArc
 50
0.0013199559
 51
90.0013198951
  0
ARC
  5
571
330
30E
100
AcDbEntity
  8
0
  6
Continuous
 62
     7
370
    25
100
AcDbCircle
 10
108.3803007333
 20
13.0844476036
 30
0.0
 40
25.10782593319671
100
AcDbArc
 50
87.4440110371
 51
90.5065815185
  0
ARC
  5
572
330
30E
100
AcDbEntity
  8
0
  6
Continuous
 62
     7
370
    25
100
AcDbCircle
 10
178.000023036
 20
37.1913152098
 30
0.0
 40
0.999976964280588
100
AcDbArc
 50
0.0013199559
 51
90.0013198951
  0
ARC
  5
573
330
30E
100
AcDbEntity
  8
0
  6
Continuous
 62
     7
370
    25
100
AcDbCircle
 10
-178.000023036
 20
37.1913152098
 30
0.0
 40
0.9999769642806053
100
AcDbArc
 50
89.9986801049
 51
179.9986800441
  0
ARC
  5
574
330
30E
100
AcDbEntity
  8
0
  6
Continuous
 62
     7
370
    25
100
AcDbCircle
 10
390.0778411795
 20
-492.031392578
 30
0.0
 40
734.1891402582736
100
AcDbArc
 50
134.4130158148
 51
135.1577873263
  0
ARC
  5
575
330
30E
100
AcDbEntity
  8
0
  6
Continuous
 62
     7
370
    25
100
AcDbCircle
 10
-123.6988166366
 20
7.9688861405
 30
0.0
 40
1.168782481922922
100
AcDbArc
 50
80.206031569
 51
91.1502507819
  0
ARC
  5
576
330
30E
100
AcDbEntity
  8
0
  6
Continuous
 62
     7
370
    25
100
AcDbCircle
 10
168.2498387481
 20
-156.6708799286
 30
0.0
 40
182.366343639723
100
AcDbArc
 50
88.3502786547
 51
90.5497720225
  0
ARC
  5
577
330
30E
100
AcDbEntity
  8
0
  6
Continuous
 62
     7
370
    25
100
AcDbCircle
 10
-494.1726410848
 20
-596.9088912643
 30
0.0
 40
881.9533080842708
100
AcDbArc
 50
44.9046035756
 51
45.5245932833
  0
ARC
  5
578
330
30E
100
AcDbEntity
  8
0
  6
Continuous
 62
     7
370
    25
100
AcDbCircle
 10
123.6988166366
 20
7.9688861405
 30
0.0
 40
1.168782481920976
100
AcDbArc
 50
88.8497492181
 51
99.793968431
  0
ARC
  5
579
330
30E
100
AcDbEntity
  8
0
  6
Continuous
 62
     7
370
    25
100
AcDbCircle
 10
-168.2498387481
 20
-156.6708799286
 30
0.0
 40
182.3663436397755
100
AcDbArc
 50
89.4502279775
 51
91.6497213453
  0
ARC
  5
57A
330
30E
100
AcDbEntity
  8
0
  6
Continuous
 62
     7
370
    25
100
AcDbCircle
 10
-109.4395666661
 20
8.4342208164
 30
0.0
 40
0.9421263266611899
100
AcDbArc
 50
266.3221981583
 51
355.7755261618
  0
ARC
  5
57B
330
30E
100
AcDbEntity
  8
0
  6
Continuous
 62
     7
370
    25
100
AcDbCircle
 10
109.4395666661
 20
8.4342208164
 30
0.0
 40
0.9421263266611909
100
AcDbArc
 50
184.2244738382
 51
273.6778018417
  0
ARC
  5
57C
330
30E
100
AcDbEntity
  8
0
  6
Continuous
 62
     7
370
    25
100
AcDbCircle
 10
0.0
 20
-233.0
 30
0.0
 40
108.0
100
AcDbArc
 50
180.0
 51
0.0
  0
ARC
  5
57D
330
30E
100
AcDbEntity
  8
0
  6
Continuous
 62
     7
370
    25
100
AcDbCircle
 10
0.0
 20
-164.0
 30
0.0
 40
108.0
100
AcDbArc
 50
0.0
 51
180.0
  0
ARC
  5
57E
330
30E
100
AcDbEntity
  8
0
  6
Continuous
 62
     7
370
    25
100
AcDbCircle
 10
0.0
 20
-233.0
 30
0.0
 40
113.5000000000001
100
AcDbArc
 50
180.0
 51
0.0
  0
ARC
  5
57F
330
30E
100
AcDbEntity
  8
0
  6
Continuous
 62
     7
370
    25
100
AcDbCircle
 10
0.0
 20
-164.0
 30
0.0
 40
113.5
100
AcDbArc
 50
0.0
 51
180.0
  0
ARC
  5
580
330
30E
100
AcDbEntity
  8
0
  6
Continuous
 62
     7
370
    25
100
AcDbCircle
 10
137.4998629811
 20
-128.0324993059
 30
0.0
 40
4.100831570277578
100
AcDbArc
 50
89.998085606
 51
270.001914394
  0
ARC
  5
581
330
30E
100
AcDbEntity
  8
0
  6
Continuous
 62
     7
370
    25
100
AcDbCircle
 10
137.4996785855
 20
-127.994102652
 30
0.0
 40
8.999585348460988
100
AcDbArc
 50
89.9979537177
 51
270.0020462823
  0
ARC
  5
582
330
30E
100
AcDbEntity
  8
0
  6
Continuous
 62
     7
370
    25
100
AcDbCircle
 10
155.5003214145
 20
-127.994102652
 30
0.0
 40
8.99958534846096
100
AcDbArc
 50
269.9979537177
 51
90.0020462823
  0
ARC
  5
583
330
30E
100
AcDbEntity
  8
0
  6
Continuous
 62
     7
370
    25
100
AcDbCircle
 10
155.5001370189
 20
-128.0324993059
 30
0.0
 40
4.100831570277607
100
AcDbArc
 50
269.998085606
 51
90.001914394
  0
ARC
  5
584
330
30E
100
AcDbEntity
  8
0
  6
Continuous
 62
     7
370
    25
100
AcDbCircle
 10
-155.5003214145
 20
-127.994102652
 30
0.0
 40
8.999585348460988
100
AcDbArc
 50
89.9979537177
 51
270.0020462823
  0
ARC
  5
585
330
30E
100
AcDbEntity
  8
0
  6
Continuous
 62
     7
370
    25
100
AcDbCircle
 10
-155.5001370189
 20
-128.0324993059
 30
0.0
 40
4.100831570277635
100
AcDbArc
 50
89.998085606
 51
270.001914394
  0
ARC
  5
586
330
30E
100
AcDbEntity
  8
0
  6
Continuous
 62
     7
370
    25
100
AcDbCircle
 10
-137.4998629811
 20
-128.0324993059
 30
0.0
 40
4.100831570277635
100
AcDbArc
 50
269.998085606
 51
90.001914394
  0
ARC
  5
587
330
30E
100
AcDbEntity
  8
0
  6
Continuous
 62
     7
370
    25
100
AcDbCircle
 10
-137.4996785855
 20
-127.994102652
 30
0.0
 40
8.999585348460988
100
AcDbArc
 50
269.9979537177
 51
90.0020462823
  0
ARC
  5
588
330
30E
100
AcDbEntity
  8
0
  6
Continuous
 62
     7
370
    25
100
AcDbCircle
 10
0.0
 20
-164.0
 30
0.0
 40
117.4550253011657
100
AcDbArc
 50
0.0
 51
180.0
  0
ARC
  5
589
330
30E
100
AcDbEntity
  8
0
  6
Continuous
 62
     7
370
    25
100
AcDbCircle
 10
129.7283282533
 20
-268.1105885206
 30
0.0
 40
4.100852417361152
100
AcDbArc
 50
70.5972446914
 51
250.6002285747
  0
ARC
  5
58A
330
30E
100
AcDbEntity
  8
0
  6
Continuous
 62
     7
370
    25
100
AcDbCircle
 10
129.7281727417
 20
-268.0721370987
 30
0.0
 40
8.99963109929702
100
AcDbArc
 50
70.5970071391
 51
250.6004661271
  0
ARC
  5
58B
330
30E
100
AcDbEntity
  8
0
  6
Continuous
 62
     7
370
    25
100
AcDbCircle
 10
-129.7283282533
 20
-268.1105885206
 30
0.0
 40
4.100852417361185
100
AcDbArc
 50
289.3997714253
 51
109.4027553086
  0
ARC
  5
58C
330
30E
100
AcDbEntity
  8
0
  6
Continuous
 62
     7
370
    25
100
AcDbCircle
 10
-129.7282126746
 20
-268.0721511622
 30
0.0
 40
8.999631098118643
100
AcDbArc
 50
289.3998034091
 51
109.4027233248
  0
ARC
  5
58D
330
30E
100
AcDbEntity
  8
0
  6
Continuous
 62
     7
370
    25
100
AcDbCircle
 10
146.7064920101
 20
-274.0894136406
 30
0.0
 40
4.100852417361178
100
AcDbArc
 50
250.5972446914
 51
70.6002285747
  0
ARC
  5
58E
330
30E
100
AcDbEntity
  8
0
  6
Continuous
 62
     7
370
    25
100
AcDbCircle
 10
-146.7064920101
 20
-274.0894136406
 30
0.0
 40
4.10085241736122
100
AcDbArc
 50
109.3997714253
 51
289.4027553086
  0
ARC
  5
58F
330
30E
100
AcDbEntity
  8
0
  6
Continuous
 62
     7
370
    25
100
AcDbCircle
 10
146.7066475217
 20
-274.0510717548
 30
0.0
 40
8.9996310992971
100
AcDbArc
 50
250.5970071391
 51
70.6004661271
  0
ARC
  5
590
330
30E
100
AcDbEntity
  8
0
  6
Continuous
 62
     7
370
    25
100
AcDbCircle
 10
-146.7066075888
 20
-274.0510576913
 30
0.0
 40
8.999631098118707
100
AcDbArc
 50
109.3998034091
 51
289.4027233248
  0
ARC
  5
591
330
30E
100
AcDbEntity
  8
0
  6
Continuous
 62
     7
370
    25
100
AcDbCircle
 10
-157.0
 20
-15.5
 30
0.0
 40
10.00000000000001
100
AcDbArc
 50
90.0
 51
180.0
  0
ARC
  5
592
330
30E
100
AcDbEntity
  8
0
  6
Continuous
 62
     7
370
    25
100
AcDbCircle
 10
-136.9996292414
 20
-127.994102652
 30
0.0
 40
9.999539276563928
100
AcDbArc
 50
269.9978756119
 51
90.0021243881
  0
ARC
  5
593
330
30E
100
AcDbEntity
  8
0
  6
Continuous
 62
     7
370
    25
100
AcDbCircle
 10
0.0
 20
-222.5
 30
0.0
 40
166.9999999999994
100
AcDbArc
 50
180.0
 51
195.9307057138
  0
ARC
  5
594
330
30E
100
AcDbEntity
  8
0
  6
Continuous
 62
     7
370
    25
100
AcDbCircle
 10
-129.256546372
 20
-267.9060548513
 30
0.0
 40
9.999590109949082
100
AcDbArc
 50
289.3996077709
 51
109.4029189629
  0
ARC
  5
595
330
30E
100
AcDbEntity
  8
0
  6
Continuous
 62
     7
370
    25
100
AcDbCircle
 10
0.0
 20
-222.5
 30
0.0
 40
166.9999999999999
100
AcDbArc
 50
202.7963025854
 51
337.2036974146
  0
ARC
  5
596
330
30E
100
AcDbEntity
  8
0
  6
Continuous
 62
     7
370
    25
100
AcDbCircle
 10
129.256546372
 20
-267.9060548513
 30
0.0
 40
9.999590109949212
100
AcDbArc
 50
70.5970810371
 51
250.6003922291
  0
ARC
  5
597
330
30E
100
AcDbEntity
  8
0
  6
Continuous
 62
     7
370
    25
100
AcDbCircle
 10
0.0
 20
-222.5
 30
0.0
 40
166.9999999999988
100
AcDbArc
 50
344.0692942862
 51
0.0
  0
ARC
  5
598
330
30E
100
AcDbEntity
  8
0
  6
Continuous
 62
     7
370
    25
100
AcDbCircle
 10
136.9996292414
 20
-127.994102652
 30
0.0
 40
9.99953927656387
100
AcDbArc
 50
89.9978756119
 51
270.0021243881
  0
ARC
  5
599
330
30E
100
AcDbEntity
  8
0
  6
Continuous
 62
     7
370
    25
100
AcDbCircle
 10
157.0
 20
-15.5
 30
0.0
 40
10.00000000000003
100
AcDbArc
 50
0.0
 51
90.0
  0
ARC
  5
59A
330
30E
100
AcDbEntity
  8
0
  6
Continuous
 62
     7
370
    25
100
AcDbCircle
 10
0.0
 20
-222.5
 30
0.0
 40
172.4999999999999
100
AcDbArc
 50
180.0
 51
0.0
  0
ARC
  5
59B
330
30E
100
AcDbEntity
  8
0
  6
Continuous
 62
     7
370
    25
100
AcDbCircle
 10
162.5
 20
-10.0
 30
0.0
 40
10.00000000000006
100
AcDbArc
 50
0.0
 51
90.0
  0
ARC
  5
59C
330
30E
100
AcDbEntity
  8
0
  6
Continuous
 62
     7
370
    25
100
AcDbCircle
 10
-162.5
 20
-10.0
 30
0.0
 40
10.00000000000006
100
AcDbArc
 50
90.0
 51
180.0
  0
ARC
  5
59D
330
30E
100
AcDbEntity
  8
0
  6
Continuous
 62
     7
370
    25
100
AcDbCircle
 10
-161.821731927
 20
-292.6786139329
 30
0.0
 40
174.8698587115572
100
AcDbArc
 50
89.4031021718
 51
91.6968978282
  0
ARC
  5
59E
330
30E
100
AcDbEntity
  8
0
  6
Continuous
 62
     7
370
    25
100
AcDbCircle
 10
161.7498387332
 20
-300.16779585
 30
0.0
 40
182.3579468865902
100
AcDbArc
 50
88.3502026669
 51
90.5497973331
  0
ARC
  5
59F
330
30E
100
AcDbEntity
  8
0
  6
Continuous
 62
     7
370
    25
100
AcDbCircle
 10
-101.565033403
 20
9.0743386182
 30
0.0
 40
1.93622246116959
100
AcDbArc
 50
88.0752002669
 51
177.9362607774
  0
ARC
  5
5A0
330
30E
100
AcDbEntity
  8
0
  6
Continuous
 62
     7
370
    25
100
AcDbCircle
 10
101.565033403
 20
9.0743386182
 30
0.0
 40
1.93622246116959
100
AcDbArc
 50
2.0637392226
 51
91.9247997331
  0
ARC
  5
5A1
330
30E
100
AcDbEntity
  8
0
  6
Continuous
 62
     7
370
    25
100
AcDbCircle
 10
74.434966597
 20
9.0743386182
 30
0.0
 40
1.936222461169576
100
AcDbArc
 50
88.0752002669
 51
177.9362607774
  0
ARC
  5
5A2
330
30E
100
AcDbEntity
  8
0
  6
Continuous
 62
     7
370
    25
100
AcDbCircle
 10
-74.434966597
 20
9.0743386182
 30
0.0
 40
1.936222461169576
100
AcDbArc
 50
2.0637392226
 51
91.9247997331
  0
ARC
  5
5A3
330
30E
100
AcDbEntity
  8
0
  6
Continuous
 62
     7
370
    25
100
AcDbCircle
 10
0.0
 20
-164.0
 30
0.0
 40
162.10169394944
100
AcDbArc
 50
105.1064420618
 51
163.4475038649
  0
ARC
  5
5A4
330
30E
100
AcDbEntity
  8
0
  6
Continuous
 62
     7
370
    25
100
AcDbCircle
 10
0.0
 20
-164.0
 30
0.0
 40
162.10169394944
100
AcDbArc
 50
16.5524961351
 51
74.8935579382
  0
ARC
  5
5A5
330
30E
100
AcDbEntity
  8
0
  6
Continuous
 62
     7
370
    25
100
AcDbCircle
 10
-67.5
 20
-0.5
 30
0.0
 40
5.000000000000032
100
AcDbArc
 50
180.0
 51
270.0
  0
ARC
  5
5A6
330
30E
100
AcDbEntity
  8
0
  6
Continuous
 62
     7
370
    25
100
AcDbCircle
 10
67.5
 20
-0.5
 30
0.0
 40
4.999999999999987
100
AcDbArc
 50
270.0
 51
0.0
  0
ARC
  5
5A7
330
30E
100
AcDbEntity
  8
0
  6
Continuous
 62
     7
370
    25
100
AcDbCircle
 10
-157.0
 20
-15.5
 30
0.0
 40
3.000000000000005
100
AcDbArc
 50
90.0
 51
180.0
  0
ARC
  5
5A8
330
30E
100
AcDbEntity
  8
0
  6
Continuous
 62
     7
370
    25
100
AcDbCircle
 10
157.0
 20
-15.5
 30
0.0
 40
3.000000000000004
100
AcDbArc
 50
0.0
 51
90.0
  0
ARC
  5
5A9
330
30E
100
AcDbEntity
  8
0
  6
Continuous
 62
     7
370
    25
100
AcDbCircle
 10
67.5
 20
-0.5
 30
0.0
 40
6.999999999999986
100
AcDbArc
 50
270.0
 51
0.0
  0
ARC
  5
5AA
330
30E
100
AcDbEntity
  8
0
  6
Continuous
 62
     7
370
    25
100
AcDbCircle
 10
-67.5
 20
-0.5
 30
0.0
 40
7.0
100
AcDbArc
 50
180.0
 51
270.0
  0
ARC
  5
5AB
330
30E
100
AcDbEntity
  8
0
  6
Continuous
 62
     8
370
    25
100
AcDbCircle
 10
-109.2619239276
 20
35.6306298393
 30
0.0
 40
2.54781212519148
100
AcDbArc
 50
90.0976615729
 51
95.361731145
  0
ARC
  5
5AC
330
30E
100
AcDbEntity
  8
0
  6
Continuous
 62
     8
370
    25
100
AcDbCircle
 10
-172.5839238087
 20
-234.8705417352
 30
0.0
 40
12.03677552031005
100
AcDbArc
 50
89.5989745872
 51
94.3647986392
  0
ARC
  5
5AD
330
30E
100
AcDbEntity
  8
0
  6
Continuous
 62
     8
370
    25
100
AcDbCircle
 10
172.5839238087
 20
-234.8705417352
 30
0.0
 40
12.03677552031036
100
AcDbArc
 50
85.6352013608
 51
90.4010254128
  0
ARC
  5
5AE
330
30E
100
AcDbEntity
  8
0
  6
Continuous
 62
     8
370
    25
100
AcDbCircle
 10
-122.7302265568
 20
9.1255676967
 30
0.0
 40
0.9921235426793543
100
AcDbArc
 50
179.3147488107
 51
247.3656389008
  0
ARC
  5
5AF
330
30E
100
AcDbEntity
  8
0
  6
Continuous
 62
     8
370
    25
100
AcDbCircle
 10
122.7302265568
 20
9.1255676967
 30
0.0
 40
0.9921235426771137
100
AcDbArc
 50
292.6343610951
 51
0.6852511893
  0
ARC
  5
5B0
330
30E
100
AcDbEntity
  8
0
  6
Continuous
 62
     8
370
    25
100
AcDbCircle
 10
-108.2044095926
 20
37.7478383504
 30
0.0
 40
0.4458432965365529
100
AcDbArc
 50
34.4428262459
 51
84.0653960041
  0
ARC
  5
5B1
330
30E
100
AcDbEntity
  8
0
  6
Continuous
 62
     8
370
    25
100
AcDbCircle
 10
108.2044095926
 20
37.7478383504
 30
0.0
 40
0.4458432965368774
100
AcDbArc
 50
95.9346039959
 51
145.557173754
  0
VIEWPORT
  5
5B8
330
30E
100
AcDbEntity
  8
0
100
AcDbViewport
 10
0.0
 20
0.0
 30
0.0
 40
205.6
 41
156.0
 68
     1
 69
     1
 12
0.0
 22
19.6791624556
 13
0.0
 23
0.0
 14
10.0
 24
10.0
 15
10.0
 25
10.0
 16
0.0
 26
0.0
 36
1.0
 17
0.0
 27
0.0
 37
0.0
 42
50.0
 43
0.0
 44
0.0
 45
277.06692607
 50
0.0
 51
0.0
 72
   100
 90
   557152
  1

281
     0
 71
     1
 74
     0
110
0.0
120
0.0
130
0.0
111
1.0
121
0.0
131
0.0
112
0.0
122
1.0
132
0.0
 79
     0
146
0.0
  0
ENDBLK
  5
311
330
30E
100
AcDbEntity
  8
0
100
AcDbBlockEnd
  0
ENDSEC
  0
SECTION
  2
ENTITIES
  0
SPLINE
  5
76
330
1F
100
AcDbEntity
  8
0
  6
Continuous
 62
     7
370
    25
100
AcDbSpline
210
0.0
220
0.0
230
1.0
 70
     8
 71
     3
 72
    17
 73
    13
 74
     0
 42
0.000000001
 43
0.00000001
 40
0.0
 40
0.0
 40
0.0
 40
0.0
 40
0.0408231557104183
 40
0.1314109870109407
 40
0.2294768568616411
 40
0.3420698182801921
 40
0.4685551513415908
 40
0.6046665800024246
 40
0.7282197528605174
 40
0.8330075015283792
 40
0.9228348288137284
 40
1.0
 40
1.0
 40
1.0
 40
1.0
 10
-173.4987716113985
 20
2.425239034695364
 30
0.0
 10
-173.498756337097
 20
2.416766764995644
 30
0.0
 10
-173.4987071686531
 20
2.389494269665778
 30
0.0
 10
-173.4165127405223
 20
2.669161425297245
 30
0.0
 10
-173.1297025394421
 20
3.126522966074942
 30
0.0
 10
-172.615174379204
 20
3.777321124352737
 30
0.0
 10
-171.8421941080039
 20
4.562835897834233
 30
0.0
 10
-170.8520193508909
 20
5.395959428872221
 30
0.0
 10
-169.7360246585098
 20
6.135925966841114
 30
0.0
 10
-168.6139432548085
 20
6.677014375734927
 30
0.0
 10
-167.536132274682
 20
7.007595310381793
 30
0.0
 10
-166.8267681911211
 20
7.045284305962693
 30
0.0
 10
-166.4989798087545
 20
7.062699925361509
 30
0.0
  0
SPLINE
  5
77
330
1F
100
AcDbEntity
  8
0
  6
Continuous
 62
     7
370
    25
100
AcDbSpline
210
0.0
220
0.0
230
1.0
 70
     8
 71
     3
 72
    17
 73
    13
 74
     0
 42
0.000000001
 43
0.00000001
 40
0.0
 40
0.0
 40
0.0
 40
0.0
 40
0.0775764043137505
 40
0.1663475304500325
 40
0.2663965123969009
 40
0.3821382371359267
 40
0.5156021282385012
 40
0.6574712939576712
 40
0.7741330640677122
 40
0.8774866233228118
 40
0.9668540803001779
 40
1.0
 40
1.0
 40
1.0
 40
1.0
 10
166.4982786234129
 20
7.055425241763047
 30
0.0
 10
166.8283163364794
 20
7.041269670953844
 30
0.0
 10
167.5360181049444
 20
7.010915798960786
 30
0.0
 10
168.5912848927044
 20
6.68266956249786
 30
0.0
 10
169.6694767884931
 20
6.1713878338551
 30
0.0
 10
170.7515194289173
 20
5.467861227899999
 30
0.0
 10
171.7753192768677
 20
4.628504894891726
 30
0.0
 10
172.5972619894951
 20
3.8011633146698
 30
0.0
 10
173.1473592458809
 20
3.103262515541521
 30
0.0
 10
173.4306977822005
 20
2.64294727568053
 30
0.0
 10
173.4987596612767
 20
2.379985659915048
 30
0.0
 10
173.4997342837697
 20
2.411187276246618
 30
0.0
 10
173.4999979672936
 20
2.419628854607125
 30
0.0
  0
SPLINE
  5
80
330
1F
100
AcDbEntity
  8
0
  6
Continuous
 62
     7
370
    25
100
AcDbSpline
210
0.0
220
0.0
230
1.0
 70
     8
 71
     3
 72
    20
 73
    16
 74
     0
 42
0.000000001
 43
0.00000001
 40
0.0
 40
0.0
 40
0.0
 40
0.0
 40
0.0248422222709674
 40
0.2581906720058399
 40
0.5040224126935369
 40
0.6110319170350964
 40
0.7036233856724263
 40
0.7511748653985879
 40
0.7887785533075843
 40
0.8226674190353194
 40
0.8558684502883666
 40
0.8900450947879293
 40
0.9261720867078778
 40
0.963535756534873
 40
1.0
 40
1.0
 40
1.0
 40
1.0
 10
-171.7750337919025
 20
45.13407838731342
 30
0.0
 10
-171.8284384784312
 20
45.13138881371266
 30
0.0
 10
-172.3834851144652
 20
45.10343548458572
 30
0.0
 10
-173.1803377305034
 20
45.04469026446476
 30
0.0
 10
-173.9808766774482
 20
44.97251015491039
 30
0.0
 10
-174.5896892166787
 20
44.88262065157056
 30
0.0
 10
-175.0244568186349
 20
44.79774116174801
 30
0.0
 10
-175.5208710856237
 20
44.65473145568598
 30
0.0
 10
-176.0008057943309
 20
44.47155759181913
 30
0.0
 10
-176.575805441801
 20
44.17885565184801
 30
0.0
 10
-177.2450021078373
 20
43.70804386535213
 30
0.0
 10
-177.9314862842244
 20
43.01417458219834
 30
0.0
 10
-178.5178923879287
 20
42.09787527014187
 30
0.0
 10
-178.9229083920137
 20
41.01736022959556
 30
0.0
 10
-178.9745123565866
 20
40.24295712641901
 30
0.0
 10
-179.0000000000001
 20
39.86047275113066
 30
0.0
  0
SPLINE
  5
81
330
1F
100
AcDbEntity
  8
0
  6
Continuous
 62
     7
370
    25
100
AcDbSpline
210
0.0
220
0.0
230
1.0
 70
     8
 71
     3
 72
    21
 73
    17
 74
     0
 42
0.000000001
 43
0.00000001
 40
0.0
 40
0.0
 40
0.0
 40
0.0
 40
0.0401342457952813
 40
0.0768350946360185
 40
0.1107117104700926
 40
0.1425372132628734
 40
0.1730656084707689
 40
0.2041053032964149
 40
0.2380049612408472
 40
0.2785663370569078
 40
0.3312337088447397
 40
0.4046320143607953
 40
0.5159297626033164
 40
0.7174332925003117
 40
0.951574291587946
 40
1.0
 40
1.0
 40
1.0
 40
1.0
 10
178.9999999999999
 20
39.86047275113079
 30
0.0
 10
178.9701288678897
 20
40.27581248862288
 30
0.0
 10
178.9129420136934
 20
41.07096055740893
 30
0.0
 10
178.4942488086276
 20
42.13534398933633
 30
0.0
 10
177.9430812842896
 20
42.99084582414629
 30
0.0
 10
177.3200097241483
 20
43.63794825479324
 30
0.0
 10
176.7063572376018
 20
44.09535004598657
 30
0.0
 10
176.1582721473154
 20
44.39809612238432
 30
0.0
 10
175.6901489002107
 20
44.59481998532443
 30
0.0
 10
175.2825380231054
 20
44.72687941582902
 30
0.0
 10
174.9048739585922
 20
44.8210913138675
 30
0.0
 10
174.5128363099221
 20
44.89539078627272
 30
0.0
 10
173.999989410563
 20
44.96776054108018
 30
0.0
 10
173.2634298751652
 20
45.03823692206918
 30
0.0
 10
172.5288708183529
 20
45.09382084835613
 30
0.0
 10
171.9472807116802
 20
45.12415535442324
 30
0.0
 10
171.8476089804621
 20
45.12935402046083
 30
0.0
  0
SPLINE
  5
86
330
1F
100
AcDbEntity
  8
0
  6
Continuous
 62
     7
370
    25
100
AcDbSpline
210
0.0
220
0.0
230
1.0
 70
     8
 71
     3
 72
    23
 73
    19
 74
     0
 42
0.000000001
 43
0.00000001
 40
0.0
 40
0.0
 40
0.0
 40
0.0
 40
0.0113441396689388
 40
0.0996682987030037
 40
0.1800922678832743
 40
0.2528337572642599
 40
0.3175101954817791
 40
0.3731903044223908
 40
0.4179555055442971
 40
0.4494919905559581
 40
0.4699463672600971
 40
0.492841245665415
 40
0.5381183444794123
 40
0.6501577788277181
 40
0.7481806258829158
 40
0.8513172534286704
 40
0.9530657446793506
 40
1.0
 40
1.0
 40
1.0
 40
1.0
 10
128.9372154396241
 20
0.0000000000001561
 30
0.0
 10
128.9526458454902
 20
-0.0401468378304383
 30
0.0
 10
129.0882156062522
 20
-0.3928723103346771
 30
0.0
 10
129.5115916465805
 20
-0.9457363564030069
 30
0.0
 10
130.145342757566
 20
-1.604937458597522
 30
0.0
 10
130.8256201383944
 20
-2.081767601762159
 30
0.0
 10
131.4827846197201
 20
-2.407076449200005
 30
0.0
 10
132.0765538257149
 20
-2.605146082119258
 30
0.0
 10
132.5621138088228
 20
-2.708078835168958
 30
0.0
 10
132.9052930087296
 20
-2.750593437275167
 30
0.0
 10
133.1056354760907
 20
-2.766282714253276
 30
0.0
 10
133.274150729428
 20
-2.775559998147194
 30
0.0
 10
133.5373394360236
 20
-2.784724815765617
 30
0.0
 10
133.9996916258538
 20
-2.793406831378492
 30
0.0
 10
134.8300850782708
 20
-2.802082395639009
 30
0.0
 10
135.825021877861
 20
-2.807882915268185
 30
0.0
 10
136.7586865903764
 20
-2.810442150620679
 30
0.0
 10
137.3221371736435
 20
-2.8106529680062
 30
0.0
 10
137.5
 20
-2.810719516124438
 30
0.0
  0
SPLINE
  5
87
330
1F
100
AcDbEntity
  8
0
  6
Continuous
 62
     7
370
    25
100
AcDbSpline
210
0.0
220
0.0
230
1.0
 70
     8
 71
     3
 72
    20
 73
    16
 74
     0
 42
0.000000001
 43
0.00000001
 40
0.0
 40
0.0
 40
0.0
 40
0.0
 40
0.0526963641584734
 40
0.1538124703953501
 40
0.2553945029575828
 40
0.3577533865338187
 40
0.4628288732672217
 40
0.5230405796858087
 40
0.5480157901764869
 40
0.5809970235819958
 40
0.6311032598577961
 40
0.7214402283019196
 40
0.8123208681968391
 40
0.9065689908089138
 40
1.0
 40
1.0
 40
1.0
 40
1.0
 10
155.5
 20
-2.810719516124434
 30
0.0
 10
155.699776359409
 20
-2.81063567122302
 30
0.0
 10
156.2828924027643
 20
-2.810390941029153
 30
0.0
 10
157.2256778295893
 20
-2.807669809726448
 30
0.0
 10
158.2208880998248
 20
-2.801639156615396
 30
0.0
 10
159.0258680629054
 20
-2.793223455428404
 30
0.0
 10
159.5088160427843
 20
-2.783065204416412
 30
0.0
 10
159.7682575990096
 20
-2.774719377501837
 30
0.0
 10
160.0590910792543
 20
-2.754447161139317
 30
0.0
 10
160.4424309510946
 20
-2.708521814116984
 30
0.0
 10
161.081296141781
 20
-2.570401362199173
 30
0.0
 10
161.9043979596379
 20
-2.250394390411858
 30
0.0
 10
162.7811115272394
 20
-1.674492191206262
 30
0.0
 10
163.5434737709181
 20
-0.9263453365680185
 30
0.0
 10
163.897401577551
 20
-0.3062654345303457
 30
0.0
 10
164.0735950191808
 20
0.0024246711296284
 30
0.0
  0
SPLINE
  5
88
330
1F
100
AcDbEntity
  8
0
  6
Continuous
 62
     7
370
    25
100
AcDbSpline
210
0.0
220
0.0
230
1.0
 70
     8
 71
     3
 72
    20
 73
    16
 74
     0
 42
0.000000001
 43
0.00000001
 40
0.0
 40
0.0
 40
0.0
 40
0.0
 40
0.0527096713931422
 40
0.1538513121384424
 40
0.2554589968678981
 40
0.3578437287869178
 40
0.4629457498777077
 40
0.5231726613549365
 40
0.5481541787510761
 40
0.5811437407959426
 40
0.6312626302301773
 40
0.7216224111635325
 40
0.8125260008391658
 40
0.9067979236109706
 40
1.0
 40
1.0
 40
1.0
 40
1.0
 10
-137.4999999999999
 20
-2.810719516124434
 30
0.0
 10
-137.3002236405939
 20
-2.810635671220835
 30
0.0
 10
-136.7171075972474
 20
-2.810390941020587
 30
0.0
 10
-135.7743221703093
 20
-2.807669809800056
 30
0.0
 10
-134.7791119005502
 20
-2.801639156342913
 30
0.0
 10
-133.9741319356688
 20
-2.793223456464117
 30
0.0
 10
-133.4911839617014
 20
-2.783065201157925
 30
0.0
 10
-133.2317423940792
 20
-2.774719382522189
 30
0.0
 10
-132.9409089318061
 20
-2.754447153104876
 30
0.0
 10
-132.5575689775727
 20
-2.708521865934031
 30
0.0
 10
-131.9187044266245
 20
-2.570400949301312
 30
0.0
 10
-131.0955980272469
 20
-2.250397305596043
 30
0.0
 10
-130.2189034861373
 20
-1.674481285273706
 30
0.0
 10
-129.4571592007265
 20
-0.9270655024141462
 30
0.0
 10
-129.1036741483051
 20
-0.3078439428952605
 30
0.0
 10
-128.9279402278381
 20
-0.0000000000000069
 30
0.0
  0
SPLINE
  5
89
330
1F
100
AcDbEntity
  8
0
  6
Continuous
 62
     7
370
    25
100
AcDbSpline
210
0.0
220
0.0
230
1.0
 70
     8
 71
     3
 72
    23
 73
    19
 74
     0
 42
0.000000001
 43
0.00000001
 40
0.0
 40
0.0
 40
0.0
 40
0.0
 40
0.0116104364017061
 40
0.0999108051201294
 40
0.1803131119190884
 40
0.2530350082123895
 40
0.3176940256823287
 40
0.373359137057369
 40
0.4181122805692685
 40
0.4496402711560653
 40
0.470089138426733
 40
0.4929778500438287
 40
0.5382427533669932
 40
0.6502520096356799
 40
0.7482484540112765
 40
0.8513573014688789
 40
0.953078386529128
 40
1.0
 40
1.0
 40
1.0
 40
1.0
 10
-164.0639143628263
 20
0.0028460934480938
 30
0.0
 10
-164.0481264745623
 20
-0.0382584950765173
 30
0.0
 10
-163.9122676168051
 20
-0.3919740998596377
 30
0.0
 10
-163.4884661831217
 20
-0.945763739694596
 30
0.0
 10
-162.8546438824873
 20
-1.604931132448643
 30
0.0
 10
-162.1743828846456
 20
-2.081769033220167
 30
0.0
 10
-161.517214723673
 20
-2.407076138286199
 30
0.0
 10
-160.9234463051295
 20
-2.605146144076194
 30
0.0
 10
-160.4378861693545
 20
-2.708078824835602
 30
0.0
 10
-160.0947069942981
 20
-2.750593438708888
 30
0.0
 10
-159.894364523175
 20
-2.766282713905603
 30
0.0
 10
-159.7258492710019
 20
-2.775559998350757
 30
0.0
 10
-159.4626605635881
 20
-2.784724815581816
 30
0.0
 10
-159.0003083742661
 20
-2.793406831435363
 30
0.0
 10
-158.1699149216966
 20
-2.802082395623771
 30
0.0
 10
-157.1749781221476
 20
-2.807882915272373
 30
0.0
 10
-156.2413134096226
 20
-2.810442150620255
 30
0.0
 10
-155.6778628263561
 20
-2.810652968006099
 30
0.0
 10
-155.4999999999999
 20
-2.810719516124434
 30
0.0
  0
SPLINE
  5
8A
330
1F
100
AcDbEntity
  8
0
  6
Continuous
 62
     7
370
    25
100
AcDbSpline
210
0.0
220
0.0
230
1.0
 70
     8
 71
     3
 72
    19
 73
    15
 74
     0
 42
0.000000001
 43
0.00000001
 40
0.0
 40
0.0
 40
0.0
 40
0.0
 40
0.0680666511311012
 40
0.1831286152978628
 40
0.298389087331788
 40
0.4143442640903204
 40
0.5325580563110857
 40
0.5964674509568847
 40
0.6382213011158085
 40
0.6659412085103246
 40
0.7166317994364825
 40
0.7929038102265168
 40
0.8885107201861517
 40
1.0
 40
1.0
 40
1.0
 40
1.0
 10
-130.0613254585382
 20
-1.465524322974227
 30
0.0
 10
-129.8342699014815
 20
-1.465741919192336
 30
0.0
 10
-129.223392635324
 20
-1.466327346761553
 30
0.0
 10
-128.2369489964503
 20
-1.463833648423455
 30
0.0
 10
-127.208234382045
 20
-1.458538180435936
 30
0.0
 10
-126.3570973288935
 20
-1.450392479250152
 30
0.0
 10
-125.8392837445015
 20
-1.441710208003665
 30
0.0
 10
-125.5502355714802
 20
-1.432808195620892
 30
0.0
 10
-125.3475997327594
 20
-1.42324077787247
 30
0.0
 10
-125.041388241413
 20
-1.397566065938379
 30
0.0
 10
-124.5318665942768
 20
-1.320782562549912
 30
0.0
 10
-123.8234039271301
 20
-1.113729468260785
 30
0.0
 10
-122.9547126629822
 20
-0.7118648801185192
 30
0.0
 10
-122.4368002551653
 20
-0.249117773362291
 30
0.0
 10
-122.1579844960858
 20
0.0000000000000451
 30
0.0
  0
SPLINE
  5
8B
330
1F
100
AcDbEntity
  8
0
  6
Continuous
 62
     7
370
    25
100
AcDbSpline
210
0.0
220
0.0
230
1.0
 70
     8
 71
     3
 72
    21
 73
    17
 74
     0
 42
0.000000001
 43
0.00000001
 40
0.0
 40
0.0
 40
0.0
 40
0.0
 40
0.0367116376913906
 40
0.1193249915011927
 40
0.1927722905175973
 40
0.2559927656738735
 40
0.3067998627903853
 40
0.3425823403893153
 40
0.3657999278139183
 40
0.3918592509309339
 40
0.4435172397748218
 40
0.5715797320566766
 40
0.6829230154857368
 40
0.8000750249041771
 40
0.915671352201084
 40
1.0
 40
1.0
 40
1.0
 40
1.0
 10
122.1586901978678
 20
0.0000000000000486
 30
0.0
 10
122.2430169460844
 20
-0.0889818755111758
 30
0.0
 10
122.5171068300295
 20
-0.3782024662239425
 30
0.0
 10
123.0595224335914
 20
-0.7352605740310394
 30
0.0
 10
123.7129747652109
 20
-1.0640712425222
 30
0.0
 10
124.3071639096581
 20
-1.260853100673028
 30
0.0
 10
124.7921448123631
 20
-1.36366650960501
 30
0.0
 10
125.1347670418023
 20
-1.405992994286575
 30
0.0
 10
125.3347524023695
 20
-1.421633472921111
 30
0.0
 10
125.5034378737332
 20
-1.430904117783287
 30
0.0
 10
125.7677957355488
 20
-1.440088172361579
 30
0.0
 10
126.2329670013055
 20
-1.448782789054543
 30
0.0
 10
127.0672609835087
 20
-1.457466413128199
 30
0.0
 10
128.0634384636555
 20
-1.463186714166394
 30
0.0
 10
129.0992290391788
 20
-1.466180462154628
 30
0.0
 10
129.7680487893557
 20
-1.46577340580974
 30
0.0
 10
130.0501579411843
 20
-1.465601708846288
 30
0.0
  0
SPLINE
  5
8E
330
1F
100
AcDbEntity
  8
0
  6
Continuous
 62
     7
370
    25
100
AcDbSpline
210
0.0
220
0.0
230
1.0
 70
    24
 71
     3
 72
    22
 73
    18
 74
     0
 42
0.000000001
 43
0.00000001
 40
0.0
 40
0.0
 40
0.0
 40
0.0
 40
0.125
 40
0.125
 40
0.25
 40
0.25
 40
0.375
 40
0.375
 40
0.5
 40
0.5
 40
0.625
 40
0.625
 40
0.75
 40
0.75
 40
0.875
 40
0.875
 40
1.0
 40
1.0
 40
1.0
 40
1.0
 10
-178.0
 20
18.35596647503268
 30
0.0
 10
-178.0
 20
17.29535517108178
 30
0.0
 10
-178.0
 20
16.19598586238253
 30
0.0
 10
-178.0
 20
13.97134817197255
 30
0.0
 10
-178.0
 20
12.8463098431277
 30
0.0
 10
-178.0
 20
10.639087144015
 30
0.0
 10
-178.0
 20
9.557353858142827
 30
0.0
 10
-178.0
 20
7.512265030470963
 30
0.0
 10
-178.0
 20
6.549442948893522
 30
0.0
 10
-178.0
 20
4.809033782189335
 30
0.0
 10
-178.0
 20
4.03183850577776
 30
0.0
 10
-178.0
 20
2.706114978831234
 30
0.0
 10
-178.0
 20
2.157673645948044
 30
0.0
 10
-178.0
 20
1.301790078140172
 30
0.0
 10
-178.0000000000001
 20
0.9941365720247466
 30
0.0
 10
-178.0
 20
0.603122987570568
 30
0.0
 10
-178.0
 20
0.5193992815460056
 30
0.0
 10
-178.0
 20
0.5295807319129764
 30
0.0
  0
SPLINE
  5
90
330
1F
100
AcDbEntity
  8
0
  6
Continuous
 62
     7
370
    25
100
AcDbSpline
210
0.0
220
0.0
230
1.0
 70
    24
 71
     3
 72
    29
 73
    25
 74
     0
 42
0.000000001
 43
0.00000001
 40
0.0
 40
0.0
 40
0.0
 40
0.0
 40
0.1249999999999998
 40
0.1249999999999998
 40
0.1874999999999998
 40
0.1874999999999998
 40
0.2499999999999997
 40
0.3124999999999996
 40
0.3124999999999996
 40
0.3749999999999995
 40
0.3749999999999995
 40
0.4999999999999993
 40
0.4999999999999993
 40
0.5624999999999994
 40
0.5624999999999994
 40
0.6249999999999996
 40
0.6249999999999996
 40
0.7499999999999997
 40
0.7499999999999997
 40
0.8124999999999998
 40
0.8124999999999998
 40
0.8749999999999999
 40
0.8749999999999999
 40
1.0
 40
1.0
 40
1.0
 40
1.0
 10
-179.0
 20
1.529534658882028
 30
0.0
 10
-179.0
 20
1.518759970395415
 30
0.0
 10
-179.0000000000001
 20
1.618188862468874
 30
0.0
 10
-179.0000000000001
 20
1.931458635408018
 30
0.0
 10
-178.9999999999999
 20
2.063412798896984
 30
0.0
 10
-178.9999999999999
 20
2.377199090064102
 30
0.0
 10
-179.0
 20
2.741692454375076
 30
0.0
 10
-179.0
 20
3.206257879191828
 30
0.0
 10
-179.0000000000001
 20
3.721637100532232
 30
0.0
 10
-178.9999999999999
 20
4.006535306632201
 30
0.0
 10
-178.9999999999999
 20
4.925381573817234
 30
0.0
 10
-179.0
 20
5.620863934439179
 30
0.0
 10
-179.0
 20
6.785603493361585
 30
0.0
 10
-179.0000000000001
 20
7.194247258988356
 30
0.0
 10
-179.0
 20
8.05364884796133
 30
0.0
 10
-178.9999999999999
 20
8.500504025128222
 30
0.0
 10
-178.9999999999999
 20
9.877010992307858
 30
0.0
 10
-179.0
 20
10.8479852918829
 30
0.0
 10
-179.0000000000001
 20
12.38513691126878
 30
0.0
 10
-178.9999999999999
 20
12.91383935002226
 30
0.0
 10
-179.0
 20
13.97810292317017
 30
0.0
 10
-179.0000000000001
 20
14.51512693926922
 30
0.0
 10
-179.0000000000001
 20
16.14054906016317
 30
0.0
 10
-179.0
 20
17.24315615914228
 30
0.0
 10
-179.0
 20
18.36556563849507
 30
0.0
  0
SPLINE
  5
92
330
1F
100
AcDbEntity
  8
0
  6
Continuous
 62
     7
370
    25
100
AcDbSpline
210
0.0
220
0.0
230
1.0
 70
    24
 71
     3
 72
     8
 73
     4
 74
     0
 42
0.000000001
 43
0.00000001
 40
0.0
 40
0.0
 40
0.0
 40
0.0
 40
1.0
 40
1.0
 40
1.0
 40
1.0
 10
-123.5000000000001
 20
8.010828624130143
 30
0.0
 10
-123.5000000000001
 20
7.822254569903741
 30
0.0
 10
-123.5000000000001
 20
7.635997647696303
 30
0.0
 10
-123.5000000000001
 20
7.452290644985539
 30
0.0
  0
SPLINE
  5
94
330
1F
100
AcDbEntity
  8
0
  6
Continuous
 62
     7
370
    25
100
AcDbSpline
210
0.0
220
0.0
230
1.0
 70
     8
 71
     3
 72
    32
 73
    28
 74
     0
 42
0.000000001
 43
0.00000001
 40
0.0
 40
0.0
 40
0.0
 40
0.0
 40
0.1250000000000003
 40
0.1250000000000003
 40
0.1875000000000013
 40
0.1875000000000013
 40
0.2500000000000023
 40
0.2500000000000023
 40
0.3750000000000043
 40
0.3750000000000043
 40
0.437500000000005
 40
0.437500000000005
 40
0.5000000000000058
 40
0.5000000000000058
 40
0.6250000000000072
 40
0.6250000000000072
 40
0.687500000000006
 40
0.687500000000006
 40
0.7500000000000049
 40
0.7500000000000049
 40
0.8125000000000037
 40
0.8125000000000037
 40
0.8750000000000024
 40
0.8750000000000024
 40
0.9375000000000013
 40
0.9375000000000013
 40
1.0
 40
1.0
 40
1.0
 40
1.0
 10
-174.5
 20
1.441709062671326
 30
0.0
 10
-174.5
 20
1.632408476891108
 30
0.0
 10
-174.4455608440269
 20
1.848873170232818
 30
0.0
 10
-174.2931600121415
 20
2.209408911079916
 30
0.0
 10
-174.2304547383736
 20
2.335575557864074
 30
0.0
 10
-174.0818602695654
 20
2.599554673753762
 30
0.0
 10
-173.9958933527612
 20
2.737330192172885
 30
0.0
 10
-173.7094622474019
 20
3.159247043948377
 30
0.0
 10
-173.4794699516988
 20
3.454535587501584
 30
0.0
 10
-173.0790640234232
 20
3.91324257634855
 30
0.0
 10
-172.9362739247106
 20
4.068772733748033
 30
0.0
 10
-172.6314941262956
 20
4.384079691436719
 30
0.0
 10
-172.4691696655805
 20
4.544109694434377
 30
0.0
 10
-171.960236193586
 20
5.020743818396189
 30
0.0
 10
-171.5898405399621
 20
5.33670863959107
 30
0.0
 10
-170.979642582454
 20
5.796012594162882
 30
0.0
 10
-170.7670398540425
 20
5.94661647300329
 30
0.0
 10
-170.3202162077261
 20
6.239597154999658
 30
0.0
 10
-170.0857693847823
 20
6.381959898807212
 30
0.0
 10
-169.6012444163933
 20
6.648153783123077
 30
0.0
 10
-169.3501050166034
 20
6.772758653419753
 30
0.0
 10
-168.8262889274504
 20
6.998915128409807
 30
0.0
 10
-168.5512336651505
 20
7.101131929868568
 30
0.0
 10
-167.9878026168778
 20
7.269847949699384
 30
0.0
 10
-167.6997779541891
 20
7.336540460891281
 30
0.0
 10
-167.1092567269173
 20
7.427873220377045
 30
0.0
 10
-166.8047393243749
 20
7.452290644985541
 30
0.0
 10
-166.4999999999999
 20
7.452290644985538
 30
0.0
  0
SPLINE
  5
95
330
1F
100
AcDbEntity
  8
0
  6
Continuous
 62
     7
370
    25
100
AcDbSpline
210
0.0
220
0.0
230
1.0
 70
    24
 71
     3
 72
    10
 73
     6
 74
     0
 42
0.000000001
 43
0.00000001
 40
0.0
 40
0.0
 40
0.0
 40
0.0
 40
0.5
 40
0.5
 40
1.0
 40
1.0
 40
1.0
 40
1.0
 10
-174.5
 20
0.5295807319129764
 30
0.0
 10
-174.5
 20
0.5206232201368337
 30
0.0
 10
-174.4999999999999
 20
0.5842440059792182
 30
0.0
 10
-174.5
 20
0.8815901642195318
 30
0.0
 10
-174.5
 20
1.115511493168908
 30
0.0
 10
-174.5
 20
1.441709062671371
 30
0.0
  0
SPLINE
  5
97
330
1F
100
AcDbEntity
  8
0
  6
Continuous
 62
     7
370
    25
100
AcDbSpline
210
0.0
220
0.0
230
1.0
 70
    24
 71
     3
 72
    14
 73
    10
 74
     0
 42
0.000000001
 43
0.00000001
 40
0.0
 40
0.0
 40
0.0
 40
0.0
 40
0.2499999999999999
 40
0.2499999999999999
 40
0.4999999999999998
 40
0.4999999999999998
 40
0.7499999999999996
 40
0.7499999999999996
 40
1.0
 40
1.0
 40
1.0
 40
1.0
 10
-109.5
 20
8.010828624130099
 30
0.0
 10
-109.5
 20
8.804828854874136
 30
0.0
 10
-109.5
 20
9.6400043584763
 30
0.0
 10
-109.5
 20
11.35581426855656
 30
0.0
 10
-109.5
 20
12.23628883743908
 30
0.0
 10
-109.5
 20
14.00587278637143
 30
0.0
 10
-109.5
 20
14.89486609945867
 30
0.0
 10
-109.5
 20
16.64933036051918
 30
0.0
 10
-109.5
 20
17.51474492748818
 30
0.0
 10
-109.5
 20
18.35596647503268
 30
0.0
  0
SPLINE
  5
99
330
1F
100
AcDbEntity
  8
0
  6
Continuous
 62
     7
370
    25
100
AcDbSpline
210
0.0
220
0.0
230
1.0
 70
    24
 71
     3
 72
    22
 73
    18
 74
     0
 42
0.000000001
 43
0.00000001
 40
0.0
 40
0.0
 40
0.0
 40
0.0
 40
0.125
 40
0.125
 40
0.2500000000000001
 40
0.2500000000000001
 40
0.3750000000000001
 40
0.3750000000000001
 40
0.5000000000000001
 40
0.5000000000000001
 40
0.6250000000000002
 40
0.6250000000000002
 40
0.7500000000000002
 40
0.7500000000000002
 40
0.8750000000000002
 40
0.8750000000000002
 40
1.0
 40
1.0
 40
1.0
 40
1.0
 10
178.0
 20
0.5295807319129764
 30
0.0
 10
178.0000000000001
 20
0.5193992815460056
 30
0.0
 10
178.0
 20
0.603122987570568
 30
0.0
 10
178.0
 20
0.9941365720247501
 30
0.0
 10
178.0
 20
1.301790078140172
 30
0.0
 10
178.0
 20
2.157673645948044
 30
0.0
 10
178.0
 20
2.706114978831237
 30
0.0
 10
178.0
 20
4.03183850577776
 30
0.0
 10
178.0
 20
4.809033782189339
 30
0.0
 10
178.0
 20
6.549442948893529
 30
0.0
 10
178.0
 20
7.512265030470965
 30
0.0
 10
178.0
 20
9.557353858142829
 30
0.0
 10
178.0000000000001
 20
10.639087144015
 30
0.0
 10
178.0
 20
12.8463098431277
 30
0.0
 10
177.9999999999999
 20
13.97134817197255
 30
0.0
 10
178.0
 20
16.19598586238253
 30
0.0
 10
178.0
 20
17.29535517108179
 30
0.0
 10
178.0
 20
18.35596647503268
 30
0.0
  0
SPLINE
  5
9A
330
1F
100
AcDbEntity
  8
0
  6
Continuous
 62
     7
370
    25
100
AcDbSpline
210
0.0
220
0.0
230
1.0
 70
    24
 71
     3
 72
    10
 73
     6
 74
     0
 42
0.000000001
 43
0.00000001
 40
0.0
 40
0.0
 40
0.0
 40
0.0
 40
0.5
 40
0.5
 40
1.0
 40
1.0
 40
1.0
 40
1.0
 10
174.4999999999999
 20
1.441709062671374
 30
0.0
 10
174.4999999999999
 20
1.115511493168912
 30
0.0
 10
174.5
 20
0.8815901642195354
 30
0.0
 10
174.4999999999999
 20
0.5842440059792218
 30
0.0
 10
174.4999999999999
 20
0.5206232201368337
 30
0.0
 10
174.4999999999999
 20
0.5295807319129764
 30
0.0
  0
SPLINE
  5
9B
330
1F
100
AcDbEntity
  8
0
  6
Continuous
 62
     7
370
    25
100
AcDbSpline
210
0.0
220
0.0
230
1.0
 70
     8
 71
     3
 72
    28
 73
    24
 74
     0
 42
0.000000001
 43
0.00000001
 40
0.0
 40
0.0
 40
0.0
 40
0.0
 40
0.0624999999999999
 40
0.0624999999999999
 40
0.1249999999999997
 40
0.1249999999999997
 40
0.1874999999999996
 40
0.1874999999999996
 40
0.2499999999999994
 40
0.2499999999999994
 40
0.3749999999999992
 40
0.3749999999999992
 40
0.4999999999999989
 40
0.4999999999999989
 40
0.6249999999999994
 40
0.6249999999999994
 40
0.7500000000000001
 40
0.7500000000000001
 40
0.8124999999999999
 40
0.8124999999999999
 40
0.8749999999999996
 40
0.8749999999999996
 40
1.0
 40
1.0
 40
1.0
 40
1.0
 10
166.5
 20
7.452290644985546
 30
0.0
 10
166.8048647487119
 20
7.452290644985548
 30
0.0
 10
167.1095754047553
 20
7.427831750069194
 30
0.0
 10
167.6997716206926
 20
7.336533618432107
 30
0.0
 10
167.9873616911667
 20
7.269929936093605
 30
0.0
 10
168.549516127247
 20
7.101696090560673
 30
0.0
 10
168.825075189239
 20
6.999394119628115
 30
0.0
 10
169.3491541598607
 20
6.773214035805119
 30
0.0
 10
169.5999453589195
 20
6.648794705434703
 30
0.0
 10
170.3247596750901
 20
6.250805329160879
 30
0.0
 10
170.7740841257155
 20
5.950657877709755
 30
0.0
 10
171.5894066559408
 20
5.33711621739406
 30
0.0
 10
171.9594811613643
 20
5.021346571933853
 30
0.0
 10
172.6362311981516
 20
4.387754531563889
 30
0.0
 10
172.9439560822254
 20
4.067977946567148
 30
0.0
 10
173.4800028562342
 20
3.45396994448088
 30
0.0
 10
173.7106484294238
 20
3.157731176571598
 30
0.0
 10
173.997550334897
 20
2.734772372378982
 30
0.0
 10
174.0833983470112
 20
2.596977695898447
 30
0.0
 10
174.2312785108218
 20
2.333954192553219
 30
0.0
 10
174.2937319720092
 20
2.208170705334803
 30
0.0
 10
174.4456041223048
 20
1.848539667352402
 30
0.0
 10
174.5
 20
1.632350473434623
 30
0.0
 10
174.5
 20
1.441709062671326
 30
0.0
  0
SPLINE
  5
9D
330
1F
100
AcDbEntity
  8
0
  6
Continuous
 62
     7
370
    25
100
AcDbSpline
210
0.0
220
0.0
230
1.0
 70
    24
 71
     3
 72
     8
 73
     4
 74
     0
 42
0.000000001
 43
0.00000001
 40
0.0
 40
0.0
 40
0.0
 40
0.0
 40
1.0
 40
1.0
 40
1.0
 40
1.0
 10
123.5000000000002
 20
7.452290644985541
 30
0.0
 10
123.5000000000002
 20
7.635997647687593
 30
0.0
 10
123.5000000000002
 20
7.822254569886076
 30
0.0
 10
123.5000000000002
 20
8.010828624103315
 30
0.0
  0
SPLINE
  5
9F
330
1F
100
AcDbEntity
  8
0
  6
Continuous
 62
     7
370
    25
100
AcDbSpline
210
0.0
220
0.0
230
1.0
 70
    24
 71
     3
 72
    14
 73
    10
 74
     0
 42
0.000000001
 43
0.00000001
 40
0.0
 40
0.0
 40
0.0
 40
0.0
 40
0.25
 40
0.25
 40
0.5
 40
0.5
 40
0.75
 40
0.75
 40
1.0
 40
1.0
 40
1.0
 40
1.0
 10
109.4999999999999
 20
18.35596647503268
 30
0.0
 10
109.4999999999999
 20
17.51474492748582
 30
0.0
 10
109.4999999999999
 20
16.64933036051432
 30
0.0
 10
109.4999999999999
 20
14.89486609944875
 30
0.0
 10
109.4999999999999
 20
14.00587278635895
 30
0.0
 10
109.4999999999999
 20
12.23628883742173
 30
0.0
 10
109.4999999999999
 20
11.35581426853689
 30
0.0
 10
109.4999999999999
 20
9.640004358452574
 30
0.0
 10
109.4999999999999
 20
8.80482885484867
 30
0.0
 10
109.4999999999999
 20
8.010828624103326
 30
0.0
  0
SPLINE
  5
A2
330
1F
100
AcDbEntity
  8
0
  6
Continuous
 62
     7
370
    25
100
AcDbSpline
210
0.0
220
0.0
230
1.0
 70
    24
 71
     3
 72
    29
 73
    25
 74
     0
 42
0.000000001
 43
0.00000001
 40
0.0
 40
0.0
 40
0.0
 40
0.0
 40
0.125
 40
0.125
 40
0.1875000000000001
 40
0.1875000000000001
 40
0.2500000000000001
 40
0.3125000000000001
 40
0.3125000000000001
 40
0.3750000000000001
 40
0.3750000000000001
 40
0.5000000000000006
 40
0.5000000000000006
 40
0.5625000000000004
 40
0.5625000000000004
 40
0.6250000000000003
 40
0.6250000000000003
 40
0.7500000000000003
 40
0.7500000000000003
 40
0.8125000000000002
 40
0.8125000000000002
 40
0.8750000000000001
 40
0.8750000000000001
 40
1.0
 40
1.0
 40
1.0
 40
1.0
 10
179.0
 20
18.36556563849508
 30
0.0
 10
179.0
 20
17.24315615914228
 30
0.0
 10
179.0
 20
16.13403557771694
 30
0.0
 10
179.0
 20
14.49014589048015
 30
0.0
 10
179.0000000000001
 20
13.94712856836698
 30
0.0
 10
179.0
 20
12.88710609966366
 30
0.0
 10
178.9999999999998
 20
11.84833022888531
 30
0.0
 10
179.0
 20
10.85148521116656
 30
0.0
 10
179.0
 20
9.87593150917239
 30
0.0
 10
178.9999999999999
 20
9.396245877094751
 30
0.0
 10
178.9999999999999
 20
8.012975220917694
 30
0.0
 10
179.0000000000001
 20
7.16477227048216
 30
0.0
 10
179.0000000000001
 20
6.000881335961244
 30
0.0
 10
178.9999999999999
 20
5.631115593614882
 30
0.0
 10
178.9999999999999
 20
4.929157196805228
 30
0.0
 10
178.9999999999999
 20
4.60041014665866
 30
0.0
 10
178.9999999999999
 20
3.689530321315502
 30
0.0
 10
178.9999999999999
 20
3.177324378571499
 30
0.0
 10
179.0
 20
2.552898218157122
 30
0.0
 10
179.0000000000001
 20
2.368273692236421
 30
0.0
 10
179.0
 20
2.055312087681751
 30
0.0
 10
178.9999999999999
 20
1.926069527174657
 30
0.0
 10
178.9999999999999
 20
1.618238086172965
 30
0.0
 10
179.0000000000001
 20
1.518759970395418
 30
0.0
 10
179.0
 20
1.529534658882028
 30
0.0
  0
SPLINE
  5
A4
330
1F
100
AcDbEntity
  8
0
  6
Continuous
 62
     7
370
    25
100
AcDbSpline
210
0.0
220
0.0
230
1.0
 70
     8
 71
     3
 72
    14
 73
    10
 74
     0
 42
0.000000001
 43
0.00000001
 40
0.0
 40
0.0
 40
0.0
 40
0.0
 40
0.25
 40
0.25
 40
0.5
 40
0.5
 40
0.75
 40
0.75
 40
1.0
 40
1.0
 40
1.0
 40
1.0
 10
109.4999999999999
 20
8.010828624103322
 30
0.0
 10
109.3679056584016
 20
8.010828624103443
 30
0.0
 10
109.2382874982936
 20
8.026662066643249
 30
0.0
 10
108.9961530035792
 20
8.087764696913874
 30
0.0
 10
108.8852558293819
 20
8.13298250311798
 30
0.0
 10
108.7007974458034
 20
8.245290936426121
 30
0.0
 10
108.6263003368457
 20
8.313186085799854
 30
0.0
 10
108.5265007317016
 20
8.459648852026353
 30
0.0
 10
108.5
 20
8.540656413893366
 30
0.0
 10
108.4999999999999
 20
8.619952644764561
 30
0.0
  0
SPLINE
  5
A5
330
1F
100
AcDbEntity
  8
0
  6
Continuous
 62
     7
370
    25
100
AcDbSpline
210
0.0
220
0.0
230
1.0
 70
     8
 71
     3
 72
    14
 73
    10
 74
     0
 42
0.000000001
 43
0.00000001
 40
0.0
 40
0.0
 40
0.0
 40
0.0
 40
0.25
 40
0.25
 40
0.5
 40
0.5
 40
0.75
 40
0.75
 40
1.0
 40
1.0
 40
1.0
 40
1.0
 10
-109.5
 20
8.010828624129529
 30
0.0
 10
-109.3679056584017
 20
8.010828624129532
 30
0.0
 10
-109.2382874982935
 20
8.026662066643839
 30
0.0
 10
-108.996153003579
 20
8.08776469691457
 30
0.0
 10
-108.8852558293817
 20
8.132982503119143
 30
0.0
 10
-108.7007974458032
 20
8.245290936427288
 30
0.0
 10
-108.6263003368455
 20
8.313186085800346
 30
0.0
 10
-108.5265007317016
 20
8.459648852027106
 30
0.0
 10
-108.5
 20
8.540656413890858
 30
0.0
 10
-108.5
 20
8.619952644765245
 30
0.0
  0
SPLINE
  5
AB
330
1F
100
AcDbEntity
  8
0
  6
Continuous
 62
     7
370
    25
100
AcDbSpline
210
0.0
220
0.0
230
1.0
 70
     8
 71
     3
 72
    12
 73
     8
 74
     0
 42
0.000000001
 43
0.00000001
 40
0.0
 40
0.0
 40
0.0
 40
0.0
 40
0.2500000000000011
 40
0.2500000000000011
 40
0.5000000000000021
 40
0.5000000000000021
 40
1.0
 40
1.0
 40
1.0
 40
1.0
 10
106.4999999999999
 20
37.98043873539521
 30
0.0
 10
106.652517771795
 20
37.98043873539521
 30
0.0
 10
106.8027425647372
 20
37.96597168917511
 30
0.0
 10
107.0988631602772
 20
37.90965045299208
 30
0.0
 10
107.2462235184395
 20
37.86711261977839
 30
0.0
 10
107.6681226491049
 20
37.70378069050565
 30
0.0
 10
107.9240925239208
 20
37.54928699768923
 30
0.0
 10
108.1583123951776
 20
37.35509108744462
 30
0.0
  0
SPLINE
  5
AD
330
1F
100
AcDbEntity
  8
0
  6
Continuous
 62
     7
370
    25
100
AcDbSpline
210
0.0
220
0.0
230
1.0
 70
     8
 71
     3
 72
    14
 73
    10
 74
     0
 42
0.000000001
 43
0.00000001
 40
0.0
 40
0.0
 40
0.0
 40
0.0
 40
0.25
 40
0.25
 40
0.5
 40
0.5
 40
0.75
 40
0.75
 40
1.0
 40
1.0
 40
1.0
 40
1.0
 10
-108.1583123951777
 20
37.35509108744462
 30
0.0
 10
-108.0415251419433
 20
37.45192150078714
 30
0.0
 10
-107.9187796731181
 20
37.53907246301961
 30
0.0
 10
-107.6605680458757
 20
37.69282128361329
 30
0.0
 10
-107.5238778159108
 20
37.75986734320896
 30
0.0
 10
-107.2424666587713
 20
37.86831611930424
 30
0.0
 10
-107.0985012250743
 20
37.90969863475512
 30
0.0
 10
-106.803753325283
 20
37.96580005738412
 30
0.0
 10
-106.6519716734004
 20
37.9804387353952
 30
0.0
 10
-106.5
 20
37.98043873539521
 30
0.0
  0
SPLINE
  5
B1
330
1F
100
AcDbEntity
  8
0
  6
Continuous
 62
     7
370
    25
100
AcDbSpline
210
0.0
220
0.0
230
1.0
 70
     8
 71
     3
 72
    10
 73
     6
 74
     0
 42
0.000000001
 43
0.00000001
 40
0.0
 40
0.0
 40
0.0
 40
0.0
 40
0.5
 40
0.5
 40
1.0
 40
1.0
 40
1.0
 40
1.0
 10
-106.5
 20
36.86501444229844
 30
0.0
 10
-106.6968707513732
 20
36.86501444229845
 30
0.0
 10
-106.8887452421885
 20
36.83651715719417
 30
0.0
 10
-107.2629392352059
 20
36.72386827585397
 30
0.0
 10
-107.4414740666223
 20
36.64022038520024
 30
0.0
 10
-107.6055415967851
 20
36.53139531176614
 30
0.0
  0
SPLINE
  5
B4
330
1F
100
AcDbEntity
  8
0
  6
Continuous
 62
     7
370
    25
100
AcDbSpline
210
0.0
220
0.0
230
1.0
 70
     8
 71
     3
 72
    10
 73
     6
 74
     0
 42
0.000000001
 43
0.00000001
 40
0.0
 40
0.0
 40
0.0
 40
0.0
 40
0.5
 40
0.5
 40
1.0
 40
1.0
 40
1.0
 40
1.0
 10
107.605541596785
 20
36.53139531176614
 30
0.0
 10
107.4414486148379
 20
36.64023726722616
 30
0.0
 10
107.2659142321248
 20
36.72264343995786
 30
0.0
 10
106.8918977571248
 20
36.8358919933086
 30
0.0
 10
106.6968366206902
 20
36.86501444229844
 30
0.0
 10
106.4999999999999
 20
36.86501444229844
 30
0.0
  0
SPLINE
  5
D2
330
1F
100
AcDbEntity
  8
0
  6
Continuous
 62
     7
370
    25
100
AcDbSpline
210
0.0
220
0.0
230
1.0
 70
     8
 71
     3
 72
    12
 73
     8
 74
     0
 42
0.000000001
 43
0.00000001
 40
0.0
 40
0.0
 40
0.0
 40
0.0
 40
0.0002924848081082
 40
0.5585573421768835
 40
0.7729735029537732
 40
0.9258352468840734
 40
1.0
 40
1.0
 40
1.0
 40
1.0
 10
-123.1750638400105
 20
7.067682511462971
 30
0.0
 10
-123.1750183442888
 20
7.067671535144921
 30
0.0
 10
-123.0881353038221
 20
7.04671009418361
 30
0.0
 10
-122.9195592727042
 20
7.107134776110017
 30
0.0
 10
-122.7066452764702
 20
7.167705627051267
 30
0.0
 10
-122.5872475749681
 20
7.193980613551043
 30
0.0
 10
-122.5214836747548
 20
7.196175257305417
 30
0.0
 10
-122.5
 20
7.196892200985289
 30
0.0
  0
SPLINE
  5
D4
330
1F
100
AcDbEntity
  8
0
  6
Continuous
 62
     7
370
    25
100
AcDbSpline
210
0.0
220
0.0
230
1.0
 70
     8
 71
     3
 72
    12
 73
     8
 74
     0
 42
0.000000001
 43
0.00000001
 40
0.0
 40
0.0
 40
0.0
 40
0.0
 40
0.0002924848083834
 40
0.5585573421770305
 40
0.7729735029537739
 40
0.925835246883958
 40
1.0
 40
1.0
 40
1.0
 40
1.0
 10
123.1750638400105
 20
7.067682511463076
 30
0.0
 10
123.1750183442887
 20
7.067671535145016
 30
0.0
 10
123.0881353037959
 20
7.046710094182659
 30
0.0
 10
122.9195592727087
 20
7.10713477611035
 30
0.0
 10
122.7066452764696
 20
7.16770562705147
 30
0.0
 10
122.5872475749681
 20
7.193980613551334
 30
0.0
 10
122.5214836747547
 20
7.196175257305717
 30
0.0
 10
122.4999999999999
 20
7.196892200985594
 30
0.0
  0
LWPOLYLINE
  5
D8
330
1F
100
AcDbEntity
  8
0
  6
Continuous
 62
     7
370
    25
100
AcDbPolyline
 90
       65
 70
   128
 43
0.0
 10
171.5844799357
 20
45.1375845034
 10
171.2037484162
 20
45.1584778327
 10
169.6374567196
 20
45.2319089645
 10
167.7295377611
 20
45.3045916091
 10
165.4838338354
 20
45.3763793936
 10
162.9048674913
 20
45.4471277469
 10
159.997832424
 20
45.5166941911
 10
156.768583015
 20
45.5849386287
 10
153.2236225431
 20
45.6517236246
 10
149.3700900867
 20
45.7169146826
 10
145.2157461475
 20
45.7803805166
 10
140.7689570212
 20
45.8419933148
 10
136.0386779494
 20
45.9016289974
 10
131.0344350846
 20
45.9591674658
 10
125.766306306
 20
46.0144928455
 10
120.2449009237
 20
46.0674937183
 10
114.4813383135
 20
46.1180633476
 10
108.4872255234
 20
46.1660998928
 10
102.2746338989
 20
46.2115066149
 10
95.8560747727
 20
46.2541920706
 10
89.2444742686
 20
46.2940702971
 10
82.4531472703
 20
46.3310609851
 10
75.4957706065
 20
46.3650896401
 10
68.3863555078
 20
46.396087733
 10
61.1392193902
 20
46.4239928378
 10
53.7689570212
 20
46.4487487573
 10
46.2904111286
 20
46.4703056364
 10
38.7186425084
 20
46.4886200624
 10
31.068899695
 20
46.5036551524
 10
23.3565882523
 20
46.5153806278
 10
15.5972397492
 20
46.5237728751
 10
7.806480481
 20
46.5288149934
 10
0.0
 20
46.5304968284
 10
-7.806480481
 20
46.5288149934
 10
-15.5972397492
 20
46.5237728751
 10
-23.3565882523
 20
46.5153806278
 10
-31.068899695
 20
46.5036551524
 10
-38.7186425084
 20
46.4886200624
 10
-46.2904111286
 20
46.4703056364
 10
-53.7689570212
 20
46.4487487573
 10
-61.1392193902
 20
46.4239928378
 10
-68.3863555078
 20
46.396087733
 10
-75.4957706065
 20
46.3650896401
 10
-82.4531472703
 20
46.3310609851
 10
-89.2444742686
 20
46.2940702971
 10
-95.8560747727
 20
46.2541920706
 10
-102.2746338989
 20
46.2115066149
 10
-108.4872255234
 20
46.1660998928
 10
-114.4813383135
 20
46.1180633476
 10
-120.2449009237
 20
46.0674937183
 10
-125.766306306
 20
46.0144928455
 10
-131.0344350846
 20
45.9591674658
 10
-136.0386779494
 20
45.9016289974
 10
-140.7689570212
 20
45.8419933148
 10
-145.2157461475
 20
45.7803805166
 10
-149.3700900867
 20
45.7169146826
 10
-153.2236225431
 20
45.6517236246
 10
-156.768583015
 20
45.5849386287
 10
-159.997832424
 20
45.5166941911
 10
-162.9048674913
 20
45.4471277469
 10
-165.4838338354
 20
45.3763793936
 10
-167.7295377611
 20
45.3045916091
 10
-169.6374567196
 20
45.2319089645
 10
-171.2037484162
 20
45.1584778327
 10
-171.5074667241
 20
45.1419396237
  0
SPLINE
  5
D9
330
1F
100
AcDbEntity
  8
0
  6
Continuous
 62
     7
370
    25
100
AcDbSpline
210
0.0
220
0.0
230
1.0
 70
    24
 71
     3
 72
     9
 73
     5
 74
     0
 42
0.000000001
 43
0.00000001
 40
0.0
 40
0.0
 40
0.0
 40
0.0
 40
0.5
 40
1.0
 40
1.0
 40
1.0
 40
1.0
 10
-173.5
 20
2.390989193487135
 30
0.0
 10
-173.5
 20
2.094795290341962
 30
0.0
 10
-173.5
 20
1.658145760389831
 30
0.0
 10
-173.5
 20
1.52049226727189
 30
0.0
 10
-173.5
 20
1.529534658882028
 30
0.0
  0
SPLINE
  5
DB
330
1F
100
AcDbEntity
  8
0
  6
Continuous
 62
     7
370
    25
100
AcDbSpline
210
0.0
220
0.0
230
1.0
 70
    24
 71
     3
 72
     9
 73
     5
 74
     0
 42
0.000000001
 43
0.00000001
 40
0.0
 40
0.0
 40
0.0
 40
0.0
 40
0.5
 40
1.0
 40
1.0
 40
1.0
 40
1.0
 10
173.5
 20
1.529534658882028
 30
0.0
 10
173.5
 20
1.52049226727189
 30
0.0
 10
173.4999999999999
 20
1.658145760389831
 30
0.0
 10
173.5000000000001
 20
2.094795290341966
 30
0.0
 10
173.5
 20
2.390989193487135
 30
0.0
  0
LWPOLYLINE
  5
DD
330
1F
100
AcDbEntity
  8
0
  6
Continuous
 62
     7
370
    25
100
AcDbPolyline
 90
        3
 70
   128
 43
0.0
 10
173.3061822605
 20
3.0577784439
 10
172.9207334285
 20
3.0870254254
 10
172.5
 20
3.1150566612
  0
LWPOLYLINE
  5
DE
330
1F
100
AcDbEntity
  8
0
  6
Continuous
 62
     7
370
    25
100
AcDbPolyline
 90
        3
 70
   128
 43
0.0
 10
-172.5
 20
3.1150566612
 10
-172.9207334285
 20
3.0870254254
 10
-173.2855610174
 20
3.0594547057
  0
SPLINE
  5
E1
330
1F
100
AcDbEntity
  8
0
  6
Continuous
 62
     7
370
    25
100
AcDbSpline
210
0.0
220
0.0
230
1.0
 70
     8
 71
     3
 72
    11
 73
     7
 74
     0
 42
0.000000001
 43
0.00000001
 40
0.0
 40
0.0
 40
0.0
 40
0.0
 40
0.0788211516976418
 40
0.1805740461866151
 40
0.3679569794661497
 40
1.0
 40
1.0
 40
1.0
 40
1.0
 10
-74.49999999999999
 20
2.533370452904235
 30
0.0
 10
-74.46610204868297
 20
2.533098852511104
 30
0.0
 10
-74.3884440838485
 20
2.532476633971069
 30
0.0
 10
-74.25280856575925
 20
2.526751859051612
 30
0.0
 10
-73.99864012631193
 20
2.50888254687601
 30
0.0
 10
-73.87742643854337
 20
2.50391637750496
 30
0.0
 10
-73.78393139485969
 20
2.500085851177166
 30
0.0
  0
SPLINE
  5
E3
330
1F
100
AcDbEntity
  8
0
  6
Continuous
 62
     7
370
    25
100
AcDbSpline
210
0.0
220
0.0
230
1.0
 70
     8
 71
     3
 72
    14
 73
    10
 74
     0
 42
0.000000001
 43
0.00000001
 40
0.0
 40
0.0
 40
0.0
 40
0.0
 40
0.5000000000000064
 40
0.5000000000000064
 40
0.7500000000000061
 40
0.7500000000000061
 40
0.875000000000003
 40
0.875000000000003
 40
1.0
 40
1.0
 40
1.0
 40
1.0
 10
-102.2164930664932
 20
2.500000000000002
 30
0.0
 10
-102.1465131017641
 20
2.500000000000002
 30
0.0
 10
-102.0683947251211
 20
2.50422819215684
 30
0.0
 10
-101.9113119454293
 20
2.515331871036468
 30
0.0
 10
-101.852031146542
 20
2.519890855709448
 30
0.0
 10
-101.7416092374133
 20
2.526537317936902
 30
0.0
 10
-101.7008132998535
 20
2.528728909133513
 30
0.0
 10
-101.6073100111463
 20
2.532188332718118
 30
0.0
 10
-101.5545796635223
 20
2.533370452904235
 30
0.0
 10
-101.5
 20
2.533370452904235
 30
0.0
  0
SPLINE
  5
E6
330
1F
100
AcDbEntity
  8
0
  6
Continuous
 62
     7
370
    25
100
AcDbSpline
210
0.0
220
0.0
230
1.0
 70
     8
 71
     3
 72
    14
 73
    10
 74
     0
 42
0.000000001
 43
0.00000001
 40
0.0
 40
0.0
 40
0.0
 40
0.0
 40
0.1249999999999885
 40
0.1249999999999885
 40
0.2499999999999769
 40
0.2499999999999769
 40
0.4999999999999818
 40
0.4999999999999818
 40
1.0
 40
1.0
 40
1.0
 40
1.0
 10
101.5
 20
2.533370452904235
 30
0.0
 10
101.5548994057372
 20
2.533370452904239
 30
0.0
 10
101.6077901007769
 20
2.532174275710244
 30
0.0
 10
101.7010611114952
 20
2.52871600630325
 30
0.0
 10
101.7425504293262
 20
2.526486212718743
 30
0.0
 10
101.8532816378038
 20
2.519804254651797
 30
0.0
 10
101.9124829879209
 20
2.515246839441765
 30
0.0
 10
102.0685068851611
 20
2.504224826039451
 30
0.0
 10
102.1465642290117
 20
2.500000000000002
 30
0.0
 10
102.2164930664932
 20
2.500000000000002
 30
0.0
  0
SPLINE
  5
E8
330
1F
100
AcDbEntity
  8
0
  6
Continuous
 62
     7
370
    25
100
AcDbSpline
210
0.0
220
0.0
230
1.0
 70
     8
 71
     3
 72
    13
 73
     9
 74
     0
 42
0.000000001
 43
0.00000001
 40
0.0
 40
0.0
 40
0.0
 40
0.0
 40
0.1880332842456002
 40
0.4516727612523569
 40
0.7279767914252847
 40
0.8391414843933476
 40
0.9516147859926923
 40
1.0
 40
1.0
 40
1.0
 40
1.0
 10
73.78870744530657
 20
2.501771615907106
 30
0.0
 10
73.81396720384268
 20
2.501402269653889
 30
0.0
 10
73.8746434023803
 20
2.500515066929544
 30
0.0
 10
74.00387577671067
 20
2.509090202962028
 30
0.0
 10
74.14926637818239
 20
2.520204351806825
 30
0.0
 10
74.30359026762753
 20
2.529127500118453
 30
0.0
 10
74.41012958026619
 20
2.532932762985701
 30
0.0
 10
74.4792184955804
 20
2.533269242127614
 30
0.0
 10
74.5
 20
2.533370452904235
 30
0.0
  0
SPLINE
  5
EB
330
1F
100
AcDbEntity
  8
0
  6
Continuous
 62
     7
370
    25
100
AcDbSpline
210
0.0
220
0.0
230
1.0
 70
     8
 71
     3
 72
    16
 73
    12
 74
     0
 42
0.000000001
 43
0.00000001
 40
0.0
 40
0.0
 40
0.0
 40
0.0
 40
0.125
 40
0.125
 40
0.2500000000000001
 40
0.2500000000000001
 40
0.5
 40
0.5
 40
0.75
 40
0.75
 40
1.0
 40
1.0
 40
1.0
 40
1.0
 10
102.2164930664932
 20
2.500000000000002
 30
0.0
 10
102.3313931556882
 20
2.48002438209147
 30
0.0
 10
102.4289848252544
 20
2.459322196917267
 30
0.0
 10
102.6088085632442
 20
2.417273066178033
 30
0.0
 10
102.6902997937567
 20
2.39589502195774
 30
0.0
 10
102.9171207423588
 20
2.331019868138287
 30
0.0
 10
103.0450635753613
 20
2.286792897475704
 30
0.0
 10
103.2600565991326
 20
2.196622377982707
 30
0.0
 10
103.3455406155306
 20
2.151116724107029
 30
0.0
 10
103.4653661352961
 20
2.059464733566885
 30
0.0
 10
103.5
 20
2.013273314167316
 30
0.0
 10
103.5
 20
1.96658123800364
 30
0.0
  0
SPLINE
  5
EC
330
1F
100
AcDbEntity
  8
0
  6
Continuous
 62
     7
370
    25
100
AcDbSpline
210
0.0
220
0.0
230
1.0
 70
     8
 71
     3
 72
    16
 73
    12
 74
     0
 42
0.000000001
 43
0.00000001
 40
0.0
 40
0.0
 40
0.0
 40
0.0
 40
0.2500000000000004
 40
0.2500000000000004
 40
0.5000000000000009
 40
0.5000000000000009
 40
0.7500000000000013
 40
0.7500000000000013
 40
0.8750000000000007
 40
0.8750000000000007
 40
1.0
 40
1.0
 40
1.0
 40
1.0
 10
-103.5
 20
1.96658123800364
 30
0.0
 10
-103.5
 20
2.013384832407296
 30
0.0
 10
-103.4652407767329
 20
2.059552381715637
 30
0.0
 10
-103.3457394590633
 20
2.150972863806194
 30
0.0
 10
-103.2607906821766
 20
2.196222014588471
 30
0.0
 10
-103.0473536276757
 20
2.285923604279531
 30
0.0
 10
-102.9185778016838
 20
2.330574463323326
 30
0.0
 10
-102.6907798710605
 20
2.395771925811172
 30
0.0
 10
-102.6089928111588
 20
2.41723005667089
 30
0.0
 10
-102.4287922619878
 20
2.459367150843508
 30
0.0
 10
-102.3310793156339
 20
2.480078943833352
 30
0.0
 10
-102.2164930664932
 20
2.500000000000002
 30
0.0
  0
LWPOLYLINE
  5
FA
330
1F
100
AcDbEntity
  8
0
  6
Continuous
 62
     7
370
    25
100
AcDbPolyline
 90
        3
 70
   128
 43
0.0
 10
-113.5
 20
-1.6429959296
 10
-113.5668598134
 20
-0.5480044201
 10
-113.6512393876
 20
0.0
  0
LWPOLYLINE
  5
FB
330
1F
100
AcDbEntity
  8
0
  6
Continuous
 62
     7
370
    25
100
AcDbPolyline
 90
        3
 70
   128
 43
0.0
 10
113.5
 20
-1.6429959296
 10
113.5668598134
 20
-0.5480044201
 10
113.6512393876
 20
0.0
  0
LWPOLYLINE
  5
FC
330
1F
100
AcDbEntity
  8
0
  6
Continuous
 62
     7
370
    25
100
AcDbPolyline
 90
       57
 70
   128
 43
0.0
 10
-113.5
 20
-3.4069891326
 10
-113.3214435045
 20
-3.6181046153
 10
-112.7863358229
 20
-3.8285558505
 10
-111.8963606018
 20
-4.0376806809
 10
-110.6543180326
 20
-4.2448211223
 10
-109.0641160408
 20
-4.4493254344
 10
-107.13075799
 20
-4.6505501708
 10
-104.86032694
 20
-4.8478622041
 10
-102.2599665069
 20
-5.0406407176
 10
-99.3378583866
 20
-5.2282791589
 10
-96.1031966124
 20
-5.4101871479
 10
-92.5661586269
 20
-5.5857923349
 10
-88.7378732601
 20
-5.7545422009
 10
-84.6303857142
 20
-5.9159057965
 10
-80.2566196647
 20
-6.069375412
 10
-75.6303365976
 20
-6.2144681753
 10
-70.766092511
 20
-6.3507275708
 10
-65.6791921164
 20
-6.4777248762
 10
-60.3856406845
 20
-6.5950605108
 10
-54.9020936864
 20
-6.7023652934
 10
-49.2458043898
 20
-6.7993016035
 10
-43.4345695734
 20
-6.8855644434
 10
-37.4866735319
 20
-6.9608823985
 10
-31.4208305467
 20
-7.0250184906
 10
-25.256126004
 20
-7.0777709237
 10
-19.0119563451
 20
-7.1189737193
 10
-12.7079680377
 20
-7.1484972381
 10
-6.3639957614
 20
-7.1662485882
 10
0.0
 20
-7.1721719172
 10
6.3639957614
 20
-7.1662485882
 10
12.7079680377
 20
-7.1484972381
 10
19.0119563451
 20
-7.1189737193
 10
25.256126004
 20
-7.0777709237
 10
31.4208305467
 20
-7.0250184906
 10
37.4866735319
 20
-6.9608823985
 10
43.4345695734
 20
-6.8855644434
 10
49.2458043898
 20
-6.7993016035
 10
54.9020936864
 20
-6.7023652934
 10
60.3856406845
 20
-6.5950605108
 10
65.6791921164
 20
-6.4777248762
 10
70.766092511
 20
-6.3507275708
 10
75.6303365976
 20
-6.2144681753
 10
80.2566196647
 20
-6.069375412
 10
84.6303857142
 20
-5.9159057965
 10
88.7378732601
 20
-5.7545422009
 10
92.5661586269
 20
-5.5857923349
 10
96.1031966124
 20
-5.4101871479
 10
99.3378583866
 20
-5.2282791589
 10
102.2599665069
 20
-5.0406407176
 10
104.86032694
 20
-4.8478622041
 10
107.13075799
 20
-4.6505501708
 10
109.0641160408
 20
-4.4493254344
 10
110.6543180326
 20
-4.2448211223
 10
111.8963606018
 20
-4.0376806809
 10
112.7863358229
 20
-3.8285558505
 10
113.3214435045
 20
-3.6181046153
 10
113.5
 20
-3.4069891326
  0
SPLINE
  5
101
330
1F
100
AcDbEntity
  8
0
  6
Continuous
 62
     7
370
    25
100
AcDbSpline
210
0.0
220
0.0
230
1.0
 70
     8
 71
     3
 72
    40
 73
    36
 74
     0
 42
0.000000001
 43
0.00000001
 40
0.0
 40
0.0
 40
0.0
 40
0.0
 40
0.0624999999999992
 40
0.0624999999999992
 40
0.1249999999999983
 40
0.1249999999999983
 40
0.1874999999999975
 40
0.1874999999999975
 40
0.2499999999999967
 40
0.2499999999999967
 40
0.3124999999999958
 40
0.3124999999999958
 40
0.374999999999995
 40
0.374999999999995
 40
0.4062499999999952
 40
0.4062499999999952
 40
0.4374999999999954
 40
0.4374999999999954
 40
0.4999999999999959
 40
0.4999999999999959
 40
0.5624999999999963
 40
0.5624999999999963
 40
0.6249999999999969
 40
0.6249999999999969
 40
0.6874999999999973
 40
0.6874999999999973
 40
0.7499999999999979
 40
0.7499999999999979
 40
0.8124999999999983
 40
0.8124999999999983
 40
0.8749999999999989
 40
0.8749999999999989
 40
0.9374999999999993
 40
0.9374999999999993
 40
1.0
 40
1.0
 40
1.0
 40
1.0
 10
-58.15000000000001
 20
20.0749134702986
 30
0.0
 10
-57.84080377807434
 20
20.07491347029859
 30
0.0
 10
-57.53718115082783
 20
20.04326531323951
 30
0.0
 10
-56.94049271019107
 20
19.9198350010467
 30
0.0
 10
-56.64425756038623
 20
19.82643986024777
 30
0.0
 10
-56.08228314973711
 20
19.58499252529971
 30
0.0
 10
-55.81604741940385
 20
19.43774901181439
 30
0.0
 10
-55.3121692246536
 20
19.09124125950197
 30
0.0
 10
-55.07520333825619
 20
18.8914600321857
 30
0.0
 10
-54.64922638740866
 20
18.45627117375655
 30
0.0
 10
-54.4573672216459
 20
18.21911684471442
 30
0.0
 10
-54.1172223798949
 20
17.70410928151432
 30
0.0
 10
-53.97400908403133
 20
17.43370735582065
 30
0.0
 10
-53.79944890316938
 20
17.01182901775181
 30
0.0
 10
-53.74793919282909
 20
16.86834045796149
 30
0.0
 10
-53.65863126740863
 20
16.57549326660108
 30
0.0
 10
-53.62071586149615
 20
16.42529378475993
 30
0.0
 10
-53.53040309163131
 20
15.97520020446992
 30
0.0
 10
-53.50031027249737
 20
15.67399891793307
 30
0.0
 10
-53.4996944554909
 20
15.06946069222987
 30
0.0
 10
-53.53023006572703
 20
14.76376249184094
 30
0.0
 10
-53.64953597619805
 20
14.17705299347531
 30
0.0
 10
-53.73784220766048
 20
13.89293340997218
 30
0.0
 10
-53.97254056099028
 20
13.34279724007531
 30
0.0
 10
-54.11699800079641
 20
13.08227491896447
 30
0.0
 10
-54.45261506771684
 20
12.59805086388713
 30
0.0
 10
-54.64665627874793
 20
12.37068172085002
 30
0.0
 10
-55.07530944808471
 20
11.95983131641727
 30
0.0
 10
-55.30786186525062
 20
11.77740101201476
 30
0.0
 10
-55.80967888541768
 20
11.45680343320317
 30
0.0
 10
-56.08162554610054
 20
11.31808100488585
 30
0.0
 10
-56.64139352904623
 20
11.09711451033032
 30
0.0
 10
-56.93121441540026
 20
11.01304865506957
 30
0.0
 10
-57.53165354027519
 20
10.89877041085848
 30
0.0
 10
-57.84078014632672
 20
10.86941268573681
 30
0.0
 10
-58.15000000000001
 20
10.86941268573681
 30
0.0
  0
SPLINE
  5
10B
330
1F
100
AcDbEntity
  8
0
  6
Continuous
 62
     7
370
    25
100
AcDbSpline
210
0.0
220
0.0
230
1.0
 70
     8
 71
     3
 72
    40
 73
    36
 74
     0
 42
0.000000001
 43
0.00000001
 40
0.0
 40
0.0
 40
0.0
 40
0.0
 40
0.0625000000000006
 40
0.0625000000000006
 40
0.1250000000000011
 40
0.1250000000000011
 40
0.1875000000000017
 40
0.1875000000000017
 40
0.2500000000000022
 40
0.2500000000000022
 40
0.3125000000000028
 40
0.3125000000000028
 40
0.3750000000000033
 40
0.3750000000000033
 40
0.4062500000000032
 40
0.4062500000000032
 40
0.437500000000003
 40
0.437500000000003
 40
0.5000000000000027
 40
0.5000000000000027
 40
0.5625000000000023
 40
0.5625000000000023
 40
0.625000000000002
 40
0.625000000000002
 40
0.6875000000000017
 40
0.6875000000000017
 40
0.7500000000000013
 40
0.7500000000000013
 40
0.812500000000001
 40
0.812500000000001
 40
0.8750000000000007
 40
0.8750000000000007
 40
0.9375000000000003
 40
0.9375000000000003
 40
1.0
 40
1.0
 40
1.0
 40
1.0
 10
58.14999999999999
 20
10.86941268573681
 30
0.0
 10
57.84080377807434
 20
10.86941268573681
 30
0.0
 10
57.53718115082782
 20
10.89820123222962
 30
0.0
 10
56.94049271019106
 20
11.01081174457545
 30
0.0
 10
56.6442575603862
 20
11.09611340137191
 30
0.0
 10
56.08228314973707
 20
11.3176927692847
 30
0.0
 10
55.81604741940383
 20
11.45322648173697
 30
0.0
 10
55.31216922465359
 20
11.77416773274248
 30
0.0
 10
55.07520333825617
 20
11.96008908751305
 30
0.0
 10
54.64922638740862
 20
12.36806318570544
 30
0.0
 10
54.45736722164588
 20
12.59171767804967
 30
0.0
 10
54.11722237989486
 20
13.08143563001291
 30
0.0
 10
53.9740090840313
 20
13.34043346631837
 30
0.0
 10
53.79944890316935
 20
13.74800407521196
 30
0.0
 10
53.74793919282909
 20
13.88718286133746
 30
0.0
 10
53.65863126740862
 20
14.17246970713149
 30
0.0
 10
53.62071586149613
 20
14.31940823271268
 30
0.0
 10
53.53040309163131
 20
14.7616804415367
 30
0.0
 10
53.50031027249735
 20
15.06020546312641
 30
0.0
 10
53.4996944554909
 20
15.66468939821701
 30
0.0
 10
53.530230065727
 20
15.97310241603356
 30
0.0
 10
53.64953597619803
 20
16.5701456814621
 30
0.0
 10
53.73784220766045
 20
16.86184504997686
 30
0.0
 10
53.97254056099021
 20
17.4312281848952
 30
0.0
 10
54.11699800079639
 20
17.70324576732297
 30
0.0
 10
54.45261506771681
 20
18.21243777017073
 30
0.0
 10
54.64665627874792
 20
18.45348355393387
 30
0.0
 10
55.07530944808466
 20
18.89172944031637
 30
0.0
 10
55.30786186525061
 20
19.08776371564463
 30
0.0
 10
55.80967888541766
 20
19.43387409473909
 30
0.0
 10
56.08162554610053
 20
19.58457141011296
 30
0.0
 10
56.64139352904618
 20
19.82534706707014
 30
0.0
 10
56.93121441540026
 20
19.91738525514415
 30
0.0
 10
57.53165354027515
 20
20.04263940715763
 30
0.0
 10
57.84078014632669
 20
20.0749134702986
 30
0.0
 10
58.14999999999999
 20
20.0749134702986
 30
0.0
  0
LINE
  5
120
330
1F
100
AcDbEntity
  8
0
  6
Continuous
 62
     7
370
    25
100
AcDbLine
 10
-178.0
 20
0.5287514174
 30
0.0
 11
-174.5
 21
0.5287514174
 31
0.0
  0
LINE
  5
121
330
1F
100
AcDbEntity
  8
0
  6
Continuous
 62
     7
370
    25
100
AcDbLine
 10
174.5
 20
0.5287514174
 30
0.0
 11
178.0
 21
0.5287514174
 31
0.0
  0
LINE
  5
122
330
1F
100
AcDbEntity
  8
0
  6
Continuous
 62
     7
370
    25
100
AcDbLine
 10
-122.5
 20
2.5
 30
0.0
 11
-109.5
 21
2.5
 31
0.0
  0
LINE
  5
123
330
1F
100
AcDbEntity
  8
0
  6
Continuous
 62
     7
370
    25
100
AcDbLine
 10
109.5
 20
2.5
 30
0.0
 11
122.5
 21
2.5
 31
0.0
  0
LINE
  5
124
330
1F
100
AcDbEntity
  8
0
  6
Continuous
 62
     7
370
    25
100
AcDbLine
 10
-166.5
 20
7.0676495768
 30
0.0
 11
-123.17506384
 21
7.0676495768
 31
0.0
  0
LINE
  5
125
330
1F
100
AcDbEntity
  8
0
  6
Continuous
 62
     7
370
    25
100
AcDbLine
 10
123.17506384
 20
7.0676495768
 30
0.0
 11
166.5
 21
7.0676495768
 31
0.0
  0
LINE
  5
126
330
1F
100
AcDbEntity
  8
0
  6
Continuous
 62
     7
370
    25
100
AcDbLine
 10
108.5
 20
32.5
 30
0.0
 11
-108.5
 21
32.5
 31
0.0
  0
LINE
  5
127
330
1F
100
AcDbEntity
  8
0
  6
Continuous
 62
     7
370
    25
100
AcDbLine
 10
-73.7839313949
 20
2.5
 30
0.0
 11
73.7887074453
 21
2.5
 31
0.0
  0
LINE
  5
128
330
1F
100
AcDbEntity
  8
0
  6
Continuous
 62
     7
370
    25
100
AcDbLine
 10
-166.5
 20
7.452290645
 30
0.0
 11
-123.5
 21
7.452290645
 31
0.0
  0
LINE
  5
129
330
1F
100
AcDbEntity
  8
0
  6
Continuous
 62
     7
370
    25
100
AcDbLine
 10
-178.0
 20
18.355966475
 30
0.0
 11
-109.5
 21
18.355966475
 31
0.0
  0
LINE
  5
12A
330
1F
100
AcDbEntity
  8
0
  6
Continuous
 62
     7
370
    25
100
AcDbLine
 10
-109.5
 20
8.0108286241
 30
0.0
 11
-123.5
 21
8.0108286241
 31
0.0
  0
LINE
  5
12B
330
1F
100
AcDbEntity
  8
0
  6
Continuous
 62
     7
370
    25
100
AcDbLine
 10
123.5
 20
7.452290645
 30
0.0
 11
166.5
 21
7.452290645
 31
0.0
  0
LINE
  5
12C
330
1F
100
AcDbEntity
  8
0
  6
Continuous
 62
     7
370
    25
100
AcDbLine
 10
123.5
 20
8.0108286241
 30
0.0
 11
109.5
 21
8.0108286241
 31
0.0
  0
LINE
  5
12D
330
1F
100
AcDbEntity
  8
0
  6
Continuous
 62
     7
370
    25
100
AcDbLine
 10
109.5
 20
18.355966475
 30
0.0
 11
178.0
 21
18.355966475
 31
0.0
  0
LINE
  5
12E
330
1F
100
AcDbEntity
  8
0
  6
Continuous
 62
     7
370
    25
100
AcDbLine
 10
-174.0
 20
42.4028565396
 30
0.0
 11
174.0
 21
42.4028565396
 31
0.0
  0
LINE
  5
12F
330
1F
100
AcDbEntity
  8
0
  6
Continuous
 62
     7
370
    25
100
AcDbLine
 10
178.0
 20
37.3550910874
 30
0.0
 11
108.1583123952
 21
37.3550910874
 31
0.0
  0
LINE
  5
130
330
1F
100
AcDbEntity
  8
0
  6
Continuous
 62
     7
370
    25
100
AcDbLine
 10
-106.5
 20
37.9804387354
 30
0.0
 11
106.5
 21
37.9804387354
 31
0.0
  0
LINE
  5
131
330
1F
100
AcDbEntity
  8
0
  6
Continuous
 62
     7
370
    25
100
AcDbLine
 10
-108.1583123952
 20
37.3550910874
 30
0.0
 11
-178.0
 21
37.3550910874
 31
0.0
  0
LINE
  5
132
330
1F
100
AcDbEntity
  8
0
  6
Continuous
 62
     7
370
    25
100
AcDbLine
 10
-106.5
 20
36.8650144423
 30
0.0
 11
-106.5
 21
37.9804387354
 31
0.0
  0
LINE
  5
133
330
1F
100
AcDbEntity
  8
0
  6
Continuous
 62
     7
370
    25
100
AcDbLine
 10
106.5
 20
36.8650144423
 30
0.0
 11
106.5
 21
37.9804387354
 31
0.0
  0
LINE
  5
134
330
1F
100
AcDbEntity
  8
0
  6
Continuous
 62
     7
370
    25
100
AcDbLine
 10
-178.0
 20
37.3550910874
 30
0.0
 11
-178.0
 21
18.355966475
 31
0.0
  0
LINE
  5
135
330
1F
100
AcDbEntity
  8
0
  6
Continuous
 62
     7
370
    25
100
AcDbLine
 10
-109.5
 20
18.355966475
 30
0.0
 11
-109.5
 21
34.85520627
 31
0.0
  0
LINE
  5
136
330
1F
100
AcDbEntity
  8
0
  6
Continuous
 62
     7
370
    25
100
AcDbLine
 10
-179.0
 20
18.3655656385
 30
0.0
 11
-179.0
 21
39.8604727511
 31
0.0
  0
LINE
  5
137
330
1F
100
AcDbEntity
  8
0
  6
Continuous
 62
     7
370
    25
100
AcDbLine
 10
178.0
 20
18.355966475
 30
0.0
 11
178.0
 21
37.3550910874
 31
0.0
  0
LINE
  5
138
330
1F
100
AcDbEntity
  8
0
  6
Continuous
 62
     7
370
    25
100
AcDbLine
 10
109.5
 20
34.85520627
 30
0.0
 11
109.5
 21
18.355966475
 31
0.0
  0
LINE
  5
139
330
1F
100
AcDbEntity
  8
0
  6
Continuous
 62
     7
370
    25
100
AcDbLine
 10
179.0
 20
39.8604727511
 30
0.0
 11
179.0
 21
18.3655656385
 31
0.0
  0
LINE
  5
13A
330
1F
100
AcDbEntity
  8
0
  6
Continuous
 62
     7
370
    25
100
AcDbLine
 10
-108.5
 20
0.0
 30
0.0
 11
-108.5
 21
34.8648054335
 31
0.0
  0
LINE
  5
13B
330
1F
100
AcDbEntity
  8
0
  6
Continuous
 62
     7
370
    25
100
AcDbLine
 10
108.5
 20
0.0
 30
0.0
 11
108.5
 21
34.8648054335
 31
0.0
  0
LINE
  5
13C
330
1F
100
AcDbEntity
  8
0
  6
Continuous
 62
     7
370
    25
100
AcDbLine
 10
106.5
 20
36.8650144423
 30
0.0
 11
-106.5
 21
36.8650144423
 31
0.0
  0
LINE
  5
13D
330
1F
100
AcDbEntity
  8
0
  6
Continuous
 62
     7
370
    25
100
AcDbLine
 10
-174.0
 20
44.860242386
 30
0.0
 11
-174.0
 21
42.4028565396
 31
0.0
  0
LINE
  5
13E
330
1F
100
AcDbEntity
  8
0
  6
Continuous
 62
     7
370
    25
100
AcDbLine
 10
174.0
 20
42.4028565396
 30
0.0
 11
174.0
 21
44.860242386
 31
0.0
  0
LINE
  5
13F
330
1F
100
AcDbEntity
  8
0
  6
Continuous
 62
     7
370
    25
100
AcDbLine
 10
-123.5
 20
7.196892201
 30
0.0
 11
-122.5
 21
7.196892201
 31
0.0
  0
LINE
  5
140
330
1F
100
AcDbEntity
  8
0
  6
Continuous
 62
     7
370
    25
100
AcDbLine
 10
122.5
 20
7.196892201
 30
0.0
 11
123.5
 21
7.196892201
 31
0.0
  0
LINE
  5
141
330
1F
100
AcDbEntity
  8
0
  6
Continuous
 62
     7
370
    25
100
AcDbLine
 10
-123.5
 20
7.452290645
 30
0.0
 11
-123.5
 21
7.196892201
 31
0.0
  0
LINE
  5
142
330
1F
100
AcDbEntity
  8
0
  6
Continuous
 62
     7
370
    25
100
AcDbLine
 10
123.5
 20
7.196892201
 30
0.0
 11
123.5
 21
7.452290645
 31
0.0
  0
LINE
  5
143
330
1F
100
AcDbEntity
  8
0
  6
Continuous
 62
     7
370
    25
100
AcDbLine
 10
123.5
 20
7.0676495768
 30
0.0
 11
123.5
 21
3.5
 31
0.0
  0
LINE
  5
144
330
1F
100
AcDbEntity
  8
0
  6
Continuous
 62
     7
370
    25
100
AcDbLine
 10
-123.5
 20
3.5
 30
0.0
 11
-123.5
 21
7.0676495768
 31
0.0
  0
LINE
  5
145
330
1F
100
AcDbEntity
  8
0
  6
Continuous
 62
     7
370
    25
100
AcDbLine
 10
-63.5
 20
2.5
 30
0.0
 11
-63.5
 21
32.5
 31
0.0
  0
LINE
  5
146
330
1F
100
AcDbEntity
  8
0
  6
Continuous
 62
     7
370
    25
100
AcDbLine
 10
-101.5
 20
2.5333704529
 30
0.0
 11
-74.5
 21
2.5333704529
 31
0.0
  0
LINE
  5
147
330
1F
100
AcDbEntity
  8
0
  6
Continuous
 62
     7
370
    25
100
AcDbLine
 10
-102.2164930665
 20
2.5
 30
0.0
 11
-108.5
 21
2.5
 31
0.0
  0
LINE
  5
148
330
1F
100
AcDbEntity
  8
0
  6
Continuous
 62
     7
370
    25
100
AcDbLine
 10
102.2164930665
 20
2.5
 30
0.0
 11
108.5
 21
2.5
 31
0.0
  0
LINE
  5
149
330
1F
100
AcDbEntity
  8
0
  6
Continuous
 62
     7
370
    25
100
AcDbLine
 10
74.5
 20
2.5333704529
 30
0.0
 11
101.5
 21
2.5333704529
 31
0.0
  0
LINE
  5
14A
330
1F
100
AcDbEntity
  8
0
  6
Continuous
 62
     7
370
    25
100
AcDbLine
 10
63.5
 20
2.5
 30
0.0
 11
63.5
 21
32.5
 31
0.0
  0
LINE
  5
14B
330
1F
100
AcDbEntity
  8
0
  6
Continuous
 62
     7
370
    25
100
AcDbLine
 10
-162.5
 20
0.0
 30
0.0
 11
-103.5
 21
0.0
 31
0.0
  0
LINE
  5
14C
330
1F
100
AcDbEntity
  8
0
  6
Continuous
 62
     7
370
    25
100
AcDbLine
 10
-103.5
 20
1.966581238
 30
0.0
 11
-103.5
 21
0.0
 31
0.0
  0
LINE
  5
14D
330
1F
100
AcDbEntity
  8
0
  6
Continuous
 62
     7
370
    25
100
AcDbLine
 10
103.5
 20
0.0
 30
0.0
 11
162.5
 21
0.0
 31
0.0
  0
LINE
  5
14E
330
1F
100
AcDbEntity
  8
0
  6
Continuous
 62
     7
370
    25
100
AcDbLine
 10
103.5
 20
1.966581238
 30
0.0
 11
103.5
 21
0.0
 31
0.0
  0
LINE
  5
14F
330
1F
100
AcDbEntity
  8
0
  6
Continuous
 62
     7
370
    25
100
AcDbLine
 10
-172.5
 20
0.0959960575
 30
0.0
 11
-172.5
 21
3.8687046627
 31
0.0
  0
LINE
  5
150
330
1F
100
AcDbEntity
  8
0
  6
Continuous
 62
     7
370
    25
100
AcDbLine
 10
172.5
 20
3.8674849518
 30
0.0
 11
172.5
 21
0.0959960575
 31
0.0
  0
LINE
  5
151
330
1F
100
AcDbEntity
  8
0
  6
Continuous
 62
     7
370
    25
100
AcDbLine
 10
113.5
 20
-1.6429959296
 30
0.0
 11
-113.5
 21
-1.6429959296
 31
0.0
  0
LINE
  5
152
330
1F
100
AcDbEntity
  8
0
  6
Continuous
 62
     7
370
    25
100
AcDbLine
 10
-113.5
 20
-3.4069891326
 30
0.0
 11
-113.5
 21
-1.6429959296
 31
0.0
  0
LINE
  5
153
330
1F
100
AcDbEntity
  8
0
  6
Continuous
 62
     7
370
    25
100
AcDbLine
 10
113.5
 20
-3.4069891326
 30
0.0
 11
113.5
 21
-1.6429959296
 31
0.0
  0
LINE
  5
154
330
1F
100
AcDbEntity
  8
0
  6
Continuous
 62
     7
370
    25
100
AcDbLine
 10
155.5
 20
-2.810489151
 30
0.0
 11
137.5
 21
-2.810489151
 31
0.0
  0
LINE
  5
155
330
1F
100
AcDbEntity
  8
0
  6
Continuous
 62
     7
370
    25
100
AcDbLine
 10
-137.5
 20
-2.810489151
 30
0.0
 11
-155.5
 21
-2.810489151
 31
0.0
  0
LINE
  5
156
330
1F
100
AcDbEntity
  8
0
  6
Continuous
 62
     7
370
    25
100
AcDbLine
 10
-58.15
 20
12.1862791123
 30
0.0
 11
-58.15
 21
10.8694126857
 31
0.0
  0
LINE
  5
157
330
1F
100
AcDbEntity
  8
0
  6
Continuous
 62
     7
370
    25
100
AcDbLine
 10
-58.15
 20
10.8694126857
 30
0.0
 11
-63.5
 21
10.8694126857
 31
0.0
  0
LINE
  5
158
330
1F
100
AcDbEntity
  8
0
  6
Continuous
 62
     7
370
    25
100
AcDbLine
 10
-63.5
 20
20.0749134703
 30
0.0
 11
-58.15
 21
20.0749134703
 31
0.0
  0
LINE
  5
159
330
1F
100
AcDbEntity
  8
0
  6
Continuous
 62
     7
370
    25
100
AcDbLine
 10
58.15
 20
20.0749134703
 30
0.0
 11
63.5
 21
20.0749134703
 31
0.0
  0
LINE
  5
15A
330
1F
100
AcDbEntity
  8
0
  6
Continuous
 62
     7
370
    25
100
AcDbLine
 10
63.5
 20
10.8694126857
 30
0.0
 11
58.15
 21
10.8694126857
 31
0.0
  0
LINE
  5
15B
330
1F
100
AcDbEntity
  8
0
  6
Continuous
 62
     7
370
    25
100
AcDbLine
 10
58.15
 20
12.1862791123
 30
0.0
 11
58.15
 21
10.8694126857
 31
0.0
  0
LINE
  5
15C
330
1F
100
AcDbEntity
  8
0
  6
Continuous
 62
     7
370
    25
100
AcDbLine
 10
-63.5
 20
12.1862791123
 30
0.0
 11
-58.15
 21
12.1862791123
 31
0.0
  0
LINE
  5
15D
330
1F
100
AcDbEntity
  8
0
  6
Continuous
 62
     7
370
    25
100
AcDbLine
 10
58.15
 20
12.1862791123
 30
0.0
 11
63.5
 21
12.1862791123
 31
0.0
  0
LINE
  5
15E
330
1F
100
AcDbEntity
  8
0
  6
Continuous
 62
     8
370
    25
100
AcDbLine
 10
-166.5
 20
7.0676553949
 30
0.0
 11
-166.5
 21
7.452290645
 31
0.0
  0
LINE
  5
15F
330
1F
100
AcDbEntity
  8
0
  6
Continuous
 62
     8
370
    25
100
AcDbLine
 10
166.5
 20
7.0676887338
 30
0.0
 11
166.5
 21
7.452290645
 31
0.0
  0
LINE
  5
160
330
1F
100
AcDbEntity
  8
0
  6
Continuous
 62
     8
370
    25
100
AcDbLine
 10
-109.5
 20
2.5
 30
0.0
 11
-109.5
 21
8.0108286241
 31
0.0
  0
LINE
  5
161
330
1F
100
AcDbEntity
  8
0
  6
Continuous
 62
     8
370
    25
100
AcDbLine
 10
109.5
 20
8.0108286241
 30
0.0
 11
109.5
 21
2.5
 31
0.0
  0
LINE
  5
162
330
1F
100
AcDbEntity
  8
0
  6
Continuous
 62
     8
370
    25
100
AcDbLine
 10
-122.5
 20
7.196892201
 30
0.0
 11
-122.5
 21
2.5
 31
0.0
  0
LINE
  5
163
330
1F
100
AcDbEntity
  8
0
  6
Continuous
 62
     8
370
    25
100
AcDbLine
 10
122.5
 20
2.5
 30
0.0
 11
122.5
 21
7.196892201
 31
0.0
  0
LINE
  5
164
330
1F
100
AcDbEntity
  8
0
  6
Continuous
 62
     8
370
    25
100
AcDbLine
 10
162.5
 20
0.0
 30
0.0
 11
162.5
 21
7.0676495768
 31
0.0
  0
LINE
  5
165
330
1F
100
AcDbEntity
  8
0
  6
Continuous
 62
     8
370
    25
100
AcDbLine
 10
-162.5
 20
7.0676495768
 30
0.0
 11
-162.5
 21
0.0
 31
0.0
  0
LINE
  5
166
330
1F
100
AcDbEntity
  8
0
  6
Continuous
 62
     8
370
    25
100
AcDbLine
 10
137.5
 20
-2.810489151
 30
0.0
 11
137.5
 21
0.0
 31
0.0
  0
LINE
  5
167
330
1F
100
AcDbEntity
  8
0
  6
Continuous
 62
     8
370
    25
100
AcDbLine
 10
155.5
 20
0.0
 30
0.0
 11
155.5
 21
-2.810489151
 31
0.0
  0
LINE
  5
168
330
1F
100
AcDbEntity
  8
0
  6
Continuous
 62
     8
370
    25
100
AcDbLine
 10
-155.5
 20
0.0
 30
0.0
 11
-155.5
 21
-2.810489151
 31
0.0
  0
LINE
  5
169
330
1F
100
AcDbEntity
  8
0
  6
Continuous
 62
     8
370
    25
100
AcDbLine
 10
-137.5
 20
-2.810489151
 30
0.0
 11
-137.5
 21
0.0
 31
0.0
  0
ARC
  5
16A
330
1F
100
AcDbEntity
  8
0
  6
Continuous
 62
     7
370
    25
100
AcDbCircle
 10
178.0000000149
 20
1.5287519374
 30
0.0
 40
0.9999999850732542
100
AcDbArc
 50
270.1086138619
 51
0.0011427315
  0
ARC
  5
16B
330
1F
100
AcDbEntity
  8
0
  6
Continuous
 62
     7
370
    25
100
AcDbCircle
 10
-109.5
 20
3.5
 30
0.0
 40
1.000000000000014
100
AcDbArc
 50
270.0
 51
0.0
  0
ARC
  5
16C
330
1F
100
AcDbEntity
  8
0
  6
Continuous
 62
     7
370
    25
100
AcDbCircle
 10
109.5
 20
3.5
 30
0.0
 40
1.000000000000014
100
AcDbArc
 50
180.0
 51
270.0
  0
ARC
  5
16D
330
1F
100
AcDbEntity
  8
0
  6
Continuous
 62
     7
370
    25
100
AcDbCircle
 10
122.5
 20
3.5
 30
0.0
 40
1.0
100
AcDbArc
 50
270.0
 51
0.0
  0
ARC
  5
16E
330
1F
100
AcDbEntity
  8
0
  6
Continuous
 62
     7
370
    25
100
AcDbCircle
 10
-122.5
 20
3.5
 30
0.0
 40
1.000000000000014
100
AcDbArc
 50
180.0
 51
270.0
  0
ARC
  5
16F
330
1F
100
AcDbEntity
  8
0
  6
Continuous
 62
     7
370
    25
100
AcDbCircle
 10
-178.000023036
 20
1.5295576959
 30
0.0
 40
0.9999769642805891
100
AcDbArc
 50
180.0013199559
 51
270.0013198951
  0
ARC
  5
170
330
1F
100
AcDbEntity
  8
0
  6
Continuous
 62
     7
370
    25
100
AcDbCircle
 10
-178.249976964
 20
44.4071019655
 30
0.0
 40
26.05233480565186
100
AcDbArc
 50
268.3502786547
 51
270.5497720225
  0
ARC
  5
171
330
1F
100
AcDbEntity
  8
0
  6
Continuous
 62
     7
370
    25
100
AcDbCircle
 10
178.249976964
 20
44.4071019655
 30
0.0
 40
26.05233480566147
100
AcDbArc
 50
269.4502279775
 51
271.6497213453
  0
ARC
  5
172
330
1F
100
AcDbEntity
  8
0
  6
Continuous
 62
     7
370
    25
100
AcDbCircle
 10
109.250023036
 20
44.4071019655
 30
0.0
 40
26.05233480564399
100
AcDbArc
 50
268.3502786547
 51
270.5497720225
  0
ARC
  5
173
330
1F
100
AcDbEntity
  8
0
  6
Continuous
 62
     7
370
    25
100
AcDbCircle
 10
-109.250023036
 20
44.4071019656
 30
0.0
 40
26.05233480570076
100
AcDbArc
 50
269.4502279775
 51
271.6497213453
  0
ARC
  5
174
330
1F
100
AcDbEntity
  8
0
  6
Continuous
 62
     7
370
    25
100
AcDbCircle
 10
-173.3494818903
 20
37.778624156
 30
0.0
 40
4.669764335484552
100
AcDbArc
 50
98.0075893354
 51
185.2036995028
  0
ARC
  5
175
330
1F
100
AcDbEntity
  8
0
  6
Continuous
 62
     7
370
    25
100
AcDbCircle
 10
173.3722464229
 20
37.796663451
 30
0.0
 40
4.648772883535806
100
AcDbArc
 50
354.5494361704
 51
82.2392749915
  0
ARC
  5
176
330
1F
100
AcDbEntity
  8
0
  6
Continuous
 62
     7
370
    25
100
AcDbCircle
 10
-178.249976964
 20
63.4062265779
 30
0.0
 40
26.05233480564783
100
AcDbArc
 50
268.3502786547
 51
270.5497720225
  0
ARC
  5
177
330
1F
100
AcDbEntity
  8
0
  6
Continuous
 62
     7
370
    25
100
AcDbCircle
 10
-173.9548731151
 20
37.3579269473
 30
0.0
 40
5.045131418193812
100
AcDbArc
 50
90.512496962
 51
179.9231915216
  0
ARC
  5
178
330
1F
100
AcDbEntity
  8
0
  6
Continuous
 62
     7
370
    25
100
AcDbCircle
 10
-69.9056645382
 20
62.4285856508
 30
0.0
 40
45.73778741571711
100
AcDbArc
 50
213.2436720438
 51
214.4863546679
  0
ARC
  5
179
330
1F
100
AcDbEntity
  8
0
  6
Continuous
 62
     7
370
    25
100
AcDbCircle
 10
69.9056645382
 20
62.4285856508
 30
0.0
 40
45.73778741571835
100
AcDbArc
 50
325.5136453321
 51
326.7563279562
  0
ARC
  5
17A
330
1F
100
AcDbEntity
  8
0
  6
Continuous
 62
     7
370
    25
100
AcDbCircle
 10
173.9548731151
 20
37.3579269473
 30
0.0
 40
5.045131418193812
100
AcDbArc
 50
0.0768084784
 51
89.487503038
  0
ARC
  5
17B
330
1F
100
AcDbEntity
  8
0
  6
Continuous
 62
     7
370
    25
100
AcDbCircle
 10
178.249976964
 20
63.4062265779
 30
0.0
 40
26.05233480564783
100
AcDbArc
 50
269.4502279775
 51
271.6497213453
  0
ARC
  5
17C
330
1F
100
AcDbEntity
  8
0
  6
Continuous
 62
     7
370
    25
100
AcDbCircle
 10
-106.5001732743
 20
34.8551840811
 30
0.0
 40
2.999826725799446
100
AcDbArc
 50
123.5555336605
 51
179.9995761975
  0
ARC
  5
17D
330
1F
100
AcDbEntity
  8
0
  6
Continuous
 62
     7
370
    25
100
AcDbCircle
 10
-106.5001155162
 20
34.8647906408
 30
0.0
 40
1.999884483866281
100
AcDbArc
 50
123.5555336605
 51
179.9995761975
  0
ARC
  5
17E
330
1F
100
AcDbEntity
  8
0
  6
Continuous
 62
     7
370
    25
100
AcDbCircle
 10
-109.250023036
 20
60.9063417606
 30
0.0
 40
26.052334805703
100
AcDbArc
 50
269.4502279775
 51
271.6497213453
  0
ARC
  5
17F
330
1F
100
AcDbEntity
  8
0
  6
Continuous
 62
     7
370
    25
100
AcDbCircle
 10
106.5001732743
 20
34.8551840811
 30
0.0
 40
2.999826725799391
100
AcDbArc
 50
0.0004238025
 51
56.4444663395
  0
ARC
  5
180
330
1F
100
AcDbEntity
  8
0
  6
Continuous
 62
     7
370
    25
100
AcDbCircle
 10
106.5001155162
 20
34.8647906408
 30
0.0
 40
1.999884483866283
100
AcDbArc
 50
0.0004238025
 51
56.4444663395
  0
ARC
  5
181
330
1F
100
AcDbEntity
  8
0
  6
Continuous
 62
     7
370
    25
100
AcDbCircle
 10
109.250023036
 20
60.9063417606
 30
0.0
 40
26.05233480570428
100
AcDbArc
 50
268.3502786547
 51
270.5497720225
  0
ARC
  5
182
330
1F
100
AcDbEntity
  8
0
  6
Continuous
 62
     7
370
    25
100
AcDbCircle
 10
-174.0001151799
 20
39.8603575659
 30
0.0
 40
4.999884821402805
100
AcDbArc
 50
89.9986801049
 51
179.9986800441
  0
ARC
  5
183
330
1F
100
AcDbEntity
  8
0
  6
Continuous
 62
     7
370
    25
100
AcDbCircle
 10
174.0001151799
 20
39.8603575659
 30
0.0
 40
4.9998848214028
100
AcDbArc
 50
0.0013199559
 51
90.0013198951
  0
ARC
  5
184
330
1F
100
AcDbEntity
  8
0
  6
Continuous
 62
     7
370
    25
100
AcDbCircle
 10
-174.4752831917
 20
2.4170266165
 30
0.0
 40
0.9756306941616075
100
AcDbArc
 50
268.5483028166
 51
358.4707209367
  0
ARC
  5
185
330
1F
100
AcDbEntity
  8
0
  6
Continuous
 62
     7
370
    25
100
AcDbCircle
 10
174.4752831917
 20
2.4170266165
 30
0.0
 40
0.9756306941615778
100
AcDbArc
 50
181.5292790633
 51
271.4516971834
  0
ARC
  5
186
330
1F
100
AcDbEntity
  8
0
  6
Continuous
 62
     7
370
    25
100
AcDbCircle
 10
-174.499976964
 20
1.5295576959
 30
0.0
 40
0.9999769642805636
100
AcDbArc
 50
269.9986801049
 51
359.9986800441
  0
ARC
  5
187
330
1F
100
AcDbEntity
  8
0
  6
Continuous
 62
     7
370
    25
100
AcDbCircle
 10
174.499976964
 20
1.5295576959
 30
0.0
 40
0.9999769642805487
100
AcDbArc
 50
180.0013199559
 51
270.0013198951
  0
ARC
  5
188
330
1F
100
AcDbEntity
  8
0
  6
Continuous
 62
     7
370
    25
100
AcDbCircle
 10
-164.9997696189
 20
260.4993589913
 30
0.0
 40
260.5113526950948
100
AcDbArc
 50
268.3502026669
 51
270.5497973331
  0
ARC
  5
189
330
1F
100
AcDbEntity
  8
0
  6
Continuous
 62
     7
370
    25
100
AcDbCircle
 10
164.9997696189
 20
260.4993589913
 30
0.0
 40
260.5113526950939
100
AcDbArc
 50
269.4502026669
 51
271.6497973331
  0
ARC
  5
18A
330
1F
100
AcDbEntity
  8
0
  6
Continuous
 62
     7
370
    25
100
AcDbCircle
 10
-58.1263218679
 20
16.8151992151
 30
0.0
 40
4.628980662302124
100
AcDbArc
 50
269.7069197188
 51
352.9197520966
  0
ARC
  5
18B
330
1F
100
AcDbEntity
  8
0
  6
Continuous
 62
     7
370
    25
100
AcDbCircle
 10
58.1266684501
 20
16.8160023149
 30
0.0
 40
4.629781992117361
100
AcDbArc
 50
188.2509105329
 51
270.2887403772
  0
ARC
  5
18C
330
1F
100
AcDbEntity
  8
0
  6
Continuous
 62
     8
370
    25
100
AcDbCircle
 10
171.7238092442
 20
35.6933818009
 30
0.0
 40
9.445230401763359
100
AcDbArc
 50
76.0551174276
 51
90.8452171672
  0
ARC
  5
18D
330
1F
100
AcDbEntity
  8
0
  6
Continuous
 62
     8
370
    25
100
AcDbCircle
 10
-171.6752370289
 20
35.4582640316
 30
0.0
 40
9.685128798715704
100
AcDbArc
 50
89.0074462211
 51
103.8885639284
  0
ARC
  5
18E
330
1F
100
AcDbEntity
  8
0
  6
Continuous
 62
     8
370
    25
100
AcDbCircle
 10
0.0
 20
-15658.0238795258
 30
0.0
 40
15692.0594191577
100
AcDbArc
 50
89.6038351981
 51
90.3961648019
  0
SPLINE
  5
18F
330
1B
100
AcDbEntity
 67
     1
  8
0
  6
Continuous
 62
     7
370
    25
100
AcDbSpline
210
0.0
220
0.0
230
1.0
 70
     8
 71
     3
 72
    20
 73
    16
 74
     0
 42
0.000000001
 43
0.00000001
 40
0.0
 40
0.0
 40
0.0
 40
0.0
 40
0.0194236674410181
 40
0.2540687395258547
 40
0.5012664671299503
 40
0.6088705797286634
 40
0.7019765414676122
 40
0.7497922454106458
 40
0.7876048817066522
 40
0.8216820540666706
 40
0.8550675699358028
 40
0.8894341201371366
 40
0.9257618550455858
 40
0.9633331395768185
 40
1.0
 40
1.0
 40
1.0
 40
1.0
 10
-171.8103692997001
 20
45.13227918046257
 30
0.0
 10
-171.8518231437855
 20
45.13018683160396
 30
0.0
 10
-172.3940547252944
 20
45.10281813623424
 30
0.0
 10
-173.1794655692711
 20
45.04467755766628
 30
0.0
 10
-173.9809727712616
 20
44.97251155493223
 30
0.0
 10
-174.5896748147723
 20
44.88262044174461
 30
0.0
 10
-175.0244585598089
 20
44.7977411871158
 30
0.0
 10
-175.5208708297278
 20
44.65473145195786
 30
0.0
 10
-176.0008058492367
 20
44.47155759261918
 30
0.0
 10
-176.5758054280738
 20
44.17885565164823
 30
0.0
 10
-177.2450021115953
 20
43.7080438654072
 30
0.0
 10
-177.931486283141
 20
43.01417458218298
 30
0.0
 10
-178.5178923882355
 20
42.09787527014677
 30
0.0
 10
-178.9229083919378
 20
41.01736022959473
 30
0.0
 10
-178.9745123565615
 20
40.24295712641881
 30
0.0
 10
-178.9999999999999
 20
39.86047275113079
 30
0.0
  0
SPLINE
  5
190
330
1B
100
AcDbEntity
 67
     1
  8
0
  6
Continuous
 62
     7
370
    25
100
AcDbSpline
210
0.0
220
0.0
230
1.0
 70
     8
 71
     3
 72
    21
 73
    17
 74
     0
 42
0.000000001
 43
0.00000001
 40
0.0
 40
0.0
 40
0.0
 40
0.0
 40
0.0398925929245906
 40
0.0763724617692428
 40
0.1100451026362189
 40
0.1416789804474389
 40
0.1720235607064501
 40
0.2028763619899062
 40
0.236571906228066
 40
0.2768890573748862
 40
0.3292393129112088
 40
0.4021956788596978
 40
0.5128232906680864
 40
0.7131135448329453
 40
0.9458447542645951
 40
1.0
 40
1.0
 40
1.0
 40
1.0
 10
179.0000000000001
 20
39.86047275113066
 30
0.0
 10
178.9701288678832
 20
40.27581248862258
 30
0.0
 10
178.9129420136742
 20
41.07096055740844
 30
0.0
 10
178.4942488086959
 20
42.13534398933702
 30
0.0
 10
177.9430812840625
 20
42.99084582414295
 30
0.0
 10
177.3200097249286
 20
43.6379482548039
 30
0.0
 10
176.7063572347974
 20
44.09535004594778
 30
0.0
 10
176.1582721584118
 20
44.39809612253759
 30
0.0
 10
175.6901488507263
 20
44.59481998464059
 30
0.0
 10
175.2825382767276
 20
44.7268794193337
 30
0.0
 10
174.9048724872998
 20
44.82109129353639
 30
0.0
 10
174.5128459381717
 20
44.89539091932088
 30
0.0
 10
173.9999130824775
 20
44.96775948633907
 30
0.0
 10
173.2640087186841
 20
45.03824492082931
 30
0.0
 10
172.5180062492188
 20
45.09449330777579
 30
0.0
 10
171.9230716365497
 20
45.12546600420817
 30
0.0
 10
171.8107664734258
 20
45.13131268660175
 30
0.0
  0
SPLINE
  5
194
330
1B
100
AcDbEntity
 67
     1
  8
0
  6
Continuous
 62
     7
370
    25
100
AcDbSpline
210
0.0
220
0.0
230
1.0
 70
     8
 71
     3
 72
    11
 73
     7
 74
     0
 42
0.000000001
 43
0.00000001
 40
0.0
 40
0.0
 40
0.0
 40
0.0
 40
0.0679330006604928
 40
0.5317121875744951
 40
0.9352617443059263
 40
1.0
 40
1.0
 40
1.0
 40
1.0
 10
173.1546365208354
 20
3.059419271307363
 30
0.0
 10
173.1751590133239
 20
3.032503999541129
 30
0.0
 10
173.3357887406941
 20
2.821837933110343
 30
0.0
 10
173.4582022832417
 20
2.573926820275997
 30
0.0
 10
173.4947724900532
 20
2.354613631374337
 30
0.0
 10
173.5018795066523
 20
2.398746408455644
 30
0.0
 10
173.502862013234
 20
2.404847526040536
 30
0.0
  0
SPLINE
  5
195
330
1B
100
AcDbEntity
 67
     1
  8
0
  6
Continuous
 62
     7
370
    25
100
AcDbSpline
210
0.0
220
0.0
230
1.0
 70
     8
 71
     3
 72
    11
 73
     7
 74
     0
 42
0.000000001
 43
0.00000001
 40
0.0
 40
0.0
 40
0.0
 40
0.0
 40
0.0665745213299058
 40
0.4964935277024361
 40
0.9335217009001389
 40
1.0
 40
1.0
 40
1.0
 40
1.0
 10
-173.5024841423302
 20
2.404452562122732
 30
0.0
 10
-173.5016411741839
 20
2.398507756078604
 30
0.0
 10
-173.4953545615228
 20
2.354173111752317
 30
0.0
 10
-173.4537988806941
 20
2.581629812649516
 30
0.0
 10
-173.3268761629912
 20
2.83304555178087
 30
0.0
 10
-173.1760403910841
 20
3.031561098685551
 30
0.0
 10
-173.1561254423962
 20
3.057771240221333
 30
0.0
  0
SPLINE
  5
196
330
1B
100
AcDbEntity
 67
     1
  8
0
  6
Continuous
 62
     7
370
    25
100
AcDbSpline
210
0.0
220
0.0
230
1.0
 70
     8
 71
     3
 72
    21
 73
    17
 74
     0
 42
0.000000001
 43
0.00000001
 40
0.0
 40
0.0
 40
0.0
 40
0.0
 40
0.0532583350145567
 40
0.1557871881566715
 40
0.259450453750301
 40
0.3670515544569602
 40
0.4046406935395069
 40
0.4293133611420113
 40
0.4628591149493937
 40
0.5130755426090019
 40
0.6044071481990528
 40
0.6962465206735527
 40
0.7913000880258597
 40
0.889050697128997
 40
0.992494172208379
 40
0.9999999999999999
 40
0.9999999999999999
 40
0.9999999999999999
 40
0.9999999999999999
 10
148.085522669331
 20
-1.406367276546326
 30
0.0
 10
148.2716546253951
 20
-1.405647543835976
 30
0.0
 10
148.8161135171984
 20
-1.403542237030209
 30
0.0
 10
149.6187877607124
 20
-1.397961359638343
 30
0.0
 10
150.3824889439445
 20
-1.388536189094198
 30
0.0
 10
150.7684858662366
 20
-1.380174486536583
 30
0.0
 10
151.0342414633084
 20
-1.368624070399258
 30
0.0
 10
151.272198751174
 20
-1.351706583392304
 30
0.0
 10
151.6536293276842
 20
-1.305581820322786
 30
0.0
 10
152.2924441021683
 20
-1.166836614784557
 30
0.0
 10
153.114330156958
 20
-0.846063106590595
 30
0.0
 10
153.9927089165455
 20
-0.2705243537343243
 30
0.0
 10
154.7562679548861
 20
0.4931977651592389
 30
0.0
 10
155.3328849367648
 20
1.443747384002554
 30
0.0
 10
155.6540957596752
 20
2.181587737262448
 30
0.0
 10
155.6929467046192
 20
2.596405389497569
 30
0.0
 10
155.6955750086711
 20
2.624468205414686
 30
0.0
  0
SPLINE
  5
197
330
1B
100
AcDbEntity
 67
     1
  8
0
  6
Continuous
 62
     7
370
    25
100
AcDbSpline
210
0.0
220
0.0
230
1.0
 70
     8
 71
     3
 72
    22
 73
    18
 74
     0
 42
0.000000001
 43
0.00000001
 40
0.0
 40
0.0
 40
0.0
 40
0.0
 40
0.0859663414897941
 40
0.1788056579816984
 40
0.2633210122200117
 40
0.3400596816761728
 40
0.4088604164334315
 40
0.4690157543862891
 40
0.5191098895367712
 40
0.5562717651296066
 40
0.5805298688049637
 40
0.6009374790243033
 40
0.6334165009676369
 40
0.7082597392625842
 40
0.8095662847198727
 40
0.9166757471336401
 40
1.0
 40
1.0
 40
1.0
 40
1.0
 10
-155.6809628240404
 20
2.600366786831412
 30
0.0
 10
-155.6039727401477
 20
2.28639715483691
 30
0.0
 10
-155.443837245605
 20
1.633356142946078
 30
0.0
 10
-154.9439849398078
 20
0.7690030964278838
 30
0.0
 10
-154.3271558630626
 20
0.0396403521831373
 30
0.0
 10
-153.654677548747
 20
-0.5066583934212541
 30
0.0
 10
-152.9839977914289
 20
-0.8906053549856476
 30
0.0
 10
-152.3583424770032
 20
-1.136533589696558
 30
0.0
 10
-151.8265411719585
 20
-1.273411906554254
 30
0.0
 10
-151.4211719881073
 20
-1.336127265734149
 30
0.0
 10
-151.1719548313914
 20
-1.359256381249854
 30
0.0
 10
-151.0059361720249
 20
-1.369810642271159
 30
0.0
 10
-150.8050810351112
 20
-1.37846393324844
 30
0.0
 10
-150.4910599924614
 20
-1.386372903614093
 30
0.0
 10
-149.8770313477023
 20
-1.395366271174196
 30
0.0
 10
-149.0337275326849
 20
-1.402460059681494
 30
0.0
 10
-148.374129654319
 20
-1.405178029240565
 30
0.0
 10
-148.085522669331
 20
-1.406367276546326
 30
0.0
  0
SPLINE
  5
19A
330
1B
100
AcDbEntity
 67
     1
  8
0
  6
Continuous
 62
     7
370
    25
100
AcDbSpline
210
0.0
220
0.0
230
1.0
 70
     8
 71
     3
 72
    23
 73
    19
 74
     0
 42
0.000000001
 43
0.00000001
 40
0.0
 40
0.0
 40
0.0
 40
0.0
 40
0.0426637003695725
 40
0.1245079582898016
 40
0.2065106559650866
 40
0.2886548268086182
 40
0.371294101850273
 40
0.4555430535757962
 40
0.5010901881627955
 40
0.5308474444042219
 40
0.5506029492065199
 40
0.5867292680364348
 40
0.6410870281107467
 40
0.7092244407637353
 40
0.8011732384383928
 40
0.8743927395860874
 40
0.9557590941196774
 40
1.0
 40
1.0
 40
1.0
 40
1.0
 10
-131.1075603517833
 20
-1.463760959493861
 30
0.0
 10
-130.9159571198506
 20
-1.464319997437603
 30
0.0
 10
-130.356790263647
 20
-1.465951470384828
 30
0.0
 10
-129.3746649558829
 20
-1.466376685153155
 30
0.0
 10
-128.2378500746717
 20
-1.463925475152845
 30
0.0
 10
-127.2079911912443
 20
-1.458513109423458
 30
0.0
 10
-126.3571644754216
 20
-1.450400491426664
 30
0.0
 10
-125.8392774551397
 20
-1.441705957748524
 30
0.0
 10
-125.5502315119224
 20
-1.432813654436701
 30
0.0
 10
-125.3476102481914
 20
-1.42322986952597
 30
0.0
 10
-125.0413541905174
 20
-1.397600893795134
 30
0.0
 10
-124.532178179103
 20
-1.320464526625736
 30
0.0
 10
-123.8214148637449
 20
-1.115759479111258
 30
0.0
 10
-122.911784258205
 20
-0.6759770693686024
 30
0.0
 10
-122.047167815888
 20
0.0152633517312845
 30
0.0
 10
-121.3425009576197
 20
0.9337396280913666
 30
0.0
 10
-120.9065270987861
 20
1.774917278935587
 30
0.0
 10
-120.8031584027989
 20
2.35570346192827
 30
0.0
 10
-120.7667502784988
 20
2.560265736224362
 30
0.0
  0
SPLINE
  5
19B
330
1B
100
AcDbEntity
 67
     1
  8
0
  6
Continuous
 62
     7
370
    25
100
AcDbSpline
210
0.0
220
0.0
230
1.0
 70
     8
 71
     3
 72
    25
 73
    21
 74
     0
 42
0.000000001
 43
0.00000001
 40
0.0
 40
0.0
 40
0.0
 40
0.0
 40
0.0220300603066639
 40
0.1008551317896344
 40
0.1722764236529349
 40
0.2373089861957751
 40
0.296126748191246
 40
0.3484186060269981
 40
0.3934293299535834
 40
0.4296021713656291
 40
0.4550780194454458
 40
0.4716081137736993
 40
0.4901614225812351
 40
0.5269400685611492
 40
0.6181159964737385
 40
0.6973884438749457
 40
0.7807964970467179
 40
0.8630969600221537
 40
0.9450931535869436
 40
1.0
 40
1.0
 40
1.0
 40
1.0
 10
120.7614265199098
 20
2.556740398245758
 30
0.0
 10
120.773817396925
 20
2.454108820780735
 30
0.0
 10
120.8305436844145
 20
1.984254397918262
 30
0.0
 10
121.1778453255363
 20
1.23645743629135
 30
0.0
 10
121.7280053588729
 20
0.3906259751838802
 30
0.0
 10
122.3796218830391
 20
-0.2610937497404889
 30
0.0
 10
123.055849650716
 20
-0.7388625030932059
 30
0.0
 10
123.7137723272524
 20
-1.06328906481944
 30
0.0
 10
124.3070050631755
 20
-1.261008888673074
 30
0.0
 10
124.7921712776476
 20
-1.363640539535502
 30
0.0
 10
125.1347633979924
 20
-1.405996601241046
 30
0.0
 10
125.3347532212314
 20
-1.421632588137378
 30
0.0
 10
125.5034378083608
 20
-1.430904682028805
 30
0.0
 10
125.7677901257235
 20
-1.440087057321206
 30
0.0
 10
126.2330231616698
 20
-1.44878893404058
 30
0.0
 10
127.0670820303977
 20
-1.457447296484018
 30
0.0
 10
128.0641432388416
 20
-1.463261846070752
 30
0.0
 10
129.1973910984012
 20
-1.466196271995419
 30
0.0
 10
130.2419616241548
 20
-1.46618057534479
 30
0.0
 10
130.8597770008439
 20
-1.464453590506815
 30
0.0
 10
131.1075603517832
 20
-1.463760959493861
 30
0.0
  0
SPLINE
  5
19C
330
1B
100
AcDbEntity
 67
     1
  8
0
  6
Continuous
 62
     7
370
    25
100
AcDbSpline
210
0.0
220
0.0
230
1.0
 70
     8
 71
     3
 72
    22
 73
    18
 74
     0
 42
0.000000001
 43
0.00000001
 40
0.0
 40
0.0
 40
0.0
 40
0.0
 40
0.0472984160637797
 40
0.1380567015720243
 40
0.2292331862775705
 40
0.3211069453219928
 40
0.4154190324837259
 40
0.4694629572890915
 40
0.4918798339737177
 40
0.5214826372187211
 40
0.5664562449544627
 40
0.6475395528381348
 40
0.72911084122846
 40
0.8137046644973727
 40
0.900571268503035
 40
0.9925223138713007
 40
1.0
 40
1.0
 40
1.0
 40
1.0
 10
155.4999999999999
 20
-2.810719516124434
 30
0.0
 10
155.6997763597085
 20
-2.81063567145861
 30
0.0
 10
156.282892403938
 20
-2.810390941952384
 30
0.0
 10
157.2256778195035
 20
-2.807669801793408
 30
0.0
 10
158.2208881371612
 20
-2.80163918598287
 30
0.0
 10
159.0258679209905
 20
-2.793223343803507
 30
0.0
 10
159.5088164892665
 20
-2.783065555602579
 30
0.0
 10
159.7682569111136
 20
-2.774718836428685
 30
0.0
 10
160.0590921801456
 20
-2.754448027059119
 30
0.0
 10
160.4424238510454
 20
-2.708516229485265
 30
0.0
 10
161.0813527176746
 20
-2.570445862670266
 30
0.0
 10
161.9039985166483
 20
-2.250080203572809
 30
0.0
 10
162.7826058747164
 20
-1.675667588752334
 30
0.0
 10
163.5467761876934
 20
-0.9127376511993447
 30
0.0
 10
164.1246871069016
 20
0.0373606835830896
 30
0.0
 10
164.447013066603
 20
0.7780455355508066
 30
0.0
 10
164.4862632661122
 20
1.196211050176667
 30
0.0
 10
164.4892151359389
 20
1.227659811728187
 30
0.0
  0
SPLINE
  5
19D
330
1B
100
AcDbEntity
 67
     1
  8
0
  6
Continuous
 62
     7
370
    25
100
AcDbSpline
210
0.0
220
0.0
230
1.0
 70
     8
 71
     3
 72
    21
 73
    17
 74
     0
 42
0.000000001
 43
0.00000001
 40
0.0
 40
0.0
 40
0.0
 40
0.0
 40
0.0203597446681917
 40
0.1072725623415072
 40
0.1845491142844789
 40
0.2510766929409908
 40
0.3045629467464429
 40
0.3422432966430567
 40
0.3666825475882382
 40
0.3940377531171201
 40
0.4481356313360463
 40
0.5820023284932927
 40
0.6991217593219208
 40
0.8223512254987237
 40
0.9439221218861923
 40
1.0
 40
1.0
 40
1.0
 40
1.0
 10
130.0501579411842
 20
-1.465601708846284
 30
0.0
 10
130.09497756083
 20
-1.512137349878883
 30
0.0
 10
130.3311256815913
 20
-1.757326940177169
 30
0.0
 10
130.8298954055247
 20
-2.076965706864203
 30
0.0
 10
131.4818560282612
 20
-2.408119424633117
 30
0.0
 10
132.0767388695411
 20
-2.604938244578504
 30
0.0
 10
132.5620829466446
 20
-2.708113498952471
 30
0.0
 10
132.9052972907603
 20
-2.750588627783448
 30
0.0
 10
133.1056344377061
 20
-2.766283880546099
 30
0.0
 10
133.2741513374067
 20
-2.77555931527744
 30
0.0
 10
133.537338887082
 20
-2.784725432325663
 30
0.0
 10
133.9996917957099
 20
-2.793406640598878
 30
0.0
 10
134.8300850327558
 20
-2.802082446759655
 30
0.0
 10
135.8250218903828
 20
-2.807882901202763
 30
0.0
 10
136.7586865891166
 20
-2.810442152034732
 30
0.0
 10
137.322137173341
 20
-2.810652968345474
 30
0.0
 10
137.5
 20
-2.810719516124434
 30
0.0
  0
SPLINE
  5
19E
330
1B
100
AcDbEntity
 67
     1
  8
0
  6
Continuous
 62
     7
370
    25
100
AcDbSpline
210
0.0
220
0.0
230
1.0
 70
     8
 71
     3
 72
    24
 73
    20
 74
     0
 42
0.000000001
 43
0.00000001
 40
0.0
 40
0.0
 40
0.0
 40
0.0
 40
0.0255930128298411
 40
0.113049444628762
 40
0.1922874940362992
 40
0.2644380643122983
 40
0.3296964691766514
 40
0.3877194932623537
 40
0.4376716611799799
 40
0.4778317629803021
 40
0.506124017158805
 40
0.5244742050304798
 40
0.54501383457352
 40
0.5856331739715925
 40
0.6861468537119354
 40
0.774085864770399
 40
0.8666125899447006
 40
0.9578939796011167
 40
1.0
 40
1.0
 40
1.0
 40
1.0
 10
-164.4699675359188
 20
1.230915755261165
 30
0.0
 10
-164.4571766909013
 20
1.123378058985134
 30
0.0
 10
-164.4006769761092
 20
0.6483625959175336
 30
0.0
 10
-164.0527191056642
 20
-0.1047326798032586
 30
0.0
 10
-163.5026974514778
 20
-0.9512356300003522
 30
0.0
 10
-162.8513561431897
 20
-1.603667004168551
 30
0.0
 10
-162.1751268223351
 20
-2.0820550755693
 30
0.0
 10
-161.5170531398087
 20
-2.407014009657982
 30
0.0
 10
-160.9234785045389
 20
-2.605158524675872
 30
0.0
 10
-160.4378807990382
 20
-2.708076759961157
 30
0.0
 10
-160.0947077394127
 20
-2.750593725203771
 30
0.0
 10
-159.8943643424861
 20
-2.766282644431128
 30
0.0
 10
-159.725849376796
 20
-2.775560039028381
 30
0.0
 10
-159.4626604680671
 20
-2.784724778854174
 30
0.0
 10
-159.0003084038229
 20
-2.793406842799846
 30
0.0
 10
-158.1699149137768
 20
-2.802082392578585
 30
0.0
 10
-157.1749781243269
 20
-2.807882916110234
 30
0.0
 10
-156.2413134094036
 20
-2.810442150536021
 30
0.0
 10
-155.6778628263037
 20
-2.81065296798589
 30
0.0
 10
-155.5
 20
-2.810719516124434
 30
0.0
  0
SPLINE
  5
19F
330
1B
100
AcDbEntity
 67
     1
  8
0
  6
Continuous
 62
     7
370
    25
100
AcDbSpline
210
0.0
220
0.0
230
1.0
 70
     8
 71
     3
 72
    19
 73
    15
 74
     0
 42
0.000000001
 43
0.00000001
 40
0.0
 40
0.0
 40
0.0
 40
0.0
 40
0.0630480389752949
 40
0.1840273951198794
 40
0.3055642041663816
 40
0.4280304688554322
 40
0.5537469862795368
 40
0.6257866814970611
 40
0.655668022830155
 40
0.6951280903777108
 40
0.7550771966978643
 40
0.8631599610086396
 40
0.971893195600769
 40
1.0
 40
1.0
 40
1.0
 40
1.0
 10
-137.5
 20
-2.810719516124434
 30
0.0
 10
-137.3002236342544
 20
-2.810635677536318
 30
0.0
 10
-136.7171075724036
 20
-2.810390965769974
 30
0.0
 10
-135.7743223837849
 20
-2.807669597136211
 30
0.0
 10
-134.7791111102811
 20
-2.801639943607211
 30
0.0
 10
-133.9741349394586
 20
-2.793220464095671
 30
0.0
 10
-133.4911745113955
 20
-2.783074615530751
 30
0.0
 10
-133.2317569541823
 20
-2.774704877781371
 30
0.0
 10
-132.9408856301852
 20
-2.754470366125489
 30
0.0
 10
-132.5577192582015
 20
-2.708372156721355
 30
0.0
 10
-131.9175069333771
 20
-2.571593889287887
 30
0.0
 10
-131.1040526932082
 20
-2.24197478703984
 30
0.0
 10
-130.4227575997649
 20
-1.843663420531362
 30
0.0
 10
-130.1229131936427
 20
-1.529958909488691
 30
0.0
 10
-130.0613254585383
 20
-1.46552432297422
 30
0.0
  0
LWPOLYLINE
  5
1A0
330
1B
100
AcDbEntity
 67
     1
  8
0
  6
Continuous
 62
     7
370
    25
100
AcDbPolyline
 90
       71
 70
   128
 43
0.0
 10
177.9657899634
 20
2.8956750992
 10
177.8207658444
 20
2.9388357948
 10
177.2834243312
 20
3.0153397567
 10
176.3890575947
 20
3.0915352701
 10
175.1394667706
 20
3.1672688873
 10
173.5371683684
 20
3.242388091
 10
171.5853892039
 20
3.3167416011
 10
169.2880599005
 20
3.3901796795
 10
166.6498069739
 20
3.4625544317
 10
163.6759435142
 20
3.5337201045
 10
160.3724584866
 20
3.6035333798
 10
156.7460046705
 20
3.6718536629
 10
152.8038852611
 20
3.7385433659
 10
148.5540391624
 20
3.8034681846
 10
144.0050249987
 20
3.866497369
 10
139.1660038793
 20
3.9275039868
 10
134.0467209486
 20
3.9863651787
 10
128.6574857613
 20
4.0429624061
 10
123.0091515197
 20
4.0971816898
 10
117.1130932173
 20
4.1489138393
 10
110.9811847309
 20
4.1980546729
 10
104.6257749081
 20
4.2445052276
 10
98.0596626985
 20
4.2881719582
 10
91.2960713783
 20
4.3289669256
 10
84.3486219202
 20
4.3668079742
 10
77.2313055629
 20
4.4016188972
 10
69.9584556344
 20
4.4333295899
 10
62.5447186865
 20
4.4618761914
 10
55.0050249987
 20
4.4872012125
 10
47.3545585109
 20
4.509253652
 10
39.6087262442
 20
4.5279890992
 10
31.7831272742
 20
4.5433698235
 10
23.8935213155
 20
4.5553648501
 10
15.9557969848
 20
4.5639500226
 10
7.9859398024
 20
4.5691080516
 10
0.0
 20
4.5708285496
 10
-7.9859398024
 20
4.5691080516
 10
-15.9557969848
 20
4.5639500226
 10
-23.8935213155
 20
4.5553648501
 10
-31.7831272742
 20
4.5433698235
 10
-39.6087262442
 20
4.5279890992
 10
-47.3545585109
 20
4.509253652
 10
-55.0050249987
 20
4.4872012125
 10
-62.5447186865
 20
4.4618761914
 10
-69.9584556344
 20
4.4333295899
 10
-77.2313055629
 20
4.4016188972
 10
-84.3486219202
 20
4.3668079742
 10
-91.2960713783
 20
4.3289669256
 10
-98.0596626985
 20
4.2881719582
 10
-104.6257749081
 20
4.2445052276
 10
-110.9811847309
 20
4.1980546729
 10
-117.1130932173
 20
4.1489138393
 10
-123.0091515197
 20
4.0971816898
 10
-128.6574857613
 20
4.0429624061
 10
-134.0467209486
 20
3.9863651787
 10
-139.1660038793
 20
3.9275039868
 10
-144.0050249987
 20
3.866497369
 10
-148.5540391624
 20
3.8034681846
 10
-152.8038852611
 20
3.7385433659
 10
-156.7460046705
 20
3.6718536629
 10
-160.3724584866
 20
3.6035333798
 10
-163.6759435142
 20
3.5337201045
 10
-166.6498069739
 20
3.4625544317
 10
-169.2880599005
 20
3.3901796795
 10
-171.5853892039
 20
3.3167416011
 10
-173.5371683684
 20
3.242388091
 10
-175.1394667706
 20
3.1672688873
 10
-176.3890575947
 20
3.0915352701
 10
-177.2834243312
 20
3.0153397567
 10
-177.8207658444
 20
2.9388357948
 10
-177.9452298533
 20
2.904560964
  0
LWPOLYLINE
  5
1A2
330
1B
100
AcDbEntity
 67
     1
  8
0
  6
Continuous
 62
     7
370
    25
100
AcDbPolyline
 90
       72
 70
   128
 43
0.0
 10
-179.0
 20
3.8621313802
 10
-178.8247995471
 20
3.9381353397
 10
-178.2995411514
 20
4.0139905179
 10
-177.425253031
 20
4.0895484247
 10
-176.2036466459
 20
4.164661152
 10
-174.6371133479
 20
4.239181663
 10
-172.7287196996
 20
4.3129640803
 10
-170.4822014711
 20
4.3858639715
 10
-167.9019563274
 20
4.4577386316
 10
-164.9930352195
 20
4.5284473625
 10
-161.7611324971
 20
4.5978517485
 10
-158.2125747615
 20
4.6658159274
 10
-154.3543084811
 20
4.7322068561
 10
-150.1938863934
 20
4.7968945711
 10
-145.7394527199
 20
4.8597524433
 10
-140.9997272239
 20
4.9206574254
 10
-135.9839881404
 20
4.9794902931
 10
-130.7020540143
 20
5.0361358783
 10
-125.1642644798
 20
5.0904832945
 10
-119.3814600198
 20
5.1424261541
 10
-113.3649607456
 20
5.1918627766
 10
-107.1265442372
 20
5.2386963875
 10
-100.6784224877
 20
5.2828353077
 10
-94.0332179984
 20
5.3241931332
 10
-87.203939069
 20
5.3626889042
 10
-80.2039543338
 20
5.3982472634
 10
-73.0469665916
 20
5.4307986037
 10
-65.746985982
 20
5.4602792041
 10
-58.3183025599
 20
5.4866313552
 10
-50.7754583218
 20
5.5098034712
 10
-43.1332187397
 20
5.5297501918
 10
-35.4065438564
 20
5.5464324702
 10
-27.6105590008
 20
5.5598176502
 10
-19.7605251793
 20
5.5698795295
 10
-11.8718092019
 20
5.5765984117
 10
-3.9598536004
 20
5.5799611441
 10
3.9598536004
 20
5.5799611441
 10
11.8718092019
 20
5.5765984117
 10
19.7605251793
 20
5.5698795295
 10
27.6105590008
 20
5.5598176502
 10
35.4065438564
 20
5.5464324702
 10
43.1332187397
 20
5.5297501918
 10
50.7754583218
 20
5.5098034712
 10
58.3183025599
 20
5.4866313552
 10
65.746985982
 20
5.4602792041
 10
73.0469665916
 20
5.4307986037
 10
80.2039543338
 20
5.3982472634
 10
87.203939069
 20
5.3626889042
 10
94.0332179984
 20
5.3241931332
 10
100.6784224877
 20
5.2828353077
 10
107.1265442372
 20
5.2386963875
 10
113.3649607456
 20
5.1918627766
 10
119.3814600198
 20
5.1424261541
 10
125.1642644798
 20
5.0904832945
 10
130.7020540143
 20
5.0361358783
 10
135.9839881404
 20
4.9794902931
 10
140.9997272239
 20
4.9206574254
 10
145.7394527199
 20
4.8597524433
 10
150.1938863934
 20
4.7968945711
 10
154.3543084811
 20
4.7322068561
 10
158.2125747615
 20
4.6658159274
 10
161.7611324971
 20
4.5978517485
 10
164.9930352195
 20
4.5284473625
 10
167.9019563274
 20
4.4577386316
 10
170.4822014711
 20
4.3858639715
 10
172.7287196996
 20
4.3129640803
 10
174.6371133479
 20
4.239181663
 10
176.2036466459
 20
4.164661152
 10
177.425253031
 20
4.0895484247
 10
178.2995411514
 20
4.0139905179
 10
178.8247995471
 20
3.9381353397
 10
179.0
 20
3.8621313802
  0
LWPOLYLINE
  5
1A4
330
1B
100
AcDbEntity
 67
     1
  8
0
  6
Continuous
 62
     7
370
    25
100
AcDbPolyline
 90
       72
 70
   128
 43
0.0
 10
179.0
 20
39.8604727511
 10
178.8247995471
 20
39.9364767106
 10
178.2995411514
 20
40.0123318888
 10
177.425253031
 20
40.0878897956
 10
176.2036466459
 20
40.1630025228
 10
174.6371133479
 20
40.2375230339
 10
172.7287196996
 20
40.3113054512
 10
170.4822014711
 20
40.3842053424
 10
167.9019563274
 20
40.4560800025
 10
164.9930352195
 20
40.5267887334
 10
161.7611324971
 20
40.5961931194
 10
158.2125747615
 20
40.6641572983
 10
154.3543084811
 20
40.730548227
 10
150.1938863934
 20
40.795235942
 10
145.7394527199
 20
40.8580938142
 10
140.9997272239
 20
40.9189987963
 10
135.9839881404
 20
40.977831664
 10
130.7020540143
 20
41.0344772492
 10
125.1642644798
 20
41.0888246654
 10
119.3814600198
 20
41.140767525
 10
113.3649607456
 20
41.1902041475
 10
107.1265442372
 20
41.2370377584
 10
100.6784224877
 20
41.2811766786
 10
94.0332179984
 20
41.3225345041
 10
87.203939069
 20
41.3610302751
 10
80.2039543338
 20
41.3965886343
 10
73.0469665916
 20
41.4291399745
 10
65.746985982
 20
41.458620575
 10
58.3183025599
 20
41.484972726
 10
50.7754583218
 20
41.5081448421
 10
43.1332187397
 20
41.5280915627
 10
35.4065438564
 20
41.5447738411
 10
27.6105590008
 20
41.5581590211
 10
19.7605251793
 20
41.5682209004
 10
11.8718092019
 20
41.5749397826
 10
3.9598536004
 20
41.578302515
 10
-3.9598536004
 20
41.578302515
 10
-11.8718092019
 20
41.5749397826
 10
-19.7605251793
 20
41.5682209004
 10
-27.6105590008
 20
41.5581590211
 10
-35.4065438564
 20
41.5447738411
 10
-43.1332187397
 20
41.5280915627
 10
-50.7754583218
 20
41.5081448421
 10
-58.3183025599
 20
41.484972726
 10
-65.746985982
 20
41.458620575
 10
-73.0469665916
 20
41.4291399745
 10
-80.2039543338
 20
41.3965886343
 10
-87.203939069
 20
41.3610302751
 10
-94.0332179984
 20
41.3225345041
 10
-100.6784224877
 20
41.2811766786
 10
-107.1265442372
 20
41.2370377584
 10
-113.3649607456
 20
41.1902041475
 10
-119.3814600198
 20
41.140767525
 10
-125.1642644798
 20
41.0888246654
 10
-130.7020540143
 20
41.0344772492
 10
-135.9839881404
 20
40.977831664
 10
-140.9997272239
 20
40.9189987963
 10
-145.7394527199
 20
40.8580938142
 10
-150.1938863934
 20
40.795235942
 10
-154.3543084811
 20
40.730548227
 10
-158.2125747615
 20
40.6641572983
 10
-161.7611324971
 20
40.5961931194
 10
-164.9930352195
 20
40.5267887334
 10
-167.9019563274
 20
40.4560800025
 10
-170.4822014711
 20
40.3842053424
 10
-172.7287196996
 20
40.3113054512
 10
-174.6371133479
 20
40.2375230339
 10
-176.2036466459
 20
40.1630025228
 10
-177.425253031
 20
40.0878897956
 10
-178.2995411514
 20
40.0123318888
 10
-178.8247995471
 20
39.9364767106
 10
-179.0
 20
39.8604727511
  0
LWPOLYLINE
  5
1A7
330
1B
100
AcDbEntity
 67
     1
  8
0
  6
Continuous
 62
     7
370
    25
100
AcDbPolyline
 90
       65
 70
   128
 43
0.0
 10
-171.5381168096
 20
45.1402147019
 10
-171.2037484162
 20
45.1584778327
 10
-169.6374567196
 20
45.2319089645
 10
-167.7295377611
 20
45.3045916091
 10
-165.4838338354
 20
45.3763793936
 10
-162.9048674913
 20
45.4471277469
 10
-159.997832424
 20
45.5166941911
 10
-156.768583015
 20
45.5849386287
 10
-153.2236225431
 20
45.6517236246
 10
-149.3700900867
 20
45.7169146826
 10
-145.2157461475
 20
45.7803805166
 10
-140.7689570212
 20
45.8419933148
 10
-136.0386779494
 20
45.9016289974
 10
-131.0344350846
 20
45.9591674658
 10
-125.766306306
 20
46.0144928455
 10
-120.2449009237
 20
46.0674937183
 10
-114.4813383135
 20
46.1180633476
 10
-108.4872255234
 20
46.1660998928
 10
-102.2746338989
 20
46.2115066149
 10
-95.8560747727
 20
46.2541920706
 10
-89.2444742686
 20
46.2940702971
 10
-82.4531472703
 20
46.3310609851
 10
-75.4957706065
 20
46.3650896401
 10
-68.3863555078
 20
46.396087733
 10
-61.1392193902
 20
46.4239928378
 10
-53.7689570212
 20
46.4487487573
 10
-46.2904111286
 20
46.4703056364
 10
-38.7186425084
 20
46.4886200624
 10
-31.068899695
 20
46.5036551524
 10
-23.3565882523
 20
46.5153806278
 10
-15.5972397492
 20
46.5237728751
 10
-7.806480481
 20
46.5288149934
 10
0.0
 20
46.5304968284
 10
7.806480481
 20
46.5288149934
 10
15.5972397492
 20
46.5237728751
 10
23.3565882523
 20
46.5153806278
 10
31.068899695
 20
46.5036551524
 10
38.7186425084
 20
46.4886200624
 10
46.2904111286
 20
46.4703056364
 10
53.7689570212
 20
46.4487487573
 10
61.1392193902
 20
46.4239928378
 10
68.3863555078
 20
46.396087733
 10
75.4957706065
 20
46.3650896401
 10
82.4531472703
 20
46.3310609851
 10
89.2444742686
 20
46.2940702971
 10
95.8560747727
 20
46.2541920706
 10
102.2746338989
 20
46.2115066149
 10
108.4872255234
 20
46.1660998928
 10
114.4813383135
 20
46.1180633476
 10
120.2449009237
 20
46.0674937183
 10
125.766306306
 20
46.0144928455
 10
131.0344350846
 20
45.9591674658
 10
136.0386779494
 20
45.9016289974
 10
140.7689570212
 20
45.8419933148
 10
145.2157461475
 20
45.7803805166
 10
149.3700900867
 20
45.7169146826
 10
153.2236225431
 20
45.6517236246
 10
156.768583015
 20
45.5849386287
 10
159.997832424
 20
45.5166941911
 10
162.9048674913
 20
45.4471277469
 10
165.4838338354
 20
45.3763793936
 10
167.7295377611
 20
45.3045916091
 10
169.6374567196
 20
45.2319089645
 10
171.2037484162
 20
45.1584778327
 10
171.5516096827
 20
45.1394518752
  0
LWPOLYLINE
  5
1AC
330
1B
100
AcDbEntity
 67
     1
  8
0
  6
Continuous
 62
     7
370
    25
100
AcDbPolyline
 90
       71
 70
   128
 43
0.0
 10
-174.467128428
 20
2.8946888692
 10
-174.3242901115
 20
2.9373284679
 10
-173.7975143022
 20
3.0123281384
 10
-172.9207334285
 20
3.0870254254
 10
-171.6957132105
 20
3.1612698985
 10
-170.1249206757
 20
3.2349120392
 10
-168.2115191914
 20
3.307803542
 10
-165.9593620935
 20
3.3797976132
 10
-163.3729849266
 20
3.4507492664
 10
-160.4575963102
 20
3.5205156142
 10
-157.219067449
 20
3.5889561565
 10
-153.663920309
 20
3.6559330633
 10
-149.7993144835
 20
3.7213114519
 10
-145.6330327744
 20
3.784959659
 10
-141.1734655184
 20
3.8467495055
 10
-136.4295936907
 20
3.9065565549
 10
-131.4109708176
 20
3.9642603638
 10
-126.1277037379
 20
4.0197447244
 10
-120.5904322482
 20
4.0728978986
 10
-114.8103076765
 20
4.1236128429
 10
-108.7989704243
 20
4.1717874242
 10
-102.568526525
 20
4.2173246253
 10
-96.1315232634
 20
4.2601327404
 10
-89.5009239073
 20
4.3001255596
 10
-82.6900816015
 20
4.3372225426
 10
-75.712712476
 20
4.3713489811
 10
-68.5828680236
 20
4.402436149
 10
-61.3149068022
 20
4.4304214409
 10
-53.9234655184
 20
4.4552484981
 10
-46.4234295514
 20
4.4768673223
 10
-38.8299029754
 20
4.4952343759
 10
-31.1581781424
 20
4.5103126702
 10
-23.4237048852
 20
4.5220718395
 10
-15.6420594036
 20
4.5304882024
 10
-7.8289128962
 20
4.5355448095
 10
0.0
 20
4.5372314775
 10
7.8289128962
 20
4.5355448095
 10
15.6420594036
 20
4.5304882024
 10
23.4237048852
 20
4.5220718395
 10
31.1581781424
 20
4.5103126702
 10
38.8299029754
 20
4.4952343759
 10
46.4234295514
 20
4.4768673223
 10
53.9234655184
 20
4.4552484981
 10
61.3149068022
 20
4.4304214409
 10
68.5828680236
 20
4.402436149
 10
75.712712476
 20
4.3713489811
 10
82.6900816015
 20
4.3372225426
 10
89.5009239073
 20
4.3001255596
 10
96.1315232634
 20
4.2601327404
 10
102.568526525
 20
4.2173246253
 10
108.7989704243
 20
4.1717874242
 10
114.8103076765
 20
4.1236128429
 10
120.5904322482
 20
4.0728978986
 10
126.1277037379
 20
4.0197447244
 10
131.4109708176
 20
3.9642603638
 10
136.4295936907
 20
3.9065565549
 10
141.1734655184
 20
3.8467495055
 10
145.6330327744
 20
3.784959659
 10
149.7993144835
 20
3.7213114519
 10
153.663920309
 20
3.6559330633
 10
157.219067449
 20
3.5889561565
 10
160.4575963102
 20
3.5205156142
 10
163.3729849266
 20
3.4507492664
 10
165.9593620935
 20
3.3797976132
 10
168.2115191914
 20
3.307803542
 10
170.1249206757
 20
3.2349120392
 10
171.6957132105
 20
3.1612698985
 10
172.9207334285
 20
3.0870254254
 10
173.7975143022
 20
3.0123281384
 10
174.3242901115
 20
2.9373284679
 10
174.4634137538
 20
2.8964765167
  0
LWPOLYLINE
  5
1B8
330
1B
100
AcDbEntity
 67
     1
  8
0
  6
Continuous
 62
     7
370
    25
100
AcDbPolyline
 90
       70
 70
   128
 43
0.0
 10
-172.5
 20
2.1359122783
 10
-172.3212337041
 20
2.2112813591
 10
-171.7853053367
 20
2.2864942259
 10
-170.8933256913
 20
2.3613949887
 10
-169.6471435318
 20
2.4358284041
 10
-168.0493417612
 20
2.5096401975
 10
-166.1032320675
 20
2.5826773828
 10
-163.8128480603
 20
2.6547885791
 10
-161.1829369102
 20
2.7258243251
 10
-158.2189495097
 20
2.7956373883
 10
-154.9270291752
 20
2.8640830704
 10
-151.3139989144
 20
2.9310195074
 10
-147.3873472843
 20
2.9963079632
 10
-143.1552128698
 20
3.0598131176
 10
-138.626367416
 20
3.1214033464
 10
-133.8101976465
 20
3.1809509945
 10
-128.7166858087
 20
3.2383326403
 10
-123.3563889837
 20
3.2934293515
 10
-117.7404172052
 20
3.3461269318
 10
-111.8804104323
 20
3.3963161574
 10
-105.7885144239
 20
3.4438930036
 10
-99.4773555648
 20
3.4887588599
 10
-92.9600146954
 20
3.5308207351
 10
-86.25
 20
3.5699914495
 10
-79.3612190086
 20
3.6061898159
 10
-72.3079497719
 20
3.6393408075
 10
-65.1048112673
 20
3.6693757139
 10
-57.7667330995
 20
3.6962322832
 10
-50.308924556
 20
3.719854851
 10
-42.7468430838
 20
3.7401944559
 10
-35.0961622516
 20
3.7572089411
 10
-27.3727392637
 20
3.7708630413
 10
-19.5925820937
 20
3.7811284564
 10
-11.7718163054
 20
3.7879839097
 10
-3.9266516302
 20
3.7914151923
 10
3.9266516302
 20
3.7914151923
 10
11.7718163054
 20
3.7879839097
 10
19.5925820937
 20
3.7811284564
 10
27.3727392637
 20
3.7708630413
 10
35.0961622516
 20
3.7572089411
 10
42.7468430838
 20
3.7401944559
 10
50.308924556
 20
3.719854851
 10
57.7667330995
 20
3.6962322832
 10
65.1048112673
 20
3.6693757139
 10
72.3079497719
 20
3.6393408075
 10
79.3612190086
 20
3.6061898159
 10
86.25
 20
3.5699914495
 10
92.9600146954
 20
3.5308207351
 10
99.4773555648
 20
3.4887588599
 10
105.7885144239
 20
3.4438930036
 10
111.8804104323
 20
3.3963161574
 10
117.7404172052
 20
3.3461269318
 10
123.3563889837
 20
3.2934293515
 10
128.7166858087
 20
3.2383326403
 10
133.8101976465
 20
3.1809509945
 10
138.626367416
 20
3.1214033464
 10
143.1552128698
 20
3.0598131176
 10
147.3873472843
 20
2.9963079632
 10
151.3139989144
 20
2.9310195074
 10
154.9270291752
 20
2.8640830704
 10
158.2189495097
 20
2.7956373883
 10
161.1829369102
 20
2.7258243251
 10
163.8128480603
 20
2.6547885791
 10
166.1032320675
 20
2.5826773828
 10
168.0493417612
 20
2.5096401975
 10
169.6471435318
 20
2.4358284041
 10
170.8933256913
 20
2.3613949887
 10
171.7853053367
 20
2.2864942259
 10
172.3212337041
 20
2.2112813591
 10
172.5
 20
2.1359122783
  0
LWPOLYLINE
  5
1CC
330
1B
100
AcDbEntity
 67
     1
  8
0
  6
Continuous
 62
     7
370
    25
100
AcDbPolyline
 90
       10
 70
   128
 43
0.0
 10
125.9351357702
 20
2.6623346667
 10
124.1588297938
 20
2.6543744132
 10
122.5784366801
 20
2.6432406186
 10
121.2546900501
 20
2.6293611484
 10
120.2384607445
 20
2.6132693829
 10
119.5688018857
 20
2.5955837196
 10
119.2714480879
 20
2.5769838086
 10
119.3578264908
 20
2.558184434
 10
119.824617621
 20
2.5399080453
 10
120.6377099739
 20
2.5231199284
  0
LWPOLYLINE
  5
1D0
330
1B
100
AcDbEntity
 67
     1
  8
0
  6
Continuous
 62
     7
370
    25
100
AcDbPolyline
 90
       10
 70
   128
 43
0.0
 10
-120.6453298821
 20
2.5229958087
 10
-119.824617621
 20
2.5399080453
 10
-119.3578264908
 20
2.558184434
 10
-119.2714480879
 20
2.5769838086
 10
-119.5688018857
 20
2.5955837196
 10
-120.2384607445
 20
2.6132693829
 10
-121.2546900501
 20
2.6293611484
 10
-122.5784366801
 20
2.6432406186
 10
-124.1588297938
 20
2.6543744132
 10
-125.9351357702
 20
2.6623346667
  0
LWPOLYLINE
  5
1DF
330
1B
100
AcDbEntity
 67
     1
  8
0
  6
Continuous
 62
     7
370
    25
100
AcDbPolyline
 90
       29
 70
   128
 43
0.0
 10
0.0
 20
2.6471593977
 10
6.3639957614
 20
2.6412360686
 10
12.7079680377
 20
2.6234847186
 10
19.0119563451
 20
2.5939611998
 10
25.256126004
 20
2.5527584042
 10
31.4208305467
 20
2.5000059711
 10
37.4866735319
 20
2.435869879
 10
43.4345695734
 20
2.3605519239
 10
49.2458043898
 20
2.274289084
 10
54.9020936864
 20
2.1773527739
 10
60.3856406845
 20
2.0700479913
 10
65.6791921164
 20
1.9527123567
 10
70.766092511
 20
1.8257150513
 10
75.6303365976
 20
1.6894556558
 10
80.2566196647
 20
1.5443628925
 10
84.6303857142
 20
1.390893277
 10
88.7378732601
 20
1.2295296814
 10
92.5661586269
 20
1.0607798154
 10
96.1031966124
 20
0.8851746284
 10
99.3378583866
 20
0.7032666394
 10
102.2599665069
 20
0.5156281981
 10
104.86032694
 20
0.3228496846
 10
107.13075799
 20
0.1255376513
 10
109.0641160408
 20
-0.0756870851
 10
110.6543180326
 20
-0.2801913972
 10
111.8963606018
 20
-0.4873318386
 10
112.7863358229
 20
-0.696456669
 10
113.3214435045
 20
-0.9069079042
 10
113.5
 20
-1.1180233869
  0
LWPOLYLINE
  5
1E0
330
1B
100
AcDbEntity
 67
     1
  8
0
  6
Continuous
 62
     7
370
    25
100
AcDbPolyline
 90
       29
 70
   128
 43
0.0
 10
-113.5
 20
-1.1180233869
 10
-113.3214435045
 20
-0.9069079042
 10
-112.7863358229
 20
-0.696456669
 10
-111.8963606018
 20
-0.4873318386
 10
-110.6543180326
 20
-0.2801913972
 10
-109.0641160408
 20
-0.0756870851
 10
-107.13075799
 20
0.1255376513
 10
-104.86032694
 20
0.3228496846
 10
-102.2599665069
 20
0.5156281981
 10
-99.3378583866
 20
0.7032666394
 10
-96.1031966124
 20
0.8851746284
 10
-92.5661586269
 20
1.0607798154
 10
-88.7378732601
 20
1.2295296814
 10
-84.6303857142
 20
1.390893277
 10
-80.2566196647
 20
1.5443628925
 10
-75.6303365976
 20
1.6894556558
 10
-70.766092511
 20
1.8257150513
 10
-65.6791921164
 20
1.9527123567
 10
-60.3856406845
 20
2.0700479913
 10
-54.9020936864
 20
2.1773527739
 10
-49.2458043898
 20
2.274289084
 10
-43.4345695734
 20
2.3605519239
 10
-37.4866735319
 20
2.435869879
 10
-31.4208305467
 20
2.5000059711
 10
-25.256126004
 20
2.5527584042
 10
-19.0119563451
 20
2.5939611998
 10
-12.7079680377
 20
2.6234847186
 10
-6.3639957614
 20
2.6412360686
 10
0.0
 20
2.6471593977
  0
LWPOLYLINE
  5
1E3
330
1B
100
AcDbEntity
 67
     1
  8
0
  6
Continuous
 62
     7
370
    25
100
AcDbPolyline
 90
       56
 70
   128
 43
0.0
 10
-108.0
 20
-1.1180233869
 10
-107.823863224
 20
-0.913489649
 10
-107.2960274176
 20
-0.7096230577
 10
-106.4182142716
 20
-0.5070885834
 10
-105.1932870298
 20
-0.3065468514
 10
-103.6252411504
 20
-0.1086519872
 10
-101.7191912731
 20
0.0859505173
 10
-99.4813545364
 20
0.2766259092
 10
-96.9190302987
 20
0.4627522449
 10
-94.0405763289
 20
0.6437224192
 10
-90.8553815458
 20
0.8189461447
 10
-87.3738353925
 20
0.9878518783
 10
-83.607293949
 20
1.1498886844
 10
-79.5680428907
 20
1.3045280328
 10
-75.2692574148
 20
1.451265522
 10
-70.7249592661
 20
1.5896225248
 10
-65.9499710006
 20
1.7191477494
 10
-60.9598676376
 20
1.8394187115
 10
-55.770925857
 20
1.9500431121
 10
-50.4000709084
 20
2.0506601176
 10
-44.8648214042
 20
2.140941536
 10
-39.1832321779
 20
2.2205928883
 10
-33.3738353925
 20
2.2893543682
 10
-27.4555800929
 20
2.3470016902
 10
-21.4477703977
 20
2.3933468205
 10
-15.3700025335
 20
2.4282385911
 10
-9.2421009157
 20
2.4515631921
 10
-3.0840534857
 20
2.4632445438
 10
3.0840534857
 20
2.4632445438
 10
9.2421009157
 20
2.4515631921
 10
15.3700025335
 20
2.4282385911
 10
21.4477703977
 20
2.3933468205
 10
27.4555800929
 20
2.3470016902
 10
33.3738353925
 20
2.2893543682
 10
39.1832321779
 20
2.2205928883
 10
44.8648214042
 20
2.140941536
 10
50.4000709084
 20
2.0506601176
 10
55.770925857
 20
1.9500431121
 10
60.9598676376
 20
1.8394187115
 10
65.9499710006
 20
1.7191477494
 10
70.7249592661
 20
1.5896225248
 10
75.2692574148
 20
1.451265522
 10
79.5680428907
 20
1.3045280328
 10
83.607293949
 20
1.1498886844
 10
87.3738353925
 20
0.9878518783
 10
90.8553815458
 20
0.8189461447
 10
94.0405763289
 20
0.6437224192
 10
96.9190302987
 20
0.4627522449
 10
99.4813545364
 20
0.2766259092
 10
101.7191912731
 20
0.0859505173
 10
103.6252411504
 20
-0.1086519872
 10
105.1932870298
 20
-0.3065468514
 10
106.4182142716
 20
-0.5070885834
 10
107.2960274176
 20
-0.7096230577
 10
107.823863224
 20
-0.913489649
 10
108.0
 20
-1.1180233869
  0
LWPOLYLINE
  5
1E5
330
1B
100
AcDbEntity
 67
     1
  8
0
  6
Continuous
 62
     7
370
    25
100
AcDbPolyline
 90
       56
 70
   128
 43
0.0
 10
108.0
 20
-3.4069891326
 10
107.823863224
 20
-3.6115228705
 10
107.2960274176
 20
-3.8153894618
 10
106.4182142716
 20
-4.0179239361
 10
105.1932870298
 20
-4.2184656681
 10
103.6252411504
 20
-4.4163605323
 10
101.7191912731
 20
-4.6109630368
 10
99.4813545364
 20
-4.8016384287
 10
96.9190302987
 20
-4.9877647644
 10
94.0405763289
 20
-5.1687349387
 10
90.8553815458
 20
-5.3439586642
 10
87.3738353925
 20
-5.5128643978
 10
83.607293949
 20
-5.6749012039
 10
79.5680428907
 20
-5.8295405523
 10
75.2692574148
 20
-5.9762780415
 10
70.7249592661
 20
-6.1146350443
 10
65.9499710006
 20
-6.2441602689
 10
60.9598676376
 20
-6.364431231
 10
55.770925857
 20
-6.4750556316
 10
50.4000709084
 20
-6.5756726371
 10
44.8648214042
 20
-6.6659540555
 10
39.1832321779
 20
-6.7456054078
 10
33.3738353925
 20
-6.8143668877
 10
27.4555800929
 20
-6.8720142097
 10
21.4477703977
 20
-6.91835934
 10
15.3700025335
 20
-6.9532511106
 10
9.2421009157
 20
-6.9765757116
 10
3.0840534857
 20
-6.9882570633
 10
-3.0840534857
 20
-6.9882570633
 10
-9.2421009157
 20
-6.9765757116
 10
-15.3700025335
 20
-6.9532511106
 10
-21.4477703977
 20
-6.91835934
 10
-27.4555800929
 20
-6.8720142097
 10
-33.3738353925
 20
-6.8143668877
 10
-39.1832321779
 20
-6.7456054078
 10
-44.8648214042
 20
-6.6659540555
 10
-50.4000709084
 20
-6.5756726371
 10
-55.770925857
 20
-6.4750556316
 10
-60.9598676376
 20
-6.364431231
 10
-65.9499710006
 20
-6.2441602689
 10
-70.7249592661
 20
-6.1146350443
 10
-75.2692574148
 20
-5.9762780415
 10
-79.5680428907
 20
-5.8295405523
 10
-83.607293949
 20
-5.6749012039
 10
-87.3738353925
 20
-5.5128643978
 10
-90.8553815458
 20
-5.3439586642
 10
-94.0405763289
 20
-5.1687349387
 10
-96.9190302987
 20
-4.9877647644
 10
-99.4813545364
 20
-4.8016384287
 10
-101.7191912731
 20
-4.6109630368
 10
-103.6252411504
 20
-4.4163605323
 10
-105.1932870298
 20
-4.2184656681
 10
-106.4182142716
 20
-4.0179239361
 10
-107.2960274176
 20
-3.8153894618
 10
-107.823863224
 20
-3.6115228705
 10
-108.0
 20
-3.4069891326
  0
LWPOLYLINE
  5
1EC
330
1B
100
AcDbEntity
 67
     1
  8
0
  6
Continuous
 62
     7
370
    25
100
AcDbPolyline
 90
       57
 70
   128
 43
0.0
 10
113.5
 20
-3.4069891326
 10
113.3214435045
 20
-3.6181046153
 10
112.7863358229
 20
-3.8285558505
 10
111.8963606018
 20
-4.0376806809
 10
110.6543180326
 20
-4.2448211223
 10
109.0641160408
 20
-4.4493254344
 10
107.13075799
 20
-4.6505501708
 10
104.86032694
 20
-4.8478622041
 10
102.2599665069
 20
-5.0406407176
 10
99.3378583866
 20
-5.2282791589
 10
96.1031966124
 20
-5.4101871479
 10
92.5661586269
 20
-5.5857923349
 10
88.7378732601
 20
-5.7545422009
 10
84.6303857142
 20
-5.9159057965
 10
80.2566196647
 20
-6.069375412
 10
75.6303365976
 20
-6.2144681753
 10
70.766092511
 20
-6.3507275708
 10
65.6791921164
 20
-6.4777248762
 10
60.3856406845
 20
-6.5950605108
 10
54.9020936864
 20
-6.7023652934
 10
49.2458043898
 20
-6.7993016035
 10
43.4345695734
 20
-6.8855644434
 10
37.4866735319
 20
-6.9608823985
 10
31.4208305467
 20
-7.0250184906
 10
25.256126004
 20
-7.0777709237
 10
19.0119563451
 20
-7.1189737193
 10
12.7079680377
 20
-7.1484972381
 10
6.3639957614
 20
-7.1662485882
 10
0.0
 20
-7.1721719172
 10
-6.3639957614
 20
-7.1662485882
 10
-12.7079680377
 20
-7.1484972381
 10
-19.0119563451
 20
-7.1189737193
 10
-25.256126004
 20
-7.0777709237
 10
-31.4208305467
 20
-7.0250184906
 10
-37.4866735319
 20
-6.9608823985
 10
-43.4345695734
 20
-6.8855644434
 10
-49.2458043898
 20
-6.7993016035
 10
-54.9020936864
 20
-6.7023652934
 10
-60.3856406845
 20
-6.5950605108
 10
-65.6791921164
 20
-6.4777248762
 10
-70.766092511
 20
-6.3507275708
 10
-75.6303365976
 20
-6.2144681753
 10
-80.2566196647
 20
-6.069375412
 10
-84.6303857142
 20
-5.9159057965
 10
-88.7378732601
 20
-5.7545422009
 10
-92.5661586269
 20
-5.5857923349
 10
-96.1031966124
 20
-5.4101871479
 10
-99.3378583866
 20
-5.2282791589
 10
-102.2599665069
 20
-5.0406407176
 10
-104.86032694
 20
-4.8478622041
 10
-107.13075799
 20
-4.6505501708
 10
-109.0641160408
 20
-4.4493254344
 10
-110.6543180326
 20
-4.2448211223
 10
-111.8963606018
 20
-4.0376806809
 10
-112.7863358229
 20
-3.8285558505
 10
-113.3214435045
 20
-3.6181046153
 10
-113.5
 20
-3.4069891326
  0
LWPOLYLINE
  5
1ED
330
1B
100
AcDbEntity
 67
     1
  8
0
  6
Continuous
 62
     7
370
    25
100
AcDbPolyline
 90
        3
 70
   128
 43
0.0
 10
147.6816180233
 20
-1.3307972325
 10
146.6061632097
 20
-1.3296797235
 10
145.3441622212
 20
-1.3319031821
  0
LWPOLYLINE
  5
1EE
330
1B
100
AcDbEntity
 67
     1
  8
0
  6
Continuous
 62
     7
370
    25
100
AcDbPolyline
 90
        9
 70
   128
 43
0.0
 10
143.716876466
 20
2.7122684944
 10
143.7972433138
 20
1.8902143982
 10
143.9228282115
 20
1.1201229218
 10
144.0899601817
 20
0.4245046407
 10
144.2937537829
 20
-0.1763067987
 10
144.5282519162
 20
-0.6647490527
 10
144.786599957
 20
-1.0265444457
 10
145.0612461231
 20
-1.2511173218
 10
145.3441622212
 20
-1.3319031821
  0
LWPOLYLINE
  5
1EF
330
1B
100
AcDbEntity
 67
     1
  8
0
  6
Continuous
 62
     7
370
    25
100
AcDbPolyline
 90
        9
 70
   128
 43
0.0
 10
-143.716876466
 20
2.7122684944
 10
-143.7972433138
 20
1.8902143982
 10
-143.9228282115
 20
1.1201229218
 10
-144.0899601817
 20
0.4245046407
 10
-144.2937537829
 20
-0.1763067987
 10
-144.5282519162
 20
-0.6647490527
 10
-144.786599957
 20
-1.0265444457
 10
-145.0612461231
 20
-1.2511173218
 10
-145.3441622212
 20
-1.3319031821
  0
LWPOLYLINE
  5
1F2
330
1B
100
AcDbEntity
 67
     1
  8
0
  6
Continuous
 62
     7
370
    25
100
AcDbPolyline
 90
        9
 70
   128
 43
0.0
 10
-128.3661999036
 20
-1.3892968651
 10
-128.0832838055
 20
-1.3085110047
 10
-127.8086376394
 20
-1.0839381286
 10
-127.5502895987
 20
-0.7221427356
 10
-127.3157914654
 20
-0.2337004817
 10
-127.1119978641
 20
0.3671109577
 10
-126.9448658939
 20
1.0627292388
 10
-126.8192809963
 20
1.8328207152
 10
-126.7389141484
 20
2.6548748115
  0
LWPOLYLINE
  5
1F4
330
1B
100
AcDbEntity
 67
     1
  8
0
  6
Continuous
 62
     7
370
    25
100
AcDbPolyline
 90
        9
 70
   128
 43
0.0
 10
128.3661999036
 20
-1.3892968651
 10
128.0832838055
 20
-1.3085110047
 10
127.8086376394
 20
-1.0839381286
 10
127.5502895987
 20
-0.7221427356
 10
127.3157914654
 20
-0.2337004817
 10
127.1119978641
 20
0.3671109577
 10
126.9448658939
 20
1.0627292388
 10
126.8192809963
 20
1.8328207152
 10
126.7389141484
 20
2.6548748115
  0
LWPOLYLINE
  5
1F6
330
1B
100
AcDbEntity
 67
     1
  8
0
  6
Continuous
 62
     7
370
    25
100
AcDbPolyline
 90
        3
 70
   128
 43
0.0
 10
128.3661999036
 20
-1.3892968651
 10
127.2375433877
 20
-1.3951549793
 10
126.4765790642
 20
-1.4024419318
  0
LWPOLYLINE
  5
1F8
330
1B
100
AcDbEntity
 67
     1
  8
0
  6
Continuous
 62
     7
370
    25
100
AcDbPolyline
 90
       11
 70
   128
 43
0.0
 10
-131.0906580422
 20
-1.4635591632
 10
-129.8286570537
 20
-1.4657826218
 10
-128.5568450424
 20
-1.4641537773
 10
-127.3997158291
 20
-1.4588320721
 10
-126.4705372833
 20
-1.4503384321
 10
-125.8602638753
 20
-1.4395042737
 10
-125.6286334181
 20
-1.4273901199
 10
-125.7983195147
 20
-1.4151817885
 10
-126.3527121078
 20
-1.404074316
 10
-127.2375433877
 20
-1.3951549793
 10
-128.3661999036
 20
-1.3892968651
  0
LWPOLYLINE
  5
1FB
330
1B
100
AcDbEntity
 67
     1
  8
0
  6
Continuous
 62
     7
370
    25
100
AcDbPolyline
 90
        3
 70
   128
 43
0.0
 10
157.4914430269
 20
-2.7367093835
 10
156.7672850332
 20
-2.7336831455
 10
155.5
 20
-2.7317564184
  0
LWPOLYLINE
  5
201
330
1B
100
AcDbEntity
 67
     1
  8
0
  6
Continuous
 62
     7
370
    25
100
AcDbPolyline
 90
        3
 70
   128
 43
0.0
 10
-135.5085569731
 20
-2.7367093835
 10
-136.2327149668
 20
-2.7336831455
 10
-137.5
 20
-2.7317564184
  0
LWPOLYLINE
  5
211
330
1B
100
AcDbEntity
 67
     1
  8
0
  6
Continuous
 62
     8
370
    25
100
AcDbPolyline
 90
       10
 70
   128
 43
0.0
 10
148.0686203598
 20
-1.4061654803
 10
149.1972768757
 20
-1.4003073661
 10
150.0821081556
 20
-1.3913880293
 10
150.6365007487
 20
-1.3802805569
 10
150.8061868453
 20
-1.3680722255
 10
150.5745563881
 20
-1.3559580717
 10
149.9642829801
 20
-1.3451239133
 10
149.0351044343
 20
-1.3366302732
 10
147.877975221
 20
-1.3313085681
 10
147.6816180233
 20
-1.3307972325
  0
LWPOLYLINE
  5
212
330
1B
100
AcDbEntity
 67
     1
  8
0
  6
Continuous
 62
     8
370
    25
100
AcDbPolyline
 90
        8
 70
   128
 43
0.0
 10
-149.3221597453
 20
-1.3387153698
 10
-149.9642829801
 20
-1.3451239133
 10
-150.5745563881
 20
-1.3559580717
 10
-150.8061868453
 20
-1.3680722255
 10
-150.6365007487
 20
-1.3802805569
 10
-150.0821081556
 20
-1.3913880293
 10
-149.1972768757
 20
-1.4003073661
 10
-148.0686203598
 20
-1.4061654803
  0
LWPOLYLINE
  5
213
330
1B
100
AcDbEntity
 67
     1
  8
0
  6
Continuous
 62
     8
370
    25
100
AcDbPolyline
 90
       10
 70
   128
 43
0.0
 10
126.4765790642
 20
-1.4024419318
 10
126.3527121078
 20
-1.404074316
 10
125.7983195147
 20
-1.4151817885
 10
125.6286334181
 20
-1.4273901199
 10
125.8602638753
 20
-1.4395042737
 10
126.4705372833
 20
-1.4503384321
 10
127.3997158291
 20
-1.4588320721
 10
128.5568450424
 20
-1.4641537773
 10
129.8286570537
 20
-1.4657826218
 10
131.0906580422
 20
-1.4635591632
  0
LWPOLYLINE
  5
216
330
1B
100
AcDbEntity
 67
     1
  8
0
  6
Continuous
 62
     8
370
    25
100
AcDbPolyline
 90
       10
 70
   128
 43
0.0
 10
155.5
 20
-2.810489151
 10
156.7672850332
 20
-2.8085624239
 10
157.9105193777
 20
-2.802970844
 10
158.8177952905
 20
-2.7942617542
 10
159.4003022837
 20
-2.7832876609
 10
159.6010205144
 20
-2.7711227847
 10
159.4003022837
 20
-2.7589579085
 10
158.8177952905
 20
-2.7479838152
 10
157.9105193777
 20
-2.7392747254
 10
157.4914430269
 20
-2.7367093835
  0
LWPOLYLINE
  5
218
330
1B
100
AcDbEntity
 67
     1
  8
0
  6
Continuous
 62
     8
370
    25
100
AcDbPolyline
 90
        9
 70
   128
 43
0.0
 10
134.945407359
 20
-2.7403269303
 10
134.1822047095
 20
-2.7479838152
 10
133.5996977163
 20
-2.7589579085
 10
133.3989794856
 20
-2.7711227847
 10
133.5996977163
 20
-2.7832876609
 10
134.1822047095
 20
-2.7942617542
 10
135.0894806223
 20
-2.802970844
 10
136.2327149668
 20
-2.8085624239
 10
137.5
 20
-2.810489151
  0
LWPOLYLINE
  5
219
330
1B
100
AcDbEntity
 67
     1
  8
0
  6
Continuous
 62
     8
370
    25
100
AcDbPolyline
 90
        9
 70
   128
 43
0.0
 10
-158.054592641
 20
-2.7403269303
 10
-158.8177952905
 20
-2.7479838152
 10
-159.4003022837
 20
-2.7589579085
 10
-159.6010205144
 20
-2.7711227847
 10
-159.4003022837
 20
-2.7832876609
 10
-158.8177952905
 20
-2.7942617542
 10
-157.9105193777
 20
-2.802970844
 10
-156.7672850332
 20
-2.8085624239
 10
-155.5
 20
-2.810489151
  0
LWPOLYLINE
  5
21A
330
1B
100
AcDbEntity
 67
     1
  8
0
  6
Continuous
 62
     8
370
    25
100
AcDbPolyline
 90
       10
 70
   128
 43
0.0
 10
-137.5
 20
-2.810489151
 10
-136.2327149668
 20
-2.8085624239
 10
-135.0894806223
 20
-2.802970844
 10
-134.1822047095
 20
-2.7942617542
 10
-133.5996977163
 20
-2.7832876609
 10
-133.3989794856
 20
-2.7711227847
 10
-133.5996977163
 20
-2.7589579085
 10
-134.1822047095
 20
-2.7479838152
 10
-135.0894806223
 20
-2.7392747254
 10
-135.5085569731
 20
-2.7367093835
  0
LINE
  5
21C
330
1B
100
AcDbEntity
 67
     1
  8
0
  6
Continuous
 62
     7
370
    25
100
AcDbLine
 10
-178.0
 20
0.5287514174
 30
0.0
 11
-174.5
 21
0.5287514174
 31
0.0
  0
LINE
  5
21D
330
1B
100
AcDbEntity
 67
     1
  8
0
  6
Continuous
 62
     7
370
    25
100
AcDbLine
 10
174.5
 20
0.5287514174
 30
0.0
 11
178.0
 21
0.5287514174
 31
0.0
  0
LINE
  5
21E
330
1B
100
AcDbEntity
 67
     1
  8
0
  6
Continuous
 62
     7
370
    25
100
AcDbLine
 10
-119.2568189085
 20
2.5717934247
 30
0.0
 11
-119.2568189085
 21
3.2581555067
 31
0.0
  0
LINE
  5
21F
330
1B
100
AcDbEntity
 67
     1
  8
0
  6
Continuous
 62
     7
370
    25
100
AcDbLine
 10
119.2568189085
 20
3.2581555067
 30
0.0
 11
119.2568189085
 21
2.5717934247
 31
0.0
  0
LINE
  5
220
330
1B
100
AcDbEntity
 67
     1
  8
0
  6
Continuous
 62
     7
370
    25
100
AcDbLine
 10
179.0
 20
39.8604727511
 30
0.0
 11
179.0
 21
1.5295346589
 31
0.0
  0
LINE
  5
221
330
1B
100
AcDbEntity
 67
     1
  8
0
  6
Continuous
 62
     7
370
    25
100
AcDbLine
 10
-179.0
 20
39.8604727511
 30
0.0
 11
-179.0
 21
1.5295346589
 31
0.0
  0
LINE
  5
222
330
1B
100
AcDbEntity
 67
     1
  8
0
  6
Continuous
 62
     7
370
    25
100
AcDbLine
 10
-178.0
 20
2.8621774533
 30
0.0
 11
-178.0
 21
0.5295807319
 31
0.0
  0
LINE
  5
223
330
1B
100
AcDbEntity
 67
     1
  8
0
  6
Continuous
 62
     7
370
    25
100
AcDbLine
 10
178.0
 20
0.5295807319
 30
0.0
 11
178.0
 21
2.8621774533
 31
0.0
  0
LINE
  5
224
330
1B
100
AcDbEntity
 67
     1
  8
0
  6
Continuous
 62
     7
370
    25
100
AcDbLine
 10
174.5
 20
0.5295807319
 30
0.0
 11
178.0
 21
0.5295807319
 31
0.0
  0
LINE
  5
225
330
1B
100
AcDbEntity
 67
     1
  8
0
  6
Continuous
 62
     7
370
    25
100
AcDbLine
 10
174.5
 20
2.8621774533
 30
0.0
 11
174.5
 21
0.5295807319
 31
0.0
  0
LINE
  5
226
330
1B
100
AcDbEntity
 67
     1
  8
0
  6
Continuous
 62
     7
370
    25
100
AcDbLine
 10
-174.5
 20
0.5295807319
 30
0.0
 11
-174.5
 21
2.8621774533
 31
0.0
  0
LINE
  5
227
330
1B
100
AcDbEntity
 67
     1
  8
0
  6
Continuous
 62
     7
370
    25
100
AcDbLine
 10
-178.0
 20
0.5295807319
 30
0.0
 11
-174.5
 21
0.5295807319
 31
0.0
  0
LINE
  5
228
330
1B
100
AcDbEntity
 67
     1
  8
0
  6
Continuous
 62
     7
370
    25
100
AcDbLine
 10
-173.5
 20
3.0412475257
 30
0.0
 11
-173.5
 21
1.5295346589
 31
0.0
  0
LINE
  5
229
330
1B
100
AcDbEntity
 67
     1
  8
0
  6
Continuous
 62
     7
370
    25
100
AcDbLine
 10
173.5
 20
1.5295346589
 30
0.0
 11
173.5
 21
3.0412475257
 31
0.0
  0
LINE
  5
22A
330
1B
100
AcDbEntity
 67
     1
  8
0
  6
Continuous
 62
     7
370
    25
100
AcDbLine
 10
172.5
 20
3.1150566612
 30
0.0
 11
172.5
 21
0.0959960575
 31
0.0
  0
LINE
  5
22B
330
1B
100
AcDbEntity
 67
     1
  8
0
  6
Continuous
 62
     7
370
    25
100
AcDbLine
 10
-172.5
 20
0.0959960575
 30
0.0
 11
-172.5
 21
3.1150566612
 31
0.0
  0
LINE
  5
22C
330
1B
100
AcDbEntity
 67
     1
  8
0
  6
Continuous
 62
     7
370
    25
100
AcDbLine
 10
-155.2095328785
 20
1.3150853943
 30
0.0
 11
-155.5
 21
1.3150853943
 31
0.0
  0
LINE
  5
22D
330
1B
100
AcDbEntity
 67
     1
  8
0
  6
Continuous
 62
     7
370
    25
100
AcDbLine
 10
-126.7389141484
 20
2.6548748115
 30
0.0
 11
-143.716876466
 21
2.7122684944
 31
0.0
  0
LINE
  5
22E
330
1B
100
AcDbEntity
 67
     1
  8
0
  6
Continuous
 62
     7
370
    25
100
AcDbLine
 10
143.716876466
 20
2.7122684944
 30
0.0
 11
126.7389141484
 21
2.6548748115
 31
0.0
  0
LINE
  5
22F
330
1B
100
AcDbEntity
 67
     1
  8
0
  6
Continuous
 62
     7
370
    25
100
AcDbLine
 10
155.5
 20
1.3150853943
 30
0.0
 11
155.2228954057
 21
1.3150853943
 31
0.0
  0
LINE
  5
230
330
1B
100
AcDbEntity
 67
     1
  8
0
  6
Continuous
 62
     7
370
    25
100
AcDbLine
 10
122.106231438
 20
0.0527978316
 30
0.0
 11
113.6612057655
 21
0.0527978316
 31
0.0
  0
LINE
  5
231
330
1B
100
AcDbEntity
 67
     1
  8
0
  6
Continuous
 62
     7
370
    25
100
AcDbLine
 10
167.0
 20
1.1327012886
 30
0.0
 11
167.0
 21
0.1487938891
 31
0.0
  0
LINE
  5
232
330
1B
100
AcDbEntity
 67
     1
  8
0
  6
Continuous
 62
     7
370
    25
100
AcDbLine
 10
164.4793482938
 20
1.1327012886
 30
0.0
 11
167.0
 21
1.1327012886
 31
0.0
  0
LINE
  5
233
330
1B
100
AcDbEntity
 67
     1
  8
0
  6
Continuous
 62
     7
370
    25
100
AcDbLine
 10
167.0
 20
1.3246845578
 30
0.0
 11
155.2289610798
 21
1.3246845578
 31
0.0
  0
LINE
  5
234
330
1B
100
AcDbEntity
 67
     1
  8
0
  6
Continuous
 62
     7
370
    25
100
AcDbLine
 10
167.0
 20
2.1359122783
 30
0.0
 11
167.0
 21
1.3246845578
 31
0.0
  0
LINE
  5
235
330
1B
100
AcDbEntity
 67
     1
  8
0
  6
Continuous
 62
     7
370
    25
100
AcDbLine
 10
155.6890038551
 20
2.5593768004
 30
0.0
 11
160.5862568461
 21
2.5759318722
 31
0.0
  0
LINE
  5
236
330
1B
100
AcDbEntity
 67
     1
  8
0
  6
Continuous
 62
     7
370
    25
100
AcDbLine
 10
153.9553221935
 20
2.757056381
 30
0.0
 11
125.9351357702
 21
2.6623346667
 31
0.0
  0
LINE
  5
237
330
1B
100
AcDbEntity
 67
     1
  8
0
  6
Continuous
 62
     7
370
    25
100
AcDbLine
 10
-125.9351357702
 20
2.6623346667
 30
0.0
 11
-153.9553221935
 21
2.757056381
 31
0.0
  0
LINE
  5
238
330
1B
100
AcDbEntity
 67
     1
  8
0
  6
Continuous
 62
     7
370
    25
100
AcDbLine
 10
-160.5862568461
 20
2.5759318722
 30
0.0
 11
-155.6688925145
 21
2.5593088144
 31
0.0
  0
LINE
  5
239
330
1B
100
AcDbEntity
 67
     1
  8
0
  6
Continuous
 62
     7
370
    25
100
AcDbLine
 10
-167.0
 20
1.3246845578
 30
0.0
 11
-167.0
 21
2.1359122783
 31
0.0
  0
LINE
  5
23A
330
1B
100
AcDbEntity
 67
     1
  8
0
  6
Continuous
 62
     7
370
    25
100
AcDbLine
 10
-155.2148594808
 20
1.3246845578
 30
0.0
 11
-167.0
 21
1.3246845578
 31
0.0
  0
LINE
  5
23B
330
1B
100
AcDbEntity
 67
     1
  8
0
  6
Continuous
 62
     7
370
    25
100
AcDbLine
 10
-167.0
 20
1.1327012886
 30
0.0
 11
-164.4559032419
 21
1.1327012886
 31
0.0
  0
LINE
  5
23C
330
1B
100
AcDbEntity
 67
     1
  8
0
  6
Continuous
 62
     7
370
    25
100
AcDbLine
 10
-167.0
 20
0.1487938891
 30
0.0
 11
-167.0
 21
1.1327012886
 31
0.0
  0
LINE
  5
23D
330
1B
100
AcDbEntity
 67
     1
  8
0
  6
Continuous
 62
     7
370
    25
100
AcDbLine
 10
-113.6612057655
 20
0.0527978316
 30
0.0
 11
-122.0921842337
 21
0.0527978316
 31
0.0
  0
LINE
  5
23E
330
1B
100
AcDbEntity
 67
     1
  8
0
  6
Continuous
 62
     7
370
    25
100
AcDbLine
 10
-113.6512393876
 20
0.0
 30
0.0
 11
-122.1579844961
 21
0.0
 31
0.0
  0
LINE
  5
23F
330
1B
100
AcDbEntity
 67
     1
  8
0
  6
Continuous
 62
     7
370
    25
100
AcDbLine
 10
122.1586901979
 20
0.0
 30
0.0
 11
113.6512393876
 21
0.0
 31
0.0
  0
LINE
  5
240
330
1B
100
AcDbEntity
 67
     1
  8
0
  6
Continuous
 62
     7
370
    25
100
AcDbLine
 10
108.0
 20
-1.1180233869
 30
0.0
 11
108.0
 21
-3.4069891326
 31
0.0
  0
LINE
  5
241
330
1B
100
AcDbEntity
 67
     1
  8
0
  6
Continuous
 62
     7
370
    25
100
AcDbLine
 10
-108.0
 20
-3.4069891326
 30
0.0
 11
-108.0
 21
-1.1180233869
 31
0.0
  0
LINE
  5
242
330
1B
100
AcDbEntity
 67
     1
  8
0
  6
Continuous
 62
     7
370
    25
100
AcDbLine
 10
-113.5
 20
-3.4069891326
 30
0.0
 11
-113.5
 21
-1.1180233869
 31
0.0
  0
LINE
  5
243
330
1B
100
AcDbEntity
 67
     1
  8
0
  6
Continuous
 62
     7
370
    25
100
AcDbLine
 10
113.5
 20
-1.1180233869
 30
0.0
 11
113.5
 21
-3.4069891326
 31
0.0
  0
LINE
  5
244
330
1B
100
AcDbEntity
 67
     1
  8
0
  6
Continuous
 62
     7
370
    25
100
AcDbLine
 10
-128.3661999036
 20
-1.3892968651
 30
0.0
 11
-145.3441622212
 21
-1.3319031821
 31
0.0
  0
LINE
  5
245
330
1B
100
AcDbEntity
 67
     1
  8
0
  6
Continuous
 62
     7
370
    25
100
AcDbLine
 10
145.3441622212
 20
-1.3319031821
 30
0.0
 11
128.3661999036
 21
-1.3892968651
 31
0.0
  0
LINE
  5
246
330
1B
100
AcDbEntity
 67
     1
  8
0
  6
Continuous
 62
     7
370
    25
100
AcDbLine
 10
131.0906580422
 20
-1.4635591632
 30
0.0
 11
148.0686203598
 21
-1.4061654803
 31
0.0
  0
LINE
  5
247
330
1B
100
AcDbEntity
 67
     1
  8
0
  6
Continuous
 62
     7
370
    25
100
AcDbLine
 10
-148.0686203598
 20
-1.4061654803
 30
0.0
 11
-131.0906580422
 21
-1.4635591632
 31
0.0
  0
LINE
  5
248
330
1B
100
AcDbEntity
 67
     1
  8
0
  6
Continuous
 62
     7
370
    25
100
AcDbLine
 10
155.5
 20
1.3150853943
 30
0.0
 11
155.5
 21
-2.7317564184
 31
0.0
  0
LINE
  5
249
330
1B
100
AcDbEntity
 67
     1
  8
0
  6
Continuous
 62
     7
370
    25
100
AcDbLine
 10
155.5
 20
-2.7317564184
 30
0.0
 11
137.5
 21
-2.7317564184
 31
0.0
  0
LINE
  5
24A
330
1B
100
AcDbEntity
 67
     1
  8
0
  6
Continuous
 62
     7
370
    25
100
AcDbLine
 10
137.5
 20
-2.7317564184
 30
0.0
 11
134.945407359
 21
-2.7403269303
 31
0.0
  0
LINE
  5
24B
330
1B
100
AcDbEntity
 67
     1
  8
0
  6
Continuous
 62
     7
370
    25
100
AcDbLine
 10
-155.5
 20
1.3150853943
 30
0.0
 11
-155.5
 21
-2.7317564184
 31
0.0
  0
LINE
  5
24C
330
1B
100
AcDbEntity
 67
     1
  8
0
  6
Continuous
 62
     7
370
    25
100
AcDbLine
 10
-155.5
 20
-2.7317564184
 30
0.0
 11
-158.054592641
 21
-2.7403269303
 31
0.0
  0
LINE
  5
24D
330
1B
100
AcDbEntity
 67
     1
  8
0
  6
Continuous
 62
     7
370
    25
100
AcDbLine
 10
-137.5
 20
-2.7317564184
 30
0.0
 11
-155.5
 21
-2.7317564184
 31
0.0
  0
LINE
  5
24E
330
1B
100
AcDbEntity
 67
     1
  8
0
  6
Continuous
 62
     7
370
    25
100
AcDbLine
 10
137.5
 20
-2.810489151
 30
0.0
 11
155.5
 21
-2.810489151
 31
0.0
  0
LINE
  5
24F
330
1B
100
AcDbEntity
 67
     1
  8
0
  6
Continuous
 62
     7
370
    25
100
AcDbLine
 10
-155.5
 20
-2.810489151
 30
0.0
 11
-137.5
 21
-2.810489151
 31
0.0
  0
LINE
  5
250
330
1B
100
AcDbEntity
 67
     1
  8
0
  6
Continuous
 62
     8
370
    25
100
AcDbLine
 10
178.0
 20
2.8621774533
 30
0.0
 11
177.9657899634
 21
2.8956750992
 31
0.0
  0
LINE
  5
251
330
1B
100
AcDbEntity
 67
     1
  8
0
  6
Continuous
 62
     8
370
    25
100
AcDbLine
 10
-177.9452298533
 20
2.904560964
 30
0.0
 11
-178.0
 21
2.8621774533
 31
0.0
  0
LINE
  5
252
330
1B
100
AcDbEntity
 67
     1
  8
0
  6
Continuous
 62
     8
370
    25
100
AcDbLine
 10
-174.5
 20
2.8621774533
 30
0.0
 11
-174.467128428
 21
2.8946888692
 31
0.0
  0
LINE
  5
253
330
1B
100
AcDbEntity
 67
     1
  8
0
  6
Continuous
 62
     8
370
    25
100
AcDbLine
 10
174.4634137538
 20
2.8964765167
 30
0.0
 11
174.5
 21
2.8621774533
 31
0.0
  0
LINE
  5
254
330
1B
100
AcDbEntity
 67
     1
  8
0
  6
Continuous
 62
     8
370
    25
100
AcDbLine
 10
173.2791927533
 20
3.0509789359
 30
0.0
 11
173.5
 21
2.3909891935
 31
0.0
  0
LINE
  5
255
330
1B
100
AcDbEntity
 67
     1
  8
0
  6
Continuous
 62
     8
370
    25
100
AcDbLine
 10
-173.5
 20
2.3909891935
 30
0.0
 11
-173.2689536252
 21
3.0497593981
 31
0.0
  0
LINE
  5
256
330
1B
100
AcDbEntity
 67
     1
  8
0
  6
Continuous
 62
     8
370
    25
100
AcDbLine
 10
0.0
 20
3.7390464378
 30
0.0
 11
0.0
 21
2.6471593977
 31
0.0
  0
LINE
  5
257
330
1B
100
AcDbEntity
 67
     1
  8
0
  6
Continuous
 62
     8
370
    25
100
AcDbLine
 10
-125.9351357702
 20
3.1887812461
 30
0.0
 11
-125.9351357702
 21
2.6623346667
 31
0.0
  0
LINE
  5
258
330
1B
100
AcDbEntity
 67
     1
  8
0
  6
Continuous
 62
     8
370
    25
100
AcDbLine
 10
125.9351357702
 20
3.1887812461
 30
0.0
 11
125.9351357702
 21
2.6623346667
 31
0.0
  0
LINE
  5
259
330
1B
100
AcDbEntity
 67
     1
  8
0
  6
Continuous
 62
     8
370
    25
100
AcDbLine
 10
137.5
 20
-2.7317564184
 30
0.0
 11
137.5
 21
-1.441892503
 31
0.0
  0
LINE
  5
25A
330
1B
100
AcDbEntity
 67
     1
  8
0
  6
Continuous
 62
     8
370
    25
100
AcDbLine
 10
-137.5
 20
-2.7317564184
 30
0.0
 11
-137.5
 21
-1.441892503
 31
0.0
  0
ARC
  5
25B
330
1B
100
AcDbEntity
 67
     1
  8
0
  6
Continuous
 62
     7
370
    25
100
AcDbCircle
 10
-178.0000000148
 20
1.5287519375
 30
0.0
 40
0.9999999852057169
100
AcDbArc
 50
179.9999429573
 51
270.1086155648
  0
ARC
  5
25C
330
1B
100
AcDbEntity
 67
     1
  8
0
  6
Continuous
 62
     7
370
    25
100
AcDbCircle
 10
-178.000023036
 20
3.8621544173
 30
0.0
 40
0.9999769642805556
100
AcDbArc
 50
180.0013199559
 51
270.0013198951
  0
ARC
  5
25D
330
1B
100
AcDbEntity
 67
     1
  8
0
  6
Continuous
 62
     7
370
    25
100
AcDbCircle
 10
178.000023036
 20
3.8621544173
 30
0.0
 40
0.9999769642806053
100
AcDbArc
 50
269.9986801049
 51
359.9986800441
  0
ARC
  5
25E
330
1B
100
AcDbEntity
 67
     1
  8
0
  6
Continuous
 62
     7
370
    25
100
AcDbCircle
 10
-174.499976964
 20
1.5295576959
 30
0.0
 40
0.9999769642805487
100
AcDbArc
 50
269.9986801049
 51
359.9986800441
  0
ARC
  5
25F
330
1B
100
AcDbEntity
 67
     1
  8
0
  6
Continuous
 62
     7
370
    25
100
AcDbCircle
 10
178.000023036
 20
1.5295576959
 30
0.0
 40
0.9999769642805891
100
AcDbArc
 50
269.9986801049
 51
359.9986800441
  0
ARC
  5
260
330
1B
100
AcDbEntity
 67
     1
  8
0
  6
Continuous
 62
     7
370
    25
100
AcDbCircle
 10
-178.000023036
 20
1.5295576959
 30
0.0
 40
0.9999769642806089
100
AcDbArc
 50
180.0013199559
 51
270.0013198951
  0
ARC
  5
261
330
1B
100
AcDbEntity
 67
     1
  8
0
  6
Continuous
 62
     7
370
    25
100
AcDbCircle
 10
174.499976964
 20
1.5295576959
 30
0.0
 40
0.9999769642805636
100
AcDbArc
 50
180.0013199559
 51
270.0013198951
  0
ARC
  5
262
330
1B
100
AcDbEntity
 67
     1
  8
0
  6
Continuous
 62
     7
370
    25
100
AcDbCircle
 10
-157.9089668689
 20
-216.2509631738
 30
0.0
 40
217.5793846184635
100
AcDbArc
 50
89.3656271487
 51
91.7358980617
  0
ARC
  5
263
330
1B
100
AcDbEntity
 67
     1
  8
0
  6
Continuous
 62
     7
370
    25
100
AcDbCircle
 10
-125.5377434357
 20
-130.1592950203
 30
0.0
 40
132.8196014117909
100
AcDbArc
 50
87.9249106
 51
90.5181686268
  0
ARC
  5
264
330
1B
100
AcDbEntity
 67
     1
  8
0
  6
Continuous
 62
     7
370
    25
100
AcDbCircle
 10
-147.6576013722
 20
-298.8556842327
 30
0.0
 40
301.593699245872
100
AcDbArc
 50
89.2513327329
 51
91.5292602476
  0
ARC
  5
265
330
1B
100
AcDbEntity
 67
     1
  8
0
  6
Continuous
 62
     7
370
    25
100
AcDbCircle
 10
125.5377322186
 20
-130.1576922486
 30
0.0
 40
132.8179988070736
100
AcDbArc
 50
89.4818202816
 51
92.0751095627
  0
ARC
  5
266
330
1B
100
AcDbEntity
 67
     1
  8
0
  6
Continuous
 62
     7
370
    25
100
AcDbCircle
 10
147.6576314718
 20
-298.8376468267
 30
0.0
 40
301.5756637730969
100
AcDbArc
 50
88.4706541532
 51
90.7487177621
  0
ARC
  5
267
330
1B
100
AcDbEntity
 67
     1
  8
0
  6
Continuous
 62
     7
370
    25
100
AcDbCircle
 10
157.9099474634
 20
-216.0130730912
 30
0.0
 40
217.3415200036517
100
AcDbArc
 50
88.2624627425
 51
90.6353256762
  0
ARC
  5
268
330
1B
100
AcDbEntity
 67
     1
  8
0
  6
Continuous
 62
     7
370
    25
100
AcDbCircle
 10
164.2537406308
 20
56.1203815326
 30
0.0
 40
56.03892008111462
100
AcDbArc
 50
269.8832082017
 51
272.8089784965
  0
ARC
  5
269
330
1B
100
AcDbEntity
 67
     1
  8
0
  6
Continuous
 62
     7
370
    25
100
AcDbCircle
 10
161.1726552334
 20
-35.8401996766
 30
0.0
 40
38.42060679173059
100
AcDbArc
 50
81.2761442836
 51
90.8745165701
  0
ARC
  5
26A
330
1B
100
AcDbEntity
 67
     1
  8
0
  6
Continuous
 62
     7
370
    25
100
AcDbCircle
 10
0.0
 20
-11057.0938272746
 30
0.0
 40
11060.9223760918
100
AcDbArc
 50
89.2024828724
 51
90.7975171276
  0
ARC
  5
26B
330
1B
100
AcDbEntity
 67
     1
  8
0
  6
Continuous
 62
     7
370
    25
100
AcDbCircle
 10
-161.1726552334
 20
-35.8401996766
 30
0.0
 40
38.42060679173026
100
AcDbArc
 50
89.1254834299
 51
98.7238557164
  0
ARC
  5
26C
330
1B
100
AcDbEntity
 67
     1
  8
0
  6
Continuous
 62
     7
370
    25
100
AcDbCircle
 10
-164.4607249791
 20
47.5059040741
 30
0.0
 40
47.42513893192654
100
AcDbArc
 50
266.9307554894
 51
270.3678168114
  0
ARC
  5
26D
330
1B
100
AcDbEntity
 67
     1
  8
0
  6
Continuous
 62
     7
370
    25
100
AcDbCircle
 10
-165.6862137055
 20
231.582817765
 30
0.0
 40
231.587081478967
100
AcDbArc
 50
268.3139925485
 51
270.3944421301
  0
ARC
  5
26E
330
1B
100
AcDbEntity
 67
     1
  8
0
  6
Continuous
 62
     7
370
    25
100
AcDbCircle
 10
165.6917502894
 20
231.3480687315
 30
0.0
 40
231.3522711800217
100
AcDbArc
 50
269.6068681491
 51
271.6863473917
  0
ARC
  5
26F
330
1B
100
AcDbEntity
 67
     1
  8
0
  6
Continuous
 62
     7
370
    25
100
AcDbCircle
 10
-122.4840180247
 20
-1.6537881493
 30
0.0
 40
8.999979097159786
100
AcDbArc
 50
3.4128100611
 51
33.385745395
  0
ARC
  5
270
330
1B
100
AcDbEntity
 67
     1
  8
0
  6
Continuous
 62
     7
370
    25
100
AcDbCircle
 10
-146.7085921116
 20
-366.0541867892
 30
0.0
 40
364.7248357714393
100
AcDbArc
 50
89.7856568875
 51
90.4105771305
  0
ARC
  5
271
330
1B
100
AcDbEntity
 67
     1
  8
0
  6
Continuous
 62
     7
370
    25
100
AcDbCircle
 10
-122.5
 20
-1.6429959296
 30
0.0
 40
8.999999999989555
100
AcDbArc
 50
360.0
 51
33.3028022091
  0
ARC
  5
272
330
1B
100
AcDbEntity
 67
     1
  8
0
  6
Continuous
 62
     7
370
    25
100
AcDbCircle
 10
122.5
 20
-1.6429959296
 30
0.0
 40
9.00000000000017
100
AcDbArc
 50
146.6971977909
 51
180.0
  0
ARC
  5
273
330
1B
100
AcDbEntity
 67
     1
  8
0
  6
Continuous
 62
     8
370
    25
100
AcDbCircle
 10
-174.49999864
 20
3.8622125111
 30
0.0
 40
1.000035057835474
100
AcDbArc
 50
269.9999220808
 51
298.9064544024
  0
ARC
  5
274
330
1B
100
AcDbEntity
 67
     1
  8
0
  6
Continuous
 62
     8
370
    25
100
AcDbCircle
 10
174.49999864
 20
3.8622125111
 30
0.0
 40
1.000035057836244
100
AcDbArc
 50
241.0935455979
 51
270.0000779192
  0
ARC
  5
275
330
1B
100
AcDbEntity
 67
     1
  8
0
  6
Continuous
 62
     8
370
    25
100
AcDbCircle
 10
122.4840180247
 20
-1.6537881493
 30
0.0
 40
8.999979097159704
100
AcDbArc
 50
146.614254605
 51
176.5871899389
  0
ARC
  5
276
330
1B
100
AcDbEntity
 67
     1
  8
0
  6
Continuous
 62
     8
370
    25
100
AcDbCircle
 10
-122.4840510137
 20
-1.6537622103
 30
0.0
 40
8.999975444526553
100
AcDbArc
 50
3.4088899766
 51
33.3855615521
  0
ARC
  5
277
330
1B
100
AcDbEntity
 67
     1
  8
0
  6
Continuous
 62
     8
370
    25
100
AcDbCircle
 10
122.4840500473
 20
-1.6537618889
 30
0.0
 40
8.99997446075458
100
AcDbArc
 50
146.6144367711
 51
176.5911117002
  0
VIEWPORT
  5
5B2
330
1B
100
AcDbEntity
 67
     1
  8
0
100
AcDbViewport
 10
0.0
 20
0.0
 30
0.0
 40
205.6
 41
156.0
 68
     1
 69
     1
 12
0.0
 22
19.6791624556
 13
0.0
 23
0.0
 14
10.0
 24
10.0
 15
10.0
 25
10.0
 16
0.0
 26
0.0
 36
1.0
 17
0.0
 27
0.0
 37
0.0
 42
50.0
 43
0.0
 44
0.0
 45
277.06692607
 50
0.0
 51
0.0
 72
   100
 90
   557152
  1

281
     0
 71
     1
 74
     0
110
0.0
120
0.0
130
0.0
111
1.0
121
0.0
131
0.0
112
0.0
122
1.0
132
0.0
 79
     0
146
0.0
  0
ENDSEC
  0
SECTION
  2
OBJECTS
  0
DICTIONARY
  5
C
330
0
100
AcDbDictionary
281
     1
  3
ACAD_GROUP
350
D
  3
ACAD_LAYOUT
350
1A
  3
ACAD_MLINESTYLE
350
17
  3
ACAD_PLOTSETTINGS
350
19
  3
ACAD_PLOTSTYLENAME
350
E
  3
ACAD_SCALELIST
350
47
  0
DICTIONARY
  5
D
102
{ACAD_REACTORS
330
C
102
}
330
C
100
AcDbDictionary
281
     1
  0
DICTIONARY
  5
1A
102
{ACAD_REACTORS
330
C
102
}
330
C
100
AcDbDictionary
281
     1
  3
_Back
350
1E
  3
_Bottom
350
30F
  3
_Left
350
26
  3
_Top
350
2DB
  3
Model
350
22
  0
DICTIONARY
  5
17
102
{ACAD_REACTORS
330
C
102
}
330
C
100
AcDbDictionary
281
     1
  3
Standard
350
18
  0
DICTIONARY
  5
19
102
{ACAD_REACTORS
330
C
102
}
330
C
100
AcDbDictionary
281
     1
  0
ACDBDICTIONARYWDFLT
  5
E
102
{ACAD_REACTORS
330
C
102
}
330
C
100
AcDbDictionary
281
     1
  3
Normal
350
F
100
AcDbDictionaryWithDefault
340
F
  0
DICTIONARY
  5
47
102
{ACAD_REACTORS
330
C
102
}
330
C
100
AcDbDictionary
281
     1
  3
A0
350
48
  3
A1
350
49
  3
A2
350
4A
  3
A3
350
4B
  3
A4
350
4C
  3
A5
350
4D
  3
A6
350
4E
  3
A7
350
4F
  3
A8
350
50
  3
A9
350
51
  3
B0
350
52
  3
B1
350
53
  3
B2
350
54
  3
B3
350
55
  3
B4
350
56
  3
B5
350
57
  3
B6
350
58
  3
B7
350
59
  3
B8
350
5A
  3
B9
350
5B
  3
C0
350
5C
  3
C1
350
5D
  3
C2
350
5E
  3
C3
350
5F
  3
C4
350
60
  3
C5
350
61
  3
C6
350
62
  3
C7
350
63
  3
C8
350
64
  3
C9
350
65
  3
D0
350
66
  3
D1
350
67
  3
D2
350
68
  0
LAYOUT
  5
1E
102
{ACAD_REACTORS
330
1A
102
}
330
1A
100
AcDbPlotSettings
  1

  2
none_device
  4
ISO_A4_(210.00_x_297.00_MM)
  6

 40
7.5
 41
20.0
 42
7.5
 43
20.0
 44
210.0
 45
297.0
 46
0.0
 47
0.0
 48
0.0
 49
0.0
140
0.0
141
0.0
142
1.0
143
1.3929961089
 70
   688
 72
     1
 73
     1
 74
     1
  7

 75
     0
147
0.717877095
148
179.0
149
7.1721719172
100
AcDbLayout
  1
_Back
 70
     1
 71
     1
 10
-206.859922179
 20
-17.6196427343
 11
206.859922179
 21
274.9095401451
 12
0.0
 22
0.0
 32
0.0
 14
-179.0
 24
-7.1721719172
 34
0.0
 15
179.0
 25
46.5304968284
 35
0.0
146
0.0
 13
0.0
 23
0.0
 33
0.0
 16
1.0
 26
0.0
 36
0.0
 17
0.0
 27
1.0
 37
0.0
 76
     0
330
1B
331
5B2
  0
LAYOUT
  5
30F
102
{ACAD_REACTORS
330
1A
102
}
330
1A
100
AcDbPlotSettings
  1

  2
none_device
  4
ISO_A4_(210.00_x_297.00_MM)
  6

 40
7.5
 41
20.0
 42
7.5
 43
20.0
 44
210.0
 45
297.0
 46
0.0
 47
0.0
 48
0.0
 49
0.0
140
0.0
141
0.0
142
1.0
143
1.3929961089
 70
   688
 72
     1
 73
     1
 74
     1
  7

 75
     0
147
0.717877095
148
179.0
149
7.1721719172
100
AcDbLayout
  1
_Bottom
 70
     1
 71
     4
 10
0.0
 20
0.0
 11
0.0
 21
0.0
 12
0.0
 22
0.0
 32
0.0
 14
0.0
 24
0.0
 34
0.0
 15
0.0
 25
0.0
 35
0.0
146
0.0
 13
0.0
 23
0.0
 33
0.0
 16
1.0
 26
0.0
 36
0.0
 17
0.0
 27
1.0
 37
0.0
 76
     0
330
30E
331
5B8
  0
LAYOUT
  5
26
102
{ACAD_REACTORS
330
1A
102
}
330
1A
100
AcDbPlotSettings
  1

  2
none_device
  4
ISO_A4_(210.00_x_297.00_MM)
  6

 40
7.5
 41
20.0
 42
7.5
 43
20.0
 44
210.0
 45
297.0
 46
0.0
 47
0.0
 48
0.0
 49
0.0
140
0.0
141
0.0
142
1.0
143
1.3929961089
 70
   688
 72
     1
 73
     1
 74
     1
  7

 75
     0
147
0.717877095
148
179.0
149
7.1721719172
100
AcDbLayout
  1
_Left
 70
     1
 71
     2
 10
0.0
 20
0.0
 11
0.0
 21
0.0
 12
0.0
 22
0.0
 32
0.0
 14
0.0
 24
0.0
 34
0.0
 15
0.0
 25
0.0
 35
0.0
146
0.0
 13
0.0
 23
0.0
 33
0.0
 16
1.0
 26
0.0
 36
0.0
 17
0.0
 27
1.0
 37
0.0
 76
     0
330
23
331
5B4
  0
LAYOUT
  5
2DB
102
{ACAD_REACTORS
330
1A
102
}
330
1A
100
AcDbPlotSettings
  1

  2
none_device
  4
ISO_A4_(210.00_x_297.00_MM)
  6

 40
7.5
 41
20.0
 42
7.5
 43
20.0
 44
210.0
 45
297.0
 46
0.0
 47
0.0
 48
0.0
 49
0.0
140
0.0
141
0.0
142
1.0
143
1.3929961089
 70
   688
 72
     1
 73
     1
 74
     1
  7

 75
     0
147
0.717877095
148
179.0
149
7.1721719172
100
AcDbLayout
  1
_Top
 70
     1
 71
     3
 10
0.0
 20
0.0
 11
0.0
 21
0.0
 12
0.0
 22
0.0
 32
0.0
 14
0.0
 24
0.0
 34
0.0
 15
0.0
 25
0.0
 35
0.0
146
0.0
 13
0.0
 23
0.0
 33
0.0
 16
1.0
 26
0.0
 36
0.0
 17
0.0
 27
1.0
 37
0.0
 76
     0
330
2DA
331
5B6
  0
LAYOUT
  5
22
102
{ACAD_REACTORS
330
1A
102
}
330
1A
100
AcDbPlotSettings
  1

  2
none_device
  4
ANSI_A_(11.00_x_8.50_Inches)
  6

 40
6.35
 41
19.05
 42
6.35000508
 43
19.05000254
 44
279.4
 45
215.9
 46
133.34999746
 47
73.6950422769
 48
0.0
 49
0.0
140
0.0
141
0.0
142
0.0304189944
143
1.0
 70
  1696
 72
     0
 73
     0
 74
     0
  7

 75
     0
147
0.0179189148
148
-1300.4909072572
149
0.0
100
AcDbLayout
  1
Model
 70
     1
 71
     0
 10
0.0
 20
0.0
 11
420.0
 21
297.0
 12
0.0
 22
0.0
 32
0.0
 14
-179.0
 24
-7.1721719172
 34
0.0
 15
179.0
 25
46.5304968284
 35
0.0
146
0.0
 13
0.0
 23
0.0
 33
0.0
 16
1.0
 26
0.0
 36
0.0
 17
0.0
 27
1.0
 37
0.0
 76
     0
330
1F
331
29
  0
MLINESTYLE
  5
18
102
{ACAD_REACTORS
330
17
102
}
330
17
100
AcDbMlineStyle
  2
Standard
 70
     0
  3

 62
   256
 51
90.0
 52
90.0
 71
     2
 49
0.5
 62
   256
  6
BYLAYER
 49
-0.5
 62
   256
  6
BYLAYER
  0
ACDBPLACEHOLDER
  5
F
102
{ACAD_REACTORS
330
E
102
}
330
E
  0
SCALE
  5
48
102
{ACAD_REACTORS
330
47
102
}
330
47
100
AcDbScale
 70
     0
300
1:1
140
1.0
141
1.0
290
     1
  0
SCALE
  5
49
102
{ACAD_REACTORS
330
47
102
}
330
47
100
AcDbScale
 70
     0
300
1:2
140
1.0
141
2.0
290
     0
  0
SCALE
  5
4A
102
{ACAD_REACTORS
330
47
102
}
330
47
100
AcDbScale
 70
     0
300
1:4
140
1.0
141
4.0
290
     0
  0
SCALE
  5
4B
102
{ACAD_REACTORS
330
47
102
}
330
47
100
AcDbScale
 70
     0
300
1:5
140
1.0
141
5.0
290
     0
  0
SCALE
  5
4C
102
{ACAD_REACTORS
330
47
102
}
330
47
100
AcDbScale
 70
     0
300
1:8
140
1.0
141
8.0
290
     0
  0
SCALE
  5
4D
102
{ACAD_REACTORS
330
47
102
}
330
47
100
AcDbScale
 70
     0
300
1:10
140
1.0
141
10.0
290
     0
  0
SCALE
  5
4E
102
{ACAD_REACTORS
330
47
102
}
330
47
100
AcDbScale
 70
     0
300
1:16
140
1.0
141
16.0
290
     0
  0
SCALE
  5
4F
102
{ACAD_REACTORS
330
47
102
}
330
47
100
AcDbScale
 70
     0
300
1:20
140
1.0
141
20.0
290
     0
  0
SCALE
  5
50
102
{ACAD_REACTORS
330
47
102
}
330
47
100
AcDbScale
 70
     0
300
1:30
140
1.0
141
30.0
290
     0
  0
SCALE
  5
51
102
{ACAD_REACTORS
330
47
102
}
330
47
100
AcDbScale
 70
     0
300
1:40
140
1.0
141
40.0
290
     0
  0
SCALE
  5
52
102
{ACAD_REACTORS
330
47
102
}
330
47
100
AcDbScale
 70
     0
300
1:50
140
1.0
141
50.0
290
     0
  0
SCALE
  5
53
102
{ACAD_REACTORS
330
47
102
}
330
47
100
AcDbScale
 70
     0
300
1:100
140
1.0
141
100.0
290
     0
  0
SCALE
  5
54
102
{ACAD_REACTORS
330
47
102
}
330
47
100
AcDbScale
 70
     0
300
2:1
140
2.0
141
1.0
290
     0
  0
SCALE
  5
55
102
{ACAD_REACTORS
330
47
102
}
330
47
100
AcDbScale
 70
     0
300
4:1
140
4.0
141
1.0
290
     0
  0
SCALE
  5
56
102
{ACAD_REACTORS
330
47
102
}
330
47
100
AcDbScale
 70
     0
300
8:1
140
8.0
141
1.0
290
     0
  0
SCALE
  5
57
102
{ACAD_REACTORS
330
47
102
}
330
47
100
AcDbScale
 70
     0
300
10:1
140
10.0
141
1.0
290
     0
  0
SCALE
  5
58
102
{ACAD_REACTORS
330
47
102
}
330
47
100
AcDbScale
 70
     0
300
100:1
140
100.0
141
1.0
290
     0
  0
SCALE
  5
59
102
{ACAD_REACTORS
330
47
102
}
330
47
100
AcDbScale
 70
     0
300
1/128" = 1'-0"
140
0.0078125
141
12.0
290
     0
  0
SCALE
  5
5A
102
{ACAD_REACTORS
330
47
102
}
330
47
100
AcDbScale
 70
     0
300
1/64" = 1'-0"
140
0.015625
141
12.0
290
     0
  0
SCALE
  5
5B
102
{ACAD_REACTORS
330
47
102
}
330
47
100
AcDbScale
 70
     0
300
1/32" = 1'-0"
140
0.03125
141
12.0
290
     0
  0
SCALE
  5
5C
102
{ACAD_REACTORS
330
47
102
}
330
47
100
AcDbScale
 70
     0
300
1/16" = 1'-0"
140
0.0625
141
12.0
290
     0
  0
SCALE
  5
5D
102
{ACAD_REACTORS
330
47
102
}
330
47
100
AcDbScale
 70
     0
300
3/32" = 1'-0"
140
0.09375
141
12.0
290
     0
  0
SCALE
  5
5E
102
{ACAD_REACTORS
330
47
102
}
330
47
100
AcDbScale
 70
     0
300
1/8" = 1'-0"
140
0.125
141
12.0
290
     0
  0
SCALE
  5
5F
102
{ACAD_REACTORS
330
47
102
}
330
47
100
AcDbScale
 70
     0
300
3/16" = 1'-0"
140
0.1875
141
12.0
290
     0
  0
SCALE
  5
60
102
{ACAD_REACTORS
330
47
102
}
330
47
100
AcDbScale
 70
     0
300
1/4" = 1'-0"
140
0.25
141
12.0
290
     0
  0
SCALE
  5
61
102
{ACAD_REACTORS
330
47
102
}
330
47
100
AcDbScale
 70
     0
300
3/8" = 1'-0"
140
0.375
141
12.0
290
     0
  0
SCALE
  5
62
102
{ACAD_REACTORS
330
47
102
}
330
47
100
AcDbScale
 70
     0
300
1/2" = 1'-0"
140
0.5
141
12.0
290
     0
  0
SCALE
  5
63
102
{ACAD_REACTORS
330
47
102
}
330
47
100
AcDbScale
 70
     0
300
3/4" = 1'-0"
140
0.75
141
12.0
290
     0
  0
SCALE
  5
64
102
{ACAD_REACTORS
330
47
102
}
330
47
100
AcDbScale
 70
     0
300
1" = 1'-0"
140
1.0
141
12.0
290
     0
  0
SCALE
  5
65
102
{ACAD_REACTORS
330
47
102
}
330
47
100
AcDbScale
 70
     0
300
1-1/2" = 1'-0"
140
1.5
141
12.0
290
     0
  0
SCALE
  5
66
102
{ACAD_REACTORS
330
47
102
}
330
47
100
AcDbScale
 70
     0
300
3" = 1'-0"
140
3.0
141
12.0
290
     0
  0
SCALE
  5
67
102
{ACAD_REACTORS
330
47
102
}
330
47
100
AcDbScale
 70
     0
300
6" = 1'-0"
140
6.0
141
12.0
290
     0
  0
SCALE
  5
68
102
{ACAD_REACTORS
330
47
102
}
330
47
100
AcDbScale
 70
     0
300
1'-0" = 1'-0"
140
12.0
141
12.0
290
     0
  0
ENDSEC
  0
EOF
