  0
SECTION
  2
HEADER
  9
$ACADVER
  1
AC1015
  9
$ACADMAINTVER
 70
     6
  9
$DWGCODEPAGE
  3
ANSI_1252
  9
$INSBASE
 10
0.0
 20
0.0
 30
0.0
  9
$EXTMIN
 10
-159.8891623864
 20
0.0
 30
0.0
  9
$EXTMAX
 10
159.8891975162
 20
139.9999845256
 30
0.0
  9
$LIMMIN
 10
0.0
 20
0.0
  9
$LIMMAX
 10
420.0
 20
297.0
  9
$ORTHOMODE
 70
     0
  9
$REGENMODE
 70
     1
  9
$FILLMODE
 70
     1
  9
$QTEXTMODE
 70
     0
  9
$MIRRTEXT
 70
     1
  9
$LTSCALE
 40
1.0
  9
$ATTMODE
 70
     1
  9
$TEXTSIZE
 40
3.5
  9
$TRACEWID
 40
1.0
  9
$TEXTSTYLE
  7
Standard
  9
$CLAYER
  8
0
  9
$CELTYPE
  6
ByLayer
  9
$CECOLOR
 62
   256
  9
$CELTSCALE
 40
1.0
  9
$DISPSILH
 70
     0
  9
$DIMSCALE
 40
1.0
  9
$DIMASZ
 40
3.302
  9
$DIMEXO
 40
1.0
  9
$DIMDLI
 40
3.75
  9
$DIMRND
 40
0.0
  9
$DIMDLE
 40
0.0
  9
$DIMEXE
 40
1.0
  9
$DIMTP
 40
0.0
  9
$DIMTM
 40
0.0
  9
$DIMTXT
 40
3.5
  9
$DIMCEN
 40
2.5
  9
$DIMTSZ
 40
0.0
  9
$DIMTOL
 70
     0
  9
$DIMLIM
 70
     0
  9
$DIMTIH
 70
     1
  9
$DIMTOH
 70
     1
  9
$DIMSE1
 70
     0
  9
$DIMSE2
 70
     0
  9
$DIMTAD
 70
     1
  9
$DIMZIN
 70
     1
  9
$DIMBLK
  1

  9
$DIMASO
 70
     1
  9
$DIMSHO
 70
     1
  9
$DIMPOST
  1

  9
$DIMAPOST
  1

  9
$DIMALT
 70
     0
  9
$DIMALTD
 70
     3
  9
$DIMALTF
 40
0.0393700787
  9
$DIMLFAC
 40
1.0
  9
$DIMTOFL
 70
     1
  9
$DIMTVP
 40
0.0
  9
$DIMTIX
 70
     0
  9
$DIMSOXD
 70
     0
  9
$DIMSAH
 70
     0
  9
$DIMBLK1
  1

  9
$DIMBLK2
  1

  9
$DIMSTYLE
  2
ISO-25
  9
$DIMCLRD
 70
     0
  9
$DIMCLRE
 70
     0
  9
$DIMCLRT
 70
     0
  9
$DIMTFAC
 40
1.0
  9
$DIMGAP
 40
1.524
  9
$DIMJUST
 70
     0
  9
$DIMSD1
 70
     0
  9
$DIMSD2
 70
     0
  9
$DIMTOLJ
 70
     0
  9
$DIMTZIN
 70
     1
  9
$DIMALTZ
 70
     0
  9
$DIMALTTZ
 70
     0
  9
$DIMUPT
 70
     0
  9
$DIMDEC
 70
     2
  9
$DIMTDEC
 70
     2
  9
$DIMALTU
 70
     2
  9
$DIMALTTD
 70
     3
  9
$DIMTXSTY
  7
Standard
  9
$DIMAUNIT
 70
     0
  9
$DIMADEC
 70
     2
  9
$DIMALTRND
 40
0.0
  9
$DIMAZIN
 70
     0
  9
$DIMDSEP
 70
    44
  9
$DIMATFIT
 70
     3
  9
$DIMFRAC
 70
     0
  9
$DIMLDRBLK
  1

  9
$DIMLUNIT
 70
     2
  9
$DIMLWD
 70
    -2
  9
$DIMLWE
 70
    -2
  9
$DIMTMOVE
 70
     0
  9
$LUNITS
 70
     2
  9
$LUPREC
 70
     2
  9
$SKETCHINC
 40
1.0
  9
$FILLETRAD
 40
10.0
  9
$AUNITS
 70
     0
  9
$AUPREC
 70
     2
  9
$MENU
  1
.
  9
$ELEVATION
 40
0.0
  9
$PELEVATION
 40
0.0
  9
$THICKNESS
 40
0.0
  9
$LIMCHECK
 70
     0
  9
$CHAMFERA
 40
0.0
  9
$CHAMFERB
 40
0.0
  9
$CHAMFERC
 40
0.0
  9
$CHAMFERD
 40
0.0
  9
$SKPOLY
 70
     0
  9
$TDCREATE
 40
2459313.672959005
  9
$TDUCREATE
 40
2459313.631292338
  9
$TDUPDATE
 40
2459313.672995637
  9
$TDUUPDATE
 40
2459313.63132897
  9
$TDINDWG
 40
0.0000000116
  9
$TDUSRTIMER
 40
0.0000000116
  9
$USRTIMER
 70
     1
  9
$ANGBASE
 50
0.0
  9
$ANGDIR
 70
     0
  9
$PDMODE
 70
     0
  9
$PDSIZE
 40
-1.0
  9
$PLINEWID
 40
0.0
  9
$SPLFRAME
 70
     0
  9
$SPLINETYPE
 70
     6
  9
$SPLINESEGS
 70
     8
  9
$HANDSEED
  5
164
  9
$SURFTAB1
 70
     6
  9
$SURFTAB2
 70
     6
  9
$SURFTYPE
 70
     6
  9
$SURFU
 70
     6
  9
$SURFV
 70
     6
  9
$UCSBASE
  2

  9
$UCSNAME
  2

  9
$UCSORG
 10
0.0
 20
0.0
 30
0.0
  9
$UCSXDIR
 10
1.0
 20
0.0
 30
0.0
  9
$UCSYDIR
 10
0.0
 20
1.0
 30
0.0
  9
$UCSORTHOREF
  2

  9
$UCSORTHOVIEW
 70
     0
  9
$UCSORGTOP
 10
0.0
 20
0.0
 30
0.0
  9
$UCSORGBOTTOM
 10
0.0
 20
0.0
 30
0.0
  9
$UCSORGLEFT
 10
0.0
 20
0.0
 30
0.0
  9
$UCSORGRIGHT
 10
0.0
 20
0.0
 30
0.0
  9
$UCSORGFRONT
 10
0.0
 20
0.0
 30
0.0
  9
$UCSORGBACK
 10
0.0
 20
0.0
 30
0.0
  9
$PUCSBASE
  2

  9
$PUCSNAME
  2

  9
$PUCSORG
 10
0.0
 20
0.0
 30
0.0
  9
$PUCSXDIR
 10
1.0
 20
0.0
 30
0.0
  9
$PUCSYDIR
 10
0.0
 20
1.0
 30
0.0
  9
$PUCSORTHOREF
  2

  9
$PUCSORTHOVIEW
 70
     0
  9
$PUCSORGTOP
 10
0.0
 20
0.0
 30
0.0
  9
$PUCSORGBOTTOM
 10
0.0
 20
0.0
 30
0.0
  9
$PUCSORGLEFT
 10
0.0
 20
0.0
 30
0.0
  9
$PUCSORGRIGHT
 10
0.0
 20
0.0
 30
0.0
  9
$PUCSORGFRONT
 10
0.0
 20
0.0
 30
0.0
  9
$PUCSORGBACK
 10
0.0
 20
0.0
 30
0.0
  9
$USERI1
 70
     0
  9
$USERI2
 70
     0
  9
$USERI3
 70
     0
  9
$USERI4
 70
     0
  9
$USERI5
 70
     0
  9
$USERR1
 40
0.0
  9
$USERR2
 40
0.0
  9
$USERR3
 40
0.0
  9
$USERR4
 40
0.0
  9
$USERR5
 40
0.0
  9
$WORLDVIEW
 70
     1
  9
$SHADEDGE
 70
     3
  9
$SHADEDIF
 70
    70
  9
$TILEMODE
 70
     1
  9
$MAXACTVP
 70
    64
  9
$PINSBASE
 10
0.0
 20
0.0
 30
0.0
  9
$PLIMCHECK
 70
     0
  9
$PEXTMIN
 10
-159.8891623854
 20
-159.8891623536
 30
0.0
  9
$PEXTMAX
 10
159.8891623854
 20
159.8891624171
 30
0.0
  9
$PLIMMIN
 10
-192.6869392849
 20
-172.1883286909
  9
$PLIMMAX
 10
294.3600476736
 20
172.1883287545
  9
$UNITMODE
 70
     0
  9
$VISRETAIN
 70
     1
  9
$PLINEGEN
 70
     0
  9
$PSLTSCALE
 70
     1
  9
$TREEDEPTH
 70
  3020
  9
$CMLSTYLE
  2
Standard
  9
$CMLJUST
 70
     0
  9
$CMLSCALE
 40
20.0
  9
$PROXYGRAPHICS
 70
     1
  9
$MEASUREMENT
 70
     1
  9
$CELWEIGHT
370
    -1
  9
$ENDCAPS
280
     0
  9
$JOINSTYLE
280
     0
  9
$LWDISPLAY
290
     1
  9
$INSUNITS
 70
     4
  9
$HYPERLINKBASE
  1

  9
$STYLESHEET
  1

  9
$XEDIT
290
     1
  9
$CEPSNTYPE
380
     0
  9
$PSTYLEMODE
290
     1
  9
$FINGERPRINTGUID
  2
{54e68463-8fd5-4235-bee8-2cb247373978}
  9
$VERSIONGUID
  2
{FAEB1C32-E019-11D5-929B-00C0DF256EC4}
  9
$EXTNAMES
290
     1
  9
$PSVPSCALE
 40
0.0
  9
$OLESTARTUP
290
     0
  0
ENDSEC
  0
SECTION
  2
CLASSES
  0
CLASS
  1
ACDBDICTIONARYWDFLT
  2
AcDbDictionaryWithDefault
  3
ObjectDBX Classes
 90
        0
280
     0
281
     0
  0
CLASS
  1
VISUALSTYLE
  2
AcDbVisualStyle
  3
ObjectDBX Classes
 90
     4095
280
     0
281
     0
  0
CLASS
  1
MATERIAL
  2
AcDbMaterial
  3
ObjectDBX Classes
 90
     1153
280
     0
281
     0
  0
CLASS
  1
SCALE
  2
AcDbScale
  3
ObjectDBX Classes
 90
     1153
280
     0
281
     0
  0
CLASS
  1
TABLESTYLE
  2
AcDbTableStyle
  3
ObjectDBX Classes
 90
     4095
280
     0
281
     0
  0
CLASS
  1
MLEADERSTYLE
  2
AcDbMLeaderStyle
  3
ACDB_MLEADERSTYLE_CLASS
 90
     4095
280
     0
281
     0
  0
CLASS
  1
SUN
  2
AcDbSun
  3
SCENEOE
 90
     1153
280
     0
281
     0
  0
CLASS
  1
ACDBPLACEHOLDER
  2
AcDbPlaceHolder
  3
ObjectDBX Classes
 90
        0
280
     0
281
     0
  0
CLASS
  1
LAYOUT
  2
AcDbLayout
  3
ObjectDBX Classes
 90
        0
280
     0
281
     0
  0
ENDSEC
  0
SECTION
  2
TABLES
  0
TABLE
  2
VPORT
  5
8
330
0
100
AcDbSymbolTable
 70
     1
  0
VPORT
  5
29
330
8
100
AcDbSymbolTableRecord
100
AcDbViewportTableRecord
  2
*Active
 70
     0
 10
0.0
 20
0.0
 11
1.0
 21
1.0
 12
0.0000175649
 22
69.9999922628
 13
0.0
 23
0.0
 14
10.0
 24
10.0
 15
10.0
 25
10.0
 16
0.0
 26
0.0
 36
1.0
 17
0.0
 27
0.0
 37
0.0
 40
142.7999842161
 41
2.2841313946
 42
50.0
 43
0.0
 44
0.0
 50
0.0
 51
0.0
 71
     0
 72
   100
 73
     1
 74
     3
 75
     0
 76
     0
 77
     0
 78
     0
281
     0
 65
     1
110
0.0
120
0.0
130
0.0
111
1.0
121
0.0
131
0.0
112
0.0
122
1.0
132
0.0
 79
     0
146
0.0
  0
ENDTAB
  0
TABLE
  2
LTYPE
  5
5
330
0
100
AcDbSymbolTable
 70
     6
  0
LTYPE
  5
14
330
5
100
AcDbSymbolTableRecord
100
AcDbLinetypeTableRecord
  2
ByBlock
 70
     0
  3

 72
    65
 73
     0
 40
0.0
  0
LTYPE
  5
15
330
5
100
AcDbSymbolTableRecord
100
AcDbLinetypeTableRecord
  2
ByLayer
 70
     0
  3

 72
    65
 73
     0
 40
0.0
  0
LTYPE
  5
16
330
5
100
AcDbSymbolTableRecord
100
AcDbLinetypeTableRecord
  2
Continuous
 70
     0
  3
Solid line
 72
    65
 73
     0
 40
0.0
  0
LTYPE
  5
6E
330
5
100
AcDbSymbolTableRecord
100
AcDbLinetypeTableRecord
  2
HIDDEN
 70
     0
  3
Hidden __ __ __ __ __ __ __ __ __ __ __ __ __ __
 72
    65
 73
     2
 40
1.905
 49
1.27
 74
     0
 49
-0.635
 74
     0
  0
LTYPE
  5
6F
330
5
100
AcDbSymbolTableRecord
100
AcDbLinetypeTableRecord
  2
PHANTOM
 70
     0
  3
Phantom ______  __  __  ______  __  __  ______
 72
    65
 73
     6
 40
12.7
 49
6.35
 74
     0
 49
-1.27
 74
     0
 49
1.27
 74
     0
 49
-1.27
 74
     0
 49
1.27
 74
     0
 49
-1.27
 74
     0
  0
LTYPE
  5
70
330
5
100
AcDbSymbolTableRecord
100
AcDbLinetypeTableRecord
  2
CENTER
 70
     0
  3
Center ____ _ ____ _ ____ _ ____ _ ____ _ ____
 72
    65
 73
     4
 40
10.16
 49
6.35
 74
     0
 49
-1.27
 74
     0
 49
1.27
 74
     0
 49
-1.27
 74
     0
  0
LTYPE
  5
71
330
5
100
AcDbSymbolTableRecord
100
AcDbLinetypeTableRecord
  2
CENTERX2
 70
     0
  3
Center (2x) ________  __  ________  __  _____
 72
    65
 73
     4
 40
20.32
 49
12.7
 74
     0
 49
-2.54
 74
     0
 49
2.54
 74
     0
 49
-2.54
 74
     0
  0
LTYPE
  5
72
330
5
100
AcDbSymbolTableRecord
100
AcDbLinetypeTableRecord
  2
DOT2
 70
     0
  3
Dot (.5x) ........................................
 72
    65
 73
     2
 40
0.635
 49
0.0
 74
     0
 49
-0.635
 74
     0
  0
ENDTAB
  0
TABLE
  2
LAYER
  5
2
330
0
100
AcDbSymbolTable
 70
     1
  0
LAYER
  5
10
330
2
100
AcDbSymbolTableRecord
100
AcDbLayerTableRecord
  2
0
 70
     0
 62
     7
  6
Continuous
370
    -3
390
F
  0
ENDTAB
  0
TABLE
  2
STYLE
  5
3
330
0
100
AcDbSymbolTable
 70
     1
  0
STYLE
  5
11
330
3
100
AcDbSymbolTableRecord
100
AcDbTextStyleTableRecord
  2
Standard
 70
     0
 40
0.0
 41
1.0
 50
0.0
 71
     0
 42
3.5
  3
txt
  4

  0
ENDTAB
  0
TABLE
  2
VIEW
  5
6
330
0
100
AcDbSymbolTable
 70
     0
  0
ENDTAB
  0
TABLE
  2
UCS
  5
7
330
0
100
AcDbSymbolTable
 70
     0
  0
ENDTAB
  0
TABLE
  2
APPID
  5
9
330
0
100
AcDbSymbolTable
 70
     1
  0
APPID
  5
12
330
9
100
AcDbSymbolTableRecord
100
AcDbRegAppTableRecord
  2
ACAD
 70
     0
  0
ENDTAB
  0
TABLE
  2
DIMSTYLE
  5
A
330
0
100
AcDbSymbolTable
 70
     1
100
AcDbDimStyleTable
  0
DIMSTYLE
105
27
330
A
100
AcDbSymbolTableRecord
100
AcDbDimStyleTableRecord
  2
ISO-25
 70
     0
 41
2.5
 42
0.625
 43
3.75
 44
1.25
 73
     0
 74
     0
 77
     1
 78
     8
140
2.5
141
2.5
143
0.0393700787
147
0.625
171
     3
172
     1
178
     0
271
     2
272
     2
274
     3
278
    44
283
     0
284
     8
340
11
  0
ENDTAB
  0
TABLE
  2
BLOCK_RECORD
  5
1
330
0
100
AcDbSymbolTable
 70
     7
  0
BLOCK_RECORD
  5
1F
330
1
100
AcDbSymbolTableRecord
100
AcDbBlockTableRecord
  2
*Model_Space
340
22
  0
BLOCK_RECORD
  5
1B
330
1
100
AcDbSymbolTableRecord
100
AcDbBlockTableRecord
  2
*Paper_Space
340
1E
  0
BLOCK_RECORD
  5
23
330
1
100
AcDbSymbolTableRecord
100
AcDbBlockTableRecord
  2
*Paper_Space0
340
26
  0
BLOCK_RECORD
  5
B4
330
1
100
AcDbSymbolTableRecord
100
AcDbBlockTableRecord
  2
*Paper_Space1
340
B5
  0
BLOCK_RECORD
  5
D7
330
1
100
AcDbSymbolTableRecord
100
AcDbBlockTableRecord
  2
*Paper_Space2
340
D8
  0
BLOCK_RECORD
  5
F8
330
1
100
AcDbSymbolTableRecord
100
AcDbBlockTableRecord
  2
*Paper_Space3
340
F9
  0
BLOCK_RECORD
  5
10B
330
1
100
AcDbSymbolTableRecord
100
AcDbBlockTableRecord
  2
*Paper_Space4
340
10C
  0
BLOCK_RECORD
  5
129
330
1
100
AcDbSymbolTableRecord
100
AcDbBlockTableRecord
  2
*Paper_Space5
340
12A
  0
BLOCK_RECORD
  5
13F
330
1
100
AcDbSymbolTableRecord
100
AcDbBlockTableRecord
  2
*Paper_Space6
340
140
  0
ENDTAB
  0
ENDSEC
  0
SECTION
  2
BLOCKS
  0
BLOCK
  5
20
330
1F
100
AcDbEntity
  8
0
100
AcDbBlockBegin
  2
*Model_Space
 70
     0
 10
0.0
 20
0.0
 30
0.0
  3
*Model_Space
  1

  0
ENDBLK
  5
21
330
1F
100
AcDbEntity
  8
0
100
AcDbBlockEnd
  0
BLOCK
  5
1C
330
1B
100
AcDbEntity
 67
     1
  8
0
100
AcDbBlockBegin
  2
*Paper_Space
 70
     0
 10
0.0
 20
0.0
 30
0.0
  3
*Paper_Space
  1

  0
ENDBLK
  5
1D
330
1B
100
AcDbEntity
 67
     1
  8
0
100
AcDbBlockEnd
  0
BLOCK
  5
24
330
23
100
AcDbEntity
  8
0
100
AcDbBlockBegin
  2
*Paper_Space0
 70
     0
 10
0.0
 20
0.0
 30
0.0
  3
*Paper_Space0
  1

  0
SPLINE
  5
98
330
23
100
AcDbEntity
  8
0
  6
Continuous
 62
     7
370
    25
100
AcDbSpline
210
0.0
220
0.0
230
1.0
 70
     8
 71
     3
 72
    13
 73
     9
 74
     0
 42
0.000000001
 43
0.00000001
 40
0.0
 40
0.0
 40
0.0
 40
0.0
 40
0.1857176910146575
 40
0.4166460094781455
 40
0.5499951742311808
 40
0.6935003982743323
 40
0.8446757960584872
 40
1.0
 40
1.0
 40
1.0
 40
1.0
 10
159.8891623853588
 20
134.4956282792331
 30
0.0
 10
159.8683912345731
 20
134.9922641645211
 30
0.0
 10
159.82179245855
 20
136.10643567203
 30
0.0
 10
159.1888494037051
 20
137.4758900389413
 30
0.0
 10
158.3267120601301
 20
138.5227886695336
 30
0.0
 10
157.425747175414
 20
139.2320363585075
 30
0.0
 10
156.3389639742187
 20
139.7702121025008
 30
0.0
 10
155.5311142194379
 20
139.9057413888212
 30
0.0
 10
155.121721778602
 20
139.9744233002819
 30
0.0
  0
SPLINE
  5
99
330
23
100
AcDbEntity
  8
0
  6
Continuous
 62
     7
370
    25
100
AcDbSpline
210
0.0
220
0.0
230
1.0
 70
     8
 71
     3
 72
    56
 73
    52
 74
     0
 42
0.000000001
 43
0.00000001
 40
0.0
 40
0.0
 40
0.0
 40
0.0
 40
0.0202266581482913
 40
0.0388053007902651
 40
0.055744016245339
 40
0.0710487471603669
 40
0.0847231897508331
 40
0.0967707664514476
 40
0.107193909815085
 40
0.1162537597126904
 40
0.1252269149088922
 40
0.1342837790683498
 40
0.1434230358818085
 40
0.1526449490717639
 40
0.1807648751501199
 40
0.2090630468695138
 40
0.2373652249100239
 40
0.2656745328065421
 40
0.2939759599388389
 40
0.3222740495134062
 40
0.3505736654123953
 40
0.3788815023560789
 40
0.4071865085385541
 40
0.4354851720860057
 40
0.4637835659489098
 40
0.4920871900985443
 40
0.5203959717142244
 40
0.548696316070689
 40
0.5769943577138755
 40
0.6052948687625983
 40
0.633603785497485
 40
0.6619071496185841
 40
0.6902054990864848
 40
0.718504235013408
 40
0.7411502556547636
 40
0.7638008475732396
 40
0.7864455408163377
 40
0.8088946600238297
 40
0.83018773915468
 40
0.8386810628157665
 40
0.8469510461898441
 40
0.8550058272456241
 40
0.8640064865860536
 40
0.874782105334629
 40
0.8873324492225063
 40
0.9016565461495899
 40
0.9177566565430652
 40
0.9356361589692841
 40
0.9552991119165886
 40
0.9767508292343989
 40
1.0
 40
1.0
 40
1.0
 40
1.0
 10
155.1217217754947
 20
139.9744233005885
 30
0.0
 10
155.0170495385994
 20
139.9785204052988
 30
0.0
 10
154.8162334864699
 20
139.9863807932821
 30
0.0
 10
153.8370118730364
 20
139.9932153236043
 30
0.0
 10
152.5349953467023
 20
139.9972369093357
 30
0.0
 10
150.989823476786
 20
139.9991574480941
 30
0.0
 10
149.3271828959521
 20
139.9998840453599
 30
0.0
 10
147.6465955098226
 20
140.0000211517649
 30
0.0
 10
146.0217358748295
 20
139.9999833136594
 30
0.0
 10
144.4407066203529
 20
139.999984462433
 30
0.0
 10
142.8179410616476
 20
139.9999841695506
 30
0.0
 10
141.0753958422921
 20
139.9999842482843
 30
0.0
 10
139.2008734143337
 20
139.9999842283435
 30
0.0
 10
135.8279869843647
 20
139.9999842400943
 30
0.0
 10
130.5097764733204
 20
139.9999842415313
 30
0.0
 10
122.6184444292623
 20
139.999984240666
 30
0.0
 10
113.7408219880549
 20
139.9999842330094
 30
0.0
 10
103.9626766080942
 20
139.9999842327121
 30
0.0
 10
93.36282449900713
 20
139.9999842398832
 30
0.0
 10
82.02645271438185
 20
139.999984242415
 30
0.0
 10
70.03989954127407
 20
139.9999842367912
 30
0.0
 10
57.4993600537371
 20
139.9999842331277
 30
0.0
 10
44.5032386934022
 20
139.9999842378195
 30
0.0
 10
31.15747615995451
 20
139.9999842422823
 30
0.0
 10
17.56501555536536
 20
139.9999842394498
 30
0.0
 10
3.832350499488851
 20
139.9999842353452
 30
0.0
 10
-9.931063210122065
 20
139.9999842366
 30
0.0
 10
-23.61502131419935
 20
139.9999842412246
 30
0.0
 10
-37.11094302299119
 20
139.9999842407024
 30
0.0
 10
-50.31464310776641
 20
139.9999842380306
 30
0.0
 10
-63.12166109010337
 20
139.9999842367979
 30
0.0
 10
-75.42835239803365
 20
139.9999842401029
 30
0.0
 10
-87.1381843154925
 20
139.9999842411212
 30
0.0
 10
-97.42384102971918
 20
139.9999842389634
 30
0.0
 10
-106.3704765655226
 20
139.9999842405641
 30
0.0
 10
-114.0908609199905
 20
139.9999842334788
 30
0.0
 10
-121.2125087942254
 20
139.9999842605897
 30
0.0
 10
-127.5953713564433
 20
139.9999841666751
 30
0.0
 10
-132.1368586615152
 20
139.9999844332918
 30
0.0
 10
-135.1961581748597
 20
139.9999839804095
 30
0.0
 10
-137.0994128233086
 20
139.9999851963794
 30
0.0
 10
-138.9464470816438
 20
139.9999805919976
 30
0.0
 10
-140.8766996210105
 20
140.0000018853472
 30
0.0
 10
-142.9821461146575
 20
140.0000017892425
 30
0.0
 10
-145.2358572578957
 20
139.9998223452618
 30
0.0
 10
-147.541174121942
 20
139.9992202359746
 30
0.0
 10
-149.7836938757456
 20
139.9978519634846
 30
0.0
 10
-151.8364939357096
 20
139.99529452654
 30
0.0
 10
-153.5356522425339
 20
139.9909680122506
 30
0.0
 10
-154.7826018183598
 20
139.9844633404571
 30
0.0
 10
-155.005691590749
 20
139.9778585159178
 30
0.0
 10
-155.1217217735199
 20
139.9744233113799
 30
0.0
  0
SPLINE
  5
9A
330
23
100
AcDbEntity
  8
0
  6
Continuous
 62
     7
370
    25
100
AcDbSpline
210
0.0
220
0.0
230
1.0
 70
     8
 71
     3
 72
    13
 73
     9
 74
     0
 42
0.000000001
 43
0.00000001
 40
0.0
 40
0.0
 40
0.0
 40
0.0
 40
0.1553242037455763
 40
0.3064996013659925
 40
0.4500048253021829
 40
0.5833539900190855
 40
0.8142823086271914
 40
1.0
 40
1.0
 40
1.0
 40
1.0
 10
-155.1217217735196
 20
139.97442331138
 30
0.0
 10
-155.5311142122748
 20
139.905741400922
 30
0.0
 10
-156.338963963021
 20
139.7702121165683
 30
0.0
 10
-157.4257471603221
 20
139.2320363789598
 30
0.0
 10
-158.3267120438255
 20
138.5227886973411
 30
0.0
 10
-159.1888493894198
 20
137.4758900755608
 30
0.0
 10
-159.8217924504822
 20
136.1064357169661
 30
0.0
 10
-159.868391233456
 20
134.9922642128903
 30
0.0
 10
-159.8891623873548
 20
134.4956283287742
 30
0.0
  0
SPLINE
  5
A4
330
23
100
AcDbEntity
  8
0
  6
Continuous
 62
     8
370
    25
100
AcDbSpline
210
0.0
220
0.0
230
1.0
 70
    24
 71
     3
 72
    38
 73
    34
 74
     0
 42
0.000000001
 43
0.00000001
 40
0.0
 40
0.0
 40
0.0
 40
0.0
 40
0.0625
 40
0.0625
 40
0.125
 40
0.125
 40
0.1875
 40
0.1875
 40
0.25
 40
0.25
 40
0.3125
 40
0.3125
 40
0.375
 40
0.375
 40
0.4375
 40
0.4375
 40
0.5
 40
0.5
 40
0.5625
 40
0.5625
 40
0.625
 40
0.625
 40
0.6875
 40
0.6875
 40
0.75
 40
0.75
 40
0.8125
 40
0.8125
 40
0.875
 40
0.875
 40
0.9375
 40
0.9375
 40
1.0
 40
1.0
 40
1.0
 40
1.0
 10
159.8891623853588
 20
134.4956282792331
 30
0.0
 10
159.8891623853583
 20
134.4956282792331
 30
0.0
 10
158.8585027936526
 20
134.4956282792331
 30
0.0
 10
154.775371133463
 20
134.4956282792331
 30
0.0
 10
151.7230000284557
 20
134.4956282792331
 30
0.0
 10
143.7136491679323
 20
134.4956282792331
 30
0.0
 10
138.7568674593995
 20
134.4956282792331
 30
0.0
 10
127.1290922604166
 20
134.4956282792331
 30
0.0
 10
120.4583862896221
 20
134.4956282792331
 30
0.0
 10
105.6590356321456
 20
134.4956282792331
 30
0.0
 10
97.5307568885724
 20
134.4956282792331
 30
0.0
 10
80.12856151879805
 20
134.4956282792331
 30
0.0
 10
70.85507519617052
 20
134.4956282792331
 30
0.0
 10
51.5187917228957
 20
134.4956282792331
 30
0.0
 10
41.45647269996171
 20
134.4956282792331
 30
0.0
 10
20.92918365315223
 20
134.4956282792331
 30
0.0
 10
10.46472120694986
 20
134.4956282792331
 30
0.0
 10
-10.4647212071611
 20
134.4956282792331
 30
0.0
 10
-20.92918365336212
 20
134.4956282792331
 30
0.0
 10
-41.45647270016619
 20
134.4956282792331
 30
0.0
 10
-51.51879172309632
 20
134.4956282792331
 30
0.0
 10
-70.85507519636053
 20
134.4956282792331
 30
0.0
 10
-80.12856151898151
 20
134.4956282792331
 30
0.0
 10
-97.53075688874046
 20
134.4956282792331
 30
0.0
 10
-105.6590356323049
 20
134.4956282792331
 30
0.0
 10
-120.4583862897618
 20
134.4956282792331
 30
0.0
 10
-127.1290922605456
 20
134.4956282792331
 30
0.0
 10
-138.7568674595054
 20
134.4956282792331
 30
0.0
 10
-143.713649168026
 20
134.4956282792331
 30
0.0
 10
-151.7230000285238
 20
134.4956282792331
 30
0.0
 10
-154.7753711335178
 20
134.4956282792331
 30
0.0
 10
-158.8585027936803
 20
134.4956282792331
 30
0.0
 10
-159.8891623853721
 20
134.4956282792331
 30
0.0
 10
-159.8891623853588
 20
134.4956282792331
 30
0.0
  0
LINE
  5
A8
330
23
100
AcDbEntity
  8
0
  6
Continuous
 62
     7
370
    25
100
AcDbLine
 10
55.0
 20
2.0
 30
0.0
 11
55.0
 21
3.1095328374
 31
0.0
  0
LINE
  5
A9
330
23
100
AcDbEntity
  8
0
  6
Continuous
 62
     7
370
    25
100
AcDbLine
 10
-55.0
 20
3.1095328374
 30
0.0
 11
-55.0
 21
2.0
 31
0.0
  0
LINE
  5
AA
330
23
100
AcDbEntity
  8
0
  6
Continuous
 62
     7
370
    25
100
AcDbLine
 10
-53.0
 20
0.0
 30
0.0
 11
53.0
 21
0.0
 31
0.0
  0
LINE
  5
AB
330
23
100
AcDbEntity
  8
0
  6
Continuous
 62
     8
370
    25
100
AcDbLine
 10
-58.7041392286
 20
7.9386885463
 30
0.0
 11
58.7041392286
 21
7.9386885463
 31
0.0
  0
LINE
  5
AC
330
23
100
AcDbEntity
  8
0
  6
Continuous
 62
     8
370
    25
100
AcDbLine
 10
55.0
 20
3.1095328374
 30
0.0
 11
-55.0
 21
3.1095328374
 31
0.0
  0
LINE
  5
AD
330
23
100
AcDbEntity
  8
0
  6
Continuous
 62
     8
370
    25
100
AcDbLine
 10
-55.0
 20
2.0
 30
0.0
 11
55.0
 21
2.0
 31
0.0
  0
ARC
  5
AE
330
23
100
AcDbEntity
  8
0
  6
Continuous
 62
     7
370
    25
100
AcDbCircle
 10
23.2666666667
 20
140.0
 30
0.0
 40
136.7333333333335
100
AcDbArc
 50
285.0209463879
 51
357.6932288591
  0
ARC
  5
AF
330
23
100
AcDbEntity
  8
0
  6
Continuous
 62
     7
370
    25
100
AcDbCircle
 10
-23.2666666667
 20
140.0
 30
0.0
 40
136.7333333333334
100
AcDbArc
 50
182.3071969213
 51
254.9790536121
  0
ARC
  5
B0
330
23
100
AcDbEntity
  8
0
  6
Continuous
 62
     7
370
    25
100
AcDbCircle
 10
60.0
 20
3.1095328374
 30
0.0
 40
5.000000000000021
100
AcDbArc
 50
105.0209463879
 51
180.0
  0
ARC
  5
B1
330
23
100
AcDbEntity
  8
0
  6
Continuous
 62
     7
370
    25
100
AcDbCircle
 10
-60.0
 20
3.1095328374
 30
0.0
 40
5.000000000000036
100
AcDbArc
 50
0.0
 51
74.9790536121
  0
ARC
  5
B2
330
23
100
AcDbEntity
  8
0
  6
Continuous
 62
     7
370
    25
100
AcDbCircle
 10
53.0
 20
2.0
 30
0.0
 40
2.000000000000007
100
AcDbArc
 50
270.0
 51
0.0
  0
ARC
  5
B3
330
23
100
AcDbEntity
  8
0
  6
Continuous
 62
     7
370
    25
100
AcDbCircle
 10
-53.0
 20
2.0
 30
0.0
 40
2.0
100
AcDbArc
 50
180.0
 51
270.0
  0
VIEWPORT
  5
156
330
23
100
AcDbEntity
  8
0
100
AcDbViewport
 10
0.0
 20
0.0
 30
0.0
 40
205.6
 41
156.0
 68
     1
 69
     1
 12
0.0000175649
 22
69.9999922628
 13
0.0
 23
0.0
 14
10.0
 24
10.0
 15
10.0
 25
10.0
 16
0.0
 26
0.0
 36
1.0
 17
0.0
 27
0.0
 37
0.0
 42
50.0
 43
0.0
 44
0.0
 45
247.4860536367
 50
0.0
 51
0.0
 72
   100
 90
   557152
  1

281
     0
 71
     1
 74
     0
110
0.0
120
0.0
130
0.0
111
1.0
121
0.0
131
0.0
112
0.0
122
1.0
132
0.0
 79
     0
146
0.0
  0
ENDBLK
  5
25
330
23
100
AcDbEntity
  8
0
100
AcDbBlockEnd
  0
BLOCK
  5
B6
330
B4
100
AcDbEntity
  8
0
100
AcDbBlockBegin
  2
*Paper_Space1
 70
     0
 10
0.0
 20
0.0
 30
0.0
  3
*Paper_Space1
  1

  0
SPLINE
  5
B8
330
B4
100
AcDbEntity
  8
0
  6
Continuous
 62
     7
370
    25
100
AcDbSpline
210
0.0
220
0.0
230
1.0
 70
     8
 71
     3
 72
    13
 73
     9
 74
     0
 42
0.000000001
 43
0.00000001
 40
0.0
 40
0.0
 40
0.0
 40
0.0
 40
0.1857176911937365
 40
0.4166460097295346
 40
0.5499951744645081
 40
0.6935003984541814
 40
0.8446757961564609
 40
1.0
 40
1.0
 40
1.0
 40
1.0
 10
159.8891623863568
 20
134.4956283040036
 30
0.0
 10
159.8683912340145
 20
134.9922641887057
 30
0.0
 10
159.821792454516
 20
136.106435694498
 30
0.0
 10
159.1888493965626
 20
137.4758900572511
 30
0.0
 10
158.3267120519777
 20
138.5227886834374
 30
0.0
 10
157.4257471678681
 20
139.2320363687337
 30
0.0
 10
156.3389639686198
 20
139.7702121095345
 30
0.0
 10
155.5311142158563
 20
139.9057413948716
 30
0.0
 10
155.1217217760608
 20
139.974423305831
 30
0.0
  0
SPLINE
  5
B9
330
B4
100
AcDbEntity
  8
0
  6
Continuous
 62
     7
370
    25
100
AcDbSpline
210
0.0
220
0.0
230
1.0
 70
     8
 71
     3
 72
    56
 73
    52
 74
     0
 42
0.000000001
 43
0.00000001
 40
0.0
 40
0.0
 40
0.0
 40
0.0
 40
0.0202266581353741
 40
0.0388053007760694
 40
0.0557440162457875
 40
0.0710487471681298
 40
0.0847231897706107
 40
0.0967707664741616
 40
0.107193909831761
 40
0.1162537597212976
 40
0.1252269149134263
 40
0.1342837790685041
 40
0.1434230358739846
 40
0.1526449490587263
 40
0.1807648751526988
 40
0.2090630468900036
 40
0.2373652249233063
 40
0.2656745328016477
 40
0.2939759599314896
 40
0.3222740495240864
 40
0.3505736654351962
 40
0.3788815023608561
 40
0.4071865085254411
 40
0.4354851720916524
 40
0.4637835659733071
 40
0.4920871901090917
 40
0.5203959717063925
 40
0.5486963160688458
 40
0.5769943577261872
 40
0.6052948687770544
 40
0.6336037855023281
 40
0.6619071496165043
 40
0.6902054990934928
 40
0.7185042350204645
 40
0.7411502556614967
 40
0.7638008475795299
 40
0.7864455408224814
 40
0.8088946600296756
 40
0.8301877391535252
 40
0.8386810628115926
 40
0.8469510461850729
 40
0.8550058272426547
 40
0.8640064865872965
 40
0.8747821053389186
 40
0.8873324492304616
 40
0.9016565461625408
 40
0.9177566565535722
 40
0.9356361589721397
 40
0.9552991119055545
 40
0.9767508292185759
 40
1.0
 40
1.0
 40
1.0
 40
1.0
 10
155.1217217740075
 20
139.9744233060336
 30
0.0
 10
155.017049537676
 20
139.978520410412
 30
0.0
 10
154.8162334865734
 20
139.9863807977606
 30
0.0
 10
153.8370118746148
 20
139.9932153253527
 30
0.0
 10
152.5349953490026
 20
139.9972369092824
 30
0.0
 10
150.9898234778601
 20
139.9991574479471
 30
0.0
 10
149.3271828954144
 20
139.9998840466793
 30
0.0
 10
147.6465955082069
 20
140.0000211547467
 30
0.0
 10
146.0217358730258
 20
139.9999833179814
 30
0.0
 10
144.4407066186207
 20
139.9999844675899
 30
0.0
 10
142.8179410602618
 20
139.9999841749257
 30
0.0
 10
141.0753958418549
 20
139.9999842531904
 30
0.0
 10
139.2008734152249
 20
139.9999842323673
 30
0.0
 10
135.8279869854234
 20
139.9999842422245
 30
0.0
 10
130.5097764735415
 20
139.9999842406181
 30
0.0
 10
122.6184444265496
 20
139.9999842419176
 30
0.0
 10
113.7408219847003
 20
139.999984238853
 30
0.0
 10
103.9626766078703
 20
139.9999842375016
 30
0.0
 10
93.36282449961385
 20
139.9999842405357
 30
0.0
 10
82.02645271150361
 20
139.9999842417302
 30
0.0
 10
70.03989953603077
 20
139.9999842405889
 30
0.0
 10
57.49936005155322
 20
139.9999842393605
 30
0.0
 10
44.50323869416992
 20
139.9999842402557
 30
0.0
 10
31.15747615777664
 20
139.9999842412758
 30
0.0
 10
17.56501554912414
 20
139.9999842411522
 30
0.0
 10
3.832350495401678
 20
139.9999842412457
 30
0.0
 10
-9.931063209941303
 20
139.9999842411796
 30
0.0
 10
-23.61502131438268
 20
139.9999842409679
 30
0.0
 10
-37.11094302661952
 20
139.9999842408387
 30
0.0
 10
-50.31464311217061
 20
139.9999842399505
 30
0.0
 10
-63.12166109235412
 20
139.999984240078
 30
0.0
 10
-75.4283523992799
 20
139.9999842407799
 30
0.0
 10
-87.13818431693755
 20
139.9999842410436
 30
0.0
 10
-97.42384103195188
 20
139.999984238756
 30
0.0
 10
-106.3704765674462
 20
139.9999842400484
 30
0.0
 10
-114.0908609218642
 20
139.9999842341162
 30
0.0
 10
-121.2125087959352
 20
139.9999842610065
 30
0.0
 10
-127.5953713574282
 20
139.9999841667912
 30
0.0
 10
-132.1368586616365
 20
139.9999844328974
 30
0.0
 10
-135.1961581740528
 20
139.9999839791784
 30
0.0
 10
-137.0994128222672
 20
139.9999851946116
 30
0.0
 10
-138.9464470808344
 20
139.9999805897421
 30
0.0
 10
-140.8766996207162
 20
140.0000018827093
 30
0.0
 10
-142.9821461150676
 20
140.000001786538
 30
0.0
 10
-145.2358572586609
 20
139.9998223429979
 30
0.0
 10
-147.541174122519
 20
139.9992202344799
 30
0.0
 10
-149.7836938755512
 20
139.9978519629072
 30
0.0
 10
-151.8364939337428
 20
139.9952945268928
 30
0.0
 10
-153.5356522405089
 20
139.990968011729
 30
0.0
 10
-154.7826018175354
 20
139.9844633363472
 30
0.0
 10
-155.0056915907548
 20
139.9778585109955
 30
0.0
 10
-155.1217217740078
 20
139.9744233060336
 30
0.0
  0
SPLINE
  5
BA
330
B4
100
AcDbEntity
  8
0
  6
Continuous
 62
     7
370
    25
100
AcDbSpline
210
0.0
220
0.0
230
1.0
 70
     8
 71
     3
 72
    13
 73
     9
 74
     0
 42
0.000000001
 43
0.00000001
 40
0.0
 40
0.0
 40
0.0
 40
0.0
 40
0.15532420384354
 40
0.306499601545822
 40
0.450004825535496
 40
0.5833539902704653
 40
0.8142823088062652
 40
1.0
 40
1.0
 40
1.0
 40
1.0
 10
-155.1217217760609
 20
139.974423305831
 30
0.0
 10
-155.5311142158563
 20
139.9057413948716
 30
0.0
 10
-156.3389639686199
 20
139.7702121095345
 30
0.0
 10
-157.4257471678681
 20
139.2320363687337
 30
0.0
 10
-158.3267120519777
 20
138.5227886834373
 30
0.0
 10
-159.1888493965625
 20
137.4758900572512
 30
0.0
 10
-159.821792454516
 20
136.106435694498
 30
0.0
 10
-159.8683912340145
 20
134.9922641887057
 30
0.0
 10
-159.8891623863568
 20
134.4956283040036
 30
0.0
  0
SPLINE
  5
C5
330
B4
100
AcDbEntity
  8
0
  6
Continuous
 62
     8
370
    25
100
AcDbSpline
210
0.0
220
0.0
230
1.0
 70
    24
 71
     3
 72
    38
 73
    34
 74
     0
 42
0.000000001
 43
0.00000001
 40
0.0
 40
0.0
 40
0.0
 40
0.0
 40
0.0625
 40
0.0625
 40
0.125
 40
0.125
 40
0.1875
 40
0.1875
 40
0.25
 40
0.25
 40
0.3125
 40
0.3125
 40
0.375
 40
0.375
 40
0.4375
 40
0.4375
 40
0.5
 40
0.5
 40
0.5625
 40
0.5625
 40
0.625
 40
0.625
 40
0.6875
 40
0.6875
 40
0.75
 40
0.75
 40
0.8125
 40
0.8125
 40
0.875
 40
0.875
 40
0.9375
 40
0.9375
 40
1.0
 40
1.0
 40
1.0
 40
1.0
 10
159.8891623853588
 20
134.4956282792331
 30
0.0
 10
159.889162385358
 20
134.4956282792331
 30
0.0
 10
158.8585027936453
 20
134.4956282792331
 30
0.0
 10
154.7753711334284
 20
134.4956282792331
 30
0.0
 10
151.723000028401
 20
134.4956282792331
 30
0.0
 10
143.7136491678256
 20
134.4956282792331
 30
0.0
 10
138.756867459261
 20
134.4956282792331
 30
0.0
 10
127.1290922602056
 20
134.4956282792331
 30
0.0
 10
120.4583862893702
 20
134.4956282792331
 30
0.0
 10
105.6590356318062
 20
134.4956282792331
 30
0.0
 10
97.53075688818626
 20
134.4956282792331
 30
0.0
 10
80.12856151831659
 20
134.4956282792331
 30
0.0
 10
70.8550751956404
 20
134.4956282792331
 30
0.0
 10
51.51879172227048
 20
134.4956282792331
 30
0.0
 10
41.45647269928995
 20
134.4956282792331
 30
0.0
 10
20.92918365239413
 20
134.4956282792331
 30
0.0
 10
10.46472120615192
 20
134.4956282792331
 30
0.0
 10
-10.46472120802809
 20
134.4956282792331
 30
0.0
 10
-20.92918365425834
 20
134.4956282792331
 30
0.0
 10
-41.45647270110625
 20
134.4956282792331
 30
0.0
 10
-51.51879172405082
 20
134.4956282792331
 30
0.0
 10
-70.85507519732677
 20
134.4956282792331
 30
0.0
 10
-80.1285615199449
 20
134.4956282792331
 30
0.0
 10
-97.5307568896781
 20
134.4956282792331
 30
0.0
 10
-105.6590356332197
 20
134.4956282792331
 30
0.0
 10
-120.4583862906101
 20
134.4956282792331
 30
0.0
 10
-127.12909226135
 20
134.4956282792331
 30
0.0
 10
-138.7568674602013
 20
134.4956282792331
 30
0.0
 10
-143.713649168657
 20
134.4956282792331
 30
0.0
 10
-151.7230000290054
 20
134.4956282792331
 30
0.0
 10
-154.7753711339149
 20
134.4956282792331
 30
0.0
 10
-158.8585027938908
 20
134.4956282792331
 30
0.0
 10
-159.8891623854809
 20
134.4956282792331
 30
0.0
 10
-159.8891623853588
 20
134.4956282792331
 30
0.0
  0
LINE
  5
CB
330
B4
100
AcDbEntity
  8
0
  6
Continuous
 62
     7
370
    25
100
AcDbLine
 10
55.0
 20
2.0
 30
0.0
 11
55.0
 21
3.1095328374
 31
0.0
  0
LINE
  5
CC
330
B4
100
AcDbEntity
  8
0
  6
Continuous
 62
     7
370
    25
100
AcDbLine
 10
-55.0
 20
3.1095328374
 30
0.0
 11
-55.0
 21
2.0
 31
0.0
  0
LINE
  5
CD
330
B4
100
AcDbEntity
  8
0
  6
Continuous
 62
     7
370
    25
100
AcDbLine
 10
53.0
 20
0.0
 30
0.0
 11
-53.0
 21
0.0
 31
0.0
  0
LINE
  5
CE
330
B4
100
AcDbEntity
  8
0
  6
Continuous
 62
     8
370
    25
100
AcDbLine
 10
-58.7041392286
 20
7.9386885463
 30
0.0
 11
58.7041392286
 21
7.9386885463
 31
0.0
  0
LINE
  5
CF
330
B4
100
AcDbEntity
  8
0
  6
Continuous
 62
     8
370
    25
100
AcDbLine
 10
55.0
 20
3.1095328374
 30
0.0
 11
-55.0
 21
3.1095328374
 31
0.0
  0
LINE
  5
D0
330
B4
100
AcDbEntity
  8
0
  6
Continuous
 62
     8
370
    25
100
AcDbLine
 10
-55.0
 20
2.0
 30
0.0
 11
55.0
 21
2.0
 31
0.0
  0
ARC
  5
D1
330
B4
100
AcDbEntity
  8
0
  6
Continuous
 62
     7
370
    25
100
AcDbCircle
 10
23.2666666667
 20
140.0
 30
0.0
 40
136.7333333333334
100
AcDbArc
 50
285.0209463879
 51
357.6932288591
  0
ARC
  5
D2
330
B4
100
AcDbEntity
  8
0
  6
Continuous
 62
     7
370
    25
100
AcDbCircle
 10
-23.2666666667
 20
140.0
 30
0.0
 40
136.7333333333334
100
AcDbArc
 50
182.3071969213
 51
254.9790536121
  0
ARC
  5
D3
330
B4
100
AcDbEntity
  8
0
  6
Continuous
 62
     7
370
    25
100
AcDbCircle
 10
60.0
 20
3.1095328374
 30
0.0
 40
5.000000000000021
100
AcDbArc
 50
105.0209463879
 51
180.0
  0
ARC
  5
D4
330
B4
100
AcDbEntity
  8
0
  6
Continuous
 62
     7
370
    25
100
AcDbCircle
 10
-60.0
 20
3.1095328374
 30
0.0
 40
5.000000000000036
100
AcDbArc
 50
0.0
 51
74.9790536121
  0
ARC
  5
D5
330
B4
100
AcDbEntity
  8
0
  6
Continuous
 62
     7
370
    25
100
AcDbCircle
 10
53.0
 20
2.0
 30
0.0
 40
2.000000000000007
100
AcDbArc
 50
270.0
 51
0.0
  0
ARC
  5
D6
330
B4
100
AcDbEntity
  8
0
  6
Continuous
 62
     7
370
    25
100
AcDbCircle
 10
-53.0
 20
2.0
 30
0.0
 40
2.0
100
AcDbArc
 50
180.0
 51
270.0
  0
VIEWPORT
  5
158
330
B4
100
AcDbEntity
  8
0
100
AcDbViewport
 10
0.0
 20
0.0
 30
0.0
 40
205.6
 41
156.0
 68
     1
 69
     1
 12
0.0000175649
 22
69.9999922628
 13
0.0
 23
0.0
 14
10.0
 24
10.0
 15
10.0
 25
10.0
 16
0.0
 26
0.0
 36
1.0
 17
0.0
 27
0.0
 37
0.0
 42
50.0
 43
0.0
 44
0.0
 45
247.4860536367
 50
0.0
 51
0.0
 72
   100
 90
   557152
  1

281
     0
 71
     1
 74
     0
110
0.0
120
0.0
130
0.0
111
1.0
121
0.0
131
0.0
112
0.0
122
1.0
132
0.0
 79
     0
146
0.0
  0
ENDBLK
  5
B7
330
B4
100
AcDbEntity
  8
0
100
AcDbBlockEnd
  0
BLOCK
  5
D9
330
D7
100
AcDbEntity
  8
0
100
AcDbBlockBegin
  2
*Paper_Space2
 70
     0
 10
0.0
 20
0.0
 30
0.0
  3
*Paper_Space2
  1

  0
SPLINE
  5
DB
330
D7
100
AcDbEntity
  8
0
  6
Continuous
 62
     7
370
    25
100
AcDbSpline
210
0.0
220
0.0
230
1.0
 70
     8
 71
     3
 72
    13
 73
     9
 74
     0
 42
0.000000001
 43
0.00000001
 40
0.0
 40
0.0
 40
0.0
 40
0.0
 40
0.1857176913728086
 40
0.4166460099809145
 40
0.5499951746978171
 40
0.6935003986340075
 40
0.8446757962544238
 40
1.0
 40
1.0
 40
1.0
 40
1.0
 10
159.8891623873548
 20
134.4956283287742
 30
0.0
 10
159.8683912334559
 20
134.9922642128903
 30
0.0
 10
159.8217924504822
 20
136.1064357169661
 30
0.0
 10
159.1888493894198
 20
137.4758900755609
 30
0.0
 10
158.3267120438255
 20
138.5227886973411
 30
0.0
 10
157.4257471603221
 20
139.2320363789598
 30
0.0
 10
156.338963963021
 20
139.7702121165683
 30
0.0
 10
155.5311142122748
 20
139.905741400922
 30
0.0
 10
155.1217217735196
 20
139.97442331138
 30
0.0
  0
SPLINE
  5
DC
330
D7
100
AcDbEntity
  8
0
  6
Continuous
 62
     7
370
    25
100
AcDbSpline
210
0.0
220
0.0
230
1.0
 70
     8
 71
     3
 72
    13
 73
     9
 74
     0
 42
0.000000001
 43
0.00000001
 40
0.0
 40
0.0
 40
0.0
 40
0.0
 40
0.1553242039415128
 40
0.3064996017256676
 40
0.4500048257688191
 40
0.5833539905218544
 40
0.8142823089853425
 40
1.0
 40
1.0
 40
1.0
 40
1.0
 10
-155.121721778602
 20
139.9744233002819
 30
0.0
 10
-155.5311142194378
 20
139.9057413888212
 30
0.0
 10
-156.3389639742186
 20
139.7702121025008
 30
0.0
 10
-157.425747175414
 20
139.2320363585075
 30
0.0
 10
-158.3267120601301
 20
138.5227886695336
 30
0.0
 10
-159.1888494037051
 20
137.4758900389413
 30
0.0
 10
-159.8217924585499
 20
136.1064356720299
 30
0.0
 10
-159.8683912345731
 20
134.9922641645211
 30
0.0
 10
-159.8891623853588
 20
134.4956282792331
 30
0.0
  0
SPLINE
  5
DD
330
D7
100
AcDbEntity
  8
0
  6
Continuous
 62
     7
370
    25
100
AcDbSpline
210
0.0
220
0.0
230
1.0
 70
     8
 71
     3
 72
    56
 73
    52
 74
     0
 42
0.000000001
 43
0.00000001
 40
0.0
 40
0.0
 40
0.0
 40
0.0
 40
0.0202266581214361
 40
0.0388053007605692
 40
0.0557440162452153
 40
0.0710487471733632
 40
0.0847231897822123
 40
0.0967707664873603
 40
0.1071939098419431
 40
0.1162537597274862
 40
0.1252269149176465
 40
0.134283779070574
 40
0.1434230358721144
 40
0.152644949054326
 40
0.1807648751566417
 40
0.2090630468959532
 40
0.2373652249293338
 40
0.2656745328075308
 40
0.2939759599375834
 40
0.3222740495277095
 40
0.350573665432989
 40
0.3788815023676063
 40
0.4071865085411993
 40
0.4354851720980853
 40
0.4637835659610313
 40
0.4920871901107333
 40
0.5203959717261044
 40
0.548696316082458
 40
0.5769943577211668
 40
0.6052948687675632
 40
0.6336037855110113
 40
0.6619071496382587
 40
0.6902054990970665
 40
0.7185042350056637
 40
0.7411502556611143
 40
0.7638008475924212
 40
0.7864455408440448
 40
0.8088946600339015
 40
0.8301877391436855
 40
0.8386810627960616
 40
0.8469510461687395
 40
0.8550058272303369
 40
0.8640064865835146
 40
0.8747821053415937
 40
0.8873324492409548
 40
0.901656546183391
 40
0.917756656569921
 40
0.9356361589739195
 40
0.9552991118936583
 40
0.9767508292024811
 40
1.0
 40
1.0
 40
1.0
 40
1.0
 10
155.1217217735193
 20
139.97442331138
 30
0.0
 10
155.0170495376144
 20
139.9785204154406
 30
0.0
 10
154.8162334872721
 20
139.9863808021818
 30
0.0
 10
153.8370118763695
 20
139.9932153269127
 30
0.0
 10
152.5349953511173
 20
139.9972369090693
 30
0.0
 10
150.9898234786901
 20
139.9991574479921
 30
0.0
 10
149.3271828950789
 20
139.9998840473266
 30
0.0
 10
147.6465955071611
 20
140.0000211560833
 30
0.0
 10
146.021735871831
 20
139.9999833199125
 30
0.0
 10
144.4407066175083
 20
139.9999844699613
 30
0.0
 10
142.8179410593925
 20
139.9999841776168
 30
0.0
 10
141.0753958415011
 20
139.9999842558606
 30
0.0
 10
139.2008734154826
 20
139.9999842346396
 30
0.0
 10
135.8279869855567
 20
139.9999842434703
 30
0.0
 10
130.5097764731639
 20
139.9999842402138
 30
0.0
 10
122.6184444249703
 20
139.9999842420375
 30
0.0
 10
113.7408219827293
 20
139.9999842381264
 30
0.0
 10
103.9626766059228
 20
139.9999842382718
 30
0.0
 10
93.36282449753423
 20
139.9999842407738
 30
0.0
 10
82.02645271022863
 20
139.9999842417967
 30
0.0
 10
70.039899534638
 20
139.999984238359
 30
0.0
 10
57.49936004853954
 20
139.9999842364135
 30
0.0
 10
44.50323868950758
 20
139.9999842389715
 30
0.0
 10
31.15747615584355
 20
139.9999842419392
 30
0.0
 10
17.56501554956018
 20
139.9999842395902
 30
0.0
 10
3.832350493663063
 20
139.99998423509
 30
0.0
 10
-9.931063215920354
 20
139.9999842369103
 30
0.0
 10
-23.61502131918542
 20
139.9999842411715
 30
0.0
 10
-37.11094302676356
 20
139.9999842407783
 30
0.0
 10
-50.31464311172718
 20
139.9999842352717
 30
0.0
 10
-63.12166109593966
 20
139.999984234241
 30
0.0
 10
-75.42835240432771
 20
139.9999842389918
 30
0.0
 10
-87.13818431842417
 20
139.9999842420696
 30
0.0
 10
-97.4238410310587
 20
139.9999842366697
 30
0.0
 10
-106.3704765677106
 20
139.9999842346377
 30
0.0
 10
-114.0908609257624
 20
139.9999842288605
 30
0.0
 10
-121.2125087998988
 20
139.999984259004
 30
0.0
 10
-127.5953713590107
 20
139.9999841673445
 30
0.0
 10
-132.1368586605424
 20
139.9999844324669
 30
0.0
 10
-135.1961581714946
 20
139.9999839772747
 30
0.0
 10
-137.0994128195269
 20
139.9999851916556
 30
0.0
 10
-138.9464470787373
 20
139.9999805857534
 30
0.0
 10
-140.876699619893
 20
140.0000018778064
 30
0.0
 10
-142.9821461159106
 20
140.0000017810764
 30
0.0
 10
-145.2358572606326
 20
139.9998223381425
 30
0.0
 10
-147.541174124998
 20
139.999220231407
 30
0.0
 10
-149.7836938776888
 20
139.9978519621193
 30
0.0
 10
-151.8364939345401
 20
139.995294527366
 30
0.0
 10
-153.5356522425158
 20
139.9909680105337
 30
0.0
 10
-154.7826018224341
 20
139.9844633320766
 30
0.0
 10
-155.0056915974649
 20
139.9778585055498
 30
0.0
 10
-155.1217217817094
 20
139.9744232999753
 30
0.0
  0
LINE
  5
EB
330
D7
100
AcDbEntity
  8
0
  6
Continuous
 62
     7
370
    25
100
AcDbLine
 10
55.0
 20
2.0
 30
0.0
 11
55.0
 21
3.1095328374
 31
0.0
  0
LINE
  5
EC
330
D7
100
AcDbEntity
  8
0
  6
Continuous
 62
     7
370
    25
100
AcDbLine
 10
-55.0
 20
3.1095328374
 30
0.0
 11
-55.0
 21
2.0
 31
0.0
  0
LINE
  5
ED
330
D7
100
AcDbEntity
  8
0
  6
Continuous
 62
     7
370
    25
100
AcDbLine
 10
53.0
 20
0.0
 30
0.0
 11
-52.9999999934
 21
0.0
 31
0.0
  0
LINE
  5
EE
330
D7
100
AcDbEntity
  8
0
  6
Continuous
 62
     8
370
    25
100
AcDbLine
 10
159.8891623854
 20
134.4956282792
 30
0.0
 11
-159.8891623854
 21
134.4956282792
 31
0.0
  0
LINE
  5
EF
330
D7
100
AcDbEntity
  8
0
  6
Continuous
 62
     8
370
    25
100
AcDbLine
 10
-58.7041392286
 20
7.9386885463
 30
0.0
 11
58.7041392286
 21
7.9386885463
 31
0.0
  0
LINE
  5
F0
330
D7
100
AcDbEntity
  8
0
  6
Continuous
 62
     8
370
    25
100
AcDbLine
 10
55.0
 20
3.1095328374
 30
0.0
 11
-55.0
 21
3.1095328374
 31
0.0
  0
LINE
  5
F1
330
D7
100
AcDbEntity
  8
0
  6
Continuous
 62
     8
370
    25
100
AcDbLine
 10
-55.0
 20
2.0
 30
0.0
 11
55.0
 21
2.0
 31
0.0
  0
ARC
  5
F2
330
D7
100
AcDbEntity
  8
0
  6
Continuous
 62
     7
370
    25
100
AcDbCircle
 10
23.2666666667
 20
140.0
 30
0.0
 40
136.7333333333334
100
AcDbArc
 50
285.0209463879
 51
357.6932288591
  0
ARC
  5
F3
330
D7
100
AcDbEntity
  8
0
  6
Continuous
 62
     7
370
    25
100
AcDbCircle
 10
-23.2666666667
 20
140.0
 30
0.0
 40
136.7333333333334
100
AcDbArc
 50
182.3071969213
 51
254.9790536121
  0
ARC
  5
F4
330
D7
100
AcDbEntity
  8
0
  6
Continuous
 62
     7
370
    25
100
AcDbCircle
 10
60.0
 20
3.1095328374
 30
0.0
 40
5.000000000000021
100
AcDbArc
 50
105.0209463879
 51
180.0
  0
ARC
  5
F5
330
D7
100
AcDbEntity
  8
0
  6
Continuous
 62
     7
370
    25
100
AcDbCircle
 10
-60.0
 20
3.1095328374
 30
0.0
 40
5.000000000000036
100
AcDbArc
 50
0.0
 51
74.9790536121
  0
ARC
  5
F6
330
D7
100
AcDbEntity
  8
0
  6
Continuous
 62
     7
370
    25
100
AcDbCircle
 10
53.0
 20
2.0
 30
0.0
 40
2.000000000000007
100
AcDbArc
 50
270.0
 51
0.0
  0
ARC
  5
F7
330
D7
100
AcDbEntity
  8
0
  6
Continuous
 62
     7
370
    25
100
AcDbCircle
 10
-53.0
 20
2.0
 30
0.0
 40
2.0
100
AcDbArc
 50
180.0
 51
270.0
  0
VIEWPORT
  5
15A
330
D7
100
AcDbEntity
  8
0
100
AcDbViewport
 10
0.0
 20
0.0
 30
0.0
 40
205.6
 41
156.0
 68
     1
 69
     1
 12
0.0000175649
 22
69.9999922628
 13
0.0
 23
0.0
 14
10.0
 24
10.0
 15
10.0
 25
10.0
 16
0.0
 26
0.0
 36
1.0
 17
0.0
 27
0.0
 37
0.0
 42
50.0
 43
0.0
 44
0.0
 45
247.4860536367
 50
0.0
 51
0.0
 72
   100
 90
   557152
  1

281
     0
 71
     1
 74
     0
110
0.0
120
0.0
130
0.0
111
1.0
121
0.0
131
0.0
112
0.0
122
1.0
132
0.0
 79
     0
146
0.0
  0
ENDBLK
  5
DA
330
D7
100
AcDbEntity
  8
0
100
AcDbBlockEnd
  0
BLOCK
  5
FA
330
F8
100
AcDbEntity
  8
0
100
AcDbBlockBegin
  2
*Paper_Space3
 70
     0
 10
0.0
 20
0.0
 30
0.0
  3
*Paper_Space3
  1

  0
CIRCLE
  5
FD
330
F8
100
AcDbEntity
  8
0
  6
Continuous
 62
     7
370
    25
100
AcDbCircle
 10
0.0
 20
-0.0000000318
 30
0.0
 40
53.0
  0
CIRCLE
  5
FE
330
F8
100
AcDbEntity
  8
0
  6
Continuous
 62
     7
370
    25
100
AcDbCircle
 10
0.0
 20
-0.0000000318
 30
0.0
 40
24.49999999999999
  0
CIRCLE
  5
FF
330
F8
100
AcDbEntity
  8
0
  6
Continuous
 62
     7
370
    25
100
AcDbCircle
 10
-38.0
 20
-0.0000000318
 30
0.0
 40
6.999999999999997
  0
CIRCLE
  5
100
330
F8
100
AcDbEntity
  8
0
  6
Continuous
 62
     7
370
    25
100
AcDbCircle
 10
38.0
 20
-0.0000000318
 30
0.0
 40
6.999999999999997
  0
CIRCLE
  5
101
330
F8
100
AcDbEntity
  8
0
  6
Continuous
 62
     7
370
    25
100
AcDbCircle
 10
0.0
 20
-0.0000000318
 30
0.0
 40
54.99999999999999
  0
CIRCLE
  5
102
330
F8
100
AcDbEntity
  8
0
  6
Continuous
 62
     7
370
    25
100
AcDbCircle
 10
0.0
 20
-0.0000000318
 30
0.0
 40
22.50000000000001
  0
CIRCLE
  5
103
330
F8
100
AcDbEntity
  8
0
  6
Continuous
 62
     7
370
    25
100
AcDbCircle
 10
0.0
 20
-0.0000000318
 30
0.0
 40
58.70413922859829
  0
LWPOLYLINE
  5
104
330
F8
100
AcDbEntity
  8
0
  6
Continuous
 62
     7
370
    25
100
AcDbPolyline
 90
       81
 70
   128
 43
0.0
 10
-12.5447590974
 20
159.3962774263
 10
-25.0121755835
 20
157.9206614438
 10
-37.3253836897
 20
155.4714120693
 10
-49.4084683935
 20
152.0636297398
 10
-61.1869334596
 20
147.7183245664
 10
-72.5881607343
 20
142.4622868006
 10
-83.54185786
 20
136.3279216629
 10
-93.9804916515
 20
129.3530495544
 10
-103.8397044603
 20
121.5806728809
 10
-113.0587109609
 20
113.0587109292
 10
-121.5806729126
 20
103.8397044286
 10
-129.3530495861
 20
93.9804916197
 10
-136.3279216947
 20
83.5418578282
 10
-142.4622868324
 20
72.5881607025
 10
-147.7183245982
 20
61.1869334278
 10
-152.0636297716
 20
49.4084683617
 10
-155.4714121011
 20
37.3253836579
 10
-157.9206614755
 20
25.0121755517
 10
-159.396277458
 20
12.5447590657
 10
-159.8891623854
 20
-0.0000000318
 10
-159.396277458
 20
-12.5447591292
 10
-157.9206614755
 20
-25.0121756153
 10
-155.4714121011
 20
-37.3253837214
 10
-152.0636297716
 20
-49.4084684252
 10
-147.7183245982
 20
-61.1869334914
 10
-142.4622868324
 20
-72.588160766
 10
-136.3279216947
 20
-83.5418578918
 10
-129.3530495861
 20
-93.9804916833
 10
-121.5806729126
 20
-103.8397044921
 10
-113.0587109609
 20
-113.0587109927
 10
-103.8397044603
 20
-121.5806729444
 10
-93.9804916515
 20
-129.3530496179
 10
-83.54185786
 20
-136.3279217265
 10
-72.5881607343
 20
-142.4622868641
 10
-61.1869334596
 20
-147.71832463
 10
-49.4084683934
 20
-152.0636298033
 10
-37.3253836897
 20
-155.4714121329
 10
-25.0121755835
 20
-157.9206615073
 10
-12.5447590974
 20
-159.3962774898
 10
0.0
 20
-159.8891624171
 10
12.5447590974
 20
-159.3962774898
 10
25.0121755835
 20
-157.9206615073
 10
37.3253836897
 20
-155.4714121329
 10
49.4084683935
 20
-152.0636298033
 10
61.1869334596
 20
-147.71832463
 10
72.5881607343
 20
-142.4622868641
 10
83.54185786
 20
-136.3279217264
 10
93.9804916515
 20
-129.3530496179
 10
103.8397044603
 20
-121.5806729444
 10
113.0587109609
 20
-113.0587109927
 10
121.5806729126
 20
-103.8397044921
 10
129.3530495861
 20
-93.9804916833
 10
136.3279216947
 20
-83.5418578917
 10
142.4622868324
 20
-72.588160766
 10
147.7183245982
 20
-61.1869334914
 10
152.0636297716
 20
-49.4084684252
 10
155.4714121011
 20
-37.3253837214
 10
157.9206614755
 20
-25.0121756152
 10
159.396277458
 20
-12.5447591292
 10
159.8891623854
 20
-0.0000000318
 10
159.396277458
 20
12.5447590657
 10
157.9206614755
 20
25.0121755517
 10
155.4714121011
 20
37.3253836579
 10
152.0636297716
 20
49.4084683617
 10
147.7183245982
 20
61.1869334279
 10
142.4622868324
 20
72.5881607025
 10
136.3279216947
 20
83.5418578282
 10
129.3530495861
 20
93.9804916198
 10
121.5806729126
 20
103.8397044286
 10
113.0587109609
 20
113.0587109292
 10
103.8397044603
 20
121.5806728809
 10
93.9804916515
 20
129.3530495544
 10
83.54185786
 20
136.3279216629
 10
72.5881607343
 20
142.4622868006
 10
61.1869334596
 20
147.7183245664
 10
49.4084683934
 20
152.0636297398
 10
37.3253836897
 20
155.4714120693
 10
25.0121755835
 20
157.9206614438
 10
12.5447590974
 20
159.3962774263
 10
0.0
 20
159.8891623536
 10
0.0
 20
159.8891623536
  0
SPLINE
  5
107
330
F8
100
AcDbEntity
  8
0
  6
Continuous
 62
     8
370
    25
100
AcDbSpline
210
0.0
220
0.0
230
1.0
 70
     8
 71
     3
 72
     9
 73
     5
 74
     0
 42
0.000000001
 43
0.00000001
 40
0.0
 40
0.0
 40
0.0
 40
0.0
 40
0.5
 40
1.0
 40
1.0
 40
1.0
 40
1.0
 10
-0.0000000000086708
 20
159.8891623535973
 30
0.0
 10
-2.092944241429783
 20
159.8891623535972
 30
0.0
 10
-6.278832724144168
 20
159.8069620583059
 30
0.0
 10
-10.4582667047016
 20
159.5604879388595
 30
0.0
 10
-12.54475909751116
 20
159.3962774262678
 30
0.0
  0
LINE
  5
108
330
F8
100
AcDbEntity
  8
0
  6
Continuous
 62
     7
370
    25
100
AcDbLine
 10
-0.3254214152
 20
159.8805937309
 30
0.0
 11
-12.2196138282
 21
159.4128050486
 31
0.0
  0
ARC
  5
109
330
F8
100
AcDbEntity
  8
0
  6
Continuous
 62
     7
370
    25
100
AcDbCircle
 10
0.0
 20
-0.0000000318
 30
0.0
 40
36.11736736705861
100
AcDbArc
 50
169.5583750255
 51
190.4416249745
  0
ARC
  5
10A
330
F8
100
AcDbEntity
  8
0
  6
Continuous
 62
     7
370
    25
100
AcDbCircle
 10
0.0
 20
-0.0000000318
 30
0.0
 40
36.11736736705818
100
AcDbArc
 50
349.5583750255
 51
10.4416249745
  0
VIEWPORT
  5
15C
330
F8
100
AcDbEntity
  8
0
100
AcDbViewport
 10
0.0
 20
0.0
 30
0.0
 40
205.6
 41
156.0
 68
     1
 69
     1
 12
0.0000175649
 22
69.9999922628
 13
0.0
 23
0.0
 14
10.0
 24
10.0
 15
10.0
 25
10.0
 16
0.0
 26
0.0
 36
1.0
 17
0.0
 27
0.0
 37
0.0
 42
50.0
 43
0.0
 44
0.0
 45
247.4860536367
 50
0.0
 51
0.0
 72
   100
 90
   557152
  1

281
     0
 71
     1
 74
     0
110
0.0
120
0.0
130
0.0
111
1.0
121
0.0
131
0.0
112
0.0
122
1.0
132
0.0
 79
     0
146
0.0
  0
ENDBLK
  5
FB
330
F8
100
AcDbEntity
  8
0
100
AcDbBlockEnd
  0
BLOCK
  5
10D
330
10B
100
AcDbEntity
  8
0
100
AcDbBlockBegin
  2
*Paper_Space4
 70
     0
 10
0.0
 20
0.0
 30
0.0
  3
*Paper_Space4
  1

  0
SPLINE
  5
110
330
10B
100
AcDbEntity
  8
0
  6
Continuous
 62
     7
370
    25
100
AcDbSpline
210
0.0
220
0.0
230
1.0
 70
     8
 71
     3
 72
    85
 73
    81
 74
     0
 42
0.000000001
 43
0.00000001
 40
0.0
 40
0.0
 40
0.0
 40
0.0
 40
0.0146483869215829
 40
0.0288553147832857
 40
0.0412481532115784
 40
0.0524028468447905
 40
0.0627185946042108
 40
0.0721964240492977
 40
0.0830402915100419
 40
0.0938154409346211
 40
0.1048119102316588
 40
0.1172656189247233
 40
0.1313162338972355
 40
0.140941125635904
 40
0.1506373005838927
 40
0.1590815869344171
 40
0.1662183466578934
 40
0.1720497952969666
 40
0.1765350605259527
 40
0.1813509956848286
 40
0.1874058657029527
 40
0.1946988320792978
 40
0.2049935968167749
 40
0.2166681116054586
 40
0.2274865170550768
 40
0.2370768097141128
 40
0.2454402887819754
 40
0.2525778685560398
 40
0.2625995625786297
 40
0.2743201954357099
 40
0.287831106103392
 40
0.3029605887200192
 40
0.3180715569177677
 40
0.3372124916958471
 40
0.3556256655841299
 40
0.3734508460258831
 40
0.3976743047368798
 40
0.4218773019532357
 40
0.4460693917136011
 40
0.4702584524896833
 40
0.4944535018533375
 40
0.5186540493188233
 40
0.5428448424357987
 40
0.5670345170484606
 40
0.591230956652473
 40
0.6154764572810646
 40
0.6327360639342464
 40
0.6503031587499052
 40
0.6681798521647204
 40
0.6856107064388538
 40
0.695665349572869
 40
0.7050113287452621
 40
0.7136485681845162
 40
0.72167329490388
 40
0.7305504209940167
 40
0.7414399538131231
 40
0.753849165735654
 40
0.7677511793890388
 40
0.7816074132984348
 40
0.7944804326033018
 40
0.8063706029397839
 40
0.8191921661629133
 40
0.8310008662725197
 40
0.8419039994641829
 40
0.8533058744394506
 40
0.8675023245727477
 40
0.8830114347497516
 40
0.8998103497477113
 40
0.9179003872897183
 40
0.9250130813780516
 40
0.9313240381954249
 40
0.9368326109120791
 40
0.941538422571312
 40
0.9458161255268412
 40
0.9509017568734749
 40
0.9577097472500712
 40
0.9662412489760958
 40
0.9764975157134296
 40
0.9884799546963431
 40
0.9999999999999999
 40
0.9999999999999999
 40
0.9999999999999999
 40
0.9999999999999999
 10
159.8259897351064
 20
107.6355329685339
 30
0.0
 10
159.8607368861674
 20
109.1986943242255
 30
0.0
 10
159.9291840119196
 20
112.2779079753266
 30
0.0
 10
159.5450652347696
 20
116.6168711588622
 30
0.0
 10
158.9626996090348
 20
120.4510487282185
 30
0.0
 10
158.2297563025696
 20
123.8287293731157
 30
0.0
 10
157.3770963181268
 20
126.9209028973412
 30
0.0
 10
156.3671331625439
 20
129.9701407646038
 30
0.0
 10
155.1673985089964
 20
133.0562248082485
 30
0.0
 10
153.7142743491741
 20
136.2779954388299
 30
0.0
 10
151.9824229563429
 20
139.6383739001343
 30
0.0
 10
149.8621612778921
 20
143.2529738496204
 30
0.0
 10
147.5762831679739
 20
146.670146204002
 30
0.0
 10
145.2681503499743
 20
149.7678820995757
 30
0.0
 10
143.2155177450147
 20
152.3049762894248
 30
0.0
 10
141.2348541592663
 20
154.5794503694635
 30
0.0
 10
139.4780055660566
 20
156.4779466225957
 30
0.0
 10
137.9940063352686
 20
158.0047904367635
 30
0.0
 10
136.6742642713074
 20
159.3118315197989
 30
0.0
 10
135.3066529934486
 20
160.6214081182025
 30
0.0
 10
133.6456615130921
 20
162.1515615299267
 30
0.0
 10
131.414220746733
 20
164.1134279272581
 30
0.0
 10
128.5391467215192
 20
166.4931437399851
 30
0.0
 10
125.1621735583894
 20
169.0899704468252
 30
0.0
 10
121.7063979330658
 20
171.5582768468544
 30
0.0
 10
118.4883623517558
 20
173.7098295053596
 30
0.0
 10
115.5938880465265
 20
175.536605331051
 30
0.0
 10
112.5753049547798
 20
177.3494795953877
 30
0.0
 10
109.0704452683678
 20
179.3418973450027
 30
0.0
 10
104.652883513997
 20
181.6844627502698
 30
0.0
 10
99.41775865278419
 20
184.2441579498119
 30
0.0
 10
93.5338971336937
 20
186.8642449346906
 30
0.0
 10
86.66067627200069
 20
189.629638629607
 30
0.0
 10
79.0678018797316
 20
192.3396625494713
 30
0.0
 10
70.81227239442423
 20
194.9042019820843
 30
0.0
 10
61.54396116127073
 20
197.3951698784973
 30
0.0
 10
51.09558952252024
 20
199.7222170013657
 30
0.0
 10
39.34567528892581
 20
201.7512625400173
 30
0.0
 10
27.37114020699859
 20
203.2472135508889
 30
0.0
 10
15.23751557108188
 20
204.2015640681821
 30
0.0
 10
3.013485089547532
 20
204.6112397649293
 30
0.0
 10
-9.22861188390138
 20
204.4715480395171
 30
0.0
 10
-21.41565313334072
 20
203.7847154818213
 30
0.0
 10
-33.47686653214222
 20
202.5548063549679
 30
0.0
 10
-45.3508143233629
 20
200.7858462619018
 30
0.0
 10
-55.85249641495224
 20
198.7089559041737
 30
0.0
 10
-65.06080297688189
 20
196.4824264638185
 30
0.0
 10
-73.0785895769183
 20
194.2323719724157
 30
0.0
 10
-80.89536889538047
 20
191.7132517936927
 30
0.0
 10
-87.38605635325531
 20
189.3345131561152
 30
0.0
 10
-92.50606822994494
 20
187.2699428563562
 30
0.0
 10
-96.32028203421662
 20
185.6279999152355
 30
0.0
 10
-99.7839727970939
 20
184.0455957047575
 30
0.0
 10
-103.1156527720099
 20
182.4384950135437
 30
0.0
 10
-106.6626490513642
 20
180.6314795960366
 30
0.0
 10
-110.6574708267233
 20
178.4630423190261
 30
0.0
 10
-115.1164559400128
 20
175.8551812492595
 30
0.0
 10
-119.7268361577342
 20
172.9220203369608
 30
0.0
 10
-124.1659396717755
 20
169.8341424895036
 30
0.0
 10
-128.1737854919755
 20
166.7919410626558
 30
0.0
 10
-131.8776736182112
 20
163.73792131165
 30
0.0
 10
-135.2817302051926
 20
160.6816941150583
 30
0.0
 10
-138.3992637447373
 20
157.6259657070102
 30
0.0
 10
-141.2174606639488
 20
154.6208641677405
 30
0.0
 10
-144.0466960464272
 20
151.3305100540919
 30
0.0
 10
-146.9813497054514
 20
147.5369741770356
 30
0.0
 10
-149.9571840326009
 20
143.1422123164566
 30
0.0
 10
-152.7645629781
 20
138.2735805159642
 30
0.0
 10
-154.7189296811176
 20
134.1348618140839
 30
0.0
 10
-155.9698936170157
 20
130.9991905143261
 30
0.0
 10
-156.6510214307963
 20
129.1102493680706
 30
0.0
 10
-157.1913708980586
 20
127.4585419020428
 30
0.0
 10
-157.623911791075
 20
126.0093675350074
 30
0.0
 10
-158.0081251645342
 20
124.6048647777422
 30
0.0
 10
-158.4173645347842
 20
122.9540738026955
 30
0.0
 10
-158.8677633438558
 20
120.8552074102968
 30
0.0
 10
-159.324157264501
 20
118.2084196692286
 30
0.0
 10
-159.7027185811902
 20
115.0161002174454
 30
0.0
 10
-159.9293106846851
 20
111.5077297739919
 30
0.0
 10
-159.8642491493659
 20
109.0707902653568
 30
0.0
 10
-159.832358400062
 20
107.876292985859
 30
0.0
  0
SPLINE
  5
112
330
10B
100
AcDbEntity
  8
0
  6
Continuous
 62
     7
370
    25
100
AcDbSpline
210
0.0
220
0.0
230
1.0
 70
     8
 71
     3
 72
    79
 73
    75
 74
     0
 42
0.000000001
 43
0.00000001
 40
0.0
 40
0.0
 40
0.0
 40
0.0
 40
0.0131964790945108
 40
0.0267592367658947
 40
0.0406907641835006
 40
0.0540137246072036
 40
0.0650550916753151
 40
0.0737849317995857
 40
0.0797437445335022
 40
0.0867977321487272
 40
0.0954746648899187
 40
0.1057765992903936
 40
0.1169625277215031
 40
0.1273820298532526
 40
0.1369736117893758
 40
0.1482567222342455
 40
0.1581218695396924
 40
0.1677712883127195
 40
0.1783579900913682
 40
0.1898831833540465
 40
0.2023482729594733
 40
0.2127825981028023
 40
0.2225622108167593
 40
0.2309717706084569
 40
0.2380093657898204
 40
0.2436735988913235
 40
0.2488830101833654
 40
0.2571758779746165
 40
0.2673733827901293
 40
0.2794650155930138
 40
0.2921889402558626
 40
0.3046965460249378
 40
0.3169869876785612
 40
0.3450903923980337
 40
0.3723732207345845
 40
0.4029760217132974
 40
0.4332288063553257
 40
0.4634509154602525
 40
0.4936781318289081
 40
0.5239074813849584
 40
0.5541316352644908
 40
0.5843504717280816
 40
0.6145612007315434
 40
0.6349448688689502
 40
0.6560443961162195
 40
0.677868786088394
 40
0.7001401583584288
 40
0.7209007876024196
 40
0.739770868189355
 40
0.7513871541748758
 40
0.7621371497507343
 40
0.7721305026880163
 40
0.7836334131186802
 40
0.7975432588396593
 40
0.8101582267805728
 40
0.8241246614642407
 40
0.8374673987027645
 40
0.8495186006435971
 40
0.8602800248350237
 40
0.8709457219978055
 40
0.8806826069697704
 40
0.8915563573349167
 40
0.9036904925323133
 40
0.9164559226239793
 40
0.9220927169378381
 40
0.9275023186789033
 40
0.9326849215669676
 40
0.9376406958712467
 40
0.9427079474649819
 40
0.949167863846868
 40
0.9587267178968321
 40
0.9703875205860656
 40
0.9841464771824302
 40
1.0
 40
1.0
 40
1.0
 40
1.0
 10
148.4424746713409
 20
101.0488061873246
 30
0.0
 10
148.2368860460654
 20
100.076070911348
 30
0.0
 10
147.8200025227618
 20
98.10360133260845
 30
0.0
 10
146.9069163102831
 20
94.99267233501449
 30
0.0
 10
145.7349225843708
 20
91.78136075342542
 30
0.0
 10
144.3811546089912
 20
88.72209438180849
 30
0.0
 10
143.0558964868941
 20
86.12126840300598
 30
0.0
 10
141.922244909694
 20
84.11563184551147
 30
0.0
 10
140.9018961393992
 20
82.43545770867757
 30
0.0
 10
139.8308327056692
 20
80.77501283211015
 30
0.0
 10
138.466694078972
 20
78.801930457643
 30
0.0
 10
136.7766630439645
 20
76.54380736535502
 30
0.0
 10
134.8590913412698
 20
74.18888601364141
 30
0.0
 10
132.855483729048
 20
71.91762785878637
 30
0.0
 10
130.7276969518838
 20
69.67044488015438
 30
0.0
 10
128.5172490769576
 20
67.49584720882542
 30
0.0
 10
126.1805173023896
 20
65.35132390795879
 30
0.0
 10
123.785686128658
 20
63.28661394595196
 30
0.0
 10
121.1414196580726
 20
61.14671528243251
 30
0.0
 10
118.1271143793144
 20
58.86667060671251
 30
0.0
 10
114.9841190727586
 20
56.65410209642172
 30
0.0
 10
111.8759340578228
 20
54.60908725236386
 30
0.0
 10
109.0603556700397
 20
52.86305994924066
 30
0.0
 10
106.5065099557173
 20
51.36122349488982
 30
0.0
 10
104.3182425911076
 20
50.13111455228066
 30
0.0
 10
102.4259828949161
 20
49.10608799862622
 30
0.0
 10
100.367091276535
 20
48.02569384304997
 30
0.0
 10
97.77307240837882
 20
46.71735205382404
 30
0.0
 10
94.34478197801921
 20
45.08002620448619
 30
0.0
 10
90.31320036460559
 20
43.27843879063771
 30
0.0
 10
85.8948382772855
 20
41.44737213338262
 30
0.0
 10
81.33482801212355
 20
39.70072621110501
 30
0.0
 10
74.75142655233316
 20
37.3723012971834
 30
0.0
 10
66.02121654926613
 20
34.67745612550194
 30
0.0
 10
54.47556636815436
 20
31.77646616151665
 30
0.0
 10
42.23392757126412
 20
29.38544720516463
 30
0.0
 10
29.2470243412241
 20
27.56640976991952
 30
0.0
 10
16.08179268598077
 20
26.417990416042
 30
0.0
 10
2.793129684108262
 20
25.93864156954347
 30
0.0
 10
-10.51794913303818
 20
26.13513520879062
 30
0.0
 10
-23.74487137943972
 20
27.00336848111213
 30
0.0
 10
-36.78097796638084
 20
28.53717200655489
 30
0.0
 10
-48.14360335675215
 20
30.48659745182857
 30
0.0
 10
-57.96177132279538
 20
32.63465404733924
 30
0.0
 10
-66.41081340134066
 20
34.82869621618697
 30
0.0
 10
-74.84308582043862
 20
37.39424716319514
 30
0.0
 10
-82.92327028245677
 20
40.24826774198596
 30
0.0
 10
-90.31353873064973
 20
43.24208921055526
 30
0.0
 10
-96.16414658285451
 20
45.91562985539116
 30
0.0
 10
-100.6929727321703
 20
48.18069363325411
 30
0.0
 10
-104.1393947011503
 20
50.02116783282442
 30
0.0
 10
-107.4704281151024
 20
51.91122276790694
 30
0.0
 10
-111.0019768301525
 20
54.0449381337715
 30
0.0
 10
-114.6371120697539
 20
56.4103531904226
 30
0.0
 10
-118.3290302943344
 20
59.0077418219705
 30
0.0
 10
-121.7897752741089
 20
61.64414576383777
 30
0.0
 10
-125.0125365068829
 20
64.31395588215358
 30
0.0
 10
-127.805469813352
 20
66.82162461374354
 30
0.0
 10
-130.2488537061061
 20
69.1850568243276
 30
0.0
 10
-132.3947576410919
 20
71.41644191653201
 30
0.0
 10
-134.4224172789379
 20
73.68039336541207
 30
0.0
 10
-136.4251988109737
 20
76.09218960777736
 30
0.0
 10
-138.4583912951298
 20
78.76978335742268
 30
0.0
 10
-140.0480015782832
 20
81.09256897734845
 30
0.0
 10
-141.2018244152688
 20
82.9230983843662
 30
0.0
 10
-141.9531005701027
 20
84.17854404281634
 30
0.0
 10
-142.6402724579084
 20
85.38805015079527
 30
0.0
 10
-143.2821798629671
 20
86.57791821457627
 30
0.0
 10
-143.9435704867707
 20
87.87167838933225
 30
0.0
 10
-144.7225402503489
 20
89.49998186741803
 30
0.0
 10
-145.6496179365905
 20
91.63071543219495
 30
0.0
 10
-146.6650536567325
 20
94.32313655074168
 30
0.0
 10
-147.6725252919841
 20
97.51088238608833
 30
0.0
 10
-148.1740013234898
 20
99.81516892387899
 30
0.0
 10
-148.4424746788213
 20
101.0488062257218
 30
0.0
  0
SPLINE
  5
113
330
10B
100
AcDbEntity
  8
0
  6
Continuous
 62
     7
370
    25
100
AcDbSpline
210
0.0
220
0.0
230
1.0
 70
     8
 71
     3
 72
    78
 73
    74
 74
     0
 42
0.000000001
 43
0.00000001
 40
0.0
 40
0.0
 40
0.0
 40
0.0
 40
0.0071534852937463
 40
0.020826195484927
 40
0.0344679203588797
 40
0.0480806952313903
 40
0.0616666246591441
 40
0.0752279061311194
 40
0.0887668561348969
 40
0.1022859388479213
 40
0.1157877976827677
 40
0.1292752898591195
 40
0.1427515240650245
 40
0.1562199010814733
 40
0.169684156942281
 40
0.1831484077395645
 40
0.1966171945045017
 40
0.2100955256228878
 40
0.2235889129089099
 40
0.2371033956928734
 40
0.2506455450563672
 40
0.2642224377500156
 40
0.277841586628383
 40
0.2915108122412187
 40
0.3052380396364091
 40
0.3190310072065946
 40
0.332896882913689
 40
0.3468417999809199
 40
0.3608703505947281
 40
0.3749851103963887
 40
0.3891863004524094
 40
0.4034717111499797
 40
0.4178369937870184
 40
0.4322763564267228
 40
0.4467835879423367
 40
0.4613532140042254
 40
0.4759808587201167
 40
0.4906652305377033
 40
0.5054082434053906
 40
0.5202132957457749
 40
0.5350832342932189
 40
0.5500206992016742
 40
0.5650261235395674
 40
0.5800956640217216
 40
0.5952193560639908
 40
0.6103837026342891
 40
0.625571744367393
 40
0.6407646427459519
 40
0.655943506725683
 40
0.6710910346513965
 40
0.6861926602097727
 40
0.7012370891178139
 40
0.7162162978481921
 40
0.7311251689452272
 40
0.7459609517693728
 40
0.7607226954950249
 40
0.7754107420337606
 40
0.7900263157820133
 40
0.8045712138899912
 40
0.8190475839137474
 40
0.8334577701454182
 40
0.8478042105371304
 40
0.8620893693326311
 40
0.876315694230114
 40
0.890485590168274
 40
0.9046014043586394
 40
0.918665419002685
 40
0.9326798493714965
 40
0.9466468457459596
 40
0.9605684982495415
 40
0.9744468439531878
 40
0.9882838758612285
 40
1.0
 40
1.0
 40
1.0
 40
1.0
 10
-159.7876103738004
 20
107.1885740893923
 30
0.0
 10
-159.738247277062
 20
106.0589693259236
 30
0.0
 10
-159.5945347425142
 20
102.7703109085685
 30
0.0
 10
-159.0398290423324
 20
97.34768821879143
 30
0.0
 10
-158.1482603445983
 20
90.94031410203397
 30
0.0
 10
-156.9594931288398
 20
84.59411456282707
 30
0.0
 10
-155.4963259932913
 20
78.31947467826417
 30
0.0
 10
-153.7584150506295
 20
72.12763213866069
 30
0.0
 10
-151.7520775480213
 20
66.02915838484539
 30
0.0
 10
-149.4822905133559
 20
60.03433665864337
 30
0.0
 10
-146.9547853031505
 20
54.15303520570445
 30
0.0
 10
-144.1754401747846
 20
48.39471772427625
 30
0.0
 10
-141.1503907305348
 20
42.76842000111407
 30
0.0
 10
-137.8859440124784
 20
37.28273913356774
 30
0.0
 10
-134.3885407678152
 20
31.9458237856133
 30
0.0
 10
-130.664700836694
 20
26.7653696384194
 30
0.0
 10
-126.7209698391673
 20
21.74862024631439
 30
0.0
 10
-122.5638637023719
 20
16.90237484389279
 30
0.0
 10
-118.1998142671233
 20
12.2330045690512
 30
0.0
 10
-113.6351186676975
 20
7.746478811051754
 30
0.0
 10
-108.8758969596635
 20
3.448403406835984
 30
0.0
 10
-103.928064002996
 20
-0.6559277982372616
 30
0.0
 10
-98.7973234476891
 20
-4.561467139408755
 30
0.0
 10
-93.48919331863783
 20
-8.263333440118794
 30
0.0
 10
-88.0090736073569
 20
-11.75672090662542
 30
0.0
 10
-82.36236547590151
 20
-15.03680216204174
 30
0.0
 10
-76.55464785705895
 20
-18.09863494199177
 30
0.0
 10
-70.59190898842333
 20
-20.93708625395697
 30
0.0
 10
-64.48081691563064
 20
-23.54679108778137
 30
0.0
 10
-58.22899515213189
 20
-25.92216294685603
 30
0.0
 10
-51.84525150649377
 20
-28.05746806403599
 30
0.0
 10
-45.33969728440886
 20
-29.94696255115213
 30
0.0
 10
-38.72370029744736
 20
-31.58507303572929
 30
0.0
 10
-32.00964504505153
 20
-32.96658190236116
 30
0.0
 10
-25.21052442204228
 20
-34.08676685121826
 30
0.0
 10
-18.33954701227726
 20
-34.94143655134916
 30
0.0
 10
-11.40956457828459
 20
-35.52689787791017
 30
0.0
 10
-4.432639948365097
 20
-35.83979492446718
 30
0.0
 10
2.580057194280776
 20
-35.87685615572858
 30
0.0
 10
9.617701842570012
 20
-35.63467009190333
 30
0.0
 10
16.66928790880072
 20
-35.10961088856555
 30
0.0
 10
23.72305687905458
 20
-34.29789703759798
 30
0.0
 10
30.76592674429462
 20
-33.19579185664014
 30
0.0
 10
37.78260374411018
 20
-31.80004337941104
 30
0.0
 10
44.75546085115538
 20
-30.10840116439179
 30
0.0
 10
51.6647875434869
 20
-28.12010021732578
 30
0.0
 10
58.48958123100617
 20
-25.8361446544171
 30
0.0
 10
65.20822227868977
 20
-23.2594975174843
 30
0.0
 10
71.79936671146517
 20
-20.39503021317855
 30
0.0
 10
78.24273093341549
 20
-17.24929739419199
 30
0.0
 10
84.51963670011155
 20
-13.83021592090553
 30
0.0
 10
90.61327388738857
 20
-10.14673243642354
 30
0.0
 10
96.50871845761662
 20
-6.20854137292081
 30
0.0
 10
102.1927871604749
 20
-2.0258807892925
 30
0.0
 10
107.6538156790903
 20
2.390595979938542
 30
0.0
 10
112.8814269587114
 20
7.029891232661754
 30
0.0
 10
117.8663286728772
 20
11.88069862338326
 30
0.0
 10
122.6001550118142
 20
16.931422271956
 30
0.0
 10
127.0753526633977
 20
22.17019150756995
 30
0.0
 10
131.2851034837237
 20
27.58487767419597
 30
0.0
 10
135.2232742886381
 20
33.16311533120513
 30
0.0
 10
138.8843853085729
 20
38.89232784239385
 30
0.0
 10
142.2635898179694
 20
44.7597563842082
 30
0.0
 10
145.3566629359667
 20
50.75249099495964
 30
0.0
 10
148.159986207512
 20
56.85750314260198
 30
0.0
 10
150.6705639946918
 20
63.0616770036109
 30
0.0
 10
152.8859294477581
 20
69.35184647918865
 30
0.0
 10
154.8044627314925
 20
75.71480975114162
 30
0.0
 10
156.4241780935481
 20
82.13742490779438
 30
0.0
 10
157.7471936641919
 20
88.60640174419187
 30
0.0
 10
158.7630920909016
 20
95.10921903833395
 30
0.0
 10
159.4732037586945
 20
101.3038492617793
 30
0.0
 10
159.700677718091
 20
105.336552892102
 30
0.0
 10
159.8049745470911
 20
107.1855478366474
 30
0.0
  0
SPLINE
  5
118
330
10B
100
AcDbEntity
  8
0
  6
Continuous
 62
     8
370
    25
100
AcDbSpline
210
0.0
220
0.0
230
1.0
 70
     8
 71
     3
 72
    17
 73
    13
 74
     0
 42
0.000000001
 43
0.00000001
 40
0.0
 40
0.0
 40
0.0
 40
0.0
 40
0.1037666620263492
 40
0.2075333240526983
 40
0.3112999860790475
 40
0.4150666481053966
 40
0.5188333101317458
 40
0.6225999721580949
 40
0.7263666341844442
 40
0.8301332962107933
 40
0.9338999582371419
 40
1.0
 40
1.0
 40
1.0
 40
1.0
 10
-113.0587109609306
 20
44.55376492823999
 30
0.0
 10
-115.9514391063499
 20
46.30122153790727
 30
0.0
 10
-121.7368953971886
 20
49.79613475724176
 30
0.0
 10
-129.4777449260637
 20
55.51640063485122
 30
0.0
 10
-136.4704224153735
 20
61.54258172758337
 30
0.0
 10
-142.6080955806134
 20
67.87416159189667
 30
0.0
 10
-147.8709162564059
 20
74.46226955741719
 30
0.0
 10
-152.2181869830227
 20
81.26898828115154
 30
0.0
 10
-155.638114440937
 20
88.25138432022156
 30
0.0
 10
-158.0578278598572
 20
95.36757938171228
 30
0.0
 10
-159.4613439220691
 20
101.6985100588833
 30
0.0
 10
-159.6405241675484
 20
105.6534233211757
 30
0.0
 10
-159.7102483774441
 20
107.1923943259372
 30
0.0
  0
SPLINE
  5
119
330
10B
100
AcDbEntity
  8
0
  6
Continuous
 62
     8
370
    25
100
AcDbSpline
210
0.0
220
0.0
230
1.0
 70
     8
 71
     3
 72
    37
 73
    33
 74
     0
 42
0.000000001
 43
0.00000001
 40
0.0
 40
0.0
 40
0.0
 40
0.0
 40
0.0214905392354955
 40
0.0552322447790989
 40
0.0889739503227023
 40
0.1227156558663057
 40
0.1564573614099099
 40
0.1901990669535132
 40
0.2239407724971167
 40
0.2576824780407205
 40
0.2914241835843235
 40
0.3251658891279277
 40
0.3589075946715315
 40
0.3926493002151345
 40
0.4263910057587383
 40
0.4601327113023413
 40
0.4938744168459459
 40
0.5276161223895497
 40
0.5613578279331527
 40
0.5950995334767557
 40
0.6288412390203595
 40
0.662582944563964
 40
0.6963246501075672
 40
0.730066355651171
 40
0.7638080611947741
 40
0.7975497667383779
 40
0.8312914722819816
 40
0.8650331778255854
 40
0.8987748833691893
 40
0.9325165889127923
 40
0.9662582944563962
 40
1.0
 40
1.0
 40
1.0
 40
1.0
 10
159.7102023974706
 20
107.1917187443268
 30
0.0
 10
159.6404853220274
 20
105.6529732966683
 30
0.0
 10
159.4613073807962
 20
101.6982858741477
 30
0.0
 10
158.0578266884058
 20
95.36757773211073
 30
0.0
 10
155.6381040503925
 20
88.2513909417883
 30
0.0
 10
152.2182297166275
 20
81.26896344442686
 30
0.0
 10
147.8707557124984
 20
74.46236228269093
 30
0.0
 10
142.608695022598
 20
67.87381552746982
 30
0.0
 10
136.4681851912945
 20
61.54387325996257
 30
0.0
 10
129.4860943803402
 20
55.51158056970931
 30
0.0
 10
121.7057348040999
 20
49.8141234853809
 30
0.0
 10
113.1750038789404
 20
44.4866300807792
 30
0.0
 10
103.9465154456476
 20
39.56194576089911
 30
0.0
 10
94.07716110034441
 20
35.07043293957981
 30
0.0
 10
83.62779006199472
 20
31.03978326082646
 30
0.0
 10
72.66282581154434
 20
27.4948470273234
 30
0.0
 10
61.24987109738147
 20
24.45747994752764
 30
0.0
 10
49.45929055653135
 20
21.94640840135946
 30
0.0
 10
37.36377703715219
 20
19.97711397476506
 30
0.0
 10
25.03790343280562
 20
18.56173804150295
 30
0.0
 10
12.55766273247971
 20
17.70900679496715
 30
0.0
 10
0.0000002218506628
 20
17.42417786767159
 30
0.0
 10
-12.55766361993461
 20
17.70900635129476
 30
0.0
 10
-25.03790032679133
 20
18.56173981619715
 30
0.0
 10
-37.36378857385671
 20
19.97710731967006
 30
0.0
 10
-49.45924751582842
 20
21.94643324705936
 30
0.0
 10
-61.25003172358784
 20
24.45738721984161
 30
0.0
 10
-72.66222634751834
 20
27.49519309239061
 30
0.0
 10
-83.63002729198529
 20
31.03849172827107
 30
0.0
 10
-94.06881164449688
 20
35.07525300476548
 30
0.0
 10
-103.9776760391318
 20
39.54395703274732
 30
0.0
 10
-110.0316993203309
 20
42.88382896307574
 30
0.0
 10
-113.0587109609305
 20
44.55376492823993
 30
0.0
  0
SPLINE
  5
11A
330
10B
100
AcDbEntity
  8
0
  6
Continuous
 62
     8
370
    25
100
AcDbSpline
210
0.0
220
0.0
230
1.0
 70
     8
 71
     3
 72
    51
 73
    47
 74
     0
 42
0.000000001
 43
0.00000001
 40
0.0
 40
0.0
 40
0.0
 40
0.0
 40
0.0098993964906337
 40
0.0332374250102583
 40
0.0565754535298831
 40
0.0799134820495079
 40
0.1032515105691327
 40
0.1265895390887574
 40
0.1499275676083821
 40
0.1732655961280067
 40
0.1966036246476315
 40
0.2199416531672564
 40
0.2432796816868812
 40
0.2666177102065058
 40
0.2899557387261304
 40
0.3132937672457551
 40
0.3366317957653798
 40
0.3599698242850044
 40
0.3833078528046295
 40
0.4066458813242541
 40
0.4299839098438787
 40
0.4533219383635035
 40
0.476659966883128
 40
0.4999979954027531
 40
0.5233360239223778
 40
0.5466740524420024
 40
0.5700120809616271
 40
0.5933501094812517
 40
0.6166881380008769
 40
0.6400261665205015
 40
0.6633641950401261
 40
0.6867022235597507
 40
0.7100402520793753
 40
0.7333782805990003
 40
0.7567163091186251
 40
0.7800543376382497
 40
0.8033923661578743
 40
0.826730394677499
 40
0.8500684231971241
 40
0.8734064517167487
 40
0.8967444802363734
 40
0.9200825087559981
 40
0.9434205372756227
 40
0.9667585657952479
 40
0.9900965943148724
 40
1.0
 40
1.0
 40
1.0
 40
1.0
 10
148.3301258023614
 20
101.0504537807879
 30
0.0
 10
148.5418598311845
 20
102.0002462726358
 30
0.0
 10
149.2527611383287
 20
105.1891938769639
 30
0.0
 10
149.4949333143305
 20
110.6706115509012
 30
0.0
 10
149.0771925076493
 20
117.4404173668029
 30
0.0
 10
147.6856129606898
 20
124.1721217688777
 30
0.0
 10
145.3981668965401
 20
130.8195926529364
 30
0.0
 10
142.2103634702992
 20
137.3430864626389
 30
0.0
 10
138.1468387198656
 20
143.7020513487229
 30
0.0
 10
133.2313106582307
 20
149.8573712285024
 30
0.0
 10
127.494442854166
 20
155.7710726470823
 30
0.0
 10
120.97150915897
 20
161.4067020622434
 30
0.0
 10
113.7027513099389
 20
166.7295122314625
 30
0.0
 10
105.7329767348563
 20
171.7066867190674
 30
0.0
 10
97.11132358807876
 20
176.3075394662656
 30
0.0
 10
87.89094673418016
 20
180.5037047188889
 30
0.0
 10
78.12869299493596
 20
184.2693117139574
 30
0.0
 10
67.88474987545487
 20
187.5811442345216
 30
0.0
 10
57.22227470103027
 20
190.418783731162
 30
0.0
 10
46.20700517419822
 20
192.7647352129408
 30
0.0
 10
34.90685409522322
 20
194.6045351088194
 30
0.0
 10
23.39149065300559
 20
195.926840440656
 30
0.0
 10
11.73191089246238
 20
196.7234987563658
 30
0.0
 10
0.0000000000084655
 20
196.9895983925175
 30
0.0
 10
-11.7319108924456
 20
196.7234987563666
 30
0.0
 10
-23.39149065298884
 20
195.9268404406576
 30
0.0
 10
-34.9068540952067
 20
194.6045351088215
 30
0.0
 10
-46.20700517418224
 20
192.7647352129439
 30
0.0
 10
-57.22227470101461
 20
190.4187837311657
 30
0.0
 10
-67.88474987543994
 20
187.5811442345261
 30
0.0
 10
-78.12869299492115
 20
184.2693117139626
 30
0.0
 10
-87.8909467341678
 20
180.5037047188944
 30
0.0
 10
-97.11132358806084
 20
176.3075394662722
 30
0.0
 10
-105.7329767348634
 20
171.7066867190732
 30
0.0
 10
-113.7027513098569
 20
166.7295122314739
 30
0.0
 10
-120.9715091592259
 20
161.4067020622365
 30
0.0
 10
-127.4944428531655
 20
155.7710726471453
 30
0.0
 10
-133.2313106619243
 20
149.8573712283072
 30
0.0
 10
-138.146838706046
 20
143.7020513494928
 30
0.0
 10
-142.2103635218457
 20
137.3430864598085
 30
0.0
 10
-145.398166704143
 20
130.8195926635434
 30
0.0
 10
-147.6856136787084
 20
124.1721217293363
 30
0.0
 10
-149.0771898279563
 20
117.440417514419
 30
0.0
 10
-149.4949433150761
 20
110.6706110000365
 30
0.0
 10
-149.2527157343671
 20
105.1888069944273
 30
0.0
 10
-148.5417133299057
 20
101.9994755753283
 30
0.0
 10
-148.3298889780708
 20
101.0492986752251
 30
0.0
  0
LWPOLYLINE
  5
11C
330
10B
100
AcDbEntity
  8
0
  6
Continuous
 62
     8
370
    25
100
AcDbPolyline
 90
       30
 70
   128
 43
0.0
 10
-37.6074974047
 20
28.792295997
 10
-36.9771934467
 20
29.9869127951
 10
-35.6759267798
 20
31.9259970875
 10
-34.0702856846
 20
33.7874971116
 10
-32.1739689248
 20
35.5555312054
 10
-30.0031552063
 20
37.2150151254
 10
-27.5763651464
 20
38.7517907399
 10
-24.9143032622
 20
40.1527468213
 10
-22.0396813272
 20
41.4059309062
 10
-18.977024602
 20
42.5006512699
 10
-15.7524625941
 20
43.4275681442
 10
-12.3935061294
 20
44.1787734011
 10
-8.9288126403
 20
44.7478580223
 10
-5.3879416699
 20
45.1299667785
 10
-1.801102681
 20
45.3218396525
 10
1.801102681
 20
45.3218396525
 10
5.3879416699
 20
45.1299667785
 10
8.9288126403
 20
44.7478580223
 10
12.3935061294
 20
44.1787734011
 10
15.7524625941
 20
43.4275681442
 10
18.977024602
 20
42.5006512699
 10
22.0396813272
 20
41.4059309062
 10
24.9143032622
 20
40.1527468213
 10
27.5763651464
 20
38.7517907399
 10
30.0031552063
 20
37.2150151254
 10
32.1739689248
 20
35.5555312054
 10
34.0702856846
 20
33.7874971116
 10
35.6759267798
 20
31.9259970875
 10
36.9771934467
 20
29.9869127951
 10
37.5803759212
 20
28.849038308
  0
LWPOLYLINE
  5
11D
330
10B
100
AcDbEntity
  8
0
  6
Continuous
 62
     8
370
    25
100
AcDbPolyline
 90
       21
 70
   128
 43
0.0
 10
21.6825462255
 20
33.6972790712
 10
19.3382050102
 20
34.9179544184
 10
16.7888740109
 20
35.9930062738
 10
14.0615767705
 20
36.9110388203
 10
11.1852233183
 20
37.6623206846
 10
8.1903037163
 20
38.238888092
 10
5.1085648575
 20
38.6346292845
 10
1.9726739402
 20
38.8453493072
 10
-1.1841278115
 20
38.8688144752
 10
-4.3283775139
 20
38.7047760519
 10
-7.4267453378
 20
38.3549728856
 10
-10.4463878136
 20
37.8231129767
 10
-13.3552959798
 20
37.1148341727
 10
-16.1226346862
 20
36.2376444049
 10
-18.7190694541
 20
35.2008421032
 10
-21.1170774291
 20
34.01541763
 10
-23.2912391299
 20
32.6939367794
 10
-25.2185079019
 20
31.2504075774
 10
-26.8784542164
 20
29.7001317925
 10
-28.2534822296
 20
28.0595427337
 10
-28.5108922409
 20
27.6960138935
  0
LWPOLYLINE
  5
11F
330
10B
100
AcDbEntity
  8
0
  6
Continuous
 62
     8
370
    25
100
AcDbPolyline
 90
        3
 70
   128
 43
0.0
 10
16.8450944732
 20
28.8936777521
 10
18.7191831103
 20
27.6752792235
 10
19.7296475359
 20
26.8767144799
  0
LWPOLYLINE
  5
120
330
10B
100
AcDbEntity
  8
0
  6
Continuous
 62
     8
370
    25
100
AcDbPolyline
 90
       16
 70
   128
 43
0.0
 10
-19.7099565553
 20
26.8934858515
 10
-18.2743289444
 20
27.9917719114
 10
-16.338520516
 20
29.1775754119
 10
-14.173355074
 20
30.2228834246
 10
-11.8092267951
 20
31.1130221163
 10
-9.2793228582
 20
31.8354958909
 10
-6.6191575688
 20
32.3801628003
 10
-3.8660738166
 20
32.7393769152
 10
-1.0587188626
 20
32.9080956566
 10
1.7634981836
 20
32.8839505833
 10
4.5609595809
 20
32.6672806393
 10
7.2943951034
 20
32.2611273955
 10
9.9254333082
 20
31.6711923532
 10
12.4171401862
 20
30.9057569074
 10
14.7345376346
 20
29.9755660936
 10
16.8450944732
 20
28.8936777521
  0
LWPOLYLINE
  5
121
330
10B
100
AcDbEntity
  8
0
  6
Continuous
 62
     8
370
    25
100
AcDbPolyline
 90
       16
 70
   128
 43
0.0
 10
16.3390930276
 20
26.5626188781
 10
15.9099025767
 20
26.8172570194
 10
13.8761746341
 20
27.857371148
 10
11.640100819
 20
28.7483860479
 10
9.2342881227
 20
29.4773087157
 10
6.6938187117
 20
30.0335098173
 10
4.0557383508
 20
30.4088786884
 10
1.358516192
 20
30.5979416055
 10
-1.358516192
 20
30.5979416055
 10
-4.0557383508
 20
30.4088786884
 10
-6.6938187117
 20
30.0335098173
 10
-9.2342881227
 20
29.4773087157
 10
-11.640100819
 20
28.7483860479
 10
-13.8761746341
 20
27.857371148
 10
-15.9099025767
 20
26.8172570194
 10
-16.1584921991
 20
26.6714711218
  0
LINE
  5
122
330
10B
100
AcDbEntity
  8
0
  6
Continuous
 62
     7
370
    25
100
AcDbLine
 10
-159.8323584001
 20
107.8762929859
 30
0.0
 11
-159.8243583204
 21
107.1957208628
 31
0.0
  0
LINE
  5
123
330
10B
100
AcDbEntity
  8
0
  6
Continuous
 62
     7
370
    25
100
AcDbLine
 10
159.8243583309
 20
107.1957210746
 30
0.0
 11
159.8259897351
 21
107.6355329685
 31
0.0
  0
LINE
  5
124
330
10B
100
AcDbEntity
  8
0
  6
Continuous
 62
     7
370
    25
100
AcDbLine
 10
-159.7102483774
 20
107.1923943259
 30
0.0
 11
-159.7539885402
 21
107.8350664994
 31
0.0
  0
LINE
  5
125
330
10B
100
AcDbEntity
  8
0
  6
Continuous
 62
     7
370
    25
100
AcDbLine
 10
159.7379021706
 20
107.5987102209
 30
0.0
 11
159.7102023975
 21
107.1917187443
 31
0.0
  0
LINE
  5
126
330
10B
100
AcDbEntity
  8
0
  6
Continuous
 62
     7
370
    25
100
AcDbLine
 10
148.1134767274
 20
99.9937524127
 30
0.0
 11
148.3301258024
 21
101.0504537808
 31
0.0
  0
LINE
  5
127
330
10B
100
AcDbEntity
  8
0
  6
Continuous
 62
     7
370
    25
100
AcDbLine
 10
-148.3298889781
 20
101.0492986752
 30
0.0
 11
-148.230976869
 21
100.5668569154
 31
0.0
  0
ARC
  5
128
330
10B
100
AcDbEntity
  8
0
  6
Continuous
 62
     8
370
    25
100
AcDbCircle
 10
11.7853504576
 20
15.5571105223
 30
0.0
 40
20.66446706429258
100
AcDbArc
 50
35.7836319695
 51
61.3833129458
  0
VIEWPORT
  5
15E
330
10B
100
AcDbEntity
  8
0
100
AcDbViewport
 10
0.0
 20
0.0
 30
0.0
 40
205.6
 41
156.0
 68
     1
 69
     1
 12
0.0000175649
 22
69.9999922628
 13
0.0
 23
0.0
 14
10.0
 24
10.0
 15
10.0
 25
10.0
 16
0.0
 26
0.0
 36
1.0
 17
0.0
 27
0.0
 37
0.0
 42
50.0
 43
0.0
 44
0.0
 45
247.4860536367
 50
0.0
 51
0.0
 72
   100
 90
   557152
  1

281
     0
 71
     1
 74
     0
110
0.0
120
0.0
130
0.0
111
1.0
121
0.0
131
0.0
112
0.0
122
1.0
132
0.0
 79
     0
146
0.0
  0
ENDBLK
  5
10E
330
10B
100
AcDbEntity
  8
0
100
AcDbBlockEnd
  0
BLOCK
  5
12B
330
129
100
AcDbEntity
  8
0
100
AcDbBlockBegin
  2
*Paper_Space5
 70
     0
 10
0.0
 20
0.0
 30
0.0
  3
*Paper_Space5
  1

  0
SPLINE
  5
12E
330
129
100
AcDbEntity
  8
0
  6
Continuous
 62
     7
370
    25
100
AcDbSpline
210
0.0
220
0.0
230
1.0
 70
     8
 71
     3
 72
    88
 73
    84
 74
     0
 42
0.000000001
 43
0.00000001
 40
0.0
 40
0.0
 40
0.0
 40
0.0
 40
0.0103631228374759
 40
0.020937190936581
 40
0.0299289860229208
 40
0.0373561528021063
 40
0.0443989257589817
 40
0.0517862109659431
 40
0.0595179627027126
 40
0.0675940626941697
 40
0.0890075530838769
 40
0.1092820022458172
 40
0.1282590802793961
 40
0.146841159830755
 40
0.166210610230058
 40
0.1850385896277412
 40
0.2031478373955042
 40
0.222482676805624
 40
0.2435743926826206
 40
0.2655214135748752
 40
0.2876380787584542
 40
0.3099383103654397
 40
0.3211840966102944
 40
0.3324992065899476
 40
0.3438846325663701
 40
0.3553398273861066
 40
0.36685081116845
 40
0.3773809407436517
 40
0.3849220114443143
 40
0.3912733756403184
 40
0.3964359504060839
 40
0.4016165265457319
 40
0.407974273474678
 40
0.4155090260330294
 40
0.4242205772782506
 40
0.4335622632294262
 40
0.4529026451069748
 40
0.4719275242263239
 40
0.4906748174169561
 40
0.5052206079539481
 40
0.5201073793851562
 40
0.5353371753334993
 40
0.550911487521084
 40
0.5659544541720765
 40
0.5789331842026305
 40
0.5901194924117305
 40
0.5999977799190059
 40
0.6105802414007967
 40
0.6237267658375741
 40
0.6380530657147222
 40
0.6535578633236568
 40
0.6702197567370793
 40
0.6930135302611719
 40
0.7159515731942169
 40
0.7389983275409635
 40
0.7494132113071686
 40
0.7589111135863796
 40
0.7674918526313332
 40
0.775155074758592
 40
0.7821694404168124
 40
0.7903195471905262
 40
0.7999351816486421
 40
0.8100397009483706
 40
0.821381436471394
 40
0.8328275662414248
 40
0.8426757180818426
 40
0.8509023766779041
 40
0.8575052293470343
 40
0.864486810499707
 40
0.8740682384526846
 40
0.8863617360506469
 40
0.8991084633954621
 40
0.9106396612645575
 40
0.9209528975398861
 40
0.9301165309721955
 40
0.9384093177718561
 40
0.9458593353146502
 40
0.950013202530485
 40
0.9561979272796074
 40
0.9644578964089514
 40
0.9747914629373059
 40
0.9871937077198986
 40
1.0
 40
1.0
 40
1.0
 40
1.0
 10
159.8462892892091
 20
113.8092988480594
 30
0.0
 10
159.8702168867633
 20
114.8133328731729
 30
0.0
 10
159.9185591371161
 20
116.8418384134725
 30
0.0
 10
159.7200640084214
 20
119.7205236975778
 30
0.0
 10
159.4063805385543
 20
122.2817194456453
 30
0.0
 10
159.0353924540356
 20
124.4278102350096
 30
0.0
 10
158.6106939578707
 20
126.3982007739771
 30
0.0
 10
158.0886676716221
 20
128.407268609561
 30
0.0
 10
157.4452522577673
 20
130.5076605074194
 30
0.0
 10
156.2472563360575
 20
133.8782026055979
 30
0.0
 10
154.2411551216782
 20
138.3521200544738
 30
0.0
 10
151.0989560376144
 20
143.7182107099995
 30
0.0
 10
147.5274794795288
 20
148.6713765327536
 30
0.0
 10
143.5056396761046
 20
153.3731581584962
 30
0.0
 10
138.9931711948999
 20
157.8928656510506
 30
0.0
 10
134.0265534026344
 20
162.20338451143
 30
0.0
 10
128.6147477221283
 20
166.3296584137177
 30
0.0
 10
122.5236729621687
 20
170.4270963045925
 30
0.0
 10
115.5211674306848
 20
174.5570124092663
 30
0.0
 10
107.6735254670691
 20
178.5909772207775
 30
0.0
 10
99.16585932191693
 20
182.3895466758225
 30
0.0
 10
91.62761692239299
 20
185.299477873042
 30
0.0
 10
85.33045879787704
 20
187.4697219342949
 30
0.0
 10
80.45751940817945
 20
189.0213733510751
 30
0.0
 10
75.45170708067072
 20
190.4889245529922
 30
0.0
 10
70.31923922966466
 20
191.8681553855525
 30
0.0
 10
65.22530389497146
 20
193.1165974219904
 30
0.0
 10
60.65614738185784
 20
194.1364380870064
 30
0.0
 10
56.839947672496
 20
194.9216465303886
 30
0.0
 10
53.83778319088808
 20
195.4999082565337
 30
0.0
 10
51.19080078633423
 20
195.9813483284106
 30
0.0
 10
48.52881511734878
 20
196.4401566289688
 30
0.0
 10
45.47110239094423
 20
196.9350317208363
 30
0.0
 10
41.82347443219351
 20
197.479724013736
 30
0.0
 10
37.66504433470278
 20
198.040724524231
 30
0.0
 10
31.5456250321102
 20
198.7697561218756
 30
0.0
 10
23.6612215129765
 20
199.5149095308178
 30
0.0
 10
14.13703641022096
 20
200.107051773603
 30
0.0
 10
5.365555992815935
 20
200.3763783823242
 30
0.0
 10
-2.723684999830042
 20
200.4026964669135
 30
0.0
 10
-10.21679913494046
 20
200.245467729959
 30
0.0
 10
-17.85920678938428
 20
199.8945130862318
 30
0.0
 10
-25.48581626951996
 20
199.3476670217107
 30
0.0
 10
-32.68091332991273
 20
198.6454593296206
 30
0.0
 10
-39.09100262887751
 20
197.8653342211119
 30
0.0
 10
-44.60272430027791
 20
197.0776169620869
 30
0.0
 10
-49.67715258565761
 20
196.2564437420545
 30
0.0
 10
-55.01016063538695
 20
195.2934761575205
 30
0.0
 10
-60.96788661336954
 20
194.0852169110187
 30
0.0
 10
-67.57869277841205
 20
192.5688205452969
 30
0.0
 10
-74.57655433841128
 20
190.7531250889977
 30
0.0
 10
-82.62994483235403
 20
188.3881957250967
 30
0.0
 10
-91.44310053444515
 20
185.4065702938326
 30
0.0
 10
-100.685655788788
 20
181.7567016923417
 30
0.0
 10
-107.8352874497308
 20
178.4766954300812
 30
0.0
 10
-113.0198459501709
 20
175.8299682429756
 30
0.0
 10
-116.3528895439128
 20
174.0171700746643
 30
0.0
 10
-119.2751622151311
 20
172.3333712171253
 30
0.0
 10
-121.8420396774771
 20
170.7751052722593
 30
0.0
 10
-124.2958315874606
 20
169.2128413394418
 30
0.0
 10
-126.886602497279
 20
167.479248475001
 30
0.0
 10
-129.6982338042639
 20
165.483539811406
 30
0.0
 10
-132.7008131381802
 20
163.2054282834384
 30
0.0
 10
-135.7245357064616
 20
160.7344611213136
 30
0.0
 10
-138.5558025143993
 20
158.22440859888
 30
0.0
 10
-140.9719650982668
 20
155.9058319639459
 30
0.0
 10
-142.8884482005274
 20
153.9332761191542
 30
0.0
 10
-144.5072821567906
 20
152.1648441437536
 30
0.0
 10
-146.1611635602774
 20
150.2527965957272
 30
0.0
 10
-148.1131293194672
 20
147.8263147532307
 30
0.0
 10
-150.2650297374798
 20
144.8639309350567
 30
0.0
 10
-152.3017881336411
 20
141.6806621793803
 30
0.0
 10
-154.0082589524272
 20
138.6227846134981
 30
0.0
 10
-155.3588571241321
 20
135.8453265322449
 30
0.0
 10
-156.424478091365
 20
133.3278455859092
 30
0.0
 10
-157.2558196119436
 20
131.0680598580612
 30
0.0
 10
-157.8288818931277
 20
129.2719707108927
 30
0.0
 10
-158.2879106116105
 20
127.6523977110582
 30
0.0
 10
-158.7233924903396
 20
125.9205259235712
 30
0.0
 10
-159.2032501207816
 20
123.6003934014047
 30
0.0
 10
-159.6332183015427
 20
120.6826838095091
 30
0.0
 10
-159.9180855507432
 20
117.3313795235556
 30
0.0
 10
-159.8684237715853
 20
114.9622643255233
 30
0.0
 10
-159.8431948875186
 20
113.7587203992822
 30
0.0
  0
SPLINE
  5
130
330
129
100
AcDbEntity
  8
0
  6
Continuous
 62
     7
370
    25
100
AcDbSpline
210
0.0
220
0.0
230
1.0
 70
     8
 71
     3
 72
    80
 73
    76
 74
     0
 42
0.000000001
 43
0.00000001
 40
0.0
 40
0.0
 40
0.0
 40
0.0
 40
0.0156710244715653
 40
0.0288357907456158
 40
0.0395156082150107
 40
0.0491596121381421
 40
0.0638678076420418
 40
0.0779736817366583
 40
0.0899575865205722
 40
0.1017369119170999
 40
0.1151887954249469
 40
0.1305759941882337
 40
0.1413786257638181
 40
0.1525714202134623
 40
0.1624692689929561
 40
0.1708798340857925
 40
0.1778007214852318
 40
0.1832299418982907
 40
0.1882673893409378
 40
0.1943817689078496
 40
0.2036078907420692
 40
0.2145501518960703
 40
0.2263465568568912
 40
0.2381777515545571
 40
0.2500437674888488
 40
0.27260934218821
 40
0.2951730375653575
 40
0.3172352183983098
 40
0.338741244304501
 40
0.3593248620233774
 40
0.3779639761135208
 40
0.3923530637001456
 40
0.4069009376655112
 40
0.4227852636817152
 40
0.4400061679809003
 40
0.4581885182577621
 40
0.4761619448022795
 40
0.4938413390831407
 40
0.5165016413928221
 40
0.5395526754387986
 40
0.5636672639769822
 40
0.5783769475637061
 40
0.5932446039779048
 40
0.6067599172902999
 40
0.618625278441942
 40
0.6290118442113285
 40
0.6384950598830308
 40
0.6495654300775769
 40
0.6623984530199509
 40
0.6769921251923003
 40
0.7075585260604124
 40
0.7383505796639419
 40
0.7559368516882913
 40
0.772263727862793
 40
0.7864461497537092
 40
0.7984868413126819
 40
0.8101175105542366
 40
0.8234825567953798
 40
0.8379227655710957
 40
0.8517761088097744
 40
0.8623798764440526
 40
0.8729179171404736
 40
0.8850480419587995
 40
0.8989735497267989
 40
0.9146900421732731
 40
0.9245043244721214
 40
0.9329572078415751
 40
0.940047326965978
 40
0.9458062379939843
 40
0.9504322077580587
 40
0.9568239630790829
 40
0.9649792959480001
 40
0.9748954319824966
 40
0.9865696766186732
 40
1.0
 40
1.0
 40
1.0
 40
1.0
 10
148.7028697680618
 20
108.8825636242145
 30
0.0
 10
148.4878790075782
 20
107.8539137087245
 30
0.0
 10
148.0922808389456
 20
105.9611252846245
 30
0.0
 10
147.2706148638144
 20
103.3200114440713
 30
0.0
 10
146.3710732189758
 20
100.9569687616639
 30
0.0
 10
145.2510892837468
 20
98.44834660943992
 30
0.0
 10
143.8373884147345
 20
95.74008112362377
 30
0.0
 10
142.0970123120038
 20
92.90535726269941
 30
0.0
 10
140.2902381868342
 20
90.32021261659372
 30
0.0
 10
138.3491795765931
 20
87.82321821748974
 30
0.0
 10
136.0147411520131
 20
85.11629502668636
 30
0.0
 10
133.5060259531006
 20
82.51328191573492
 30
0.0
 10
130.9470857559497
 20
80.09855881004007
 30
0.0
 10
128.6285093377648
 20
78.07036921968084
 30
0.0
 10
126.3676287751788
 20
76.2261251023764
 30
0.0
 10
124.3479671270649
 20
74.67274602203214
 30
0.0
 10
122.6263040534891
 20
73.41091304249653
 30
0.0
 10
121.1423779662967
 20
72.36421409558996
 30
0.0
 10
119.6905368333658
 20
71.37267437984902
 30
0.0
 10
117.8639978468436
 20
70.16714345945549
 30
0.0
 10
115.4351352451761
 20
68.63709795487074
 30
0.0
 10
112.3696980339891
 20
66.81962029363547
 30
0.0
 10
108.9229531241416
 20
64.90947100949846
 30
0.0
 10
105.2476542816376
 20
63.00977112258492
 30
0.0
 10
100.2852248680391
 20
60.61773193685435
 30
0.0
 10
93.87183893103088
 20
57.82673045291076
 30
0.0
 10
85.88482703230785
 20
54.79606111334141
 30
0.0
 10
77.6489379409932
 20
52.08064412903038
 30
0.0
 10
69.33654359944484
 20
49.7121549736189
 30
0.0
 10
61.20406081892871
 20
47.72324258154873
 30
0.0
 10
53.83663585608023
 20
46.18216890442736
 30
0.0
 10
47.1750646811279
 20
44.97884451055472
 30
0.0
 10
40.80779822339774
 20
43.98328902872578
 30
0.0
 10
33.95014261920452
 20
43.08145033515181
 30
0.0
 10
26.48406039663588
 20
42.29613242095501
 30
0.0
 10
18.63985918424285
 20
41.68734954455311
 30
0.0
 10
10.67468815653459
 20
41.29072253062893
 30
0.0
 10
2.014683731366991
 20
41.09431021786684
 30
0.0
 10
-7.411064521956306
 20
41.16753435908513
 30
0.0
 10
-17.75844765071843
 20
41.60657566614005
 30
0.0
 10
-26.85255159703424
 20
42.3219424992284
 30
0.0
 10
-34.65533657811557
 20
43.17194784674483
 30
0.0
 10
-40.85318805226724
 20
43.99321970054519
 30
0.0
 10
-46.57288711726766
 20
44.88384461678984
 30
0.0
 10
-51.59308887508644
 20
45.77215741617066
 30
0.0
 10
-55.99329897780058
 20
46.63447760717747
 30
0.0
 10
-60.2315144200431
 20
47.5387084352236
 30
0.0
 10
-64.74299452295044
 20
48.5843710806928
 30
0.0
 10
-69.8571086862391
 20
49.88272338630563
 30
0.0
 10
-77.39738427653644
 20
51.99623075419156
 30
0.0
 10
-86.89320153927896
 20
55.09553200876856
 30
0.0
 10
-96.13584438811212
 20
58.75259144794686
 30
0.0
 10
-103.2528963803577
 20
62.00981606786933
 30
0.0
 10
-108.293386581786
 20
64.55960789630348
 30
0.0
 10
-112.542040003414
 20
66.91128506493996
 30
0.0
 10
-116.1527471581471
 20
69.07197900781102
 30
0.0
 10
-119.5252757557722
 20
71.23943299798643
 30
0.0
 10
-122.9348306480275
 20
73.6043451574798
 30
0.0
 10
-126.3233877532973
 20
76.16773598996582
 30
0.0
 10
-129.2772604631683
 20
78.61583189483112
 30
0.0
 10
-131.7674431139858
 20
80.85606285967492
 30
0.0
 10
-133.9942775194641
 20
83.01326935444652
 30
0.0
 10
-136.2763331930926
 20
85.41469134631939
 30
0.0
 10
-138.6658586644712
 20
88.19529144727456
 30
0.0
 10
-140.6901214787478
 20
90.86141896899815
 30
0.0
 10
-142.2603689417475
 20
93.18659689278198
 30
0.0
 10
-143.3415243096592
 20
94.94150705480375
 30
0.0
 10
-144.1818344490089
 20
96.42502279977221
 30
0.0
 10
-144.8324772860302
 20
97.66277066666487
 30
0.0
 10
-145.4047120151955
 20
98.82462944636342
 30
0.0
 10
-146.0051166158497
 20
100.1343236558839
 30
0.0
 10
-146.6970139243251
 20
101.8011283406054
 30
0.0
 10
-147.4276326580806
 20
103.8292218082466
 30
0.0
 10
-148.1517893920085
 20
106.2252056440325
 30
0.0
 10
-148.5106940732987
 20
107.9558627317313
 30
0.0
 10
-148.7026992067644
 20
108.8817214971071
 30
0.0
  0
SPLINE
  5
131
330
129
100
AcDbEntity
  8
0
  6
Continuous
 62
     7
370
    25
100
AcDbSpline
210
0.0
220
0.0
230
1.0
 70
     8
 71
     3
 72
    80
 73
    76
 74
     0
 42
0.000000001
 43
0.00000001
 40
0.0
 40
0.0
 40
0.0
 40
0.0
 40
0.0007511187553817
 40
0.0143820080817342
 40
0.027976408648276
 40
0.041536190300258
 40
0.0550632522512253
 40
0.0685595483858308
 40
0.0820271151608831
 40
0.0954681027383744
 40
0.1088848099693268
 40
0.122279723917004
 40
0.1356555646638973
 40
0.1490153361723384
 40
0.1623623839347106
 40
0.1757004600105093
 40
0.1890337957318042
 40
0.2023671817576682
 40
0.2157060541125672
 40
0.2290565831304373
 40
0.2424257595497767
 40
0.2558214680081494
 40
0.2692525325014768
 40
0.2827287107736112
 40
0.2962606052924848
 40
0.3098594486598621
 40
0.3235367141131301
 40
0.337303503436015
 40
0.351169685375411
 40
0.3651428109705079
 40
0.3792269286747195
 40
0.3934215553166126
 40
0.4077211844424896
 40
0.4221157397279561
 40
0.4365922052763876
 40
0.4511345588865439
 40
0.4657312428272053
 40
0.4803793738878645
 40
0.4950826819581994
 40
0.5098507552992313
 40
0.5246961678186302
 40
0.5396294365459148
 40
0.5546626586541016
 40
0.5698024342233778
 40
0.5850467314498423
 40
0.6003830702181647
 40
0.6157814098920218
 40
0.6312099811427988
 40
0.6466356108897339
 40
0.6604261451225399
 40
0.6741341790343399
 40
0.6877594337686388
 40
0.7013055406623138
 40
0.7147779496418682
 40
0.7281830575100268
 40
0.7415275659444981
 40
0.7548180539309194
 40
0.7695605780296897
 40
0.7827557473253545
 40
0.7973402349890518
 40
0.8118818044811393
 40
0.8263471157565562
 40
0.8407388038225863
 40
0.8550602440523974
 40
0.8693146690003014
 40
0.883505144583439
 40
0.8976345726421586
 40
0.9117056976933754
 40
0.9257211159840989
 40
0.9396832860911939
 40
0.9535945406860075
 40
0.967457099267354
 40
0.9812730817679384
 40
0.9950445230058316
 40
1.0
 40
1.0
 40
1.0
 40
1.0
 10
-159.8345878487174
 20
113.2895846895002
 30
0.0
 10
-159.8315327379427
 20
113.1710972102115
 30
0.0
 10
-159.7730351601132
 20
110.902364240217
 30
0.0
 10
-159.3888054614339
 20
106.5000053137438
 30
0.0
 10
-158.6622489299791
 20
100.1054925446933
 30
0.0
 10
-157.6191769048318
 20
93.76876533738267
 30
0.0
 10
-156.3053896042714
 20
87.49996367445026
 30
0.0
 10
-154.7145436342142
 20
81.31068710153696
 30
0.0
 10
-152.8547275425546
 20
75.21170229855815
 30
0.0
 10
-150.7306514598841
 20
69.21352347847868
 30
0.0
 10
-148.3483614965946
 20
63.32622677819735
 30
0.0
 10
-145.7139342754223
 20
57.55947039769082
 30
0.0
 10
-142.8337737843036
 20
51.92246128660125
 30
0.0
 10
-139.7144739778762
 20
46.4239380267211
 30
0.0
 10
-136.3627905655272
 20
41.07215187157632
 30
0.0
 10
-132.7855760950952
 20
35.87485154848283
 30
0.0
 10
-128.989716775493
 20
30.83927140426668
 30
0.0
 10
-124.9820604774656
 20
25.97212448171533
 30
0.0
 10
-120.7693390049641
 20
21.27960209316647
 30
0.0
 10
-116.3580850553889
 20
16.76738210994024
 30
0.0
 10
-111.7545466221644
 20
12.44064877650506
 30
0.0
 10
-106.9646034955738
 20
8.304127520893996
 30
0.0
 10
-101.9936937363446
 20
4.362138780671952
 30
0.0
 10
-96.84676229386112
 20
0.6186750493704929
 30
0.0
 10
-91.52824935943968
 20
-2.922495275200589
 30
0.0
 10
-86.04214194129402
 20
-6.257695760141783
 30
0.0
 10
-80.39211687386668
 20
-9.383184491121709
 30
0.0
 10
-74.58180371820059
 20
-12.29498192966843
 30
0.0
 10
-68.61518641692241
 20
-14.98870581354583
 30
0.0
 10
-62.49713645409064
 20
-17.45944796983941
 30
0.0
 10
-56.23402294591923
 20
-19.70173835304177
 30
0.0
 10
-49.83428092174596
 20
-21.70964062184915
 30
0.0
 10
-43.30876004988764
 20
-23.47700063492398
 30
0.0
 10
-36.67066328519638
 20
-24.99781984831447
 30
0.0
 10
-29.9353798933983
 20
-26.2665828047583
 30
0.0
 10
-23.11916981692747
 20
-27.27868950710551
 30
0.0
 10
-16.23733344559257
 20
-28.03061585419896
 30
0.0
 10
-9.302606475283088
 20
-28.51961820207599
 30
0.0
 10
-2.324835758498657
 20
-28.7431029577955
 30
0.0
 10
4.688194368190006
 20
-28.6979943204116
 30
0.0
 10
11.72942488814201
 20
-28.38032723868799
 30
0.0
 10
18.79185594820322
 20
-27.78511278087671
 30
0.0
 10
25.86720832820069
 20
-26.90642568521872
 30
0.0
 10
32.94488257796899
 20
-25.73774399462204
 30
0.0
 10
40.01010923574854
 20
-24.27279019777579
 30
0.0
 10
47.04219923291715
 20
-22.50685282273544
 30
0.0
 10
54.01586060085689
 20
-20.43779580342413
 30
0.0
 10
60.90283668226451
 20
-18.06674080331758
 30
0.0
 10
67.44072913580705
 20
-15.49006913125472
 30
0.0
 10
73.6144360962518
 20
-12.75097782426664
 30
0.0
 10
79.41811525628415
 20
-9.89155350038278
 30
0.0
 10
85.06733326920494
 20
-6.818149798277169
 30
0.0
 10
90.5552433511501
 20
-3.536219243567944
 30
0.0
 10
95.87592074839448
 20
-0.0510186778619331
 30
0.0
 10
101.0238494836155
 20
3.632217696332623
 30
0.0
 10
105.9936796894099
 20
7.508188208200414
 30
0.0
 10
110.9600008711344
 20
11.72414381731509
 30
0.0
 10
115.7204084522672
 20
16.14005002395888
 30
0.0
 10
120.4249051534366
 20
20.90777766119074
 30
0.0
 10
124.8943223931862
 20
25.85695291599177
 30
0.0
 10
129.2561855854929
 20
31.16501330312743
 30
0.0
 10
133.3482467134256
 20
36.64781373323757
 30
0.0
 10
137.1613651401605
 20
42.28799213688607
 30
0.0
 10
140.690743703
 20
48.0724933732469
 30
0.0
 10
143.9322567204868
 20
53.98820998616467
 30
0.0
 10
146.8823752950823
 20
60.02191393202316
 30
0.0
 10
149.5381459858048
 20
66.16028843093878
 30
0.0
 10
151.8972464361535
 20
72.38995998565191
 30
0.0
 10
153.9577676341111
 20
78.69754026305625
 30
0.0
 10
155.7190040738386
 20
85.06962278171578
 30
0.0
 10
157.1784999450644
 20
91.4929421555963
 30
0.0
 10
158.342986809648
 20
97.95392530311962
 30
0.0
 10
159.1877442117633
 20
104.440496545921
 30
0.0
 10
159.6758766020785
 20
109.556314282271
 30
0.0
 10
159.7804780406277
 20
112.5097770059456
 30
0.0
 10
159.8081574492664
 20
113.291315986302
 30
0.0
  0
SPLINE
  5
135
330
129
100
AcDbEntity
  8
0
  6
Continuous
 62
     8
370
    25
100
AcDbSpline
210
0.0
220
0.0
230
1.0
 70
     8
 71
     3
 72
    21
 73
    17
 74
     0
 42
0.000000001
 43
0.00000001
 40
0.0
 40
0.0
 40
0.0
 40
0.0
 40
0.0740224959406602
 40
0.1480449918813203
 40
0.2220674878219804
 40
0.2960899837626406
 40
0.3701124797033007
 40
0.4441349756439609
 40
0.5181574715846211
 40
0.5921799675252812
 40
0.666202463465941
 40
0.7402249594066015
 40
0.8142474553472622
 40
0.888269951287922
 40
0.9622924472285815
 40
1.0
 40
1.0
 40
1.0
 40
1.0
 10
-74.61953482514457
 20
42.45430109142798
 30
0.0
 10
-78.27729540071661
 20
43.50369780044407
 30
0.0
 10
-85.59281655186072
 20
45.60249121847632
 30
0.0
 10
-95.91511884825726
 20
49.30061518982006
 30
0.0
 10
-105.6791033113409
 20
53.37331770945288
 30
0.0
 10
-114.7826891368193
 20
57.83636625661001
 30
0.0
 10
-123.1809780405434
 20
62.65129160653675
 30
0.0
 10
-130.8191609730722
 20
67.79134328413473
 30
0.0
 10
-137.6510408694994
 20
73.22404364468227
 30
0.0
 10
-143.6339482327625
 20
78.9161132106454
 30
0.0
 10
-148.7322963193036
 20
84.83238629025341
 30
0.0
 10
-152.9100013240462
 20
90.93646092623064
 30
0.0
 10
-156.1586096115541
 20
97.1904803242453
 30
0.0
 10
-158.393530004629
 20
103.5567051189753
 30
0.0
 10
-159.6050714364778
 20
108.9403263425347
 30
0.0
 10
-159.6903147170242
 20
112.1943720043479
 30
0.0
 10
-159.7190833028851
 20
113.2925734275804
 30
0.0
  0
SPLINE
  5
136
330
129
100
AcDbEntity
  8
0
  6
Continuous
 62
     8
370
    25
100
AcDbSpline
210
0.0
220
0.0
230
1.0
 70
     8
 71
     3
 72
    33
 73
    29
 74
     0
 42
0.000000001
 43
0.00000001
 40
0.0
 40
0.0
 40
0.0
 40
0.0
 40
0.0337726518768539
 40
0.0724217458017795
 40
0.1110708397267051
 40
0.1497199336516312
 40
0.1883690275765564
 40
0.2270181215014829
 40
0.2656672154264089
 40
0.3043163093513341
 40
0.3429654032762602
 40
0.3816144972011853
 40
0.4202635911261123
 40
0.4589126850510383
 40
0.4975617789759635
 40
0.5362108729008886
 40
0.5748599668258147
 40
0.6135090607507417
 40
0.6521581546756668
 40
0.690807248600593
 40
0.7294563425255182
 40
0.7681054364504443
 40
0.8067545303753704
 40
0.8454036243002965
 40
0.8840527182252226
 40
0.9227018121501478
 40
0.9613509060750739
 40
1.0
 40
1.0
 40
1.0
 40
1.0
 10
159.7879542311039
 20
113.2920801516679
 30
0.0
 10
159.6488414760902
 20
111.4091563980688
 30
0.0
 10
159.3505294389386
 20
107.3714330370335
 30
0.0
 10
157.692743524395
 20
101.2261457833163
 30
0.0
 10
155.0849183593254
 20
94.89626137776155
 30
0.0
 10
151.4954953763267
 20
88.69247690938353
 30
0.0
 10
146.9788709844052
 20
82.65253991517744
 30
0.0
 10
141.5542459129595
 20
76.81382281948359
 30
0.0
 10
135.257381404345
 20
71.21228729483487
 30
0.0
 10
128.1264789844084
 20
65.88247830588239
 30
0.0
 10
120.2056693639908
 20
60.85725331554865
 30
0.0
 10
111.5437424014814
 20
56.16759519885665
 30
0.0
 10
102.1941136982583
 20
51.84241707179808
 30
0.0
 10
92.21442362611667
 20
47.90838514696259
 30
0.0
 10
81.66620114457298
 20
44.38975402045766
 30
0.0
 10
70.61447934454172
 20
41.30821724770345
 30
0.0
 10
59.12739574764827
 20
38.68277344867963
 30
0.0
 10
47.27577232580288
 20
36.52960964875111
 30
0.0
 10
35.13267717003861
 20
34.86199973250265
 30
0.0
 10
22.7729806519968
 20
33.69022912327465
 30
0.0
 10
10.27286891108661
 20
33.02150704808731
 30
0.0
 10
-2.290532860555389
 20
32.86001286099226
 30
0.0
 10
-14.83998299979085
 20
33.20653151545251
 30
0.0
 10
-27.29730427378547
 20
34.05971299625956
 30
0.0
 10
-39.5887000663072
 20
35.41136231767361
 30
0.0
 10
-51.62716788699403
 20
37.26409907742971
 30
0.0
 10
-63.3803674586221
 20
39.56562351442321
 30
0.0
 10
-70.87314570297029
 20
41.49140856575973
 30
0.0
 10
-74.6195348251444
 20
42.45430109142794
 30
0.0
  0
SPLINE
  5
137
330
129
100
AcDbEntity
  8
0
  6
Continuous
 62
     8
370
    25
100
AcDbSpline
210
0.0
220
0.0
230
1.0
 70
     8
 71
     3
 72
    50
 73
    46
 74
     0
 42
0.000000001
 43
0.00000001
 40
0.0
 40
0.0
 40
0.0
 40
0.0
 40
0.0235887415964844
 40
0.0471774831929691
 40
0.0707662247894536
 40
0.0943549663859382
 40
0.1179437079824227
 40
0.1415324495789072
 40
0.1651211911753918
 40
0.1887099327718765
 40
0.2122986743683609
 40
0.2358874159648454
 40
0.25947615756133
 40
0.2830648991578146
 40
0.3066536407542993
 40
0.3302423823507838
 40
0.3538311239472682
 40
0.3774198655437527
 40
0.4010086071402372
 40
0.4245973487367216
 40
0.4481860903332061
 40
0.4717748319296909
 40
0.4953635735261754
 40
0.5189523151226598
 40
0.5425410567191443
 40
0.5661297983156287
 40
0.5897185399121136
 40
0.613307281508598
 40
0.6368960231050825
 40
0.660484764701567
 40
0.6840735062980514
 40
0.7076622478945364
 40
0.7312509894910207
 40
0.7548397310875054
 40
0.7784284726839897
 40
0.802017214280474
 40
0.825605955876959
 40
0.8491946974734434
 40
0.872783439069928
 40
0.8963721806664123
 40
0.9199609222628968
 40
0.9435496638593817
 40
0.9671384054558662
 40
0.9907271470523508
 40
1.0
 40
1.0
 40
1.0
 40
1.0
 10
148.731910252406
 20
109.0413955748137
 30
0.0
 10
149.0061699327217
 20
111.0510826214805
 30
0.0
 10
149.5546892933529
 20
115.0704567148141
 30
0.0
 10
149.2097094408329
 20
121.1181090860169
 30
0.0
 10
148.0106384352324
 20
127.132125410994
 30
0.0
 10
145.8813918355972
 20
133.0794308392867
 30
0.0
 10
142.8574647801236
 20
138.922285504568
 30
0.0
 10
138.9515073976482
 20
144.6249537075593
 30
0.0
 10
134.1892071375076
 20
150.1521995824255
 30
0.0
 10
128.5994948586037
 20
155.4699664578082
 30
0.0
 10
122.2169482960031
 20
160.5454630027944
 30
0.0
 10
115.0808870771075
 20
165.3473985751125
 30
0.0
 10
107.2353156704876
 20
169.846167248133
 30
0.0
 10
98.72860241465186
 20
174.0140327233756
 30
0.0
 10
89.61319461993824
 20
177.8252986957247
 30
0.0
 10
79.94529164732708
 20
181.2564674507242
 30
0.0
 10
69.78449937622078
 20
184.2863846899734
 30
0.0
 10
59.19346245834296
 20
186.896369966691
 30
0.0
 10
48.23747816123311
 20
189.0703318535911
 30
0.0
 10
36.98409377049666
 20
190.7948671527645
 30
0.0
 10
25.50269014325226
 20
192.0593435306151
 30
0.0
 10
13.86405395075722
 20
192.8559650697952
 30
0.0
 10
2.139941255393574
 20
193.1798203336113
 30
0.0
 10
-9.597364889413921
 20
193.0289126466698
 30
0.0
 10
-21.27550008822733
 20
192.4041724050422
 30
0.0
 10
-32.82246475418615
 20
191.309451340065
 30
0.0
 10
-44.16706801031745
 20
189.7514987711378
 30
0.0
 10
-55.23936660527706
 20
187.7399199939104
 30
0.0
 10
-65.97109613559324
 20
185.2871170604988
 30
0.0
 10
-76.29609192273907
 20
182.408212316489
 30
0.0
 10
-86.15069692423997
 20
179.1209551674779
 30
0.0
 10
-95.47415426073253
 20
175.445612644983
 30
0.0
 10
-104.2089815775726
 20
171.4048444650337
 30
0.0
 10
-112.3013262814691
 20
167.0235632802701
 30
0.0
 10
-119.7012944291766
 20
162.3287812464419
 30
0.0
 10
-126.3632700232567
 20
157.3494428815542
 30
0.0
 10
-132.2461526482834
 20
152.1162488597311
 30
0.0
 10
-137.3137735919117
 20
146.6614583475112
 30
0.0
 10
-141.5345115452453
 20
141.0187214042757
 30
0.0
 10
-144.8837540024644
 20
135.2227547466141
 30
0.0
 10
-147.3355905219064
 20
129.309563506618
 30
0.0
 10
-148.894539961621
 20
123.3145928265125
 30
0.0
 10
-149.4777111460459
 20
117.2785792161988
 30
0.0
 10
-149.3798181334694
 20
112.4493467538447
 30
0.0
 10
-148.764613155568
 20
109.6613780623211
 30
0.0
 10
-148.5910152102498
 20
108.8746717549194
 30
0.0
  0
LINE
  5
139
330
129
100
AcDbEntity
  8
0
  6
Continuous
 62
     7
370
    25
100
AcDbLine
 10
-159.8431948875
 20
113.7587203993
 30
0.0
 11
-159.841803101
 21
113.2899805299
 31
0.0
  0
LINE
  5
13A
330
129
100
AcDbEntity
  8
0
  6
Continuous
 62
     7
370
    25
100
AcDbLine
 10
159.8418072457
 20
113.2890852141
 30
0.0
 11
159.8434907816
 21
113.484486779
 31
0.0
  0
LINE
  5
13B
330
129
100
AcDbEntity
  8
0
  6
Continuous
 62
     7
370
    25
100
AcDbLine
 10
-159.7190833029
 20
113.2925734276
 30
0.0
 11
-159.7398782733
 21
113.7216097379
 31
0.0
  0
LINE
  5
13C
330
129
100
AcDbEntity
  8
0
  6
Continuous
 62
     7
370
    25
100
AcDbLine
 10
159.8058785849
 20
113.4642080255
 30
0.0
 11
159.7879542311
 21
113.2920801517
 31
0.0
  0
LINE
  5
13D
330
129
100
AcDbEntity
  8
0
  6
Continuous
 62
     7
370
    25
100
AcDbLine
 10
148.6905967474
 20
108.8812847254
 30
0.0
 11
148.7319102524
 21
109.0413955748
 31
0.0
  0
ARC
  5
13E
330
129
100
AcDbEntity
  8
0
  6
Continuous
 62
     8
370
    25
100
AcDbCircle
 10
0.0007013475
 20
-27.7440925103
 30
0.0
 40
71.82135584288221
100
AcDbArc
 50
75.3544759285
 51
104.6777767672
  0
VIEWPORT
  5
160
330
129
100
AcDbEntity
  8
0
100
AcDbViewport
 10
0.0
 20
0.0
 30
0.0
 40
205.6
 41
156.0
 68
     1
 69
     1
 12
0.0000175649
 22
69.9999922628
 13
0.0
 23
0.0
 14
10.0
 24
10.0
 15
10.0
 25
10.0
 16
0.0
 26
0.0
 36
1.0
 17
0.0
 27
0.0
 37
0.0
 42
50.0
 43
0.0
 44
0.0
 45
247.4860536367
 50
0.0
 51
0.0
 72
   100
 90
   557152
  1

281
     0
 71
     1
 74
     0
110
0.0
120
0.0
130
0.0
111
1.0
121
0.0
131
0.0
112
0.0
122
1.0
132
0.0
 79
     0
146
0.0
  0
ENDBLK
  5
12C
330
129
100
AcDbEntity
  8
0
100
AcDbBlockEnd
  0
BLOCK
  5
141
330
13F
100
AcDbEntity
  8
0
100
AcDbBlockBegin
  2
*Paper_Space6
 70
     0
 10
0.0
 20
0.0
 30
0.0
  3
*Paper_Space6
  1

  0
SPLINE
  5
143
330
13F
100
AcDbEntity
  8
0
  6
Continuous
 62
     7
370
    25
100
AcDbSpline
210
0.0
220
0.0
230
1.0
 70
     8
 71
     3
 72
    69
 73
    65
 74
     0
 42
0.000000001
 43
0.00000001
 40
0.0
 40
0.0
 40
0.0
 40
0.0
 40
0.0151480042485279
 40
0.0280551249725109
 40
0.038754123542044
 40
0.0484513594934521
 40
0.0627371894084095
 40
0.0760822525401043
 40
0.0888297964461909
 40
0.1024587720275115
 40
0.1160070125322927
 40
0.1281977821076958
 40
0.1390325036743381
 40
0.1508331677084351
 40
0.1632565845979428
 40
0.1762965458355157
 40
0.1887187166248341
 40
0.19959795076812
 40
0.207676524962489
 40
0.2168514553478053
 40
0.2271822124212165
 40
0.2386683509536684
 40
0.2510222025755708
 40
0.273763918588922
 40
0.2953879939894736
 40
0.3159490682514618
 40
0.336228265777067
 40
0.35650038653492
 40
0.3767705134762226
 40
0.4010921460625728
 40
0.4253982942666188
 40
0.4496949457847849
 40
0.4739887888551872
 40
0.4982866417936885
 40
0.5225924475016447
 40
0.5468911089363442
 40
0.5711873621280396
 40
0.5954879856835807
 40
0.6197999460076914
 40
0.644128717831658
 40
0.668459612427816
 40
0.6929890645750869
 40
0.718604676425614
 40
0.7454249540280771
 40
0.7641374217852601
 40
0.7813135411881863
 40
0.7969844296454778
 40
0.8116917063234724
 40
0.826040179271137
 40
0.8423452936737508
 40
0.8608307030772894
 40
0.8776985544304372
 40
0.8949450994574993
 40
0.9121658426698382
 40
0.9280328205426467
 40
0.9346665810238275
 40
0.940951665766239
 40
0.9468535190427689
 40
0.9523713238820308
 40
0.9580679078590081
 40
0.9655538579295321
 40
0.9750388091381175
 40
0.986521745623533
 40
1.0
 40
1.0
 40
1.0
 40
1.0
 10
159.8728094177427
 20
126.0468043794729
 30
0.0
 10
159.875127853791
 20
127.1172546257981
 30
0.0
 10
159.8794217536346
 20
129.0998006394374
 30
0.0
 10
159.4152389091516
 20
131.8237245112444
 30
0.0
 10
158.8144573083567
 20
134.0417835179588
 30
0.0
 10
157.9849713134417
 20
136.3072245938145
 30
0.0
 10
156.8256171218362
 20
138.7334407110706
 30
0.0
 10
155.2451169242621
 20
141.3138673891484
 30
0.0
 10
153.4311899288003
 20
143.7561647743163
 30
0.0
 10
151.3583154448287
 20
146.1233929494406
 30
0.0
 10
149.0583050056139
 20
148.3879240189951
 30
0.0
 10
146.6880930072196
 20
150.4436185322741
 30
0.0
 10
144.249813402567
 20
152.3476217073503
 30
0.0
 10
141.620219381523
 20
154.2125759147486
 30
0.0
 10
138.6235153314576
 20
156.1418781837637
 30
0.0
 10
135.3677372657968
 20
158.0456451945893
 30
0.0
 10
132.0457604994779
 20
159.8177586445213
 30
0.0
 10
129.0272483172475
 20
161.3025932712255
 30
0.0
 10
126.2193541164223
 20
162.5979815673766
 30
0.0
 10
123.3716346050583
 20
163.8386812098975
 30
0.0
 10
120.0530757334188
 20
165.1953973707395
 30
0.0
 10
116.2492984459522
 20
166.6450543874609
 30
0.0
 10
110.8536234889583
 20
168.550881878689
 30
0.0
 10
103.9159706758358
 20
170.7419575577086
 30
0.0
 10
95.4866857173087
 20
173.0499181692381
 30
0.0
 10
86.9705586569222
 20
175.0789110472524
 30
0.0
 10
78.28128473593598
 20
176.8762474708937
 30
0.0
 10
69.3144030114823
 20
178.4729603422207
 30
0.0
 10
59.45195174725438
 20
179.9650861757231
 30
0.0
 10
48.66788724475069
 20
181.2968479646218
 30
0.0
 10
36.96729188320006
 20
182.4062571903508
 30
0.0
 10
25.05353007404152
 20
183.2097250147001
 30
0.0
 10
12.99284390187429
 20
183.7019295332053
 30
0.0
 10
0.8541492538775564
 20
183.8814805558052
 30
0.0
 10
-11.29051880664821
 20
183.7463236342674
 30
0.0
 10
-23.36807694453812
 20
183.2973145879701
 30
0.0
 10
-35.30704257249501
 20
182.5378843244034
 30
0.0
 10
-47.03971688410267
 20
181.4708025032359
 30
0.0
 10
-58.50048927090686
 20
180.1028480444947
 30
0.0
 10
-69.62185213936229
 20
178.4404855088457
 30
0.0
 10
-80.36639647449235
 20
176.487294902863
 30
0.0
 10
-90.81779146552601
 20
174.2195406556459
 30
0.0
 10
-101.0475606469274
 20
171.588575668242
 30
0.0
 10
-109.8892773822831
 20
168.8943257864382
 30
0.0
 10
-117.1627062747871
 20
166.3317254313245
 30
0.0
 10
-122.7927115336637
 20
164.1063787154791
 30
0.0
 10
-127.6782015055748
 20
161.9576885448107
 30
0.0
 10
-132.0023126782124
 20
159.8525842107041
 30
0.0
 10
-136.1185095516805
 20
157.6358342951667
 30
0.0
 10
-140.2710154400347
 20
155.1343674674692
 30
0.0
 10
-144.2324051600827
 20
152.4021735477654
 30
0.0
 10
-147.8483691445236
 20
149.5047181296949
 30
0.0
 10
-150.9612296014874
 20
146.5727180685794
 30
0.0
 10
-153.5833547717073
 20
143.6035980196392
 30
0.0
 10
-155.3411046071733
 20
141.1540034456831
 30
0.0
 10
-156.4518739795911
 20
139.3187942684365
 30
0.0
 10
-157.1113297276944
 20
138.1022185779156
 30
0.0
 10
-157.6699482350046
 20
136.945929089623
 30
0.0
 10
-158.1535075118051
 20
135.8175261225849
 30
0.0
 10
-158.6235116537602
 20
134.5650080516535
 30
0.0
 10
-159.1100599318107
 20
133.0085248182835
 30
0.0
 10
-159.5614426546382
 20
131.0440180550446
 30
0.0
 10
-159.8934125672604
 20
128.6642898309043
 30
0.0
 10
-159.8800735608489
 20
126.9627354871531
 30
0.0
 10
-159.8728709188541
 20
126.0439499048721
 30
0.0
  0
SPLINE
  5
144
330
13F
100
AcDbEntity
  8
0
  6
Continuous
 62
     7
370
    25
100
AcDbSpline
210
0.0
220
0.0
230
1.0
 70
     8
 71
     3
 72
    78
 73
    74
 74
     0
 42
0.000000001
 43
0.00000001
 40
0.0
 40
0.0
 40
0.0
 40
0.0
 40
0.0128220192691768
 40
0.0240090889584631
 40
0.0335581432483929
 40
0.0414646591744149
 40
0.0477234940013609
 40
0.0523301282437951
 40
0.0616516919281967
 40
0.0738974351968796
 40
0.0889877328343528
 40
0.1041586743959845
 40
0.1186325720517681
 40
0.132384436760368
 40
0.1449737340078095
 40
0.1566943322022255
 40
0.1672936796392807
 40
0.1789403430833318
 40
0.1920054775181119
 40
0.2064918684449659
 40
0.2264387061453817
 40
0.2459699713179184
 40
0.2650667852542201
 40
0.2888325122408239
 40
0.3128761741544701
 40
0.3374192563836658
 40
0.3489155914718195
 40
0.3588875759139882
 40
0.3671202177993361
 40
0.3736198542548688
 40
0.380354652764088
 40
0.3894178933543004
 40
0.4004581169988856
 40
0.413116437164966
 40
0.4257503613436045
 40
0.4381564967282316
 40
0.4503347275431808
 40
0.4690104444811204
 40
0.4873437462923806
 40
0.5057494095613417
 40
0.5292861966148611
 40
0.5530036655909887
 40
0.5771672075501662
 40
0.5916346403996688
 40
0.6062266532915227
 40
0.6190844636783764
 40
0.6292203280096818
 40
0.6396974493992537
 40
0.6538527873144162
 40
0.6724087007825714
 40
0.6919403941224385
 40
0.7112750993038887
 40
0.7304128608146019
 40
0.7495316908916775
 40
0.7647968603095128
 40
0.7803122916065982
 40
0.7960772546726849
 40
0.811551718312371
 40
0.8254586535555961
 40
0.8375411392181618
 40
0.8480836209150113
 40
0.8585345898199002
 40
0.8697956126458732
 40
0.8852924400755262
 40
0.9011716516017997
 40
0.9166608873510542
 40
0.9320194666685816
 40
0.9403447998287442
 40
0.9488860857072369
 40
0.95808634805654
 40
0.9696008959561134
 40
0.9835757549786689
 40
1.0
 40
1.0
 40
1.0
 40
1.0
 10
149.1423787373098
 20
125.0053130608169
 30
0.0
 10
149.0374006550518
 20
124.4899685861041
 30
0.0
 10
148.840830359632
 20
123.5249917694354
 30
0.0
 10
148.3712716894828
 20
122.2006906726656
 30
0.0
 10
147.8721612305132
 20
121.0785950604655
 30
0.0
 10
147.382131399062
 20
120.152218327268
 30
0.0
 10
146.9445789048372
 20
119.4153703044968
 30
0.0
 10
146.4288617175737
 20
118.6133928243585
 30
0.0
 10
145.6490164020459
 20
117.5100365923703
 30
0.0
 10
144.3739997549319
 20
115.9427818425215
 30
0.0
 10
142.6364074873328
 20
114.1122476321773
 30
0.0
 10
140.50354726867
 20
112.1789742270021
 30
0.0
 10
138.1362650702115
 20
110.297748281223
 30
0.0
 10
135.6294865545467
 20
108.522440385043
 30
0.0
 10
133.0700538492089
 20
106.8837148135296
 30
0.0
 10
130.5389222251272
 20
105.3991065962887
 30
0.0
 10
127.9041344292767
 20
103.9688555374413
 30
0.0
 10
125.0002688613857
 20
102.5062020493756
 30
0.0
 10
121.5821032375953
 20
100.9173009292155
 30
0.0
 10
117.187441787045
 20
99.04460707072963
 30
0.0
 10
111.8492177327718
 20
96.99864622405256
 30
0.0
 10
105.6445717090994
 20
94.8896274616877
 30
0.0
 10
98.6321525515997
 20
92.76856035603919
 30
0.0
 10
90.65857894855881
 20
90.65259316386593
 30
0.0
 10
81.54376400798097
 20
88.57375721232377
 30
0.0
 10
73.60096319984189
 20
87.03375778540548
 30
0.0
 10
67.33444128159516
 20
85.96598187354232
 30
0.0
 10
63.22298431788035
 20
85.32047405399605
 30
0.0
 10
59.75906613208601
 20
84.8149483220179
 30
0.0
 10
56.71930053411966
 20
84.3978977997031
 30
0.0
 10
53.53495720363568
 20
83.9855650689744
 30
0.0
 10
49.66660533980122
 20
83.5196446798006
 30
0.0
 10
44.89365710057921
 20
82.99860780071221
 30
0.0
 10
39.54076153387386
 20
82.48393312177618
 30
0.0
 10
33.92849702664156
 20
82.02075820449092
 30
0.0
 10
28.33882853410058
 20
81.63357821699844
 30
0.0
 10
21.79554857681185
 20
81.26396735766593
 30
0.0
 10
14.30144791222604
 20
80.95904462810746
 30
0.0
 10
5.813772436284198
 20
80.77264058968433
 30
0.0
 10
-3.438223650308214
 20
80.74079757813463
 30
0.0
 10
-13.50675865504395
 20
80.91822284892328
 30
0.0
 10
-24.3875984218018
 20
81.36978282770318
 30
0.0
 10
-33.77530214437893
 20
81.99164652670655
 30
0.0
 10
-41.67522641539158
 20
82.67610647878796
 30
0.0
 10
-47.81922275179186
 20
83.30515188555336
 30
0.0
 10
-53.25176451538007
 20
83.94441626777306
 30
0.0
 10
-58.02556654835475
 20
84.56914756821624
 30
0.0
 10
-62.91848188282589
 20
85.26874052099309
 30
0.0
 10
-68.89088020506921
 20
86.21153407957512
 30
0.0
 10
-75.936183312868
 20
87.4686652420813
 30
0.0
 10
-83.42070628038039
 20
88.99468253837985
 30
0.0
 10
-90.68565641273067
 20
90.67885643116792
 30
0.0
 10
-97.58451255167142
 20
92.48437377091616
 30
0.0
 10
-103.6818972240547
 20
94.27897071001212
 30
0.0
 10
-109.0784381805589
 20
96.04202163781201
 30
0.0
 10
-113.8633378184197
 20
97.75752376606314
 30
0.0
 10
-118.4048582045056
 20
99.5481521034455
 30
0.0
 10
-122.5256316337499
 20
101.3377339802623
 30
0.0
 10
-126.0736396040532
 20
103.0299318191525
 30
0.0
 10
-129.0072529348459
 20
104.5538729555705
 30
0.0
 10
-131.507731498268
 20
105.9566628429752
 30
0.0
 10
-133.7928690879675
 20
107.3369943172152
 30
0.0
 10
-136.2453102780075
 20
108.9407756051255
 30
0.0
 10
-138.8047890179463
 20
110.7979556239971
 30
0.0
 10
-141.2765560782135
 20
112.8450028414072
 30
0.0
 10
-143.3889084197353
 20
114.8672466331596
 30
0.0
 10
-144.8773241684223
 20
116.5392557473821
 30
0.0
 10
-145.9320495688896
 20
117.9012728989429
 30
0.0
 10
-146.6907876098028
 20
118.9981887506862
 30
0.0
 10
-147.426999717529
 20
120.2155611481324
 30
0.0
 10
-148.1135077972438
 20
121.57744998197
 30
0.0
 10
-148.7573226034619
 20
123.1938251902088
 30
0.0
 10
-149.0076227791256
 20
124.3700141679465
 30
0.0
 10
-149.1428567454967
 20
125.0054939483329
 30
0.0
  0
SPLINE
  5
145
330
13F
100
AcDbEntity
  8
0
  6
Continuous
 62
     7
370
    25
100
AcDbSpline
210
0.0
220
0.0
230
1.0
 70
     8
 71
     3
 72
    82
 73
    78
 74
     0
 42
0.000000001
 43
0.00000001
 40
0.0
 40
0.0
 40
0.0
 40
0.0
 40
0.0087348693535583
 40
0.0222230832652769
 40
0.0356641646840179
 40
0.0490592848492089
 40
0.062409531077487
 40
0.0757159277170212
 40
0.0889794584035024
 40
0.1022010904073021
 40
0.1153818020317186
 40
0.1285226142554623
 40
0.1416246281327628
 40
0.1546890699066608
 40
0.1677173464042363
 40
0.1807111141379302
 40
0.1936723667332189
 40
0.2066035469744119
 40
0.2195076920785663
 40
0.2323886239665854
 40
0.245251200460211
 40
0.2581016484701159
 40
0.2709480058130592
 40
0.2838007025687858
 40
0.2966733116592296
 40
0.3095834827100273
 40
0.3225540259516483
 40
0.3356140024185252
 40
0.3487994490556031
 40
0.3621529401377902
 40
0.375720474602354
 40
0.3895432723264016
 40
0.4036418651108995
 40
0.4179933327437333
 40
0.4324998748224981
 40
0.4469920369443664
 40
0.4613579560323767
 40
0.4755550690106397
 40
0.4896141861028209
 40
0.5036176615874202
 40
0.5176773789254264
 40
0.5318885084343239
 40
0.5463736582642679
 40
0.5612603153386564
 40
0.5766475011674358
 40
0.5925649214082435
 40
0.6069876749642473
 40
0.6212350818329602
 40
0.6352540909563493
 40
0.6490474960028806
 40
0.6626450350964915
 40
0.6760835247418472
 40
0.6893972532934112
 40
0.7026146259192493
 40
0.7157578210240755
 40
0.7288436324762283
 40
0.7418846089122391
 40
0.754890113256959
 40
0.7678671799142349
 40
0.7808211607555043
 40
0.7937561931165907
 40
0.8066755318351202
 40
0.8195817828921241
 40
0.8324770680014757
 40
0.8453631415199478
 40
0.8596493600472107
 40
0.8738944363187648
 40
0.8880629314246887
 40
0.9021579903880422
 40
0.9161833441268812
 40
0.9301423775960713
 40
0.9440381394024357
 40
0.9578733722817838
 40
0.9716505427390907
 40
0.9853718690589927
 40
0.9990393475495165
 40
1.0
 40
1.0
 40
1.0
 40
1.0
 10
-159.8393626229567
 20
126.0413617513563
 30
0.0
 10
-159.7821937200889
 20
124.6706451755264
 30
0.0
 10
-159.6367457188434
 20
121.1832949514097
 30
0.0
 10
-159.0742289513536
 20
115.6074324426135
 30
0.0
 10
-158.1957281784312
 20
109.3350341844152
 30
0.0
 10
-157.0261643986231
 20
103.1313904907189
 30
0.0
 10
-155.5856939960137
 20
97.0075191501611
 30
0.0
 10
-153.8761444922449
 20
90.9749470478856
 30
0.0
 10
-151.9047961514156
 20
85.04459469026388
 30
0.0
 10
-149.6780154672451
 20
79.22703990377441
 30
0.0
 10
-147.2029223162258
 20
73.53241370752264
 30
0.0
 10
-144.4869107487546
 20
67.97039401785088
 30
0.0
 10
-141.5377370565627
 20
62.55017286874124
 30
0.0
 10
-138.3634505271385
 20
57.28043007824607
 30
0.0
 10
-134.972358765775
 20
52.16930428022157
 30
0.0
 10
-131.3729745099034
 20
47.22436334767732
 30
0.0
 10
-127.5739554232792
 20
42.45257315662099
 30
0.0
 10
-123.5840300368496
 20
37.8602643348834
 30
0.0
 10
-119.4119063336295
 20
33.45309634460759
 30
0.0
 10
-115.0661564141954
 20
29.23601829244822
 30
0.0
 10
-110.5550685582509
 20
25.21322602307209
 30
0.0
 10
-105.8864548059318
 20
21.38811564200822
 30
0.0
 10
-101.0673987093357
 20
17.76323500309265
 30
0.0
 10
-96.10392492969403
 20
14.34023753718927
 30
0.0
 10
-91.00057220731516
 20
11.11984805991242
 30
0.0
 10
-85.75985878632784
 20
8.101859160925276
 30
0.0
 10
-80.38165412237221
 20
5.285190833729817
 30
0.0
 10
-74.86252975919875
 20
2.668065970204442
 30
0.0
 10
-69.19528403183716
 20
0.2483786415019423
 30
0.0
 10
-63.36905881935385
 20
-1.975648304404984
 30
0.0
 10
-57.37081356061725
 20
-4.004434820762307
 30
0.0
 10
-51.18926791315555
 20
-5.835690810982425
 30
0.0
 10
-44.82217042592728
 20
-7.463163312183413
 30
0.0
 10
-38.28772080519238
 20
-8.876097978335231
 30
0.0
 10
-31.63391572801818
 20
-10.06143210164882
 30
0.0
 10
-24.92486568332479
 20
-11.01073192839981
 30
0.0
 10
-18.21921353191469
 20
-11.72389806602758
 30
0.0
 10
-11.5469644065312
 20
-12.20815381058446
 30
0.0
 10
-4.909203646305579
 20
-12.47267601851672
 30
0.0
 10
1.716619926534255
 20
-12.52385489376799
 30
0.0
 10
8.362965596121635
 20
-12.36214466449591
 30
0.0
 10
15.06846729164025
 20
-11.98090742441144
 30
0.0
 10
21.87400668561467
 20
-11.36556378520991
 30
0.0
 10
28.82062785969179
 20
-10.49257770736482
 30
0.0
 10
35.9341773062554
 20
-9.33096250810886
 30
0.0
 10
42.91104777694621
 20
-7.908134365415889
 30
0.0
 10
49.64448041752767
 20
-6.255954843150169
 30
0.0
 10
56.02176503606443
 20
-4.428376197011572
 30
0.0
 10
62.22985705469081
 20
-2.383392379602528
 30
0.0
 10
68.26042616751131
 20
-0.1286317037400148
 30
0.0
 10
74.11738793822536
 20
2.332284096853945
 30
0.0
 10
79.80806050944645
 20
4.998205942002302
 30
0.0
 10
85.33848552859789
 20
7.868902607524541
 30
0.0
 10
90.71178769671823
 20
10.94400835700973
 30
0.0
 10
95.92807659354108
 20
14.22244617052062
 30
0.0
 10
100.984956068715
 20
17.70217958062482
 30
0.0
 10
105.8781724002502
 20
21.38015889261175
 30
0.0
 10
110.6022043295877
 20
25.25236740021349
 30
0.0
 10
115.1507338666778
 20
29.3139091741661
 30
0.0
 10
119.5169972795145
 20
33.55910650373526
 30
0.0
 10
123.6940368277252
 20
37.98159096935763
 30
0.0
 10
127.6748794470628
 20
42.57438517158482
 30
0.0
 10
131.452658394987
 20
47.329964460136
 30
0.0
 10
135.0207147362295
 20
52.24033714854359
 30
0.0
 10
138.494681669926
 20
57.48115795093197
 30
0.0
 10
141.8368319016585
 20
63.05762915982282
 30
0.0
 10
145.0042247118888
 20
68.965869205395
 30
0.0
 10
147.8737509051739
 20
74.99221566856251
 30
0.0
 10
150.4406488255085
 20
81.11699621402433
 30
0.0
 10
152.7037537665556
 20
87.326112117674
 30
0.0
 10
154.6621992113785
 20
93.60566095847064
 30
0.0
 10
156.316671370525
 20
99.94178185376852
 30
0.0
 10
157.6645453311627
 20
106.3208160257418
 30
0.0
 10
158.7179308009705
 20
112.7287871214933
 30
0.0
 10
159.4367617806936
 20
119.1534313705054
 30
0.0
 10
159.8102788723012
 20
123.5943941861375
 30
0.0
 10
159.8598803000361
 20
125.8911156680138
 30
0.0
 10
159.863137704095
 20
126.0419449932734
 30
0.0
  0
SPLINE
  5
146
330
13F
100
AcDbEntity
  8
0
  6
Continuous
 62
     7
370
    25
100
AcDbSpline
210
0.0
220
0.0
230
1.0
 70
     8
 71
     3
 72
    41
 73
    37
 74
     0
 42
0.000000001
 43
0.00000001
 40
0.0
 40
0.0
 40
0.0
 40
0.0
 40
0.0011118257427393
 40
0.0321892829673915
 40
0.0636043156628304
 40
0.0950463428399847
 40
0.1263817013992374
 40
0.1575872460005836
 40
0.1886710776193212
 40
0.2196509721101087
 40
0.2505456565294834
 40
0.281371855193926
 40
0.3121436419338908
 40
0.3428726201733949
 40
0.3735683425930492
 40
0.4042387524832298
 40
0.4348905770814052
 40
0.4655296601035008
 40
0.4961612409635731
 40
0.5267901942532032
 40
0.5574206580485679
 40
0.58805640391525
 40
0.6187023727871032
 40
0.649363912123824
 40
0.6800470188977209
 40
0.7107586252230444
 40
0.7415069417702815
 40
0.7723018710293781
 40
0.8031554883043882
 40
0.834082546184799
 40
0.8651008461963976
 40
0.8962310387435438
 40
0.9274947247541125
 40
0.9589081366984121
 40
0.9904653517788893
 40
1.0
 40
1.0
 40
1.0
 40
1.0
 10
-50.88156852359539
 20
-5.871302823067747
 30
0.0
 10
-50.86442523370585
 20
-5.888143064775086
 30
0.0
 10
-50.36809726787987
 20
-6.375697260292426
 30
0.0
 10
-49.14660024385194
 20
-7.266955665939462
 30
0.0
 10
-47.2001478234583
 20
-8.544951240819124
 30
0.0
 10
-44.96754402169635
 20
-9.746438280046634
 30
0.0
 10
-42.50778749427475
 20
-10.87690689356659
 30
0.0
 10
-39.8272166751808
 20
-11.93006697803421
 30
0.0
 10
-36.94335268407772
 20
-12.90457712054041
 30
0.0
 10
-33.87014677587454
 20
-13.79794747287574
 30
0.0
 10
-30.62307486257427
 20
-14.60777286457729
 30
0.0
 10
-27.21822647969351
 20
-15.331456835385
 30
0.0
 10
-23.67268865078305
 20
-15.96643477611497
 30
0.0
 10
-20.0044237851937
 20
-16.51026834597476
 30
0.0
 10
-16.23220285756831
 20
-16.96075017846001
 30
0.0
 10
-12.37548514712891
 20
-17.31597752527646
 30
0.0
 10
-8.4542936504278
 20
-17.57440899063106
 30
0.0
 10
-4.489082753751771
 20
-17.73490497635914
 30
0.0
 10
-0.5006037815963384
 20
-17.79675547474109
 30
0.0
 10
3.490205362240168
 20
-17.75969724958583
 30
0.0
 10
7.462338886329759
 20
-17.62392531127323
 30
0.0
 10
11.39490258883106
 20
-17.39009481609682
 30
0.0
 10
15.26727586484538
 20
-17.05930779645798
 30
0.0
 10
19.05926151652973
 20
-16.63308751357005
 30
0.0
 10
22.75117893137761
 20
-16.11334895472348
 30
0.0
 10
26.32399712108945
 20
-15.50235357308478
 30
0.0
 10
29.7594705650769
 20
-14.80264754103416
 30
0.0
 10
33.04025208845177
 20
-14.01697042784057
 30
0.0
 10
36.15006509451757
 20
-13.14815159929379
 30
0.0
 10
39.07359653567487
 20
-12.19888414343757
 30
0.0
 10
41.79731314261448
 20
-11.17172821571504
 30
0.0
 10
44.30655467378399
 20
-10.06795650225883
 30
0.0
 10
46.59604942841114
 20
-8.890411653151089
 30
0.0
 10
48.62891107711179
 20
-7.631099280248285
 30
0.0
 10
50.05300533977212
 20
-6.623677288705318
 30
0.0
 10
50.70579222244277
 20
-6.007146100413349
 30
0.0
 10
50.85726000193816
 20
-5.864090820720536
 30
0.0
  0
SPLINE
  5
14B
330
13F
100
AcDbEntity
  8
0
  6
Continuous
 62
     8
370
    25
100
AcDbSpline
210
0.0
220
0.0
230
1.0
 70
     8
 71
     3
 72
    23
 73
    19
 74
     0
 42
0.000000001
 43
0.00000001
 40
0.0
 40
0.0
 40
0.0
 40
0.0
 40
0.0657141621645047
 40
0.1314283243290094
 40
0.1971424864935141
 40
0.2628566486580188
 40
0.3285708108225235
 40
0.3942849729870282
 40
0.4599991351515331
 40
0.5257132973160378
 40
0.5914274594805421
 40
0.6571416216450471
 40
0.7228557838095523
 40
0.7885699459740566
 40
0.8542841081385609
 40
0.919998270303066
 40
0.985712432467571
 40
1.0
 40
1.0
 40
1.0
 40
1.0
 10
-56.529355467502
 20
76.94948895023201
 30
0.0
 10
-60.41132371277183
 20
77.47240743294972
 30
0.0
 10
-68.1752602033115
 20
78.51824439838518
 30
0.0
 10
-79.30745551678567
 20
80.46705464401106
 30
0.0
 10
-89.97571681064768
 20
82.67947767029885
 30
0.0
 10
-100.0825428988019
 20
85.16985427151674
 30
0.0
 10
-109.5741239795409
 20
87.91533292966321
 30
0.0
 10
-118.3896605389463
 20
90.90099581039901
 30
0.0
 10
-126.4754227618173
 20
94.1078970091413
 30
0.0
 10
-133.7813563989407
 20
97.51640915940237
 30
0.0
 10
-140.262608386105
 20
101.1054789671979
 30
0.0
 10
-145.8786607013708
 20
104.8529891104018
 30
0.0
 10
-150.5969338613709
 20
108.7358316790373
 30
0.0
 10
-154.3807157045595
 20
112.7300702258474
 30
0.0
 10
-157.2351223650722
 20
116.8110719323236
 30
0.0
 10
-159.0364002854538
 20
120.9537015361126
 30
0.0
 10
-159.8740085285866
 20
124.0422880385709
 30
0.0
 10
-159.8018989109414
 20
125.7406149452787
 30
0.0
 10
-159.7890208014838
 20
126.043920392094
 30
0.0
  0
SPLINE
  5
14C
330
13F
100
AcDbEntity
  8
0
  6
Continuous
 62
     8
370
    25
100
AcDbSpline
210
0.0
220
0.0
230
1.0
 70
     8
 71
     3
 72
    32
 73
    28
 74
     0
 42
0.000000001
 43
0.00000001
 40
0.0
 40
0.0
 40
0.0
 40
0.0
 40
0.0171825639104623
 40
0.0581332904141928
 40
0.0990840169179238
 40
0.1400347434216538
 40
0.1809854699253853
 40
0.2219361964291162
 40
0.2628869229328462
 40
0.3038376494365772
 40
0.3447883759403072
 40
0.3857391024440391
 40
0.42668982894777
 40
0.4676405554515001
 40
0.5085912819552301
 40
0.5495420084589611
 40
0.590492734962693
 40
0.631443461466423
 40
0.672394187970154
 40
0.7133449144738842
 40
0.7542956409776151
 40
0.795246367481346
 40
0.8361970939850769
 40
0.8771478204888079
 40
0.918098546992538
 40
0.959049273496269
 40
1.0
 40
1.0
 40
1.0
 40
1.0
 10
159.7528469760941
 20
126.0444757070452
 30
0.0
 10
159.756654090968
 20
125.4590094720059
 30
0.0
 10
159.7695345967967
 20
123.4782178482063
 30
0.0
 10
158.7528673733804
 20
120.1127043907814
 30
0.0
 10
156.7353509618948
 20
115.9803244539896
 30
0.0
 10
153.6920799991171
 20
111.9148893747802
 30
0.0
 10
149.717170205975
 20
107.9411910715329
 30
0.0
 10
144.8149374627885
 20
104.0838018231407
 30
0.0
 10
139.0210157625118
 20
100.3664841279508
 30
0.0
 10
132.3696769277085
 20
96.81216173454777
 30
0.0
 10
124.9023171017282
 20
93.44274681605975
 30
0.0
 10
116.6648709618856
 20
90.27901331248073
 30
0.0
 10
107.7081529918698
 20
87.34046659295808
 30
0.0
 10
98.08737685950621
 20
84.64522379840777
 30
0.0
 10
87.86185986735894
 20
82.20990200397108
 30
0.0
 10
77.09464513098204
 20
80.0495157268985
 30
0.0
 10
65.85211647933977
 20
78.17738466569098
 30
0.0
 10
54.20358695851328
 20
76.6050503875208
 30
0.0
 10
42.22087678318054
 20
75.34220963083312
 30
0.0
 10
29.97785160119346
 20
74.3966378731326
 30
0.0
 10
17.55003755750213
 20
73.7742035267639
 30
0.0
 10
5.013892709451316
 20
73.47859987005462
 30
0.0
 10
-7.552683069155332
 20
73.51218769541535
 30
0.0
 10
-20.07449059942676
 20
73.87275096885654
 30
0.0
 10
-32.46582738776078
 20
74.56556421583785
 30
0.0
 10
-44.68202432774355
 20
75.5583748944256
 30
0.0
 10
-52.58024508758241
 20
76.48578426496319
 30
0.0
 10
-56.52935546750183
 20
76.94948895023198
 30
0.0
  0
SPLINE
  5
14D
330
13F
100
AcDbEntity
  8
0
  6
Continuous
 62
     8
370
    25
100
AcDbSpline
210
0.0
220
0.0
230
1.0
 70
     8
 71
     3
 72
    50
 73
    46
 74
     0
 42
0.000000001
 43
0.00000001
 40
0.0
 40
0.0
 40
0.0
 40
0.0
 40
0.0026486743273904
 40
0.0267905793982417
 40
0.0509324844690929
 40
0.0750743895399444
 40
0.0992162946107957
 40
0.1233581996816471
 40
0.1475001047524984
 40
0.1716420098233497
 40
0.1957839148942011
 40
0.2199258199650526
 40
0.2440677250359038
 40
0.2682096301067551
 40
0.2923515351776064
 40
0.3164934402484578
 40
0.3406353453193093
 40
0.3647772503901607
 40
0.3889191554610119
 40
0.4130610605318631
 40
0.4372029656027144
 40
0.4613448706735657
 40
0.485486775744417
 40
0.5096286808152686
 40
0.5337705858861199
 40
0.5579124909569712
 40
0.5820543960278225
 40
0.6061963010986737
 40
0.6303382061695254
 40
0.6544801112403766
 40
0.6786220163112279
 40
0.7027639213820792
 40
0.7269058264529303
 40
0.7510477315237821
 40
0.7751896365946332
 40
0.7993315416654846
 40
0.8234734467363358
 40
0.847615351807187
 40
0.8717572568780386
 40
0.89589916194889
 40
0.9200410670197413
 40
0.9441829720905925
 40
0.9683248771614438
 40
0.9924667822322955
 40
1.0
 40
1.0
 40
1.0
 40
1.0
 10
149.0978019732498
 20
125.0048435811774
 30
0.0
 10
149.1363403099772
 20
125.1472563636239
 30
0.0
 10
149.526144507229
 20
126.5877207181885
 30
0.0
 10
149.3971668561339
 20
129.3447640782675
 30
0.0
 10
148.6430372015689
 20
133.2468008120788
 30
0.0
 10
146.878595362536
 20
137.1175099035733
 30
0.0
 10
144.2337527908559
 20
140.9300278270366
 30
0.0
 10
140.6929210025165
 20
144.6616528062543
 30
0.0
 10
136.2864765936558
 20
148.2891627910645
 30
0.0
 10
131.0392968144449
 20
151.7902506766618
 30
0.0
 10
124.9843458619739
 20
155.1433156311937
 30
0.0
 10
118.1587901116936
 20
158.3276890369193
 30
0.0
 10
110.604755438232
 20
161.3237370628447
 30
0.0
 10
102.3688031731692
 20
164.1129883740361
 30
0.0
 10
93.50171386386465
 20
166.678246228943
 30
0.0
 10
84.05815521701652
 20
169.0036949812098
 30
0.0
 10
74.09635013907156
 20
171.0749974602665
 30
0.0
 10
63.67771641012379
 20
172.8793833990851
 30
0.0
 10
52.86648838796377
 20
174.4057281579226
 30
0.0
 10
41.72932088407732
 20
175.6446213138898
 30
0.0
 10
30.33487824078065
 20
176.5884246786769
 30
0.0
 10
18.75341098569261
 20
177.2313193907013
 30
0.0
 10
7.056322715753738
 20
177.5693417902773
 30
0.0
 10
-4.684270130198912
 20
177.600407856908
 30
0.0
 10
-16.39598289311622
 20
177.3243260579621
 30
0.0
 10
-28.00660896929282
 20
176.7427985295364
 30
0.0
 10
-39.44456498798418
 20
175.8594105822222
 30
0.0
 10
-50.63933214705096
 20
174.6796085964666
 30
0.0
 10
-61.52189098349062
 20
173.2106664438531
 30
0.0
 10
-72.02514690635253
 20
171.4616406411595
 30
0.0
 10
-82.08434383863799
 20
169.4433145143171
 30
0.0
 10
-91.6374635293318
 20
167.1681317141336
 30
0.0
 10
-100.6256076579743
 20
164.6501195026036
 30
0.0
 10
-108.9933619273844
 20
161.9048022494352
 30
0.0
 10
-116.6891341098296
 20
158.949105796548
 30
0.0
 10
-123.6654855708713
 20
155.8012528157704
 30
0.0
 10
-129.8793735833
 20
152.4806515380435
 30
0.0
 10
-135.2926039033421
 20
149.0077720719392
 30
0.0
 10
-139.87136759797
 20
145.4040352137376
 30
0.0
 10
-143.589056896354
 20
141.6916243439624
 30
0.0
 10
-146.4166982559708
 20
137.8935577928918
 30
0.0
 10
-148.3594475045778
 20
134.0327664283126
 30
0.0
 10
-149.321022990666
 20
130.1348651320091
 30
0.0
 10
-149.5438264429575
 20
127.115541571668
 30
0.0
 10
-149.1399255705099
 20
125.4106097697465
 30
0.0
 10
-149.0438668040065
 20
125.0051299675553
 30
0.0
  0
LWPOLYLINE
  5
14E
330
13F
100
AcDbEntity
  8
0
  6
Continuous
 62
     8
370
    25
100
AcDbPolyline
 90
       27
 70
   128
 43
0.0
 10
45.8344770163
 20
-7.2018608814
 10
43.7094283173
 20
-8.1962764663
 10
40.9909909992
 20
-9.2918638013
 10
38.026029038
 20
-10.3139372113
 10
34.8323740639
 20
-11.2563498266
 10
31.4292330937
 20
-12.1134338668
 10
27.8370730175
 20
-12.8800347277
 10
24.0774975088
 20
-13.5515419815
 10
20.1731170969
 20
-14.1239171045
 10
16.1474131852
 20
-14.5937177655
 10
12.0245968306
 20
-14.9581185279
 10
7.8294631359
 20
-15.2149278427
 10
3.5872421285
 20
-15.3626012284
 10
-0.676552975
 20
-15.40025056
 10
-4.9362792094
 20
-15.3276494099
 10
-9.1663180798
 20
-15.1452344101
 10
-13.3412296347
 20
-14.8541026256
 10
-17.4359054648
 20
-14.4560049575
 10
-21.4257197079
 20
-13.9533356118
 10
-25.2866771516
 20
-13.3491177012
 10
-28.9955575435
 20
-12.6469850633
 10
-32.5300552407
 20
-11.8511604064
 10
-35.8689133579
 20
-10.9664299136
 10
-38.9920516098
 20
-9.9981144581
 10
-41.8806870753
 20
-8.9520376032
 10
-44.5174471609
 20
-7.8344905781
 10
-45.7330861538
 20
-7.2526323208
  0
LWPOLYLINE
  5
14F
330
13F
100
AcDbEntity
  8
0
  6
Continuous
 62
     8
370
    25
100
AcDbPolyline
 90
       31
 70
   128
 43
0.0
 10
-49.0761212569
 20
-6.3910849781
 10
-48.9735202293
 20
-6.4583372542
 10
-46.8864740811
 20
-7.6982720331
 10
-44.5174471609
 20
-8.8805681691
 10
-41.8806870753
 20
-9.9981151943
 10
-38.9920516098
 20
-11.0441920492
 10
-35.8689133579
 20
-12.0125075046
 10
-32.5300552407
 20
-12.8972379974
 10
-28.9955575435
 20
-13.6930626543
 10
-25.2866771516
 20
-14.3951952922
 10
-21.4257197079
 20
-14.9994132028
 10
-17.4359054648
 20
-15.5020825485
 10
-13.3412296347
 20
-15.9001802167
 10
-9.1663180798
 20
-16.1913120011
 10
-4.9362792094
 20
-16.373727001
 10
-0.676552975
 20
-16.4463281511
 10
3.5872421285
 20
-16.4086788195
 10
7.8294631359
 20
-16.2610054337
 10
12.0245968306
 20
-16.0041961189
 10
16.1474131852
 20
-15.6397953565
 10
20.1731170969
 20
-15.1699946956
 10
24.0774975088
 20
-14.5976195726
 10
27.8370730175
 20
-13.9261123188
 10
31.4292330937
 20
-13.1595114579
 10
34.8323740639
 20
-12.3024274176
 10
38.026029038
 20
-11.3600148023
 10
40.9909909992
 20
-10.3379413923
 10
43.7094283173
 20
-9.2423540573
 10
46.1649919905
 20
-8.0798417885
 10
48.3429139698
 20
-6.8573960715
 10
49.1601475223
 20
-6.3354922452
  0
LINE
  5
150
330
13F
100
AcDbEntity
  8
0
  6
Continuous
 62
     7
370
    25
100
AcDbLine
 10
-159.7890208015
 20
126.0439203921
 30
0.0
 11
-159.7740665984
 21
126.6718696099
 31
0.0
  0
LINE
  5
151
330
13F
100
AcDbEntity
  8
0
  6
Continuous
 62
     7
370
    25
100
AcDbLine
 10
159.7548162943
 20
126.1271703038
 30
0.0
 11
159.7528469761
 21
126.044475707
 31
0.0
  0
LINE
  5
152
330
13F
100
AcDbEntity
  8
0
  6
Continuous
 62
     7
370
    25
100
AcDbLine
 10
148.9314475963
 20
124.3652206736
 30
0.0
 11
149.0978019732
 21
125.0048435812
 31
0.0
  0
LINE
  5
153
330
13F
100
AcDbEntity
  8
0
  6
Continuous
 62
     7
370
    25
100
AcDbLine
 10
-149.043866804
 20
125.0051299676
 30
0.0
 11
-148.9199552919
 21
124.4210776069
 31
0.0
  0
VIEWPORT
  5
162
330
13F
100
AcDbEntity
  8
0
100
AcDbViewport
 10
0.0
 20
0.0
 30
0.0
 40
205.6
 41
156.0
 68
     1
 69
     1
 12
0.0000175649
 22
69.9999922628
 13
0.0
 23
0.0
 14
10.0
 24
10.0
 15
10.0
 25
10.0
 16
0.0
 26
0.0
 36
1.0
 17
0.0
 27
0.0
 37
0.0
 42
50.0
 43
0.0
 44
0.0
 45
247.4860536367
 50
0.0
 51
0.0
 72
   100
 90
   557152
  1

281
     0
 71
     1
 74
     0
110
0.0
120
0.0
130
0.0
111
1.0
121
0.0
131
0.0
112
0.0
122
1.0
132
0.0
 79
     0
146
0.0
  0
ENDBLK
  5
142
330
13F
100
AcDbEntity
  8
0
100
AcDbBlockEnd
  0
ENDSEC
  0
SECTION
  2
ENTITIES
  0
SPLINE
  5
73
330
1F
100
AcDbEntity
  8
0
  6
Continuous
 62
     7
370
    25
100
AcDbSpline
210
0.0
220
0.0
230
1.0
 70
     8
 71
     3
 72
    13
 73
     9
 74
     0
 42
0.000000001
 43
0.00000001
 40
0.0
 40
0.0
 40
0.0
 40
0.0
 40
0.1857176911937349
 40
0.4166460097295347
 40
0.549995174464504
 40
0.6935003984541781
 40
0.84467579615646
 40
1.0
 40
1.0
 40
1.0
 40
1.0
 10
159.8891623863568
 20
134.4956283040036
 30
0.0
 10
159.8683912340145
 20
134.9922641887057
 30
0.0
 10
159.821792454516
 20
136.1064356944979
 30
0.0
 10
159.1888493965625
 20
137.4758900572512
 30
0.0
 10
158.3267120519777
 20
138.5227886834373
 30
0.0
 10
157.4257471678681
 20
139.2320363687337
 30
0.0
 10
156.3389639686199
 20
139.7702121095345
 30
0.0
 10
155.5311142158563
 20
139.9057413948716
 30
0.0
 10
155.1217217760609
 20
139.974423305831
 30
0.0
  0
SPLINE
  5
74
330
1F
100
AcDbEntity
  8
0
  6
Continuous
 62
     7
370
    25
100
AcDbSpline
210
0.0
220
0.0
230
1.0
 70
     8
 71
     3
 72
    13
 73
     9
 74
     0
 42
0.000000001
 43
0.00000001
 40
0.0
 40
0.0
 40
0.0
 40
0.0
 40
0.1553242038435391
 40
0.3064996015458187
 40
0.4500048255354919
 40
0.5833539902704653
 40
0.8142823088062634
 40
1.0
 40
1.0
 40
1.0
 40
1.0
 10
-155.1217217760608
 20
139.974423305831
 30
0.0
 10
-155.5311142158563
 20
139.9057413948716
 30
0.0
 10
-156.3389639686198
 20
139.7702121095345
 30
0.0
 10
-157.4257471678681
 20
139.2320363687337
 30
0.0
 10
-158.3267120519778
 20
138.5227886834374
 30
0.0
 10
-159.1888493965625
 20
137.4758900572511
 30
0.0
 10
-159.821792454516
 20
136.106435694498
 30
0.0
 10
-159.8683912340146
 20
134.9922641887057
 30
0.0
 10
-159.8891623863568
 20
134.4956283040036
 30
0.0
  0
SPLINE
  5
75
330
1F
100
AcDbEntity
  8
0
  6
Continuous
 62
     7
370
    25
100
AcDbSpline
210
0.0
220
0.0
230
1.0
 70
     8
 71
     3
 72
    56
 73
    52
 74
     0
 42
0.000000001
 43
0.00000001
 40
0.0
 40
0.0
 40
0.0
 40
0.0
 40
0.0202266581352691
 40
0.038805300775903
 40
0.0557440162457387
 40
0.0710487471663011
 40
0.0847231897630669
 40
0.096770766465323
 40
0.1071939098260242
 40
0.1162537597197147
 40
0.1252269149140181
 40
0.1342837790713811
 40
0.1434230358809415
 40
0.1526449490683889
 40
0.1807648751550046
 40
0.2090630468761783
 40
0.2373652249168385
 40
0.2656745328135152
 40
0.2939759599462103
 40
0.3222740495177315
 40
0.3505736654110014
 40
0.3788815023637915
 40
0.4071865085554051
 40
0.4354851720934713
 40
0.4637835659378221
 40
0.4920871901015413
 40
0.5203959717344944
 40
0.5486963160850733
 40
0.576994357710201
 40
0.6052948687543762
 40
0.633603785507194
 40
0.6619071496412958
 40
0.6902054990912414
 40
0.7185042349999907
 40
0.7411502556556803
 40
0.7638008475871889
 40
0.7864455408387432
 40
0.8088946600291416
 40
0.83018773914633
 40
0.8386810628016946
 40
0.8469510461748895
 40
0.8550058272345921
 40
0.8640064865834655
 40
0.8747821053384714
 40
0.8873324492341486
 40
0.9016565461714733
 40
0.917756656560303
 40
0.9356361589719429
 40
0.9552991119053953
 40
0.9767508292183953
 40
1.0
 40
1.0
 40
1.0
 40
1.0
 10
155.1217217781139
 20
139.9744233056284
 30
0.0
 10
155.0170495413817
 20
139.9785204101515
 30
0.0
 10
154.8162334895101
 20
139.9863807977778
 30
0.0
 10
153.8370118763699
 20
139.9932153253655
 30
0.0
 10
152.5349953497561
 20
139.9972369092476
 30
0.0
 10
150.9898234780652
 20
139.9991574479759
 30
0.0
 10
149.3271828957538
 20
139.9998840458728
 30
0.0
 10
147.6465955087168
 20
140.0000211530562
 30
0.0
 10
146.021735873472
 20
139.999983315623
 30
0.0
 10
144.4407066190878
 20
139.9999844648678
 30
0.0
 10
142.8179410606046
 20
139.9999841722487
 30
0.0
 10
141.0753958417458
 20
139.9999842508516
 30
0.0
 10
139.2008734144076
 20
139.9999842304232
 30
0.0
 10
135.8279869843687
 20
139.999984241029
 30
0.0
 10
130.5097764730517
 20
139.9999842408699
 30
0.0
 10
122.6184444278996
 20
139.9999842413213
 30
0.0
 10
113.74082198599
 20
139.999984232836
 30
0.0
 10
103.9626766061312
 20
139.9999842328618
 30
0.0
 10
93.36282449686293
 20
139.9999842401402
 30
0.0
 10
82.02645271310026
 20
139.9999842424071
 30
0.0
 10
70.03989954002421
 20
139.9999842347295
 30
0.0
 10
57.49936005074295
 20
139.9999842300454
 30
0.0
 10
44.50323868870016
 20
139.9999842367054
 30
0.0
 10
31.15747615799322
 20
139.999984243038
 30
0.0
 10
17.56501555573362
 20
139.9999842376166
 30
0.0
 10
3.832350497765674
 20
139.9999842294229
 30
0.0
 10
-9.931063216008404
 20
139.9999842320289
 30
0.0
 10
-23.61502131890254
 20
139.9999842411459
 30
0.0
 10
-37.11094302316196
 20
139.9999842409418
 30
0.0
 10
-50.31464310734772
 20
139.999984233231
 30
0.0
 10
-63.12166109367899
 20
139.9999842310279
 30
0.0
 10
-75.42835240309459
 20
139.99998423873
 30
0.0
 10
-87.13818431696752
 20
139.9999842421034
 30
0.0
 10
-97.42384102890476
 20
139.9999842362778
 30
0.0
 10
-106.3704765658671
 20
139.9999842347683
 30
0.0
 10
-114.0908609236858
 20
139.9999842287328
 30
0.0
 10
-121.212508798011
 20
139.9999842587726
 30
0.0
 10
-127.595371357982
 20
139.9999841671576
 30
0.0
 10
-132.1368586604404
 20
139.9999844328933
 30
0.0
 10
-135.196158172307
 20
139.9999839784726
 30
0.0
 10
-137.0994128205285
 20
139.9999851933553
 30
0.0
 10
-138.9464470794746
 20
139.9999805879182
 30
0.0
 10
-140.8766996200535
 20
140.0000018803524
 30
0.0
 10
-142.982146115307
 20
140.0000017837945
 30
0.0
 10
-145.2358572595777
 20
139.9998223404846
 30
0.0
 10
-147.5411741238758
 20
139.9992202328518
 30
0.0
 10
-149.7836938769574
 20
139.9978519624906
 30
0.0
 10
-151.8364939350799
 20
139.9952945270186
 30
0.0
 10
-153.5356522426006
 20
139.9909680114557
 30
0.0
 10
-154.7826018207305
 20
139.9844633363053
 30
0.0
 10
-155.0056915945491
 20
139.9778585107146
 30
0.0
 10
-155.1217217781142
 20
139.9744233056283
 30
0.0
  0
SPLINE
  5
7F
330
1F
100
AcDbEntity
  8
0
  6
Continuous
 62
     8
370
    25
100
AcDbSpline
210
0.0
220
0.0
230
1.0
 70
    24
 71
     3
 72
    22
 73
    18
 74
     0
 42
0.000000001
 43
0.00000001
 40
0.0
 40
0.0
 40
0.0
 40
0.0
 40
0.1249999999999999
 40
0.1249999999999999
 40
0.2499999999999998
 40
0.2499999999999998
 40
0.3749999999999997
 40
0.3749999999999997
 40
0.4999999999999997
 40
0.4999999999999997
 40
0.6249999999999998
 40
0.6249999999999998
 40
0.7499999999999998
 40
0.7499999999999998
 40
0.8749999999999999
 40
0.8749999999999999
 40
1.0
 40
1.0
 40
1.0
 40
1.0
 10
-0.000000000008643
 20
134.4956282792331
 30
0.0
 10
-10.46472120706024
 20
134.4956282792331
 30
0.0
 10
-20.929183653258
 20
134.4956282792331
 30
0.0
 10
-41.45647270005723
 20
134.4956282792331
 30
0.0
 10
-51.51879172298563
 20
134.4956282792331
 30
0.0
 10
-70.8550751962487
 20
134.4956282792331
 30
0.0
 10
-80.12856151887019
 20
134.4956282792331
 30
0.0
 10
-97.53075688863227
 20
134.4956282792331
 30
0.0
 10
-105.6590356321993
 20
134.4956282792331
 30
0.0
 10
-120.4583862896641
 20
134.4956282792331
 30
0.0
 10
-127.1290922604529
 20
134.4956282792331
 30
0.0
 10
-138.7568674594253
 20
134.4956282792331
 30
0.0
 10
-143.7136491679534
 20
134.4956282792331
 30
0.0
 10
-151.7230000284685
 20
134.4956282792331
 30
0.0
 10
-154.7753711334722
 20
134.4956282792331
 30
0.0
 10
-158.8585027936561
 20
134.4956282792331
 30
0.0
 10
-159.8891623853597
 20
134.4956282792331
 30
0.0
 10
-159.8891623853588
 20
134.4956282792331
 30
0.0
  0
LINE
  5
85
330
1F
100
AcDbEntity
  8
0
  6
Continuous
 62
     7
370
    25
100
AcDbLine
 10
55.0
 20
2.0
 30
0.0
 11
55.0
 21
3.1095328374
 31
0.0
  0
LINE
  5
86
330
1F
100
AcDbEntity
  8
0
  6
Continuous
 62
     7
370
    25
100
AcDbLine
 10
-55.0
 20
3.1095328374
 30
0.0
 11
-55.0
 21
2.0
 31
0.0
  0
LINE
  5
87
330
1F
100
AcDbEntity
  8
0
  6
Continuous
 62
     7
370
    25
100
AcDbLine
 10
53.0
 20
0.0
 30
0.0
 11
-53.0
 21
0.0
 31
0.0
  0
LINE
  5
88
330
1F
100
AcDbEntity
  8
0
  6
Continuous
 62
     8
370
    25
100
AcDbLine
 10
159.8891623853
 20
134.4956282792
 30
0.0
 11
0.0
 21
134.4956282792
 31
0.0
  0
LINE
  5
89
330
1F
100
AcDbEntity
  8
0
  6
Continuous
 62
     8
370
    25
100
AcDbLine
 10
-58.7041392286
 20
7.9386885463
 30
0.0
 11
58.7041392286
 21
7.9386885463
 31
0.0
  0
LINE
  5
8A
330
1F
100
AcDbEntity
  8
0
  6
Continuous
 62
     8
370
    25
100
AcDbLine
 10
55.0
 20
3.1095328374
 30
0.0
 11
-55.0
 21
3.1095328374
 31
0.0
  0
LINE
  5
8B
330
1F
100
AcDbEntity
  8
0
  6
Continuous
 62
     8
370
    25
100
AcDbLine
 10
-55.0
 20
2.0
 30
0.0
 11
55.0
 21
2.0
 31
0.0
  0
ARC
  5
8C
330
1F
100
AcDbEntity
  8
0
  6
Continuous
 62
     7
370
    25
100
AcDbCircle
 10
23.2666666667
 20
140.0
 30
0.0
 40
136.7333333333334
100
AcDbArc
 50
285.0209463879
 51
357.6932288591
  0
ARC
  5
8D
330
1F
100
AcDbEntity
  8
0
  6
Continuous
 62
     7
370
    25
100
AcDbCircle
 10
-23.2666666667
 20
140.0
 30
0.0
 40
136.7333333333334
100
AcDbArc
 50
182.3071969213
 51
254.9790536121
  0
ARC
  5
8E
330
1F
100
AcDbEntity
  8
0
  6
Continuous
 62
     7
370
    25
100
AcDbCircle
 10
60.0
 20
3.1095328374
 30
0.0
 40
5.000000000000021
100
AcDbArc
 50
105.0209463879
 51
180.0
  0
ARC
  5
8F
330
1F
100
AcDbEntity
  8
0
  6
Continuous
 62
     7
370
    25
100
AcDbCircle
 10
-60.0
 20
3.1095328374
 30
0.0
 40
5.000000000000036
100
AcDbArc
 50
0.0
 51
74.9790536121
  0
ARC
  5
90
330
1F
100
AcDbEntity
  8
0
  6
Continuous
 62
     7
370
    25
100
AcDbCircle
 10
53.0
 20
2.0
 30
0.0
 40
2.000000000000007
100
AcDbArc
 50
270.0
 51
0.0
  0
ARC
  5
91
330
1F
100
AcDbEntity
  8
0
  6
Continuous
 62
     7
370
    25
100
AcDbCircle
 10
-53.0
 20
2.0
 30
0.0
 40
2.0
100
AcDbArc
 50
180.0
 51
270.0
  0
SPLINE
  5
92
330
1B
100
AcDbEntity
 67
     1
  8
0
  6
Continuous
 62
     7
370
    25
100
AcDbSpline
210
0.0
220
0.0
230
1.0
 70
    11
 71
     3
 72
    70
 73
    66
 74
     0
 42
0.000000001
 43
0.00000001
 40
0.0
 40
0.0
 40
0.0
 40
0.0
 40
0.03125
 40
0.03125
 40
0.0624999999999999
 40
0.0624999999999999
 40
0.0937499999999999
 40
0.0937499999999999
 40
0.1249999999999999
 40
0.1249999999999999
 40
0.1562499999999998
 40
0.1562499999999998
 40
0.1874999999999998
 40
0.1874999999999998
 40
0.2187499999999997
 40
0.2187499999999997
 40
0.2499999999999997
 40
0.2499999999999997
 40
0.2812499999999996
 40
0.2812499999999996
 40
0.3124999999999996
 40
0.3124999999999996
 40
0.3437499999999995
 40
0.3437499999999995
 40
0.3749999999999994
 40
0.3749999999999994
 40
0.4062499999999995
 40
0.4062499999999995
 40
0.4374999999999995
 40
0.4374999999999995
 40
0.4687499999999995
 40
0.4687499999999995
 40
0.4999999999999994
 40
0.4999999999999994
 40
0.5312499999999994
 40
0.5312499999999994
 40
0.5624999999999993
 40
0.5624999999999993
 40
0.5937499999999993
 40
0.5937499999999993
 40
0.6249999999999992
 40
0.6249999999999992
 40
0.6562499999999993
 40
0.6562499999999993
 40
0.6874999999999993
 40
0.6874999999999993
 40
0.7187499999999994
 40
0.7187499999999994
 40
0.7499999999999994
 40
0.7499999999999994
 40
0.7812499999999996
 40
0.7812499999999996
 40
0.8124999999999997
 40
0.8124999999999997
 40
0.8437499999999997
 40
0.8437499999999997
 40
0.8749999999999998
 40
0.8749999999999998
 40
0.9062499999999998
 40
0.9062499999999998
 40
0.9374999999999999
 40
0.9374999999999999
 40
0.9687499999999999
 40
0.9687499999999999
 40
1.0
 40
1.0
 40
1.0
 40
1.0
 10
-0.0000000000086757
 20
-159.8891623535973
 30
0.0
 10
-10.46472120706011
 20
-159.8891623535967
 30
0.0
 10
-20.92918365325768
 20
-158.8585027618919
 30
0.0
 10
-41.45647270005659
 20
-154.7753711017054
 30
0.0
 10
-51.51879172298496
 20
-151.7229999967005
 30
0.0
 10
-70.85507519624775
 20
-143.713649136183
 30
0.0
 10
-80.12856151886903
 20
-138.7568674276539
 30
0.0
 10
-97.53075688863098
 20
-127.1290922286795
 30
0.0
 10
-105.6590356321982
 20
-120.4583862578898
 30
0.0
 10
-120.4583862896628
 20
-105.6590356004235
 30
0.0
 10
-127.1290922604515
 20
-97.53075685685576
 30
0.0
 10
-138.756867459424
 20
-80.12856148709261
 30
0.0
 10
-143.7136491679522
 20
-70.85507516447059
 30
0.0
 10
-151.7230000284677
 20
-51.51879169120692
 30
0.0
 10
-154.7753711334715
 20
-41.45647266827839
 30
0.0
 10
-158.8585027936556
 20
-20.92918362147903
 30
0.0
 10
-159.8891623853595
 20
-10.46472117528127
 30
0.0
 10
-159.8891623853584
 20
10.46472123882163
 30
0.0
 10
-158.8585027936534
 20
20.92918368501923
 30
0.0
 10
-154.7753711334669
 20
41.4564727318182
 30
0.0
 10
-151.723000028462
 20
51.51879175474633
 30
0.0
 10
-143.7136491679445
 20
70.85507522800921
 30
0.0
 10
-138.7568674594155
 20
80.12856155063051
 30
0.0
 10
-127.1290922604411
 20
97.53075692039248
 30
0.0
 10
-120.4583862896513
 20
105.6590356639596
 30
0.0
 10
-105.6590356321851
 20
120.4583863214243
 30
0.0
 10
-97.53075688861739
 20
127.129092292213
 30
0.0
 10
-80.1285615188542
 20
138.7568674911856
 30
0.0
 10
-70.85507519623229
 20
143.7136491997137
 30
0.0
 10
-51.51879172296862
 20
151.7230000602291
 30
0.0
 10
-41.45647270003999
 20
154.7753711652329
 30
0.0
 10
-20.92918365324059
 20
158.8585028254172
 30
0.0
 10
-10.46472120704295
 20
159.889162417121
 30
0.0
 10
10.46472120705989
 20
159.8891624171199
 30
0.0
 10
20.92918365325748
 20
158.858502825415
 30
0.0
 10
41.45647270005649
 20
154.7753711652285
 30
0.0
 10
51.51879172298484
 20
151.7230000602235
 30
0.0
 10
70.85507519624764
 20
143.7136491997061
 30
0.0
 10
80.12856151886895
 20
138.7568674911771
 30
0.0
 10
97.53075688863093
 20
127.1290922922025
 30
0.0
 10
105.6590356321982
 20
120.4583863214128
 30
0.0
 10
120.4583862896627
 20
105.6590356639466
 30
0.0
 10
127.1290922604514
 20
97.53075692037889
 30
0.0
 10
138.756867459424
 20
80.1285615506157
 30
0.0
 10
143.7136491679522
 20
70.85507522799374
 30
0.0
 10
151.7230000284674
 20
51.51879175473015
 30
0.0
 10
154.7753711334713
 20
41.45647273180153
 30
0.0
 10
158.8585027936556
 20
20.92918368500213
 30
0.0
 10
159.8891623853594
 20
10.46472123880441
 30
0.0
 10
159.8891623853583
 20
-10.46472117529833
 30
0.0
 10
158.8585027936533
 20
-20.92918362149621
 30
0.0
 10
154.7753711334669
 20
-41.45647266829504
 30
0.0
 10
151.723000028462
 20
-51.51879169122326
 30
0.0
 10
143.7136491679445
 20
-70.85507516448608
 30
0.0
 10
138.7568674594155
 20
-80.1285614871074
 30
0.0
 10
127.1290922604411
 20
-97.5307568568692
 30
0.0
 10
120.4583862896514
 20
-105.6590356004365
 30
0.0
 10
105.6590356321851
 20
-120.4583862579012
 30
0.0
 10
97.53075688861728
 20
-127.12909222869
 30
0.0
 10
80.12856151885416
 20
-138.7568674276625
 30
0.0
 10
70.8550751962324
 20
-143.7136491361905
 30
0.0
 10
51.51879172296871
 20
-151.7229999967059
 30
0.0
 10
41.45647270004014
 20
-154.7753711017099
 30
0.0
 10
20.92918365324089
 20
-158.858502761894
 30
0.0
 10
10.46472120704281
 20
-159.8891623535979
 30
0.0
 10
-0.0000000000086668
 20
-159.8891623535973
 30
0.0
  0
SPLINE
  5
93
330
1B
100
AcDbEntity
 67
     1
  8
0
  6
Continuous
 62
     7
370
    25
100
AcDbSpline
210
0.0
220
0.0
230
1.0
 70
    11
 71
     3
 72
    70
 73
    66
 74
     0
 42
0.000000001
 43
0.00000001
 40
0.0
 40
0.0
 40
0.0
 40
0.0
 40
0.03125
 40
0.03125
 40
0.0625
 40
0.0625
 40
0.09375
 40
0.09375
 40
0.125
 40
0.125
 40
0.15625
 40
0.15625
 40
0.1874999999999999
 40
0.1874999999999999
 40
0.2187499999999999
 40
0.2187499999999999
 40
0.2499999999999999
 40
0.2499999999999999
 40
0.2812499999999999
 40
0.2812499999999999
 40
0.3124999999999999
 40
0.3124999999999999
 40
0.3437499999999999
 40
0.3437499999999999
 40
0.3749999999999999
 40
0.3749999999999999
 40
0.4062499999999999
 40
0.4062499999999999
 40
0.4374999999999999
 40
0.4374999999999999
 40
0.4687499999999999
 40
0.4687499999999999
 40
0.4999999999999999
 40
0.4999999999999999
 40
0.5312499999999999
 40
0.5312499999999999
 40
0.5624999999999999
 40
0.5624999999999999
 40
0.5937499999999999
 40
0.5937499999999999
 40
0.6249999999999999
 40
0.6249999999999999
 40
0.6562499999999999
 40
0.6562499999999999
 40
0.6874999999999999
 40
0.6874999999999999
 40
0.7187499999999999
 40
0.7187499999999999
 40
0.7499999999999998
 40
0.7499999999999998
 40
0.7812499999999998
 40
0.7812499999999998
 40
0.8124999999999998
 40
0.8124999999999998
 40
0.8437499999999998
 40
0.8437499999999998
 40
0.8749999999999998
 40
0.8749999999999998
 40
0.9062499999999998
 40
0.9062499999999998
 40
0.9374999999999999
 40
0.9374999999999999
 40
0.96875
 40
0.96875
 40
1.0
 40
1.0
 40
1.0
 40
1.0
 10
-0.0000000000081037
 20
-149.3753604038909
 30
0.0
 10
9.776594478574665
 20
-149.3753604038914
 30
0.0
 10
19.55294721159316
 20
-148.4124737035023
 30
0.0
 10
38.7304271257243
 20
-144.5978357734077
 30
0.0
 10
48.13108010585471
 20
-141.7461788681423
 30
0.0
 10
66.19587117870607
 20
-134.2634974043319
 30
0.0
 10
74.85956258386906
 20
-129.6326578698317
 30
0.0
 10
91.1174450253625
 20
-118.7694881246239
 30
0.0
 10
98.71123405351155
 20
-112.5374265271952
 30
0.0
 10
112.537426558946
 20
-98.71123402176225
 30
0.0
 10
118.7694881563755
 20
-91.11744499361377
 30
0.0
 10
129.6326579015852
 20
-74.85956255212149
 30
0.0
 10
134.2634974360862
 20
-66.19587114695915
 30
0.0
 10
141.7461788998985
 20
-48.13108007410858
 30
0.0
 10
144.597835805165
 20
-38.73042709397843
 30
0.0
 10
148.4124737352617
 20
-19.55294717984767
 30
0.0
 10
149.3753604356519
 20
-9.776594446829346
 30
0.0
 10
149.3753604356529
 20
9.77659451033619
 30
0.0
 10
148.4124737352638
 20
19.55294724335469
 30
0.0
 10
144.5978358051691
 20
38.73042715748585
 30
0.0
 10
141.7461788999038
 20
48.13108013761633
 30
0.0
 10
134.2634974360934
 20
66.1958712104677
 30
0.0
 10
129.6326579015933
 20
74.85956261563054
 30
0.0
 10
118.7694881563854
 20
91.11744505712399
 30
0.0
 10
112.5374265589567
 20
98.71123408527323
 30
0.0
 10
98.71123405352378
 20
112.5374265907075
 30
0.0
 10
91.11744502537533
 20
118.7694881881371
 30
0.0
 10
74.85956258388305
 20
129.6326579333467
 30
0.0
 10
66.19587117872062
 20
134.2634974678478
 30
0.0
 10
48.13108010587006
 20
141.7461789316601
 30
0.0
 10
38.73042712573994
 20
144.5978358369266
 30
0.0
 10
19.55294721160919
 20
148.4124737670232
 30
0.0
 10
9.776594478590836
 20
149.3753604674134
 30
0.0
 10
-9.776594478574706
 20
149.3753604674145
 30
0.0
 10
-19.55294721159316
 20
148.4124737670253
 30
0.0
 10
-38.73042712572434
 20
144.5978358369308
 30
0.0
 10
-48.13108010585478
 20
141.7461789316654
 30
0.0
 10
-66.19587117870611
 20
134.2634974678549
 30
0.0
 10
-74.85956258386906
 20
129.6326579333549
 30
0.0
 10
-91.11744502536249
 20
118.7694881881469
 30
0.0
 10
-98.71123405351167
 20
112.5374265907183
 30
0.0
 10
-112.5374265589461
 20
98.71123408528534
 30
0.0
 10
-118.7694881563756
 20
91.11744505713688
 30
0.0
 10
-129.6326579015852
 20
74.85956261564458
 30
0.0
 10
-134.2634974360863
 20
66.19587121048217
 30
0.0
 10
-141.7461788998986
 20
48.13108013763162
 30
0.0
 10
-144.5978358051651
 20
38.73042715750157
 30
0.0
 10
-148.4124737352618
 20
19.5529472433707
 30
0.0
 10
-149.3753604356519
 20
9.776594510352401
 30
0.0
 10
-149.375360435653
 20
-9.776594446813101
 30
0.0
 10
-148.4124737352639
 20
-19.55294717983157
 30
0.0
 10
-144.5978358051692
 20
-38.73042709396272
 30
0.0
 10
-141.7461788999038
 20
-48.13108007409316
 30
0.0
 10
-134.2634974360935
 20
-66.1958711469445
 30
0.0
 10
-129.6326579015934
 20
-74.85956255210749
 30
0.0
 10
-118.7694881563854
 20
-91.11744499360088
 30
0.0
 10
-112.5374265589568
 20
-98.71123402175006
 30
0.0
 10
-98.71123405352384
 20
-112.5374265271845
 30
0.0
 10
-91.11744502537536
 20
-118.769488124614
 30
0.0
 10
-74.85956258388316
 20
-129.6326578698236
 30
0.0
 10
-66.19587117872065
 20
-134.2634974043247
 30
0.0
 10
-48.13108010587016
 20
-141.746178868137
 30
0.0
 10
-38.73042712574009
 20
-144.5978357734035
 30
0.0
 10
-19.5529472116093
 20
-148.4124737035002
 30
0.0
 10
-9.776594478590875
 20
-149.3753604038904
 30
0.0
 10
-0.0000000000081046
 20
-149.3753604038909
 30
0.0
  0
CIRCLE
  5
94
330
1B
100
AcDbEntity
 67
     1
  8
0
  6
Continuous
 62
     7
370
    25
100
AcDbCircle
 10
0.0
 20
0.0000000318
 30
0.0
 40
38.99886959098938
  0
CIRCLE
  5
95
330
1B
100
AcDbEntity
 67
     1
  8
0
  6
Continuous
 62
     7
370
    25
100
AcDbCircle
 10
0.0
 20
0.0000000318
 30
0.0
 40
30.66375093895072
  0
CIRCLE
  5
96
330
1B
100
AcDbEntity
 67
     1
  8
0
  6
Continuous
 62
     7
370
    25
100
AcDbCircle
 10
0.0
 20
0.0000000318
 30
0.0
 40
23.82256106345452
  0
CIRCLE
  5
97
330
1B
100
AcDbEntity
 67
     1
  8
0
  6
Continuous
 62
     7
370
    25
100
AcDbCircle
 10
0.0
 20
0.0000000318
 30
0.0
 40
22.5
  0
VIEWPORT
  5
154
330
1B
100
AcDbEntity
 67
     1
  8
0
100
AcDbViewport
 10
0.0
 20
0.0
 30
0.0
 40
205.6
 41
156.0
 68
     1
 69
     1
 12
0.0000175649
 22
69.9999922628
 13
0.0
 23
0.0
 14
10.0
 24
10.0
 15
10.0
 25
10.0
 16
0.0
 26
0.0
 36
1.0
 17
0.0
 27
0.0
 37
0.0
 42
50.0
 43
0.0
 44
0.0
 45
247.4860536367
 50
0.0
 51
0.0
 72
   100
 90
   557152
  1

281
     0
 71
     1
 74
     0
110
0.0
120
0.0
130
0.0
111
1.0
121
0.0
131
0.0
112
0.0
122
1.0
132
0.0
 79
     0
146
0.0
  0
ENDSEC
  0
SECTION
  2
OBJECTS
  0
DICTIONARY
  5
C
330
0
100
AcDbDictionary
281
     1
  3
ACAD_GROUP
350
D
  3
ACAD_LAYOUT
350
1A
  3
ACAD_MLINESTYLE
350
17
  3
ACAD_PLOTSETTINGS
350
19
  3
ACAD_PLOTSTYLENAME
350
E
  3
ACAD_SCALELIST
350
47
  0
DICTIONARY
  5
D
102
{ACAD_REACTORS
330
C
102
}
330
C
100
AcDbDictionary
281
     1
  0
DICTIONARY
  5
1A
102
{ACAD_REACTORS
330
C
102
}
330
C
100
AcDbDictionary
281
     1
  3
_Back
350
B5
  3
_Bottom
350
F9
  3
_Dimetric
350
140
  3
_Isometric
350
10C
  3
_Left
350
26
  3
_Right
350
D8
  3
_Top
350
1E
  3
_Trimetric
350
12A
  3
Model
350
22
  0
DICTIONARY
  5
17
102
{ACAD_REACTORS
330
C
102
}
330
C
100
AcDbDictionary
281
     1
  3
Standard
350
18
  0
DICTIONARY
  5
19
102
{ACAD_REACTORS
330
C
102
}
330
C
100
AcDbDictionary
281
     1
  0
ACDBDICTIONARYWDFLT
  5
E
102
{ACAD_REACTORS
330
C
102
}
330
C
100
AcDbDictionary
281
     1
  3
Normal
350
F
100
AcDbDictionaryWithDefault
340
F
  0
DICTIONARY
  5
47
102
{ACAD_REACTORS
330
C
102
}
330
C
100
AcDbDictionary
281
     1
  3
A0
350
48
  3
A1
350
49
  3
A2
350
4A
  3
A3
350
4B
  3
A4
350
4C
  3
A5
350
4D
  3
A6
350
4E
  3
A7
350
4F
  3
A8
350
50
  3
A9
350
51
  3
B0
350
52
  3
B1
350
53
  3
B2
350
54
  3
B3
350
55
  3
B4
350
56
  3
B5
350
57
  3
B6
350
58
  3
B7
350
59
  3
B8
350
5A
  3
B9
350
5B
  3
C0
350
5C
  3
C1
350
5D
  3
C2
350
5E
  3
C3
350
5F
  3
C4
350
60
  3
C5
350
61
  3
C6
350
62
  3
C7
350
63
  3
C8
350
64
  3
C9
350
65
  3
D0
350
66
  3
D1
350
67
  3
D2
350
68
  0
LAYOUT
  5
B5
102
{ACAD_REACTORS
330
1A
102
}
330
1A
100
AcDbPlotSettings
  1

  2
none_device
  4
ISO_A4_(210.00_x_297.00_MM)
  6

 40
7.5
 41
20.0
 42
7.5
 43
20.0
 44
210.0
 45
297.0
 46
0.0
 47
0.0
 48
0.0
 49
0.0
140
0.0
141
0.0
142
1.0
143
1.639888845
 70
   688
 72
     1
 73
     1
 74
     1
  7

 75
     0
147
0.6097974281
148
159.8891623854
149
159.8891623536
100
AcDbLayout
  1
_Back
 70
     1
 71
     3
 10
0.0
 20
0.0
 11
0.0
 21
0.0
 12
0.0
 22
0.0
 32
0.0
 14
0.0
 24
0.0
 34
0.0
 15
0.0
 25
0.0
 35
0.0
146
0.0
 13
0.0
 23
0.0
 33
0.0
 16
1.0
 26
0.0
 36
0.0
 17
0.0
 27
1.0
 37
0.0
 76
     0
330
B4
331
158
  0
LAYOUT
  5
F9
102
{ACAD_REACTORS
330
1A
102
}
330
1A
100
AcDbPlotSettings
  1

  2
none_device
  4
ISO_A4_(210.00_x_297.00_MM)
  6

 40
7.5
 41
20.0
 42
7.5
 43
20.0
 44
210.0
 45
297.0
 46
0.0
 47
0.0
 48
0.0
 49
0.0
140
0.0
141
0.0
142
1.0
143
1.639888845
 70
   688
 72
     1
 73
     1
 74
     1
  7

 75
     0
147
0.6097974281
148
159.8891623854
149
159.8891623536
100
AcDbLayout
  1
_Bottom
 70
     1
 71
     5
 10
0.0
 20
0.0
 11
0.0
 21
0.0
 12
0.0
 22
0.0
 32
0.0
 14
0.0
 24
0.0
 34
0.0
 15
0.0
 25
0.0
 35
0.0
146
0.0
 13
0.0
 23
0.0
 33
0.0
 16
1.0
 26
0.0
 36
0.0
 17
0.0
 27
1.0
 37
0.0
 76
     0
330
F8
331
15C
  0
LAYOUT
  5
140
102
{ACAD_REACTORS
330
1A
102
}
330
1A
100
AcDbPlotSettings
  1

  2
none_device
  4
ISO_A4_(210.00_x_297.00_MM)
  6

 40
7.5
 41
20.0
 42
7.5
 43
20.0
 44
210.0
 45
297.0
 46
0.0
 47
0.0
 48
0.0
 49
0.0
140
0.0
141
0.0
142
1.0
143
1.639888845
 70
   688
 72
     1
 73
     1
 74
     1
  7

 75
     0
147
0.6097974281
148
159.8891623854
149
159.8891623536
100
AcDbLayout
  1
_Dimetric
 70
     1
 71
     8
 10
0.0
 20
0.0
 11
0.0
 21
0.0
 12
0.0
 22
0.0
 32
0.0
 14
0.0
 24
0.0
 34
0.0
 15
0.0
 25
0.0
 35
0.0
146
0.0
 13
0.0
 23
0.0
 33
0.0
 16
1.0
 26
0.0
 36
0.0
 17
0.0
 27
1.0
 37
0.0
 76
     0
330
13F
331
162
  0
LAYOUT
  5
10C
102
{ACAD_REACTORS
330
1A
102
}
330
1A
100
AcDbPlotSettings
  1

  2
none_device
  4
ISO_A4_(210.00_x_297.00_MM)
  6

 40
7.5
 41
20.0
 42
7.5
 43
20.0
 44
210.0
 45
297.0
 46
0.0
 47
0.0
 48
0.0
 49
0.0
140
0.0
141
0.0
142
1.0
143
1.639888845
 70
   688
 72
     1
 73
     1
 74
     1
  7

 75
     0
147
0.6097974281
148
159.8891623854
149
159.8891623536
100
AcDbLayout
  1
_Isometric
 70
     1
 71
     6
 10
0.0
 20
0.0
 11
0.0
 21
0.0
 12
0.0
 22
0.0
 32
0.0
 14
0.0
 24
0.0
 34
0.0
 15
0.0
 25
0.0
 35
0.0
146
0.0
 13
0.0
 23
0.0
 33
0.0
 16
1.0
 26
0.0
 36
0.0
 17
0.0
 27
1.0
 37
0.0
 76
     0
330
10B
331
15E
  0
LAYOUT
  5
26
102
{ACAD_REACTORS
330
1A
102
}
330
1A
100
AcDbPlotSettings
  1

  2
none_device
  4
ISO_A4_(210.00_x_297.00_MM)
  6

 40
7.5
 41
20.0
 42
7.5
 43
20.0
 44
210.0
 45
297.0
 46
0.0
 47
0.0
 48
0.0
 49
0.0
140
0.0
141
0.0
142
1.0
143
1.639888845
 70
   688
 72
     1
 73
     1
 74
     1
  7

 75
     0
147
0.6097974281
148
159.8891623854
149
159.8891623536
100
AcDbLayout
  1
_Left
 70
     1
 71
     2
 10
0.0
 20
0.0
 11
0.0
 21
0.0
 12
0.0
 22
0.0
 32
0.0
 14
0.0
 24
0.0
 34
0.0
 15
0.0
 25
0.0
 35
0.0
146
0.0
 13
0.0
 23
0.0
 33
0.0
 16
1.0
 26
0.0
 36
0.0
 17
0.0
 27
1.0
 37
0.0
 76
     0
330
23
331
156
  0
LAYOUT
  5
D8
102
{ACAD_REACTORS
330
1A
102
}
330
1A
100
AcDbPlotSettings
  1

  2
none_device
  4
ISO_A4_(210.00_x_297.00_MM)
  6

 40
7.5
 41
20.0
 42
7.5
 43
20.0
 44
210.0
 45
297.0
 46
0.0
 47
0.0
 48
0.0
 49
0.0
140
0.0
141
0.0
142
1.0
143
1.639888845
 70
   688
 72
     1
 73
     1
 74
     1
  7

 75
     0
147
0.6097974281
148
159.8891623854
149
159.8891623536
100
AcDbLayout
  1
_Right
 70
     1
 71
     4
 10
0.0
 20
0.0
 11
0.0
 21
0.0
 12
0.0
 22
0.0
 32
0.0
 14
0.0
 24
0.0
 34
0.0
 15
0.0
 25
0.0
 35
0.0
146
0.0
 13
0.0
 23
0.0
 33
0.0
 16
1.0
 26
0.0
 36
0.0
 17
0.0
 27
1.0
 37
0.0
 76
     0
330
D7
331
15A
  0
LAYOUT
  5
1E
102
{ACAD_REACTORS
330
1A
102
}
330
1A
100
AcDbPlotSettings
  1

  2
none_device
  4
ISO_A4_(210.00_x_297.00_MM)
  6

 40
7.5
 41
20.0
 42
7.5
 43
20.0
 44
210.0
 45
297.0
 46
0.0
 47
0.0
 48
0.0
 49
0.0
140
0.0
141
0.0
142
1.0
143
1.639888845
 70
   688
 72
     1
 73
     1
 74
     1
  7

 75
     0
147
0.6097974281
148
159.8891623854
149
159.8891623536
100
AcDbLayout
  1
_Top
 70
     1
 71
     1
 10
-192.6869392849
 20
-172.1883286909
 11
294.3600476736
 21
172.1883287545
 12
0.0
 22
0.0
 32
0.0
 14
-159.8891623854
 24
-159.8891623536
 34
0.0
 15
159.8891623854
 25
159.8891624171
 35
0.0
146
0.0
 13
0.0
 23
0.0
 33
0.0
 16
1.0
 26
0.0
 36
0.0
 17
0.0
 27
1.0
 37
0.0
 76
     0
330
1B
331
154
  0
LAYOUT
  5
12A
102
{ACAD_REACTORS
330
1A
102
}
330
1A
100
AcDbPlotSettings
  1

  2
none_device
  4
ISO_A4_(210.00_x_297.00_MM)
  6

 40
7.5
 41
20.0
 42
7.5
 43
20.0
 44
210.0
 45
297.0
 46
0.0
 47
0.0
 48
0.0
 49
0.0
140
0.0
141
0.0
142
1.0
143
1.639888845
 70
   688
 72
     1
 73
     1
 74
     1
  7

 75
     0
147
0.6097974281
148
159.8891623854
149
159.8891623536
100
AcDbLayout
  1
_Trimetric
 70
     1
 71
     7
 10
0.0
 20
0.0
 11
0.0
 21
0.0
 12
0.0
 22
0.0
 32
0.0
 14
0.0
 24
0.0
 34
0.0
 15
0.0
 25
0.0
 35
0.0
146
0.0
 13
0.0
 23
0.0
 33
0.0
 16
1.0
 26
0.0
 36
0.0
 17
0.0
 27
1.0
 37
0.0
 76
     0
330
129
331
160
  0
LAYOUT
  5
22
102
{ACAD_REACTORS
330
1A
102
}
330
1A
100
AcDbPlotSettings
  1

  2
none_device
  4
ANSI_A_(11.00_x_8.50_Inches)
  6

 40
6.35
 41
19.05
 42
6.35000508
 43
19.05000254
 44
279.4
 45
215.9
 46
133.3499822664
 47
28.3505048063
 48
0.0
 49
0.0
140
0.0
141
0.0
142
0.0340548372
143
1.0
 70
  1696
 72
     0
 73
     0
 74
     0
  7

 75
     0
147
0.0179189148
148
-1300.4909072572
149
0.0
100
AcDbLayout
  1
Model
 70
     1
 71
     0
 10
0.0
 20
0.0
 11
420.0
 21
297.0
 12
0.0
 22
0.0
 32
0.0
 14
-159.8891623864
 24
0.0
 34
0.0
 15
159.8891975162
 25
139.9999845256
 35
0.0
146
0.0
 13
0.0
 23
0.0
 33
0.0
 16
1.0
 26
0.0
 36
0.0
 17
0.0
 27
1.0
 37
0.0
 76
     0
330
1F
331
29
  0
MLINESTYLE
  5
18
102
{ACAD_REACTORS
330
17
102
}
330
17
100
AcDbMlineStyle
  2
Standard
 70
     0
  3

 62
   256
 51
90.0
 52
90.0
 71
     2
 49
0.5
 62
   256
  6
BYLAYER
 49
-0.5
 62
   256
  6
BYLAYER
  0
ACDBPLACEHOLDER
  5
F
102
{ACAD_REACTORS
330
E
102
}
330
E
  0
SCALE
  5
48
102
{ACAD_REACTORS
330
47
102
}
330
47
100
AcDbScale
 70
     0
300
1:1
140
1.0
141
1.0
290
     1
  0
SCALE
  5
49
102
{ACAD_REACTORS
330
47
102
}
330
47
100
AcDbScale
 70
     0
300
1:2
140
1.0
141
2.0
290
     0
  0
SCALE
  5
4A
102
{ACAD_REACTORS
330
47
102
}
330
47
100
AcDbScale
 70
     0
300
1:4
140
1.0
141
4.0
290
     0
  0
SCALE
  5
4B
102
{ACAD_REACTORS
330
47
102
}
330
47
100
AcDbScale
 70
     0
300
1:5
140
1.0
141
5.0
290
     0
  0
SCALE
  5
4C
102
{ACAD_REACTORS
330
47
102
}
330
47
100
AcDbScale
 70
     0
300
1:8
140
1.0
141
8.0
290
     0
  0
SCALE
  5
4D
102
{ACAD_REACTORS
330
47
102
}
330
47
100
AcDbScale
 70
     0
300
1:10
140
1.0
141
10.0
290
     0
  0
SCALE
  5
4E
102
{ACAD_REACTORS
330
47
102
}
330
47
100
AcDbScale
 70
     0
300
1:16
140
1.0
141
16.0
290
     0
  0
SCALE
  5
4F
102
{ACAD_REACTORS
330
47
102
}
330
47
100
AcDbScale
 70
     0
300
1:20
140
1.0
141
20.0
290
     0
  0
SCALE
  5
50
102
{ACAD_REACTORS
330
47
102
}
330
47
100
AcDbScale
 70
     0
300
1:30
140
1.0
141
30.0
290
     0
  0
SCALE
  5
51
102
{ACAD_REACTORS
330
47
102
}
330
47
100
AcDbScale
 70
     0
300
1:40
140
1.0
141
40.0
290
     0
  0
SCALE
  5
52
102
{ACAD_REACTORS
330
47
102
}
330
47
100
AcDbScale
 70
     0
300
1:50
140
1.0
141
50.0
290
     0
  0
SCALE
  5
53
102
{ACAD_REACTORS
330
47
102
}
330
47
100
AcDbScale
 70
     0
300
1:100
140
1.0
141
100.0
290
     0
  0
SCALE
  5
54
102
{ACAD_REACTORS
330
47
102
}
330
47
100
AcDbScale
 70
     0
300
2:1
140
2.0
141
1.0
290
     0
  0
SCALE
  5
55
102
{ACAD_REACTORS
330
47
102
}
330
47
100
AcDbScale
 70
     0
300
4:1
140
4.0
141
1.0
290
     0
  0
SCALE
  5
56
102
{ACAD_REACTORS
330
47
102
}
330
47
100
AcDbScale
 70
     0
300
8:1
140
8.0
141
1.0
290
     0
  0
SCALE
  5
57
102
{ACAD_REACTORS
330
47
102
}
330
47
100
AcDbScale
 70
     0
300
10:1
140
10.0
141
1.0
290
     0
  0
SCALE
  5
58
102
{ACAD_REACTORS
330
47
102
}
330
47
100
AcDbScale
 70
     0
300
100:1
140
100.0
141
1.0
290
     0
  0
SCALE
  5
59
102
{ACAD_REACTORS
330
47
102
}
330
47
100
AcDbScale
 70
     0
300
1/128" = 1'-0"
140
0.0078125
141
12.0
290
     0
  0
SCALE
  5
5A
102
{ACAD_REACTORS
330
47
102
}
330
47
100
AcDbScale
 70
     0
300
1/64" = 1'-0"
140
0.015625
141
12.0
290
     0
  0
SCALE
  5
5B
102
{ACAD_REACTORS
330
47
102
}
330
47
100
AcDbScale
 70
     0
300
1/32" = 1'-0"
140
0.03125
141
12.0
290
     0
  0
SCALE
  5
5C
102
{ACAD_REACTORS
330
47
102
}
330
47
100
AcDbScale
 70
     0
300
1/16" = 1'-0"
140
0.0625
141
12.0
290
     0
  0
SCALE
  5
5D
102
{ACAD_REACTORS
330
47
102
}
330
47
100
AcDbScale
 70
     0
300
3/32" = 1'-0"
140
0.09375
141
12.0
290
     0
  0
SCALE
  5
5E
102
{ACAD_REACTORS
330
47
102
}
330
47
100
AcDbScale
 70
     0
300
1/8" = 1'-0"
140
0.125
141
12.0
290
     0
  0
SCALE
  5
5F
102
{ACAD_REACTORS
330
47
102
}
330
47
100
AcDbScale
 70
     0
300
3/16" = 1'-0"
140
0.1875
141
12.0
290
     0
  0
SCALE
  5
60
102
{ACAD_REACTORS
330
47
102
}
330
47
100
AcDbScale
 70
     0
300
1/4" = 1'-0"
140
0.25
141
12.0
290
     0
  0
SCALE
  5
61
102
{ACAD_REACTORS
330
47
102
}
330
47
100
AcDbScale
 70
     0
300
3/8" = 1'-0"
140
0.375
141
12.0
290
     0
  0
SCALE
  5
62
102
{ACAD_REACTORS
330
47
102
}
330
47
100
AcDbScale
 70
     0
300
1/2" = 1'-0"
140
0.5
141
12.0
290
     0
  0
SCALE
  5
63
102
{ACAD_REACTORS
330
47
102
}
330
47
100
AcDbScale
 70
     0
300
3/4" = 1'-0"
140
0.75
141
12.0
290
     0
  0
SCALE
  5
64
102
{ACAD_REACTORS
330
47
102
}
330
47
100
AcDbScale
 70
     0
300
1" = 1'-0"
140
1.0
141
12.0
290
     0
  0
SCALE
  5
65
102
{ACAD_REACTORS
330
47
102
}
330
47
100
AcDbScale
 70
     0
300
1-1/2" = 1'-0"
140
1.5
141
12.0
290
     0
  0
SCALE
  5
66
102
{ACAD_REACTORS
330
47
102
}
330
47
100
AcDbScale
 70
     0
300
3" = 1'-0"
140
3.0
141
12.0
290
     0
  0
SCALE
  5
67
102
{ACAD_REACTORS
330
47
102
}
330
47
100
AcDbScale
 70
     0
300
6" = 1'-0"
140
6.0
141
12.0
290
     0
  0
SCALE
  5
68
102
{ACAD_REACTORS
330
47
102
}
330
47
100
AcDbScale
 70
     0
300
1'-0" = 1'-0"
140
12.0
141
12.0
290
     0
  0
ENDSEC
  0
EOF
