  0
SECTION
  2
HEADER
  9
$ACADVER
  1
AC1015
  9
$ACADMAINTVER
 70
     6
  9
$DWGCODEPAGE
  3
ANSI_1252
  9
$INSBASE
 10
0.0
 20
0.0
 30
0.0
  9
$EXTMIN
 10
-375.0
 20
-225.0
 30
0.0
  9
$EXTMAX
 10
375.0
 20
225.0
 30
0.0
  9
$LIMMIN
 10
0.0
 20
0.0
  9
$LIMMAX
 10
420.0
 20
297.0
  9
$ORTHOMODE
 70
     0
  9
$REGENMODE
 70
     1
  9
$FILLMODE
 70
     1
  9
$QTEXTMODE
 70
     0
  9
$MIRRTEXT
 70
     1
  9
$LTSCALE
 40
1.0
  9
$ATTMODE
 70
     1
  9
$TEXTSIZE
 40
3.5
  9
$TRACEWID
 40
1.0
  9
$TEXTSTYLE
  7
Standard
  9
$CLAYER
  8
0
  9
$CELTYPE
  6
ByLayer
  9
$CECOLOR
 62
   256
  9
$CELTSCALE
 40
1.0
  9
$DISPSILH
 70
     0
  9
$DIMSCALE
 40
1.0
  9
$DIMASZ
 40
3.302
  9
$DIMEXO
 40
1.0
  9
$DIMDLI
 40
3.75
  9
$DIMRND
 40
0.0
  9
$DIMDLE
 40
0.0
  9
$DIMEXE
 40
1.0
  9
$DIMTP
 40
0.0
  9
$DIMTM
 40
0.0
  9
$DIMTXT
 40
3.5
  9
$DIMCEN
 40
2.5
  9
$DIMTSZ
 40
0.0
  9
$DIMTOL
 70
     0
  9
$DIMLIM
 70
     0
  9
$DIMTIH
 70
     1
  9
$DIMTOH
 70
     1
  9
$DIMSE1
 70
     0
  9
$DIMSE2
 70
     0
  9
$DIMTAD
 70
     1
  9
$DIMZIN
 70
     0
  9
$DIMBLK
  1

  9
$DIMASO
 70
     1
  9
$DIMSHO
 70
     1
  9
$DIMPOST
  1

  9
$DIMAPOST
  1

  9
$DIMALT
 70
     0
  9
$DIMALTD
 70
     3
  9
$DIMALTF
 40
0.0393700787
  9
$DIMLFAC
 40
1.0
  9
$DIMTOFL
 70
     1
  9
$DIMTVP
 40
0.0
  9
$DIMTIX
 70
     0
  9
$DIMSOXD
 70
     0
  9
$DIMSAH
 70
     0
  9
$DIMBLK1
  1

  9
$DIMBLK2
  1

  9
$DIMSTYLE
  2
ISO-25
  9
$DIMCLRD
 70
     0
  9
$DIMCLRE
 70
     0
  9
$DIMCLRT
 70
     0
  9
$DIMTFAC
 40
1.0
  9
$DIMGAP
 40
1.524
  9
$DIMJUST
 70
     0
  9
$DIMSD1
 70
     0
  9
$DIMSD2
 70
     0
  9
$DIMTOLJ
 70
     0
  9
$DIMTZIN
 70
     0
  9
$DIMALTZ
 70
     0
  9
$DIMALTTZ
 70
     0
  9
$DIMUPT
 70
     0
  9
$DIMDEC
 70
     2
  9
$DIMTDEC
 70
     2
  9
$DIMALTU
 70
     2
  9
$DIMALTTD
 70
     3
  9
$DIMTXSTY
  7
Standard
  9
$DIMAUNIT
 70
     0
  9
$DIMADEC
 70
     2
  9
$DIMALTRND
 40
0.0
  9
$DIMAZIN
 70
     0
  9
$DIMDSEP
 70
    44
  9
$DIMATFIT
 70
     3
  9
$DIMFRAC
 70
     0
  9
$DIMLDRBLK
  1

  9
$DIMLUNIT
 70
     2
  9
$DIMLWD
 70
    -2
  9
$DIMLWE
 70
    -2
  9
$DIMTMOVE
 70
     0
  9
$LUNITS
 70
     2
  9
$LUPREC
 70
     2
  9
$SKETCHINC
 40
1.0
  9
$FILLETRAD
 40
10.0
  9
$AUNITS
 70
     0
  9
$AUPREC
 70
     2
  9
$MENU
  1
.
  9
$ELEVATION
 40
0.0
  9
$PELEVATION
 40
0.0
  9
$THICKNESS
 40
0.0
  9
$LIMCHECK
 70
     0
  9
$CHAMFERA
 40
0.0
  9
$CHAMFERB
 40
0.0
  9
$CHAMFERC
 40
0.0
  9
$CHAMFERD
 40
0.0
  9
$SKPOLY
 70
     0
  9
$TDCREATE
 40
2458704.654188241
  9
$TDUCREATE
 40
2458704.612521574
  9
$TDUPDATE
 40
2458704.654220128
  9
$TDUUPDATE
 40
2458704.612553461
  9
$TDINDWG
 40
0.0000000116
  9
$TDUSRTIMER
 40
0.0000000116
  9
$USRTIMER
 70
     1
  9
$ANGBASE
 50
0.0
  9
$ANGDIR
 70
     0
  9
$PDMODE
 70
     0
  9
$PDSIZE
 40
-1.0
  9
$PLINEWID
 40
0.0
  9
$SPLFRAME
 70
     0
  9
$SPLINETYPE
 70
     6
  9
$SPLINESEGS
 70
     8
  9
$HANDSEED
  5
267
  9
$SURFTAB1
 70
     6
  9
$SURFTAB2
 70
     6
  9
$SURFTYPE
 70
     6
  9
$SURFU
 70
     6
  9
$SURFV
 70
     6
  9
$UCSBASE
  2

  9
$UCSNAME
  2

  9
$UCSORG
 10
0.0
 20
0.0
 30
0.0
  9
$UCSXDIR
 10
1.0
 20
0.0
 30
0.0
  9
$UCSYDIR
 10
0.0
 20
1.0
 30
0.0
  9
$UCSORTHOREF
  2

  9
$UCSORTHOVIEW
 70
     0
  9
$UCSORGTOP
 10
0.0
 20
0.0
 30
0.0
  9
$UCSORGBOTTOM
 10
0.0
 20
0.0
 30
0.0
  9
$UCSORGLEFT
 10
0.0
 20
0.0
 30
0.0
  9
$UCSORGRIGHT
 10
0.0
 20
0.0
 30
0.0
  9
$UCSORGFRONT
 10
0.0
 20
0.0
 30
0.0
  9
$UCSORGBACK
 10
0.0
 20
0.0
 30
0.0
  9
$PUCSBASE
  2

  9
$PUCSNAME
  2

  9
$PUCSORG
 10
0.0
 20
0.0
 30
0.0
  9
$PUCSXDIR
 10
1.0
 20
0.0
 30
0.0
  9
$PUCSYDIR
 10
0.0
 20
1.0
 30
0.0
  9
$PUCSORTHOREF
  2

  9
$PUCSORTHOVIEW
 70
     0
  9
$PUCSORGTOP
 10
0.0
 20
0.0
 30
0.0
  9
$PUCSORGBOTTOM
 10
0.0
 20
0.0
 30
0.0
  9
$PUCSORGLEFT
 10
0.0
 20
0.0
 30
0.0
  9
$PUCSORGRIGHT
 10
0.0
 20
0.0
 30
0.0
  9
$PUCSORGFRONT
 10
0.0
 20
0.0
 30
0.0
  9
$PUCSORGBACK
 10
0.0
 20
0.0
 30
0.0
  9
$USERI1
 70
     0
  9
$USERI2
 70
     0
  9
$USERI3
 70
     0
  9
$USERI4
 70
     0
  9
$USERI5
 70
     0
  9
$USERR1
 40
0.0
  9
$USERR2
 40
0.0
  9
$USERR3
 40
0.0
  9
$USERR4
 40
0.0
  9
$USERR5
 40
0.0
  9
$WORLDVIEW
 70
     1
  9
$SHADEDGE
 70
     3
  9
$SHADEDIF
 70
    70
  9
$TILEMODE
 70
     1
  9
$MAXACTVP
 70
    64
  9
$PINSBASE
 10
0.0
 20
0.0
 30
0.0
  9
$PLIMCHECK
 70
     0
  9
$PEXTMIN
 10
-375.0
 20
-20.0
 30
0.0
  9
$PEXTMAX
 10
375.0
 20
130.0
 30
0.0
  9
$PLIMMIN
 10
-433.3657587549
 20
-41.8871595331
  9
$PLIMMAX
 10
433.3657587549
 20
570.953307393
  9
$UNITMODE
 70
     0
  9
$VISRETAIN
 70
     1
  9
$PLINEGEN
 70
     0
  9
$PSLTSCALE
 70
     1
  9
$TREEDEPTH
 70
  3020
  9
$CMLSTYLE
  2
Standard
  9
$CMLJUST
 70
     0
  9
$CMLSCALE
 40
20.0
  9
$PROXYGRAPHICS
 70
     1
  9
$MEASUREMENT
 70
     1
  9
$CELWEIGHT
370
    -1
  9
$ENDCAPS
280
     0
  9
$JOINSTYLE
280
     0
  9
$LWDISPLAY
290
     1
  9
$INSUNITS
 70
     4
  9
$HYPERLINKBASE
  1

  9
$STYLESHEET
  1

  9
$XEDIT
290
     1
  9
$CEPSNTYPE
380
     0
  9
$PSTYLEMODE
290
     1
  9
$FINGERPRINTGUID
  2
{6ffc9722-91b4-42ab-9673-ef40c8a1bda9}
  9
$VERSIONGUID
  2
{FAEB1C32-E019-11D5-929B-00C0DF256EC4}
  9
$EXTNAMES
290
     1
  9
$PSVPSCALE
 40
0.0
  9
$OLESTARTUP
290
     0
  0
ENDSEC
  0
SECTION
  2
CLASSES
  0
CLASS
  1
ACDBDICTIONARYWDFLT
  2
AcDbDictionaryWithDefault
  3
ObjectDBX Classes
 90
        0
280
     0
281
     0
  0
CLASS
  1
VISUALSTYLE
  2
AcDbVisualStyle
  3
ObjectDBX Classes
 90
     4095
280
     0
281
     0
  0
CLASS
  1
MATERIAL
  2
AcDbMaterial
  3
ObjectDBX Classes
 90
     1153
280
     0
281
     0
  0
CLASS
  1
SCALE
  2
AcDbScale
  3
ObjectDBX Classes
 90
     1153
280
     0
281
     0
  0
CLASS
  1
TABLESTYLE
  2
AcDbTableStyle
  3
ObjectDBX Classes
 90
     4095
280
     0
281
     0
  0
CLASS
  1
MLEADERSTYLE
  2
AcDbMLeaderStyle
  3
ACDB_MLEADERSTYLE_CLASS
 90
     4095
280
     0
281
     0
  0
CLASS
  1
SUN
  2
AcDbSun
  3
SCENEOE
 90
     1153
280
     0
281
     0
  0
CLASS
  1
ACDBPLACEHOLDER
  2
AcDbPlaceHolder
  3
ObjectDBX Classes
 90
        0
280
     0
281
     0
  0
CLASS
  1
LAYOUT
  2
AcDbLayout
  3
ObjectDBX Classes
 90
        0
280
     0
281
     0
  0
ENDSEC
  0
SECTION
  2
TABLES
  0
TABLE
  2
VPORT
  5
8
330
0
100
AcDbSymbolTable
 70
     1
  0
VPORT
  5
29
330
8
100
AcDbSymbolTableRecord
100
AcDbViewportTableRecord
  2
*Active
 70
     0
 10
0.0
 20
0.0
 11
1.0
 21
1.0
 12
0.0
 22
0.0
 13
0.0
 23
0.0
 14
10.0
 24
10.0
 15
10.0
 25
10.0
 16
0.0
 26
0.0
 36
1.0
 17
0.0
 27
0.0
 37
0.0
 40
459.0
 41
1.6666666667
 42
50.0
 43
0.0
 44
0.0
 50
0.0
 51
0.0
 71
     0
 72
   100
 73
     1
 74
     3
 75
     0
 76
     0
 77
     0
 78
     0
281
     0
 65
     1
110
0.0
120
0.0
130
0.0
111
1.0
121
0.0
131
0.0
112
0.0
122
1.0
132
0.0
 79
     0
146
0.0
  0
ENDTAB
  0
TABLE
  2
LTYPE
  5
5
330
0
100
AcDbSymbolTable
 70
     6
  0
LTYPE
  5
14
330
5
100
AcDbSymbolTableRecord
100
AcDbLinetypeTableRecord
  2
ByBlock
 70
     0
  3

 72
    65
 73
     0
 40
0.0
  0
LTYPE
  5
15
330
5
100
AcDbSymbolTableRecord
100
AcDbLinetypeTableRecord
  2
ByLayer
 70
     0
  3

 72
    65
 73
     0
 40
0.0
  0
LTYPE
  5
16
330
5
100
AcDbSymbolTableRecord
100
AcDbLinetypeTableRecord
  2
Continuous
 70
     0
  3
Solid line
 72
    65
 73
     0
 40
0.0
  0
LTYPE
  5
6E
330
5
100
AcDbSymbolTableRecord
100
AcDbLinetypeTableRecord
  2
HIDDEN
 70
     0
  3
Hidden __ __ __ __ __ __ __ __ __ __ __ __ __ __
 72
    65
 73
     2
 40
1.905
 49
1.27
 74
     0
 49
-0.635
 74
     0
  0
LTYPE
  5
6F
330
5
100
AcDbSymbolTableRecord
100
AcDbLinetypeTableRecord
  2
PHANTOM
 70
     0
  3
Phantom ______  __  __  ______  __  __  ______
 72
    65
 73
     6
 40
12.7
 49
6.35
 74
     0
 49
-1.27
 74
     0
 49
1.27
 74
     0
 49
-1.27
 74
     0
 49
1.27
 74
     0
 49
-1.27
 74
     0
  0
LTYPE
  5
70
330
5
100
AcDbSymbolTableRecord
100
AcDbLinetypeTableRecord
  2
CENTER
 70
     0
  3
Center ____ _ ____ _ ____ _ ____ _ ____ _ ____
 72
    65
 73
     4
 40
10.16
 49
6.35
 74
     0
 49
-1.27
 74
     0
 49
1.27
 74
     0
 49
-1.27
 74
     0
  0
LTYPE
  5
71
330
5
100
AcDbSymbolTableRecord
100
AcDbLinetypeTableRecord
  2
CENTERX2
 70
     0
  3
Center (2x) ________  __  ________  __  _____
 72
    65
 73
     4
 40
20.32
 49
12.7
 74
     0
 49
-2.54
 74
     0
 49
2.54
 74
     0
 49
-2.54
 74
     0
  0
LTYPE
  5
72
330
5
100
AcDbSymbolTableRecord
100
AcDbLinetypeTableRecord
  2
DOT2
 70
     0
  3
Dot (.5x) ........................................
 72
    65
 73
     2
 40
0.635
 49
0.0
 74
     0
 49
-0.635
 74
     0
  0
ENDTAB
  0
TABLE
  2
LAYER
  5
2
330
0
100
AcDbSymbolTable
 70
     1
  0
LAYER
  5
10
330
2
100
AcDbSymbolTableRecord
100
AcDbLayerTableRecord
  2
0
 70
     0
 62
     7
  6
Continuous
370
    -3
390
F
  0
ENDTAB
  0
TABLE
  2
STYLE
  5
3
330
0
100
AcDbSymbolTable
 70
     1
  0
STYLE
  5
11
330
3
100
AcDbSymbolTableRecord
100
AcDbTextStyleTableRecord
  2
Standard
 70
     0
 40
0.0
 41
1.0
 50
0.0
 71
     0
 42
3.5
  3
txt
  4

  0
ENDTAB
  0
TABLE
  2
VIEW
  5
6
330
0
100
AcDbSymbolTable
 70
     0
  0
ENDTAB
  0
TABLE
  2
UCS
  5
7
330
0
100
AcDbSymbolTable
 70
     0
  0
ENDTAB
  0
TABLE
  2
APPID
  5
9
330
0
100
AcDbSymbolTable
 70
     1
  0
APPID
  5
12
330
9
100
AcDbSymbolTableRecord
100
AcDbRegAppTableRecord
  2
ACAD
 70
     0
  0
ENDTAB
  0
TABLE
  2
DIMSTYLE
  5
A
330
0
100
AcDbSymbolTable
 70
     1
100
AcDbDimStyleTable
  0
DIMSTYLE
105
27
330
A
100
AcDbSymbolTableRecord
100
AcDbDimStyleTableRecord
  2
ISO-25
 70
     0
 41
2.5
 42
0.625
 43
3.75
 44
1.25
 73
     0
 74
     0
 77
     1
 78
     8
140
2.5
141
2.5
143
0.0393700787
147
0.625
171
     3
172
     1
178
     0
271
     2
272
     2
274
     3
278
    44
283
     0
284
     8
340
11
  0
ENDTAB
  0
TABLE
  2
BLOCK_RECORD
  5
1
330
0
100
AcDbSymbolTable
 70
     2
  0
BLOCK_RECORD
  5
1F
330
1
100
AcDbSymbolTableRecord
100
AcDbBlockTableRecord
  2
*Model_Space
340
22
  0
BLOCK_RECORD
  5
1B
330
1
100
AcDbSymbolTableRecord
100
AcDbBlockTableRecord
  2
*Paper_Space
340
1E
  0
BLOCK_RECORD
  5
23
330
1
100
AcDbSymbolTableRecord
100
AcDbBlockTableRecord
  2
*Paper_Space0
340
26
  0
BLOCK_RECORD
  5
187
330
1
100
AcDbSymbolTableRecord
100
AcDbBlockTableRecord
  2
*Paper_Space1
340
188
  0
ENDTAB
  0
ENDSEC
  0
SECTION
  2
BLOCKS
  0
BLOCK
  5
20
330
1F
100
AcDbEntity
  8
0
100
AcDbBlockBegin
  2
*Model_Space
 70
     0
 10
0.0
 20
0.0
 30
0.0
  3
*Model_Space
  1

  0
ENDBLK
  5
21
330
1F
100
AcDbEntity
  8
0
100
AcDbBlockEnd
  0
BLOCK
  5
1C
330
1B
100
AcDbEntity
 67
     1
  8
0
100
AcDbBlockBegin
  2
*Paper_Space
 70
     0
 10
0.0
 20
0.0
 30
0.0
  3
*Paper_Space
  1

  0
ENDBLK
  5
1D
330
1B
100
AcDbEntity
 67
     1
  8
0
100
AcDbBlockEnd
  0
BLOCK
  5
24
330
23
100
AcDbEntity
  8
0
100
AcDbBlockBegin
  2
*Paper_Space0
 70
     0
 10
0.0
 20
0.0
 30
0.0
  3
*Paper_Space0
  1

  0
LWPOLYLINE
  5
154
330
23
100
AcDbEntity
  8
0
  6
Continuous
 62
     7
370
    25
100
AcDbPolyline
 90
        9
 70
   128
 43
0.0
 10
-220.0
 20
130.0
 10
-220.195090322
 20
129.903926402
 10
-220.3826834324
 20
129.6193976626
 10
-220.555570233
 20
129.1573480615
 10
-220.7071067812
 20
128.5355339059
 10
-220.8314696123
 20
127.7778511651
 10
-220.9238795325
 20
126.9134171618
 10
-220.9807852804
 20
125.9754516101
 10
-221.0
 20
125.0
  0
LWPOLYLINE
  5
155
330
23
100
AcDbEntity
  8
0
  6
Continuous
 62
     7
370
    25
100
AcDbPolyline
 90
        9
 70
   128
 43
0.0
 10
221.0
 20
125.0
 10
220.9807852804
 20
125.9754516101
 10
220.9238795325
 20
126.9134171618
 10
220.8314696123
 20
127.7778511651
 10
220.7071067812
 20
128.5355339059
 10
220.555570233
 20
129.1573480615
 10
220.3826834324
 20
129.6193976626
 10
220.195090322
 20
129.903926402
 10
220.0
 20
130.0
  0
SPLINE
  5
158
330
23
100
AcDbEntity
  8
0
  6
Continuous
 62
     7
370
    25
100
AcDbSpline
210
0.0
220
0.0
230
1.0
 70
     8
 71
     3
 72
    24
 73
    20
 74
     0
 42
0.000000001
 43
0.00000001
 40
0.0
 40
0.0
 40
0.0
 40
0.0
 40
0.1250000000000001
 40
0.1250000000000001
 40
0.2500000000000003
 40
0.2500000000000003
 40
0.3750000000000004
 40
0.3750000000000004
 40
0.5000000000000006
 40
0.5000000000000006
 40
0.6250000000000007
 40
0.6250000000000007
 40
0.7500000000000009
 40
0.7500000000000009
 40
0.8125000000000007
 40
0.8125000000000007
 40
0.8750000000000006
 40
0.8750000000000006
 40
1.0
 40
1.0
 40
1.0
 40
1.0
 10
-31.71166030098306
 20
-12.89530150989253
 30
0.0
 10
-31.48536856104586
 20
-12.89530150989253
 30
0.0
 10
-31.25735208866706
 20
-12.85986436251585
 30
0.0
 10
-30.79811000756896
 20
-12.72355036350045
 30
0.0
 10
-30.56555637775768
 20
-12.62186337696721
 30
0.0
 10
-30.10435347828868
 20
-12.3546677818233
 30
0.0
 10
-29.87821870567406
 20
-12.19104261184584
 30
0.0
 10
-29.43707325197687
 20
-11.80340906389538
 30
0.0
 10
-29.22027866503329
 20
-11.57698679632345
 30
0.0
 10
-28.81447956539468
 20
-11.07119162895906
 30
0.0
 10
-28.62473134529984
 20
-10.79198381182497
 30
0.0
 10
-28.27845076760119
 20
-10.17466568310059
 30
0.0
 10
-28.12180011475458
 20
-9.834432396708143
 30
0.0
 10
-27.92961025907265
 20
-9.2949978027686
 30
0.0
 10
-27.87222231396684
 20
-9.109555384391705
 30
0.0
 10
-27.77232849365718
 20
-8.726470577400988
 30
0.0
 10
-27.72991877917389
 20
-8.528519990661856
 30
0.0
 10
-27.63014547750955
 20
-7.93106351839877
 30
0.0
 10
-27.59855584201298
 20
-7.523080898287598
 30
0.0
 10
-27.60517511667995
 20
-7.104698490107538
 30
0.0
  0
SPLINE
  5
15E
330
23
100
AcDbEntity
  8
0
  6
Continuous
 62
     7
370
    25
100
AcDbSpline
210
0.0
220
0.0
230
1.0
 70
     8
 71
     3
 72
    20
 73
    16
 74
     0
 42
0.000000001
 43
0.00000001
 40
0.0
 40
0.0
 40
0.0
 40
0.0
 40
0.0624999999999999
 40
0.0624999999999999
 40
0.1249999999999998
 40
0.1249999999999998
 40
0.2499999999999996
 40
0.2499999999999996
 40
0.3749999999999993
 40
0.3749999999999993
 40
0.4999999999999991
 40
0.4999999999999991
 40
0.7499999999999996
 40
0.7499999999999996
 40
1.0
 40
1.0
 40
1.0
 40
1.0
 10
-29.78605500856546
 20
-7.104698490107531
 30
0.0
 10
-29.78185504398517
 20
-7.244100316999541
 30
0.0
 10
-29.79604093338471
 20
-7.380011988167519
 30
0.0
 10
-29.85714579925594
 20
-7.645594166612383
 30
0.0
 10
-29.90405629427722
 20
-7.773882614407618
 30
0.0
 10
-30.07945514607435
 20
-8.135582343341177
 30
0.0
 10
-30.23550913212681
 20
-8.339394393282017
 30
0.0
 10
-30.58695005832326
 20
-8.704653518951028
 30
0.0
 10
-30.7806907065609
 20
-8.862390447814297
 30
0.0
 10
-31.1809454469087
 20
-9.139625407128648
 30
0.0
 10
-31.38955280437832
 20
-9.260372133133494
 30
0.0
 10
-32.03104889882893
 20
-9.580208345780939
 30
0.0
 10
-32.46997069277419
 20
-9.733812591771542
 30
0.0
 10
-33.35528779371311
 20
-9.944823564061913
 30
0.0
 10
-33.79487143351584
 20
-10.00000000000002
 30
0.0
 10
-34.23038371669244
 20
-10.00000000000004
 30
0.0
  0
LWPOLYLINE
  5
15F
330
23
100
AcDbEntity
  8
0
  6
Continuous
 62
     7
370
    25
100
AcDbPolyline
 90
        3
 70
   128
 43
0.0
 10
-124.5011154371
 20
-2.4329070804
 10
-127.034376111
 20
-0.1815174361
 10
-127.2151898581
 20
0.0
  0
LWPOLYLINE
  5
168
330
23
100
AcDbEntity
  8
0
  6
Continuous
 62
     8
370
    25
100
AcDbPolyline
 90
        3
 70
   128
 43
0.0
 10
-29.7860550086
 20
-7.1046984901
 10
-29.8925842831
 20
-0.0203856358
 10
-29.8928897373
 20
0.0
  0
LINE
  5
169
330
23
100
AcDbEntity
  8
0
  6
Continuous
 62
     7
370
    25
100
AcDbLine
 10
-37.7481015383
 20
-12.8953015099
 30
0.0
 11
-37.6011061566
 21
-17.1046984901
 31
0.0
  0
LINE
  5
16A
330
23
100
AcDbEntity
  8
0
  6
Continuous
 62
     7
370
    25
100
AcDbLine
 10
37.6011061566
 20
-17.1046984901
 30
0.0
 11
38.1984153898
 21
0.0
 31
0.0
  0
LINE
  5
16B
330
23
100
AcDbEntity
  8
0
  6
Continuous
 62
     7
370
    25
100
AcDbLine
 10
222.0
 20
0.0
 30
0.0
 11
-222.0
 21
0.0
 31
0.0
  0
LINE
  5
16C
330
23
100
AcDbEntity
  8
0
  6
Continuous
 62
     7
370
    25
100
AcDbLine
 10
-225.0
 20
3.0
 30
0.0
 11
225.0
 21
3.0
 31
0.0
  0
LINE
  5
16D
330
23
100
AcDbEntity
  8
0
  6
Continuous
 62
     7
370
    25
100
AcDbLine
 10
-221.0
 20
125.0
 30
0.0
 11
-221.0
 21
0.0
 31
0.0
  0
LINE
  5
16E
330
23
100
AcDbEntity
  8
0
  6
Continuous
 62
     7
370
    25
100
AcDbLine
 10
221.0
 20
0.0
 30
0.0
 11
221.0
 21
125.0
 31
0.0
  0
LINE
  5
16F
330
23
100
AcDbEntity
  8
0
  6
Continuous
 62
     7
370
    25
100
AcDbLine
 10
225.0
 20
125.0
 30
0.0
 11
-225.0
 21
125.0
 31
0.0
  0
LINE
  5
170
330
23
100
AcDbEntity
  8
0
  6
Continuous
 62
     7
370
    25
100
AcDbLine
 10
-225.0
 20
3.0
 30
0.0
 11
-225.0
 21
125.0
 31
0.0
  0
LINE
  5
171
330
23
100
AcDbEntity
  8
0
  6
Continuous
 62
     7
370
    25
100
AcDbLine
 10
225.0
 20
125.0
 30
0.0
 11
225.0
 21
3.0
 31
0.0
  0
LINE
  5
172
330
23
100
AcDbEntity
  8
0
  6
Continuous
 62
     7
370
    25
100
AcDbLine
 10
-220.0
 20
130.0
 30
0.0
 11
220.0
 21
130.0
 31
0.0
  0
LINE
  5
173
330
23
100
AcDbEntity
  8
0
  6
Continuous
 62
     7
370
    25
100
AcDbLine
 10
34.6029336529
 20
-20.0
 30
0.0
 11
-34.6029336756
 21
-20.0
 31
0.0
  0
LINE
  5
174
330
23
100
AcDbEntity
  8
0
  6
Continuous
 62
     7
370
    25
100
AcDbLine
 10
-102.7655314993
 20
-7.1046984901
 30
0.0
 11
-29.7860550086
 21
-7.1046984901
 31
0.0
  0
LINE
  5
175
330
23
100
AcDbEntity
  8
0
  6
Continuous
 62
     7
370
    25
100
AcDbLine
 10
-102.7655314993
 20
-10.0
 30
0.0
 11
-102.7655314993
 21
-7.1046984901
 31
0.0
  0
LINE
  5
176
330
23
100
AcDbEntity
  8
0
  6
Continuous
 62
     7
370
    25
100
AcDbLine
 10
-34.2303837167
 20
-10.0
 30
0.0
 11
-102.7655314993
 21
-10.0
 31
0.0
  0
LINE
  5
177
330
23
100
AcDbEntity
  8
0
  6
Continuous
 62
     8
370
    25
100
AcDbLine
 10
-31.711660301
 20
-12.8953015099
 30
0.0
 11
-37.7481015383
 21
-12.8953015099
 31
0.0
  0
LINE
  5
178
330
23
100
AcDbEntity
  8
0
  6
Continuous
 62
     8
370
    25
100
AcDbLine
 10
-27.7173366571
 20
0.0
 30
0.0
 11
-27.6051751167
 21
-7.1046984901
 31
0.0
  0
LINE
  5
179
330
23
100
AcDbEntity
  8
0
  6
Continuous
 62
     8
370
    25
100
AcDbLine
 10
-37.6011061566
 20
-17.1046984901
 30
0.0
 11
37.6011061566
 21
-17.1046984901
 31
0.0
  0
LINE
  5
17A
330
23
100
AcDbEntity
  8
0
  6
Continuous
 62
     8
370
    25
100
AcDbLine
 10
-122.8704448616
 20
0.0
 30
0.0
 11
-122.6380653853
 21
-0.1862135351
 31
0.0
  0
ARC
  5
17B
330
23
100
AcDbEntity
  8
0
  6
Continuous
 62
     7
370
    25
100
AcDbCircle
 10
34.6029336756
 20
-17.0
 30
0.0
 40
2.999999999999989
100
AcDbArc
 50
270.0
 51
358.0
  0
ARC
  5
17C
330
23
100
AcDbEntity
  8
0
  6
Continuous
 62
     7
370
    25
100
AcDbCircle
 10
-34.6029336756
 20
-17.0
 30
0.0
 40
2.999999999999989
100
AcDbArc
 50
182.0
 51
270.0
  0
ARC
  5
17D
330
23
100
AcDbEntity
  8
0
  6
Continuous
 62
     7
370
    25
100
AcDbCircle
 10
-40.7462740193
 20
-13.0
 30
0.0
 40
3.000000000000008
100
AcDbArc
 50
2.0
 51
90.0
  0
ARC
  5
17E
330
23
100
AcDbEntity
  8
0
  6
Continuous
 62
     7
370
    25
100
AcDbCircle
 10
-222.0
 20
3.0
 30
0.0
 40
3.000000000000005
100
AcDbArc
 50
180.0
 51
270.0
  0
ARC
  5
17F
330
23
100
AcDbEntity
  8
0
  6
Continuous
 62
     7
370
    25
100
AcDbCircle
 10
222.0
 20
3.0
 30
0.0
 40
3.000000000000028
100
AcDbArc
 50
270.0
 51
0.0
  0
ARC
  5
180
330
23
100
AcDbEntity
  8
0
  6
Continuous
 62
     7
370
    25
100
AcDbCircle
 10
-220.0
 20
125.0
 30
0.0
 40
5.0
100
AcDbArc
 50
90.0
 51
180.0
  0
ARC
  5
181
330
23
100
AcDbEntity
  8
0
  6
Continuous
 62
     7
370
    25
100
AcDbCircle
 10
220.0
 20
125.0
 30
0.0
 40
5.000000000000028
100
AcDbArc
 50
0.0
 51
90.0
  0
ARC
  5
182
330
23
100
AcDbEntity
  8
0
  6
Continuous
 62
     7
370
    25
100
AcDbCircle
 10
-102.7655314993
 20
24.8953015099
 30
0.0
 40
32.00000000000006
100
AcDbArc
 50
231.60958381
 51
270.0
  0
ARC
  5
183
330
23
100
AcDbEntity
  8
0
  6
Continuous
 62
     7
370
    25
100
AcDbCircle
 10
-28.6956150626
 20
-70.0586107299
 30
0.0
 40
62.96335541861416
100
AcDbArc
 50
89.007665174
 51
90.992334826
  0
ARC
  5
184
330
23
100
AcDbEntity
  8
0
  6
Continuous
 62
     7
370
    25
100
AcDbCircle
 10
-34.4808054061
 20
-12.7610638079
 30
0.0
 40
2.772396864395623
100
AcDbArc
 50
357.2246894646
 51
84.8175930622
  0
ARC
  5
185
330
23
100
AcDbEntity
  8
0
  6
Continuous
 62
     7
370
    25
100
AcDbCircle
 10
-149.240722514
 20
19.9779909443
 30
0.0
 40
33.38108009929139
100
AcDbArc
 50
317.8274749645
 51
322.8387065503
  0
ARC
  5
186
330
23
100
AcDbEntity
  8
0
  6
Continuous
 62
     7
370
    25
100
AcDbCircle
 10
-102.7655314993
 20
25.0
 30
0.0
 40
34.99999999999997
100
AcDbArc
 50
231.60958381
 51
270.0
  0
VIEWPORT
  5
263
330
23
100
AcDbEntity
  8
0
100
AcDbViewport
 10
0.0
 20
0.0
 30
0.0
 40
205.6
 41
156.0
 68
     1
 69
     1
 12
0.0
 22
0.0
 13
0.0
 23
0.0
 14
10.0
 24
10.0
 15
10.0
 25
10.0
 16
0.0
 26
0.0
 36
1.0
 17
0.0
 27
0.0
 37
0.0
 42
50.0
 43
0.0
 44
0.0
 45
580.4474708171
 50
0.0
 51
0.0
 72
   100
 90
   557152
  1

281
     0
 71
     1
 74
     0
110
0.0
120
0.0
130
0.0
111
1.0
121
0.0
131
0.0
112
0.0
122
1.0
132
0.0
 79
     0
146
0.0
  0
ENDBLK
  5
25
330
23
100
AcDbEntity
  8
0
100
AcDbBlockEnd
  0
BLOCK
  5
189
330
187
100
AcDbEntity
  8
0
100
AcDbBlockBegin
  2
*Paper_Space1
 70
     0
 10
0.0
 20
0.0
 30
0.0
  3
*Paper_Space1
  1

  0
LWPOLYLINE
  5
19D
330
187
100
AcDbEntity
  8
0
  6
Continuous
 62
     7
370
    25
100
AcDbPolyline
 90
        9
 70
   128
 43
0.0
 10
-305.0
 20
3.0
 10
-305.0
 20
2.6084211944
 10
-305.0
 20
2.2235424185
 10
-305.0
 20
1.8519490628
 10
-305.0
 20
1.4999991999
 10
-305.0
 20
1.1737147968
 10
-305.0
 20
0.8786786766
 10
-305.0
 20
0.6199389949
 10
-305.000001863
 20
0.4019228648
  0
SPLINE
  5
19E
330
187
100
AcDbEntity
  8
0
  6
Continuous
 62
     7
370
    25
100
AcDbSpline
210
0.0
220
0.0
230
1.0
 70
     8
 71
     3
 72
    12
 73
     8
 74
     0
 42
0.000000001
 43
0.00000001
 40
0.0
 40
0.0
 40
0.0
 40
0.0
 40
0.25
 40
0.25
 40
0.5
 40
0.5
 40
1.0
 40
1.0
 40
1.0
 40
1.0
 10
-307.2261305374772
 20
0.101530394333138
 30
0.0
 10
-307.0845962871962
 20
0.1393189686826196
 30
0.0
 10
-306.9206377333722
 20
0.1781455653306133
 30
0.0
 10
-306.5645776468222
 20
0.2478176328990084
 30
0.0
 10
-306.3754329089272
 20
0.2780411513458592
 30
0.0
 10
-305.8003561006182
 20
0.3517297233895864
 30
0.0
 10
-305.3969272726827
 20
0.3791678928421818
 30
0.0
 10
-305.0
 20
0.4019237886466742
 30
0.0
  0
SPLINE
  5
1A6
330
187
100
AcDbEntity
  8
0
  6
Continuous
 62
     7
370
    25
100
AcDbSpline
210
0.0
220
0.0
230
1.0
 70
     8
 71
     3
 72
    14
 73
    10
 74
     0
 42
0.000000001
 43
0.00000001
 40
0.0
 40
0.0
 40
0.0
 40
0.0
 40
0.25
 40
0.25
 40
0.5
 40
0.5
 40
0.75
 40
0.75
 40
1.0
 40
1.0
 40
1.0
 40
1.0
 10
-305.0000018630116
 20
0.4019228648046089
 30
0.0
 10
-305.1080081713309
 20
0.3483640471815541
 30
0.0
 10
-305.2141438150582
 20
0.3026964408073332
 30
0.0
 10
-305.417429785802
 20
0.2256734694240231
 30
0.0
 10
-305.5150847872499
 20
0.1942932444168322
 30
0.0
 10
-305.6849208382873
 20
0.1460868530263545
 30
0.0
 10
-305.7587762362923
 20
0.1287017108190514
 30
0.0
 10
-305.8639304051353
 20
0.1058362093886017
 30
0.0
 10
-305.8933120096692
 20
0.1004748505752176
 30
0.0
 10
-305.8933120096691
 20
0.1004748505752176
 30
0.0
  0
LWPOLYLINE
  5
1AD
330
187
100
AcDbEntity
  8
0
  6
Continuous
 62
     7
370
    25
100
AcDbPolyline
 90
        9
 70
   128
 43
0.0
 10
-370.0
 20
130.0
 10
-370.195090322
 20
129.903926402
 10
-370.3826834324
 20
129.6193976626
 10
-370.555570233
 20
129.1573480615
 10
-370.7071067812
 20
128.5355339059
 10
-370.8314696123
 20
127.7778511651
 10
-370.9238795325
 20
126.9134171618
 10
-370.9807852804
 20
125.9754516101
 10
-371.0
 20
125.0
  0
LWPOLYLINE
  5
1BB
330
187
100
AcDbEntity
  8
0
  6
Continuous
 62
     7
370
    25
100
AcDbPolyline
 90
        9
 70
   128
 43
0.0
 10
371.0
 20
125.0
 10
370.9807852804
 20
125.9754516101
 10
370.9238795325
 20
126.9134171618
 10
370.8314696123
 20
127.7778511651
 10
370.7071067812
 20
128.5355339059
 10
370.555570233
 20
129.1573480615
 10
370.3826834324
 20
129.6193976626
 10
370.195090322
 20
129.903926402
 10
370.0
 20
130.0
  0
LWPOLYLINE
  5
1BE
330
187
100
AcDbEntity
  8
0
  6
Continuous
 62
     7
370
    25
100
AcDbPolyline
 90
        9
 70
   128
 43
0.0
 10
305.0000018627
 20
0.4019228649
 10
305.0000018468
 20
0.6199389951
 10
305.0000017993
 20
0.8786786767
 10
305.0000017209
 20
1.1737147969
 10
305.0000016132
 20
1.4999992
 10
305.0000014778
 20
1.8519490629
 10
305.0000013172
 20
2.2235424186
 10
305.000001134
 20
2.6084211944
 10
305.0
 20
3.0
  0
SPLINE
  5
1BF
330
187
100
AcDbEntity
  8
0
  6
Continuous
 62
     7
370
    25
100
AcDbSpline
210
0.0
220
0.0
230
1.0
 70
     8
 71
     3
 72
    14
 73
    10
 74
     0
 42
0.000000001
 43
0.00000001
 40
0.0
 40
0.0
 40
0.0
 40
0.0
 40
0.25
 40
0.25
 40
0.5
 40
0.5
 40
0.75
 40
0.75
 40
1.0
 40
1.0
 40
1.0
 40
1.0
 10
305.8933120096691
 20
0.1004748505752176
 30
0.0
 10
305.8933120096692
 20
0.1004748505752176
 30
0.0
 10
305.8639304051231
 20
0.105836209390725
 30
0.0
 10
305.7587762362386
 20
0.128701710831236
 30
0.0
 10
305.6849208382088
 20
0.1460868530457279
 30
0.0
 10
305.5150847871157
 20
0.1942932444577855
 30
0.0
 10
305.4174297856384
 20
0.2256734694793122
 30
0.0
 10
305.2141438148403
 20
0.302696440896616
 30
0.0
 10
305.1080081710866
 20
0.3483640472912441
 30
0.0
 10
305.0000018627413
 20
0.4019228649386544
 30
0.0
  0
SPLINE
  5
1C5
330
187
100
AcDbEntity
  8
0
  6
Continuous
 62
     7
370
    25
100
AcDbSpline
210
0.0
220
0.0
230
1.0
 70
     8
 71
     3
 72
    12
 73
     8
 74
     0
 42
0.000000001
 43
0.00000001
 40
0.0
 40
0.0
 40
0.0
 40
0.0
 40
0.2500000000000167
 40
0.2500000000000167
 40
0.5000000000000333
 40
0.5000000000000333
 40
1.0
 40
1.0
 40
1.0
 40
1.0
 10
307.2261305374773
 20
0.1015303943331103
 30
0.0
 10
307.0840490742623
 20
0.1394650703971864
 30
0.0
 10
306.9197388839824
 20
0.1783447436955812
 30
0.0
 10
306.5635551596891
 20
0.247994286097751
 30
0.0
 10
306.3731329051489
 20
0.2783818415973138
 30
0.0
 10
305.7979564802384
 20
0.351944409070104
 30
0.0
 10
305.3975121968169
 20
0.3791343590375737
 30
0.0
 10
305.0
 20
0.4019237886466673
 30
0.0
  0
SPLINE
  5
1DE
330
187
100
AcDbEntity
  8
0
  6
Continuous
 62
     7
370
    25
100
AcDbSpline
210
0.0
220
0.0
230
1.0
 70
    24
 71
     3
 72
    10
 73
     6
 74
     0
 42
0.000000001
 43
0.00000001
 40
0.0
 40
0.0
 40
0.0
 40
0.0
 40
0.0036838566446917
 40
0.8114285709084507
 40
1.0
 40
1.0
 40
1.0
 40
1.0
 10
-294.9999999999999
 20
10.0
 30
0.0
 10
-295.0057216920155
 20
9.999999999999995
 30
0.0
 10
-296.2660162211395
 20
10.00000000000015
 30
0.0
 10
-297.8657023679033
 20
9.999999999999988
 30
0.0
 10
-299.2842100676987
 20
9.999999999999995
 30
0.0
 10
-299.5526891302048
 20
10.0
 30
0.0
  0
SPLINE
  5
1DF
330
187
100
AcDbEntity
  8
0
  6
Continuous
 62
     7
370
    25
100
AcDbSpline
210
0.0
220
0.0
230
1.0
 70
    24
 71
     3
 72
    10
 73
     6
 74
     0
 42
0.000000001
 43
0.00000001
 40
0.0
 40
0.0
 40
0.0
 40
0.0
 40
0.2110420915049943
 40
0.9964236685385612
 40
1.0
 40
1.0
 40
1.0
 40
1.0
 10
299.6822147631155
 20
10.0
 30
0.0
 10
299.3729877529356
 20
10.0
 30
0.0
 10
297.9129893720565
 20
10.00000000000002
 30
0.0
 10
296.2679610402519
 20
9.999999999999828
 30
0.0
 10
295.0057217073174
 20
10.0
 30
0.0
 10
294.9999999999999
 20
10.0
 30
0.0
  0
LWPOLYLINE
  5
1E7
330
187
100
AcDbEntity
  8
0
  6
Continuous
 62
     7
370
    25
100
AcDbPolyline
 90
        9
 70
   128
 43
0.0
 10
-20.4765663796
 20
-12.8953015099
 10
-20.5172841332
 20
-12.325146837
 10
-20.6162675831
 20
-11.7797900708
 10
-20.7698795198
 20
-11.2792706909
 10
-20.9724753754
 20
-10.841980599
 10
-21.2166106369
 20
-10.4839882962
 10
-21.4933143996
 20
-10.2184484363
 10
-21.7924190086
 20
-10.0551184497
 10
-22.1029336756
 20
-10.0
  0
LWPOLYLINE
  5
1E8
330
187
100
AcDbEntity
  8
0
  6
Continuous
 62
     7
370
    25
100
AcDbPolyline
 90
        9
 70
   128
 43
0.0
 10
20.4765663796
 20
-12.8953015099
 10
20.5172841332
 20
-12.325146837
 10
20.6162675831
 20
-11.7797900708
 10
20.7698795198
 20
-11.2792706909
 10
20.9724753754
 20
-10.841980599
 10
21.2166106369
 20
-10.4839882962
 10
21.4933143996
 20
-10.2184484363
 10
21.7924190086
 20
-10.0551184497
 10
22.1029336756
 20
-10.0
  0
SPLINE
  5
1E9
330
187
100
AcDbEntity
  8
0
  6
Continuous
 62
     7
370
    25
100
AcDbSpline
210
0.0
220
0.0
230
1.0
 70
     8
 71
     3
 72
    24
 73
    20
 74
     0
 42
0.000000001
 43
0.00000001
 40
0.0
 40
0.0
 40
0.0
 40
0.0
 40
0.0624999999999999
 40
0.0624999999999999
 40
0.1249999999999999
 40
0.1249999999999999
 40
0.2500000000000001
 40
0.2500000000000001
 40
0.3750000000000002
 40
0.3750000000000002
 40
0.5000000000000004
 40
0.5000000000000004
 40
0.6250000000000007
 40
0.6250000000000007
 40
0.6875000000000008
 40
0.6875000000000008
 40
0.7500000000000009
 40
0.7500000000000009
 40
1.0
 40
1.0
 40
1.0
 40
1.0
 10
-26.04190139388544
 20
-7.104698490107531
 30
0.0
 10
-26.03475135721398
 20
-7.31426352720288
 30
0.0
 10
-26.01748442992589
 20
-7.522394396793642
 30
0.0
 10
-25.96299182289072
 20
-7.935833619186885
 30
0.0
 10
-25.92563498767511
 20
-8.141061239977098
 30
0.0
 10
-25.78690134843951
 20
-8.739699618144012
 30
0.0
 10
-25.65802891860652
 20
-9.122276448384328
 30
0.0
 10
-25.33487351688557
 20
-9.84821942414639
 30
0.0
 10
-25.145336028892
 20
-10.18188196789972
 30
0.0
 10
-24.71601310132716
 20
-10.79942077363683
 30
0.0
 10
-24.47406471267469
 20
-11.08437412581573
 30
0.0
 10
-23.96091318910605
 20
-11.58689100126276
 30
0.0
 10
-23.68781391341029
 20
-11.80777602896207
 30
0.0
 10
-23.25355380077808
 20
-12.09688726176913
 30
0.0
 10
-23.10466970607692
 20
-12.18615894613476
 30
0.0
 10
-22.79833085787342
 20
-12.35036300442649
 30
0.0
 10
-22.64054644063664
 20
-12.42533229660515
 30
0.0
 10
-21.845516667291
 20
-12.75688364941503
 30
0.0
 10
-21.17865456723545
 20
-12.89530150989253
 30
0.0
 10
-20.4765663796316
 20
-12.89530150989253
 30
0.0
  0
SPLINE
  5
1EA
330
187
100
AcDbEntity
  8
0
  6
Continuous
 62
     7
370
    25
100
AcDbSpline
210
0.0
220
0.0
230
1.0
 70
     8
 71
     3
 72
    24
 73
    20
 74
     0
 42
0.000000001
 43
0.00000001
 40
0.0
 40
0.0
 40
0.0
 40
0.0
 40
0.1250000000000001
 40
0.1250000000000001
 40
0.2500000000000003
 40
0.2500000000000003
 40
0.3750000000000004
 40
0.3750000000000004
 40
0.5000000000000006
 40
0.5000000000000006
 40
0.6250000000000007
 40
0.6250000000000007
 40
0.7500000000000009
 40
0.7500000000000009
 40
0.8125000000000007
 40
0.8125000000000007
 40
0.8750000000000006
 40
0.8750000000000006
 40
1.0
 40
1.0
 40
1.0
 40
1.0
 10
20.4765663796316
 20
-12.89530150989253
 30
0.0
 10
20.8270199983079
 20
-12.89530150989253
 30
0.0
 10
21.16969064792023
 20
-12.85986436251585
 30
0.0
 10
21.84064313103386
 20
-12.72355036350045
 30
0.0
 10
22.17074088521498
 20
-12.62186337696721
 30
0.0
 10
22.80849810009744
 20
-12.3546677818233
 30
0.0
 10
23.11279915173562
 20
-12.19104261184584
 30
0.0
 10
23.69369022598103
 20
-11.80340906389538
 30
0.0
 10
23.97246781870715
 20
-11.57698679632345
 30
0.0
 10
24.48601795397978
 20
-11.07119162895906
 30
0.0
 10
24.7218545668164
 20
-10.79198381182497
 30
0.0
 10
25.14966560437298
 20
-10.17466568310059
 30
0.0
 10
25.34178799473849
 20
-9.834432396708143
 30
0.0
 10
25.58073581001131
 20
-9.2949978027686
 30
0.0
 10
25.65274036765392
 20
-9.109555384391705
 30
0.0
 10
25.7805219186081
 20
-8.726470577400988
 30
0.0
 10
25.83620909629648
 20
-8.528519990661856
 30
0.0
 10
25.97353537917286
 20
-7.93106351839877
 30
0.0
 10
26.02762682975658
 20
-7.523080898287598
 30
0.0
 10
26.04190139388544
 20
-7.104698490107538
 30
0.0
  0
LWPOLYLINE
  5
1EB
330
187
100
AcDbEntity
  8
0
  6
Continuous
 62
     7
370
    25
100
AcDbPolyline
 90
        3
 70
   128
 43
0.0
 10
26.5268406512
 20
7.1046984901
 10
26.3221836495
 20
1.1089314448
 10
26.0419013939
 20
-7.1046984901
  0
LWPOLYLINE
  5
1EC
330
187
100
AcDbEntity
  8
0
  6
Continuous
 62
     7
370
    25
100
AcDbPolyline
 90
        3
 70
   128
 43
0.0
 10
-26.0419013939
 20
-7.1046984901
 10
-26.2464920715
 20
-1.1089355945
 10
-26.5268406512
 20
7.1046984901
  0
SPLINE
  5
1FA
330
187
100
AcDbEntity
  8
0
  6
Continuous
 62
     8
370
    25
100
AcDbSpline
210
0.0
220
0.0
230
1.0
 70
     8
 71
     3
 72
    10
 73
     6
 74
     0
 42
0.000000001
 43
0.00000001
 40
0.0
 40
0.0
 40
0.0
 40
0.0
 40
0.362752860229849
 40
0.9968692022396775
 40
1.0
 40
1.0
 40
1.0
 40
1.0
 10
-299.4020361628316
 20
10.54381136524354
 30
0.0
 10
-298.8904070083954
 20
10.42290251737255
 30
0.0
 10
-297.4844157594159
 20
10.09063688990236
 30
0.0
 10
-295.9616175196031
 20
10.00026468561396
 30
0.0
 10
-295.0047013330726
 20
10.00000129404385
 30
0.0
 10
-295.0
 20
10.0
 30
0.0
  0
SPLINE
  5
1FB
330
187
100
AcDbEntity
  8
0
  6
Continuous
 62
     8
370
    25
100
AcDbSpline
210
0.0
220
0.0
230
1.0
 70
     8
 71
     3
 72
    10
 73
     6
 74
     0
 42
0.000000001
 43
0.00000001
 40
0.0
 40
0.0
 40
0.0
 40
0.0
 40
0.0030342185721686
 40
0.6148080751649335
 40
1.0
 40
1.0
 40
1.0
 40
1.0
 10
295.0
 20
10.0
 30
0.0
 10
295.0047013397856
 20
10.00000127997933
 30
0.0
 10
295.95730959643
 20
10.00026063559639
 30
0.0
 10
297.5271375255768
 20
10.09590442524635
 30
0.0
 10
298.9774960987717
 20
10.44011301070053
 30
0.0
 10
299.537862784286
 20
10.57310289866435
 30
0.0
  0
LINE
  5
207
330
187
100
AcDbEntity
  8
0
  6
Continuous
 62
     7
370
    25
100
AcDbLine
 10
-38.4465169281
 20
7.1046984901
 30
0.0
 11
-37.6011061566
 21
-17.1046984901
 31
0.0
  0
LINE
  5
208
330
187
100
AcDbEntity
  8
0
  6
Continuous
 62
     7
370
    25
100
AcDbLine
 10
37.6011061566
 20
-17.1046984901
 30
0.0
 11
38.4465169281
 21
7.1046984901
 31
0.0
  0
LINE
  5
209
330
187
100
AcDbEntity
  8
0
  6
Continuous
 62
     7
370
    25
100
AcDbLine
 10
266.1863575413
 20
35.0
 30
0.0
 11
266.1863575413
 21
38.0
 31
0.0
  0
LINE
  5
20A
330
187
100
AcDbEntity
  8
0
  6
Continuous
 62
     7
370
    25
100
AcDbLine
 10
301.0
 20
3.6069791736
 30
0.0
 11
303.9840264965
 21
3.9161488171
 31
0.0
  0
LINE
  5
20B
330
187
100
AcDbEntity
  8
0
  6
Continuous
 62
     7
370
    25
100
AcDbLine
 10
-375.0
 20
3.0
 30
0.0
 11
-305.0
 21
3.0
 31
0.0
  0
LINE
  5
20C
330
187
100
AcDbEntity
  8
0
  6
Continuous
 62
     7
370
    25
100
AcDbLine
 10
-371.0
 20
125.0
 30
0.0
 11
-371.0
 21
0.0
 31
0.0
  0
LINE
  5
20D
330
187
100
AcDbEntity
  8
0
  6
Continuous
 62
     7
370
    25
100
AcDbLine
 10
-38.1984153898
 20
0.0
 30
0.0
 11
-372.0
 21
0.0
 31
0.0
  0
LINE
  5
20E
330
187
100
AcDbEntity
  8
0
  6
Continuous
 62
     7
370
    25
100
AcDbLine
 10
266.1863575413
 20
35.0
 30
0.0
 11
-266.1863575413
 21
35.0
 31
0.0
  0
LINE
  5
20F
330
187
100
AcDbEntity
  8
0
  6
Continuous
 62
     7
370
    25
100
AcDbLine
 10
-266.1863575413
 20
35.0
 30
0.0
 11
-266.1863575413
 21
38.0
 31
0.0
  0
LINE
  5
210
330
187
100
AcDbEntity
  8
0
  6
Continuous
 62
     7
370
    25
100
AcDbLine
 10
-266.1863575413
 20
38.0
 30
0.0
 11
266.1863575413
 21
38.0
 31
0.0
  0
LINE
  5
211
330
187
100
AcDbEntity
  8
0
  6
Continuous
 62
     7
370
    25
100
AcDbLine
 10
-301.0
 20
3.6069791736
 30
0.0
 11
-303.9840264965
 21
3.9161488171
 31
0.0
  0
LINE
  5
212
330
187
100
AcDbEntity
  8
0
  6
Continuous
 62
     7
370
    25
100
AcDbLine
 10
372.0
 20
0.0
 30
0.0
 11
38.1984153898
 21
0.0
 31
0.0
  0
LINE
  5
213
330
187
100
AcDbEntity
  8
0
  6
Continuous
 62
     7
370
    25
100
AcDbLine
 10
371.0
 20
0.0
 30
0.0
 11
371.0
 21
125.0
 31
0.0
  0
LINE
  5
214
330
187
100
AcDbEntity
  8
0
  6
Continuous
 62
     7
370
    25
100
AcDbLine
 10
305.0
 20
3.0
 30
0.0
 11
375.0
 21
3.0
 31
0.0
  0
LINE
  5
215
330
187
100
AcDbEntity
  8
0
  6
Continuous
 62
     7
370
    25
100
AcDbLine
 10
375.0
 20
125.0
 30
0.0
 11
-375.0
 21
125.0
 31
0.0
  0
LINE
  5
216
330
187
100
AcDbEntity
  8
0
  6
Continuous
 62
     7
370
    25
100
AcDbLine
 10
135.0
 20
70.0
 30
0.0
 11
145.0
 21
70.0
 31
0.0
  0
LINE
  5
217
330
187
100
AcDbEntity
  8
0
  6
Continuous
 62
     7
370
    25
100
AcDbLine
 10
145.0
 20
90.0
 30
0.0
 11
135.0
 21
90.0
 31
0.0
  0
LINE
  5
218
330
187
100
AcDbEntity
  8
0
  6
Continuous
 62
     7
370
    25
100
AcDbLine
 10
-135.0
 20
90.0
 30
0.0
 11
-145.0
 21
90.0
 31
0.0
  0
LINE
  5
219
330
187
100
AcDbEntity
  8
0
  6
Continuous
 62
     7
370
    25
100
AcDbLine
 10
-145.0
 20
70.0
 30
0.0
 11
-135.0
 21
70.0
 31
0.0
  0
LINE
  5
21A
330
187
100
AcDbEntity
  8
0
  6
Continuous
 62
     7
370
    25
100
AcDbLine
 10
-370.0
 20
130.0
 30
0.0
 11
370.0
 21
130.0
 31
0.0
  0
LINE
  5
21B
330
187
100
AcDbEntity
  8
0
  6
Continuous
 62
     7
370
    25
100
AcDbLine
 10
-375.0
 20
3.0
 30
0.0
 11
-375.0
 21
125.0
 31
0.0
  0
LINE
  5
21C
330
187
100
AcDbEntity
  8
0
  6
Continuous
 62
     7
370
    25
100
AcDbLine
 10
375.0
 20
125.0
 30
0.0
 11
375.0
 21
3.0
 31
0.0
  0
LINE
  5
21D
330
187
100
AcDbEntity
  8
0
  6
Continuous
 62
     7
370
    25
100
AcDbLine
 10
22.3445324939
 20
-2.4329070804
 30
0.0
 11
23.0868354655
 21
21.1857328167
 31
0.0
  0
LINE
  5
21E
330
187
100
AcDbEntity
  8
0
  6
Continuous
 62
     7
370
    25
100
AcDbLine
 10
26.5714346271
 20
35.0
 30
0.0
 11
25.1011061566
 21
-7.1046984901
 31
0.0
  0
LINE
  5
21F
330
187
100
AcDbEntity
  8
0
  6
Continuous
 62
     7
370
    25
100
AcDbLine
 10
-25.1011061566
 20
-7.1046984901
 30
0.0
 11
-26.5714346271
 21
35.0
 31
0.0
  0
LINE
  5
220
330
187
100
AcDbEntity
  8
0
  6
Continuous
 62
     7
370
    25
100
AcDbLine
 10
-23.0868354655
 20
21.1857328167
 30
0.0
 11
-22.3445324939
 21
-2.4329070804
 31
0.0
  0
LINE
  5
221
330
187
100
AcDbEntity
  8
0
  6
Continuous
 62
     7
370
    25
100
AcDbLine
 10
-23.0868354655
 20
21.1857328167
 30
0.0
 11
23.0868354655
 21
21.1857328167
 31
0.0
  0
LINE
  5
222
330
187
100
AcDbEntity
  8
0
  6
Continuous
 62
     7
370
    25
100
AcDbLine
 10
22.3445324939
 20
-2.4329070804
 30
0.0
 11
-22.3445324939
 21
-2.4329070804
 31
0.0
  0
LINE
  5
223
330
187
100
AcDbEntity
  8
0
  6
Continuous
 62
     7
370
    25
100
AcDbLine
 10
-22.3445324939
 20
-2.4329070804
 30
0.0
 11
-22.1029336756
 21
-10.0
 31
0.0
  0
LINE
  5
224
330
187
100
AcDbEntity
  8
0
  6
Continuous
 62
     7
370
    25
100
AcDbLine
 10
22.1029336756
 20
-10.0
 30
0.0
 11
22.3445324939
 21
-2.4329070804
 31
0.0
  0
LINE
  5
225
330
187
100
AcDbEntity
  8
0
  6
Continuous
 62
     7
370
    25
100
AcDbLine
 10
22.1029336756
 20
-10.0
 30
0.0
 11
-22.1029336756
 21
-10.0
 31
0.0
  0
LINE
  5
226
330
187
100
AcDbEntity
  8
0
  6
Continuous
 62
     7
370
    25
100
AcDbLine
 10
29.3566243397
 20
28.9532808751
 30
0.0
 11
28.5954817143
 21
10.0
 31
0.0
  0
LINE
  5
227
330
187
100
AcDbEntity
  8
0
  6
Continuous
 62
     7
370
    25
100
AcDbLine
 10
-28.5954817143
 20
10.0
 30
0.0
 11
-29.3566243397
 21
28.9532808751
 31
0.0
  0
LINE
  5
228
330
187
100
AcDbEntity
  8
0
  6
Continuous
 62
     7
370
    25
100
AcDbLine
 10
-28.5954817143
 20
10.0
 30
0.0
 11
-295.0
 21
10.0
 31
0.0
  0
LINE
  5
229
330
187
100
AcDbEntity
  8
0
  6
Continuous
 62
     7
370
    25
100
AcDbLine
 10
295.0
 20
10.0
 30
0.0
 11
28.5954817143
 21
10.0
 31
0.0
  0
LINE
  5
22A
330
187
100
AcDbEntity
  8
0
  6
Continuous
 62
     7
370
    25
100
AcDbLine
 10
20.4765663796
 20
-12.8953015099
 30
0.0
 11
-20.4765663796
 21
-12.8953015099
 31
0.0
  0
LINE
  5
22B
330
187
100
AcDbEntity
  8
0
  6
Continuous
 62
     7
370
    25
100
AcDbLine
 10
34.6029336756
 20
-20.0
 30
0.0
 11
-34.6029336756
 21
-20.0
 31
0.0
  0
LINE
  5
22C
330
187
100
AcDbEntity
  8
0
  6
Continuous
 62
     8
370
    25
100
AcDbLine
 10
23.0868354655
 20
21.1857328167
 30
0.0
 11
23.5692403055
 21
35.0
 31
0.0
  0
LINE
  5
22D
330
187
100
AcDbEntity
  8
0
  6
Continuous
 62
     8
370
    25
100
AcDbLine
 10
-23.5692403055
 20
35.0
 30
0.0
 11
-23.0868354655
 21
21.1857328167
 31
0.0
  0
LINE
  5
22E
330
187
100
AcDbEntity
  8
0
  6
Continuous
 62
     8
370
    25
100
AcDbLine
 10
-295.0
 20
19.8689206618
 30
0.0
 11
-295.0
 21
10.0
 31
0.0
  0
LINE
  5
22F
330
187
100
AcDbEntity
  8
0
  6
Continuous
 62
     8
370
    25
100
AcDbLine
 10
295.0
 20
10.0
 30
0.0
 11
295.0
 21
19.8689206618
 31
0.0
  0
LINE
  5
230
330
187
100
AcDbEntity
  8
0
  6
Continuous
 62
     8
370
    25
100
AcDbLine
 10
-29.3566243397
 20
28.9532808751
 30
0.0
 11
-29.5677804244
 21
35.0
 31
0.0
  0
LINE
  5
231
330
187
100
AcDbEntity
  8
0
  6
Continuous
 62
     8
370
    25
100
AcDbLine
 10
29.5677804244
 20
35.0
 30
0.0
 11
29.3566243397
 21
28.9532808751
 31
0.0
  0
LINE
  5
232
330
187
100
AcDbEntity
  8
0
  6
Continuous
 62
     8
370
    25
100
AcDbLine
 10
-285.8512380791
 20
28.9532808751
 30
0.0
 11
-29.3566243397
 21
28.9532808751
 31
0.0
  0
LINE
  5
233
330
187
100
AcDbEntity
  8
0
  6
Continuous
 62
     8
370
    25
100
AcDbLine
 10
29.3566243397
 20
28.9532808751
 30
0.0
 11
285.8512380791
 21
28.9532808751
 31
0.0
  0
LINE
  5
234
330
187
100
AcDbEntity
  8
0
  6
Continuous
 62
     8
370
    25
100
AcDbLine
 10
-26.5268406512
 20
7.1046984901
 30
0.0
 11
-38.4465169281
 21
7.1046984901
 31
0.0
  0
LINE
  5
235
330
187
100
AcDbEntity
  8
0
  6
Continuous
 62
     8
370
    25
100
AcDbLine
 10
38.4465169281
 20
7.1046984901
 30
0.0
 11
26.5268406512
 21
7.1046984901
 31
0.0
  0
LINE
  5
236
330
187
100
AcDbEntity
  8
0
  6
Continuous
 62
     8
370
    25
100
AcDbLine
 10
-37.6011061566
 20
-17.1046984901
 30
0.0
 11
37.6011061566
 21
-17.1046984901
 31
0.0
  0
LINE
  5
237
330
187
100
AcDbEntity
  8
0
  6
Continuous
 62
     8
370
    25
100
AcDbLine
 10
-301.1104663418
 20
3.0
 30
0.0
 11
-38.3031776983
 21
3.0
 31
0.0
  0
LINE
  5
238
330
187
100
AcDbEntity
  8
0
  6
Continuous
 62
     8
370
    25
100
AcDbLine
 10
38.3031776983
 20
3.0
 30
0.0
 11
301.1104663418
 21
3.0
 31
0.0
  0
ARC
  5
239
330
187
100
AcDbEntity
  8
0
  6
Continuous
 62
     7
370
    25
100
AcDbCircle
 10
34.6029336756
 20
-17.0
 30
0.0
 40
2.999999999999986
100
AcDbArc
 50
270.0
 51
358.0
  0
ARC
  5
23A
330
187
100
AcDbEntity
  8
0
  6
Continuous
 62
     7
370
    25
100
AcDbCircle
 10
-34.6029336756
 20
-17.0
 30
0.0
 40
2.999999999999989
100
AcDbArc
 50
182.0
 51
270.0
  0
ARC
  5
23B
330
187
100
AcDbEntity
  8
0
  6
Continuous
 62
     7
370
    25
100
AcDbCircle
 10
-41.4446894092
 20
7.0
 30
0.0
 40
2.999999999999995
100
AcDbArc
 50
2.0
 51
90.0
  0
ARC
  5
23C
330
187
100
AcDbEntity
  8
0
  6
Continuous
 62
     7
370
    25
100
AcDbCircle
 10
41.4446894092
 20
7.0
 30
0.0
 40
2.999999999999988
100
AcDbArc
 50
90.0
 51
178.0
  0
ARC
  5
23D
330
187
100
AcDbEntity
  8
0
  6
Continuous
 62
     7
370
    25
100
AcDbCircle
 10
266.1863575413
 20
0.0
 30
0.0
 40
34.99999999999996
100
AcDbArc
 50
5.9152074822
 51
90.0
  0
ARC
  5
23E
330
187
100
AcDbEntity
  8
0
  6
Continuous
 62
     7
370
    25
100
AcDbCircle
 10
266.1863575413
 20
0.0
 30
0.0
 40
38.00000000000009
100
AcDbArc
 50
5.9152074822
 51
90.0
  0
ARC
  5
23F
330
187
100
AcDbEntity
  8
0
  6
Continuous
 62
     7
370
    25
100
AcDbCircle
 10
-372.0
 20
3.0
 30
0.0
 40
3.000000000000057
100
AcDbArc
 50
180.0
 51
270.0
  0
ARC
  5
240
330
187
100
AcDbEntity
  8
0
  6
Continuous
 62
     7
370
    25
100
AcDbCircle
 10
-308.0
 20
3.0
 30
0.0
 40
2.999999999999834
100
AcDbArc
 50
270.0
 51
284.9488418222
  0
ARC
  5
241
330
187
100
AcDbEntity
  8
0
  6
Continuous
 62
     7
370
    25
100
AcDbCircle
 10
-266.1863575413
 20
0.0
 30
0.0
 40
35.00000000000009
100
AcDbArc
 50
90.0
 51
174.0847925178
  0
ARC
  5
242
330
187
100
AcDbEntity
  8
0
  6
Continuous
 62
     7
370
    25
100
AcDbCircle
 10
-266.1863575413
 20
0.0
 30
0.0
 40
38.00000000000002
100
AcDbArc
 50
90.0
 51
174.0847925178
  0
ARC
  5
243
330
187
100
AcDbEntity
  8
0
  6
Continuous
 62
     7
370
    25
100
AcDbCircle
 10
-305.0
 20
4.021412013
 30
0.0
 40
1.021412013010208
100
AcDbArc
 50
270.0
 51
354.0847925178
  0
ARC
  5
244
330
187
100
AcDbEntity
  8
0
  6
Continuous
 62
     7
370
    25
100
AcDbCircle
 10
-305.0
 20
4.021412013
 30
0.0
 40
4.021412013010203
100
AcDbArc
 50
257.1653084456
 51
354.0847925178
  0
ARC
  5
245
330
187
100
AcDbEntity
  8
0
  6
Continuous
 62
     7
370
    25
100
AcDbCircle
 10
372.0
 20
3.0
 30
0.0
 40
3.0
100
AcDbArc
 50
270.0
 51
0.0
  0
ARC
  5
246
330
187
100
AcDbEntity
  8
0
  6
Continuous
 62
     7
370
    25
100
AcDbCircle
 10
-370.0
 20
125.0
 30
0.0
 40
5.000000000000057
100
AcDbArc
 50
90.0
 51
180.0
  0
ARC
  5
247
330
187
100
AcDbEntity
  8
0
  6
Continuous
 62
     7
370
    25
100
AcDbCircle
 10
305.0
 20
4.021412013
 30
0.0
 40
1.021412013010147
100
AcDbArc
 50
185.9152074822
 51
270.0
  0
ARC
  5
248
330
187
100
AcDbEntity
  8
0
  6
Continuous
 62
     7
370
    25
100
AcDbCircle
 10
145.0
 20
80.0
 30
0.0
 40
10.0
100
AcDbArc
 50
270.0
 51
90.0
  0
ARC
  5
249
330
187
100
AcDbEntity
  8
0
  6
Continuous
 62
     7
370
    25
100
AcDbCircle
 10
135.0
 20
80.0
 30
0.0
 40
10.0
100
AcDbArc
 50
90.0
 51
270.0
  0
ARC
  5
24A
330
187
100
AcDbEntity
  8
0
  6
Continuous
 62
     7
370
    25
100
AcDbCircle
 10
-145.0
 20
80.0
 30
0.0
 40
10.0
100
AcDbArc
 50
90.0
 51
270.0
  0
ARC
  5
24B
330
187
100
AcDbEntity
  8
0
  6
Continuous
 62
     7
370
    25
100
AcDbCircle
 10
-135.0
 20
80.0
 30
0.0
 40
10.0
100
AcDbArc
 50
270.0
 51
90.0
  0
ARC
  5
24C
330
187
100
AcDbEntity
  8
0
  6
Continuous
 62
     7
370
    25
100
AcDbCircle
 10
370.0
 20
125.0
 30
0.0
 40
5.000000000000057
100
AcDbArc
 50
0.0
 51
90.0
  0
ARC
  5
24D
330
187
100
AcDbEntity
  8
0
  6
Continuous
 62
     7
370
    25
100
AcDbCircle
 10
305.0
 20
4.021412013
 30
0.0
 40
4.021412013010147
100
AcDbArc
 50
185.9152074822
 51
282.8346915544
  0
ARC
  5
24E
330
187
100
AcDbEntity
  8
0
  6
Continuous
 62
     7
370
    25
100
AcDbCircle
 10
308.0
 20
3.0
 30
0.0
 40
2.999999999999986
100
AcDbArc
 50
255.0511581778
 51
270.0
  0
ARC
  5
24F
330
187
100
AcDbEntity
  8
0
  6
Continuous
 62
     7
370
    25
100
AcDbCircle
 10
306.5597286863
 20
-2.8245702453
 30
0.0
 40
2.999999999999868
100
AcDbArc
 50
76.1107907638
 51
102.8346915544
  0
ARC
  5
250
330
187
100
AcDbEntity
  8
0
  6
Continuous
 62
     7
370
    25
100
AcDbCircle
 10
-306.5597286863
 20
-2.8245702453
 30
0.0
 40
2.999999999999868
100
AcDbArc
 50
77.1653084456
 51
103.8892092362
  0
ARC
  5
251
330
187
100
AcDbEntity
  8
0
  6
Continuous
 62
     7
370
    25
100
AcDbCircle
 10
16.331957013
 20
-193.743036946
 30
0.0
 40
215.0348912493192
100
AcDbArc
 50
87.4004198986
 51
88.1998748965
  0
ARC
  5
252
330
187
100
AcDbEntity
  8
0
  6
Continuous
 62
     7
370
    25
100
AcDbCircle
 10
22.6649383369
 20
0.2633676687
 30
0.0
 40
2.715245371396412
100
AcDbArc
 50
263.223162692
 51
350.469265747
  0
ARC
  5
253
330
187
100
AcDbEntity
  8
0
  6
Continuous
 62
     7
370
    25
100
AcDbCircle
 10
-16.331957013
 20
-193.743036946
 30
0.0
 40
215.0348912493083
100
AcDbArc
 50
91.8001251035
 51
92.5995801014
  0
ARC
  5
254
330
187
100
AcDbEntity
  8
0
  6
Continuous
 62
     7
370
    25
100
AcDbCircle
 10
-22.6649383369
 20
0.2633676687
 30
0.0
 40
2.715245371396399
100
AcDbArc
 50
189.530734253
 51
276.7768373081
  0
ARC
  5
255
330
187
100
AcDbEntity
  8
0
  6
Continuous
 62
     7
370
    25
100
AcDbCircle
 10
-28.1080933597
 20
14.5662619014
 30
0.0
 40
14.44109222179323
100
AcDbArc
 50
83.0411106138
 51
94.9598032154
  0
ARC
  5
256
330
187
100
AcDbEntity
  8
0
  6
Continuous
 62
     7
370
    25
100
AcDbCircle
 10
28.1080933597
 20
14.5662619014
 30
0.0
 40
14.44109222179286
100
AcDbArc
 50
85.0401967846
 51
96.9588893862
  0
ARC
  5
257
330
187
100
AcDbEntity
  8
0
  6
Continuous
 62
     7
370
    25
100
AcDbCircle
 10
22.1029336756
 20
-7.0
 30
0.0
 40
3.000000000000027
100
AcDbArc
 50
270.0
 51
358.0
  0
ARC
  5
258
330
187
100
AcDbEntity
  8
0
  6
Continuous
 62
     7
370
    25
100
AcDbCircle
 10
-22.1029336756
 20
-7.0
 30
0.0
 40
3.000000000000024
100
AcDbArc
 50
182.0
 51
270.0
  0
ARC
  5
259
330
187
100
AcDbEntity
  8
0
  6
Continuous
 62
     7
370
    25
100
AcDbCircle
 10
28.5954817143
 20
7.0
 30
0.0
 40
3.000000000000005
100
AcDbArc
 50
90.0
 51
178.0
  0
ARC
  5
25A
330
187
100
AcDbEntity
  8
0
  6
Continuous
 62
     7
370
    25
100
AcDbCircle
 10
-28.5954817143
 20
7.0
 30
0.0
 40
3.000000000000005
100
AcDbArc
 50
2.0
 51
90.0
  0
ARC
  5
25B
330
187
100
AcDbEntity
  8
0
  6
Continuous
 62
     7
370
    25
100
AcDbCircle
 10
-25.5715037753
 20
-16.6376134322
 30
0.0
 40
9.544513670792679
100
AcDbArc
 50
87.175055537
 51
92.824944463
  0
ARC
  5
25C
330
187
100
AcDbEntity
  8
0
  6
Continuous
 62
     7
370
    25
100
AcDbCircle
 10
25.5715037753
 20
-16.6376134322
 30
0.0
 40
9.544513670792533
100
AcDbArc
 50
87.175055537
 51
92.824944463
  0
ARC
  5
25D
330
187
100
AcDbEntity
  8
0
  6
Continuous
 62
     7
370
    25
100
AcDbCircle
 10
29.1383931759
 20
7.4254452401
 30
0.0
 40
2.631175605528321
100
AcDbArc
 50
101.9078343936
 51
187.0019110571
  0
ARC
  5
25E
330
187
100
AcDbEntity
  8
0
  6
Continuous
 62
     7
370
    25
100
AcDbCircle
 10
26.0620749422
 20
-2.3280307812
 30
0.0
 40
9.444172206668156
100
AcDbArc
 50
87.1792261741
 51
92.8207738259
  0
ARC
  5
25F
330
187
100
AcDbEntity
  8
0
  6
Continuous
 62
     7
370
    25
100
AcDbCircle
 10
-26.0620749422
 20
-2.3280307812
 30
0.0
 40
9.444172206668238
100
AcDbArc
 50
87.1792261741
 51
92.8207738259
  0
ARC
  5
260
330
187
100
AcDbEntity
  8
0
  6
Continuous
 62
     7
370
    25
100
AcDbCircle
 10
-29.1383931759
 20
7.4254452401
 30
0.0
 40
2.631175605528323
100
AcDbArc
 50
352.9980889429
 51
78.0921656064
  0
VIEWPORT
  5
265
330
187
100
AcDbEntity
  8
0
100
AcDbViewport
 10
0.0
 20
0.0
 30
0.0
 40
205.6
 41
156.0
 68
     1
 69
     1
 12
0.0
 22
0.0
 13
0.0
 23
0.0
 14
10.0
 24
10.0
 15
10.0
 25
10.0
 16
0.0
 26
0.0
 36
1.0
 17
0.0
 27
0.0
 37
0.0
 42
50.0
 43
0.0
 44
0.0
 45
580.4474708171
 50
0.0
 51
0.0
 72
   100
 90
   557152
  1

281
     0
 71
     1
 74
     0
110
0.0
120
0.0
130
0.0
111
1.0
121
0.0
131
0.0
112
0.0
122
1.0
132
0.0
 79
     0
146
0.0
  0
ENDBLK
  5
18A
330
187
100
AcDbEntity
  8
0
100
AcDbBlockEnd
  0
ENDSEC
  0
SECTION
  2
ENTITIES
  0
CIRCLE
  5
7C
330
1F
100
AcDbEntity
  8
0
  6
Continuous
 62
     7
370
    25
100
AcDbCircle
 10
0.0
 20
163.0
 30
0.0
 40
17.5
  0
CIRCLE
  5
7D
330
1F
100
AcDbEntity
  8
0
  6
Continuous
 62
     7
370
    25
100
AcDbCircle
 10
0.0
 20
163.0
 30
0.0
 40
19.50000000000009
  0
SPLINE
  5
AF
330
1F
100
AcDbEntity
  8
0
  6
Continuous
 62
     7
370
    25
100
AcDbSpline
210
0.0
220
0.0
230
1.0
 70
     8
 71
     3
 72
    10
 73
     6
 74
     0
 42
0.000000001
 43
0.00000001
 40
0.0
 40
0.0
 40
0.0
 40
0.0
 40
0.5
 40
0.5
 40
1.0
 40
1.0
 40
1.0
 40
1.0
 10
330.055276072238
 20
71.21003897788643
 30
0.0
 10
330.0296227299291
 20
29.47350970855367
 30
0.0
 10
330.0172087135054
 20
-12.26319143991861
 30
0.0
 10
330.0172087015339
 20
-95.73674884535112
 30
0.0
 10
330.0296227308602
 20
-137.4735112231298
 30
0.0
 10
330.055276072238
 20
-179.2100389778865
 30
0.0
  0
SPLINE
  5
B0
330
1F
100
AcDbEntity
  8
0
  6
Continuous
 62
     7
370
    25
100
AcDbSpline
210
0.0
220
0.0
230
1.0
 70
     8
 71
     3
 72
    10
 73
     6
 74
     0
 42
0.000000001
 43
0.00000001
 40
0.0
 40
0.0
 40
0.0
 40
0.0
 40
0.5
 40
0.5
 40
1.0
 40
1.0
 40
1.0
 40
1.0
 10
-330.0552760722379
 20
-179.2100389778865
 30
0.0
 10
-330.0296227299293
 20
-137.4735097085537
 30
0.0
 10
-330.0172087135055
 20
-95.7368085600814
 30
0.0
 10
-330.0172087015339
 20
-12.26325115464882
 30
0.0
 10
-330.0296227308602
 20
29.47351122312979
 30
0.0
 10
-330.055276072238
 20
71.21003897788646
 30
0.0
  0
SPLINE
  5
B1
330
1F
100
AcDbEntity
  8
0
  6
Continuous
 62
     7
370
    25
100
AcDbSpline
210
0.0
220
0.0
230
1.0
 70
     8
 71
     3
 72
    14
 73
    10
 74
     0
 42
0.000000001
 43
0.00000001
 40
0.0
 40
0.0
 40
0.0
 40
0.0
 40
0.2500000000000002
 40
0.2500000000000002
 40
0.5000000000000002
 40
0.5000000000000002
 40
0.7500000000000001
 40
0.7500000000000001
 40
1.0
 40
1.0
 40
1.0
 40
1.0
 10
-320.2071985421158
 20
81.17198595880389
 30
0.0
 10
-266.8395747996539
 20
81.15380020620943
 30
0.0
 10
-213.4717938193702
 20
81.14065843601314
 30
0.0
 10
-106.7359544583528
 20
81.12327353699743
 30
0.0
 10
-53.36794816158763
 20
81.1190285195656
 30
0.0
 10
53.36806039552624
 20
81.11902852556436
 30
0.0
 10
106.7360823037364
 20
81.12327355363855
 30
0.0
 10
213.4718153972967
 20
81.14065844370968
 30
0.0
 10
266.8395702698044
 20
81.15380020466579
 30
0.0
 10
320.2071985421159
 20
81.17198595880389
 30
0.0
  0
SPLINE
  5
B2
330
1F
100
AcDbEntity
  8
0
  6
Continuous
 62
     7
370
    25
100
AcDbSpline
210
0.0
220
0.0
230
1.0
 70
     8
 71
     3
 72
    14
 73
    10
 74
     0
 42
0.000000001
 43
0.00000001
 40
0.0
 40
0.0
 40
0.0
 40
0.0
 40
0.25
 40
0.25
 40
0.5
 40
0.5
 40
0.75
 40
0.75
 40
1.0
 40
1.0
 40
1.0
 40
1.0
 10
320.2071985421159
 20
-189.1719859588039
 30
0.0
 10
266.839574799654
 20
-189.1538002062094
 30
0.0
 10
213.4717938193703
 20
-189.1406584360132
 30
0.0
 10
106.7359544583529
 20
-189.1232735369975
 30
0.0
 10
53.36794816158761
 20
-189.1190285195656
 30
0.0
 10
-53.36806039552626
 20
-189.1190285255645
 30
0.0
 10
-106.7360823037364
 20
-189.1232735536386
 30
0.0
 10
-213.4718153972967
 20
-189.1406584437098
 30
0.0
 10
-266.8395702698045
 20
-189.1538002046659
 30
0.0
 10
-320.2071985421158
 20
-189.1719859588039
 30
0.0
  0
SPLINE
  5
B4
330
1F
100
AcDbEntity
  8
0
  6
Continuous
 62
     7
370
    25
100
AcDbSpline
210
0.0
220
0.0
230
1.0
 70
     8
 71
     3
 72
    14
 73
    10
 74
     0
 42
0.000000001
 43
0.00000001
 40
0.0
 40
0.0
 40
0.0
 40
0.0
 40
0.25
 40
0.25
 40
0.5
 40
0.5
 40
0.75
 40
0.75
 40
1.0
 40
1.0
 40
1.0
 40
1.0
 10
-320.2461356173408
 20
-179.2448730822601
 30
0.0
 10
-266.8722356946591
 20
-179.4463278687313
 30
0.0
 10
-213.4980937797329
 20
-179.5986429492677
 30
0.0
 10
-106.7493811367819
 20
-179.80157453591
 30
0.0
 10
-53.37472724636828
 20
-179.8523684441011
 30
0.0
 10
53.374512886623
 20
-179.8523685800229
 30
0.0
 10
106.7491369543649
 20
-179.8015749100381
 30
0.0
 10
213.4980530664178
 20
-179.5986431167323
 30
0.0
 10
266.8722447753201
 20
-179.4463278344572
 30
0.0
 10
320.2461356173409
 20
-179.2448730822602
 30
0.0
  0
SPLINE
  5
B6
330
1F
100
AcDbEntity
  8
0
  6
Continuous
 62
     7
370
    25
100
AcDbSpline
210
0.0
220
0.0
230
1.0
 70
     8
 71
     3
 72
    14
 73
    10
 74
     0
 42
0.000000001
 43
0.00000001
 40
0.0
 40
0.0
 40
0.0
 40
0.0
 40
0.25
 40
0.25
 40
0.5
 40
0.5
 40
0.75
 40
0.75
 40
1.0
 40
1.0
 40
1.0
 40
1.0
 10
320.2461356173409
 20
71.24487308226013
 30
0.0
 10
266.8722356946593
 20
71.44632786873126
 30
0.0
 10
213.4980937797328
 20
71.59864294926764
 30
0.0
 10
106.7493811367818
 20
71.80157453590999
 30
0.0
 10
53.37472724636829
 20
71.85236844410099
 30
0.0
 10
-53.37451288662296
 20
71.8523685800228
 30
0.0
 10
-106.7491369543649
 20
71.801574910038
 30
0.0
 10
-213.4980530664178
 20
71.59864311673229
 30
0.0
 10
-266.87224477532
 20
71.44632783445716
 30
0.0
 10
-320.2461356173409
 20
71.24487308226011
 30
0.0
  0
SPLINE
  5
BD
330
1F
100
AcDbEntity
  8
0
  6
Continuous
 62
     7
370
    25
100
AcDbSpline
210
0.0
220
0.0
230
1.0
 70
     8
 71
     3
 72
    10
 73
     6
 74
     0
 42
0.000000001
 43
0.00000001
 40
0.0
 40
0.0
 40
0.0
 40
0.0
 40
0.5
 40
0.5
 40
1.0
 40
1.0
 40
1.0
 40
1.0
 10
-320.2461356173408
 20
71.24487308226011
 30
0.0
 10
-320.392254398168
 20
29.49687682517357
 30
0.0
 10
-320.4657814894064
 20
-12.25157493291647
 30
0.0
 10
-320.4657813541858
 20
-95.74854052221572
 30
0.0
 10
-320.392254409502
 20
-137.4968735868613
 30
0.0
 10
-320.2461356173407
 20
-179.2448730822602
 30
0.0
  0
SPLINE
  5
BE
330
1F
100
AcDbEntity
  8
0
  6
Continuous
 62
     7
370
    25
100
AcDbSpline
210
0.0
220
0.0
230
1.0
 70
     8
 71
     3
 72
    10
 73
     6
 74
     0
 42
0.000000001
 43
0.00000001
 40
0.0
 40
0.0
 40
0.0
 40
0.0
 40
0.5000000000000001
 40
0.5000000000000001
 40
1.0
 40
1.0
 40
1.0
 40
1.0
 10
320.2461356173408
 20
-179.2448730822601
 30
0.0
 10
320.392254398168
 20
-137.4968768251736
 30
0.0
 10
320.4657814894064
 20
-95.74842506708352
 30
0.0
 10
320.4657813541858
 20
-12.25145947778426
 30
0.0
 10
320.3922544095021
 20
29.49687358686129
 30
0.0
 10
320.2461356173408
 20
71.24487308226013
 30
0.0
  0
SPLINE
  5
BF
330
1F
100
AcDbEntity
  8
0
  6
Continuous
 62
     7
370
    25
100
AcDbSpline
210
0.0
220
0.0
230
1.0
 70
    11
 71
     3
 72
   121
 73
   117
 74
     0
 42
0.000000001
 43
0.00000001
 40
0.0
 40
0.0
 40
0.0
 40
0.0
 40
0.0312500000000002
 40
0.0312500000000002
 40
0.0468750000000003
 40
0.0468750000000003
 40
0.0625000000000004
 40
0.0625000000000004
 40
0.0937500000000005
 40
0.0937500000000005
 40
0.1015625000000005
 40
0.1015625000000005
 40
0.1093750000000006
 40
0.1093750000000006
 40
0.1250000000000006
 40
0.1250000000000006
 40
0.1562500000000007
 40
0.1562500000000007
 40
0.1640625000000006
 40
0.1640625000000006
 40
0.1718750000000006
 40
0.1718750000000006
 40
0.1875000000000006
 40
0.2031250000000006
 40
0.2031250000000006
 40
0.2109375000000006
 40
0.2109375000000006
 40
0.2187500000000006
 40
0.2187500000000006
 40
0.2500000000000006
 40
0.2500000000000006
 40
0.2656250000000006
 40
0.2656250000000006
 40
0.2734375000000006
 40
0.2734375000000006
 40
0.2812500000000006
 40
0.2812500000000006
 40
0.3125000000000006
 40
0.3125000000000006
 40
0.3203125000000006
 40
0.3203125000000006
 40
0.3281250000000006
 40
0.3281250000000006
 40
0.3437500000000005
 40
0.3437500000000005
 40
0.3750000000000006
 40
0.3750000000000006
 40
0.4062500000000007
 40
0.4062500000000007
 40
0.4218750000000007
 40
0.4218750000000007
 40
0.4375000000000008
 40
0.4375000000000008
 40
0.4687500000000009
 40
0.4687500000000009
 40
0.4843750000000009
 40
0.4843750000000009
 40
0.500000000000001
 40
0.5156250000000011
 40
0.5156250000000011
 40
0.5312500000000012
 40
0.5312500000000012
 40
0.5625000000000012
 40
0.5625000000000012
 40
0.5781250000000012
 40
0.5781250000000012
 40
0.5937500000000012
 40
0.5937500000000012
 40
0.6093750000000012
 40
0.6093750000000012
 40
0.6250000000000012
 40
0.6250000000000012
 40
0.6562500000000012
 40
0.6562500000000012
 40
0.6718750000000012
 40
0.6718750000000012
 40
0.6796875000000012
 40
0.6796875000000012
 40
0.6875000000000012
 40
0.6875000000000012
 40
0.7187500000000012
 40
0.7187500000000012
 40
0.7265625000000012
 40
0.7265625000000012
 40
0.7343750000000011
 40
0.7343750000000011
 40
0.7500000000000011
 40
0.7500000000000011
 40
0.7812500000000011
 40
0.7812500000000011
 40
0.789062500000001
 40
0.789062500000001
 40
0.796875000000001
 40
0.796875000000001
 40
0.8125000000000008
 40
0.8281250000000007
 40
0.8281250000000007
 40
0.8359375000000007
 40
0.8359375000000007
 40
0.8437500000000006
 40
0.8437500000000006
 40
0.8750000000000004
 40
0.8750000000000004
 40
0.8906250000000003
 40
0.8906250000000003
 40
0.8984375000000002
 40
0.8984375000000002
 40
0.9062500000000002
 40
0.9062500000000002
 40
0.9375
 40
0.9375
 40
0.953125
 40
0.953125
 40
0.96875
 40
0.96875
 40
1.0
 40
1.0
 40
1.0
 40
1.0
 10
0.0000000000001099
 20
-33.11565033510389
 30
0.0
 10
-2.173711210032839
 20
-33.11565033510389
 30
0.0
 10
-4.311665253495085
 20
-32.90375034366073
 30
0.0
 10
-7.467086522932707
 20
-32.28065283462539
 30
0.0
 10
-8.510245203762373
 20
-32.02170318679851
 30
0.0
 10
-10.57886213260988
 20
-31.39891272275312
 30
0.0
 10
-11.60684704252997
 20
-31.03341314555421
 30
0.0
 10
-14.59791303737618
 20
-29.80163264507924
 30
0.0
 10
-16.49063203998919
 20
-28.79612277522827
 30
0.0
 10
-18.7306724371578
 20
-27.31029873726484
 30
0.0
 10
-19.17233114038048
 20
-27.00158440894636
 30
0.0
 10
-20.04273853746917
 20
-26.36067288273028
 30
0.0
 10
-20.47261268945779
 20
-26.02753803297701
 30
0.0
 10
-21.73337441306464
 20
-24.99953828952184
 30
0.0
 10
-22.53363259998369
 20
-24.27810502524137
 30
0.0
 10
-24.81725452739824
 20
-22.00873703290429
 30
0.0
 10
-26.18458108129382
 20
-20.35673441405587
 30
0.0
 10
-27.69467067328294
 20
-18.11321893621155
 30
0.0
 10
-27.98737958867427
 20
-17.65422226982492
 30
0.0
 10
-28.54701407430128
 20
-16.72663055386259
 30
0.0
 10
-28.81430508422185
 20
-16.25764060800876
 30
0.0
 10
-29.57927208884833
 20
-14.8353683312299
 30
0.0
 10
-30.50098557431152
 20
-12.89827082888712
 30
0.0
 10
-31.22896536472003
 20
-10.88085378846712
 30
0.0
 10
-31.70121911530417
 20
-9.337225822670062
 30
0.0
 10
-31.84632665269485
 20
-8.81757990063786
 30
0.0
 10
-32.11146340648757
 20
-7.767892239170119
 30
0.0
 10
-32.23162152515449
 20
-7.236874232744503
 30
0.0
 10
-32.76288085739879
 20
-4.584351961771953
 30
0.0
 10
-32.97322064502218
 20
-2.450635804785447
 30
0.0
 10
-32.97491132456238
 20
0.7670294967452076
 30
0.0
 10
-32.92279443950714
 20
1.84245381599369
 30
0.0
 10
-32.76312350400263
 20
3.46002901021245
 30
0.0
 10
-32.69619984230374
 20
3.999864929898497
 30
0.0
 10
-32.53664387047647
 20
5.068874932270089
 30
0.0
 10
-32.44388340089332
 20
5.599587641962717
 30
0.0
 10
-31.91624570991273
 20
8.234505003824387
 30
0.0
 10
-31.29168983489456
 20
10.2833039218679
 30
0.0
 10
-30.25644734058924
 20
12.76996813460954
 30
0.0
 10
-30.03655682192904
 20
13.2635508318255
 30
0.0
 10
-29.57057889507199
 20
14.24306689543429
 30
0.0
 10
-29.32513445608685
 20
14.72748668184336
 30
0.0
 10
-28.55758560051571
 20
16.1538374213674
 30
0.0
 10
-28.00223621621939
 20
17.07342285482736
 30
0.0
 10
-26.20842549654518
 20
19.74053292883785
 30
0.0
 10
-24.84344792307551
 20
21.39730469141212
 30
0.0
 10
-21.76230404003253
 20
24.45900981661261
 30
0.0
 10
-20.09427712861264
 20
25.81552580682704
 30
0.0
 10
-17.41646885333076
 20
27.59384889137297
 30
0.0
 10
-16.49396188451645
 20
28.143949124872
 30
0.0
 10
-14.58791036756935
 20
29.15705743098706
 30
0.0
 10
-13.60042773847472
 20
29.62116212466258
 30
0.0
 10
-10.60771639269337
 20
30.85228829365464
 30
0.0
 10
-8.555515280646665
 20
31.47041680388706
 30
0.0
 10
-5.39269569514056
 20
32.09752539562754
 30
0.0
 10
-4.322104295689033
 20
32.25639698083064
 30
0.0
 10
-2.160616477079343
 20
32.46873652424414
 30
0.0
 10
0.001023837665759
 20
32.57411789518909
 30
0.0
 10
2.16296485640639
 20
32.46859321107831
 30
0.0
 10
4.325058501610778
 20
32.2560189430933
 30
0.0
 10
5.394561644476665
 20
32.09721038112122
 30
0.0
 10
8.556678439551073
 20
31.47007613681475
 30
0.0
 10
10.60904246470944
 20
30.85189746850513
 30
0.0
 10
13.60280702664454
 20
29.62010588364162
 30
0.0
 10
14.5902687244643
 20
29.15588645224067
 30
0.0
 10
16.49554774557355
 20
28.14302349397755
 30
0.0
 10
17.41784861128324
 20
27.59299436858043
 30
0.0
 10
19.20293523167122
 20
26.40740097358714
 30
0.0
 10
20.06571955681468
 20
25.77183466372911
 30
0.0
 10
21.73120781971408
 20
24.4143438370598
 30
0.0
 10
22.53549378244633
 20
23.69085248722038
 30
0.0
 10
24.84471190596679
 20
21.39573916494904
 30
0.0
 10
26.20938766619424
 20
19.73932034231542
 30
0.0
 10
28.00331387469834
 20
17.07171140359828
 30
0.0
 10
28.55879874690208
 20
16.15178818816194
 30
0.0
 10
29.32662533112772
 20
14.72461314931759
 30
0.0
 10
29.57226829113319
 20
14.23964886975947
 30
0.0
 10
30.03784540921952
 20
13.26070808722474
 30
0.0
 10
30.25757521735917
 20
12.76736993736533
 30
0.0
 10
31.29216984348306
 20
10.28170569195695
 30
0.0
 10
31.91670117507956
 20
8.233000256216481
 30
0.0
 10
32.44433340152914
 20
5.597147475604596
 30
0.0
 10
32.53709414382885
 20
5.066194621132616
 30
0.0
 10
32.69663787376436
 20
3.996591804267122
 30
0.0
 10
32.76352935073727
 20
3.456465991593097
 30
0.0
 10
32.92294312235015
 20
1.839845618977983
 30
0.0
 10
32.97497381980716
 20
0.7648529044424277
 30
0.0
 10
32.97309242254039
 20
-2.45210459200194
 30
0.0
 10
32.76272188297261
 20
-4.586126290665737
 30
0.0
 10
32.23094680965798
 20
-7.239997045939861
 30
0.0
 10
32.11072816102872
 20
-7.770998766091056
 30
0.0
 10
31.84563909182238
 20
-8.820105271204621
 30
0.0
 10
31.70055735585164
 20
-9.339511663983115
 30
0.0
 10
31.22836700770474
 20
-10.88256327699913
 30
0.0
 10
30.5004340175169
 20
-12.89959026957441
 30
0.0
 10
29.57849424875519
 20
-14.83696191075536
 30
0.0
 10
28.81317832786936
 20
-16.25966142959264
 30
0.0
 10
28.5457409332871
 20
-16.72883073406845
 30
0.0
 10
27.98573911128801
 20
-17.65685093011814
 30
0.0
 10
27.69311294424616
 20
-18.11560973155385
 30
0.0
 10
26.18355364065217
 20
-20.35795393310504
 30
0.0
 10
24.81641006283566
 20
-22.00973182228642
 30
0.0
 10
22.53225421892122
 20
-24.27939691277572
 30
0.0
 10
21.73168341971229
 20
-25.00103661133527
 30
0.0
 10
20.47018418409739
 20
-26.02945819450455
 30
0.0
 10
20.04063576364717
 20
-26.36227015888196
 30
0.0
 10
19.17055295627086
 20
-27.00284459963591
 30
0.0
 10
18.72902787387164
 20
-27.31142570137579
 30
0.0
 10
16.48949912810331
 20
-28.79672944112068
 30
0.0
 10
14.59669399237433
 20
-29.80228693809313
 30
0.0
 10
11.60446275876581
 20
-31.03431879372745
 30
0.0
 10
10.5762441627452
 20
-31.39977747963805
 30
0.0
 10
8.508555768931645
 20
-32.02213508382624
 30
0.0
 10
7.465789575594183
 20
-32.28094185252882
 30
0.0
 10
4.311322693804899
 20
-32.90375212023737
 30
0.0
 10
2.173711210033045
 20
-33.1156503351039
 30
0.0
 10
0.0000000000001108
 20
-33.11565033510389
 30
0.0
  0
SPLINE
  5
C0
330
1F
100
AcDbEntity
  8
0
  6
Continuous
 62
     7
370
    25
100
AcDbSpline
210
0.0
220
0.0
230
1.0
 70
    11
 71
     3
 72
   120
 73
   116
 74
     0
 42
0.000000001
 43
0.00000001
 40
0.0
 40
0.0
 40
0.0
 40
0.0
 40
0.0312500000000001
 40
0.0312500000000001
 40
0.0468750000000001
 40
0.0468750000000001
 40
0.0625000000000001
 40
0.0625000000000001
 40
0.0937500000000002
 40
0.0937500000000002
 40
0.1093750000000002
 40
0.1093750000000002
 40
0.1250000000000002
 40
0.1250000000000002
 40
0.1562500000000002
 40
0.1562500000000002
 40
0.1718750000000002
 40
0.1718750000000002
 40
0.1875000000000002
 40
0.1875000000000002
 40
0.2031250000000003
 40
0.2031250000000003
 40
0.2109375000000003
 40
0.2109375000000003
 40
0.2187500000000003
 40
0.2187500000000003
 40
0.2500000000000003
 40
0.2500000000000003
 40
0.2656250000000002
 40
0.2656250000000002
 40
0.2734375000000003
 40
0.2734375000000003
 40
0.2812500000000003
 40
0.2812500000000003
 40
0.3125000000000002
 40
0.3125000000000002
 40
0.3203125000000002
 40
0.3203125000000002
 40
0.3281250000000002
 40
0.3281250000000002
 40
0.3437500000000003
 40
0.3437500000000003
 40
0.3750000000000003
 40
0.3750000000000003
 40
0.3906250000000003
 40
0.3906250000000003
 40
0.4062500000000003
 40
0.4062500000000003
 40
0.4218750000000002
 40
0.4218750000000002
 40
0.4375000000000002
 40
0.4375000000000002
 40
0.4687500000000002
 40
0.4687500000000002
 40
0.4843750000000001
 40
0.4843750000000001
 40
0.5000000000000001
 40
0.5000000000000001
 40
0.53125
 40
0.53125
 40
0.546875
 40
0.546875
 40
0.5624999999999999
 40
0.5624999999999999
 40
0.5781249999999998
 40
0.5781249999999998
 40
0.5859374999999998
 40
0.5859374999999998
 40
0.5937499999999998
 40
0.5937499999999998
 40
0.6249999999999997
 40
0.6249999999999997
 40
0.6406249999999996
 40
0.6406249999999996
 40
0.6484374999999994
 40
0.6484374999999994
 40
0.6562499999999993
 40
0.6562499999999993
 40
0.6874999999999993
 40
0.6874999999999993
 40
0.6953124999999993
 40
0.6953124999999993
 40
0.7031249999999993
 40
0.7031249999999993
 40
0.7187499999999993
 40
0.7187499999999993
 40
0.7499999999999994
 40
0.7499999999999994
 40
0.7578124999999994
 40
0.7578124999999994
 40
0.7656249999999994
 40
0.7656249999999994
 40
0.7812499999999994
 40
0.7812499999999994
 40
0.7968749999999996
 40
0.7968749999999996
 40
0.8124999999999996
 40
0.8124999999999996
 40
0.8437499999999996
 40
0.8437499999999996
 40
0.8593749999999997
 40
0.8593749999999997
 40
0.8749999999999997
 40
0.8749999999999997
 40
0.9062499999999998
 40
0.9062499999999998
 40
0.9218749999999999
 40
0.9218749999999999
 40
0.9374999999999999
 40
0.9374999999999999
 40
0.9531249999999999
 40
0.9531249999999999
 40
0.9687499999999999
 40
0.9687499999999999
 40
1.0
 40
1.0
 40
1.0
 40
1.0
 10
0.0418668890427659
 20
-26.84137038517832
 30
0.0
 10
-1.67291872450432
 20
-26.84410654163814
 30
0.0
 10
-3.359616559632369
 20
-26.68034222198799
 30
0.0
 10
-5.849220192704201
 20
-26.19495450802717
 30
0.0
 10
-6.672297643624664
 20
-25.99290589013467
 30
0.0
 10
-8.304557731689997
 20
-25.50644211490389
 30
0.0
 10
-9.11658163742376
 20
-25.22045677175474
 30
0.0
 10
-11.48030239049428
 20
-24.25542470774103
 30
0.0
 10
-12.9758180674984
 20
-23.46696603208292
 30
0.0
 10
-15.09958822078148
 20
-22.06832771291906
 30
0.0
 10
-15.78859324518354
 20
-21.56494638198478
 30
0.0
 10
-17.12011408815486
 20
-20.48663741809831
 30
0.0
 10
-17.75381407120683
 20
-19.91903684420821
 30
0.0
 10
-19.56175927652121
 20
-18.13358221640001
 30
0.0
 10
-20.64372858193002
 20
-16.83385500841616
 30
0.0
 10
-22.07739463685594
 20
-14.71631574153604
 30
0.0
 10
-22.52390041336639
 20
-13.98046847678985
 30
0.0
 10
-23.33300930740218
 20
-12.48453273681091
 30
0.0
 10
-23.69843903670209
 20
-11.72066162360754
 30
0.0
 10
-24.3523573767493
 20
-10.16164470966663
 30
0.0
 10
-24.64084511232673
 20
-9.366498553193905
 30
0.0
 10
-25.01517568844877
 20
-8.150040725738897
 30
0.0
 10
-25.13020179249437
 20
-7.740591339376232
 30
0.0
 10
-25.34041934455092
 20
-6.913630262885365
 30
0.0
 10
-25.43583057763563
 20
-6.494919143229025
 30
0.0
 10
-25.8585584224716
 20
-4.399246124410486
 30
0.0
 10
-26.02609720699284
 20
-2.714570229628877
 30
0.0
 10
-26.02953635916053
 20
-0.1757362521160168
 30
0.0
 10
-25.98906954787479
 20
0.672526149701433
 30
0.0
 10
-25.86420223007472
 20
1.947979690303582
 30
0.0
 10
-25.81169859978219
 20
2.37442065536927
 30
0.0
 10
-25.68628516631838
 20
3.219178756435609
 30
0.0
 10
-25.61331651253849
 20
3.638504281236912
 30
0.0
 10
-25.19808344460319
 20
5.720137996465724
 30
0.0
 10
-24.70609372401794
 20
7.337894161894689
 30
0.0
 10
-23.89120080447848
 20
9.300605724788948
 30
0.0
 10
-23.71813661158225
 20
9.690146979534035
 30
0.0
 10
-23.35146032269019
 20
10.46311528752821
 30
0.0
 10
-23.15793804003633
 20
10.84618300227062
 30
0.0
 10
-22.55302948717841
 20
11.9735354630389
 30
0.0
 10
-22.11539390664097
 20
12.70030486018936
 30
0.0
 10
-20.70205166405387
 20
14.80813173194242
 30
0.0
 10
-19.62688703863942
 20
16.11741334672234
 30
0.0
 10
-17.80760782240146
 20
17.93228755453698
 30
0.0
 10
-17.17409441527876
 20
18.50442188395406
 30
0.0
 10
-15.86194157737009
 20
19.57844347123404
 30
0.0
 10
-15.18213629425068
 20
20.08148837894633
 30
0.0
 10
-13.77548186786879
 20
21.02023884023668
 30
0.0
 10
-13.0486339377699
 20
21.45594613035701
 30
0.0
 10
-11.5469454116972
 20
22.25866322035403
 30
0.0
 10
-10.76863054880397
 20
22.6267414379256
 30
0.0
 10
-8.408881451280749
 20
23.6039564707863
 30
0.0
 10
-6.790811974238201
 20
24.09525947408846
 30
0.0
 10
-4.297239066368182
 20
24.59511539518678
 30
0.0
 10
-3.453535083587447
 20
24.72207385974379
 30
0.0
 10
-1.748638003406249
 20
24.89287617530485
 30
0.0
 10
-0.8989059099651752
 20
24.93570889967685
 30
0.0
 10
1.642412370806315
 20
24.94075384783383
 30
0.0
 10
3.326193886750179
 20
24.78066194528827
 30
0.0
 10
5.83592523608634
 20
24.29071974263105
 30
0.0
 10
6.671446220346463
 20
24.08447463890278
 30
0.0
 10
8.300765105858437
 20
23.59647518287822
 30
0.0
 10
9.099128311080083
 20
23.31405191321204
 30
0.0
 10
10.6638351302192
 20
22.67370904550183
 30
0.0
 10
11.43017826647072
 20
22.31578832120895
 30
0.0
 10
12.55541416018154
 20
21.72166224855846
 30
0.0
 10
12.92643919583795
 20
21.51406258882554
 30
0.0
 10
13.66024850406712
 20
21.07943306021253
 30
0.0
 10
14.02400744927867
 20
20.85174239279448
 30
0.0
 10
15.80830211309448
 20
19.67257101153437
 30
0.0
 10
17.12197585066264
 20
18.60437208062198
 30
0.0
 10
18.92722652356093
 20
16.82068923055437
 30
0.0
 10
19.50123296505387
 20
16.19567751861563
 30
0.0
 10
20.31946703810576
 20
15.21121071918918
 30
0.0
 10
20.58576262871848
 20
14.87425004229826
 30
0.0
 10
21.09906645018213
 20
14.19060441453208
 30
0.0
 10
21.34632305294627
 20
13.84372854280186
 30
0.0
 10
22.53647000584569
 20
12.08453592784556
 30
0.0
 10
23.34227297422068
 20
10.59848977920545
 30
0.0
 10
24.1664760690263
 20
8.642482382861548
 30
0.0
 10
24.32208156811988
 20
8.246313999359753
 30
0.0
 10
24.61447758046704
 20
7.443858009849706
 30
0.0
 10
24.75151240166838
 20
7.036636440285749
 30
0.0
 10
25.12989338077914
 20
5.812411100582982
 30
0.0
 10
25.33995265830949
 20
4.989689151300329
 30
0.0
 10
25.84693704166045
 20
2.502336224577502
 30
0.0
 10
26.02186301049719
 20
0.8187041794798261
 30
0.0
 10
26.02982776602475
 20
-1.318650751255066
 30
0.0
 10
26.02070469166001
 20
-1.748081201185286
 30
0.0
 10
25.98134826868648
 20
-2.600619931287873
 30
0.0
 10
25.95114499017617
 20
-3.024928349998127
 30
0.0
 10
25.82948159091195
 20
-4.292067954404025
 30
0.0
 10
25.70704130676392
 20
-5.129127163739168
 30
0.0
 10
25.38043123364483
 20
-6.788018394489463
 30
0.0
 10
25.17626258563661
 20
-7.609850628479706
 30
0.0
 10
24.68475290740636
 20
-9.238019083160426
 30
0.0
 10
24.3954081310899
 20
-10.04862701575627
 30
0.0
 10
23.41659584042816
 20
-12.41142143639415
 30
0.0
 10
22.61742057431201
 20
-13.9023223736699
 30
0.0
 10
21.203172948556
 20
-16.01479806657539
 30
0.0
 10
20.69558749770393
 20
-16.69816382556924
 30
0.0
 10
19.60562643931162
 20
-18.0219007233224
 30
0.0
 10
19.03201018928141
 20
-18.65158861533742
 30
0.0
 10
17.23014051597918
 20
-20.44559553709682
 30
0.0
 10
15.92084653272433
 20
-21.51667597687941
 30
0.0
 10
13.79289182954813
 20
-22.93366454761409
 30
0.0
 10
13.05381071222357
 20
-23.37483308618999
 30
0.0
 10
11.55193384583137
 20
-24.17419787757125
 30
0.0
 10
10.78557495736954
 20
-24.53505697785803
 30
0.0
 10
9.222633561371476
 20
-25.18068271090845
 30
0.0
 10
8.426050238006235
 20
-25.46544728970096
 30
0.0
 10
6.80240013776124
 20
-25.95822980781717
 30
0.0
 10
5.972814373215982
 20
-26.16673690398935
 30
0.0
 10
3.453743885215329
 20
-26.66944845044906
 30
0.0
 10
1.756652502589855
 20
-26.8386342287185
 30
0.0
 10
0.0418668890427645
 20
-26.84137038517832
 30
0.0
  0
SPLINE
  5
C1
330
1F
100
AcDbEntity
  8
0
  6
Continuous
 62
     7
370
    25
100
AcDbSpline
210
0.0
220
0.0
230
1.0
 70
    11
 71
     3
 72
   102
 73
    98
 74
     0
 42
0.000000001
 43
0.00000001
 40
0.0
 40
0.0
 40
0.0
 40
0.0
 40
0.03125
 40
0.03125
 40
0.046875
 40
0.046875
 40
0.0625
 40
0.0625
 40
0.09375
 40
0.09375
 40
0.109375
 40
0.109375
 40
0.125
 40
0.125
 40
0.15625
 40
0.15625
 40
0.171875
 40
0.171875
 40
0.1875
 40
0.1875
 40
0.203125
 40
0.203125
 40
0.21875
 40
0.21875
 40
0.25
 40
0.25
 40
0.265625
 40
0.265625
 40
0.28125
 40
0.28125
 40
0.3125
 40
0.3125
 40
0.328125
 40
0.328125
 40
0.34375
 40
0.34375
 40
0.375
 40
0.375
 40
0.40625
 40
0.40625
 40
0.421875
 40
0.421875
 40
0.4375
 40
0.4375
 40
0.46875
 40
0.46875
 40
0.484375
 40
0.484375
 40
0.5
 40
0.5
 40
0.53125
 40
0.53125
 40
0.546875
 40
0.546875
 40
0.5625
 40
0.5625
 40
0.578125
 40
0.578125
 40
0.59375
 40
0.59375
 40
0.625
 40
0.625
 40
0.640625
 40
0.640625
 40
0.65625
 40
0.65625
 40
0.6875
 40
0.6875
 40
0.703125
 40
0.703125
 40
0.71875
 40
0.71875
 40
0.75
 40
0.75
 40
0.765625
 40
0.765625
 40
0.78125
 40
0.78125
 40
0.796875
 40
0.796875
 40
0.8125
 40
0.8125
 40
0.84375
 40
0.84375
 40
0.875
 40
0.875
 40
0.90625
 40
0.90625
 40
0.921875
 40
0.921875
 40
0.9375
 40
0.9375
 40
0.953125
 40
0.953125
 40
0.96875
 40
0.96875
 40
1.0
 40
1.0
 40
1.0
 40
1.0
 10
0.0386082378646716
 20
-24.79913038836937
 30
0.0
 10
-1.544016427651389
 20
-24.80165566519902
 30
0.0
 10
-3.097331859915782
 20
-24.65078374994428
 30
0.0
 10
-5.394148742253826
 20
-24.20298271795485
 30
0.0
 10
-6.1530409885861
 20
-24.01664873089372
 30
0.0
 10
-7.65721980292227
 20
-23.56835688103095
 30
0.0
 10
-8.406365553972948
 20
-23.30452574936973
 30
0.0
 10
-10.5849522229852
 20
-22.41507857667737
 30
0.0
 10
-11.96318654190934
 20
-21.68851895342184
 30
0.0
 10
-13.92103401741974
 20
-20.39915105882107
 30
0.0
 10
-14.55563522612521
 20
-19.93549833290462
 30
0.0
 10
-15.78252921616103
 20
-18.94191966515174
 30
0.0
 10
-16.3660051065155
 20
-18.41932239384142
 30
0.0
 10
-18.03232570016921
 20
-16.77373079311987
 30
0.0
 10
-19.02839941369659
 20
-15.57698033839577
 30
0.0
 10
-20.34840029623312
 20
-13.62732480959299
 30
0.0
 10
-20.75981136503755
 20
-12.94928634795513
 30
0.0
 10
-21.50444751651679
 20
-11.57255268996708
 30
0.0
 10
-21.84102353703138
 20
-10.86905382861552
 30
0.0
 10
-22.44320167887914
 20
-9.433391527436212
 30
0.0
 10
-22.70870426181601
 20
-8.701586906373702
 30
0.0
 10
-23.16826053711964
 20
-7.208172007209058
 30
0.0
 10
-23.36276866782507
 20
-6.443783845018994
 30
0.0
 10
-23.82982867230118
 20
-4.12833596139425
 30
0.0
 10
-23.98403731531195
 20
-2.578385392496241
 30
0.0
 10
-23.98720522071899
 20
-0.2396789842491867
 30
0.0
 10
-23.94993051228159
 20
0.5410959430491802
 30
0.0
 10
-23.796667864923
 20
2.106591261618307
 30
0.0
 10
-23.680499152136
 20
2.888235801206122
 30
0.0
 10
-23.2214542167577
 20
5.189506782131853
 30
0.0
 10
-22.76876889801773
 20
6.678085279339062
 30
0.0
 10
-21.86768041503229
 20
8.848402810704016
 30
0.0
 10
-21.52818208165045
 20
9.56414662510006
 30
0.0
 10
-20.7853192289841
 20
10.94860121152908
 30
0.0
 10
-20.38231976731584
 20
11.61790611083899
 30
0.0
 10
-19.07952479562247
 20
13.5608655357752
 30
0.0
 10
-18.08973001901014
 20
14.76617592972294
 30
0.0
 10
-15.85367416596517
 20
16.9968171992708
 30
0.0
 10
-14.64182256236184
 20
17.98681395749704
 30
0.0
 10
-12.6968239427193
 20
19.2848359299822
 30
0.0
 10
-12.02671770213407
 20
19.686499238772
 30
0.0
 10
-10.64335938247295
 20
20.42596348506318
 30
0.0
 10
-9.925512223381682
 20
20.76545896776405
 30
0.0
 10
-7.750981673623803
 20
21.66597216082148
 30
0.0
 10
-6.25986299343575
 20
22.11882194196243
 30
0.0
 10
-3.960616613666671
 20
22.57972339690346
 30
0.0
 10
-3.183296031374665
 20
22.69668159046484
 30
0.0
 10
-1.61171777830277
 20
22.85412762315672
 30
0.0
 10
-0.8289517587832025
 20
22.89360110205962
 30
0.0
 10
1.514666639104663
 20
22.89825372563551
 30
0.0
 10
3.06613147066648
 20
22.75063753113772
 30
0.0
 10
5.37901525822001
 20
22.29912283030362
 30
0.0
 10
6.149623188709476
 20
22.10888912070189
 30
0.0
 10
7.650674264227164
 20
21.65930755691883
 30
0.0
 10
8.386739988670724
 20
21.39894921156359
 30
0.0
 10
9.829215765976146
 20
20.80862835068206
 30
0.0
 10
10.53530348546061
 20
20.47884616205969
 30
0.0
 10
11.91826733170692
 20
19.74863935477969
 30
0.0
 10
12.59701496515445
 20
19.34687288147467
 30
0.0
 10
14.57064275118237
 20
18.04257895351618
 30
0.0
 10
15.78050378596934
 20
17.05885119415847
 30
0.0
 10
17.44489345778894
 20
15.41434623169869
 30
0.0
 10
17.97362474557111
 20
14.83858942269532
 30
0.0
 10
18.97865259590625
 20
13.62937954238251
 30
0.0
 10
19.45405690127361
 20
12.99611707621751
 30
0.0
 10
20.77041694511114
 20
11.05036536160998
 30
0.0
 10
21.51205384174191
 20
9.682614662124049
 30
0.0
 10
22.42344238296736
 20
7.51969737564524
 30
0.0
 10
22.6942037592118
 20
6.776972853472713
 30
0.0
 10
23.15873275071953
 20
5.274022101220809
 30
0.0
 10
23.35214669126071
 20
4.516601379257152
 30
0.0
 10
23.81925440308149
 20
2.224891041462851
 30
0.0
 10
23.9801395743247
 20
0.6756458042550383
 30
0.0
 10
23.98893980973561
 20
-1.686007956167919
 30
0.0
 10
23.95237872182881
 20
-2.474299567044935
 30
0.0
 10
23.80301483194025
 20
-4.029943523258709
 30
0.0
 10
23.69033450723634
 20
-4.800296220532887
 30
0.0
 10
23.38958776016307
 20
-6.32782455811203
 30
0.0
 10
23.20154810680927
 20
-7.084623331642304
 30
0.0
 10
22.74926797232004
 20
-8.582839739503282
 30
0.0
 10
22.48272101941101
 20
-9.329617590406055
 30
0.0
 10
21.58170550291053
 20
-11.50461651732862
 30
0.0
 10
20.84622889871896
 20
-12.87694541850361
 30
0.0
 10
19.10885579865354
 20
-15.47207648382084
 30
0.0
 10
18.09756893906095
 20
-16.70007955642798
 30
0.0
 10
15.88335997483592
 20
-18.90462675795037
 30
0.0
 10
14.67737002843707
 20
-19.89110453016315
 30
0.0
 10
12.71674877863574
 20
-21.1966664696817
 30
0.0
 10
12.03515232829565
 20
-21.60351223364973
 30
0.0
 10
10.65154042805458
 20
-22.33993147199823
 30
0.0
 10
9.944941012138623
 20
-22.67268370132287
 30
0.0
 10
8.503843854429778
 20
-23.26797755560416
 30
0.0
 10
7.769552394612609
 20
-23.53046584679634
 30
0.0
 10
6.272675405080587
 20
-23.98477226648444
 30
0.0
 10
5.50790079694392
 20
-24.17700418373197
 30
0.0
 10
3.184549530475043
 20
-24.64065783488294
 30
0.0
 10
1.621232903380732
 20
-24.79660511153973
 30
0.0
 10
0.0386082378646716
 20
-24.79913038836937
 30
0.0
  0
SPLINE
  5
C2
330
1F
100
AcDbEntity
  8
0
  6
Continuous
 62
     7
370
    25
100
AcDbSpline
210
0.0
220
0.0
230
1.0
 70
     8
 71
     3
 72
     8
 73
     4
 74
     0
 42
0.000000001
 43
0.00000001
 40
0.0
 40
0.0
 40
0.0
 40
0.0
 40
0.0120081344291835
 40
0.0120081344291835
 40
0.0120081344291835
 40
0.0120081344291835
 10
-17.2046482625598
 20
-17.15950811699006
 30
0.0
 10
-17.34433196214984
 20
-17.11427927416521
 30
0.0
 10
-17.48401506752169
 20
-17.06751608724906
 30
0.0
 10
-17.62369749646078
 20
-17.0191725599842
 30
0.0
  0
SPLINE
  5
C3
330
1F
100
AcDbEntity
  8
0
  6
Continuous
 62
     7
370
    25
100
AcDbSpline
210
0.0
220
0.0
230
1.0
 70
     8
 71
     3
 72
    34
 73
    30
 74
     0
 42
0.000000001
 43
0.00000001
 40
0.8683103845287357
 40
0.8683103845287357
 40
0.8683103845287357
 40
0.8683103845287357
 40
0.8756761711571641
 40
0.8756761711571641
 40
0.8913011711571641
 40
0.8913011711571641
 40
0.9069261711571641
 40
0.9069261711571641
 40
0.9381761711571641
 40
0.9381761711571641
 40
0.9538011711571641
 40
0.9538011711571641
 40
0.9694261711571641
 40
0.9694261711571641
 40
1.000676171157164
 40
1.000676171157164
 40
1.031926171157164
 40
1.031926171157164
 40
1.047551171157164
 40
1.047551171157164
 40
1.063176171157164
 40
1.063176171157164
 40
1.078801171157164
 40
1.078801171157164
 40
1.094426171157164
 40
1.094426171157164
 40
1.125676171157164
 40
1.125676171157164
 40
1.132365786628428
 40
1.132365786628428
 40
1.132365786628428
 40
1.132365786628428
 10
-17.62369749646075
 20
-17.01917255998417
 30
0.0
 10
-17.37554012819457
 20
-17.28789101751461
 30
0.0
 10
-17.12100899412385
 20
-17.55105009631682
 30
0.0
 10
-16.30669703294981
 20
-18.35523203435444
 30
0.0
 10
-15.72536754279269
 20
-18.87590602504693
 30
0.0
 10
-14.50294463919233
 20
-19.86586386181189
 30
0.0
 10
-13.87066844478506
 20
-20.32781873306284
 30
0.0
 10
-11.91991170716554
 20
-21.61251692173955
 30
0.0
 10
-10.54668932769369
 20
-22.33643131587813
 30
0.0
 10
-8.376014473105721
 20
-23.22264835037135
 30
0.0
 10
-7.629555765131165
 20
-23.48553273886309
 30
0.0
 10
-6.130850556983843
 20
-23.93219328361249
 30
0.0
 10
-5.374701244792007
 20
-24.11785572087136
 30
0.0
 10
-3.086123111223365
 20
-24.56405047692403
 30
0.0
 10
-1.538507782486628
 20
-24.71437143971749
 30
0.0
 10
1.615445741021262
 20
-24.7093389099438
 30
0.0
 10
3.173045403764982
 20
-24.55395739042045
 30
0.0
 10
5.488032742621966
 20
-24.09197286630354
 30
0.0
 10
6.250037617131072
 20
-23.90043647001704
 30
0.0
 10
7.74149691008038
 20
-23.44777433624527
 30
0.0
 10
8.473126345592823
 20
-23.18623801906957
 30
0.0
 10
9.90901648455803
 20
-22.59309509974488
 30
0.0
 10
10.61306210668095
 20
-22.26154399648379
 30
0.0
 10
11.99161988891277
 20
-21.52781478360398
 30
0.0
 10
12.67075977963351
 20
-21.12243577888823
 30
0.0
 10
14.62422996635145
 20
-19.82163567232384
 30
0.0
 10
15.82580525093482
 20
-18.8387733836799
 30
0.0
 10
17.16502064788135
 20
-17.50540169132886
 30
0.0
 10
17.39677623113224
 20
-17.26456169619595
 30
0.0
 10
17.62369749646218
 20
-17.0185327060006
 30
0.0
  0
SPLINE
  5
C4
330
1F
100
AcDbEntity
  8
0
  6
Continuous
 62
     7
370
    25
100
AcDbSpline
210
0.0
220
0.0
230
1.0
 70
     8
 71
     3
 72
     8
 73
     4
 74
     0
 42
0.000000001
 43
0.00000001
 40
0.0
 40
0.0
 40
0.0
 40
0.0
 40
0.0120081384658621
 40
0.0120081384658621
 40
0.0120081384658621
 40
0.0120081384658621
 10
17.20464826256002
 20
-17.15921333468372
 30
0.0
 10
17.34433196845556
 20
-17.11388148658066
 30
0.0
 10
17.48401507205152
 20
-17.06699826182998
 30
0.0
 10
17.62369749646101
 20
-17.01853270600178
 30
0.0
  0
SPLINE
  5
C5
330
1F
100
AcDbEntity
  8
0
  6
Continuous
 62
     7
370
    25
100
AcDbSpline
210
0.0
220
0.0
230
1.0
 70
     8
 71
     3
 72
    34
 73
    30
 74
     0
 42
0.000000001
 43
0.00000001
 40
0.870917752543154
 40
0.870917752543154
 40
0.870917752543154
 40
0.870917752543154
 40
0.875
 40
0.875
 40
0.90625
 40
0.90625
 40
0.921875
 40
0.921875
 40
0.9375
 40
0.9375
 40
0.953125
 40
0.953125
 40
0.96875
 40
0.96875
 40
1.0
 40
1.0
 40
1.03125
 40
1.03125
 40
1.046875
 40
1.046875
 40
1.0625
 40
1.0625
 40
1.09375
 40
1.09375
 40
1.109375
 40
1.109375
 40
1.125
 40
1.125
 40
1.12974293485918
 40
1.12974293485918
 40
1.12974293485918
 40
1.12974293485918
 10
17.20464826256098
 20
-17.15921333468266
 30
0.0
 10
17.065152786273
 20
-17.30553112285798
 30
0.0
 10
16.92393594967839
 20
-17.4498577157412
 30
0.0
 10
15.68767391357192
 20
-18.68072528543049
 30
0.0
 10
14.49669381734573
 20
-19.6549104135092
 30
0.0
 10
12.56038618202797
 20
-20.94428212098357
 30
0.0
 10
11.88714203439367
 20
-21.34614090349385
 30
0.0
 10
10.52071413538408
 20
-22.07341405524878
 30
0.0
 10
9.82279761836445
 20
-22.40208245595733
 30
0.0
 10
8.399404324383992
 20
-22.9900631313862
 30
0.0
 10
7.674163747202909
 20
-23.24931471092232
 30
0.0
 10
6.195706926052136
 20
-23.69803055849491
 30
0.0
 10
5.440349412249187
 20
-23.88789770447491
 30
0.0
 10
3.145435499660788
 20
-24.3458763237101
 30
0.0
 10
1.601556551358509
 20
-24.4999000261132
 30
0.0
 10
-1.525287034091176
 20
-24.50488929856143
 30
0.0
 10
-3.059222114361514
 20
-24.35589062167506
 30
0.0
 10
-5.328027250883556
 20
-23.91355092787065
 30
0.0
 10
-6.077593521138333
 20
-23.72950021013716
 30
0.0
 10
-7.563162074432389
 20
-23.28675479765986
 30
0.0
 10
-8.303171879024246
 20
-23.02614259277487
 30
0.0
 10
-10.45485837899391
 20
-22.14767788995963
 30
0.0
 10
-11.81605210378021
 20
-21.43011204570172
 30
0.0
 10
-13.74979107046162
 20
-20.15662115124278
 30
0.0
 10
-14.37648723055317
 20
-19.69874113118902
 30
0.0
 10
-15.58817952670843
 20
-18.71747328879508
 30
0.0
 10
-16.1643576563919
 20
-18.20141517158541
 30
0.0
 10
-16.87945907253828
 20
-17.49520960062318
 30
0.0
 10
-17.04336352000407
 20
-17.32849677912681
 30
0.0
 10
-17.20464826255969
 20
-17.15950811699003
 30
0.0
  0
SPLINE
  5
C6
330
1F
100
AcDbEntity
  8
0
  6
Continuous
 62
     7
370
    25
100
AcDbSpline
210
0.0
220
0.0
230
1.0
 70
    11
 71
     3
 72
   121
 73
   117
 74
     0
 42
0.000000001
 43
0.00000001
 40
0.0
 40
0.0
 40
0.0
 40
0.0
 40
0.015625
 40
0.015625
 40
0.03125
 40
0.03125
 40
0.0625
 40
0.0625
 40
0.078125
 40
0.078125
 40
0.09375
 40
0.09375
 40
0.1093749999999999
 40
0.1093749999999999
 40
0.1249999999999999
 40
0.1249999999999999
 40
0.1562499999999999
 40
0.1562499999999999
 40
0.1718749999999999
 40
0.1718749999999999
 40
0.1874999999999999
 40
0.1874999999999999
 40
0.2187499999999999
 40
0.2187499999999999
 40
0.2343749999999999
 40
0.2343749999999999
 40
0.2499999999999999
 40
0.2499999999999999
 40
0.2656249999999999
 40
0.2656249999999999
 40
0.2734374999999999
 40
0.2734374999999999
 40
0.2812499999999999
 40
0.2812499999999999
 40
0.3124999999999999
 40
0.3124999999999999
 40
0.3281249999999999
 40
0.3281249999999999
 40
0.3359374999999999
 40
0.3359374999999999
 40
0.3437499999999999
 40
0.3437499999999999
 40
0.3749999999999998
 40
0.3749999999999998
 40
0.3828124999999997
 40
0.3828124999999997
 40
0.3906249999999997
 40
0.3906249999999997
 40
0.4062499999999997
 40
0.4062499999999997
 40
0.4374999999999997
 40
0.4374999999999997
 40
0.4531249999999997
 40
0.4531249999999997
 40
0.4687499999999997
 40
0.4687499999999997
 40
0.4843749999999997
 40
0.4843749999999997
 40
0.4999999999999997
 40
0.4999999999999997
 40
0.5156249999999997
 40
0.5156249999999997
 40
0.5312499999999997
 40
0.5312499999999997
 40
0.5624999999999997
 40
0.5624999999999997
 40
0.5781249999999997
 40
0.5781249999999997
 40
0.5859374999999997
 40
0.5859374999999997
 40
0.5937499999999997
 40
0.6249999999999997
 40
0.6249999999999997
 40
0.6406249999999997
 40
0.6406249999999997
 40
0.6562499999999997
 40
0.6562499999999997
 40
0.6874999999999997
 40
0.6874999999999997
 40
0.7031249999999997
 40
0.7031249999999997
 40
0.7187499999999997
 40
0.7187499999999997
 40
0.7343749999999997
 40
0.7343749999999997
 40
0.7499999999999997
 40
0.7499999999999997
 40
0.7812499999999997
 40
0.7812499999999997
 40
0.7968749999999997
 40
0.7968749999999997
 40
0.8124999999999997
 40
0.8124999999999997
 40
0.8437499999999998
 40
0.8437499999999998
 40
0.8515624999999998
 40
0.8515624999999998
 40
0.8593749999999998
 40
0.8593749999999998
 40
0.8749999999999999
 40
0.8749999999999999
 40
0.890625
 40
0.890625
 40
0.8984375
 40
0.8984375
 40
0.90625
 40
0.90625
 40
0.9375
 40
0.9375
 40
0.953125
 40
0.953125
 40
0.9609375
 40
0.9609375
 40
0.96875
 40
0.96875
 40
1.0
 40
1.0
 40
1.0
 40
1.0
 10
-0.0467079044402058
 20
22.37241495742685
 30
0.0
 10
0.7256481536018491
 20
22.37394728668192
 30
0.0
 10
1.500113700373804
 20
22.33745387713834
 30
0.0
 10
3.029619154008356
 20
22.18952812340707
 30
0.0
 10
3.785761889673372
 20
22.07841047008639
 30
0.0
 10
6.029333366799625
 20
21.6377930280422
 30
0.0
 10
7.491921131943818
 20
21.20109673868783
 30
0.0
 10
9.634170386425579
 20
20.32324254857836
 30
0.0
 10
10.33102497741459
 20
19.99654279241361
 30
0.0
 10
11.68152229352391
 20
19.28150954318497
 30
0.0
 10
12.33680633609823
 20
18.89251688954234
 30
0.0
 10
13.60776049029285
 20
18.05207662328928
 30
0.0
 10
14.22360183619426
 20
17.60089897707061
 30
0.0
 10
15.41450055420904
 20
16.63424404690125
 30
0.0
 10
15.99193765555365
 20
16.11602183988397
 30
0.0
 10
17.62846826253324
 20
14.49618766482028
 30
0.0
 10
18.60134833362435
 20
13.32314752566578
 30
0.0
 10
19.88562096294168
 20
11.42556677265411
 30
0.0
 10
20.28483479420815
 20
10.7696333729729
 30
0.0
 10
21.0207217731048
 20
9.411044564260429
 30
0.0
 10
21.35165424895764
 20
8.71911854702163
 30
0.0
 10
22.23888005753068
 20
6.607309603609113
 30
0.0
 10
22.68942551286692
 20
5.151335629919937
 30
0.0
 10
23.14937827902313
 20
2.893701237737569
 30
0.0
 10
23.26655565777806
 20
2.126796299642795
 30
0.0
 10
23.42194576574087
 20
0.6016866441149581
 30
0.0
 10
23.46121547586586
 20
-0.1604749794120497
 30
0.0
 10
23.46546873616789
 20
-1.68403806065114
 30
0.0
 10
23.43014984905712
 20
-2.445436423540546
 30
0.0
 10
23.32033472373423
 20
-3.586952360367089
 30
0.0
 10
23.27426438902897
 20
-3.967360814868285
 30
0.0
 10
23.16277909015779
 20
-4.727979771438735
 30
0.0
 10
23.09713596400253
 20
-5.109261328759882
 30
0.0
 10
22.72285410557884
 20
-6.999651187437724
 30
0.0
 10
22.27846156713631
 20
-8.459311227914887
 30
0.0
 10
21.40154496908147
 20
-10.57241050605713
 30
0.0
 10
21.07420007873639
 20
-11.26405068253212
 30
0.0
 10
20.52833060207316
 20
-12.28158872022861
 30
0.0
 10
20.33678309664307
 20
-12.61811060560531
 30
0.0
 10
19.93943666871932
 20
-13.27737916875251
 30
0.0
 10
19.73328800528688
 20
-13.60090547472955
 30
0.0
 10
18.6660550816686
 20
-15.1887223925785
 30
0.0
 10
17.69590933134668
 20
-16.36390198538744
 30
0.0
 10
16.33783448510056
 20
-17.7140803006533
 30
0.0
 10
16.05895629742746
 20
-17.97818139601803
 30
0.0
 10
15.4862406108788
 20
-18.49416076213641
 30
0.0
 10
15.19249912598032
 20
-18.74585964248372
 30
0.0
 10
14.29858025088894
 20
-19.47420243705816
 30
0.0
 10
13.68256675571049
 20
-19.92704855518532
 30
0.0
 10
11.77673866176932
 20
-21.19137700472394
 30
0.0
 10
10.42921305592472
 20
-21.90877431279626
 30
0.0
 10
8.288645174493299
 20
-22.79041149594774
 30
0.0
 10
7.563346942015952
 20
-23.04806238894005
 30
0.0
 10
6.100209676073405
 20
-23.48946822660187
 30
0.0
 10
5.3607152784554
 20
-23.6739126550771
 30
0.0
 10
3.866035310236225
 20
-23.97101812334038
 30
0.0
 10
3.110919887138376
 20
-24.08400007129114
 30
0.0
 10
1.5845508984815
 20
-24.23613579932941
 30
0.0
 10
0.810706031822222
 20
-24.27509069312502
 30
0.0
 10
-0.7308723943497387
 20
-24.27768828678744
 30
0.0
 10
-1.500603150182486
 20
-24.24180657942827
 30
0.0
 10
-3.037892741865702
 20
-24.0937499749752
 30
0.0
 10
-3.79840123098635
 20
-23.98210820794915
 30
0.0
 10
-6.042359381801453
 20
-23.5428227234212
 30
0.0
 10
-7.494574205210538
 20
-23.10970409300303
 30
0.0
 10
-9.607582711341317
 20
-22.2506664387862
 30
0.0
 10
-10.30102557639697
 20
-21.92940264453255
 30
0.0
 10
-11.32393775452103
 20
-21.39220619542705
 30
0.0
 10
-11.66205669018899
 20
-21.20381126754883
 30
0.0
 10
-12.324325197976
 20
-20.81313484700706
 30
0.0
 10
-13.9503711602654
 20
-19.79906615873348
 30
0.0
 10
-15.43214606186895
 20
-18.60297365913427
 30
0.0
 10
-17.07026792826155
 20
-16.9910174441291
 30
0.0
 10
-17.59569466784194
 20
-16.4208099391068
 30
0.0
 10
-18.5794004956612
 20
-15.23966849650443
 30
0.0
 10
-19.03857532899632
 20
-14.62858390518094
 30
0.0
 10
-20.3217859530784
 20
-12.73612400410688
 30
0.0
 10
-21.05147719770478
 20
-11.39552331384416
 30
0.0
 10
-21.94946090612247
 20
-9.261234800498157
 30
0.0
 10
-22.21200400270502
 20
-8.537628470640437
 30
0.0
 10
-22.66187879478316
 20
-7.077136423923759
 30
0.0
 10
-22.84991151333833
 20
-6.338581603495815
 30
0.0
 10
-23.15278773892563
 20
-4.844993988906199
 30
0.0
 10
-23.267929172411
 20
-4.09002827053578
 30
0.0
 10
-23.42285919770446
 20
-2.563131735796444
 30
0.0
 10
-23.4622954930921
 20
-1.78805182713479
 30
0.0
 10
-23.46563457855444
 20
0.5137234328249036
 30
0.0
 10
-23.31694103303743
 20
2.030649750349282
 30
0.0
 10
-22.87061444823781
 20
4.28001396537814
 30
0.0
 10
-22.6839663605288
 20
5.027757199859103
 30
0.0
 10
-22.23532029320993
 20
6.504058877777276
 30
0.0
 10
-21.97585235434731
 20
7.225127030588026
 30
0.0
 10
-21.09729398266447
 20
9.339649928460718
 30
0.0
 10
-20.37781410134685
 20
10.6843089396497
 30
0.0
 10
-19.30781057200501
 20
12.28218403158057
 30
0.0
 10
-19.08464822605024
 20
12.59845251442942
 30
0.0
 10
-18.62500518808551
 20
13.21672503312727
 30
0.0
 10
-18.3883925525821
 20
13.51902916626524
 30
0.0
 10
-17.65847767854024
 20
14.40574335884742
 30
0.0
 10
-17.14509029514103
 20
14.96994698475021
 30
0.0
 10
-16.06656158986868
 20
16.04628777024302
 30
0.0
 10
-15.50132804669865
 20
16.55833215163694
 30
0.0
 10
-14.61359097546889
 20
17.28627110207136
 30
0.0
 10
-14.31102774399295
 20
17.52222638167726
 30
0.0
 10
-13.69240284829965
 20
17.98055699481476
 30
0.0
 10
-13.37572823781223
 20
18.20328862017547
 30
0.0
 10
-11.77537416858643
 20
19.27138638986596
 30
0.0
 10
-10.42973814965705
 20
19.98931607129945
 30
0.0
 10
-8.315932953488725
 20
20.86698317752807
 30
0.0
 10
-7.595431257453609
 20
21.12631738047926
 30
0.0
 10
-6.489768398970436
 20
21.46327089472541
 30
0.0
 10
-6.116917082534393
 20
21.56688255539533
 30
0.0
 10
-5.370422195180815
 20
21.75466459367491
 30
0.0
 10
-4.995846849851111
 20
21.83913902469478
 30
0.0
 10
-3.116482651107008
 20
22.21550637775642
 30
0.0
 10
-1.591420012760513
 20
22.36934638814116
 30
0.0
 10
-0.0467079044402058
 20
22.37241495742685
 30
0.0
  0
SPLINE
  5
C7
330
1F
100
AcDbEntity
  8
0
  6
Continuous
 62
     7
370
    25
100
AcDbSpline
210
0.0
220
0.0
230
1.0
 70
     8
 71
     3
 72
    11
 73
     7
 74
     0
 42
0.000000001
 43
0.00000001
 40
0.0
 40
0.0
 40
0.0
 40
0.0
 40
0.0070347391514871
 40
0.0070347391514871
 40
0.0070347391514871
 40
0.014009045709745
 40
0.014009045709745
 40
0.014009045709745
 40
0.014009045709745
 10
17.91167937509809
 20
14.78424982827193
 30
0.0
 10
17.83190800061251
 20
14.81246656036794
 30
0.0
 10
17.75214706140849
 20
14.8401519541203
 30
0.0
 10
17.67239640614423
 20
14.86731475470537
 30
0.0
 10
17.59333085636429
 20
14.89424421070425
 30
0.0
 10
17.5142754107468
 20
14.92066001299198
 30
0.0
 10
17.43522989744282
 20
14.94657039830313
 30
0.0
  0
SPLINE
  5
C8
330
1F
100
AcDbEntity
  8
0
  6
Continuous
 62
     7
370
    25
100
AcDbSpline
210
0.0
220
0.0
230
1.0
 70
     8
 71
     3
 72
    11
 73
     7
 74
     0
 42
0.000000001
 43
0.00000001
 40
0.0
 40
0.0
 40
0.0
 40
0.0
 40
0.0069743033232339
 40
0.0069743033232339
 40
0.0069743033232339
 40
0.0140090437086866
 40
0.0140090437086866
 40
0.0140090437086866
 40
0.0140090437086866
 10
-17.43537709854171
 20
14.94660082693948
 30
0.0
 10
-17.51442524505022
 20
14.92071056878638
 30
0.0
 10
-17.59348143782471
 20
14.89431778812929
 30
0.0
 10
-17.67254590292796
 20
14.86741338940703
 30
0.0
 10
-17.75229551509339
 20
14.84027584587414
 30
0.0
 10
-17.83205354749933
 20
14.81261777965496
 30
0.0
 10
-17.91182021381604
 20
14.78442951798874
 30
0.0
  0
SPLINE
  5
C9
330
1F
100
AcDbEntity
  8
0
  6
Continuous
 62
     7
370
    25
100
AcDbSpline
210
0.0
220
0.0
230
1.0
 70
     8
 71
     3
 72
    34
 73
    30
 74
     0
 42
0.000000001
 43
0.00000001
 40
0.3683691985876877
 40
0.3683691985876877
 40
0.3683691985876877
 40
0.3683691985876877
 40
0.3758201469746107
 40
0.3758201469746107
 40
0.4070701469746107
 40
0.4070701469746107
 40
0.4226951469746107
 40
0.4226951469746107
 40
0.4383201469746107
 40
0.4383201469746107
 40
0.4539451469746107
 40
0.4539451469746107
 40
0.4695701469746107
 40
0.4695701469746107
 40
0.5008201469746107
 40
0.5008201469746107
 40
0.5164451469746107
 40
0.5164451469746107
 40
0.5320701469746107
 40
0.5320701469746107
 40
0.5633201469746107
 40
0.5633201469746107
 40
0.5789451469746107
 40
0.5789451469746107
 40
0.5945701469746107
 40
0.5945701469746107
 40
0.6258201469746107
 40
0.6258201469746107
 40
0.632450948386923
 40
0.632450948386923
 40
0.632450948386923
 40
0.632450948386923
 10
17.43522989675706
 20
14.94657039767091
 30
0.0
 10
17.18585363830275
 20
15.21706052651123
 30
0.0
 10
16.93060275446463
 20
15.481233747997
 30
0.0
 10
15.57432355712781
 20
16.82130927469013
 30
0.0
 10
14.38041828484737
 20
17.79205400115258
 30
0.0
 10
12.43253863557957
 20
19.0793319919626
 30
0.0
 10
11.76269132758111
 20
19.47583014225857
 30
0.0
 10
10.39776392553984
 20
20.19651368184359
 30
0.0
 10
9.700937283039739
 20
20.52197106433772
 30
0.0
 10
8.277248048755165
 20
21.10460369333786
 30
0.0
 10
7.550757122082496
 20
21.36157074643099
 30
0.0
 10
6.069420697579389
 20
21.8052475556137
 30
0.0
 10
5.308789522511777
 20
21.99302042123956
 30
0.0
 10
3.026160756509231
 20
22.438628813885
 30
0.0
 10
1.495032503719244
 20
22.58432759016019
 30
0.0
 10
-0.8182000158479357
 20
22.57973529176485
 30
0.0
 10
-1.590673209317547
 20
22.5407781403181
 30
0.0
 10
-3.141761445536662
 20
22.38538486761331
 30
0.0
 10
-3.908878799719298
 20
22.26996372017422
 30
0.0
 10
-6.178257647273621
 20
21.81504943632623
 30
0.0
 10
-7.649864636797084
 20
21.36810967021224
 30
0.0
 10
-9.795927386775926
 20
20.47938552614042
 30
0.0
 10
-10.50448103525689
 20
20.14428302254738
 30
0.0
 10
-11.86965214960832
 20
19.41454061207255
 30
0.0
 10
-12.5310374678079
 20
19.01810972853559
 30
0.0
 10
-14.45067869421672
 20
17.73701036632327
 30
0.0
 10
-15.6465659205607
 20
16.76005846664375
 30
0.0
 10
-16.9841570996164
 20
15.42570624513871
 30
0.0
 10
-17.21258619113276
 20
15.18814942670504
 30
0.0
 10
-17.43537709882772
 20
14.94660082720327
 30
0.0
  0
LWPOLYLINE
  5
CA
330
1F
100
AcDbEntity
  8
0
  6
Continuous
 62
     7
370
    25
100
AcDbPolyline
 90
       36
 70
   128
 43
0.0
 10
0.0
 20
82.4766385788
 10
1.9641258428
 20
82.4920454938
 10
3.8651230649
 20
82.5377710481
 10
5.6418920515
 20
82.6123455846
 10
7.2373259853
 20
82.7133722164
 10
8.6001463071
 20
82.8376038645
 10
9.6865508504
 20
82.9810476213
 10
10.4616216792
 20
83.1390930867
 10
10.9004473794
 20
83.3066605492
 10
10.988923732
 20
83.4783642527
 10
10.724207034
 20
83.648685499
 10
10.1148054981
 20
83.8121500231
 10
9.1803057909
 20
83.9635039406
 10
7.9507435021
 20
84.097882612
 10
6.4656377752
 20
84.2109669964
 10
4.7727211303
 20
84.2991224686
 10
2.9264053012
 20
84.3595156392
 10
0.9860323979
 20
84.3902054219
 10
-0.9860323979
 20
84.3902054219
 10
-2.9264053012
 20
84.3595156392
 10
-4.7727211303
 20
84.2991224686
 10
-6.4656377752
 20
84.2109669964
 10
-7.9507435021
 20
84.097882612
 10
-9.1803057909
 20
83.9635039406
 10
-10.1148054981
 20
83.8121500231
 10
-10.724207034
 20
83.648685499
 10
-10.988923732
 20
83.4783642527
 10
-10.9004473794
 20
83.3066605492
 10
-10.4616216792
 20
83.1390930867
 10
-9.6865508504
 20
82.9810476213
 10
-8.6001463071
 20
82.8376038645
 10
-7.2373259853
 20
82.7133722164
 10
-5.6418920515
 20
82.6123455846
 10
-3.8651230649
 20
82.5377710481
 10
-1.9641258428
 20
82.4920454938
 10
0.0
 20
82.4766385788
  0
LWPOLYLINE
  5
CB
330
1F
100
AcDbEntity
  8
0
  6
Continuous
 62
     7
370
    25
100
AcDbPolyline
 90
       43
 70
   128
 43
0.0
 10
0.0
 20
82.040859865
 10
2.3846762588
 20
82.0564351872
 10
4.7160827906
 20
82.1028132268
 10
6.9421398259
 20
82.178957975
 10
9.013120929
 20
82.283168484
 10
10.8827638043
 20
82.4131168632
 10
12.5093037195
 20
82.5659002806
 10
13.8564064606
 20
82.738105807
 10
14.8939799783
 20
82.9258866556
 10
15.5988465949
 20
83.1250481126
 10
15.9552607549
 20
83.33114124
 10
15.9552607549
 20
83.539562258
 10
15.5988465949
 20
83.7456553854
 10
14.8939799783
 20
83.9448168424
 10
13.8564064606
 20
84.132597691
 10
12.5093037195
 20
84.3048032174
 10
10.8827638043
 20
84.4575866348
 10
9.013120929
 20
84.587535014
 10
6.9421398259
 20
84.691745523
 10
4.7160827906
 20
84.7678902712
 10
2.3846762588
 20
84.8142683108
 10
0.0
 20
84.829843633
 10
-2.3846762588
 20
84.8142683108
 10
-4.7160827906
 20
84.7678902712
 10
-6.9421398259
 20
84.691745523
 10
-9.013120929
 20
84.587535014
 10
-10.8827638043
 20
84.4575866348
 10
-12.5093037195
 20
84.3048032174
 10
-13.8564064606
 20
84.132597691
 10
-14.8939799783
 20
83.9448168424
 10
-15.5988465949
 20
83.7456553854
 10
-15.9552607549
 20
83.539562258
 10
-15.9552607549
 20
83.33114124
 10
-15.5988465949
 20
83.1250481126
 10
-14.8939799783
 20
82.9258866556
 10
-13.8564064606
 20
82.738105807
 10
-12.5093037195
 20
82.5659002806
 10
-10.8827638043
 20
82.4131168632
 10
-9.013120929
 20
82.283168484
 10
-6.9421398259
 20
82.178957975
 10
-4.7160827906
 20
82.1028132268
 10
-2.3846762588
 20
82.0564351872
 10
0.0
 20
82.040859865
  0
LWPOLYLINE
  5
CC
330
1F
100
AcDbEntity
  8
0
  6
Continuous
 62
     7
370
    25
100
AcDbPolyline
 90
       23
 70
   128
 43
0.0
 10
16.0
 20
87.4201305414
 10
15.9552607549
 20
87.5243410504
 10
15.5988465949
 20
87.7304341778
 10
14.8939799783
 20
87.9295956347
 10
13.8564064606
 20
88.1173764833
 10
12.5093037195
 20
88.2895820098
 10
10.8827638043
 20
88.4423654272
 10
9.013120929
 20
88.5723138064
 10
6.9421398259
 20
88.6765243154
 10
4.7160827906
 20
88.7526690636
 10
2.3846762588
 20
88.7990471031
 10
0.0
 20
88.8146224253
 10
-2.3846762588
 20
88.7990471031
 10
-4.7160827906
 20
88.7526690636
 10
-6.9421398259
 20
88.6765243154
 10
-9.013120929
 20
88.5723138064
 10
-10.8827638043
 20
88.4423654272
 10
-12.5093037195
 20
88.2895820098
 10
-13.8564064606
 20
88.1173764833
 10
-14.8939799783
 20
87.9295956347
 10
-15.5988465949
 20
87.7304341778
 10
-15.9552607549
 20
87.5243410504
 10
-16.0
 20
87.4201305414
  0
LINE
  5
CD
330
1F
100
AcDbEntity
  8
0
  6
Continuous
 62
     7
370
    25
100
AcDbLine
 10
-16.0
 20
87.4201305414
 30
0.0
 11
-16.0
 21
83.435351749
 31
0.0
  0
LINE
  5
CE
330
1F
100
AcDbEntity
  8
0
  6
Continuous
 62
     7
370
    25
100
AcDbLine
 10
16.0
 20
83.435351749
 30
0.0
 11
16.0
 21
87.4201305414
 31
0.0
  0
LINE
  5
CF
330
1F
100
AcDbEntity
  8
0
  6
Continuous
 62
     7
370
    25
100
AcDbLine
 10
371.0
 20
-225.0
 30
0.0
 11
370.0
 21
-220.0
 31
0.0
  0
LINE
  5
D0
330
1F
100
AcDbEntity
  8
0
  6
Continuous
 62
     7
370
    25
100
AcDbLine
 10
370.0
 20
-220.0
 30
0.0
 11
375.0
 21
-221.0
 31
0.0
  0
LINE
  5
D1
330
1F
100
AcDbEntity
  8
0
  6
Continuous
 62
     7
370
    25
100
AcDbLine
 10
-337.1946176122
 20
89.6006823796
 30
0.0
 11
-337.1946176122
 21
94.5816558701
 31
0.0
  0
LINE
  5
D2
330
1F
100
AcDbEntity
  8
0
  6
Continuous
 62
     7
370
    25
100
AcDbLine
 10
-352.1954981559
 20
79.7522420118
 30
0.0
 11
-347.2714593908
 21
79.7522420118
 31
0.0
  0
LINE
  5
D3
330
1F
100
AcDbEntity
  8
0
  6
Continuous
 62
     7
370
    25
100
AcDbLine
 10
370.0
 20
-220.0
 30
0.0
 11
370.0
 21
220.0
 31
0.0
  0
LINE
  5
D4
330
1F
100
AcDbEntity
  8
0
  6
Continuous
 62
     7
370
    25
100
AcDbLine
 10
375.0
 20
221.0
 30
0.0
 11
370.0
 21
220.0
 31
0.0
  0
LINE
  5
D5
330
1F
100
AcDbEntity
  8
0
  6
Continuous
 62
     7
370
    25
100
AcDbLine
 10
375.0
 20
221.0
 30
0.0
 11
375.0
 21
-221.0
 31
0.0
  0
LINE
  5
D6
330
1F
100
AcDbEntity
  8
0
  6
Continuous
 62
     7
370
    25
100
AcDbLine
 10
-375.0
 20
-221.0
 30
0.0
 11
-370.0
 21
-220.0
 31
0.0
  0
LINE
  5
D7
330
1F
100
AcDbEntity
  8
0
  6
Continuous
 62
     7
370
    25
100
AcDbLine
 10
-375.0
 20
-221.0
 30
0.0
 11
-375.0
 21
221.0
 31
0.0
  0
LINE
  5
D8
330
1F
100
AcDbEntity
  8
0
  6
Continuous
 62
     7
370
    25
100
AcDbLine
 10
-370.0
 20
220.0
 30
0.0
 11
-375.0
 21
221.0
 31
0.0
  0
LINE
  5
D9
330
1F
100
AcDbEntity
  8
0
  6
Continuous
 62
     7
370
    25
100
AcDbLine
 10
-370.0
 20
220.0
 30
0.0
 11
-370.0
 21
-220.0
 31
0.0
  0
LINE
  5
DA
330
1F
100
AcDbEntity
  8
0
  6
Continuous
 62
     7
370
    25
100
AcDbLine
 10
-371.0
 20
225.0
 30
0.0
 11
-370.0
 21
220.0
 31
0.0
  0
LINE
  5
DB
330
1F
100
AcDbEntity
  8
0
  6
Continuous
 62
     7
370
    25
100
AcDbLine
 10
-371.0
 20
225.0
 30
0.0
 11
371.0
 21
225.0
 31
0.0
  0
LINE
  5
DC
330
1F
100
AcDbEntity
  8
0
  6
Continuous
 62
     7
370
    25
100
AcDbLine
 10
370.0
 20
220.0
 30
0.0
 11
371.0
 21
225.0
 31
0.0
  0
LINE
  5
DD
330
1F
100
AcDbEntity
  8
0
  6
Continuous
 62
     7
370
    25
100
AcDbLine
 10
370.0
 20
220.0
 30
0.0
 11
-370.0
 21
220.0
 31
0.0
  0
LINE
  5
DE
330
1F
100
AcDbEntity
  8
0
  6
Continuous
 62
     7
370
    25
100
AcDbLine
 10
337.1946176122
 20
-202.5816558701
 30
0.0
 11
337.1946176122
 21
-197.6006823796
 31
0.0
  0
LINE
  5
DF
330
1F
100
AcDbEntity
  8
0
  6
Continuous
 62
     7
370
    25
100
AcDbLine
 10
347.2714593908
 20
-187.7522420118
 30
0.0
 11
352.1954981559
 21
-187.7522420118
 31
0.0
  0
LINE
  5
E0
330
1F
100
AcDbEntity
  8
0
  6
Continuous
 62
     7
370
    25
100
AcDbLine
 10
337.1946176122
 20
-202.5816558701
 30
0.0
 11
-337.1946176122
 21
-202.5816558701
 31
0.0
  0
LINE
  5
E1
330
1F
100
AcDbEntity
  8
0
  6
Continuous
 62
     7
370
    25
100
AcDbLine
 10
-337.1946176122
 20
-202.5816558701
 30
0.0
 11
-337.1946176122
 21
-197.6006823796
 31
0.0
  0
LINE
  5
E2
330
1F
100
AcDbEntity
  8
0
  6
Continuous
 62
     7
370
    25
100
AcDbLine
 10
-337.1946176122
 20
-197.6006823796
 30
0.0
 11
337.1946176122
 21
-197.6006823796
 31
0.0
  0
LINE
  5
E3
330
1F
100
AcDbEntity
  8
0
  6
Continuous
 62
     7
370
    25
100
AcDbLine
 10
347.2714593908
 20
-187.7522420118
 30
0.0
 11
347.2714593908
 21
79.7522420118
 31
0.0
  0
LINE
  5
E4
330
1F
100
AcDbEntity
  8
0
  6
Continuous
 62
     7
370
    25
100
AcDbLine
 10
347.2714593908
 20
79.7522420118
 30
0.0
 11
352.1954981559
 21
79.7522420118
 31
0.0
  0
LINE
  5
E5
330
1F
100
AcDbEntity
  8
0
  6
Continuous
 62
     7
370
    25
100
AcDbLine
 10
352.1954981559
 20
79.7522420118
 30
0.0
 11
352.1954981559
 21
-187.7522420118
 31
0.0
  0
LINE
  5
E6
330
1F
100
AcDbEntity
  8
0
  6
Continuous
 62
     7
370
    25
100
AcDbLine
 10
-352.1954981559
 20
-187.7522420118
 30
0.0
 11
-347.2714593908
 21
-187.7522420118
 31
0.0
  0
LINE
  5
E7
330
1F
100
AcDbEntity
  8
0
  6
Continuous
 62
     7
370
    25
100
AcDbLine
 10
337.1946176122
 20
89.6006823796
 30
0.0
 11
337.1946176122
 21
94.5816558701
 31
0.0
  0
LINE
  5
E8
330
1F
100
AcDbEntity
  8
0
  6
Continuous
 62
     7
370
    25
100
AcDbLine
 10
-337.1946176122
 20
94.5816558701
 30
0.0
 11
337.1946176122
 21
94.5816558701
 31
0.0
  0
LINE
  5
E9
330
1F
100
AcDbEntity
  8
0
  6
Continuous
 62
     7
370
    25
100
AcDbLine
 10
-352.1954981559
 20
-187.7522420118
 30
0.0
 11
-352.1954981559
 21
79.7522420118
 31
0.0
  0
LINE
  5
EA
330
1F
100
AcDbEntity
  8
0
  6
Continuous
 62
     7
370
    25
100
AcDbLine
 10
-370.0
 20
-220.0
 30
0.0
 11
370.0
 21
-220.0
 31
0.0
  0
LINE
  5
EB
330
1F
100
AcDbEntity
  8
0
  6
Continuous
 62
     7
370
    25
100
AcDbLine
 10
337.1946176122
 20
89.6006823796
 30
0.0
 11
-337.1946176122
 21
89.6006823796
 31
0.0
  0
LINE
  5
EC
330
1F
100
AcDbEntity
  8
0
  6
Continuous
 62
     7
370
    25
100
AcDbLine
 10
371.0
 20
-225.0
 30
0.0
 11
-371.0
 21
-225.0
 31
0.0
  0
LINE
  5
ED
330
1F
100
AcDbEntity
  8
0
  6
Continuous
 62
     7
370
    25
100
AcDbLine
 10
-370.0
 20
-220.0
 30
0.0
 11
-371.0
 21
-225.0
 31
0.0
  0
LINE
  5
EE
330
1F
100
AcDbEntity
  8
0
  6
Continuous
 62
     7
370
    25
100
AcDbLine
 10
-347.2714593908
 20
79.7522420118
 30
0.0
 11
-347.2714593908
 21
-187.7522420118
 31
0.0
  0
LINE
  5
EF
330
1F
100
AcDbEntity
  8
0
  6
Continuous
 62
     7
370
    25
100
AcDbLine
 10
-320.2071985421
 20
-189.1719859588
 30
0.0
 11
-337.1946176122
 21
-197.6006823796
 31
0.0
  0
LINE
  5
F0
330
1F
100
AcDbEntity
  8
0
  6
Continuous
 62
     7
370
    25
100
AcDbLine
 10
-347.2714593908
 20
-187.7522420118
 30
0.0
 11
-330.0552760722
 21
-179.2100389779
 31
0.0
  0
LINE
  5
F1
330
1F
100
AcDbEntity
  8
0
  6
Continuous
 62
     7
370
    25
100
AcDbLine
 10
330.0552760722
 20
-179.2100389779
 30
0.0
 11
347.2714593908
 21
-187.7522420118
 31
0.0
  0
LINE
  5
F2
330
1F
100
AcDbEntity
  8
0
  6
Continuous
 62
     7
370
    25
100
AcDbLine
 10
337.1946176122
 20
-197.6006823796
 30
0.0
 11
320.2071985421
 21
-189.1719859588
 31
0.0
  0
LINE
  5
F3
330
1F
100
AcDbEntity
  8
0
  6
Continuous
 62
     7
370
    25
100
AcDbLine
 10
-330.0552760722
 20
71.2100389779
 30
0.0
 11
-347.2714593908
 21
79.7522420118
 31
0.0
  0
LINE
  5
F4
330
1F
100
AcDbEntity
  8
0
  6
Continuous
 62
     7
370
    25
100
AcDbLine
 10
-337.1946176122
 20
89.6006823796
 30
0.0
 11
-320.2071985421
 21
81.1719859588
 31
0.0
  0
LINE
  5
F5
330
1F
100
AcDbEntity
  8
0
  6
Continuous
 62
     7
370
    25
100
AcDbLine
 10
320.2071985421
 20
81.1719859588
 30
0.0
 11
337.1946176122
 21
89.6006823796
 31
0.0
  0
LINE
  5
F6
330
1F
100
AcDbEntity
  8
0
  6
Continuous
 62
     7
370
    25
100
AcDbLine
 10
347.2714593908
 20
79.7522420118
 30
0.0
 11
330.0552760722
 21
71.2100389779
 31
0.0
  0
LINE
  5
F7
330
1F
100
AcDbEntity
  8
0
  6
Continuous
 62
     7
370
    25
100
AcDbLine
 10
320.2461356173
 20
-179.2448730823
 30
0.0
 11
330.0552760722
 21
-179.2100389779
 31
0.0
  0
LINE
  5
F8
330
1F
100
AcDbEntity
  8
0
  6
Continuous
 62
     7
370
    25
100
AcDbLine
 10
-320.2461356173
 20
71.2448730823
 30
0.0
 11
-330.0552760722
 21
71.2100389779
 31
0.0
  0
LINE
  5
F9
330
1F
100
AcDbEntity
  8
0
  6
Continuous
 62
     7
370
    25
100
AcDbLine
 10
-330.0552760722
 20
-179.2100389779
 30
0.0
 11
-320.2461356173
 21
-179.2448730823
 31
0.0
  0
LINE
  5
FA
330
1F
100
AcDbEntity
  8
0
  6
Continuous
 62
     7
370
    25
100
AcDbLine
 10
330.0552760722
 20
71.2100389779
 30
0.0
 11
320.2461356173
 21
71.2448730823
 31
0.0
  0
ARC
  5
FB
330
1F
100
AcDbEntity
  8
0
  6
Continuous
 62
     7
370
    25
100
AcDbCircle
 10
371.0
 20
-221.0
 30
0.0
 40
4.0
100
AcDbArc
 50
270.0
 51
0.0
  0
ARC
  5
FC
330
1F
100
AcDbEntity
  8
0
  6
Continuous
 62
     7
370
    25
100
AcDbCircle
 10
-337.3144515616
 20
79.7010035678
 30
0.0
 40
14.88113480613392
100
AcDbArc
 50
89.5386068438
 51
179.8027198578
  0
ARC
  5
FD
330
1F
100
AcDbEntity
  8
0
  6
Continuous
 62
     7
370
    25
100
AcDbCircle
 10
-337.4293003027
 20
79.7613174654
 30
0.0
 40
9.842163272379725
100
AcDbArc
 50
88.6336741391
 51
180.0528324162
  0
ARC
  5
FE
330
1F
100
AcDbEntity
  8
0
  6
Continuous
 62
     7
370
    25
100
AcDbCircle
 10
337.3144515616
 20
-187.7010035678
 30
0.0
 40
14.88113480613391
100
AcDbArc
 50
269.5386068438
 51
359.8027198578
  0
ARC
  5
FF
330
1F
100
AcDbEntity
  8
0
  6
Continuous
 62
     7
370
    25
100
AcDbCircle
 10
337.4293003027
 20
-187.7613174654
 30
0.0
 40
9.842163272379668
100
AcDbArc
 50
268.6336741391
 51
0.0528324162
  0
ARC
  5
100
330
1F
100
AcDbEntity
  8
0
  6
Continuous
 62
     7
370
    25
100
AcDbCircle
 10
-337.3144515616
 20
-187.7010035678
 30
0.0
 40
14.88113480613386
100
AcDbArc
 50
180.1972801422
 51
270.4613931562
  0
ARC
  5
101
330
1F
100
AcDbEntity
  8
0
  6
Continuous
 62
     7
370
    25
100
AcDbCircle
 10
-337.4293003027
 20
-187.7613174654
 30
0.0
 40
9.842163272379732
100
AcDbArc
 50
179.9471675838
 51
271.3663258609
  0
ARC
  5
102
330
1F
100
AcDbEntity
  8
0
  6
Continuous
 62
     7
370
    25
100
AcDbCircle
 10
337.4293003027
 20
79.7613174654
 30
0.0
 40
9.842163272379718
100
AcDbArc
 50
359.9471675838
 51
91.3663258609
  0
ARC
  5
103
330
1F
100
AcDbEntity
  8
0
  6
Continuous
 62
     7
370
    25
100
AcDbCircle
 10
337.3144515616
 20
79.7010035678
 30
0.0
 40
14.88113480613386
100
AcDbArc
 50
0.1972801422
 51
90.4613931562
  0
ARC
  5
104
330
1F
100
AcDbEntity
  8
0
  6
Continuous
 62
     7
370
    25
100
AcDbCircle
 10
371.0
 20
221.0
 30
0.0
 40
4.0
100
AcDbArc
 50
0.0
 51
90.0
  0
ARC
  5
105
330
1F
100
AcDbEntity
  8
0
  6
Continuous
 62
     7
370
    25
100
AcDbCircle
 10
-371.0
 20
221.0
 30
0.0
 40
4.0
100
AcDbArc
 50
90.0
 51
180.0
  0
ARC
  5
106
330
1F
100
AcDbEntity
  8
0
  6
Continuous
 62
     7
370
    25
100
AcDbCircle
 10
-371.0
 20
-221.0
 30
0.0
 40
4.0
100
AcDbArc
 50
180.0
 51
270.0
  0
ARC
  5
107
330
1F
100
AcDbEntity
  8
0
  6
Continuous
 62
     7
370
    25
100
AcDbCircle
 10
-319.9712913949
 20
-179.0900470152
 30
0.0
 40
10.08469855990727
100
AcDbArc
 50
180.6817452425
 51
268.6595814591
  0
ARC
  5
108
330
1F
100
AcDbEntity
  8
0
  6
Continuous
 62
     7
370
    25
100
AcDbCircle
 10
319.9712913949
 20
-179.0900470152
 30
0.0
 40
10.08469855990727
100
AcDbArc
 50
271.3404185409
 51
359.3182547575
  0
ARC
  5
109
330
1F
100
AcDbEntity
  8
0
  6
Continuous
 62
     7
370
    25
100
AcDbCircle
 10
-319.9712913949
 20
71.0900470152
 30
0.0
 40
10.08469855990739
100
AcDbArc
 50
91.3404185409
 51
179.3182547575
  0
ARC
  5
10A
330
1F
100
AcDbEntity
  8
0
  6
Continuous
 62
     7
370
    25
100
AcDbCircle
 10
319.9712913949
 20
71.0900470152
 30
0.0
 40
10.08469855990733
100
AcDbArc
 50
0.6817452425
 51
88.6595814591
  0
ARC
  5
10B
330
1F
100
AcDbEntity
  8
0
  6
Continuous
 62
     7
370
    25
100
AcDbCircle
 10
453.0944367141
 20
-181.1752352408
 30
0.0
 40
773.3429815495771
100
AcDbArc
 50
179.8569823195
 51
180.5924773904
  0
ARC
  5
10C
330
1F
100
AcDbEntity
  8
0
  6
Continuous
 62
     7
370
    25
100
AcDbCircle
 10
-453.0944367134
 20
-181.1752352408
 30
0.0
 40
773.3429815489003
100
AcDbArc
 50
359.4075226096
 51
0.1430176805
  0
ARC
  5
10D
330
1F
100
AcDbEntity
  8
0
  6
Continuous
 62
     7
370
    25
100
AcDbCircle
 10
453.0944367155
 20
73.1752352408
 30
0.0
 40
773.3429815509716
100
AcDbArc
 50
179.4075226096
 51
180.1430176805
  0
ARC
  5
10E
330
1F
100
AcDbEntity
  8
0
  6
Continuous
 62
     7
370
    25
100
AcDbCircle
 10
-453.0944367138
 20
73.1752352408
 30
0.0
 40
773.3429815492394
100
AcDbArc
 50
359.8569823195
 51
0.5924773904
  0
LWPOLYLINE
  5
114
330
1B
100
AcDbEntity
 67
     1
  8
0
  6
Continuous
 62
     7
370
    25
100
AcDbPolyline
 90
       10
 70
   128
 43
0.0
 10
371.0
 20
125.0
 10
370.984807753
 20
125.8682408883
 10
370.9396926208
 20
126.7101007166
 10
370.8660254038
 20
127.5
 10
370.7660444431
 20
128.2139380484
 10
370.6427876097
 20
128.8302222156
 10
370.5
 20
129.3301270189
 10
370.3420201433
 20
129.6984631039
 10
370.1736481777
 20
129.9240387651
 10
370.0
 20
130.0
  0
LWPOLYLINE
  5
11B
330
1B
100
AcDbEntity
 67
     1
  8
0
  6
Continuous
 62
     7
370
    25
100
AcDbPolyline
 90
        9
 70
   128
 43
0.0
 10
-370.0
 20
130.0
 10
-370.195090322
 20
129.903926402
 10
-370.3826834324
 20
129.6193976626
 10
-370.555570233
 20
129.1573480615
 10
-370.7071067812
 20
128.5355339059
 10
-370.8314696123
 20
127.7778511651
 10
-370.9238795325
 20
126.9134171618
 10
-370.9807852804
 20
125.9754516101
 10
-371.0
 20
125.0
  0
LINE
  5
12B
330
1B
100
AcDbEntity
 67
     1
  8
0
  6
Continuous
 62
     7
370
    25
100
AcDbLine
 10
-38.1984153898
 20
0.0
 30
0.0
 11
-37.6011061566
 21
-17.1046984901
 31
0.0
  0
LINE
  5
12C
330
1B
100
AcDbEntity
 67
     1
  8
0
  6
Continuous
 62
     7
370
    25
100
AcDbLine
 10
37.6011061566
 20
-17.1046984901
 30
0.0
 11
38.1984153898
 21
0.0
 31
0.0
  0
LINE
  5
12D
330
1B
100
AcDbEntity
 67
     1
  8
0
  6
Continuous
 62
     7
370
    25
100
AcDbLine
 10
375.0
 20
125.0
 30
0.0
 11
-375.0
 21
125.0
 31
0.0
  0
LINE
  5
12E
330
1B
100
AcDbEntity
 67
     1
  8
0
  6
Continuous
 62
     7
370
    25
100
AcDbLine
 10
-375.0
 20
3.0
 30
0.0
 11
375.0
 21
3.0
 31
0.0
  0
LINE
  5
12F
330
1B
100
AcDbEntity
 67
     1
  8
0
  6
Continuous
 62
     7
370
    25
100
AcDbLine
 10
371.0
 20
0.0
 30
0.0
 11
371.0
 21
125.0
 31
0.0
  0
LINE
  5
130
330
1B
100
AcDbEntity
 67
     1
  8
0
  6
Continuous
 62
     7
370
    25
100
AcDbLine
 10
372.0
 20
0.0
 30
0.0
 11
-372.0
 21
0.0
 31
0.0
  0
LINE
  5
131
330
1B
100
AcDbEntity
 67
     1
  8
0
  6
Continuous
 62
     7
370
    25
100
AcDbLine
 10
-371.0
 20
125.0
 30
0.0
 11
-371.0
 21
0.0
 31
0.0
  0
LINE
  5
132
330
1B
100
AcDbEntity
 67
     1
  8
0
  6
Continuous
 62
     7
370
    25
100
AcDbLine
 10
-370.0
 20
130.0
 30
0.0
 11
370.0
 21
130.0
 31
0.0
  0
LINE
  5
133
330
1B
100
AcDbEntity
 67
     1
  8
0
  6
Continuous
 62
     7
370
    25
100
AcDbLine
 10
375.0
 20
125.0
 30
0.0
 11
375.0
 21
3.0
 31
0.0
  0
LINE
  5
134
330
1B
100
AcDbEntity
 67
     1
  8
0
  6
Continuous
 62
     7
370
    25
100
AcDbLine
 10
-375.0
 20
3.0
 30
0.0
 11
-375.0
 21
125.0
 31
0.0
  0
LINE
  5
135
330
1B
100
AcDbEntity
 67
     1
  8
0
  6
Continuous
 62
     7
370
    25
100
AcDbLine
 10
34.6029336756
 20
-20.0
 30
0.0
 11
-34.6029336756
 21
-20.0
 31
0.0
  0
LINE
  5
136
330
1B
100
AcDbEntity
 67
     1
  8
0
  6
Continuous
 62
     8
370
    25
100
AcDbLine
 10
-37.6011061566
 20
-17.1046984901
 30
0.0
 11
37.6011061566
 21
-17.1046984901
 31
0.0
  0
ARC
  5
137
330
1B
100
AcDbEntity
 67
     1
  8
0
  6
Continuous
 62
     7
370
    25
100
AcDbCircle
 10
34.6029336756
 20
-17.0
 30
0.0
 40
2.999999999999986
100
AcDbArc
 50
270.0
 51
358.0
  0
ARC
  5
138
330
1B
100
AcDbEntity
 67
     1
  8
0
  6
Continuous
 62
     7
370
    25
100
AcDbCircle
 10
-34.6029336756
 20
-17.0
 30
0.0
 40
2.999999999999989
100
AcDbArc
 50
182.0
 51
270.0
  0
ARC
  5
139
330
1B
100
AcDbEntity
 67
     1
  8
0
  6
Continuous
 62
     7
370
    25
100
AcDbCircle
 10
370.0
 20
125.0
 30
0.0
 40
5.000000000000057
100
AcDbArc
 50
0.0
 51
90.0
  0
ARC
  5
13A
330
1B
100
AcDbEntity
 67
     1
  8
0
  6
Continuous
 62
     7
370
    25
100
AcDbCircle
 10
372.0
 20
3.0
 30
0.0
 40
3.000000000000057
100
AcDbArc
 50
270.0
 51
0.0
  0
ARC
  5
13B
330
1B
100
AcDbEntity
 67
     1
  8
0
  6
Continuous
 62
     7
370
    25
100
AcDbCircle
 10
-372.0
 20
3.0
 30
0.0
 40
3.0
100
AcDbArc
 50
180.0
 51
270.0
  0
ARC
  5
13C
330
1B
100
AcDbEntity
 67
     1
  8
0
  6
Continuous
 62
     7
370
    25
100
AcDbCircle
 10
-370.0
 20
125.0
 30
0.0
 40
5.0
100
AcDbArc
 50
90.0
 51
180.0
  0
VIEWPORT
  5
261
330
1B
100
AcDbEntity
 67
     1
  8
0
100
AcDbViewport
 10
0.0
 20
0.0
 30
0.0
 40
205.6
 41
156.0
 68
     1
 69
     1
 12
0.0
 22
0.0
 13
0.0
 23
0.0
 14
10.0
 24
10.0
 15
10.0
 25
10.0
 16
0.0
 26
0.0
 36
1.0
 17
0.0
 27
0.0
 37
0.0
 42
50.0
 43
0.0
 44
0.0
 45
580.4474708171
 50
0.0
 51
0.0
 72
   100
 90
   557152
  1

281
     0
 71
     1
 74
     0
110
0.0
120
0.0
130
0.0
111
1.0
121
0.0
131
0.0
112
0.0
122
1.0
132
0.0
 79
     0
146
0.0
  0
ENDSEC
  0
SECTION
  2
OBJECTS
  0
DICTIONARY
  5
C
330
0
100
AcDbDictionary
281
     1
  3
ACAD_GROUP
350
D
  3
ACAD_LAYOUT
350
1A
  3
ACAD_MLINESTYLE
350
17
  3
ACAD_PLOTSETTINGS
350
19
  3
ACAD_PLOTSTYLENAME
350
E
  3
ACAD_SCALELIST
350
47
  0
DICTIONARY
  5
D
102
{ACAD_REACTORS
330
C
102
}
330
C
100
AcDbDictionary
281
     1
  0
DICTIONARY
  5
1A
102
{ACAD_REACTORS
330
C
102
}
330
C
100
AcDbDictionary
281
     1
  3
_Back
350
188
  3
_Front
350
1E
  3
_Left
350
26
  3
Model
350
22
  0
DICTIONARY
  5
17
102
{ACAD_REACTORS
330
C
102
}
330
C
100
AcDbDictionary
281
     1
  3
Standard
350
18
  0
DICTIONARY
  5
19
102
{ACAD_REACTORS
330
C
102
}
330
C
100
AcDbDictionary
281
     1
  0
ACDBDICTIONARYWDFLT
  5
E
102
{ACAD_REACTORS
330
C
102
}
330
C
100
AcDbDictionary
281
     1
  3
Normal
350
F
100
AcDbDictionaryWithDefault
340
F
  0
DICTIONARY
  5
47
102
{ACAD_REACTORS
330
C
102
}
330
C
100
AcDbDictionary
281
     1
  3
A0
350
48
  3
A1
350
49
  3
A2
350
4A
  3
A3
350
4B
  3
A4
350
4C
  3
A5
350
4D
  3
A6
350
4E
  3
A7
350
4F
  3
A8
350
50
  3
A9
350
51
  3
B0
350
52
  3
B1
350
53
  3
B2
350
54
  3
B3
350
55
  3
B4
350
56
  3
B5
350
57
  3
B6
350
58
  3
B7
350
59
  3
B8
350
5A
  3
B9
350
5B
  3
C0
350
5C
  3
C1
350
5D
  3
C2
350
5E
  3
C3
350
5F
  3
C4
350
60
  3
C5
350
61
  3
C6
350
62
  3
C7
350
63
  3
C8
350
64
  3
C9
350
65
  3
D0
350
66
  3
D1
350
67
  3
D2
350
68
  0
LAYOUT
  5
188
102
{ACAD_REACTORS
330
1A
102
}
330
1A
100
AcDbPlotSettings
  1

  2
none_device
  4
ISO_A4_(210.00_x_297.00_MM)
  6

 40
7.5
 41
20.0
 42
7.5
 43
20.0
 44
210.0
 45
297.0
 46
0.0
 47
0.0
 48
0.0
 49
0.0
140
0.0
141
0.0
142
1.0
143
2.9182879377
 70
   688
 72
     1
 73
     1
 74
     1
  7

 75
     0
147
0.3426666667
148
375.0
149
20.0
100
AcDbLayout
  1
_Back
 70
     1
 71
     3
 10
0.0
 20
0.0
 11
0.0
 21
0.0
 12
0.0
 22
0.0
 32
0.0
 14
0.0
 24
0.0
 34
0.0
 15
0.0
 25
0.0
 35
0.0
146
0.0
 13
0.0
 23
0.0
 33
0.0
 16
1.0
 26
0.0
 36
0.0
 17
0.0
 27
1.0
 37
0.0
 76
     0
330
187
331
265
  0
LAYOUT
  5
1E
102
{ACAD_REACTORS
330
1A
102
}
330
1A
100
AcDbPlotSettings
  1

  2
none_device
  4
ISO_A4_(210.00_x_297.00_MM)
  6

 40
7.5
 41
20.0
 42
7.5
 43
20.0
 44
210.0
 45
297.0
 46
0.0
 47
0.0
 48
0.0
 49
0.0
140
0.0
141
0.0
142
1.0
143
2.9182879377
 70
   688
 72
     1
 73
     1
 74
     1
  7

 75
     0
147
0.3426666667
148
375.0
149
20.0
100
AcDbLayout
  1
_Front
 70
     1
 71
     1
 10
-433.3657587549
 20
-41.8871595331
 11
433.3657587549
 21
570.953307393
 12
0.0
 22
0.0
 32
0.0
 14
-375.0
 24
-20.0
 34
0.0
 15
375.0
 25
130.0
 35
0.0
146
0.0
 13
0.0
 23
0.0
 33
0.0
 16
1.0
 26
0.0
 36
0.0
 17
0.0
 27
1.0
 37
0.0
 76
     0
330
1B
331
261
  0
LAYOUT
  5
26
102
{ACAD_REACTORS
330
1A
102
}
330
1A
100
AcDbPlotSettings
  1

  2
none_device
  4
ISO_A4_(210.00_x_297.00_MM)
  6

 40
7.5
 41
20.0
 42
7.5
 43
20.0
 44
210.0
 45
297.0
 46
0.0
 47
0.0
 48
0.0
 49
0.0
140
0.0
141
0.0
142
1.0
143
2.9182879377
 70
   688
 72
     1
 73
     1
 74
     1
  7

 75
     0
147
0.3426666667
148
375.0
149
20.0
100
AcDbLayout
  1
_Left
 70
     1
 71
     2
 10
0.0
 20
0.0
 11
0.0
 21
0.0
 12
0.0
 22
0.0
 32
0.0
 14
0.0
 24
0.0
 34
0.0
 15
0.0
 25
0.0
 35
0.0
146
0.0
 13
0.0
 23
0.0
 33
0.0
 16
1.0
 26
0.0
 36
0.0
 17
0.0
 27
1.0
 37
0.0
 76
     0
330
23
331
263
  0
LAYOUT
  5
22
102
{ACAD_REACTORS
330
1A
102
}
330
1A
100
AcDbPlotSettings
  1

  2
none_device
  4
ANSI_A_(11.00_x_8.50_Inches)
  6

 40
6.35
 41
19.05
 42
6.35000508
 43
19.05000254
 44
279.4
 45
215.9
 46
133.34999746
 47
88.89999873
 48
0.0
 49
0.0
140
0.0
141
0.0
142
0.01452
143
1.0
 70
  1696
 72
     0
 73
     0
 74
     0
  7

 75
     0
147
0.0179189148
148
-1300.4909072572
149
0.0
100
AcDbLayout
  1
Model
 70
     1
 71
     0
 10
0.0
 20
0.0
 11
420.0
 21
297.0
 12
0.0
 22
0.0
 32
0.0
 14
-375.0
 24
-225.0
 34
0.0
 15
375.0
 25
225.0
 35
0.0
146
0.0
 13
0.0
 23
0.0
 33
0.0
 16
1.0
 26
0.0
 36
0.0
 17
0.0
 27
1.0
 37
0.0
 76
     0
330
1F
331
29
  0
MLINESTYLE
  5
18
102
{ACAD_REACTORS
330
17
102
}
330
17
100
AcDbMlineStyle
  2
Standard
 70
     0
  3

 62
   256
 51
90.0
 52
90.0
 71
     2
 49
0.5
 62
   256
  6
BYLAYER
 49
-0.5
 62
   256
  6
BYLAYER
  0
ACDBPLACEHOLDER
  5
F
102
{ACAD_REACTORS
330
E
102
}
330
E
  0
SCALE
  5
48
102
{ACAD_REACTORS
330
47
102
}
330
47
100
AcDbScale
 70
     0
300
1:1
140
1.0
141
1.0
290
     1
  0
SCALE
  5
49
102
{ACAD_REACTORS
330
47
102
}
330
47
100
AcDbScale
 70
     0
300
1:2
140
1.0
141
2.0
290
     0
  0
SCALE
  5
4A
102
{ACAD_REACTORS
330
47
102
}
330
47
100
AcDbScale
 70
     0
300
1:4
140
1.0
141
4.0
290
     0
  0
SCALE
  5
4B
102
{ACAD_REACTORS
330
47
102
}
330
47
100
AcDbScale
 70
     0
300
1:5
140
1.0
141
5.0
290
     0
  0
SCALE
  5
4C
102
{ACAD_REACTORS
330
47
102
}
330
47
100
AcDbScale
 70
     0
300
1:8
140
1.0
141
8.0
290
     0
  0
SCALE
  5
4D
102
{ACAD_REACTORS
330
47
102
}
330
47
100
AcDbScale
 70
     0
300
1:10
140
1.0
141
10.0
290
     0
  0
SCALE
  5
4E
102
{ACAD_REACTORS
330
47
102
}
330
47
100
AcDbScale
 70
     0
300
1:16
140
1.0
141
16.0
290
     0
  0
SCALE
  5
4F
102
{ACAD_REACTORS
330
47
102
}
330
47
100
AcDbScale
 70
     0
300
1:20
140
1.0
141
20.0
290
     0
  0
SCALE
  5
50
102
{ACAD_REACTORS
330
47
102
}
330
47
100
AcDbScale
 70
     0
300
1:30
140
1.0
141
30.0
290
     0
  0
SCALE
  5
51
102
{ACAD_REACTORS
330
47
102
}
330
47
100
AcDbScale
 70
     0
300
1:40
140
1.0
141
40.0
290
     0
  0
SCALE
  5
52
102
{ACAD_REACTORS
330
47
102
}
330
47
100
AcDbScale
 70
     0
300
1:50
140
1.0
141
50.0
290
     0
  0
SCALE
  5
53
102
{ACAD_REACTORS
330
47
102
}
330
47
100
AcDbScale
 70
     0
300
1:100
140
1.0
141
100.0
290
     0
  0
SCALE
  5
54
102
{ACAD_REACTORS
330
47
102
}
330
47
100
AcDbScale
 70
     0
300
2:1
140
2.0
141
1.0
290
     0
  0
SCALE
  5
55
102
{ACAD_REACTORS
330
47
102
}
330
47
100
AcDbScale
 70
     0
300
4:1
140
4.0
141
1.0
290
     0
  0
SCALE
  5
56
102
{ACAD_REACTORS
330
47
102
}
330
47
100
AcDbScale
 70
     0
300
8:1
140
8.0
141
1.0
290
     0
  0
SCALE
  5
57
102
{ACAD_REACTORS
330
47
102
}
330
47
100
AcDbScale
 70
     0
300
10:1
140
10.0
141
1.0
290
     0
  0
SCALE
  5
58
102
{ACAD_REACTORS
330
47
102
}
330
47
100
AcDbScale
 70
     0
300
100:1
140
100.0
141
1.0
290
     0
  0
SCALE
  5
59
102
{ACAD_REACTORS
330
47
102
}
330
47
100
AcDbScale
 70
     0
300
1/128" = 1'-0"
140
0.0078125
141
12.0
290
     0
  0
SCALE
  5
5A
102
{ACAD_REACTORS
330
47
102
}
330
47
100
AcDbScale
 70
     0
300
1/64" = 1'-0"
140
0.015625
141
12.0
290
     0
  0
SCALE
  5
5B
102
{ACAD_REACTORS
330
47
102
}
330
47
100
AcDbScale
 70
     0
300
1/32" = 1'-0"
140
0.03125
141
12.0
290
     0
  0
SCALE
  5
5C
102
{ACAD_REACTORS
330
47
102
}
330
47
100
AcDbScale
 70
     0
300
1/16" = 1'-0"
140
0.0625
141
12.0
290
     0
  0
SCALE
  5
5D
102
{ACAD_REACTORS
330
47
102
}
330
47
100
AcDbScale
 70
     0
300
3/32" = 1'-0"
140
0.09375
141
12.0
290
     0
  0
SCALE
  5
5E
102
{ACAD_REACTORS
330
47
102
}
330
47
100
AcDbScale
 70
     0
300
1/8" = 1'-0"
140
0.125
141
12.0
290
     0
  0
SCALE
  5
5F
102
{ACAD_REACTORS
330
47
102
}
330
47
100
AcDbScale
 70
     0
300
3/16" = 1'-0"
140
0.1875
141
12.0
290
     0
  0
SCALE
  5
60
102
{ACAD_REACTORS
330
47
102
}
330
47
100
AcDbScale
 70
     0
300
1/4" = 1'-0"
140
0.25
141
12.0
290
     0
  0
SCALE
  5
61
102
{ACAD_REACTORS
330
47
102
}
330
47
100
AcDbScale
 70
     0
300
3/8" = 1'-0"
140
0.375
141
12.0
290
     0
  0
SCALE
  5
62
102
{ACAD_REACTORS
330
47
102
}
330
47
100
AcDbScale
 70
     0
300
1/2" = 1'-0"
140
0.5
141
12.0
290
     0
  0
SCALE
  5
63
102
{ACAD_REACTORS
330
47
102
}
330
47
100
AcDbScale
 70
     0
300
3/4" = 1'-0"
140
0.75
141
12.0
290
     0
  0
SCALE
  5
64
102
{ACAD_REACTORS
330
47
102
}
330
47
100
AcDbScale
 70
     0
300
1" = 1'-0"
140
1.0
141
12.0
290
     0
  0
SCALE
  5
65
102
{ACAD_REACTORS
330
47
102
}
330
47
100
AcDbScale
 70
     0
300
1-1/2" = 1'-0"
140
1.5
141
12.0
290
     0
  0
SCALE
  5
66
102
{ACAD_REACTORS
330
47
102
}
330
47
100
AcDbScale
 70
     0
300
3" = 1'-0"
140
3.0
141
12.0
290
     0
  0
SCALE
  5
67
102
{ACAD_REACTORS
330
47
102
}
330
47
100
AcDbScale
 70
     0
300
6" = 1'-0"
140
6.0
141
12.0
290
     0
  0
SCALE
  5
68
102
{ACAD_REACTORS
330
47
102
}
330
47
100
AcDbScale
 70
     0
300
1'-0" = 1'-0"
140
12.0
141
12.0
290
     0
  0
ENDSEC
  0
EOF
