  0
SECTION
  2
HEADER
  9
$ACADVER
  1
AC1015
  9
$ACADMAINTVER
 70
     6
  9
$DWGCODEPAGE
  3
ANSI_1252
  9
$INSBASE
 10
0.0
 20
0.0
 30
0.0
  9
$EXTMIN
 10
-850.0
 20
-350.0
 30
0.0
  9
$EXTMAX
 10
850.0
 20
350.0
 30
0.0
  9
$LIMMIN
 10
0.0
 20
0.0
  9
$LIMMAX
 10
420.0
 20
297.0
  9
$ORTHOMODE
 70
     0
  9
$REGENMODE
 70
     1
  9
$FILLMODE
 70
     1
  9
$QTEXTMODE
 70
     0
  9
$MIRRTEXT
 70
     1
  9
$LTSCALE
 40
1.0
  9
$ATTMODE
 70
     1
  9
$TEXTSIZE
 40
3.5
  9
$TRACEWID
 40
1.0
  9
$TEXTSTYLE
  7
Standard
  9
$CLAYER
  8
0
  9
$CELTYPE
  6
ByLayer
  9
$CECOLOR
 62
   256
  9
$CELTSCALE
 40
1.0
  9
$DISPSILH
 70
     0
  9
$DIMSCALE
 40
1.0
  9
$DIMASZ
 40
3.302
  9
$DIMEXO
 40
1.0
  9
$DIMDLI
 40
3.75
  9
$DIMRND
 40
0.0
  9
$DIMDLE
 40
0.0
  9
$DIMEXE
 40
1.0
  9
$DIMTP
 40
0.0
  9
$DIMTM
 40
0.0
  9
$DIMTXT
 40
3.5
  9
$DIMCEN
 40
2.5
  9
$DIMTSZ
 40
0.0
  9
$DIMTOL
 70
     0
  9
$DIMLIM
 70
     0
  9
$DIMTIH
 70
     1
  9
$DIMTOH
 70
     1
  9
$DIMSE1
 70
     0
  9
$DIMSE2
 70
     0
  9
$DIMTAD
 70
     1
  9
$DIMZIN
 70
     1
  9
$DIMBLK
  1

  9
$DIMASO
 70
     1
  9
$DIMSHO
 70
     1
  9
$DIMPOST
  1

  9
$DIMAPOST
  1

  9
$DIMALT
 70
     0
  9
$DIMALTD
 70
     3
  9
$DIMALTF
 40
0.0393700787
  9
$DIMLFAC
 40
1.0
  9
$DIMTOFL
 70
     1
  9
$DIMTVP
 40
0.0
  9
$DIMTIX
 70
     0
  9
$DIMSOXD
 70
     0
  9
$DIMSAH
 70
     0
  9
$DIMBLK1
  1

  9
$DIMBLK2
  1

  9
$DIMSTYLE
  2
ISO-25
  9
$DIMCLRD
 70
     0
  9
$DIMCLRE
 70
     0
  9
$DIMCLRT
 70
     0
  9
$DIMTFAC
 40
1.0
  9
$DIMGAP
 40
1.524
  9
$DIMJUST
 70
     0
  9
$DIMSD1
 70
     0
  9
$DIMSD2
 70
     0
  9
$DIMTOLJ
 70
     0
  9
$DIMTZIN
 70
     1
  9
$DIMALTZ
 70
     0
  9
$DIMALTTZ
 70
     0
  9
$DIMUPT
 70
     0
  9
$DIMDEC
 70
     2
  9
$DIMTDEC
 70
     2
  9
$DIMALTU
 70
     2
  9
$DIMALTTD
 70
     3
  9
$DIMTXSTY
  7
Standard
  9
$DIMAUNIT
 70
     0
  9
$DIMADEC
 70
     2
  9
$DIMALTRND
 40
0.0
  9
$DIMAZIN
 70
     0
  9
$DIMDSEP
 70
    44
  9
$DIMATFIT
 70
     3
  9
$DIMFRAC
 70
     0
  9
$DIMLDRBLK
  1

  9
$DIMLUNIT
 70
     2
  9
$DIMLWD
 70
    -2
  9
$DIMLWE
 70
    -2
  9
$DIMTMOVE
 70
     0
  9
$LUNITS
 70
     2
  9
$LUPREC
 70
     2
  9
$SKETCHINC
 40
1.0
  9
$FILLETRAD
 40
10.0
  9
$AUNITS
 70
     0
  9
$AUPREC
 70
     2
  9
$MENU
  1
.
  9
$ELEVATION
 40
0.0
  9
$PELEVATION
 40
0.0
  9
$THICKNESS
 40
0.0
  9
$LIMCHECK
 70
     0
  9
$CHAMFERA
 40
0.0
  9
$CHAMFERB
 40
0.0
  9
$CHAMFERC
 40
0.0
  9
$CHAMFERD
 40
0.0
  9
$SKPOLY
 70
     0
  9
$TDCREATE
 40
2459384.420933854
  9
$TDUCREATE
 40
2459384.379267187
  9
$TDUPDATE
 40
2459384.420982153
  9
$TDUUPDATE
 40
2459384.379315486
  9
$TDINDWG
 40
0.0000000116
  9
$TDUSRTIMER
 40
0.0000000116
  9
$USRTIMER
 70
     1
  9
$ANGBASE
 50
0.0
  9
$ANGDIR
 70
     0
  9
$PDMODE
 70
     0
  9
$PDSIZE
 40
-1.0
  9
$PLINEWID
 40
0.0
  9
$SPLFRAME
 70
     0
  9
$SPLINETYPE
 70
     6
  9
$SPLINESEGS
 70
     8
  9
$HANDSEED
  5
2A8
  9
$SURFTAB1
 70
     6
  9
$SURFTAB2
 70
     6
  9
$SURFTYPE
 70
     6
  9
$SURFU
 70
     6
  9
$SURFV
 70
     6
  9
$UCSBASE
  2

  9
$UCSNAME
  2

  9
$UCSORG
 10
0.0
 20
0.0
 30
0.0
  9
$UCSXDIR
 10
1.0
 20
0.0
 30
0.0
  9
$UCSYDIR
 10
0.0
 20
1.0
 30
0.0
  9
$UCSORTHOREF
  2

  9
$UCSORTHOVIEW
 70
     0
  9
$UCSORGTOP
 10
0.0
 20
0.0
 30
0.0
  9
$UCSORGBOTTOM
 10
0.0
 20
0.0
 30
0.0
  9
$UCSORGLEFT
 10
0.0
 20
0.0
 30
0.0
  9
$UCSORGRIGHT
 10
0.0
 20
0.0
 30
0.0
  9
$UCSORGFRONT
 10
0.0
 20
0.0
 30
0.0
  9
$UCSORGBACK
 10
0.0
 20
0.0
 30
0.0
  9
$PUCSBASE
  2

  9
$PUCSNAME
  2

  9
$PUCSORG
 10
0.0
 20
0.0
 30
0.0
  9
$PUCSXDIR
 10
1.0
 20
0.0
 30
0.0
  9
$PUCSYDIR
 10
0.0
 20
1.0
 30
0.0
  9
$PUCSORTHOREF
  2

  9
$PUCSORTHOVIEW
 70
     0
  9
$PUCSORGTOP
 10
0.0
 20
0.0
 30
0.0
  9
$PUCSORGBOTTOM
 10
0.0
 20
0.0
 30
0.0
  9
$PUCSORGLEFT
 10
0.0
 20
0.0
 30
0.0
  9
$PUCSORGRIGHT
 10
0.0
 20
0.0
 30
0.0
  9
$PUCSORGFRONT
 10
0.0
 20
0.0
 30
0.0
  9
$PUCSORGBACK
 10
0.0
 20
0.0
 30
0.0
  9
$USERI1
 70
     0
  9
$USERI2
 70
     0
  9
$USERI3
 70
     0
  9
$USERI4
 70
     0
  9
$USERI5
 70
     0
  9
$USERR1
 40
0.0
  9
$USERR2
 40
0.0
  9
$USERR3
 40
0.0
  9
$USERR4
 40
0.0
  9
$USERR5
 40
0.0
  9
$WORLDVIEW
 70
     1
  9
$SHADEDGE
 70
     3
  9
$SHADEDIF
 70
    70
  9
$TILEMODE
 70
     1
  9
$MAXACTVP
 70
    64
  9
$PINSBASE
 10
0.0
 20
0.0
 30
0.0
  9
$PLIMCHECK
 70
     0
  9
$PEXTMIN
 10
-850.0
 20
-378.0
 30
0.0
  9
$PEXTMAX
 10
850.0
 20
40.0
 30
0.0
  9
$PLIMMIN
 10
-982.2957198444
 20
-427.6108949416
  9
$PLIMMAX
 10
982.2957198444
 20
961.4941634241
  9
$UNITMODE
 70
     0
  9
$VISRETAIN
 70
     1
  9
$PLINEGEN
 70
     0
  9
$PSLTSCALE
 70
     1
  9
$TREEDEPTH
 70
  3020
  9
$CMLSTYLE
  2
Standard
  9
$CMLJUST
 70
     0
  9
$CMLSCALE
 40
20.0
  9
$PROXYGRAPHICS
 70
     1
  9
$MEASUREMENT
 70
     1
  9
$CELWEIGHT
370
    -1
  9
$ENDCAPS
280
     0
  9
$JOINSTYLE
280
     0
  9
$LWDISPLAY
290
     1
  9
$INSUNITS
 70
     4
  9
$HYPERLINKBASE
  1

  9
$STYLESHEET
  1

  9
$XEDIT
290
     1
  9
$CEPSNTYPE
380
     0
  9
$PSTYLEMODE
290
     1
  9
$FINGERPRINTGUID
  2
{6ad6219c-c517-4c0a-8c07-6455cb0a7e42}
  9
$VERSIONGUID
  2
{FAEB1C32-E019-11D5-929B-00C0DF256EC4}
  9
$EXTNAMES
290
     1
  9
$PSVPSCALE
 40
0.0
  9
$OLESTARTUP
290
     0
  0
ENDSEC
  0
SECTION
  2
CLASSES
  0
CLASS
  1
ACDBDICTIONARYWDFLT
  2
AcDbDictionaryWithDefault
  3
ObjectDBX Classes
 90
        0
280
     0
281
     0
  0
CLASS
  1
VISUALSTYLE
  2
AcDbVisualStyle
  3
ObjectDBX Classes
 90
     4095
280
     0
281
     0
  0
CLASS
  1
MATERIAL
  2
AcDbMaterial
  3
ObjectDBX Classes
 90
     1153
280
     0
281
     0
  0
CLASS
  1
SCALE
  2
AcDbScale
  3
ObjectDBX Classes
 90
     1153
280
     0
281
     0
  0
CLASS
  1
TABLESTYLE
  2
AcDbTableStyle
  3
ObjectDBX Classes
 90
     4095
280
     0
281
     0
  0
CLASS
  1
MLEADERSTYLE
  2
AcDbMLeaderStyle
  3
ACDB_MLEADERSTYLE_CLASS
 90
     4095
280
     0
281
     0
  0
CLASS
  1
SUN
  2
AcDbSun
  3
SCENEOE
 90
     1153
280
     0
281
     0
  0
CLASS
  1
ACDBPLACEHOLDER
  2
AcDbPlaceHolder
  3
ObjectDBX Classes
 90
        0
280
     0
281
     0
  0
CLASS
  1
LAYOUT
  2
AcDbLayout
  3
ObjectDBX Classes
 90
        0
280
     0
281
     0
  0
ENDSEC
  0
SECTION
  2
TABLES
  0
TABLE
  2
VPORT
  5
8
330
0
100
AcDbSymbolTable
 70
     1
  0
VPORT
  5
29
330
8
100
AcDbSymbolTableRecord
100
AcDbViewportTableRecord
  2
*Active
 70
     0
 10
0.0
 20
0.0
 11
1.0
 21
1.0
 12
0.0
 22
0.0
 13
0.0
 23
0.0
 14
10.0
 24
10.0
 15
10.0
 25
10.0
 16
0.0
 26
0.0
 36
1.0
 17
0.0
 27
0.0
 37
0.0
 40
714.0
 41
2.4285714286
 42
50.0
 43
0.0
 44
0.0
 50
0.0
 51
0.0
 71
     0
 72
   100
 73
     1
 74
     3
 75
     0
 76
     0
 77
     0
 78
     0
281
     0
 65
     1
110
0.0
120
0.0
130
0.0
111
1.0
121
0.0
131
0.0
112
0.0
122
1.0
132
0.0
 79
     0
146
0.0
  0
ENDTAB
  0
TABLE
  2
LTYPE
  5
5
330
0
100
AcDbSymbolTable
 70
     6
  0
LTYPE
  5
14
330
5
100
AcDbSymbolTableRecord
100
AcDbLinetypeTableRecord
  2
ByBlock
 70
     0
  3

 72
    65
 73
     0
 40
0.0
  0
LTYPE
  5
15
330
5
100
AcDbSymbolTableRecord
100
AcDbLinetypeTableRecord
  2
ByLayer
 70
     0
  3

 72
    65
 73
     0
 40
0.0
  0
LTYPE
  5
16
330
5
100
AcDbSymbolTableRecord
100
AcDbLinetypeTableRecord
  2
Continuous
 70
     0
  3
Solid line
 72
    65
 73
     0
 40
0.0
  0
LTYPE
  5
6E
330
5
100
AcDbSymbolTableRecord
100
AcDbLinetypeTableRecord
  2
HIDDEN
 70
     0
  3
Hidden __ __ __ __ __ __ __ __ __ __ __ __ __ __
 72
    65
 73
     2
 40
1.905
 49
1.27
 74
     0
 49
-0.635
 74
     0
  0
LTYPE
  5
6F
330
5
100
AcDbSymbolTableRecord
100
AcDbLinetypeTableRecord
  2
PHANTOM
 70
     0
  3
Phantom ______  __  __  ______  __  __  ______
 72
    65
 73
     6
 40
12.7
 49
6.35
 74
     0
 49
-1.27
 74
     0
 49
1.27
 74
     0
 49
-1.27
 74
     0
 49
1.27
 74
     0
 49
-1.27
 74
     0
  0
LTYPE
  5
70
330
5
100
AcDbSymbolTableRecord
100
AcDbLinetypeTableRecord
  2
CENTER
 70
     0
  3
Center ____ _ ____ _ ____ _ ____ _ ____ _ ____
 72
    65
 73
     4
 40
10.16
 49
6.35
 74
     0
 49
-1.27
 74
     0
 49
1.27
 74
     0
 49
-1.27
 74
     0
  0
LTYPE
  5
71
330
5
100
AcDbSymbolTableRecord
100
AcDbLinetypeTableRecord
  2
CENTERX2
 70
     0
  3
Center (2x) ________  __  ________  __  _____
 72
    65
 73
     4
 40
20.32
 49
12.7
 74
     0
 49
-2.54
 74
     0
 49
2.54
 74
     0
 49
-2.54
 74
     0
  0
LTYPE
  5
72
330
5
100
AcDbSymbolTableRecord
100
AcDbLinetypeTableRecord
  2
DOT2
 70
     0
  3
Dot (.5x) ........................................
 72
    65
 73
     2
 40
0.635
 49
0.0
 74
     0
 49
-0.635
 74
     0
  0
ENDTAB
  0
TABLE
  2
LAYER
  5
2
330
0
100
AcDbSymbolTable
 70
     1
  0
LAYER
  5
10
330
2
100
AcDbSymbolTableRecord
100
AcDbLayerTableRecord
  2
0
 70
     0
 62
     7
  6
Continuous
370
    -3
390
F
  0
ENDTAB
  0
TABLE
  2
STYLE
  5
3
330
0
100
AcDbSymbolTable
 70
     1
  0
STYLE
  5
11
330
3
100
AcDbSymbolTableRecord
100
AcDbTextStyleTableRecord
  2
Standard
 70
     0
 40
0.0
 41
1.0
 50
0.0
 71
     0
 42
3.5
  3
txt
  4

  0
ENDTAB
  0
TABLE
  2
VIEW
  5
6
330
0
100
AcDbSymbolTable
 70
     0
  0
ENDTAB
  0
TABLE
  2
UCS
  5
7
330
0
100
AcDbSymbolTable
 70
     0
  0
ENDTAB
  0
TABLE
  2
APPID
  5
9
330
0
100
AcDbSymbolTable
 70
     1
  0
APPID
  5
12
330
9
100
AcDbSymbolTableRecord
100
AcDbRegAppTableRecord
  2
ACAD
 70
     0
  0
ENDTAB
  0
TABLE
  2
DIMSTYLE
  5
A
330
0
100
AcDbSymbolTable
 70
     1
100
AcDbDimStyleTable
  0
DIMSTYLE
105
27
330
A
100
AcDbSymbolTableRecord
100
AcDbDimStyleTableRecord
  2
ISO-25
 70
     0
 41
2.5
 42
0.625
 43
3.75
 44
1.25
 73
     0
 74
     0
 77
     1
 78
     8
140
2.5
141
2.5
143
0.0393700787
147
0.625
171
     3
172
     1
178
     0
271
     2
272
     2
274
     3
278
    44
283
     0
284
     8
340
11
  0
ENDTAB
  0
TABLE
  2
BLOCK_RECORD
  5
1
330
0
100
AcDbSymbolTable
 70
     3
  0
BLOCK_RECORD
  5
1F
330
1
100
AcDbSymbolTableRecord
100
AcDbBlockTableRecord
  2
*Model_Space
340
22
  0
BLOCK_RECORD
  5
1B
330
1
100
AcDbSymbolTableRecord
100
AcDbBlockTableRecord
  2
*Paper_Space
340
1E
  0
BLOCK_RECORD
  5
23
330
1
100
AcDbSymbolTableRecord
100
AcDbBlockTableRecord
  2
*Paper_Space0
340
26
  0
BLOCK_RECORD
  5
15A
330
1
100
AcDbSymbolTableRecord
100
AcDbBlockTableRecord
  2
*Paper_Space1
340
15B
  0
BLOCK_RECORD
  5
1F5
330
1
100
AcDbSymbolTableRecord
100
AcDbBlockTableRecord
  2
*Paper_Space2
340
1F6
  0
ENDTAB
  0
ENDSEC
  0
SECTION
  2
BLOCKS
  0
BLOCK
  5
20
330
1F
100
AcDbEntity
  8
0
100
AcDbBlockBegin
  2
*Model_Space
 70
     0
 10
0.0
 20
0.0
 30
0.0
  3
*Model_Space
  1

  0
ENDBLK
  5
21
330
1F
100
AcDbEntity
  8
0
100
AcDbBlockEnd
  0
BLOCK
  5
1C
330
1B
100
AcDbEntity
 67
     1
  8
0
100
AcDbBlockBegin
  2
*Paper_Space
 70
     0
 10
0.0
 20
0.0
 30
0.0
  3
*Paper_Space
  1

  0
ENDBLK
  5
1D
330
1B
100
AcDbEntity
 67
     1
  8
0
100
AcDbBlockEnd
  0
BLOCK
  5
24
330
23
100
AcDbEntity
  8
0
100
AcDbBlockBegin
  2
*Paper_Space0
 70
     0
 10
0.0
 20
0.0
 30
0.0
  3
*Paper_Space0
  1

  0
LWPOLYLINE
  5
136
330
23
100
AcDbEntity
  8
0
  6
Continuous
 62
     7
370
    25
100
AcDbPolyline
 90
       18
 70
   128
 43
0.0
 10
171.7964322372
 20
-334.8011022993
 10
176.1852752105
 20
-335.1507739767
 10
180.5397712765
 20
-335.3036167155
 10
184.8258423252
 20
-335.2584343747
 10
189.0099457383
 20
-335.0155805495
 10
193.0593368919
 20
-334.5769558039
 10
196.9423254148
 20
-333.9459927977
 10
200.628523196
 20
-333.1276294216
 10
204.0890822012
 20
-332.1282701543
 10
207.2969202355
 20
-330.9557359409
 10
210.2269328885
 20
-329.6192029868
 10
212.8561899999
 20
-328.1291309447
 10
215.1641151099
 20
-326.4971810581
 10
217.1326464901
 20
-324.7361249006
 10
218.7463784937
 20
-322.8597444264
 10
219.9926821194
 20
-320.8827241132
 10
220.8618038454
 20
-318.8205360418
 10
221.3469419603
 20
-316.6893188126
  0
LWPOLYLINE
  5
138
330
23
100
AcDbEntity
  8
0
  6
Continuous
 62
     7
370
    25
100
AcDbPolyline
 90
       18
 70
   128
 43
0.0
 10
-221.3469419603
 20
-316.6893188126
 10
-220.8618038454
 20
-318.8205360418
 10
-219.9926821194
 20
-320.8827241132
 10
-218.7463784937
 20
-322.8597444264
 10
-217.1326464901
 20
-324.7361249006
 10
-215.1641151099
 20
-326.4971810581
 10
-212.8561899999
 20
-328.1291309447
 10
-210.2269328885
 20
-329.6192029868
 10
-207.2969202355
 20
-330.9557359409
 10
-204.0890822012
 20
-332.1282701543
 10
-200.628523196
 20
-333.1276294216
 10
-196.9423254148
 20
-333.9459927977
 10
-193.0593368919
 20
-334.5769558039
 10
-189.0099457383
 20
-335.0155805495
 10
-184.8258423252
 20
-335.2584343747
 10
-180.5397712765
 20
-335.3036167155
 10
-176.1852752105
 20
-335.1507739767
 10
-171.7964322372
 20
-334.8011022993
  0
LINE
  5
146
330
23
100
AcDbEntity
  8
0
  6
Continuous
 62
     7
370
    25
100
AcDbLine
 10
-340.0
 20
40.0
 30
0.0
 11
-340.0
 21
0.0
 31
0.0
  0
LINE
  5
147
330
23
100
AcDbEntity
  8
0
  6
Continuous
 62
     7
370
    25
100
AcDbLine
 10
350.0
 20
35.0
 30
0.0
 11
-350.0
 21
35.0
 31
0.0
  0
LINE
  5
148
330
23
100
AcDbEntity
  8
0
  6
Continuous
 62
     7
370
    25
100
AcDbLine
 10
340.0
 20
0.0
 30
0.0
 11
340.0
 21
40.0
 31
0.0
  0
LINE
  5
149
330
23
100
AcDbEntity
  8
0
  6
Continuous
 62
     7
370
    25
100
AcDbLine
 10
-350.0
 20
0.0
 30
0.0
 11
350.0
 21
0.0
 31
0.0
  0
LINE
  5
14A
330
23
100
AcDbEntity
  8
0
  6
Continuous
 62
     7
370
    25
100
AcDbLine
 10
-345.0
 20
40.0
 30
0.0
 11
345.0
 21
40.0
 31
0.0
  0
LINE
  5
14B
330
23
100
AcDbEntity
  8
0
  6
Continuous
 62
     7
370
    25
100
AcDbLine
 10
350.0
 20
35.0
 30
0.0
 11
350.0
 21
0.0
 31
0.0
  0
LINE
  5
14C
330
23
100
AcDbEntity
  8
0
  6
Continuous
 62
     7
370
    25
100
AcDbLine
 10
-350.0
 20
0.0
 30
0.0
 11
-350.0
 21
35.0
 31
0.0
  0
LINE
  5
14D
330
23
100
AcDbEntity
  8
0
  6
Continuous
 62
     7
370
    25
100
AcDbLine
 10
264.1
 20
0.0
 30
0.0
 11
221.3469419603
 21
-316.6893188126
 31
0.0
  0
LINE
  5
14E
330
23
100
AcDbEntity
  8
0
  6
Continuous
 62
     7
370
    25
100
AcDbLine
 10
-221.3469419603
 20
-316.6893188126
 30
0.0
 11
-264.1
 21
0.0
 31
0.0
  0
LINE
  5
14F
330
23
100
AcDbEntity
  8
0
  6
Continuous
 62
     7
370
    25
100
AcDbLine
 10
-171.7964322372
 20
-334.8011022993
 30
0.0
 11
171.7964322372
 21
-334.8011022993
 31
0.0
  0
LINE
  5
150
330
23
100
AcDbEntity
  8
0
  6
Continuous
 62
     7
370
    25
100
AcDbLine
 10
171.7964322372
 20
-334.8011022993
 30
0.0
 11
171.7964322372
 21
-378.0
 31
0.0
  0
LINE
  5
151
330
23
100
AcDbEntity
  8
0
  6
Continuous
 62
     7
370
    25
100
AcDbLine
 10
171.7964322372
 20
-360.0
 30
0.0
 11
-171.7964322372
 21
-360.0
 31
0.0
  0
LINE
  5
152
330
23
100
AcDbEntity
  8
0
  6
Continuous
 62
     7
370
    25
100
AcDbLine
 10
-171.7964322372
 20
-334.8011022993
 30
0.0
 11
-171.7964322372
 21
-378.0
 31
0.0
  0
LINE
  5
153
330
23
100
AcDbEntity
  8
0
  6
Continuous
 62
     7
370
    25
100
AcDbLine
 10
171.7964322372
 20
-378.0
 30
0.0
 11
-171.7964322372
 21
-378.0
 31
0.0
  0
LINE
  5
154
330
23
100
AcDbEntity
  8
0
  6
Continuous
 62
     8
370
    25
100
AcDbLine
 10
171.7964322372
 20
-334.8011022993
 30
0.0
 11
216.9945810476
 21
0.0
 31
0.0
  0
LINE
  5
155
330
23
100
AcDbEntity
  8
0
  6
Continuous
 62
     8
370
    25
100
AcDbLine
 10
-216.9945810476
 20
0.0
 30
0.0
 11
-171.7964322372
 21
-334.8011022993
 31
0.0
  0
ARC
  5
156
330
23
100
AcDbEntity
  8
0
  6
Continuous
 62
     7
370
    25
100
AcDbCircle
 10
-345.0
 20
35.0
 30
0.0
 40
5.000000000000057
100
AcDbArc
 50
90.0
 51
180.0
  0
ARC
  5
157
330
23
100
AcDbEntity
  8
0
  6
Continuous
 62
     7
370
    25
100
AcDbCircle
 10
345.0
 20
35.0
 30
0.0
 40
5.000000000000057
100
AcDbArc
 50
0.0
 51
90.0
  0
ARC
  5
158
330
23
100
AcDbEntity
  8
0
  6
Continuous
 62
     7
370
    25
100
AcDbCircle
 10
-171.7964322372
 20
-310.0
 30
0.0
 40
50.00000000000003
100
AcDbArc
 50
187.6884477699
 51
270.0
  0
ARC
  5
159
330
23
100
AcDbEntity
  8
0
  6
Continuous
 62
     7
370
    25
100
AcDbCircle
 10
171.7964322372
 20
-310.0
 30
0.0
 40
50.0
100
AcDbArc
 50
270.0
 51
352.3115522301
  0
VIEWPORT
  5
2A2
330
23
100
AcDbEntity
  8
0
100
AcDbViewport
 10
0.0
 20
0.0
 30
0.0
 40
205.6
 41
156.0
 68
     1
 69
     1
 12
0.0
 22
0.0
 13
0.0
 23
0.0
 14
10.0
 24
10.0
 15
10.0
 25
10.0
 16
0.0
 26
0.0
 36
1.0
 17
0.0
 27
0.0
 37
0.0
 42
50.0
 43
0.0
 44
0.0
 45
1315.6809338521
 50
0.0
 51
0.0
 72
   100
 90
   557152
  1

281
     0
 71
     1
 74
     0
110
0.0
120
0.0
130
0.0
111
1.0
121
0.0
131
0.0
112
0.0
122
1.0
132
0.0
 79
     0
146
0.0
  0
ENDBLK
  5
25
330
23
100
AcDbEntity
  8
0
100
AcDbBlockEnd
  0
BLOCK
  5
15C
330
15A
100
AcDbEntity
  8
0
100
AcDbBlockBegin
  2
*Paper_Space1
 70
     0
 10
0.0
 20
0.0
 30
0.0
  3
*Paper_Space1
  1

  0
LWPOLYLINE
  5
161
330
15A
100
AcDbEntity
  8
0
  6
Continuous
 62
     7
370
    25
100
AcDbPolyline
 90
       18
 70
   128
 43
0.0
 10
-496.4793739451
 20
-221.3469419603
 10
-500.3248196777
 20
-220.8618038454
 10
-504.1401711077
 20
-219.9926821194
 10
-507.8955694494
 20
-218.7463784937
 10
-511.5616251074
 20
-217.1326464901
 10
-515.1096476786
 20
-215.1641151099
 10
-518.5118704821
 20
-212.8561899999
 10
-521.7416678601
 20
-210.2269328885
 10
-524.7737635489
 20
-207.2969202355
 10
-527.5844284907
 20
-204.0890822012
 10
-530.1516665353
 20
-200.628523196
 10
-532.4553865818
 20
-196.9423254148
 10
-534.4775598105
 20
-193.0593368919
 10
-536.2023607754
 20
-189.0099457383
 10
-537.6162912542
 20
-184.8258423252
 10
-538.7082858842
 20
-180.5397712765
 10
-539.4697987596
 20
-176.1852752105
 10
-539.8948703115
 20
-171.7964322372
  0
LWPOLYLINE
  5
167
330
15A
100
AcDbEntity
  8
0
  6
Continuous
 62
     7
370
    25
100
AcDbPolyline
 90
       18
 70
   128
 43
0.0
 10
539.8948703115
 20
-171.7964322372
 10
539.4697987596
 20
-176.1852752105
 10
538.7082858842
 20
-180.5397712765
 10
537.6162912542
 20
-184.8258423252
 10
536.2023607754
 20
-189.0099457383
 10
534.4775598105
 20
-193.0593368919
 10
532.4553865818
 20
-196.9423254148
 10
530.1516665353
 20
-200.628523196
 10
527.5844284907
 20
-204.0890822012
 10
524.7737635489
 20
-207.2969202355
 10
521.7416678601
 20
-210.2269328885
 10
518.5118704821
 20
-212.8561899999
 10
515.1096476786
 20
-215.1641151099
 10
511.5616251074
 20
-217.1326464901
 10
507.8955694494
 20
-218.7463784937
 10
504.1401711077
 20
-219.9926821194
 10
500.3248196777
 20
-220.8618038454
 10
496.4793739451
 20
-221.3469419603
  0
LWPOLYLINE
  5
16A
330
15A
100
AcDbEntity
  8
0
  6
Continuous
 62
     7
370
    25
100
AcDbPolyline
 90
       18
 70
   128
 43
0.0
 10
496.4793739451
 20
221.3469419603
 10
500.3248196777
 20
220.8618038454
 10
504.1401711077
 20
219.9926821194
 10
507.8955694494
 20
218.7463784937
 10
511.5616251074
 20
217.1326464901
 10
515.1096476786
 20
215.1641151099
 10
518.5118704821
 20
212.8561899999
 10
521.7416678601
 20
210.2269328885
 10
524.7737635489
 20
207.2969202355
 10
527.5844284907
 20
204.0890822012
 10
530.1516665353
 20
200.628523196
 10
532.4553865818
 20
196.9423254148
 10
534.4775598105
 20
193.0593368919
 10
536.2023607754
 20
189.0099457383
 10
537.6162912542
 20
184.8258423252
 10
538.7082858842
 20
180.5397712765
 10
539.4697987596
 20
176.1852752105
 10
539.8948703115
 20
171.7964322372
  0
LWPOLYLINE
  5
16D
330
15A
100
AcDbEntity
  8
0
  6
Continuous
 62
     7
370
    25
100
AcDbPolyline
 90
       18
 70
   128
 43
0.0
 10
-539.8948703115
 20
171.7964322372
 10
-539.4697987596
 20
176.1852752105
 10
-538.7082858842
 20
180.5397712765
 10
-537.6162912542
 20
184.8258423252
 10
-536.2023607754
 20
189.0099457383
 10
-534.4775598105
 20
193.0593368919
 10
-532.4553865818
 20
196.9423254148
 10
-530.1516665353
 20
200.628523196
 10
-527.5844284907
 20
204.0890822012
 10
-524.7737635489
 20
207.2969202355
 10
-521.7416678601
 20
210.2269328885
 10
-518.5118704821
 20
212.8561899999
 10
-515.1096476786
 20
215.1641151099
 10
-511.5616251074
 20
217.1326464901
 10
-507.8955694494
 20
218.7463784937
 10
-504.1401711077
 20
219.9926821194
 10
-500.3248196777
 20
220.8618038454
 10
-496.4793739451
 20
221.3469419603
  0
LWPOLYLINE
  5
16F
330
15A
100
AcDbEntity
  8
0
  6
Continuous
 62
     7
370
    25
100
AcDbPolyline
 90
       20
 70
   128
 43
0.0
 10
751.1323879688
 20
221.7168959286
 10
750.9703822302
 20
225.6926098404
 10
750.4397030865
 20
229.6203350994
 10
749.5436757302
 20
233.4754608977
 10
748.287914596
 20
237.2338313297
 10
746.6802881813
 20
240.871896751
 10
744.730869743
 20
244.3668613388
 10
742.4518741787
 20
247.6968259283
 10
739.85758149
 20
250.8409252315
 10
736.9642473045
 20
253.7794585771
 10
733.7900010194
 20
256.4940133536
 10
730.3547322046
 20
258.9675803807
 10
726.6799659759
 20
261.1846604882
 10
722.7887281205
 20
263.1313616319
 10
718.7054008191
 20
264.7954859402
 10
714.4555698696
 20
266.1666061452
 10
710.0658643681
 20
267.2361309189
 10
705.5637898531
 20
267.9973587058
 10
700.9775559585
 20
268.4455197144
 10
696.335899654
 20
268.577805804
  0
LWPOLYLINE
  5
172
330
15A
100
AcDbEntity
  8
0
  6
Continuous
 62
     7
370
    25
100
AcDbPolyline
 90
       20
 70
   128
 43
0.0
 10
-751.1323879688
 20
-221.7168959286
 10
-750.9703822302
 20
-225.6926098404
 10
-750.4397030865
 20
-229.6203350994
 10
-749.5436757302
 20
-233.4754608977
 10
-748.287914596
 20
-237.2338313297
 10
-746.6802881813
 20
-240.871896751
 10
-744.730869743
 20
-244.3668613388
 10
-742.4518741787
 20
-247.6968259283
 10
-739.85758149
 20
-250.8409252315
 10
-736.9642473045
 20
-253.7794585771
 10
-733.7900010194
 20
-256.4940133536
 10
-730.3547322046
 20
-258.9675803807
 10
-726.6799659759
 20
-261.1846604882
 10
-722.7887281205
 20
-263.1313616319
 10
-718.7054008191
 20
-264.7954859402
 10
-714.4555698696
 20
-266.1666061452
 10
-710.0658643681
 20
-267.2361309189
 10
-705.5637898531
 20
-267.9973587058
 10
-700.9775559585
 20
-268.4455197144
 10
-696.335899654
 20
-268.577805804
  0
LWPOLYLINE
  5
175
330
15A
100
AcDbEntity
  8
0
  6
Continuous
 62
     7
370
    25
100
AcDbPolyline
 90
       20
 70
   128
 43
0.0
 10
696.335899654
 20
-268.577805804
 10
700.9775559585
 20
-268.4455197144
 10
705.5637898531
 20
-267.9973587058
 10
710.0658643681
 20
-267.2361309189
 10
714.4555698696
 20
-266.1666061452
 10
718.7054008191
 20
-264.7954859402
 10
722.7887281205
 20
-263.1313616319
 10
726.6799659759
 20
-261.1846604882
 10
730.3547322046
 20
-258.9675803807
 10
733.7900010194
 20
-256.4940133536
 10
736.9642473045
 20
-253.7794585771
 10
739.85758149
 20
-250.8409252315
 10
742.4518741787
 20
-247.6968259283
 10
744.730869743
 20
-244.3668613388
 10
746.6802881813
 20
-240.871896751
 10
748.287914596
 20
-237.2338313297
 10
749.5436757302
 20
-233.4754608977
 10
750.4397030865
 20
-229.6203350994
 10
750.9703822302
 20
-225.6926098404
 10
751.1323879688
 20
-221.7168959286
  0
LWPOLYLINE
  5
178
330
15A
100
AcDbEntity
  8
0
  6
Continuous
 62
     7
370
    25
100
AcDbPolyline
 90
       20
 70
   128
 43
0.0
 10
-696.335899654
 20
268.577805804
 10
-700.9775559585
 20
268.4455197144
 10
-705.5637898531
 20
267.9973587058
 10
-710.0658643681
 20
267.2361309189
 10
-714.4555698696
 20
266.1666061452
 10
-718.7054008191
 20
264.7954859402
 10
-722.7887281205
 20
263.1313616319
 10
-726.6799659759
 20
261.1846604882
 10
-730.3547322046
 20
258.9675803807
 10
-733.7900010194
 20
256.4940133536
 10
-736.9642473045
 20
253.7794585771
 10
-739.85758149
 20
250.8409252315
 10
-742.4518741787
 20
247.6968259283
 10
-744.730869743
 20
244.3668613388
 10
-746.6802881813
 20
240.871896751
 10
-748.287914596
 20
237.2338313297
 10
-749.5436757302
 20
233.4754608977
 10
-750.4397030865
 20
229.6203350994
 10
-750.9703822302
 20
225.6926098404
 10
-751.1323879688
 20
221.7168959286
  0
LWPOLYLINE
  5
17E
330
15A
100
AcDbEntity
  8
0
  6
Continuous
 62
     7
370
    25
100
AcDbPolyline
 90
       48
 70
   128
 43
0.0
 10
0.0
 20
254.65
 10
-2.6657391075
 20
254.674090782
 10
-5.2839080374
 20
254.7459332274
 10
-7.8077855033
 20
254.864245306
 10
-10.1923328518
 20
255.026915736
 10
-12.3949977792
 20
255.2310416597
 10
-14.3764736776
 20
255.4729804453
 10
-16.1014010626
 20
255.7484146892
 10
-17.5389985641
 20
256.052429261
 10
-18.6636122208
 20
256.3795990133
 10
-19.4551732753
 20
256.7240855943
 10
-19.8995563018
 20
257.0797416326
 10
-19.9888312746
 20
257.4402204379
 10
-19.7214050798
 20
257.7990892574
 10
-19.1020499441
 20
258.1499440684
 10
-18.1418182747
 20
258.4865238586
 10
-16.8578454283
 20
258.8028223535
 10
-15.2730439309
 20
259.0931951992
 10
-13.4156946028
 20
259.3524606852
 10
-11.3189418866
 20
259.5759922129
 10
-9.0202023843
 20
259.7598008568
 10
-6.5604971568
 20
259.9006065473
 10
-3.9837197021
 20
259.9958966036
 10
-1.3358526749
 20
260.0439705723
 10
1.3358526749
 20
260.0439705723
 10
3.9837197021
 20
259.9958966036
 10
6.5604971568
 20
259.9006065473
 10
9.0202023843
 20
259.7598008568
 10
11.3189418866
 20
259.5759922129
 10
13.4156946028
 20
259.3524606852
 10
15.2730439309
 20
259.0931951992
 10
16.8578454283
 20
258.8028223535
 10
18.1418182747
 20
258.4865238586
 10
19.1020499441
 20
258.1499440684
 10
19.7214050798
 20
257.7990892574
 10
19.9888312746
 20
257.4402204379
 10
19.8995563018
 20
257.0797416326
 10
19.4551732753
 20
256.7240855943
 10
18.6636122208
 20
256.3795990133
 10
17.5389985641
 20
256.052429261
 10
16.1014010626
 20
255.7484146892
 10
14.3764736776
 20
255.4729804453
 10
12.3949977792
 20
255.2310416597
 10
10.1923328518
 20
255.026915736
 10
7.8077855033
 20
254.864245306
 10
5.2839080374
 20
254.7459332274
 10
2.6657391075
 20
254.674090782
 10
0.0
 20
254.65
  0
SPLINE
  5
17F
330
15A
100
AcDbEntity
  8
0
  6
Continuous
 62
     7
370
    25
100
AcDbSpline
210
0.0
220
0.0
230
1.0
 70
     8
 71
     3
 72
    21
 73
    17
 74
     0
 42
0.000000001
 43
0.00000001
 40
0.0
 40
0.0
 40
0.0
 40
0.0
 40
0.0055893218061457
 40
0.0853881868608939
 40
0.164855262941831
 40
0.2443188611905254
 40
0.3230911802347674
 40
0.4018611024042016
 40
0.4799921181119506
 40
0.5581228315373428
 40
0.6359468683823176
 40
0.7137727273839418
 40
0.7917501584581708
 40
0.869730699759186
 40
0.948251572042083
 40
1.0
 40
1.0
 40
1.0
 40
1.0
 10
-17.55184497800613
 20
256.0702434966387
 30
0.0
 10
-17.51944648919141
 20
256.0800856830842
 30
0.0
 10
-17.02449409373619
 20
256.2304449725425
 30
0.0
 10
-15.59251030530019
 20
256.488238067828
 30
0.0
 10
-13.26748964096993
 20
256.82516170282
 30
0.0
 10
-10.51862735700056
 20
257.099733565133
 30
0.0
 10
-7.481443354102216
 20
257.306766048448
 30
0.0
 10
-4.245757814172323
 20
257.4420852933857
 30
0.0
 10
-0.8954668445822067
 20
257.5000978559694
 30
0.0
 10
2.466628455112947
 20
257.4829208460617
 30
0.0
 10
5.752715346216861
 20
257.3884384239232
 30
0.0
 10
8.875569011297001
 20
257.2226697401641
 30
0.0
 10
11.74962432562292
 20
256.9877982521431
 30
0.0
 10
14.28795026067346
 20
256.6906926598914
 30
0.0
 10
16.24211545577725
 20
256.3835741873091
 30
0.0
 10
17.13114499303456
 20
256.1626370212028
 30
0.0
 10
17.48430480026601
 20
256.0748715154211
 30
0.0
  0
LWPOLYLINE
  5
1A1
330
15A
100
AcDbEntity
  8
0
  6
Continuous
 62
     7
370
    25
100
AcDbPolyline
 90
       21
 70
   128
 43
0.0
 10
-755.4739376055
 20
221.7168959286
 10
-755.2948308232
 20
225.8679446113
 10
-754.7585233752
 20
229.9746897612
 10
-753.8680482304
 20
234.0139065853
 10
-752.6284412749
 20
237.9627521816
 10
-751.0467128329
 20
241.7988947232
 10
-749.1318080216
 20
245.5006397502
 10
-746.8945561635
 20
249.0470528584
 10
-744.3476095443
 20
252.4180780891
 10
-741.5053718598
 20
255.594651351
 10
-738.3839167598
 20
258.5588082332
 10
-735.0008969464
 20
261.293785599
 10
-731.3754443437
 20
263.7841163857
 10
-727.5280619008
 20
266.0157170758
 10
-723.4805076424
 20
267.9759673428
 10
-719.2556716205
 20
269.6537814226
 10
-714.8774464656
 20
271.0396708072
 10
-710.3705922662
 20
272.1257979041
 10
-705.7605965443
 20
272.9060203605
 10
-701.0735301161
 20
273.3759258002
 10
-696.335899654
 20
273.5328567763
  0
LWPOLYLINE
  5
1A5
330
15A
100
AcDbEntity
  8
0
  6
Continuous
 62
     7
370
    25
100
AcDbPolyline
 90
       21
 70
   128
 43
0.0
 10
755.4739376055
 20
-221.7168959286
 10
755.2948308232
 20
-225.8679446113
 10
754.7585233752
 20
-229.9746897612
 10
753.8680482304
 20
-234.0139065853
 10
752.6284412749
 20
-237.9627521816
 10
751.0467128329
 20
-241.7988947232
 10
749.1318080216
 20
-245.5006397502
 10
746.8945561635
 20
-249.0470528584
 10
744.3476095443
 20
-252.4180780891
 10
741.5053718598
 20
-255.594651351
 10
738.3839167598
 20
-258.5588082332
 10
735.0008969464
 20
-261.293785599
 10
731.3754443437
 20
-263.7841163857
 10
727.5280619008
 20
-266.0157170758
 10
723.4805076424
 20
-267.9759673428
 10
719.2556716205
 20
-269.6537814226
 10
714.8774464656
 20
-271.0396708072
 10
710.3705922662
 20
-272.1257979041
 10
705.7605965443
 20
-272.9060203605
 10
701.0735301161
 20
-273.3759258002
 10
696.335899654
 20
-273.5328567763
  0
LWPOLYLINE
  5
1AA
330
15A
100
AcDbEntity
  8
0
  6
Continuous
 62
     7
370
    25
100
AcDbPolyline
 90
       21
 70
   128
 43
0.0
 10
696.335899654
 20
273.5328567763
 10
701.0735301161
 20
273.3759258002
 10
705.7605965443
 20
272.9060203605
 10
710.3705922662
 20
272.1257979041
 10
714.8774464656
 20
271.0396708072
 10
719.2556716205
 20
269.6537814226
 10
723.4805076424
 20
267.9759673428
 10
727.5280619008
 20
266.0157170758
 10
731.3754443437
 20
263.7841163857
 10
735.0008969464
 20
261.293785599
 10
738.3839167598
 20
258.5588082332
 10
741.5053718598
 20
255.594651351
 10
744.3476095443
 20
252.4180780891
 10
746.8945561635
 20
249.0470528584
 10
749.1318080216
 20
245.5006397502
 10
751.0467128329
 20
241.7988947232
 10
752.6284412749
 20
237.9627521816
 10
753.8680482304
 20
234.0139065853
 10
754.7585233752
 20
229.9746897612
 10
755.2948308232
 20
225.8679446113
 10
755.4739376055
 20
221.7168959286
  0
LWPOLYLINE
  5
1AC
330
15A
100
AcDbEntity
  8
0
  6
Continuous
 62
     7
370
    25
100
AcDbPolyline
 90
       21
 70
   128
 43
0.0
 10
-696.335899654
 20
-273.5328567763
 10
-701.0735301161
 20
-273.3759258002
 10
-705.7605965443
 20
-272.9060203605
 10
-710.3705922662
 20
-272.1257979041
 10
-714.8774464656
 20
-271.0396708072
 10
-719.2556716205
 20
-269.6537814226
 10
-723.4805076424
 20
-267.9759673428
 10
-727.5280619008
 20
-266.0157170758
 10
-731.3754443437
 20
-263.7841163857
 10
-735.0008969464
 20
-261.293785599
 10
-738.3839167598
 20
-258.5588082332
 10
-741.5053718598
 20
-255.594651351
 10
-744.3476095443
 20
-252.4180780891
 10
-746.8945561635
 20
-249.0470528584
 10
-749.1318080216
 20
-245.5006397502
 10
-751.0467128329
 20
-241.7988947232
 10
-752.6284412749
 20
-237.9627521816
 10
-753.8680482304
 20
-234.0139065853
 10
-754.7585233752
 20
-229.9746897612
 10
-755.2948308232
 20
-225.8679446113
 10
-755.4739376055
 20
-221.7168959286
  0
CIRCLE
  5
1B4
330
15A
100
AcDbEntity
  8
0
  6
Continuous
 62
     7
370
    25
100
AcDbCircle
 10
0.0
 20
65.0
 30
0.0
 40
45.00000000000003
  0
LINE
  5
1B5
330
15A
100
AcDbEntity
  8
0
  6
Continuous
 62
     7
370
    25
100
AcDbLine
 10
496.4793739451
 20
-221.3469419603
 30
0.0
 11
-496.4793739451
 21
-221.3469419603
 31
0.0
  0
LINE
  5
1B6
330
15A
100
AcDbEntity
  8
0
  6
Continuous
 62
     7
370
    25
100
AcDbLine
 10
-496.4793739451
 20
221.3469419603
 30
0.0
 11
-496.4793739451
 21
-221.3469419603
 31
0.0
  0
LINE
  5
1B7
330
15A
100
AcDbEntity
  8
0
  6
Continuous
 62
     7
370
    25
100
AcDbLine
 10
-496.4793739451
 20
221.3469419603
 30
0.0
 11
496.4793739451
 21
221.3469419603
 31
0.0
  0
LINE
  5
1B8
330
15A
100
AcDbEntity
  8
0
  6
Continuous
 62
     7
370
    25
100
AcDbLine
 10
496.4793739451
 20
-221.3469419603
 30
0.0
 11
496.4793739451
 21
221.3469419603
 31
0.0
  0
LINE
  5
1B9
330
15A
100
AcDbEntity
  8
0
  6
Continuous
 62
     7
370
    25
100
AcDbLine
 10
-539.8948703115
 20
-171.7964322372
 30
0.0
 11
539.8948703115
 21
-171.7964322372
 31
0.0
  0
LINE
  5
1BA
330
15A
100
AcDbEntity
  8
0
  6
Continuous
 62
     7
370
    25
100
AcDbLine
 10
-539.8948703115
 20
-171.7964322372
 30
0.0
 11
-539.8948703115
 21
171.7964322372
 31
0.0
  0
LINE
  5
1BB
330
15A
100
AcDbEntity
  8
0
  6
Continuous
 62
     7
370
    25
100
AcDbLine
 10
539.8948703115
 20
171.7964322372
 30
0.0
 11
-539.8948703115
 21
171.7964322372
 31
0.0
  0
LINE
  5
1BC
330
15A
100
AcDbEntity
  8
0
  6
Continuous
 62
     7
370
    25
100
AcDbLine
 10
539.8948703115
 20
171.7964322372
 30
0.0
 11
539.8948703115
 21
-171.7964322372
 31
0.0
  0
LINE
  5
1BD
330
15A
100
AcDbEntity
  8
0
  6
Continuous
 62
     7
370
    25
100
AcDbLine
 10
496.4793739451
 20
221.3469419603
 30
0.0
 11
696.335899654
 21
268.577805804
 31
0.0
  0
LINE
  5
1BE
330
15A
100
AcDbEntity
  8
0
  6
Continuous
 62
     7
370
    25
100
AcDbLine
 10
751.1323879688
 20
221.7168959286
 30
0.0
 11
539.8948703115
 21
171.7964322372
 31
0.0
  0
LINE
  5
1BF
330
15A
100
AcDbEntity
  8
0
  6
Continuous
 62
     7
370
    25
100
AcDbLine
 10
-496.4793739451
 20
-221.3469419603
 30
0.0
 11
-696.335899654
 21
-268.577805804
 31
0.0
  0
LINE
  5
1C0
330
15A
100
AcDbEntity
  8
0
  6
Continuous
 62
     7
370
    25
100
AcDbLine
 10
-751.1323879688
 20
-221.7168959286
 30
0.0
 11
-539.8948703115
 21
-171.7964322372
 31
0.0
  0
LINE
  5
1C1
330
15A
100
AcDbEntity
  8
0
  6
Continuous
 62
     7
370
    25
100
AcDbLine
 10
539.8948703115
 20
-171.7964322372
 30
0.0
 11
751.1323879688
 21
-221.7168959286
 31
0.0
  0
LINE
  5
1C2
330
15A
100
AcDbEntity
  8
0
  6
Continuous
 62
     7
370
    25
100
AcDbLine
 10
696.335899654
 20
-268.577805804
 30
0.0
 11
496.4793739451
 21
-221.3469419603
 31
0.0
  0
LINE
  5
1C3
330
15A
100
AcDbEntity
  8
0
  6
Continuous
 62
     7
370
    25
100
AcDbLine
 10
-539.8948703115
 20
171.7964322372
 30
0.0
 11
-751.1323879688
 21
221.7168959286
 31
0.0
  0
LINE
  5
1C4
330
15A
100
AcDbEntity
  8
0
  6
Continuous
 62
     7
370
    25
100
AcDbLine
 10
-696.335899654
 20
268.577805804
 30
0.0
 11
-496.4793739451
 21
221.3469419603
 31
0.0
  0
LINE
  5
1C5
330
15A
100
AcDbEntity
  8
0
  6
Continuous
 62
     7
370
    25
100
AcDbLine
 10
-751.1323879688
 20
221.7168959286
 30
0.0
 11
-751.1323879688
 21
-221.7168959286
 31
0.0
  0
LINE
  5
1C6
330
15A
100
AcDbEntity
  8
0
  6
Continuous
 62
     7
370
    25
100
AcDbLine
 10
751.1323879688
 20
-221.7168959286
 30
0.0
 11
751.1323879688
 21
221.7168959286
 31
0.0
  0
LINE
  5
1C7
330
15A
100
AcDbEntity
  8
0
  6
Continuous
 62
     7
370
    25
100
AcDbLine
 10
-696.335899654
 20
-268.577805804
 30
0.0
 11
696.335899654
 21
-268.577805804
 31
0.0
  0
LINE
  5
1C8
330
15A
100
AcDbEntity
  8
0
  6
Continuous
 62
     7
370
    25
100
AcDbLine
 10
696.335899654
 20
268.577805804
 30
0.0
 11
-696.335899654
 21
268.577805804
 31
0.0
  0
LINE
  5
1C9
330
15A
100
AcDbEntity
  8
0
  6
Continuous
 62
     7
370
    25
100
AcDbLine
 10
-847.5
 20
-337.5
 30
0.0
 11
-847.5
 21
337.5
 31
0.0
  0
LINE
  5
1CA
330
15A
100
AcDbEntity
  8
0
  6
Continuous
 62
     7
370
    25
100
AcDbLine
 10
837.5
 20
-347.5
 30
0.0
 11
-837.5
 21
-347.5
 31
0.0
  0
LINE
  5
1CB
330
15A
100
AcDbEntity
  8
0
  6
Continuous
 62
     7
370
    25
100
AcDbLine
 10
847.5
 20
337.5
 30
0.0
 11
847.5
 21
-337.5
 31
0.0
  0
LINE
  5
1CC
330
15A
100
AcDbEntity
  8
0
  6
Continuous
 62
     7
370
    25
100
AcDbLine
 10
-840.0
 20
350.0
 30
0.0
 11
840.0
 21
350.0
 31
0.0
  0
LINE
  5
1CD
330
15A
100
AcDbEntity
  8
0
  6
Continuous
 62
     7
370
    25
100
AcDbLine
 10
-850.0
 20
-340.0
 30
0.0
 11
-850.0
 21
340.0
 31
0.0
  0
LINE
  5
1CE
330
15A
100
AcDbEntity
  8
0
  6
Continuous
 62
     7
370
    25
100
AcDbLine
 10
840.0
 20
-350.0
 30
0.0
 11
-840.0
 21
-350.0
 31
0.0
  0
LINE
  5
1CF
330
15A
100
AcDbEntity
  8
0
  6
Continuous
 62
     7
370
    25
100
AcDbLine
 10
850.0
 20
340.0
 30
0.0
 11
850.0
 21
-340.0
 31
0.0
  0
LINE
  5
1D0
330
15A
100
AcDbEntity
  8
0
  6
Continuous
 62
     7
370
    25
100
AcDbLine
 10
-837.5
 20
347.5
 30
0.0
 11
837.5
 21
347.5
 31
0.0
  0
LINE
  5
1D1
330
15A
100
AcDbEntity
  8
0
  6
Continuous
 62
     7
370
    25
100
AcDbLine
 10
-842.5
 20
337.5
 30
0.0
 11
-842.5
 21
-337.5
 31
0.0
  0
LINE
  5
1D2
330
15A
100
AcDbEntity
  8
0
  6
Continuous
 62
     7
370
    25
100
AcDbLine
 10
-842.5
 20
-337.5
 30
0.0
 11
-847.5
 21
-337.5
 31
0.0
  0
LINE
  5
1D3
330
15A
100
AcDbEntity
  8
0
  6
Continuous
 62
     7
370
    25
100
AcDbLine
 10
-842.5
 20
337.5
 30
0.0
 11
-847.5
 21
337.5
 31
0.0
  0
LINE
  5
1D4
330
15A
100
AcDbEntity
  8
0
  6
Continuous
 62
     7
370
    25
100
AcDbLine
 10
837.5
 20
342.5
 30
0.0
 11
-837.5
 21
342.5
 31
0.0
  0
LINE
  5
1D5
330
15A
100
AcDbEntity
  8
0
  6
Continuous
 62
     7
370
    25
100
AcDbLine
 10
-837.5
 20
342.5
 30
0.0
 11
-837.5
 21
347.5
 31
0.0
  0
LINE
  5
1D6
330
15A
100
AcDbEntity
  8
0
  6
Continuous
 62
     7
370
    25
100
AcDbLine
 10
837.5
 20
342.5
 30
0.0
 11
837.5
 21
347.5
 31
0.0
  0
LINE
  5
1D7
330
15A
100
AcDbEntity
  8
0
  6
Continuous
 62
     7
370
    25
100
AcDbLine
 10
847.5
 20
337.5
 30
0.0
 11
842.5
 21
337.5
 31
0.0
  0
LINE
  5
1D8
330
15A
100
AcDbEntity
  8
0
  6
Continuous
 62
     7
370
    25
100
AcDbLine
 10
837.5
 20
-347.5
 30
0.0
 11
837.5
 21
-342.5
 31
0.0
  0
LINE
  5
1D9
330
15A
100
AcDbEntity
  8
0
  6
Continuous
 62
     7
370
    25
100
AcDbLine
 10
847.5
 20
-337.5
 30
0.0
 11
842.5
 21
-337.5
 31
0.0
  0
LINE
  5
1DA
330
15A
100
AcDbEntity
  8
0
  6
Continuous
 62
     7
370
    25
100
AcDbLine
 10
-837.5
 20
-347.5
 30
0.0
 11
-837.5
 21
-342.5
 31
0.0
  0
LINE
  5
1DB
330
15A
100
AcDbEntity
  8
0
  6
Continuous
 62
     7
370
    25
100
AcDbLine
 10
-837.5
 20
-342.5
 30
0.0
 11
837.5
 21
-342.5
 31
0.0
  0
LINE
  5
1DC
330
15A
100
AcDbEntity
  8
0
  6
Continuous
 62
     7
370
    25
100
AcDbLine
 10
842.5
 20
-337.5
 30
0.0
 11
842.5
 21
337.5
 31
0.0
  0
LINE
  5
1DD
330
15A
100
AcDbEntity
  8
0
  6
Continuous
 62
     7
370
    25
100
AcDbLine
 10
-751.1323879688
 20
221.7168959286
 30
0.0
 11
-755.4739376055
 21
221.7168959286
 31
0.0
  0
LINE
  5
1DE
330
15A
100
AcDbEntity
  8
0
  6
Continuous
 62
     7
370
    25
100
AcDbLine
 10
-696.335899654
 20
268.577805804
 30
0.0
 11
-696.335899654
 21
273.5328567763
 31
0.0
  0
LINE
  5
1DF
330
15A
100
AcDbEntity
  8
0
  6
Continuous
 62
     7
370
    25
100
AcDbLine
 10
-696.335899654
 20
273.5328567763
 30
0.0
 11
696.335899654
 21
273.5328567763
 31
0.0
  0
LINE
  5
1E0
330
15A
100
AcDbEntity
  8
0
  6
Continuous
 62
     7
370
    25
100
AcDbLine
 10
696.335899654
 20
268.577805804
 30
0.0
 11
696.335899654
 21
273.5328567763
 31
0.0
  0
LINE
  5
1E1
330
15A
100
AcDbEntity
  8
0
  6
Continuous
 62
     7
370
    25
100
AcDbLine
 10
696.335899654
 20
-273.5328567763
 30
0.0
 11
696.335899654
 21
-268.577805804
 31
0.0
  0
LINE
  5
1E2
330
15A
100
AcDbEntity
  8
0
  6
Continuous
 62
     7
370
    25
100
AcDbLine
 10
755.4739376055
 20
-221.7168959286
 30
0.0
 11
751.1323879688
 21
-221.7168959286
 31
0.0
  0
LINE
  5
1E3
330
15A
100
AcDbEntity
  8
0
  6
Continuous
 62
     7
370
    25
100
AcDbLine
 10
696.335899654
 20
-273.5328567763
 30
0.0
 11
-696.335899654
 21
-273.5328567763
 31
0.0
  0
LINE
  5
1E4
330
15A
100
AcDbEntity
  8
0
  6
Continuous
 62
     7
370
    25
100
AcDbLine
 10
-696.335899654
 20
-273.5328567763
 30
0.0
 11
-696.335899654
 21
-268.577805804
 31
0.0
  0
LINE
  5
1E5
330
15A
100
AcDbEntity
  8
0
  6
Continuous
 62
     7
370
    25
100
AcDbLine
 10
755.4739376055
 20
221.7168959286
 30
0.0
 11
751.1323879688
 21
221.7168959286
 31
0.0
  0
LINE
  5
1E6
330
15A
100
AcDbEntity
  8
0
  6
Continuous
 62
     7
370
    25
100
AcDbLine
 10
-751.1323879688
 20
-221.7168959286
 30
0.0
 11
-755.4739376055
 21
-221.7168959286
 31
0.0
  0
LINE
  5
1E7
330
15A
100
AcDbEntity
  8
0
  6
Continuous
 62
     7
370
    25
100
AcDbLine
 10
755.4739376055
 20
221.7168959286
 30
0.0
 11
755.4739376055
 21
-221.7168959286
 31
0.0
  0
LINE
  5
1E8
330
15A
100
AcDbEntity
  8
0
  6
Continuous
 62
     7
370
    25
100
AcDbLine
 10
-755.4739376055
 20
-221.7168959286
 30
0.0
 11
-755.4739376055
 21
221.7168959286
 31
0.0
  0
ARC
  5
1E9
330
15A
100
AcDbEntity
  8
0
  6
Continuous
 62
     7
370
    25
100
AcDbCircle
 10
-837.5
 20
337.5
 30
0.0
 40
10.00000000000006
100
AcDbArc
 50
90.0
 51
180.0
  0
ARC
  5
1EA
330
15A
100
AcDbEntity
  8
0
  6
Continuous
 62
     7
370
    25
100
AcDbCircle
 10
837.5
 20
-337.5
 30
0.0
 40
10.00000000000006
100
AcDbArc
 50
270.0
 51
0.0
  0
ARC
  5
1EB
330
15A
100
AcDbEntity
  8
0
  6
Continuous
 62
     7
370
    25
100
AcDbCircle
 10
840.0
 20
340.0
 30
0.0
 40
10.00000000000034
100
AcDbArc
 50
0.0
 51
90.0
  0
ARC
  5
1EC
330
15A
100
AcDbEntity
  8
0
  6
Continuous
 62
     7
370
    25
100
AcDbCircle
 10
840.0
 20
-340.0
 30
0.0
 40
10.00000000000034
100
AcDbArc
 50
270.0
 51
0.0
  0
ARC
  5
1ED
330
15A
100
AcDbEntity
  8
0
  6
Continuous
 62
     7
370
    25
100
AcDbCircle
 10
837.5
 20
337.5
 30
0.0
 40
10.00000000000011
100
AcDbArc
 50
0.0
 51
90.0
  0
ARC
  5
1EE
330
15A
100
AcDbEntity
  8
0
  6
Continuous
 62
     7
370
    25
100
AcDbCircle
 10
-840.0
 20
340.0
 30
0.0
 40
10.00000000000034
100
AcDbArc
 50
90.0
 51
180.0
  0
ARC
  5
1EF
330
15A
100
AcDbEntity
  8
0
  6
Continuous
 62
     7
370
    25
100
AcDbCircle
 10
-840.0
 20
-340.0
 30
0.0
 40
10.00000000000034
100
AcDbArc
 50
180.0
 51
270.0
  0
ARC
  5
1F0
330
15A
100
AcDbEntity
  8
0
  6
Continuous
 62
     7
370
    25
100
AcDbCircle
 10
-837.5
 20
-337.5
 30
0.0
 40
10.00000000000011
100
AcDbArc
 50
180.0
 51
270.0
  0
ARC
  5
1F1
330
15A
100
AcDbEntity
  8
0
  6
Continuous
 62
     7
370
    25
100
AcDbCircle
 10
837.5
 20
337.5
 30
0.0
 40
4.999999999999886
100
AcDbArc
 50
0.0
 51
90.0
  0
ARC
  5
1F2
330
15A
100
AcDbEntity
  8
0
  6
Continuous
 62
     7
370
    25
100
AcDbCircle
 10
837.5
 20
-337.5
 30
0.0
 40
5.0
100
AcDbArc
 50
270.0
 51
0.0
  0
ARC
  5
1F3
330
15A
100
AcDbEntity
  8
0
  6
Continuous
 62
     7
370
    25
100
AcDbCircle
 10
-837.5
 20
-337.5
 30
0.0
 40
4.999999999999886
100
AcDbArc
 50
180.0
 51
270.0
  0
ARC
  5
1F4
330
15A
100
AcDbEntity
  8
0
  6
Continuous
 62
     7
370
    25
100
AcDbCircle
 10
-837.5
 20
337.5
 30
0.0
 40
5.0
100
AcDbArc
 50
90.0
 51
180.0
  0
VIEWPORT
  5
2A4
330
15A
100
AcDbEntity
  8
0
100
AcDbViewport
 10
0.0
 20
0.0
 30
0.0
 40
205.6
 41
156.0
 68
     1
 69
     1
 12
0.0
 22
0.0
 13
0.0
 23
0.0
 14
10.0
 24
10.0
 15
10.0
 25
10.0
 16
0.0
 26
0.0
 36
1.0
 17
0.0
 27
0.0
 37
0.0
 42
50.0
 43
0.0
 44
0.0
 45
1315.6809338521
 50
0.0
 51
0.0
 72
   100
 90
   557152
  1

281
     0
 71
     1
 74
     0
110
0.0
120
0.0
130
0.0
111
1.0
121
0.0
131
0.0
112
0.0
122
1.0
132
0.0
 79
     0
146
0.0
  0
ENDBLK
  5
15D
330
15A
100
AcDbEntity
  8
0
100
AcDbBlockEnd
  0
BLOCK
  5
1F7
330
1F5
100
AcDbEntity
  8
0
100
AcDbBlockBegin
  2
*Paper_Space2
 70
     0
 10
0.0
 20
0.0
 30
0.0
  3
*Paper_Space2
  1

  0
SPLINE
  5
1F9
330
1F5
100
AcDbEntity
  8
0
  6
Continuous
 62
     7
370
    25
100
AcDbSpline
210
0.0
220
0.0
230
1.0
 70
     8
 71
     3
 72
    28
 73
    24
 74
     0
 42
0.000000001
 43
0.00000001
 40
0.0
 40
0.0
 40
0.0
 40
0.0
 40
0.0136388761051543
 40
0.0720346903068501
 40
0.1225247242037012
 40
0.1673434357980999
 40
0.2101617621296134
 40
0.2554377520690744
 40
0.3064884372444829
 40
0.3580232879026858
 40
0.4098523054092354
 40
0.4617067381937665
 40
0.5132914766131158
 40
0.5646907211454301
 40
0.6164217976220175
 40
0.6685175407223107
 40
0.7208096962529378
 40
0.7730906778701843
 40
0.8179964438304027
 40
0.8600170812937512
 40
0.9038803580516392
 40
0.9551423341267764
 40
1.0
 40
1.0
 40
1.0
 40
1.0
 10
375.6971528284393
 20
-364.569396676821
 30
0.0
 10
375.4548436907281
 20
-364.703717449547
 30
0.0
 10
374.1750708150919
 20
-365.4131421257808
 30
0.0
 10
371.8925896812196
 20
-366.529496346307
 30
0.0
 10
368.9068135497901
 20
-367.8434433881085
 30
0.0
 10
366.0669296971694
 20
-368.8968785872776
 30
0.0
 10
363.1709725318878
 20
-369.7783743798928
 30
0.0
 10
360.0254317303806
 20
-370.5868869562929
 30
0.0
 10
356.5716878910061
 20
-371.3024688463621
 30
0.0
 10
352.8674727844367
 20
-371.8879557024297
 30
0.0
 10
349.0702196770415
 20
-372.3081891198319
 30
0.0
 10
345.2226556736463
 20
-372.556080435207
 30
0.0
 10
341.3620046681118
 20
-372.6268743466624
 30
0.0
 10
337.5071943354206
 20
-372.5210989262767
 30
0.0
 10
333.6677007378734
 20
-372.2421414034385
 30
0.0
 10
329.8594463158378
 20
-371.7901972475316
 30
0.0
 10
326.11529852223
 20
-371.1684101048177
 30
0.0
 10
322.6438325820764
 20
-370.4176556803998
 30
0.0
 10
319.5089128065408
 20
-369.5900779911023
 30
0.0
 10
316.6963862574891
 20
-368.6967714552125
 30
0.0
 10
313.8920979577895
 20
-367.629733022913
 30
0.0
 10
311.1592778656
 20
-366.4402625348618
 30
0.0
 10
309.3890855974062
 20
-365.5430932987406
 30
0.0
 10
308.5629621153745
 20
-365.1243972132175
 30
0.0
  0
SPLINE
  5
1FA
330
1F5
100
AcDbEntity
  8
0
  6
Continuous
 62
     7
370
    25
100
AcDbSpline
210
0.0
220
0.0
230
1.0
 70
     8
 71
     3
 72
    22
 73
    18
 74
     0
 42
0.000000001
 43
0.00000001
 40
0.0
 40
0.0
 40
0.0
 40
0.0
 40
0.0030297927383813
 40
0.0069655456155515
 40
0.0126382445119666
 40
0.0185183679869745
 40
0.0272034480013828
 40
0.0358885280157909
 40
0.5364863414733401
 40
0.7867852482021146
 40
0.911934701566502
 40
0.9745094282486958
 40
0.9845164423959316
 40
0.9911435090251702
 40
0.9950319756052437
 40
0.9982595662274709
 40
1.0
 40
1.0
 40
1.0
 40
1.0
 10
308.4281590066558
 20
-365.2091348730397
 30
0.0
 10
307.3931298928071
 20
-364.6685031519984
 30
0.0
 10
305.013580158396
 20
-363.4255815268914
 30
0.0
 10
300.9115961060661
 20
-361.0034405085874
 30
0.0
 10
295.845098999374
 20
-357.9537082062201
 30
0.0
 10
289.0947417085989
 20
-354.0961086158047
 30
0.0
 10
281.3904840566128
 20
-349.6335984168129
 30
0.0
 10
109.4166350704835
 20
-250.4226718212192
 30
0.0
 10
-142.5947382183157
 20
-104.84279757289
 30
0.0
 10
-433.4467117576157
 20
63.00455426280053
 30
0.0
 10
-578.7269409834374
 20
146.9320111949497
 30
0.0
 10
-644.483717709064
 20
184.819272208178
 30
0.0
 10
-670.6728919310211
 20
199.9953138199394
 30
0.0
 10
-677.5794237188213
 20
203.928277029948
 30
0.0
 10
-682.1999289691471
 20
206.4995007895165
 30
0.0
 10
-685.0902577031653
 20
208.1840422337798
 30
0.0
 10
-686.5770337820746
 20
209.1653619373733
 30
0.0
 10
-687.0978917920824
 20
209.5091448615442
 30
0.0
  0
SPLINE
  5
1FB
330
1F5
100
AcDbEntity
  8
0
  6
Continuous
 62
     7
370
    25
100
AcDbSpline
210
0.0
220
0.0
230
1.0
 70
     8
 71
     3
 72
    20
 73
    16
 74
     0
 42
0.000000001
 43
0.00000001
 40
0.0
 40
0.0
 40
0.0
 40
0.0
 40
0.002926363384986
 40
0.0103409190629512
 40
0.0290973439704742
 40
0.0511072418966945
 40
0.0864061382167098
 40
0.1262970839058442
 40
0.6012911038713303
 40
0.838788113854074
 40
0.89816236634976
 40
0.9413497889203926
 40
0.9690315310492754
 40
0.9890024453307298
 40
1.0
 40
1.0
 40
1.0
 40
1.0
 10
686.113447251843
 20
-185.4689679575862
 30
0.0
 10
685.8262134376326
 20
-185.6478243532184
 30
0.0
 10
684.8112124845276
 20
-186.2798509568225
 30
0.0
 10
681.8728571913202
 20
-188.038502856711
 30
0.0
 10
676.9200998248914
 20
-190.9053494449142
 30
0.0
 10
668.9258765337075
 20
-195.3756689536012
 30
0.0
 10
658.8486219914253
 20
-201.1957951609895
 30
0.0
 10
601.9417941556451
 20
-234.0435291950276
 30
0.0
 10
524.0845074392853
 20
-279.0128152053134
 30
0.0
 10
444.1743109063728
 20
-325.1010840494577
 30
0.0
 10
409.0280567587845
 20
-345.4303163778261
 30
0.0
 10
395.4916884976087
 20
-353.1888129483481
 30
0.0
 10
386.224897136563
 20
-358.7038856333267
 30
0.0
 10
380.2085256636934
 20
-362.2066639612738
 30
0.0
 10
376.9361486930567
 20
-363.9891399537035
 30
0.0
 10
375.7740588044575
 20
-364.622134668573
 30
0.0
  0
SPLINE
  5
1FD
330
1F5
100
AcDbEntity
  8
0
  6
Continuous
 62
     7
370
    25
100
AcDbSpline
210
0.0
220
0.0
230
1.0
 70
     8
 71
     3
 72
    12
 73
     8
 74
     0
 42
0.000000001
 43
0.00000001
 40
0.0
 40
0.0
 40
0.0
 40
0.0
 40
0.1946612388885649
 40
0.3780184816276065
 40
0.5732421526587528
 40
0.785121464043677
 40
1.0
 40
1.0
 40
1.0
 40
1.0
 10
694.8311566134867
 20
-178.2333744058064
 30
0.0
 10
694.4230677145857
 20
-178.7297535095723
 30
0.0
 10
693.6305876768934
 20
-179.6936869366302
 30
0.0
 10
692.1700872689597
 20
-181.0705903847311
 30
0.0
 10
690.4137739866902
 20
-182.4985843816324
 30
0.0
 10
688.3613160619087
 20
-183.9648235229567
 30
0.0
 10
686.8146899392901
 20
-184.9395747972872
 30
0.0
 10
686.0359420873864
 20
-185.4303756766493
 30
0.0
  0
SPLINE
  5
1FE
330
1F5
100
AcDbEntity
  8
0
  6
Continuous
 62
     7
370
    25
100
AcDbSpline
210
0.0
220
0.0
230
1.0
 70
     8
 71
     3
 72
    14
 73
    10
 74
     0
 42
0.000000001
 43
0.00000001
 40
0.0
 40
0.0
 40
0.0
 40
0.0
 40
0.0595065508252338
 40
0.2415618370359006
 40
0.4183980312669608
 40
0.5942268603470122
 40
0.7734257129138049
 40
0.9746462148907121
 40
1.0
 40
1.0
 40
1.0
 40
1.0
 10
844.3497606864012
 20
-175.5177879432733
 30
0.0
 10
844.3599712191682
 20
-175.3614627659511
 30
0.0
 10
844.4014200179665
 20
-174.7268738595997
 30
0.0
 10
844.1518298982326
 20
-173.6359384366602
 30
0.0
 10
843.6366806484117
 20
-172.331328700638
 30
0.0
 10
842.8641510947788
 20
-171.1656473684841
 30
0.0
 10
841.8567388203852
 20
-170.1165645218251
 30
0.0
 10
840.9941202015292
 20
-169.4876077214696
 30
0.0
 10
840.4789773059218
 20
-169.1856267788149
 30
0.0
 10
840.4213325376483
 20
-169.1518349482166
 30
0.0
  0
SPLINE
  5
206
330
1F5
100
AcDbEntity
  8
0
  6
Continuous
 62
     7
370
    25
100
AcDbSpline
210
0.0
220
0.0
230
1.0
 70
     8
 71
     3
 72
    14
 73
    10
 74
     0
 42
0.000000001
 43
0.00000001
 40
0.0
 40
0.0
 40
0.0
 40
0.0
 40
0.0002092857482482
 40
0.1557449416205347
 40
0.3185241769976917
 40
0.4903543563383906
 40
0.6608853885805215
 40
0.8309438738213296
 40
1.0
 40
1.0
 40
1.0
 40
1.0
 10
-687.1216249114884
 20
209.5231314551494
 30
0.0
 10
-687.1226774363453
 20
209.5237733606314
 30
0.0
 10
-687.9059387132259
 20
210.0014625136154
 30
0.0
 10
-689.3244137150976
 20
211.0118418774583
 30
0.0
 10
-691.3737064083573
 20
212.6242356283568
 30
0.0
 10
-693.2079221673401
 20
214.3454064335762
 30
0.0
 10
-694.7887002912045
 20
216.1235664389463
 30
0.0
 10
-696.0980279428356
 20
217.9123413034364
 30
0.0
 10
-696.7360544652095
 20
219.102041723781
 30
0.0
 10
-697.0541247831479
 20
219.6951336685212
 30
0.0
  0
SPLINE
  5
207
330
1F5
100
AcDbEntity
  8
0
  6
Continuous
 62
     7
370
    25
100
AcDbSpline
210
0.0
220
0.0
230
1.0
 70
     8
 71
     3
 72
    13
 73
     9
 74
     0
 42
0.000000001
 43
0.00000001
 40
0.0
 40
0.0
 40
0.0
 40
0.0
 40
0.1426878443373301
 40
0.3341809419155269
 40
0.5170925591203653
 40
0.6947613883255864
 40
0.8697417318123691
 40
1.0
 40
1.0
 40
1.0
 40
1.0
 10
-840.4213325376484
 20
239.0522209631396
 30
0.0
 10
-840.7403188938983
 20
238.8531855093625
 30
0.0
 10
-841.4873983769813
 20
238.3870360925936
 30
0.0
 10
-842.4908485835667
 20
237.4732494182192
 30
0.0
 10
-843.3766324806885
 20
236.3260749654292
 30
0.0
 10
-843.9924593700952
 20
235.0601631583431
 30
0.0
 10
-844.3477395691955
 20
233.8254361885492
 30
0.0
 10
-844.3491561649013
 20
233.0195504269476
 30
0.0
 10
-844.349760686401
 20
232.6756447752759
 30
0.0
  0
SPLINE
  5
20B
330
1F5
100
AcDbEntity
  8
0
  6
Continuous
 62
     7
370
    25
100
AcDbSpline
210
0.0
220
0.0
230
1.0
 70
     8
 71
     3
 72
    15
 73
    11
 74
     0
 42
0.000000001
 43
0.00000001
 40
0.0
 40
0.0
 40
0.0
 40
0.0
 40
0.0887664974608093
 40
0.2247630151325307
 40
0.3624982301134583
 40
0.5009676009658357
 40
0.6405286873127934
 40
0.7826285570224848
 40
0.9291492426356612
 40
0.9999999999999999
 40
0.9999999999999999
 40
0.9999999999999999
 40
0.9999999999999999
 10
-347.5180598557495
 20
516.6309789828601
 30
0.0
 10
-347.8366779423607
 20
516.8011764336915
 30
0.0
 10
-348.6434413482738
 20
517.2321283503607
 30
0.0
 10
-350.0717375232116
 20
517.724629586739
 30
0.0
 10
-351.7854646107619
 20
518.0709769593146
 30
0.0
 10
-353.5703483972637
 20
518.1849512450283
 30
0.0
 10
-355.3735609601268
 20
518.0655478791028
 30
0.0
 10
-357.1513098791873
 20
517.6972263129202
 30
0.0
 10
-358.5585388765357
 20
517.1893983937446
 30
0.0
 10
-359.3354819653988
 20
516.7682495960925
 30
0.0
 10
-359.5887213307954
 20
516.63097898286
 30
0.0
  0
SPLINE
  5
21E
330
1F5
100
AcDbEntity
  8
0
  6
Continuous
 62
     7
370
    25
100
AcDbSpline
210
0.0
220
0.0
230
1.0
 70
     8
 71
     3
 72
    38
 73
    34
 74
     0
 42
0.000000001
 43
0.00000001
 40
0.0
 40
0.0
 40
0.0
 40
0.0
 40
0.1249999999999977
 40
0.1249999999999977
 40
0.156249999999997
 40
0.156249999999997
 40
0.1874999999999963
 40
0.1874999999999963
 40
0.2499999999999949
 40
0.2499999999999949
 40
0.3124999999999934
 40
0.3124999999999934
 40
0.3437499999999915
 40
0.3437499999999915
 40
0.3749999999999894
 40
0.3749999999999894
 40
0.4999999999999849
 40
0.4999999999999849
 40
0.5624999999999849
 40
0.5624999999999849
 40
0.5937499999999848
 40
0.5937499999999848
 40
0.6249999999999839
 40
0.6249999999999839
 40
0.7499999999999828
 40
0.7499999999999828
 40
0.781249999999984
 40
0.781249999999984
 40
0.8124999999999851
 40
0.8124999999999851
 40
0.8749999999999899
 40
0.8749999999999899
 40
1.0
 40
1.0
 40
1.0
 40
1.0
 10
-689.816209467608
 20
209.3946100074408
 30
0.0
 10
-692.0534760890528
 20
210.8242177835783
 30
0.0
 10
-694.04110405641
 20
212.3592413697453
 30
0.0
 10
-696.2149465534621
 20
214.4092180730392
 30
0.0
 10
-696.6344603591381
 20
214.8263777692524
 30
0.0
 10
-697.4350998476301
 20
215.6672363568006
 30
0.0
 10
-697.8170770796229
 20
216.091680404968
 30
0.0
 10
-698.908952316294
 20
217.3768442661135
 30
0.0
 10
-699.5647078010314
 20
218.2494146324288
 30
0.0
 10
-700.7341556168032
 20
220.025649724578
 30
0.0
 10
-701.2479265617922
 20
220.9292972436236
 30
0.0
 10
-701.9091185660598
 20
222.3087277665866
 30
0.0
 10
-702.1112634571889
 20
222.7725329813486
 30
0.0
 10
-702.4784354878689
 20
223.7082676336704
 30
0.0
 10
-702.6437625489028
 20
224.1813633025968
 30
0.0
 10
-703.3697000793319
 20
226.54551179863
 30
0.0
 10
-703.6350441964988
 20
228.442094709812
 30
0.0
 10
-703.5696647788512
 20
231.2947031340008
 30
0.0
 10
-703.470363747642
 20
232.2468662129324
 30
0.0
 10
-703.20106313519
 20
233.67711945333
 30
0.0
 10
-703.0908267316674
 20
234.1554836368165
 30
0.0
 10
-702.8317142431883
 20
235.1046652476099
 30
0.0
 10
-702.6829329411066
 20
235.5757394249877
 30
0.0
 10
-701.8449066568817
 20
237.9138940186178
 30
0.0
 10
-700.8737040827817
 20
239.7293990390426
 30
0.0
 10
-699.286843718585
 20
241.9305776647065
 30
0.0
 10
-698.9506600729976
 20
242.3673723960929
 30
0.0
 10
-698.239736584964
 20
243.2339091985675
 30
0.0
 10
-697.8639419874812
 20
243.6647516619556
 30
0.0
 10
-696.6864044003079
 20
244.9368159597336
 30
0.0
 10
-695.8354773866567
 20
245.757302859534
 30
0.0
 10
-693.0930165125786
 20
248.1394516345285
 30
0.0
 10
-691.0111437960888
 20
249.6215260242464
 30
0.0
 10
-688.6672129441179
 20
250.9940245318619
 30
0.0
  0
SPLINE
  5
21F
330
1F5
100
AcDbEntity
  8
0
  6
Continuous
 62
     7
370
    25
100
AcDbSpline
210
0.0
220
0.0
230
1.0
 70
     8
 71
     3
 72
    27
 73
    23
 74
     0
 42
0.000000001
 43
0.00000001
 40
0.0
 40
0.0
 40
0.0
 40
0.0
 40
0.0019531250000001
 40
0.0019531250000001
 40
0.0039062500000002
 40
0.0078125000000002
 40
0.0156250000000002
 40
0.0312500000000002
 40
0.0625000000000002
 40
0.1250000000000002
 40
0.2500000000000002
 40
0.5000000000000002
 40
0.7500000000000002
 40
0.8750000000000002
 40
0.9375000000000002
 40
0.9687500000000002
 40
0.9843750000000002
 40
0.9921875000000002
 40
0.9960937500000002
 40
0.9980468750000001
 40
0.9980468750000001
 40
1.0
 40
1.0
 40
1.0
 40
1.0
 10
306.1436677633197
 20
-365.5607888481479
 30
0.0
 10
305.4623801433228
 20
-365.20547186545
 30
0.0
 10
304.7979261629839
 20
-364.8404247843768
 30
0.0
 10
303.5011033602155
 20
-364.0917849155862
 30
0.0
 10
301.5558691560637
 20
-362.9688251124012
 30
0.0
 10
297.0169893463756
 20
-360.3485855716349
 30
0.0
 10
287.9392297269993
 20
-355.1081064901025
 30
0.0
 10
269.7837104882459
 20
-344.6271483270376
 30
0.0
 10
233.4726720107403
 20
-323.6652320009082
 30
0.0
 10
160.8505950557287
 20
-281.7413993486492
 30
0.0
 10
15.60644114570558
 20
-197.8937340441313
 30
0.0
 10
-191.8852072971841
 20
-78.11135503767707
 30
0.0
 10
-399.3768557400746
 20
41.67102396877706
 30
0.0
 10
-544.6210096500976
 20
125.518689273295
 30
0.0
 10
-617.2430866051093
 20
167.442521925554
 30
0.0
 10
-653.5541250826144
 20
188.404438251683
 30
0.0
 10
-671.7096443213682
 20
198.8853964147482
 30
0.0
 10
-680.7874039407444
 20
204.1258754962807
 30
0.0
 10
-685.326283750432
 20
206.7461150370463
 30
0.0
 10
-687.2715179545845
 20
207.8690748402322
 30
0.0
 10
-688.5683407573528
 20
208.6177147090226
 30
0.0
 10
-689.200698903464
 20
209.001300296224
 30
0.0
 10
-689.816209467608
 20
209.3946100074408
 30
0.0
  0
SPLINE
  5
220
330
1F5
100
AcDbEntity
  8
0
  6
Continuous
 62
     7
370
    25
100
AcDbSpline
210
0.0
220
0.0
230
1.0
 70
     8
 71
     3
 72
    36
 73
    32
 74
     0
 42
0.000000001
 43
0.00000001
 40
0.0
 40
0.0
 40
0.0
 40
0.0
 40
0.1250000000000016
 40
0.1250000000000016
 40
0.1875000000000029
 40
0.1875000000000029
 40
0.2500000000000042
 40
0.2500000000000042
 40
0.3125000000000056
 40
0.3125000000000056
 40
0.3437500000000048
 40
0.3437500000000048
 40
0.375000000000004
 40
0.375000000000004
 40
0.5000000000000069
 40
0.5000000000000069
 40
0.5625000000000068
 40
0.5625000000000068
 40
0.5937500000000074
 40
0.5937500000000074
 40
0.625000000000008
 40
0.625000000000008
 40
0.7500000000000097
 40
0.7500000000000097
 40
0.7812500000000098
 40
0.7812500000000098
 40
0.8125000000000098
 40
0.8125000000000098
 40
0.8750000000000053
 40
0.8750000000000053
 40
1.0
 40
1.0
 40
1.0
 40
1.0
 10
378.2037751464796
 20
-364.8974872734122
 30
0.0
 10
375.8259438826207
 20
-366.2508012721875
 30
0.0
 10
373.245929142307
 20
-367.4597708965585
 30
0.0
 10
369.0732899626407
 20
-369.0571786397699
 30
0.0
 10
367.6471511245739
 20
-369.5478458353827
 30
0.0
 10
364.7340045760993
 20
-370.4440879333796
 30
0.0
 10
363.2456091944617
 20
-370.8501526379373
 30
0.0
 10
360.2063308359322
 20
-371.5796979555548
 30
0.0
 10
358.6556319581417
 20
-371.9034218754164
 30
0.0
 10
356.2816879865684
 20
-372.325708485498
 30
0.0
 10
355.4823786836911
 20
-372.455904902991
 30
0.0
 10
353.8674655811584
 20
-372.6947628044043
 30
0.0
 10
353.0543200095689
 20
-372.8030018114345
 30
0.0
 10
348.9904591676676
 20
-373.2853395695138
 30
0.0
 10
345.7169713882274
 20
-373.4883862122142
 30
0.0
 10
340.7739763530578
 20
-373.5255385678916
 30
0.0
 10
339.1208367338799
 20
-373.4932384366115
 30
0.0
 10
336.6326404728365
 20
-373.3755179336584
 30
0.0
 10
335.8011570970651
 20
-373.3246009613022
 30
0.0
 10
334.1533448905467
 20
-373.2008027941208
 30
0.0
 10
333.3347783595391
 20
-373.1278448161746
 30
0.0
 10
329.2679933302049
 20
-372.7091071704632
 30
0.0
 10
326.0978469719174
 20
-372.2016307397126
 30
0.0
 10
322.2380529877994
 20
-371.3541898208271
 30
0.0
 10
321.4712509405029
 20
-371.1740213904777
 30
0.0
 10
319.9481810131713
 20
-370.7918670063177
 30
0.0
 10
319.190060346018
 20
-370.5893375202814
 30
0.0
 10
316.9477406661143
 20
-369.9529730479658
 30
0.0
 10
315.4965433196315
 20
-369.4909751911849
 30
0.0
 10
311.2701707492175
 20
-367.9950254194972
 30
0.0
 10
308.6205361178912
 20
-366.8525683616086
 30
0.0
 10
306.1436677633197
 20
-365.5607888481479
 30
0.0
  0
SPLINE
  5
221
330
1F5
100
AcDbEntity
  8
0
  6
Continuous
 62
     7
370
    25
100
AcDbSpline
210
0.0
220
0.0
230
1.0
 70
     8
 71
     3
 72
    25
 73
    21
 74
     0
 42
0.000000001
 43
0.00000001
 40
0.0
 40
0.0
 40
0.0
 40
0.0
 40
0.00390625
 40
0.00390625
 40
0.0078125000000001
 40
0.0156250000000001
 40
0.0312500000000001
 40
0.0625000000000001
 40
0.1250000000000002
 40
0.2500000000000002
 40
0.5000000000000002
 40
0.7500000000000002
 40
0.8750000000000001
 40
0.9375000000000002
 40
0.9687500000000003
 40
0.9843750000000003
 40
0.9921875000000001
 40
0.9960937500000001
 40
0.9960937500000001
 40
1.0
 40
1.0
 40
1.0
 40
1.0
 10
688.6672129441316
 20
-185.6707595809942
 30
0.0
 10
688.2658374522413
 20
-185.905786677954
 30
0.0
 10
687.8596477925106
 20
-186.1380346714573
 30
0.0
 10
687.0511492565024
 20
-186.6047709415338
 30
0.0
 10
685.8384014524905
 20
-187.3048753466485
 30
0.0
 10
683.0086565764628
 20
-188.9384522919166
 30
0.0
 10
677.3491668244066
 20
-192.2056061824524
 30
0.0
 10
666.0301873202955
 20
-198.7399139635245
 30
0.0
 10
643.3922283120723
 20
-211.8085295256674
 30
0.0
 10
598.1163102956251
 20
-237.9457606499544
 30
0.0
 10
533.4364274149884
 20
-275.2846622560793
 30
0.0
 10
468.7565445343499
 20
-312.6235638622028
 30
0.0
 10
423.4806265179034
 20
-338.7607949864898
 30
0.0
 10
400.8426675096799
 20
-351.8294105486332
 30
0.0
 10
389.5236880055686
 20
-358.3637183297049
 30
0.0
 10
383.8641982535127
 20
-361.6308722202407
 30
0.0
 10
381.0344533774846
 20
-363.2644491655088
 30
0.0
 10
379.821705573473
 20
-363.9645535706235
 30
0.0
 10
379.0132070374647
 20
-364.4312898406998
 30
0.0
 10
378.6108980998191
 20
-364.6657781524364
 30
0.0
 10
378.2037751464795
 20
-364.8974872734122
 30
0.0
  0
SPLINE
  5
222
330
1F5
100
AcDbEntity
  8
0
  6
Continuous
 62
     7
370
    25
100
AcDbSpline
210
0.0
220
0.0
230
1.0
 70
     8
 71
     3
 72
    38
 73
    34
 74
     0
 42
0.000000001
 43
0.00000001
 40
0.0
 40
0.0
 40
0.0
 40
0.0
 40
0.1249999999999877
 40
0.1249999999999877
 40
0.1562499999999848
 40
0.1562499999999848
 40
0.1874999999999818
 40
0.1874999999999818
 40
0.2499999999999799
 40
0.2499999999999799
 40
0.312499999999978
 40
0.312499999999978
 40
0.343749999999977
 40
0.343749999999977
 40
0.3749999999999761
 40
0.3749999999999761
 40
0.4999999999999791
 40
0.4999999999999791
 40
0.5624999999999792
 40
0.5624999999999792
 40
0.59374999999998
 40
0.59374999999998
 40
0.6249999999999817
 40
0.6249999999999817
 40
0.7499999999999876
 40
0.7499999999999876
 40
0.7812499999999897
 40
0.7812499999999897
 40
0.8124999999999919
 40
0.8124999999999919
 40
0.8749999999999948
 40
0.8749999999999948
 40
1.0
 40
1.0
 40
1.0
 40
1.0
 10
689.8162094596083
 20
-144.0713450514689
 30
0.0
 10
692.0534760819403
 20
-145.5009528275345
 30
0.0
 10
694.0411040501244
 20
-147.03597641368
 30
0.0
 10
696.2149465481594
 20
-149.0859531169982
 30
0.0
 10
696.6344603540447
 20
-149.5031128132324
 30
0.0
 10
697.4350998429557
 20
-150.3439714008418
 30
0.0
 10
697.8170770751508
 20
-150.7684154490416
 30
0.0
 10
698.9089523124095
 20
-152.0535793102873
 30
0.0
 10
699.5647077975156
 20
-152.9261496766745
 30
0.0
 10
700.7341556139768
 20
-154.7023847689783
 30
0.0
 10
701.2479265592924
 20
-155.6060322881056
 30
0.0
 10
701.9091185640226
 20
-156.9854628111965
 30
0.0
 10
702.1112634553017
 20
-157.4492680260018
 30
0.0
 10
702.4784354862718
 20
-158.385002678413
 30
0.0
 10
702.6437625474498
 20
-158.8580983473919
 30
0.0
 10
703.3697000785845
 20
-161.2222468437708
 30
0.0
 10
703.6350441962101
 20
-163.1188297552309
 30
0.0
 10
703.5696647791144
 20
-165.9714381798392
 30
0.0
 10
703.4703637480685
 20
-166.923601258911
 30
0.0
 10
703.2010631358311
 20
-168.3538544995193
 30
0.0
 10
703.0908267323746
 20
-168.8322186830785
 30
0.0
 10
702.8317142440079
 20
-169.7814002940423
 30
0.0
 10
702.6829329419758
 20
-170.2524744715042
 30
0.0
 10
701.8449066579659
 20
-172.5906290655483
 30
0.0
 10
700.873704083942
 20
-174.4061340862868
 30
0.0
 10
699.2868437197346
 20
-176.6073127123234
 30
0.0
 10
698.9506600741399
 20
-177.0441074437834
 30
0.0
 10
698.2397365860821
 20
-177.9106442464037
 30
0.0
 10
697.8639419885819
 20
-178.3414867098631
 30
0.0
 10
696.6864044013221
 20
-179.61355100787
 30
0.0
 10
695.8354773875913
 20
-180.4340379078143
 30
0.0
 10
693.0930165132158
 20
-182.8161866832147
 30
0.0
 10
691.0111437964534
 20
-184.2982610731721
 30
0.0
 10
688.6672129441316
 20
-185.6707595809942
 30
0.0
  0
SPLINE
  5
223
330
1F5
100
AcDbEntity
  8
0
  6
Continuous
 62
     7
370
    25
100
AcDbSpline
210
0.0
220
0.0
230
1.0
 70
     8
 71
     3
 72
    27
 73
    23
 74
     0
 42
0.000000001
 43
0.00000001
 40
0.0
 40
0.0
 40
0.0
 40
0.0
 40
0.0019531249999999
 40
0.0019531249999999
 40
0.0039062499999998
 40
0.0078124999999999
 40
0.015625
 40
0.0312500000000001
 40
0.0625000000000001
 40
0.1250000000000002
 40
0.2500000000000003
 40
0.5000000000000004
 40
0.7500000000000004
 40
0.8750000000000004
 40
0.9375000000000004
 40
0.9687500000000004
 40
0.9843750000000004
 40
0.9921875000000003
 40
0.9960937500000003
 40
0.9980468750000001
 40
0.9980468750000001
 40
1.0
 40
1.0
 40
1.0
 40
1.0
 10
-306.1436677633203
 20
430.8840537990081
 30
0.0
 10
-305.4623801433291
 20
430.5287368163133
 30
0.0
 10
-304.7979261629953
 20
430.1636897352437
 30
0.0
 10
-303.5011033602379
 20
429.4150498664594
 30
0.0
 10
-301.5558691561025
 20
428.2920900632834
 30
0.0
 10
-297.0169893464527
 20
425.6718505225394
 30
0.0
 10
-287.9392297271528
 20
420.4313714410511
 30
0.0
 10
-269.7837104885542
 20
409.9504132780755
 30
0.0
 10
-233.4726720113551
 20
388.988496952123
 30
0.0
 10
-160.8505950569582
 20
347.0646643002192
 30
0.0
 10
-15.60644114816417
 20
263.2169989964107
 30
0.0
 10
191.8852072929703
 20
143.4346199909697
 30
0.0
 10
399.3768557341047
 20
23.65224098552934
 30
0.0
 10
544.6210096428988
 20
-60.19542431827927
 30
0.0
 10
617.243086597296
 20
-102.1192569701834
 30
0.0
 10
653.554125074495
 20
-123.0811732961358
 30
0.0
 10
671.7096443130939
 20
-133.5621314591117
 30
0.0
 10
680.7874039323934
 20
-138.8026105405997
 30
0.0
 10
685.326283742044
 20
-141.422850081344
 30
0.0
 10
687.2715179461786
 20
-142.5458098845196
 30
0.0
 10
688.568340748936
 20
-143.2944497533036
 30
0.0
 10
689.2006988953248
 20
-143.6780353403387
 30
0.0
 10
689.8162094596083
 20
-144.0713450514689
 30
0.0
  0
SPLINE
  5
224
330
1F5
100
AcDbEntity
  8
0
  6
Continuous
 62
     7
370
    25
100
AcDbSpline
210
0.0
220
0.0
230
1.0
 70
     8
 71
     3
 72
    36
 73
    32
 74
     0
 42
0.000000001
 43
0.00000001
 40
0.0
 40
0.0
 40
0.0
 40
0.0
 40
0.1249999999999984
 40
0.1249999999999984
 40
0.1874999999999972
 40
0.1874999999999972
 40
0.249999999999996
 40
0.249999999999996
 40
0.3124999999999948
 40
0.3124999999999948
 40
0.3437499999999937
 40
0.3437499999999937
 40
0.3749999999999927
 40
0.3749999999999927
 40
0.4999999999999943
 40
0.4999999999999943
 40
0.5624999999999938
 40
0.5624999999999938
 40
0.5937499999999928
 40
0.5937499999999928
 40
0.6249999999999919
 40
0.6249999999999919
 40
0.7499999999999926
 40
0.7499999999999926
 40
0.781249999999994
 40
0.781249999999994
 40
0.8124999999999953
 40
0.8124999999999953
 40
0.8749999999999981
 40
0.8749999999999981
 40
1.0
 40
1.0
 40
1.0
 40
1.0
 10
-378.2037751465355
 20
430.2207522242402
 30
0.0
 10
-375.8259438826775
 20
431.5740662230185
 30
0.0
 10
-373.2459291423648
 20
432.7830358473933
 30
0.0
 10
-369.0732899626982
 20
434.3804435906089
 30
0.0
 10
-367.6471511246307
 20
434.8711107862231
 30
0.0
 10
-364.734004576155
 20
435.7673528842233
 30
0.0
 10
-363.2456091945169
 20
436.1734175887825
 30
0.0
 10
-360.2063308359866
 20
436.902962906403
 30
0.0
 10
-358.6556319581942
 20
437.2266868262657
 30
0.0
 10
-356.2816879866198
 20
437.648973436349
 30
0.0
 10
-355.4823786837425
 20
437.7791698538431
 30
0.0
 10
-353.8674655812086
 20
438.0180277552573
 30
0.0
 10
-353.0543200096187
 20
438.1262667622879
 30
0.0
 10
-348.9904591677139
 20
438.6086045203702
 30
0.0
 10
-345.7169713882707
 20
438.8116511630724
 30
0.0
 10
-340.7739763530971
 20
438.8488035187519
 30
0.0
 10
-339.1208367339173
 20
438.8165033874725
 30
0.0
 10
-336.6326404728714
 20
438.6987828845197
 30
0.0
 10
-335.8011570970993
 20
438.6478659121639
 30
0.0
 10
-334.1533448905794
 20
438.524067744983
 30
0.0
 10
-333.3347783595705
 20
438.4511097670367
 30
0.0
 10
-329.2679933302317
 20
438.0323721213265
 30
0.0
 10
-326.0978469719401
 20
437.5248956905772
 30
0.0
 10
-322.2380529878179
 20
436.6774547716914
 30
0.0
 10
-321.4712509405206
 20
436.4972863413416
 30
0.0
 10
-319.9481810131875
 20
436.1151319571815
 30
0.0
 10
-319.1900603460343
 20
435.9126024711455
 30
0.0
 10
-316.9477406661279
 20
435.27623799883
 30
0.0
 10
-315.4965433196424
 20
434.8142401420488
 30
0.0
 10
-311.2701707492232
 20
433.3182903703599
 30
0.0
 10
-308.6205361178943
 20
432.1758333124699
 30
0.0
 10
-306.1436677633203
 20
430.8840537990081
 30
0.0
  0
SPLINE
  5
225
330
1F5
100
AcDbEntity
  8
0
  6
Continuous
 62
     7
370
    25
100
AcDbSpline
210
0.0
220
0.0
230
1.0
 70
     8
 71
     3
 72
    25
 73
    21
 74
     0
 42
0.000000001
 43
0.00000001
 40
0.0
 40
0.0
 40
0.0
 40
0.0
 40
0.00390625
 40
0.00390625
 40
0.0078124999999999
 40
0.0156249999999998
 40
0.0312499999999998
 40
0.0624999999999998
 40
0.1249999999999998
 40
0.2499999999999998
 40
0.4999999999999999
 40
0.75
 40
0.875
 40
0.9375000000000001
 40
0.9687500000000001
 40
0.9843750000000002
 40
0.9921875000000001
 40
0.99609375
 40
0.99609375
 40
1.0
 40
1.0
 40
1.0
 40
1.0
 10
-688.667212944118
 20
250.9940245318619
 30
0.0
 10
-688.2658374522274
 20
251.2290516288216
 30
0.0
 10
-687.859647792497
 20
251.4612996223249
 30
0.0
 10
-687.051149256489
 20
251.9280358924013
 30
0.0
 10
-685.8384014524777
 20
252.6281402975159
 30
0.0
 10
-683.0086565764501
 20
254.2617172427834
 30
0.0
 10
-677.3491668243956
 20
257.5288711333187
 30
0.0
 10
-666.0301873202867
 20
264.0631789143889
 30
0.0
 10
-643.3922283120684
 20
277.1317944765294
 30
0.0
 10
-598.1163102956318
 20
303.2690256008105
 30
0.0
 10
-533.4364274150091
 20
340.6079272069265
 30
0.0
 10
-468.7565445343851
 20
377.946828813042
 30
0.0
 10
-423.4806265179487
 20
404.084059937323
 30
0.0
 10
-400.8426675097306
 20
417.1526754994637
 30
0.0
 10
-389.5236880056216
 20
423.6869832805339
 30
0.0
 10
-383.8641982535671
 20
426.954137171069
 30
0.0
 10
-381.0344533775397
 20
428.5877141163365
 30
0.0
 10
-379.8217055735281
 20
429.2878185214512
 30
0.0
 10
-379.0132070375202
 20
429.7545547915277
 30
0.0
 10
-378.6108980998749
 20
429.989043103264
 30
0.0
 10
-378.2037751465357
 20
430.2207522242401
 30
0.0
  0
SPLINE
  5
22B
330
1F5
100
AcDbEntity
  8
0
  6
Continuous
 62
     7
370
    25
100
AcDbSpline
210
0.0
220
0.0
230
1.0
 70
     8
 71
     3
 72
    38
 73
    34
 74
     0
 42
0.000000001
 43
0.00000001
 40
0.0
 40
0.0
 40
0.0
 40
0.0
 40
0.0104114010675435
 40
0.0208295625569515
 40
0.031252751090921
 40
0.0416792952025395
 40
0.0521075856067122
 40
0.0625360752085282
 40
0.0729632664419099
 40
0.0833876955193537
 40
0.093807960417153
 40
0.1042227246144214
 40
0.1146307159400759
 40
0.1250307246633895
 40
0.1874610629117529
 40
0.2500218494780442
 40
0.3122088131691338
 40
0.3750259660605028
 40
0.4368536172861411
 40
0.5000227996681604
 40
0.5625271983746952
 40
0.6250072226484582
 40
0.6874971311530779
 40
0.749988710045272
 40
0.8124824776590496
 40
0.8420811965084936
 40
0.8749795523801677
 40
0.9029613129110392
 40
0.9374856150581932
 40
0.9533454986834908
 40
0.9690428965267989
 40
0.9845902686403418
 40
1.0
 40
1.0
 40
1.0
 40
1.0
 10
-260.5763794271759
 20
16.89161973240519
 30
0.0
 10
-260.3927517710276
 20
16.96655936640915
 30
0.0
 10
-260.0253772240176
 20
17.11648729487472
 30
0.0
 10
-259.4666362935149
 20
17.34297692832662
 30
0.0
 10
-258.9022627711905
 20
17.57062731094311
 30
0.0
 10
-258.3319122114982
 20
17.79946301651453
 30
0.0
 10
-257.7559363517498
 20
18.02936702725799
 30
0.0
 10
-257.1744993339777
 20
18.26026562960672
 30
0.0
 10
-256.5878142295745
 20
18.49207790528895
 30
0.0
 10
-255.9960762848436
 20
18.72472616618609
 30
0.0
 10
-255.3994839988501
 20
18.95813666337035
 30
0.0
 10
-254.7982360425727
 20
19.1922392629312
 30
0.0
 10
-254.192522435095
 20
19.42697122136017
 30
0.0
 10
-252.5651531992295
 20
20.05472686548379
 30
0.0
 10
-249.8470386687079
 20
21.08710283846213
 30
0.0
 10
-245.9488256966916
 20
22.52918301567133
 30
0.0
 10
-241.9244340454449
 20
23.9810025040065
 30
0.0
 10
-237.8248015472228
 20
25.4236235929646
 30
0.0
 10
-233.6381794651198
 20
26.86094743310477
 30
0.0
 10
-229.4218082124118
 20
28.27076750790025
 30
0.0
 10
-225.1861821400686
 20
29.64969098231055
 30
0.0
 10
-220.9963731290375
 20
30.9744515826921
 30
0.0
 10
-216.8758331911338
 20
32.23664411371599
 30
0.0
 10
-212.8687233220188
 20
33.42057294876538
 30
0.0
 10
-209.6958148665448
 20
34.31956131491587
 30
0.0
 10
-207.2371616910392
 20
34.99166801892522
 30
0.0
 10
-205.5143569338734
 20
35.44915615577829
 30
0.0
 10
-203.764489086166
 20
35.90022876748903
 30
0.0
 10
-202.3882354805312
 20
36.24223349185132
 30
0.0
 10
-201.2741202062432
 20
36.50988019716048
 30
0.0
 10
-200.501911323311
 20
36.69090373609155
 30
0.0
 10
-199.7575758590551
 20
36.86146560419651
 30
0.0
 10
-199.283162272189
 20
36.96672334757153
 30
0.0
 10
-199.0470101420871
 20
37.01911822199297
 30
0.0
  0
SPLINE
  5
22C
330
1F5
100
AcDbEntity
  8
0
  6
Continuous
 62
     7
370
    25
100
AcDbSpline
210
0.0
220
0.0
230
1.0
 70
     8
 71
     3
 72
    11
 73
     7
 74
     0
 42
0.000000001
 43
0.00000001
 40
-0.0000000600000001
 40
-0.0000000600000001
 40
-0.0000000600000001
 40
-0.0000000600000001
 40
0.0
 40
0.0
 40
0.0
 40
0.0003406852820038
 40
0.0003406852820038
 40
0.0003406852820038
 40
0.0003406852820038
 10
-685.3402480178165
 20
247.3287187917189
 30
0.0
 10
-685.3402622341104
 20
247.3287108219503
 30
0.0
 10
-685.3402764504001
 20
247.3287028521884
 30
0.0
 10
-685.3402906666784
 20
247.3286948824147
 30
0.0
 10
-685.4210119463642
 20
247.2834418057828
 30
0.0
 10
-685.5014448434588
 20
247.2380077879264
 30
0.0
 10
-685.5815852415002
 20
247.192393877351
 30
0.0
  0
SPLINE
  5
22E
330
1F5
100
AcDbEntity
  8
0
  6
Continuous
 62
     7
370
    25
100
AcDbSpline
210
0.0
220
0.0
230
1.0
 70
     8
 71
     3
 72
    11
 73
     7
 74
     0
 42
0.000000001
 43
0.00000001
 40
0.0
 40
0.0
 40
0.0
 40
0.0
 40
0.0003406852853344
 40
0.0003406852853344
 40
0.0003406852853344
 40
0.0003407452819411
 40
0.0003407452819411
 40
0.0003407452819411
 40
0.0003407452819411
 10
-375.1617083009075
 20
426.3939744222603
 30
0.0
 10
-375.2421617335041
 20
426.3468794877655
 30
0.0
 10
-375.322324666909
 20
426.2996035060488
 30
0.0
 10
-375.402194887555
 20
426.2521490828536
 30
0.0
 10
-375.4022089531528
 20
426.2521407258611
 30
0.0
 10
-375.4022230187393
 20
426.252132368857
 30
0.0
 10
-375.4022370843215
 20
426.2521240118596
 30
0.0
  0
SPLINE
  5
22F
330
1F5
100
AcDbEntity
  8
0
  6
Continuous
 62
     7
370
    25
100
AcDbSpline
210
0.0
220
0.0
230
1.0
 70
     8
 71
     3
 72
    36
 73
    32
 74
     0
 42
0.000000001
 43
0.00000001
 40
0.0
 40
0.0
 40
0.0
 40
0.0
 40
0.124999999999991
 40
0.124999999999991
 40
0.1874999999999843
 40
0.1874999999999843
 40
0.218749999999983
 40
0.218749999999983
 40
0.2499999999999818
 40
0.2499999999999818
 40
0.374999999999977
 40
0.374999999999977
 40
0.4062499999999784
 40
0.4062499999999784
 40
0.4374999999999796
 40
0.4374999999999796
 40
0.4999999999999837
 40
0.4999999999999837
 40
0.6249999999999919
 40
0.6249999999999919
 40
0.6562499999999926
 40
0.6562499999999926
 40
0.6874999999999933
 40
0.6874999999999933
 40
0.7499999999999947
 40
0.7499999999999947
 40
0.8124999999999961
 40
0.8124999999999961
 40
0.8749999999999974
 40
0.8749999999999974
 40
1.0
 40
1.0
 40
1.0
 40
1.0
 10
-309.4508924761819
 20
425.3519772752124
 30
0.0
 10
-311.693035987765
 20
426.6822724910426
 30
0.0
 10
-314.0927685199662
 20
427.870573526686
 30
0.0
 10
-317.9249258442636
 20
429.444417698679
 30
0.0
 10
-319.2413416978493
 20
429.9344807000053
 30
0.0
 10
-321.276967507746
 20
430.6143811582547
 30
0.0
 10
-321.9651302726851
 20
430.8317421987573
 30
0.0
 10
-323.348352821973
 20
431.2438823718628
 30
0.0
 10
-324.0450474572528
 20
431.439207739445
 30
0.0
 10
-327.5535104818831
 20
432.3628269612236
 30
0.0
 10
-330.439459186015
 20
432.9373667469648
 30
0.0
 10
-334.1488094227576
 20
433.44156250586
 30
0.0
 10
-334.8957438492648
 20
433.5319326431303
 30
0.0
 10
-336.4000300297473
 20
433.691150379387
 30
0.0
 10
-337.1593756741735
 20
433.7601025420652
 30
0.0
 10
-339.4311111716613
 20
433.9320808712515
 30
0.0
 10
-340.9411948974335
 20
434.0008823883376
 30
0.0
 10
-345.4586154223582
 20
434.0744096512796
 30
0.0
 10
-348.4531684043588
 20
433.9480099510851
 30
0.0
 10
-352.1743216347815
 20
433.5644214162486
 30
0.0
 10
-352.9192981849123
 20
433.4761687838063
 30
0.0
 10
-354.3978113596035
 20
433.2776433693366
 30
0.0
 10
-355.1295339917271
 20
433.1676811669712
 30
0.0
 10
-357.302516330295
 20
432.806285879377
 30
0.0
 10
-358.721625017845
 20
432.5233425404993
 30
0.0
 10
-361.5024662471951
 20
431.8763359283354
 30
0.0
 10
-362.8640195783493
 20
431.5120603703531
 30
0.0
 10
-365.5281588440942
 20
430.7000637996149
 30
0.0
 10
-366.8322284363893
 20
430.2518386948894
 30
0.0
 10
-370.6452476464682
 20
428.7833248063297
 30
0.0
 10
-372.9980786145326
 20
427.6604958752594
 30
0.0
 10
-375.1617083009075
 20
426.3939744222602
 30
0.0
  0
SPLINE
  5
230
330
1F5
100
AcDbEntity
  8
0
  6
Continuous
 62
     7
370
    25
100
AcDbSpline
210
0.0
220
0.0
230
1.0
 70
     8
 71
     3
 72
     8
 73
     4
 74
     0
 42
0.000000001
 43
0.00000001
 40
0.0
 40
0.0
 40
0.0
 40
0.0
 40
1.0
 40
1.0
 40
1.0
 40
1.0
 10
-307.6625153612878
 20
424.2393741624435
 30
0.0
 10
-308.2443446963383
 20
424.618663589539
 30
0.0
 10
-308.840537029692
 20
424.9898448219476
 30
0.0
 10
-309.4508924761819
 20
425.3519772752126
 30
0.0
  0
SPLINE
  5
232
330
1F5
100
AcDbEntity
  8
0
  6
Continuous
 62
     7
370
    25
100
AcDbSpline
210
0.0
220
0.0
230
1.0
 70
     8
 71
     3
 72
     8
 73
     4
 74
     0
 42
0.000000001
 43
0.00000001
 40
0.0
 40
0.0
 40
0.0
 40
0.0
 40
1.0
 40
1.0
 40
1.0
 40
1.0
 10
686.1554554261609
 20
-149.3993334433174
 30
0.0
 10
685.5937441407764
 20
-149.0848461746459
 30
0.0
 10
685.0170681218046
 20
-148.7789449180671
 30
0.0
 10
684.4262472029404
 20
-148.4812777640389
 30
0.0
  0
LWPOLYLINE
  5
234
330
1F5
100
AcDbEntity
  8
0
  6
Continuous
 62
     7
370
    25
100
AcDbPolyline
 90
       18
 70
   128
 43
0.0
 10
194.5480083808
 20
-551.6093670913
 10
197.6101935859
 20
-554.7212841366
 10
200.9226163208
 20
-557.6078077735
 10
204.4593536993
 20
-560.2463481849
 10
208.1927273581
 20
-562.6162562604
 10
212.0935200659
 20
-564.6989851955
 10
216.1312043772
 20
-566.4782356378
 10
220.2741815379
 20
-567.9400832454
 10
224.4900287766
 20
-569.0730876581
 10
228.7457530436
 20
-569.8683820293
 10
233.0080492131
 20
-570.3197424175
 10
237.2435607279
 20
-570.4236364945
 10
241.4191406464
 20
-570.1792511895
 10
245.5021110493
 20
-569.588499052
 10
249.4605187756
 20
-568.6560032843
 10
253.2633854867
 20
-567.3890615605
 10
256.8809501017
 20
-565.7975889152
 10
260.2849017066
 20
-563.8940401489
  0
SPLINE
  5
23A
330
1F5
100
AcDbEntity
  8
0
  6
Continuous
 62
     7
370
    25
100
AcDbSpline
210
0.0
220
0.0
230
1.0
 70
     8
 71
     3
 72
    64
 73
    60
 74
     0
 42
0.000000001
 43
0.00000001
 40
0.0
 40
0.0
 40
0.0
 40
0.0
 40
0.015625
 40
0.015625
 40
0.03125
 40
0.03125
 40
0.046875
 40
0.046875
 40
0.0625
 40
0.0625
 40
0.125
 40
0.125
 40
0.1875
 40
0.25
 40
0.25
 40
0.28125
 40
0.28125
 40
0.296875
 40
0.296875
 40
0.3125
 40
0.3125
 40
0.34375
 40
0.34375
 40
0.375
 40
0.375
 40
0.4375
 40
0.4375
 40
0.5
 40
0.5
 40
0.515625
 40
0.515625
 40
0.53125
 40
0.53125
 40
0.5625
 40
0.5625
 40
0.625
 40
0.625
 40
0.65625
 40
0.671875
 40
0.671875
 40
0.6875
 40
0.6875
 40
0.75
 40
0.75
 40
0.765625
 40
0.765625
 40
0.78125
 40
0.8125
 40
0.8125
 40
0.875
 40
0.875
 40
0.90625
 40
0.9375
 40
0.9375
 40
0.96875
 40
0.96875
 40
0.984375
 40
0.9921875
 40
1.0
 40
1.0
 40
1.0
 40
1.0
 10
-199.0470101420871
 20
37.01911822199288
 30
0.0
 10
-199.0784779039615
 20
36.688980560908
 30
0.0
 10
-199.1125630030919
 20
36.35750924830069
 30
0.0
 10
-199.1859609992068
 20
35.69190290667631
 30
0.0
 10
-199.2252738961912
 20
35.3577678776591
 30
0.0
 10
-199.3091206113554
 20
34.68683768984884
 30
0.0
 10
-199.3536554460169
 20
34.35004198553015
 30
0.0
 10
-199.4479533503917
 20
33.67378666532361
 30
0.0
 10
-199.4977445048165
 20
33.33416720683072
 30
0.0
 10
-199.7589506366118
 20
31.6347186415539
 30
0.0
 10
-200.0075309764552
 20
30.26703065992509
 30
0.0
 10
-200.5814398198708
 20
27.51590589158467
 30
0.0
 10
-201.2321099137969
 20
24.74902963274023
 30
0.0
 10
-202.0351822888339
 20
21.95088026320752
 30
0.0
 10
-202.695609069416
 20
19.84034143718788
 30
0.0
 10
-202.925453053101
 20
19.13483769116975
 30
0.0
 10
-203.2850318441068
 20
18.07354246660226
 30
0.0
 10
-203.4074731298849
 20
17.71896688852334
 30
0.0
 10
-203.6560892229434
 20
17.01232053219679
 30
0.0
 10
-203.7823895796053
 20
16.65986736609548
 30
0.0
 10
-204.1672047285498
 20
15.60509045769346
 30
0.0
 10
-204.4316304452056
 20
14.90534792773404
 30
0.0
 10
-204.9759900759014
 20
13.51263506585953
 30
0.0
 10
-205.2559242030274
 20
12.81966482699595
 30
0.0
 10
-206.1187527955002
 20
10.75080931268813
 30
0.0
 10
-206.7246280161656
 20
9.384959389668685
 30
0.0
 10
-207.9975451871275
 20
6.679970140388764
 30
0.0
 10
-208.6645847451795
 20
5.340829769470562
 30
0.0
 10
-209.5374510926067
 20
3.68396423718012
 30
0.0
 10
-209.713981493122
 20
3.353445780595626
 30
0.0
 10
-210.0709931567318
 20
2.694134150073385
 30
0.0
 10
-210.2517050070983
 20
2.364931762401295
 30
0.0
 10
-210.7974918811107
 20
1.384114720818924
 30
0.0
 10
-211.1664763934978
 20
0.7387534542380725
 30
0.0
 10
-212.2885079021051
 20
-1.172281468667574
 30
0.0
 10
-213.0566027634385
 20
-2.412956263491445
 30
0.0
 10
-214.2382273990951
 20
-4.224989745442165
 30
0.0
 10
-214.8364213855899
 20
-5.118743397185571
 30
0.0
 10
-215.4456730140183
 20
-5.994127103614078
 30
0.0
 10
-215.8543025499787
 20
-6.57362650566859
 30
0.0
 10
-216.0598480559555
 20
-6.861331594487291
 30
0.0
 10
-217.0937475400272
 20
-8.289603635406289
 30
0.0
 10
-217.9405782415964
 20
-9.399475399342466
 30
0.0
 10
-219.0244308827868
 20
-10.74476078089545
 30
0.0
 10
-219.2426992795713
 20
-11.01198727950589
 30
0.0
 10
-219.6806949185686
 20
-11.54085163654875
 30
0.0
 10
-220.33901208378
 20
-12.32474601816905
 30
0.0
 10
-221.0012566139431
 20
-13.08074472665131
 30
0.0
 10
-222.3308946655624
 20
-14.55616938302977
 30
0.0
 10
-223.2241756839297
 20
-15.49109083269359
 30
0.0
 10
-224.5742270831804
 20
-16.82152156051785
 30
0.0
 10
-225.477638057428
 20
-17.68449096558426
 30
0.0
 10
-226.3878322882006
 20
-18.49927959061716
 30
0.0
 10
-227.3014330674181
 20
-19.28987184909847
 30
0.0
 10
-227.7599378499106
 20
-19.67307290693158
 30
0.0
 10
-228.4502913944352
 20
-20.22942444329722
 30
0.0
 10
-228.7961172593939
 20
-20.5029876988844
 30
0.0
 10
-229.2585265434309
 20
-20.85843682032301
 30
0.0
 10
-229.4901688865963
 20
-21.03304794223621
 30
0.0
 10
-229.6060998978561
 20
-21.11957194095707
 30
0.0
  0
SPLINE
  5
23E
330
1F5
100
AcDbEntity
  8
0
  6
Continuous
 62
     7
370
    25
100
AcDbSpline
210
0.0
220
0.0
230
1.0
 70
     8
 71
     3
 72
    31
 73
    27
 74
     0
 42
0.000000001
 43
0.00000001
 40
0.0
 40
0.0
 40
0.0
 40
0.0
 40
0.0139049526109839
 40
0.0278100797842303
 40
0.0417153652275459
 40
0.0556207925996104
 40
0.0695263455158465
 40
0.0834320075524911
 40
0.0973377622452673
 40
0.1112435930988618
 40
0.1251494835825693
 40
0.1893707152869047
 40
0.2493610319901235
 40
0.3858674423129471
 40
0.499657152872441
 40
0.5659711886241645
 40
0.6244079073408773
 40
0.7500368932793982
 40
0.8124259750971489
 40
0.874701131242197
 40
0.9088552198894473
 40
0.9371373686525705
 40
0.953798445776917
 40
0.96849834774874
 40
0.9855036419762232
 40
1.0
 40
1.0
 40
1.0
 40
1.0
 10
-260.5763794271768
 20
16.89161973241663
 30
0.0
 10
-260.4892332037699
 20
16.67055087970257
 30
0.0
 10
-260.3149396629257
 20
16.22841039898412
 30
0.0
 10
-260.0451699545397
 20
15.5661175069253
 30
0.0
 10
-259.7693782972249
 20
14.90466756205405
 30
0.0
 10
-259.4870256315145
 20
14.24425581770558
 30
0.0
 10
-259.1983381493214
 20
13.5850061412765
 30
0.0
 10
-258.9033384218014
 20
12.92706053226686
 30
0.0
 10
-258.6021072260493
 20
12.27055797749205
 30
0.0
 10
-258.294705025326
 20
11.61562933093538
 30
0.0
 10
-257.6031375196055
 20
10.17463134733046
 30
0.0
 10
-256.5086939783032
 20
8.028593724495991
 30
0.0
 10
-254.2841814602793
 20
4.048997645051678
 30
0.0
 10
-251.3491693643307
 20
-0.5307482984402423
 30
0.0
 10
-248.0440830171065
 20
-4.90126850136749
 30
0.0
 10
-245.4135787891679
 20
-7.993758313504934
 30
0.0
 10
-242.5633491418194
 20
-11.07989785848904
 30
0.0
 10
-239.6396097752999
 20
-13.87158046077509
 30
0.0
 10
-236.5943630262566
 20
-16.40697736946846
 30
0.0
 10
-234.636385151796
 20
-17.88524057329922
 30
0.0
 10
-233.0885368776494
 20
-18.96195446861059
 30
0.0
 10
-232.1042270339353
 20
-19.61010791355742
 30
0.0
 10
-231.3605707331939
 20
-20.07935651413158
 30
0.0
 10
-230.7572285922662
 20
-20.44875872904838
 30
0.0
 10
-230.1803377072503
 20
-20.79152265732348
 30
0.0
 10
-229.7870720056893
 20
-21.01618660240823
 30
0.0
 10
-229.6060998978511
 20
-21.11957194096149
 30
0.0
  0
SPLINE
  5
246
330
1F5
100
AcDbEntity
  8
0
  6
Continuous
 62
     8
370
    25
100
AcDbSpline
210
0.0
220
0.0
230
1.0
 70
     8
 71
     3
 72
    16
 73
    12
 74
     0
 42
0.000000001
 43
0.00000001
 40
0.0
 40
0.0
 40
0.0
 40
0.0
 40
0.1403160217033102
 40
0.2840576962701284
 40
0.4397840756075332
 40
0.519774675098141
 40
0.6003774088426852
 40
0.7561517198284619
 40
0.8361138271974599
 40
0.9166667517140789
 40
1.0
 40
1.0
 40
1.0
 40
1.0
 10
-685.5815852415002
 20
247.1923938773511
 30
0.0
 10
-687.1792854710322
 20
246.1945305718639
 30
0.0
 10
-690.4136919274154
 20
244.1744422860906
 30
0.0
 10
-694.2750720371357
 20
240.4844832873526
 30
0.0
 10
-696.7238241652775
 20
237.0201177513351
 30
0.0
 10
-698.096583222708
 20
233.988395871029
 30
0.0
 10
-699.016291599001
 20
230.885252329578
 30
0.0
 10
-699.2670964616049
 20
227.7000244394262
 30
0.0
 10
-698.8098464806075
 20
224.5161954298894
 30
0.0
 10
-698.1954245713969
 20
222.0626369478917
 30
0.0
 10
-697.3204837166243
 20
220.461559137983
 30
0.0
 10
-696.8755916171908
 20
219.6474391156735
 30
0.0
  0
SPLINE
  5
247
330
1F5
100
AcDbEntity
  8
0
  6
Continuous
 62
     8
370
    25
100
AcDbSpline
210
0.0
220
0.0
230
1.0
 70
     8
 71
     3
 72
    17
 73
    13
 74
     0
 42
0.000000001
 43
0.00000001
 40
0.0
 40
0.0
 40
0.0
 40
0.0
 40
0.0913907540128646
 40
0.1644707524607732
 40
0.2381100012532636
 40
0.3804265544180426
 40
0.4534805222547929
 40
0.5270742649714184
 40
0.6703101121644721
 40
0.8175901612494094
 40
0.9083273222684152
 40
1.0
 40
1.0
 40
1.0
 40
1.0
 10
695.0771443435018
 20
-177.7414329109812
 30
0.0
 10
695.7681341654511
 20
-176.8574561766489
 30
0.0
 10
697.0116693259422
 20
-175.2666134242958
 30
0.0
 10
698.0852928763433
 20
-172.8406479193902
 30
0.0
 10
699.0238575992053
 20
-169.8722624589913
 30
0.0
 10
699.258003491958
 20
-166.8660420761574
 30
0.0
 10
698.8243045316543
 20
-163.9089409135931
 30
0.0
 10
697.9336295109986
 20
-160.9912245814635
 30
0.0
 10
695.9870544232288
 20
-157.4577306721311
 30
0.0
 10
692.8467400341364
 20
-154.0597944293502
 30
0.0
 10
689.4701543262323
 20
-151.3789193837148
 30
0.0
 10
687.2641263765873
 20
-150.0614477083396
 30
0.0
 10
686.1554554261611
 20
-149.3993334433175
 30
0.0
  0
LWPOLYLINE
  5
252
330
1F5
100
AcDbEntity
  8
0
  6
Continuous
 62
     8
370
    25
100
AcDbPolyline
 90
        9
 70
   128
 43
0.0
 10
204.5875415014
 20
-569.2229893547
 10
203.1392523208
 20
-568.2838968585
 10
201.2530643562
 20
-566.6983941428
 10
199.569087062
 20
-564.8218570379
 10
198.0993391033
 20
-562.667678522
 10
196.8543101755
 20
-560.2512331198
 10
195.8428861382
 20
-557.5897671733
 10
195.0722855964
 20
-554.7022757535
 10
194.5480083808
 20
-551.6093670913
  0
LWPOLYLINE
  5
254
330
1F5
100
AcDbEntity
  8
0
  6
Continuous
 62
     8
370
    25
100
AcDbPolyline
 90
        9
 70
   128
 43
0.0
 10
-497.5403225703
 20
-163.8932011132
 10
-498.9886117509
 20
-162.9541086171
 10
-500.8747997155
 20
-161.3686059014
 10
-502.5587770097
 20
-159.4920687964
 10
-504.0285249684
 20
-157.3378902805
 10
-505.2735538962
 20
-154.9214448783
 10
-506.2849779335
 20
-152.2599789318
 10
-507.0555784753
 20
-149.3724875121
 10
-507.5798556909
 20
-146.2795788498
  0
SPLINE
  5
257
330
1F5
100
AcDbEntity
  8
0
  6
Continuous
 62
     8
370
    25
100
AcDbSpline
210
0.0
220
0.0
230
1.0
 70
     8
 71
     3
 72
    17
 73
    13
 74
     0
 42
0.000000001
 43
0.00000001
 40
0.0
 40
0.0
 40
0.0
 40
0.0
 40
0.0078124999999991
 40
0.0078124999999991
 40
0.0156249999999982
 40
0.0156249999999982
 40
0.0312499999999985
 40
0.062499999999999
 40
0.125
 40
0.25
 40
0.5
 40
1.0
 40
1.0
 40
1.0
 40
1.0
 10
-229.6060998978561
 20
-21.11957194095722
 30
0.0
 10
-229.6895723803218
 20
-21.15814065094069
 30
0.0
 10
-229.7703870311201
 20
-21.19843058511932
 30
0.0
 10
-229.9259379227142
 20
-21.28294686018371
 30
0.0
 10
-230.0004931246962
 20
-21.32729044265408
 30
0.0
 10
-230.2273519429773
 20
-21.45825325082601
 30
0.0
 10
-230.6810695795429
 20
-21.72017886715837
 30
0.0
 10
-231.7397440648512
 20
-22.33133863863994
 30
0.0
 10
-233.8570930354822
 20
-23.5536581815583
 30
0.0
 10
-238.0917909767267
 20
-25.99829726744137
 30
0.0
 10
-246.5611868592208
 20
-30.8875754392065
 30
0.0
 10
-253.8206690442194
 20
-35.0783853006999
 30
0.0
 10
-258.6603238342172
 20
-37.87225854170153
 30
0.0
  0
LWPOLYLINE
  5
258
330
1F5
100
AcDbEntity
  8
0
  6
Continuous
 62
     8
370
    25
100
AcDbPolyline
 90
        8
 70
   128
 43
0.0
 10
-517.2261966628
 20
-143.0263152108
 10
-517.1553151101
 20
-143.1609384998
 10
-516.3815297904
 20
-144.1592903525
 10
-515.2646608584
 20
-144.9731958256
 10
-513.8134488852
 20
-145.5962853276
 10
-512.0392509968
 20
-146.0236825855
 10
-509.9559519942
 20
-146.2520428055
 10
-507.5798556909
 20
-146.2795788498
  0
LINE
  5
25C
330
1F5
100
AcDbEntity
  8
0
  6
Continuous
 62
     7
370
    25
100
AcDbLine
 10
511.9257338123
 20
-416.4695679298
 30
0.0
 11
537.6694526476
 21
-383.5569268721
 31
0.0
  0
LINE
  5
25D
330
1F5
100
AcDbEntity
  8
0
  6
Continuous
 62
     7
370
    25
100
AcDbLine
 10
844.3860018001
 20
-204.1020279557
 30
0.0
 11
844.3860018001
 21
-175.5230995397
 31
0.0
  0
LINE
  5
25E
330
1F5
100
AcDbEntity
  8
0
  6
Continuous
 62
     7
370
    25
100
AcDbLine
 10
840.4213325376
 20
-169.1518349482
 30
0.0
 11
-347.5180598557
 21
516.6309789829
 31
0.0
  0
LINE
  5
25F
330
1F5
100
AcDbEntity
  8
0
  6
Continuous
 62
     7
370
    25
100
AcDbLine
 10
-497.5403225703
 20
-163.8932011132
 30
0.0
 11
204.5875415014
 21
-569.2229893547
 31
0.0
  0
LINE
  5
260
330
1F5
100
AcDbEntity
  8
0
  6
Continuous
 62
     7
370
    25
100
AcDbLine
 10
254.5834781332
 20
-569.2229893547
 30
0.0
 11
497.5403225703
 21
-428.966988494
 31
0.0
  0
LINE
  5
261
330
1F5
100
AcDbEntity
  8
0
  6
Continuous
 62
     7
370
    25
100
AcDbLine
 10
-627.4323909444
 20
76.4661703187
 30
0.0
 11
-517.2261966628
 21
-143.0263152108
 31
0.0
  0
LINE
  5
262
330
1F5
100
AcDbEntity
  8
0
  6
Continuous
 62
     7
370
    25
100
AcDbLine
 10
-844.3860018001
 20
232.6809563717
 30
0.0
 11
-844.3860018001
 21
204.1020279557
 31
0.0
  0
LINE
  5
263
330
1F5
100
AcDbEntity
  8
0
  6
Continuous
 62
     7
370
    25
100
AcDbLine
 10
-359.5887213308
 20
516.6309789829
 30
0.0
 11
-840.4213325376
 21
239.0522209631
 31
0.0
  0
LINE
  5
264
330
1F5
100
AcDbEntity
  8
0
  6
Continuous
 62
     7
370
    25
100
AcDbLine
 10
346.4823227814
 20
-485.7628265345
 30
0.0
 11
346.4823227814
 21
-457.1838981185
 31
0.0
  0
LINE
  5
265
330
1F5
100
AcDbEntity
  8
0
  6
Continuous
 62
     7
370
    25
100
AcDbLine
 10
360.6244584051
 20
-457.1838981185
 30
0.0
 11
360.6244584051
 21
-485.7628265345
 31
0.0
  0
LINE
  5
266
330
1F5
100
AcDbEntity
  8
0
  6
Continuous
 62
     7
370
    25
100
AcDbLine
 10
-837.9215357061
 20
234.7226401516
 30
0.0
 11
350.0178566873
 21
-451.0601737795
 31
0.0
  0
LINE
  5
267
330
1F5
100
AcDbEntity
  8
0
  6
Continuous
 62
     7
370
    25
100
AcDbLine
 10
346.4823227814
 20
-457.1838981185
 30
0.0
 11
-841.457069612
 21
228.5989158126
 31
0.0
  0
LINE
  5
268
330
1F5
100
AcDbEntity
  8
0
  6
Continuous
 62
     7
370
    25
100
AcDbLine
 10
841.457069612
 20
-179.6051400988
 30
0.0
 11
360.6244584051
 21
-457.1838981185
 31
0.0
  0
LINE
  5
269
330
1F5
100
AcDbEntity
  8
0
  6
Continuous
 62
     7
370
    25
100
AcDbLine
 10
357.0889244992
 20
-451.0601737795
 30
0.0
 11
837.9215357061
 21
-173.4814157598
 31
0.0
  0
LINE
  5
26A
330
1F5
100
AcDbEntity
  8
0
  6
Continuous
 62
     7
370
    25
100
AcDbLine
 10
-357.0889244992
 20
516.3834387304
 30
0.0
 11
-837.9215357061
 21
238.8046807107
 31
0.0
  0
LINE
  5
26B
330
1F5
100
AcDbEntity
  8
0
  6
Continuous
 62
     7
370
    25
100
AcDbLine
 10
837.9215357061
 20
-169.3993752007
 30
0.0
 11
-350.0178566873
 21
516.3834387304
 31
0.0
  0
LINE
  5
26C
330
1F5
100
AcDbEntity
  8
0
  6
Continuous
 62
     7
370
    25
100
AcDbLine
 10
360.6244584051
 20
-485.7628265345
 30
0.0
 11
841.457069612
 21
-208.1840685148
 31
0.0
  0
LINE
  5
26D
330
1F5
100
AcDbEntity
  8
0
  6
Continuous
 62
     7
370
    25
100
AcDbLine
 10
841.457069612
 20
-208.1840685148
 30
0.0
 11
841.457069612
 21
-179.6051400988
 31
0.0
  0
LINE
  5
26E
330
1F5
100
AcDbEntity
  8
0
  6
Continuous
 62
     7
370
    25
100
AcDbLine
 10
-841.457069612
 20
200.0199873966
 30
0.0
 11
346.4823227814
 21
-485.7628265345
 31
0.0
  0
LINE
  5
26F
330
1F5
100
AcDbEntity
  8
0
  6
Continuous
 62
     7
370
    25
100
AcDbLine
 10
-841.457069612
 20
228.5989158126
 30
0.0
 11
-841.457069612
 21
200.0199873966
 31
0.0
  0
LINE
  5
270
330
1F5
100
AcDbEntity
  8
0
  6
Continuous
 62
     7
370
    25
100
AcDbLine
 10
308.4336626713
 20
-365.198891751
 30
0.0
 11
308.5165074905
 21
-365.2436744147
 31
0.0
  0
LINE
  5
271
330
1F5
100
AcDbEntity
  8
0
  6
Continuous
 62
     7
370
    25
100
AcDbLine
 10
-375.4022370843
 20
426.2521240119
 30
0.0
 11
-685.3402480178
 21
247.3287187917
 31
0.0
  0
LINE
  5
272
330
1F5
100
AcDbEntity
  8
0
  6
Continuous
 62
     7
370
    25
100
AcDbLine
 10
684.4262472029
 20
-148.481277764
 30
0.0
 11
-307.6625153613
 21
424.2393741624
 31
0.0
  0
LINE
  5
273
330
1F5
100
AcDbEntity
  8
0
  6
Continuous
 62
     7
370
    25
100
AcDbLine
 10
694.7247212445
 20
-178.2335297626
 30
0.0
 11
694.8733568238
 21
-178.0259863274
 31
0.0
  0
LINE
  5
274
330
1F5
100
AcDbEntity
  8
0
  6
Continuous
 62
     7
370
    25
100
AcDbLine
 10
260.2849017066
 20
-563.8940401489
 30
0.0
 11
503.2417461437
 21
-423.6380392883
 31
0.0
  0
LINE
  5
275
330
1F5
100
AcDbEntity
  8
0
  6
Continuous
 62
     7
370
    25
100
AcDbLine
 10
-507.5798556909
 20
-146.2795788498
 30
0.0
 11
194.5480083808
 21
-551.6093670913
 31
0.0
  0
LINE
  5
276
330
1F5
100
AcDbEntity
  8
0
  6
Continuous
 62
     7
370
    25
100
AcDbLine
 10
229.5855098173
 20
-581.4453214439
 30
0.0
 11
229.5855098173
 21
-575.9205462356
 31
0.0
  0
LINE
  5
277
330
1F5
100
AcDbEntity
  8
0
  6
Continuous
 62
     7
370
    25
100
AcDbLine
 10
229.5855098173
 20
-581.4453214439
 30
0.0
 11
217.406670131
 21
-574.4146269455
 31
0.0
  0
LINE
  5
278
330
1F5
100
AcDbEntity
  8
0
  6
Continuous
 62
     7
370
    25
100
AcDbLine
 10
241.7643495036
 20
-574.4146269455
 30
0.0
 11
229.5855098173
 21
-581.4453214439
 31
0.0
  0
LINE
  5
279
330
1F5
100
AcDbEntity
  8
0
  6
Continuous
 62
     8
370
    25
100
AcDbLine
 10
-199.0470101421
 20
37.019118222
 30
0.0
 11
436.2227268406
 21
-329.714294798
 31
0.0
  0
LINE
  5
27A
330
1F5
100
AcDbEntity
  8
0
  6
Continuous
 62
     8
370
    25
100
AcDbLine
 10
-307.0504007871
 20
-9.9372617299
 30
0.0
 11
-260.5763794272
 21
16.8916197324
 31
0.0
  0
LINE
  5
27B
330
1F5
100
AcDbEntity
  8
0
  6
Continuous
 62
     8
370
    25
100
AcDbLine
 10
194.5480083808
 20
-551.6093670913
 30
0.0
 11
261.6110447942
 21
-436.7676806435
 31
0.0
  0
LINE
  5
27C
330
1F5
100
AcDbEntity
  8
0
  6
Continuous
 62
     8
370
    25
100
AcDbLine
 10
316.1394507362
 20
-468.2462593534
 30
0.0
 11
260.2849017066
 21
-563.8940401489
 31
0.0
  0
LINE
  5
27D
330
1F5
100
AcDbEntity
  8
0
  6
Continuous
 62
     8
370
    25
100
AcDbLine
 10
503.2417461437
 20
-423.6380392883
 30
0.0
 11
532.0592787408
 21
-386.7956113311
 31
0.0
  0
LINE
  5
27E
330
1F5
100
AcDbEntity
  8
0
  6
Continuous
 62
     8
370
    25
100
AcDbLine
 10
-616.1489547555
 20
69.9523812568
 30
0.0
 11
-507.5798556909
 21
-146.2795788498
 31
0.0
  0
LINE
  5
27F
330
1F5
100
AcDbEntity
  8
0
  6
Continuous
 62
     8
370
    25
100
AcDbLine
 10
370.065721649
 20
-367.3027458039
 30
0.0
 11
-229.6060998979
 21
-21.119571941
 31
0.0
  0
ARC
  5
280
330
1F5
100
AcDbEntity
  8
0
  6
Continuous
 62
     7
370
    25
100
AcDbCircle
 10
229.5855098173
 20
-525.9205462356
 30
0.0
 40
49.99999999999916
100
AcDbArc
 50
240.0026882664
 51
299.9973117337
  0
ARC
  5
281
330
1F5
100
AcDbEntity
  8
0
  6
Continuous
 62
     7
370
    25
100
AcDbCircle
 10
472.5423542544
 20
-385.664545375
 30
0.0
 40
49.99999999999723
100
AcDbArc
 50
299.9973117337
 51
321.96807539
  0
ARC
  5
282
330
1F5
100
AcDbEntity
  8
0
  6
Continuous
 62
     7
370
    25
100
AcDbCircle
 10
-472.5423542544
 20
-120.5907579942
 30
0.0
 40
50.00000000000089
100
AcDbArc
 50
206.6610223351
 51
240.0026882664
  0
ARC
  5
283
330
1F5
100
AcDbEntity
  8
0
  6
Continuous
 62
     7
370
    25
100
AcDbCircle
 10
353.5533905933
 20
-444.2366183547
 30
0.0
 40
7.685109539557673
100
AcDbArc
 50
242.6096722366
 51
297.3903277634
  0
ARC
  5
284
330
1F5
100
AcDbEntity
  8
0
  6
Continuous
 62
     7
370
    25
100
AcDbCircle
 10
352.9483778983
 20
-457.5332023798
 30
0.0
 40
7.684024037860163
100
AcDbArc
 50
2.6054784857
 51
57.39452166
  0
ARC
  5
285
330
1F5
100
AcDbEntity
  8
0
  6
Continuous
 62
     7
370
    25
100
AcDbCircle
 10
353.5533905933
 20
-443.536787269
 30
0.0
 40
15.37021907911698
100
AcDbArc
 50
242.6096722366
 51
297.3903277634
  0
ARC
  5
286
330
1F5
100
AcDbEntity
  8
0
  6
Continuous
 62
     7
370
    25
100
AcDbCircle
 10
354.1584032882
 20
-457.5332023798
 30
0.0
 40
7.684024037860457
100
AcDbArc
 50
122.60547834
 51
177.3945215143
  0
ARC
  5
287
330
1F5
100
AcDbEntity
  8
0
  6
Continuous
 62
     7
370
    25
100
AcDbCircle
 10
353.5533905933
 20
-472.115715685
 30
0.0
 40
15.37021907911743
100
AcDbArc
 50
242.6096722366
 51
297.3903277634
  0
ARC
  5
288
330
1F5
100
AcDbEntity
  8
0
  6
Continuous
 62
     7
370
    25
100
AcDbCircle
 10
-833.7809891052
 20
228.2496115513
 30
0.0
 40
7.684024037859931
100
AcDbArc
 50
122.60547834
 51
177.3945215143
  0
ARC
  5
289
330
1F5
100
AcDbEntity
  8
0
  6
Continuous
 62
     7
370
    25
100
AcDbCircle
 10
833.7809891052
 20
-179.9544443601
 30
0.0
 40
7.684024037859955
100
AcDbArc
 50
2.6054784857
 51
57.39452166
  0
ARC
  5
28A
330
1F5
100
AcDbEntity
  8
0
  6
Continuous
 62
     7
370
    25
100
AcDbCircle
 10
-837.1469005721
 20
236.7636604311
 30
0.0
 40
2.183076584171374
100
AcDbArc
 50
110.7834207995
 51
249.2165792005
  0
ARC
  5
28B
330
1F5
100
AcDbEntity
  8
0
  6
Continuous
 62
     7
370
    25
100
AcDbCircle
 10
-353.5533905933
 20
509.5598833056
 30
0.0
 40
7.685109539557848
100
AcDbArc
 50
62.6096722366
 51
117.3903277634
  0
ARC
  5
28C
330
1F5
100
AcDbEntity
  8
0
  6
Continuous
 62
     7
370
    25
100
AcDbCircle
 10
837.1469005721
 20
-171.4403954802
 30
0.0
 40
2.18307658417132
100
AcDbArc
 50
290.7834207995
 51
69.2165792005
  0
ARC
  5
28D
330
1F5
100
AcDbEntity
  8
0
  6
Continuous
 62
     7
370
    25
100
AcDbCircle
 10
693.577073516
 20
-150.5769689216
 30
0.0
 40
7.514468736413925
100
AcDbArc
 50
120.03196193
 51
170.9836832665
  0
ARC
  5
28E
330
1F5
100
AcDbEntity
  8
0
  6
Continuous
 62
     7
370
    25
100
AcDbCircle
 10
839.3814311752
 20
-203.6029641867
 30
0.0
 40
5.029392784937747
100
AcDbArc
 50
294.3746582936
 51
354.3052007488
  0
ARC
  5
28F
330
1F5
100
AcDbEntity
  8
0
  6
Continuous
 62
     7
370
    25
100
AcDbCircle
 10
-301.3636408377
 20
424.271812265
 30
0.0
 40
8.159068299307538
100
AcDbArc
 50
125.8633798853
 51
172.392376296
  0
ARC
  5
290
330
1F5
100
AcDbEntity
  8
0
  6
Continuous
 62
     7
370
    25
100
AcDbCircle
 10
-692.7453780263
 20
244.5308911129
 30
0.0
 40
7.642219836470534
100
AcDbArc
 50
20.3811120432
 51
57.7485315784
  0
ARC
  5
291
330
1F5
100
AcDbEntity
  8
0
  6
Continuous
 62
     7
370
    25
100
AcDbCircle
 10
-839.3814311752
 20
204.6010917247
 30
0.0
 40
5.029392784938056
100
AcDbArc
 50
185.6947992512
 51
245.6253417064
  0
ARC
  5
292
330
1F5
100
AcDbEntity
  8
0
  6
Continuous
 62
     7
370
    25
100
AcDbCircle
 10
-382.4059127763
 20
423.7577736131
 30
0.0
 40
7.708959280421518
100
AcDbArc
 50
19.9966895835
 51
56.9686449539
  0
ARC
  5
293
330
1F5
100
AcDbEntity
  8
0
  6
Continuous
 62
     8
370
    25
100
AcDbCircle
 10
376.7372295675
 20
-366.9246831266
 30
0.0
 40
2.502054947935534
100
AcDbArc
 50
54.1166851032
 51
113.600553464
  0
ARC
  5
294
330
1F5
100
AcDbEntity
  8
0
  6
Continuous
 62
     8
370
    25
100
AcDbCircle
 10
307.5927836719
 20
-367.3042263146
 30
0.0
 40
2.267048988438556
100
AcDbArc
 50
68.2280358346
 51
129.7327893087
  0
ARC
  5
295
330
1F5
100
AcDbEntity
  8
0
  6
Continuous
 62
     8
370
    25
100
AcDbCircle
 10
-688.3632701922
 20
207.2105210988
 30
0.0
 40
2.623218804944679
100
AcDbArc
 50
61.191032363
 51
123.6333663656
  0
ARC
  5
296
330
1F5
100
AcDbEntity
  8
0
  6
Continuous
 62
     8
370
    25
100
AcDbCircle
 10
687.2064427031
 20
-187.7461968901
 30
0.0
 40
2.537969606039098
100
AcDbArc
 50
54.86068697
 51
115.6176433818
  0
ARC
  5
297
330
1F5
100
AcDbEntity
  8
0
  6
Continuous
 62
     8
370
    25
100
AcDbCircle
 10
491.0643581469
 20
-400.0419906381
 30
0.0
 40
26.55300906343766
100
AcDbArc
 50
297.2972372142
 51
321.7808496202
  0
ARC
  5
298
330
1F5
100
AcDbEntity
  8
0
  6
Continuous
 62
     8
370
    25
100
AcDbCircle
 10
839.4765549966
 20
-175.0923944338
 30
0.0
 40
4.928215861618401
100
AcDbArc
 50
293.6952921656
 51
354.9978849021
  0
ARC
  5
299
330
1F5
100
AcDbEntity
  8
0
  6
Continuous
 62
     8
370
    25
100
AcDbCircle
 10
839.3861842667
 20
-171.4439162923
 30
0.0
 40
2.515023594635692
100
AcDbArc
 50
65.7030917561
 51
125.6166879843
  0
ARC
  5
29A
330
1F5
100
AcDbEntity
  8
0
  6
Continuous
 62
     8
370
    25
100
AcDbCircle
 10
-348.5532564131
 20
514.3390320848
 30
0.0
 40
2.514886179508825
100
AcDbArc
 50
65.6928809539
 51
125.6175774752
  0
ARC
  5
29B
330
1F5
100
AcDbEntity
  8
0
  6
Continuous
 62
     8
370
    25
100
AcDbCircle
 10
245.7392564148
 20
-554.0461474913
 30
0.0
 40
17.56578454689742
100
AcDbArc
 50
300.2312602459
 51
325.9006740875
  0
ARC
  5
29C
330
1F5
100
AcDbEntity
  8
0
  6
Continuous
 62
     8
370
    25
100
AcDbCircle
 10
488.6961008519
 20
-413.7901466307
 30
0.0
 40
17.56578454692274
100
AcDbArc
 50
300.231260246
 51
325.9006740875
  0
ARC
  5
29D
330
1F5
100
AcDbEntity
  8
0
  6
Continuous
 62
     8
370
    25
100
AcDbCircle
 10
-839.3811673888
 20
233.1803318755
 30
0.0
 40
5.029785599975182
100
AcDbArc
 50
185.709387517
 51
245.6240702019
  0
ARC
  5
29E
330
1F5
100
AcDbEntity
  8
0
  6
Continuous
 62
     8
370
    25
100
AcDbCircle
 10
-839.3725648773
 20
236.896774964
 30
0.0
 40
2.396996035428192
100
AcDbArc
 50
52.7457393124
 51
115.9650613312
  0
ARC
  5
29F
330
1F5
100
AcDbEntity
  8
0
  6
Continuous
 62
     8
370
    25
100
AcDbCircle
 10
-358.5535247735
 20
514.3390320848
 30
0.0
 40
2.514886179509411
100
AcDbArc
 50
54.3824225248
 51
114.3071190461
  0
VIEWPORT
  5
2A6
330
1F5
100
AcDbEntity
  8
0
100
AcDbViewport
 10
0.0
 20
0.0
 30
0.0
 40
205.6
 41
156.0
 68
     1
 69
     1
 12
0.0
 22
0.0
 13
0.0
 23
0.0
 14
10.0
 24
10.0
 15
10.0
 25
10.0
 16
0.0
 26
0.0
 36
1.0
 17
0.0
 27
0.0
 37
0.0
 42
50.0
 43
0.0
 44
0.0
 45
1315.6809338521
 50
0.0
 51
0.0
 72
   100
 90
   557152
  1

281
     0
 71
     1
 74
     0
110
0.0
120
0.0
130
0.0
111
1.0
121
0.0
131
0.0
112
0.0
122
1.0
132
0.0
 79
     0
146
0.0
  0
ENDBLK
  5
1F8
330
1F5
100
AcDbEntity
  8
0
100
AcDbBlockEnd
  0
ENDSEC
  0
SECTION
  2
ENTITIES
  0
SPLINE
  5
73
330
1F
100
AcDbEntity
  8
0
  6
Continuous
 62
     7
370
    25
100
AcDbSpline
210
0.0
220
0.0
230
1.0
 70
    11
 71
     3
 72
   107
 73
   103
 74
     0
 42
0.000000001
 43
0.00000001
 40
0.0
 40
0.0
 40
0.0
 40
0.0
 40
0.0312499999999999
 40
0.0312499999999999
 40
0.0468749999999998
 40
0.0468749999999998
 40
0.0624999999999997
 40
0.0624999999999997
 40
0.0937499999999994
 40
0.0937499999999994
 40
0.1093749999999993
 40
0.1093749999999993
 40
0.1249999999999991
 40
0.1249999999999991
 40
0.1562499999999988
 40
0.1562499999999988
 40
0.1718749999999986
 40
0.1718749999999986
 40
0.1874999999999984
 40
0.2031249999999983
 40
0.2031249999999983
 40
0.2187499999999981
 40
0.2187499999999981
 40
0.2499999999999977
 40
0.2499999999999977
 40
0.2656249999999975
 40
0.2656249999999975
 40
0.2734374999999974
 40
0.2734374999999974
 40
0.2812499999999973
 40
0.2812499999999973
 40
0.3124999999999971
 40
0.3124999999999971
 40
0.3281249999999968
 40
0.3281249999999968
 40
0.3437499999999967
 40
0.3437499999999967
 40
0.3749999999999963
 40
0.3749999999999963
 40
0.406249999999996
 40
0.406249999999996
 40
0.4218749999999959
 40
0.4218749999999959
 40
0.4374999999999959
 40
0.4374999999999959
 40
0.4687499999999957
 40
0.4687499999999957
 40
0.4843749999999956
 40
0.4843749999999956
 40
0.4999999999999956
 40
0.4999999999999956
 40
0.5312499999999954
 40
0.5312499999999954
 40
0.5468749999999954
 40
0.5468749999999954
 40
0.5624999999999956
 40
0.5781249999999956
 40
0.5781249999999956
 40
0.5937499999999957
 40
0.5937499999999957
 40
0.6249999999999956
 40
0.6249999999999956
 40
0.6406249999999953
 40
0.6406249999999953
 40
0.6562499999999951
 40
0.6562499999999951
 40
0.687499999999995
 40
0.687499999999995
 40
0.695312499999995
 40
0.695312499999995
 40
0.703124999999995
 40
0.703124999999995
 40
0.7187499999999951
 40
0.7187499999999951
 40
0.7499999999999954
 40
0.7499999999999954
 40
0.7578124999999956
 40
0.7578124999999956
 40
0.7656249999999956
 40
0.7656249999999956
 40
0.7812499999999958
 40
0.7968749999999959
 40
0.7968749999999959
 40
0.8124999999999961
 40
0.8124999999999961
 40
0.8437499999999966
 40
0.8437499999999966
 40
0.8593749999999968
 40
0.8593749999999968
 40
0.874999999999997
 40
0.874999999999997
 40
0.9062499999999977
 40
0.9062499999999977
 40
0.9218749999999981
 40
0.9218749999999981
 40
0.9374999999999984
 40
0.9374999999999984
 40
0.9531249999999989
 40
0.9531249999999989
 40
0.9687499999999992
 40
0.9687499999999992
 40
1.0
 40
1.0
 40
1.0
 40
1.0
 10
-19.99999999999978
 20
-254.7735849056604
 30
0.0
 10
-19.99999999999979
 20
-254.9522410106367
 30
0.0
 10
-19.87154924582372
 20
-255.1279577264497
 30
0.0
 10
-19.49389295843055
 20
-255.3872998264511
 30
0.0
 10
-19.33695067530707
 20
-255.4730365069049
 30
0.0
 10
-18.95952808735973
 20
-255.6430559022547
 30
0.0
 10
-18.73782502082507
 20
-255.7276389385229
 30
0.0
 10
-17.99007669907533
 20
-255.9738776841334
 30
0.0
 10
-17.37963218610428
 20
-256.1296832937064
 30
0.0
 10
-16.29736800874541
 20
-256.350959954824
 30
0.0
 10
-15.90805460947903
 20
-256.4227318223549
 30
0.0
 10
-15.07373796977339
 20
-256.5615225596175
 30
0.0
 10
-14.63462364344304
 20
-256.6275817964889
 30
0.0
 10
-13.25347452809445
 20
-256.8160644071229
 30
0.0
 10
-12.24823783916539
 20
-256.928884492337
 30
0.0
 10
-10.61066618085891
 20
-257.0784046718762
 30
0.0
 10
-10.04134341660795
 20
-257.1250021539861
 30
0.0
 10
-8.883825686641858
 20
-257.2094505839021
 30
0.0
 10
-7.701754802915031
 20
-257.2857326511586
 30
0.0
 10
-6.471381008952576
 20
-257.3459492025001
 30
0.0
 10
-5.216553462698247
 20
-257.3980324520446
 30
0.0
 10
-4.574313441442076
 20
-257.4200757759447
 30
0.0
 10
-2.62721261844771
 20
-257.4730196195086
 30
0.0
 10
-1.323170738738412
 20
-257.4904467339552
 30
0.0
 10
0.6415730286315328
 20
-257.4906247828476
 30
0.0
 10
1.297945052977879
 20
-257.4863252949697
 30
0.0
 10
2.284751151964256
 20
-257.4731526500971
 30
0.0
 10
2.614787409037322
 20
-257.4676198108427
 30
0.0
 10
3.268671185261035
 20
-257.4544105256124
 30
0.0
 10
3.593203117756167
 20
-257.4467299054699
 30
0.0
 10
5.204031962136354
 20
-257.4030446766062
 30
0.0
 10
6.455175950229278
 20
-257.3513452742694
 30
0.0
 10
8.275616366485302
 20
-257.2486707104348
 30
0.0
 10
8.876209033327171
 20
-257.2099724575594
 30
0.0
 10
10.03728982140404
 20
-257.1253313625229
 30
0.0
 10
10.59842690246116
 20
-257.079418717908
 30
0.0
 10
12.22518186512161
 20
-256.9311921184978
 30
0.0
 10
13.23469183006702
 20
-256.8184910156563
 30
0.0
 10
15.09868127004147
 20
-256.5643883208737
 30
0.0
 10
15.92462235022215
 20
-256.4268113630224
 30
0.0
 10
17.0063459303343
 20
-256.2061793196611
 30
0.0
 10
17.34084936581987
 20
-256.1301955207053
 30
0.0
 10
17.95671503276907
 20
-255.973254863365
 30
0.0
 10
18.2386803555342
 20
-255.8919921443114
 30
0.0
 10
18.98653818047982
 20
-255.6457731278741
 30
0.0
 10
19.36190811093083
 20
-255.4769840858696
 30
0.0
 10
19.74266306539633
 20
-255.2169303047584
 30
0.0
 10
19.83913622521964
 20
-255.1288750504193
 30
0.0
 10
19.96796977917303
 20
-254.9513064860205
 30
0.0
 10
19.99976655219358
 20
-254.8627978800015
 30
0.0
 10
20.00046306296942
 20
-254.5980723324595
 30
0.0
 10
19.87555268793682
 20
-254.4226481932182
 30
0.0
 10
19.4962256500034
 20
-254.1611342774247
 30
0.0
 10
19.33683654612913
 20
-254.0740922053857
 30
0.0
 10
18.96002935337771
 20
-253.9043296887429
 30
0.0
 10
18.52413018219056
 20
-253.7379329374349
 30
0.0
 10
17.97194494182125
 20
-253.5781596167666
 30
0.0
 10
17.36089461988279
 20
-253.4217391378243
 30
0.0
 10
17.02468930951354
 20
-253.3449522128213
 30
0.0
 10
15.9324257205383
 20
-253.1215225456726
 30
0.0
 10
15.10773917304382
 20
-252.9844251427388
 30
0.0
 10
13.73023540127449
 20
-252.796035323002
 30
0.0
 10
13.24748578424077
 20
-252.7361355695949
 30
0.0
 10
12.23346686513508
 20
-252.6222963813572
 30
0.0
 10
11.70163395495592
 20
-252.5683819439605
 30
0.0
 10
10.06855486014732
 20
-252.4192573931656
 30
0.0
 10
8.918880624894502
 20
-252.3351985677406
 30
0.0
 10
7.405559382063761
 20
-252.2493307563055
 30
0.0
 10
7.099049334455956
 20
-252.2331261412043
 30
0.0
 10
6.478194943534307
 20
-252.2026907579694
 30
0.0
 10
6.162994523437046
 20
-252.1884279361352
 30
0.0
 10
5.21480485693584
 20
-252.149050264392
 30
0.0
 10
4.577674516775094
 20
-252.1272339284214
 30
0.0
 10
2.651690708467526
 20
-252.074719944105
 30
0.0
 10
1.348385810013721
 20
-252.0568320202791
 30
0.0
 10
-0.3056520402634075
 20
-252.0565493983302
 30
0.0
 10
-0.6380757386453785
 20
-252.0576160752802
 30
0.0
 10
-1.297996653927688
 20
-252.0619603715559
 30
0.0
 10
-1.626401747837924
 20
-252.0652347464139
 30
0.0
 10
-2.607031033686504
 20
-252.0783077906695
 30
0.0
 10
-3.902329107020005
 20
-252.1043896041755
 30
0.0
 10
-5.173516527525361
 20
-252.1475577141307
 30
0.0
 10
-6.432448166371385
 20
-252.1994110272666
 30
0.0
 10
-7.059038534971158
 20
-252.2298894095399
 30
0.0
 10
-8.88464693423116
 20
-252.3328361198665
 30
0.0
 10
-10.03613129178203
 20
-252.4167398100885
 30
0.0
 10
-11.66707683505141
 20
-252.5650149698883
 30
0.0
 10
-12.19477155802105
 20
-252.6182266387462
 30
0.0
 10
-13.21591448101195
 20
-252.7323350770762
 30
0.0
 10
-13.70124660478868
 20
-252.7923199767026
 30
0.0
 10
-15.08430775514071
 20
-252.9807435914251
 30
0.0
 10
-15.90977847777314
 20
-253.1175726217467
 30
0.0
 10
-17.00131892397123
 20
-253.3398463335394
 30
0.0
 10
-17.34084117776928
 20
-253.416981380461
 30
0.0
 10
-17.9558089692137
 20
-253.5736748935863
 30
0.0
 10
-18.23334655410554
 20
-253.6536193886549
 30
0.0
 10
-18.72969177324439
 20
-253.8166418233135
 30
0.0
 10
-18.94849791793949
 20
-253.8997198423762
 30
0.0
 10
-19.32684570113787
 20
-254.0690378453967
 30
0.0
 10
-19.48678899033233
 20
-254.1555620355949
 30
0.0
 10
-19.8715300301133
 20
-254.4180891507409
 30
0.0
 10
-19.99999999999978
 20
-254.594928800684
 30
0.0
 10
-19.99999999999978
 20
-254.7735849056604
 30
0.0
  0
SPLINE
  5
74
330
1F
100
AcDbEntity
  8
0
  6
Continuous
 62
     7
370
    25
100
AcDbSpline
210
0.0
220
0.0
230
1.0
 70
     8
 71
     3
 72
    38
 73
    34
 74
     0
 42
0.000000001
 43
0.00000001
 40
0.0
 40
0.0
 40
0.0
 40
0.0
 40
0.0104114010662297
 40
0.0208295625545404
 40
0.0312527510876512
 40
0.0416792951986393
 40
0.0521075856024217
 40
0.0625360752040875
 40
0.0729632664375701
 40
0.0833876955153614
 40
0.0938079604137563
 40
0.1042227246118931
 40
0.114630715938669
 40
0.1250307246633727
 40
0.1874610629092399
 40
0.2500218494780171
 40
0.312208813184162
 40
0.375025966060466
 40
0.436853617335033
 40
0.5000227996681164
 40
0.5625271983746511
 40
0.6250072226483978
 40
0.6874971311530129
 40
0.7499887100452
 40
0.812482477658977
 40
0.8420811966248524
 40
0.8749795523800983
 40
0.9029613133690055
 40
0.9374856150582053
 40
0.9533454986829665
 40
0.9690428965261014
 40
0.9845902686398302
 40
0.9999999999999999
 40
0.9999999999999999
 40
0.9999999999999999
 40
0.9999999999999999
 10
537.4179569160635
 20
-168.9073070960722
 30
0.0
 10
537.4033512570294
 20
-169.1523901587568
 30
0.0
 10
537.3741304550867
 20
-169.6427154236059
 30
0.0
 10
537.31960375116
 20
-170.3783677213643
 30
0.0
 10
537.2572660472447
 20
-171.1141747068948
 30
0.0
 10
537.186381978815
 20
-171.8498881352371
 30
0.0
 10
537.1071967978951
 20
-172.5852558267381
 30
0.0
 10
537.0196986949368
 20
-173.320033839963
 30
0.0
 10
536.9239492025793
 20
-174.0539823790988
 30
0.0
 10
536.8199885325326
 20
-174.7868655358862
 30
0.0
 10
536.7078674520186
 20
-175.5184533574776
 30
0.0
 10
536.5876400163381
 20
-176.248518935984
 30
0.0
 10
536.4593647643698
 20
-176.976852082718
 30
0.0
 10
536.0958301573718
 20
-178.9147651200797
 30
0.0
 10
535.3821933024269
 20
-182.0451226983273
 30
0.0
 10
534.1137359133483
 20
-186.2895709637018
 30
0.0
 10
532.5634726004639
 20
-190.4306569044618
 30
0.0
 10
530.7518344125854
 20
-194.4167745977775
 30
0.0
 10
528.6650685476206
 20
-198.250786461511
 30
0.0
 10
526.3273175326885
 20
-201.8758848560737
 30
0.0
 10
523.7334126982344
 20
-205.272059856734
 30
0.0
 10
520.9154576346032
 20
-208.3793895202509
 30
0.0
 10
517.8814487637815
 20
-211.172704113909
 30
0.0
 10
514.6497807060103
 20
-213.607945178977
 30
0.0
 10
511.8438972169241
 20
-215.2892318631164
 30
0.0
 10
509.5086061969826
 20
-216.4310015090651
 30
0.0
 10
507.7885563470737
 20
-217.1473655241382
 30
0.0
 10
505.9508707350093
 20
-217.7843667509676
 30
0.0
 10
504.4243188131563
 20
-218.2041313427399
 30
0.0
 10
503.1298025667546
 20
-218.4852120163273
 30
0.0
 10
502.2043767140784
 20
-218.6518544388648
 30
0.0
 10
501.2861846500405
 20
-218.7863116833497
 30
0.0
 10
500.6765476246515
 20
-218.8475967867055
 30
0.0
 10
500.3730843889397
 20
-218.8781030961828
 30
0.0
  0
SPLINE
  5
75
330
1F
100
AcDbEntity
  8
0
  6
Continuous
 62
     7
370
    25
100
AcDbSpline
210
0.0
220
0.0
230
1.0
 70
     8
 71
     3
 72
    22
 73
    18
 74
     0
 42
0.000000001
 43
0.00000001
 40
0.0
 40
0.0
 40
0.0
 40
0.0
 40
0.0001220703125001
 40
0.0001220703125001
 40
0.0002441406250002
 40
0.0004882812500002
 40
0.0009765625000001
 40
0.0019531250000002
 40
0.0039062500000002
 40
0.0078125000000002
 40
0.0156250000000001
 40
0.0312500000000001
 40
0.0625
 40
0.125
 40
0.25
 40
0.5
 40
1.0
 40
1.0
 40
1.0
 40
1.0
 10
537.4179569160635
 20
168.9073070960723
 30
0.0
 10
537.4187061594254
 20
168.8935613842318
 30
0.0
 10
537.4179569160584
 20
168.8798156723913
 30
0.0
 10
537.4179569160584
 20
168.8523242487102
 30
0.0
 10
537.4179569160589
 20
168.8110871131886
 30
0.0
 10
537.4179569160493
 20
168.7148671303054
 30
0.0
 10
537.41795691608
 20
168.5224271645382
 30
0.0
 10
537.4179569160551
 20
168.1375472330039
 30
0.0
 10
537.4179569160613
 20
167.3677873699364
 30
0.0
 10
537.4179569160742
 20
165.8282676438003
 30
0.0
 10
537.417956916065
 20
162.7492281915279
 30
0.0
 10
537.4179569160623
 20
156.5911492869838
 30
0.0
 10
537.417956916065
 20
144.2749914778951
 30
0.0
 10
537.4179569160611
 20
119.642675859718
 30
0.0
 10
537.4179569160714
 20
70.37804462336351
 30
0.0
 10
537.4179569160735
 20
-28.15121784934516
 30
0.0
 10
537.4179569160631
 20
-112.6048713973813
 30
0.0
 10
537.4179569160634
 20
-168.9073070960722
 30
0.0
  0
SPLINE
  5
76
330
1F
100
AcDbEntity
  8
0
  6
Continuous
 62
     7
370
    25
100
AcDbSpline
210
0.0
220
0.0
230
1.0
 70
     8
 71
     3
 72
    36
 73
    32
 74
     0
 42
0.000000001
 43
0.00000001
 40
0.0
 40
0.0
 40
0.0
 40
0.0
 40
0.0087950764031049
 40
0.0176316008101497
 40
0.0265118423409709
 40
0.0354380791733199
 40
0.0444126001231802
 40
0.0534377058239879
 40
0.0625156565364609
 40
0.0948919975207519
 40
0.1250219323429654
 40
0.1579211452098981
 40
0.1875311862683344
 40
0.2500165396053893
 40
0.3125046646700654
 40
0.3749985356924183
 40
0.4374882692614272
 40
0.4999830916843323
 40
0.5631376689789258
 40
0.6249745906044096
 40
0.6877704470283016
 40
0.7499726893815616
 40
0.8125112783110962
 40
0.8749710796804989
 40
0.8927967431441113
 40
0.9106459747382927
 40
0.9285122723895854
 40
0.9463885746451902
 40
0.9642673509773351
 40
0.982140653097448
 40
1.0
 40
1.0
 40
1.0
 40
1.0
 10
500.373084388939
 20
218.8781030961829
 30
0.0
 10
500.5463292461617
 20
218.8614845240549
 30
0.0
 10
500.8936354007602
 20
218.8281690624983
 30
0.0
 10
501.4157463889255
 20
218.7643726760836
 30
0.0
 10
501.9401275906973
 20
218.6902220525835
 30
0.0
 10
502.4667372106669
 20
218.604628894398
 30
0.0
 10
502.9955188400985
 20
218.5077606635097
 30
0.0
 10
503.526440303857
 20
218.3994446464143
 30
0.0
 10
504.5141668356711
 20
218.1772983445617
 30
0.0
 10
505.9087934201769
 20
217.7971460736994
 30
0.0
 10
507.747816254657
 20
217.16439435934
 30
0.0
 10
509.5088061846265
 20
216.4309039997369
 30
0.0
 10
511.8441994274297
 20
215.2890765684074
 30
0.0
 10
514.6500360520342
 20
213.6077520889985
 30
0.0
 10
517.8815697876204
 20
211.1726056727726
 30
0.0
 10
520.9157346356048
 20
208.3791270682929
 30
0.0
 10
523.7337288659701
 20
205.2716875661663
 30
0.0
 10
526.3273899789706
 20
201.875737350625
 30
0.0
 10
528.6649793726282
 20
198.2509435123052
 30
0.0
 10
530.7514610596096
 20
194.4174889960709
 30
0.0
 10
532.5632016474697
 20
190.4313375552757
 30
0.0
 10
534.1132787063548
 20
186.2909048707143
 30
0.0
 10
535.3819793209703
 20
182.0459524756628
 30
0.0
 10
536.1348674274849
 20
178.7438299491439
 30
0.0
 10
536.5543726574124
 20
176.4573799926791
 30
0.0
 10
536.7594381538597
 20
175.2060311590998
 30
0.0
 10
536.9406223768796
 20
173.9503433252557
 30
0.0
 10
537.0978265613354
 20
172.6914504338802
 30
0.0
 10
537.2301999395376
 20
171.4305642657004
 30
0.0
 10
537.3397781794804
 20
170.1689044814012
 30
0.0
 10
537.3919041230496
 20
169.3277300522798
 30
0.0
 10
537.4179569160634
 20
168.9073070960722
 30
0.0
  0
SPLINE
  5
78
330
1F
100
AcDbEntity
  8
0
  6
Continuous
 62
     7
370
    25
100
AcDbSpline
210
0.0
220
0.0
230
1.0
 70
     8
 71
     3
 72
    38
 73
    34
 74
     0
 42
0.000000001
 43
0.00000001
 40
0.0
 40
0.0
 40
0.0
 40
0.0
 40
0.0104114010675435
 40
0.0208295625569515
 40
0.031252751090921
 40
0.0416792952025395
 40
0.0521075856067122
 40
0.0625360752085282
 40
0.0729632664419099
 40
0.0833876955193537
 40
0.093807960417153
 40
0.1042227246144214
 40
0.1146307159400759
 40
0.1250307246633895
 40
0.1874610629117529
 40
0.2500218494780442
 40
0.3122088131691338
 40
0.3750259660605028
 40
0.4368536172861411
 40
0.5000227996681604
 40
0.5625271983746952
 40
0.6250072226484582
 40
0.6874971311530779
 40
0.749988710045272
 40
0.8124824776590496
 40
0.8420811965084936
 40
0.8749795523801677
 40
0.9029613129110392
 40
0.9374856150581932
 40
0.9533454986834908
 40
0.9690428965267989
 40
0.9845902686403418
 40
1.0
 40
1.0
 40
1.0
 40
1.0
 10
-537.4179569160631
 20
168.9073070960723
 30
0.0
 10
-537.4033512570269
 20
169.1523901587878
 30
0.0
 10
-537.3741304550804
 20
169.6427154236935
 30
0.0
 10
-537.3196037511457
 20
170.3783677215287
 30
0.0
 10
-537.2572660472212
 20
171.1141747071195
 30
0.0
 10
-537.186381978783
 20
171.8498881355054
 30
0.0
 10
-537.1071967978551
 20
172.5852558270333
 30
0.0
 10
-537.0196986948906
 20
173.3200338402678
 30
0.0
 10
-536.9239492025295
 20
174.053982379396
 30
0.0
 10
-536.8199885324829
 20
174.7868655361584
 30
0.0
 10
-536.7078674519721
 20
175.5184533577069
 30
0.0
 10
-536.5876400163014
 20
176.2485189361529
 30
0.0
 10
-536.4593647643479
 20
176.9768520828083
 30
0.0
 10
-536.0958301573617
 20
178.9147651201718
 30
0.0
 10
-535.3821933024315
 20
182.0451226983886
 30
0.0
 10
-534.1137359134111
 20
186.2895709634124
 30
0.0
 10
-532.5634726006454
 20
190.4306569041408
 30
0.0
 10
-530.7518344131964
 20
194.416774596423
 30
0.0
 10
-528.6650685482772
 20
198.2507864605446
 30
0.0
 10
-526.3273175333414
 20
201.8758848551884
 30
0.0
 10
-523.7334126982388
 20
205.2720598567347
 30
0.0
 10
-520.9154576346023
 20
208.3793895202513
 30
0.0
 10
-517.8814487637767
 20
211.1727041139092
 30
0.0
 10
-514.6497807060256
 20
213.6079451789796
 30
0.0
 10
-511.8438972189907
 20
215.2892318618442
 30
0.0
 10
-509.5086061992588
 20
216.431001508084
 30
0.0
 10
-507.7885563580036
 20
217.1473655197336
 30
0.0
 10
-505.9508707439086
 20
217.784366748227
 30
0.0
 10
-504.4243188221263
 20
218.2041313407984
 30
0.0
 10
-503.1298025667117
 20
218.4852120163288
 30
0.0
 10
-502.2043767140217
 20
218.6518544388666
 30
0.0
 10
-501.2861846499983
 20
218.7863116833491
 30
0.0
 10
-500.6765476246347
 20
218.8475967867057
 30
0.0
 10
-500.3730843889386
 20
218.8781030961829
 30
0.0
  0
SPLINE
  5
79
330
1F
100
AcDbEntity
  8
0
  6
Continuous
 62
     7
370
    25
100
AcDbSpline
210
0.0
220
0.0
230
1.0
 70
     8
 71
     3
 72
    22
 73
    18
 74
     0
 42
0.000000001
 43
0.00000001
 40
0.0
 40
0.0
 40
0.0
 40
0.0
 40
0.0001220703125001
 40
0.0001220703125001
 40
0.0002441406250002
 40
0.0004882812500001
 40
0.0009765624999999
 40
0.0019531249999997
 40
0.0039062499999997
 40
0.0078124999999997
 40
0.0156249999999997
 40
0.0312499999999999
 40
0.0625
 40
0.1250000000000001
 40
0.2500000000000001
 40
0.5000000000000001
 40
1.0
 40
1.0
 40
1.0
 40
1.0
 10
-537.417956916063
 20
-168.9073070960722
 30
0.0
 10
-537.4187061594247
 20
-168.8935613842317
 30
0.0
 10
-537.417956916069
 20
-168.8798156723913
 30
0.0
 10
-537.4179569160691
 20
-168.8523242487102
 30
0.0
 10
-537.4179569160658
 20
-168.8110871131886
 30
0.0
 10
-537.4179569160638
 20
-168.7148671303051
 30
0.0
 10
-537.4179569160547
 20
-168.5224271645382
 30
0.0
 10
-537.4179569160581
 20
-168.1375472330042
 30
0.0
 10
-537.4179569160711
 20
-167.3677873699361
 30
0.0
 10
-537.4179569160593
 20
-165.8282676438001
 30
0.0
 10
-537.4179569160683
 20
-162.7492281915278
 30
0.0
 10
-537.4179569160608
 20
-156.5911492869838
 30
0.0
 10
-537.4179569160569
 20
-144.2749914778949
 30
0.0
 10
-537.4179569160644
 20
-119.6426758597177
 30
0.0
 10
-537.4179569160564
 20
-70.37804462336342
 30
0.0
 10
-537.417956916063
 20
28.1512178493452
 30
0.0
 10
-537.4179569160588
 20
112.6048713973814
 30
0.0
 10
-537.417956916063
 20
168.9073070960722
 30
0.0
  0
SPLINE
  5
7A
330
1F
100
AcDbEntity
  8
0
  6
Continuous
 62
     7
370
    25
100
AcDbSpline
210
0.0
220
0.0
230
1.0
 70
     8
 71
     3
 72
    36
 73
    32
 74
     0
 42
0.000000001
 43
0.00000001
 40
0.0
 40
0.0
 40
0.0
 40
0.0
 40
0.0087950764031065
 40
0.0176316008101501
 40
0.0265118423409663
 40
0.0354380791733132
 40
0.0444126001231735
 40
0.0534377058239772
 40
0.0625156565364485
 40
0.0948919964142446
 40
0.1250219323430238
 40
0.1579211445873711
 40
0.1875311862684531
 40
0.250016539605489
 40
0.3125046646701585
 40
0.3749985356925103
 40
0.4374882692615151
 40
0.4999830916844046
 40
0.5631376689979581
 40
0.6249745906044505
 40
0.6877704470046963
 40
0.7499726893815879
 40
0.8125112783039258
 40
0.8749710796805213
 40
0.8927967431424858
 40
0.9106459747355936
 40
0.9285122723863769
 40
0.9463885746420025
 40
0.9642673509747082
 40
0.9821406530958878
 40
1.0
 40
1.0
 40
1.0
 40
1.0
 10
-500.3730843889386
 20
-218.8781030961828
 30
0.0
 10
-500.5463292461615
 20
-218.8614845240549
 30
0.0
 10
-500.8936354007602
 20
-218.8281690624983
 30
0.0
 10
-501.4157463889248
 20
-218.7643726760834
 30
0.0
 10
-501.9401275906969
 20
-218.6902220525835
 30
0.0
 10
-502.4667372106664
 20
-218.6046288943981
 30
0.0
 10
-502.9955188400976
 20
-218.5077606635093
 30
0.0
 10
-503.5264403038572
 20
-218.3994446464146
 30
0.0
 10
-504.514166814012
 20
-218.1772983494285
 30
0.0
 10
-505.9087933987999
 20
-217.7971460803437
 30
0.0
 10
-507.7478162216378
 20
-217.1643943722262
 30
0.0
 10
-509.5088061726719
 20
-216.430904005019
 30
0.0
 10
-511.8441994162457
 20
-215.2890765751908
 30
0.0
 10
-514.6500360519921
 20
-213.6077520889941
 30
0.0
 10
-517.8815697876311
 20
-211.1726056727736
 30
0.0
 10
-520.9157346355979
 20
-208.3791270682921
 30
0.0
 10
-523.7337288659844
 20
-205.2716875661683
 30
0.0
 10
-526.3273899791798
 20
-201.8757373502746
 30
0.0
 10
-528.664979373042
 20
-198.2509435119551
 30
0.0
 10
-530.7514610594915
 20
-194.417488996142
 30
0.0
 10
-532.5632016472169
 20
-190.4313375557854
 30
0.0
 10
-534.113278706147
 20
-186.2909048714113
 30
0.0
 10
-535.3819793209182
 20
-182.0459524758269
 30
0.0
 10
-536.1348674274506
 20
-178.7438299493503
 30
0.0
 10
-536.5543726573868
 20
-176.4573799927789
 30
0.0
 10
-536.7594381538239
 20
-175.2060311592751
 30
0.0
 10
-536.9406223768436
 20
-173.9503433254683
 30
0.0
 10
-537.0978265613052
 20
-172.6914504340915
 30
0.0
 10
-537.2301999395185
 20
-171.4305642658737
 30
0.0
 10
-537.3397781794728
 20
-170.1689044814997
 30
0.0
 10
-537.3919041230466
 20
-169.3277300523165
 30
0.0
 10
-537.4179569160631
 20
-168.9073070960722
 30
0.0
  0
SPLINE
  5
7C
330
1F
100
AcDbEntity
  8
0
  6
Continuous
 62
     7
370
    25
100
AcDbSpline
210
0.0
220
0.0
230
1.0
 70
     8
 71
     3
 72
    36
 73
    32
 74
     0
 42
0.000000001
 43
0.00000001
 40
0.0
 40
0.0
 40
0.0
 40
0.0
 40
0.1250000000000218
 40
0.1250000000000218
 40
0.1875000000000325
 40
0.1875000000000325
 40
0.2187500000000357
 40
0.2187500000000357
 40
0.2500000000000389
 40
0.2500000000000389
 40
0.3750000000000361
 40
0.3750000000000361
 40
0.4062500000000352
 40
0.4062500000000352
 40
0.4375000000000342
 40
0.4375000000000342
 40
0.5000000000000342
 40
0.5000000000000342
 40
0.6250000000000311
 40
0.6250000000000311
 40
0.656250000000029
 40
0.656250000000029
 40
0.6875000000000269
 40
0.6875000000000269
 40
0.7500000000000216
 40
0.7500000000000216
 40
0.8125000000000165
 40
0.8125000000000165
 40
0.8750000000000113
 40
0.8750000000000113
 40
1.0
 40
1.0
 40
1.0
 40
1.0
 10
703.9999999998727
 20
-266.3703509715963
 30
0.0
 10
707.0445136432363
 20
-266.2439948520957
 30
0.0
 10
710.0386824097735
 20
-265.8444293255293
 30
0.0
 10
714.4555629179077
 20
-264.8418209725011
 30
0.0
 10
715.9153367089141
 20
-264.4399016096457
 30
0.0
 10
718.0855279704624
 20
-263.7312832429245
 30
0.0
 10
718.8050496059657
 20
-263.4775957631318
 30
0.0
 10
720.2234963299452
 20
-262.9398703981304
 30
0.0
 10
720.9241768981697
 20
-262.655275964311
 30
0.0
 10
724.3856059973328
 20
-261.1549890709625
 30
0.0
 10
727.0213211079584
 20
-259.7093563838966
 30
0.0
 10
730.144518671616
 20
-257.586740535167
 30
0.0
 10
730.7606185972256
 20
-257.1465156646081
 30
0.0
 10
731.9752512235553
 20
-256.2337663728113
 30
0.0
 10
732.5752816190424
 20
-255.7599198594229
 30
0.0
 10
734.3310614972639
 20
-254.302980586976
 30
0.0
 10
735.4460410473441
 20
-253.2823792517524
 30
0.0
 10
738.6294097746949
 20
-250.077150605818
 30
0.0
 10
740.5371148439971
 20
-247.7499182347345
 30
0.0
 10
742.644850193036
 20
-244.5951482176455
 30
0.0
 10
743.0534580934702
 20
-243.9502001772356
 30
0.0
 10
743.8371606344917
 20
-242.642969334463
 30
0.0
 10
744.2113718768884
 20
-241.9823685066154
 30
0.0
 10
745.2820602468458
 20
-239.979995782575
 30
0.0
 10
745.9266722633635
 20
-238.6176850466786
 30
0.0
 10
747.0815600766537
 20
-235.8398694786183
 30
0.0
 10
747.5914167889277
 20
-234.4241990040805
 30
0.0
 10
748.4730674250847
 20
-231.5381877585722
 30
0.0
 10
748.8452757026647
 20
-230.066163132451
 30
0.0
 10
749.7486922373721
 20
-225.5771561866757
 30
0.0
 10
750.0528232543651
 20
-222.5538817386592
 30
0.0
 10
750.0587759619592
 20
-219.4999999998276
 30
0.0
  0
SPLINE
  5
7D
330
1F
100
AcDbEntity
  8
0
  6
Continuous
 62
     7
370
    25
100
AcDbSpline
210
0.0
220
0.0
230
1.0
 70
     8
 71
     3
 72
     8
 73
     4
 74
     0
 42
0.000000001
 43
0.00000001
 40
0.0
 40
0.0
 40
0.0
 40
0.0
 40
1.0
 40
1.0
 40
1.0
 40
1.0
 10
701.5126915481382
 20
-266.4121896903817
 30
0.0
 10
702.3418804966753
 20
-266.4185477020847
 30
0.0
 10
703.1712236639507
 20
-266.4047475859683
 30
0.0
 10
703.9999999998727
 20
-266.3703509715963
 30
0.0
  0
SPLINE
  5
7F
330
1F
100
AcDbEntity
  8
0
  6
Continuous
 62
     7
370
    25
100
AcDbSpline
210
0.0
220
0.0
230
1.0
 70
     8
 71
     3
 72
     8
 73
     4
 74
     0
 42
0.000000001
 43
0.00000001
 40
0.0
 40
0.0
 40
0.0
 40
0.0
 40
1.0
 40
1.0
 40
1.0
 40
1.0
 10
-703.9999999986991
 20
-266.3703509716448
 30
0.0
 10
-703.1712236631577
 20
-266.4047475859816
 30
0.0
 10
-702.3418804961524
 20
-266.4185477023685
 30
0.0
 10
-701.5126915481372
 20
-266.4121896903818
 30
0.0
  0
SPLINE
  5
80
330
1F
100
AcDbEntity
  8
0
  6
Continuous
 62
     7
370
    25
100
AcDbSpline
210
0.0
220
0.0
230
1.0
 70
     8
 71
     3
 72
    38
 73
    34
 74
     0
 42
0.000000001
 43
0.00000001
 40
0.0
 40
0.0
 40
0.0
 40
0.0
 40
0.1249999999999995
 40
0.1249999999999995
 40
0.1874999999999987
 40
0.1874999999999987
 40
0.2187499999999977
 40
0.2187499999999977
 40
0.2499999999999967
 40
0.2499999999999967
 40
0.3749999999999951
 40
0.3749999999999951
 40
0.4062499999999946
 40
0.4062499999999946
 40
0.4374999999999942
 40
0.4374999999999942
 40
0.4999999999999934
 40
0.4999999999999934
 40
0.6249999999999933
 40
0.6249999999999933
 40
0.656249999999994
 40
0.656249999999994
 40
0.6874999999999947
 40
0.6874999999999947
 40
0.7499999999999959
 40
0.7499999999999959
 40
0.812499999999997
 40
0.812499999999997
 40
0.8437499999999976
 40
0.8437499999999976
 40
0.8749999999999981
 40
0.8749999999999981
 40
1.0
 40
1.0
 40
1.0
 40
1.0
 10
-750.0587759619588
 20
-219.4999999998175
 30
0.0
 10
-750.0528238667407
 20
-222.5535675753219
 30
0.0
 10
-749.7488207518686
 20
-225.5600377108193
 30
0.0
 10
-748.859938693359
 20
-230.001341260315
 30
0.0
 10
-748.4918017143976
 20
-231.4704231517305
 30
0.0
 10
-747.8269499134166
 20
-233.6562459817427
 30
0.0
 10
-747.5864025946657
 20
-234.3818502283603
 30
0.0
 10
-747.0730141670657
 20
-235.8114331863912
 30
0.0
 10
-746.7995977937074
 20
-236.5174227878952
 30
0.0
 10
-745.3511370224021
 20
-240.0045372782595
 30
0.0
 10
-743.9340980375287
 20
-242.6582819614039
 30
0.0
 10
-741.8380120210992
 20
-245.8044936104446
 30
0.0
 10
-741.4025481085644
 20
-246.4251837493988
 30
0.0
 10
-740.4983580623928
 20
-247.6490524426216
 30
0.0
 10
-740.0290495574801
 20
-248.2527632943052
 30
0.0
 10
-738.5866879638871
 20
-250.0174826675734
 30
0.0
 10
-737.5744759728275
 20
-251.1389135069117
 30
0.0
 10
-734.3919139748024
 20
-254.3445712265078
 30
0.0
 10
-732.0757321949777
 20
-256.2701971097154
 30
0.0
 10
-728.9347039032317
 20
-258.4099316636086
 30
0.0
 10
-728.2929495930429
 20
-258.8250090856136
 30
0.0
 10
-726.9977519620699
 20
-259.6194163558637
 30
0.0
 10
-726.3428964662528
 20
-259.9997854643688
 30
0.0
 10
-724.3569998000276
 20
-261.0914191195491
 30
0.0
 10
-723.0046393140158
 20
-261.7532334686734
 30
0.0
 10
-720.2451386768885
 20
-262.9498974269681
 30
0.0
 10
-718.8378362017213
 20
-263.484231617119
 30
0.0
 10
-716.6852650863465
 20
-264.189175157909
 30
0.0
 10
-715.960806683838
 20
-264.4080563099319
 30
0.0
 10
-714.4978181362707
 20
-264.8131472817802
 30
0.0
 10
-713.7578821635334
 20
-264.9996487393574
 30
0.0
 10
-710.0496689335631
 20
-265.8440447127708
 30
0.0
 10
-707.0441492405827
 20
-266.2440099759309
 30
0.0
 10
-703.9999999986992
 20
-266.3703509716448
 30
0.0
  0
SPLINE
  5
81
330
1F
100
AcDbEntity
  8
0
  6
Continuous
 62
     7
370
    25
100
AcDbSpline
210
0.0
220
0.0
230
1.0
 70
     8
 71
     3
 72
    11
 73
     7
 74
     0
 42
0.000000001
 43
0.00000001
 40
-0.0000000600000001
 40
-0.0000000600000001
 40
-0.0000000600000001
 40
-0.0000000600000001
 40
0.0
 40
0.0
 40
0.0
 40
0.0003406852820038
 40
0.0003406852820038
 40
0.0003406852820038
 40
0.0003406852820038
 10
-750.0582043083933
 20
-219.1592692785442
 30
0.0
 10
-750.0582044144
 20
-219.1592892774131
 30
0.0
 10
-750.058204520401
 20
-219.1593092762819
 30
0.0
 10
-750.0582046263856
 20
-219.1593292751508
 30
0.0
 10
-750.0588064165519
 20
-219.2728846134884
 30
0.0
 10
-750.0589973102594
 20
-219.386443013713
 30
0.0
 10
-750.0587759619586
 20
-219.4999999998175
 30
0.0
  0
SPLINE
  5
83
330
1F
100
AcDbEntity
  8
0
  6
Continuous
 62
     7
370
    25
100
AcDbSpline
210
0.0
220
0.0
230
1.0
 70
     8
 71
     3
 72
    11
 73
     7
 74
     0
 42
0.000000001
 43
0.00000001
 40
0.0
 40
0.0
 40
0.0
 40
0.0
 40
0.0003406852853344
 40
0.0003406852853344
 40
0.0003406852853344
 40
0.0003407452819411
 40
0.0003407452819411
 40
0.0003407452819411
 40
0.0003407452819411
 10
-750.0587759619588
 20
219.4999999997548
 30
0.0
 10
-750.0589973102615
 20
219.3864430125402
 30
0.0
 10
-750.0588064165477
 20
219.2728846112054
 30
0.0
 10
-750.0582046263673
 20
219.1593292717578
 30
0.0
 10
-750.0582045203886
 20
219.1593092740198
 30
0.0
 10
-750.058204414394
 20
219.1592892762821
 30
0.0
 10
-750.0582043083933
 20
219.1592692785443
 30
0.0
  0
SPLINE
  5
84
330
1F
100
AcDbEntity
  8
0
  6
Continuous
 62
     7
370
    25
100
AcDbSpline
210
0.0
220
0.0
230
1.0
 70
     8
 71
     3
 72
    36
 73
    32
 74
     0
 42
0.000000001
 43
0.00000001
 40
0.0
 40
0.0
 40
0.0
 40
0.0
 40
0.124999999999991
 40
0.124999999999991
 40
0.1874999999999843
 40
0.1874999999999843
 40
0.218749999999983
 40
0.218749999999983
 40
0.2499999999999818
 40
0.2499999999999818
 40
0.374999999999977
 40
0.374999999999977
 40
0.4062499999999784
 40
0.4062499999999784
 40
0.4374999999999796
 40
0.4374999999999796
 40
0.4999999999999837
 40
0.4999999999999837
 40
0.6249999999999919
 40
0.6249999999999919
 40
0.6562499999999926
 40
0.6562499999999926
 40
0.6874999999999933
 40
0.6874999999999933
 40
0.7499999999999947
 40
0.7499999999999947
 40
0.8124999999999961
 40
0.8124999999999961
 40
0.8749999999999974
 40
0.8749999999999974
 40
1.0
 40
1.0
 40
1.0
 40
1.0
 10
-703.9999999998726
 20
266.3703509715961
 30
0.0
 10
-707.044513643239
 20
266.2439948520951
 30
0.0
 10
-710.0386824097795
 20
265.8444293255286
 30
0.0
 10
-714.4555629179182
 20
264.8418209724987
 30
0.0
 10
-715.9153367089257
 20
264.4399016096422
 30
0.0
 10
-718.0855279704757
 20
263.7312832429196
 30
0.0
 10
-718.8050496059795
 20
263.4775957631264
 30
0.0
 10
-720.2234963299607
 20
262.9398703981241
 30
0.0
 10
-720.924176898186
 20
262.6552759643045
 30
0.0
 10
-724.3856059973517
 20
261.1549890709533
 30
0.0
 10
-727.021321107979
 20
259.7093563838843
 30
0.0
 10
-730.1445186716383
 20
257.5867405351502
 30
0.0
 10
-730.7606185972481
 20
257.1465156645904
 30
0.0
 10
-731.9752512235787
 20
256.233766372792
 30
0.0
 10
-732.5752816190655
 20
255.7599198594025
 30
0.0
 10
-734.3310614972884
 20
254.3029805869536
 30
0.0
 10
-735.4460410473691
 20
253.2823792517283
 30
0.0
 10
-738.6294097747203
 20
250.0771506057886
 30
0.0
 10
-740.5371148440231
 20
247.7499182347012
 30
0.0
 10
-742.644850193061
 20
244.5951482176068
 30
0.0
 10
-743.0534580934947
 20
243.9502001771956
 30
0.0
 10
-743.8371606345155
 20
242.642969334421
 30
0.0
 10
-744.2113718769115
 20
241.9823685065723
 30
0.0
 10
-745.2820602468678
 20
239.9799957825289
 30
0.0
 10
-745.9266722633843
 20
238.6176850466304
 30
0.0
 10
-747.081560076673
 20
235.8398694785663
 30
0.0
 10
-747.5914167889457
 20
234.4241990040262
 30
0.0
 10
-748.4730674251001
 20
231.5381877585135
 30
0.0
 10
-748.8452757026781
 20
230.0661631323895
 30
0.0
 10
-749.7486922373807
 20
225.5771561866093
 30
0.0
 10
-750.052823254369
 20
222.5538817385894
 30
0.0
 10
-750.0587759619588
 20
219.4999999997548
 30
0.0
  0
SPLINE
  5
85
330
1F
100
AcDbEntity
  8
0
  6
Continuous
 62
     7
370
    25
100
AcDbSpline
210
0.0
220
0.0
230
1.0
 70
     8
 71
     3
 72
     8
 73
     4
 74
     0
 42
0.000000001
 43
0.00000001
 40
0.0
 40
0.0
 40
0.0
 40
0.0
 40
1.0
 40
1.0
 40
1.0
 40
1.0
 10
-701.5126915481372
 20
266.4121896903817
 30
0.0
 10
-702.3418804966094
 20
266.418547702239
 30
0.0
 10
-703.1712236639503
 20
266.4047475859682
 30
0.0
 10
-703.9999999998726
 20
266.3703509715961
 30
0.0
  0
SPLINE
  5
87
330
1F
100
AcDbEntity
  8
0
  6
Continuous
 62
     7
370
    25
100
AcDbSpline
210
0.0
220
0.0
230
1.0
 70
     8
 71
     3
 72
     8
 73
     4
 74
     0
 42
0.000000001
 43
0.00000001
 40
0.0
 40
0.0
 40
0.0
 40
0.0
 40
1.0
 40
1.0
 40
1.0
 40
1.0
 10
703.9999999878708
 20
266.3703509720945
 30
0.0
 10
703.1712236559341
 20
266.4047475861023
 30
0.0
 10
702.3418804925205
 20
266.4185477023907
 30
0.0
 10
701.512691548138
 20
266.4121896903818
 30
0.0
  0
SPLINE
  5
88
330
1F
100
AcDbEntity
  8
0
  6
Continuous
 62
     7
370
    25
100
AcDbSpline
210
0.0
220
0.0
230
1.0
 70
     8
 71
     3
 72
    38
 73
    34
 74
     0
 42
0.000000001
 43
0.00000001
 40
0.0
 40
0.0
 40
0.0
 40
0.0
 40
0.1249999999999963
 40
0.1249999999999963
 40
0.1874999999999945
 40
0.1874999999999945
 40
0.218749999999993
 40
0.218749999999993
 40
0.2499999999999916
 40
0.2499999999999916
 40
0.3749999999999868
 40
0.3749999999999868
 40
0.4062499999999851
 40
0.4062499999999851
 40
0.4374999999999834
 40
0.4374999999999834
 40
0.4999999999999801
 40
0.4999999999999801
 40
0.6249999999999782
 40
0.6249999999999782
 40
0.6562499999999778
 40
0.6562499999999778
 40
0.6874999999999774
 40
0.6874999999999774
 40
0.7499999999999803
 40
0.7499999999999803
 40
0.8124999999999833
 40
0.8124999999999833
 40
0.8437499999999846
 40
0.8437499999999846
 40
0.8749999999999858
 40
0.8749999999999858
 40
1.0
 40
1.0
 40
1.0
 40
1.0
 10
750.0587759619592
 20
219.4999999998348
 30
0.0
 10
750.0528238667389
 20
222.5535675757953
 30
0.0
 10
749.7488207517756
 20
225.5600377117344
 30
0.0
 10
748.8599386930048
 20
230.001341261873
 30
0.0
 10
748.4918017139333
 20
231.4704231534996
 30
0.0
 10
747.8269499127499
 20
233.6562459838219
 30
0.0
 10
747.5864025939294
 20
234.3818502305304
 30
0.0
 10
747.0730141661817
 20
235.8114331887379
 30
0.0
 10
746.7995977927449
 20
236.5174227903277
 30
0.0
 10
745.3511370210266
 20
240.0045372811103
 30
0.0
 10
743.9340980357501
 20
242.6582819645509
 30
0.0
 10
741.8380120187145
 20
245.8044936139078
 30
0.0
 10
741.4025481060527
 20
246.4251837529224
 30
0.0
 10
740.4983580596167
 20
247.64905244626
 30
0.0
 10
740.0290495545775
 20
248.2527632979812
 30
0.0
 10
738.5866879606084
 20
250.0174826713393
 30
0.0
 10
737.5744759692857
 20
251.1389135107239
 30
0.0
 10
734.3919139704342
 20
254.3445712304183
 30
0.0
 10
732.0757321900035
 20
256.2701971136308
 30
0.0
 10
728.9347038974162
 20
258.4099316674399
 30
0.0
 10
728.292949587073
 20
258.8250090894101
 30
0.0
 10
726.997751955815
 20
259.6194163595671
 30
0.0
 10
726.3428964598531
 20
259.9997854680216
 30
0.0
 10
724.3569997931907
 20
261.091419123039
 30
0.0
 10
723.0046393068807
 20
261.7532334720392
 30
0.0
 10
720.2451386691431
 20
262.949897430056
 30
0.0
 10
718.8378361936608
 20
263.4842316200444
 30
0.0
 10
716.6852650778021
 20
264.1891751605638
 30
0.0
 10
715.9608066751299
 20
264.4080563124909
 30
0.0
 10
714.49781812723
 20
264.8131472841358
 30
0.0
 10
713.757882154334
 20
264.9996487416023
 30
0.0
 10
710.049668923714
 20
265.8440447144131
 30
0.0
 10
707.0441492302353
 20
266.2440099770189
 30
0.0
 10
703.9999999878708
 20
266.3703509720944
 30
0.0
  0
SPLINE
  5
89
330
1F
100
AcDbEntity
  8
0
  6
Continuous
 62
     7
370
    25
100
AcDbSpline
210
0.0
220
0.0
230
1.0
 70
     8
 71
     3
 72
    11
 73
     7
 74
     0
 42
0.000000001
 43
0.00000001
 40
-0.00000006
 40
-0.00000006
 40
-0.00000006
 40
-0.00000006
 40
0.0
 40
0.0
 40
0.0
 40
0.0003406852820211
 40
0.0003406852820211
 40
0.0003406852820211
 40
0.0003406852820211
 10
750.0582043083941
 20
219.1592692785442
 30
0.0
 10
750.0582044144008
 20
219.1592892774131
 30
0.0
 10
750.0582045204017
 20
219.1593092762818
 30
0.0
 10
750.0582046263863
 20
219.1593292751508
 30
0.0
 10
750.0588064165527
 20
219.2728846134941
 30
0.0
 10
750.0589973102601
 20
219.3864430137245
 30
0.0
 10
750.0587759619593
 20
219.4999999998348
 30
0.0
  0
SPLINE
  5
8B
330
1F
100
AcDbEntity
  8
0
  6
Continuous
 62
     7
370
    25
100
AcDbSpline
210
0.0
220
0.0
230
1.0
 70
     8
 71
     3
 72
    11
 73
     7
 74
     0
 42
0.000000001
 43
0.00000001
 40
0.0
 40
0.0
 40
0.0
 40
0.0
 40
0.0003406852854071
 40
0.0003406852854071
 40
0.0003406852854071
 40
0.0003407452820139
 40
0.0003407452820139
 40
0.0003407452820139
 40
0.0003407452820139
 10
750.0587759619591
 20
-219.4999999998277
 30
0.0
 10
750.058997310262
 20
-219.3864430125887
 30
0.0
 10
750.0588064165486
 20
-219.2728846112296
 30
0.0
 10
750.058204626368
 20
-219.1593292717578
 30
0.0
 10
750.0582045203894
 20
-219.1593092740198
 30
0.0
 10
750.0582044143947
 20
-219.1592892762821
 30
0.0
 10
750.058204308394
 20
-219.1592692785442
 30
0.0
  0
SPLINE
  5
8D
330
1F
100
AcDbEntity
  8
0
  6
Continuous
 62
     7
370
    25
100
AcDbSpline
210
0.0
220
0.0
230
1.0
 70
     8
 71
     3
 72
    36
 73
    32
 74
     0
 42
0.000000001
 43
0.00000001
 40
0.0
 40
0.0
 40
0.0
 40
0.0
 40
0.1250000000000016
 40
0.1250000000000016
 40
0.1875000000000029
 40
0.1875000000000029
 40
0.2500000000000042
 40
0.2500000000000042
 40
0.3125000000000056
 40
0.3125000000000056
 40
0.3437500000000048
 40
0.3437500000000048
 40
0.375000000000004
 40
0.375000000000004
 40
0.5000000000000069
 40
0.5000000000000069
 40
0.5625000000000068
 40
0.5625000000000068
 40
0.5937500000000074
 40
0.5937500000000074
 40
0.625000000000008
 40
0.625000000000008
 40
0.7500000000000097
 40
0.7500000000000097
 40
0.7812500000000098
 40
0.7812500000000098
 40
0.8125000000000098
 40
0.8125000000000098
 40
0.8750000000000053
 40
0.8750000000000053
 40
1.0
 40
1.0
 40
1.0
 40
1.0
 10
754.3917103300607
 20
-219.530802177203
 30
0.0
 10
754.3679737074294
 20
-222.8698267769558
 30
0.0
 10
754.0244675881854
 20
-226.1750124945858
 30
0.0
 10
753.0305950746393
 20
-231.0821428998132
 30
0.0
 10
752.6231698831032
 20
-232.691582594898
 30
0.0
 10
751.6610510646261
 20
-235.8492751344542
 30
0.0
 10
751.1059761536544
 20
-237.3991091583679
 30
0.0
 10
749.8504855264476
 20
-240.4418072056204
 30
0.0
 10
749.1504980089841
 20
-241.9348390722851
 30
0.0
 10
747.9891155335329
 20
-244.1307203577465
 30
0.0
 10
747.5833931792141
 20
-244.8553920600879
 30
0.0
 10
746.7340488638854
 20
-246.289879756415
 30
0.0
 10
746.291647650136
 20
-246.9974400381911
 30
0.0
 10
744.0088688014363
 20
-250.461828307705
 30
0.0
 10
741.9428706767153
 20
-253.0252409969311
 30
0.0
 10
738.4931524558393
 20
-256.5659733935347
 30
0.0
 10
737.2846425139296
 20
-257.695355921563
 30
0.0
 10
735.3810288589392
 20
-259.310583164786
 30
0.0
 10
734.7307142671268
 20
-259.8361636398772
 30
0.0
 10
733.4138974811827
 20
-260.8497052246354
 30
0.0
 10
732.7457189440986
 20
-261.339154577407
 30
0.0
 10
729.3571653141462
 20
-263.7019034911948
 30
0.0
 10
726.493936819657
 20
-265.3219389713036
 30
0.0
 10
722.7266389295958
 20
-267.013214081548
 30
0.0
 10
721.9637437294671
 20
-267.3347407363615
 30
0.0
 10
720.4186783147697
 20
-267.9436214693391
 30
0.0
 10
719.6345322214237
 20
-268.2316199053965
 30
0.0
 10
717.2695041893273
 20
-269.0377107757963
 30
0.0
 10
715.677461883654
 20
-269.4979714391986
 30
0.0
 10
710.8566098290411
 20
-270.6541127933069
 30
0.0
 10
707.5836651664705
 20
-271.1283173616914
 30
0.0
 10
704.2499829803246
 20
-271.2974559947932
 30
0.0
  0
SPLINE
  5
90
330
1F
100
AcDbEntity
  8
0
  6
Continuous
 62
     7
370
    25
100
AcDbSpline
210
0.0
220
0.0
230
1.0
 70
     8
 71
     3
 72
    38
 73
    34
 74
     0
 42
0.000000001
 43
0.00000001
 40
0.0
 40
0.0
 40
0.0
 40
0.0
 40
0.1249999999999877
 40
0.1249999999999877
 40
0.1562499999999848
 40
0.1562499999999848
 40
0.1874999999999818
 40
0.1874999999999818
 40
0.2499999999999799
 40
0.2499999999999799
 40
0.312499999999978
 40
0.312499999999978
 40
0.343749999999977
 40
0.343749999999977
 40
0.3749999999999761
 40
0.3749999999999761
 40
0.4999999999999791
 40
0.4999999999999791
 40
0.5624999999999792
 40
0.5624999999999792
 40
0.59374999999998
 40
0.59374999999998
 40
0.6249999999999817
 40
0.6249999999999817
 40
0.7499999999999876
 40
0.7499999999999876
 40
0.7812499999999897
 40
0.7812499999999897
 40
0.8124999999999919
 40
0.8124999999999919
 40
0.8749999999999948
 40
0.8749999999999948
 40
1.0
 40
1.0
 40
1.0
 40
1.0
 10
704.2499829671151
 20
271.2974559954635
 30
0.0
 10
707.5830638936651
 20
271.12834786886
 30
0.0
 10
710.8687450983592
 20
270.6535970937242
 30
0.0
 10
714.9168543926979
 20
269.6797653425693
 30
0.0
 10
715.7244650127714
 20
269.4654368363815
 30
0.0
 10
717.3205514645082
 20
269.0016256084343
 30
0.0
 10
718.1105421582587
 20
268.7518322969719
 30
0.0
 10
720.4567829551183
 20
267.9497362690627
 30
0.0
 10
721.9892639924252
 20
267.3446335323933
 30
0.0
 10
724.9918590318098
 20
265.9958874555359
 30
0.0
 10
726.4620075461413
 20
265.2523207800228
 30
0.0
 10
728.6191744302615
 20
264.030220596325
 30
0.0
 10
729.3302170671427
 20
263.605054006255
 30
0.0
 10
730.7360073054947
 20
262.7185234338249
 30
0.0
 10
731.4323954741557
 20
262.2559430373092
 30
0.0
 10
734.8415033364365
 20
259.8734658769949
 30
0.0
 10
737.3522118660997
 20
257.7380105971737
 30
0.0
 10
740.8000777676415
 20
254.1976842372751
 30
0.0
 10
741.8961445522472
 20
252.9611845878065
 30
0.0
 10
743.4576054047864
 20
251.0188751570859
 30
0.0
 10
743.9655940643959
 20
250.354988680641
 30
0.0
 10
744.9450051503497
 20
249.0091371994586
 30
0.0
 10
745.4168090857012
 20
248.326924728946
 30
0.0
 10
747.6881881803313
 20
244.8703974978441
 30
0.0
 10
749.2252156677321
 20
241.9598821584469
 30
0.0
 10
750.7993103127681
 20
238.1416280647565
 30
0.0
 10
751.0966126549903
 20
237.3688902514863
 30
0.0
 10
751.6553153456252
 20
235.8047899222304
 30
0.0
 10
751.9173177154655
 20
235.0113337359388
 30
0.0
 10
752.6427959533539
 20
232.6205658719434
 30
0.0
 10
753.0460957078121
 20
231.0138735940774
 30
0.0
 10
754.0247236760773
 20
226.1568202629931
 30
0.0
 10
754.3679770666133
 20
222.8693542412773
 30
0.0
 10
754.3917103300607
 20
219.5308021772113
 30
0.0
  0
SPLINE
  5
93
330
1F
100
AcDbEntity
  8
0
  6
Continuous
 62
     7
370
    25
100
AcDbSpline
210
0.0
220
0.0
230
1.0
 70
     8
 71
     3
 72
    36
 73
    32
 74
     0
 42
0.000000001
 43
0.00000001
 40
0.0
 40
0.0
 40
0.0
 40
0.0
 40
0.1249999999999984
 40
0.1249999999999984
 40
0.1874999999999972
 40
0.1874999999999972
 40
0.249999999999996
 40
0.249999999999996
 40
0.3124999999999948
 40
0.3124999999999948
 40
0.3437499999999937
 40
0.3437499999999937
 40
0.3749999999999927
 40
0.3749999999999927
 40
0.4999999999999943
 40
0.4999999999999943
 40
0.5624999999999938
 40
0.5624999999999938
 40
0.5937499999999928
 40
0.5937499999999928
 40
0.6249999999999919
 40
0.6249999999999919
 40
0.7499999999999926
 40
0.7499999999999926
 40
0.781249999999994
 40
0.781249999999994
 40
0.8124999999999953
 40
0.8124999999999953
 40
0.8749999999999981
 40
0.8749999999999981
 40
1.0
 40
1.0
 40
1.0
 40
1.0
 10
-754.3917103300607
 20
219.5308021771242
 30
0.0
 10
-754.367973707434
 20
222.8698267768802
 30
0.0
 10
-754.0244675881952
 20
226.1750124945142
 30
0.0
 10
-753.0305950746541
 20
231.0821428997469
 30
0.0
 10
-752.6231698831191
 20
232.6915825948338
 30
0.0
 10
-751.6610510646453
 20
235.8492751343947
 30
0.0
 10
-751.1059761536751
 20
237.3991091583106
 30
0.0
 10
-749.8504855264714
 20
240.4418072055676
 30
0.0
 10
-749.1504980090082
 20
241.934839072235
 30
0.0
 10
-747.9891155335581
 20
244.1307203576993
 30
0.0
 10
-747.5833931792404
 20
244.8553920600417
 30
0.0
 10
-746.7340488639121
 20
246.2898797563709
 30
0.0
 10
-746.2916476501629
 20
246.9974400381478
 30
0.0
 10
-744.0088688014642
 20
250.4618283076678
 30
0.0
 10
-741.9428706767435
 20
253.0252409968982
 30
0.0
 10
-738.4931524558671
 20
256.5659733935074
 30
0.0
 10
-737.284642513957
 20
257.6953559215376
 30
0.0
 10
-735.3810288589652
 20
259.3105831647629
 30
0.0
 10
-734.7307142671528
 20
259.8361636398551
 30
0.0
 10
-733.4138974812084
 20
260.8497052246151
 30
0.0
 10
-732.7457189441232
 20
261.3391545773873
 30
0.0
 10
-729.3571653141689
 20
263.7019034911799
 30
0.0
 10
-726.4939368196784
 20
265.321938971293
 30
0.0
 10
-722.726638929614
 20
267.0132140815403
 30
0.0
 10
-721.9637437294845
 20
267.3347407363539
 30
0.0
 10
-720.4186783147861
 20
267.9436214693327
 30
0.0
 10
-719.6345322214403
 20
268.2316199053903
 30
0.0
 10
-717.2695041893421
 20
269.0377107757919
 30
0.0
 10
-715.6774618836663
 20
269.4979714391958
 30
0.0
 10
-710.8566098290484
 20
270.6541127933062
 30
0.0
 10
-707.583665166474
 20
271.1283173616907
 30
0.0
 10
-704.249982980325
 20
271.297455994793
 30
0.0
  0
SPLINE
  5
95
330
1F
100
AcDbEntity
  8
0
  6
Continuous
 62
     7
370
    25
100
AcDbSpline
210
0.0
220
0.0
230
1.0
 70
     8
 71
     3
 72
    38
 73
    34
 74
     0
 42
0.000000001
 43
0.00000001
 40
0.0
 40
0.0
 40
0.0
 40
0.0
 40
0.1249999999999977
 40
0.1249999999999977
 40
0.156249999999997
 40
0.156249999999997
 40
0.1874999999999963
 40
0.1874999999999963
 40
0.2499999999999949
 40
0.2499999999999949
 40
0.3124999999999934
 40
0.3124999999999934
 40
0.3437499999999915
 40
0.3437499999999915
 40
0.3749999999999894
 40
0.3749999999999894
 40
0.4999999999999849
 40
0.4999999999999849
 40
0.5624999999999849
 40
0.5624999999999849
 40
0.5937499999999848
 40
0.5937499999999848
 40
0.6249999999999839
 40
0.6249999999999839
 40
0.7499999999999828
 40
0.7499999999999828
 40
0.781249999999984
 40
0.781249999999984
 40
0.8124999999999851
 40
0.8124999999999851
 40
0.8749999999999899
 40
0.8749999999999899
 40
1.0
 40
1.0
 40
1.0
 40
1.0
 10
-704.249982979033
 20
-271.2974559948587
 30
0.0
 10
-707.5830639050437
 20
-271.1283478675398
 30
0.0
 10
-710.8687451091794
 20
-270.6535970917927
 30
0.0
 10
-714.9168544027935
 20
-269.6797653399728
 30
0.0
 10
-715.724465022693
 20
-269.465436833663
 30
0.0
 10
-717.3205514740584
 20
-269.0016256054942
 30
0.0
 10
-718.1105421676266
 20
-268.7518322939282
 30
0.0
 10
-720.4567829639478
 20
-267.9497362657263
 30
0.0
 10
-721.989264000906
 20
-267.3446335288846
 30
0.0
 10
-724.9918590396135
 20
-265.9958874517291
 30
0.0
 10
-726.4620075536143
 20
-265.2523207760848
 30
0.0
 10
-728.6191744372505
 20
-264.0302205922166
 30
0.0
 10
-729.3302170739724
 20
-263.605054002094
 30
0.0
 10
-730.7360073120099
 20
-262.7185234295682
 30
0.0
 10
-731.4323954805046
 20
-262.2559430330149
 30
0.0
 10
-734.841503341863
 20
-259.8734658726249
 30
0.0
 10
-737.3522118708614
 20
-257.7380105928199
 30
0.0
 10
-740.8000777714991
 20
-254.197684233045
 30
0.0
 10
-741.8961445558176
 20
-252.9611845836326
 30
0.0
 10
-743.4576054079471
 20
-251.0188751530185
 30
0.0
 10
-743.9655940674207
 20
-250.3549886766159
 30
0.0
 10
-744.9450051530866
 20
-249.0091371955628
 30
0.0
 10
-745.4168090882997
 20
-248.3269247251179
 30
0.0
 10
-747.6881881822707
 20
-244.870397494371
 30
0.0
 10
-749.2252156692336
 20
-241.9598821553041
 30
0.0
 10
-750.7993103138207
 20
-238.1416280620781
 30
0.0
 10
-751.0966126559578
 20
-237.3688902489031
 30
0.0
 10
-751.6553153464315
 20
-235.8047899198427
 30
0.0
 10
-751.9173177161967
 20
-235.0113337336507
 30
0.0
 10
-752.6427959538659
 20
-232.6205658699969
 30
0.0
 10
-753.0460957082043
 20
-231.0138735923634
 30
0.0
 10
-754.0247236761825
 20
-226.1568202619866
 30
0.0
 10
-754.367977066618
 20
-222.8693542407567
 30
0.0
 10
-754.3917103300603
 20
-219.5308021771923
 30
0.0
  0
SPLINE
  5
98
330
1F
100
AcDbEntity
  8
0
  6
Continuous
 62
     7
370
    25
100
AcDbSpline
210
0.0
220
0.0
230
1.0
 70
     8
 71
     3
 72
    25
 73
    21
 74
     0
 42
0.000000001
 43
0.00000001
 40
0.0
 40
0.0
 40
0.0
 40
0.0
 40
0.00390625
 40
0.00390625
 40
0.0078125000000001
 40
0.0156250000000001
 40
0.0312500000000001
 40
0.0625000000000001
 40
0.1250000000000002
 40
0.2500000000000002
 40
0.5000000000000002
 40
0.7500000000000002
 40
0.8750000000000001
 40
0.9375000000000002
 40
0.9687500000000003
 40
0.9843750000000003
 40
0.9921875000000001
 40
0.9960937500000001
 40
0.9960937500000001
 40
1.0
 40
1.0
 40
1.0
 40
1.0
 10
754.3917103300607
 20
219.5308021772113
 30
0.0
 10
754.3957744219177
 20
218.9591074211189
 30
0.0
 10
754.3930303215066
 20
218.3874125958434
 30
0.0
 10
754.3930303215064
 20
217.2440230010621
 30
0.0
 10
754.3930303215062
 20
215.5289386088903
 30
0.0
 10
754.3930303215066
 20
211.5270750271559
 30
0.0
 10
754.3930303215062
 20
203.5233478636868
 30
0.0
 10
754.3930303215068
 20
187.515893536749
 30
0.0
 10
754.3930303215063
 20
155.5009848828742
 30
0.0
 10
754.393030321506
 20
91.47116757512264
 30
0.0
 10
754.3930303215076
 20
-0.0000000073785538
 30
0.0
 10
754.3930303215064
 20
-91.47116758987939
 30
0.0
 10
754.3930303215066
 20
-155.5009848976305
 30
0.0
 10
754.3930303215064
 20
-187.5158935515061
 30
0.0
 10
754.3930303215066
 20
-203.5233478784435
 30
0.0
 10
754.3930303215064
 20
-211.5270750419124
 30
0.0
 10
754.3930303215064
 20
-215.528938623647
 30
0.0
 10
754.3930303215066
 20
-217.2440230158187
 30
0.0
 10
754.3930303215061
 20
-218.3874126105999
 30
0.0
 10
754.395774421594
 20
-218.9591074665701
 30
0.0
 10
754.3917103300606
 20
-219.5308021772031
 30
0.0
  0
SPLINE
  5
99
330
1F
100
AcDbEntity
  8
0
  6
Continuous
 62
     7
370
    25
100
AcDbSpline
210
0.0
220
0.0
230
1.0
 70
     8
 71
     3
 72
    25
 73
    21
 74
     0
 42
0.000000001
 43
0.00000001
 40
0.0
 40
0.0
 40
0.0
 40
0.0
 40
0.00390625
 40
0.00390625
 40
0.0078124999999999
 40
0.0156249999999998
 40
0.0312499999999998
 40
0.0624999999999998
 40
0.1249999999999998
 40
0.2499999999999998
 40
0.4999999999999999
 40
0.75
 40
0.875
 40
0.9375000000000001
 40
0.9687500000000001
 40
0.9843750000000002
 40
0.9921875000000001
 40
0.99609375
 40
0.99609375
 40
1.0
 40
1.0
 40
1.0
 40
1.0
 10
-754.3917103300604
 20
-219.5308021771923
 30
0.0
 10
-754.3957744219169
 20
-218.9591074210998
 30
0.0
 10
-754.393030321506
 20
-218.3874125958245
 30
0.0
 10
-754.3930303215056
 20
-217.2440230010435
 30
0.0
 10
-754.393030321506
 20
-215.5289386088722
 30
0.0
 10
-754.3930303215058
 20
-211.5270750271385
 30
0.0
 10
-754.3930303215058
 20
-203.5233478636713
 30
0.0
 10
-754.393030321506
 20
-187.5158935367374
 30
0.0
 10
-754.3930303215056
 20
-155.500984882869
 30
0.0
 10
-754.3930303215056
 20
-91.47116757513243
 30
0.0
 10
-754.3930303215064
 20
0.0000000073483118
 30
0.0
 10
-754.3930303215055
 20
91.47116758982915
 30
0.0
 10
-754.3930303215055
 20
155.5009848975656
 30
0.0
 10
-754.3930303215058
 20
187.515893551434
 30
0.0
 10
-754.3930303215056
 20
203.523347878368
 30
0.0
 10
-754.3930303215058
 20
211.5270750418351
 30
0.0
 10
-754.3930303215056
 20
215.5289386235687
 30
0.0
 10
-754.3930303215058
 20
217.2440230157403
 30
0.0
 10
-754.3930303215056
 20
218.3874126105212
 30
0.0
 10
-754.3957744215936
 20
218.9591074664911
 30
0.0
 10
-754.3917103300607
 20
219.5308021771239
 30
0.0
  0
SPLINE
  5
A2
330
1F
100
AcDbEntity
  8
0
  6
Continuous
 62
     7
370
    25
100
AcDbSpline
210
0.0
220
0.0
230
1.0
 70
     8
 71
     3
 72
    27
 73
    23
 74
     0
 42
0.000000001
 43
0.00000001
 40
0.0
 40
0.0
 40
0.0
 40
0.0
 40
0.0019531250000001
 40
0.0019531250000001
 40
0.0039062500000002
 40
0.0078125000000002
 40
0.0156250000000002
 40
0.0312500000000002
 40
0.0625000000000002
 40
0.1250000000000002
 40
0.2500000000000002
 40
0.5000000000000002
 40
0.7500000000000002
 40
0.8750000000000002
 40
0.9375000000000002
 40
0.9687500000000002
 40
0.9843750000000002
 40
0.9921875000000002
 40
0.9960937500000002
 40
0.9980468750000001
 40
0.9980468750000001
 40
1.0
 40
1.0
 40
1.0
 40
1.0
 10
704.2499829803246
 20
-271.2974559947933
 30
0.0
 10
703.333020075036
 20
-271.343979281581
 30
0.0
 10
702.4160421710587
 20
-271.366681208172
 30
0.0
 10
700.582057775389
 20
-271.3666812081719
 30
0.0
 10
697.8310811818859
 20
-271.3666812081722
 30
0.0
 10
691.4121357970433
 20
-271.3666812081721
 30
0.0
 10
678.5742450273583
 20
-271.3666812081721
 30
0.0
 10
652.8984634879878
 20
-271.3666812081722
 30
0.0
 10
601.546900409248
 20
-271.3666812081722
 30
0.0
 10
498.8437742517677
 20
-271.366681208172
 30
0.0
 10
293.4375219368077
 20
-271.3666812081723
 30
0.0
 10
0.0000186297218346
 20
-271.3666812081718
 30
0.0
 10
-293.4374846773643
 20
-271.3666812081722
 30
0.0
 10
-498.8437369923242
 20
-271.3666812081721
 30
0.0
 10
-601.5468631498045
 20
-271.3666812081722
 30
0.0
 10
-652.8984262285438
 20
-271.3666812081722
 30
0.0
 10
-678.5742077679149
 20
-271.3666812081722
 30
0.0
 10
-691.4120985375998
 20
-271.3666812081721
 30
0.0
 10
-697.8310439224414
 20
-271.3666812081723
 30
0.0
 10
-700.5820205159458
 20
-271.3666812081722
 30
0.0
 10
-702.4160049116153
 20
-271.3666812081723
 30
0.0
 10
-703.3329950342603
 20
-271.3439805520349
 30
0.0
 10
-704.249982979033
 20
-271.2974559948587
 30
0.0
  0
SPLINE
  5
A3
330
1F
100
AcDbEntity
  8
0
  6
Continuous
 62
     7
370
    25
100
AcDbSpline
210
0.0
220
0.0
230
1.0
 70
     8
 71
     3
 72
    27
 73
    23
 74
     0
 42
0.000000001
 43
0.00000001
 40
0.0
 40
0.0
 40
0.0
 40
0.0
 40
0.0019531249999999
 40
0.0019531249999999
 40
0.0039062499999998
 40
0.0078124999999999
 40
0.015625
 40
0.0312500000000001
 40
0.0625000000000001
 40
0.1250000000000002
 40
0.2500000000000003
 40
0.5000000000000004
 40
0.7500000000000004
 40
0.8750000000000004
 40
0.9375000000000004
 40
0.9687500000000004
 40
0.9843750000000004
 40
0.9921875000000003
 40
0.9960937500000003
 40
0.9980468750000001
 40
0.9980468750000001
 40
1.0
 40
1.0
 40
1.0
 40
1.0
 10
-704.2499829803251
 20
271.297455994793
 30
0.0
 10
-703.3330200750443
 20
271.3439792815807
 30
0.0
 10
-702.4160421710749
 20
271.3666812081722
 30
0.0
 10
-700.5820577754207
 20
271.3666812081721
 30
0.0
 10
-697.8310811819401
 20
271.3666812081721
 30
0.0
 10
-691.4121357971521
 20
271.3666812081721
 30
0.0
 10
-678.5742450275752
 20
271.3666812081721
 30
0.0
 10
-652.8984634884234
 20
271.3666812081721
 30
0.0
 10
-601.546900410117
 20
271.3666812081719
 30
0.0
 10
-498.8437742535065
 20
271.3666812081724
 30
0.0
 10
-293.4375219402845
 20
271.3666812081723
 30
0.0
 10
-0.0000186356809428
 20
271.3666812081719
 30
0.0
 10
293.4374846689217
 20
271.3666812081723
 30
0.0
 10
498.8437369821442
 20
271.366681208172
 30
0.0
 10
601.546863138755
 20
271.3666812081722
 30
0.0
 10
652.8984262170613
 20
271.3666812081722
 30
0.0
 10
678.5742077562137
 20
271.3666812081722
 30
0.0
 10
691.41209852579
 20
271.3666812081722
 30
0.0
 10
697.8310439105791
 20
271.3666812081723
 30
0.0
 10
700.5820205040585
 20
271.3666812081721
 30
0.0
 10
702.4160048997124
 20
271.3666812081722
 30
0.0
 10
703.3329950223499
 20
271.3439805524349
 30
0.0
 10
704.2499829671152
 20
271.2974559954635
 30
0.0
  0
SPLINE
  5
B7
330
1F
100
AcDbEntity
  8
0
  6
Continuous
 62
     7
370
    25
100
AcDbSpline
210
0.0
220
0.0
230
1.0
 70
    24
 71
     3
 72
    64
 73
    60
 74
     0
 42
0.000000001
 43
0.00000001
 40
0.0
 40
0.0
 40
0.0
 40
0.0
 40
0.015625
 40
0.015625
 40
0.03125
 40
0.03125
 40
0.046875
 40
0.046875
 40
0.0625
 40
0.0625
 40
0.125
 40
0.125
 40
0.1875
 40
0.25
 40
0.25
 40
0.28125
 40
0.28125
 40
0.296875
 40
0.296875
 40
0.3125
 40
0.3125
 40
0.34375
 40
0.34375
 40
0.375
 40
0.375
 40
0.4375
 40
0.4375
 40
0.5
 40
0.5
 40
0.515625
 40
0.515625
 40
0.53125
 40
0.53125
 40
0.5625
 40
0.5625
 40
0.625
 40
0.625
 40
0.65625
 40
0.671875
 40
0.671875
 40
0.6875
 40
0.6875
 40
0.75
 40
0.75
 40
0.765625
 40
0.765625
 40
0.78125
 40
0.8125
 40
0.8125
 40
0.875
 40
0.875
 40
0.90625
 40
0.9375
 40
0.9375
 40
0.96875
 40
0.96875
 40
0.984375
 40
0.9921875
 40
1.0
 40
1.0
 40
1.0
 40
1.0
 10
-500.3730843889386
 20
218.8781030961829
 30
0.0
 10
-500.366568395244
 20
218.827084966868
 30
0.0
 10
-500.3595104324976
 20
218.7718233946566
 30
0.0
 10
-500.3443119928442
 20
218.6528245134465
 30
0.0
 10
-500.3361715159369
 20
218.5890872044476
 30
0.0
 10
-500.3188094719027
 20
218.4531479986678
 30
0.0
 10
-500.3095876942939
 20
218.3809444538827
 30
0.0
 10
-500.2900615343854
 20
218.2280609187039
 30
0.0
 10
-500.2797513366165
 20
218.1473353950613
 30
0.0
 10
-500.2256636797132
 20
217.7238464839981
 30
0.0
 10
-500.1741904312032
 20
217.3208275475422
 30
0.0
 10
-500.055351779128
 20
216.3903592255429
 30
0.0
 10
-499.9206182621336
 20
215.3354392370876
 30
0.0
 10
-499.7543269779633
 20
214.0334321085727
 30
0.0
 10
-499.6175731549492
 20
212.9626937755052
 30
0.0
 10
-499.5699796224184
 20
212.5900517640172
 30
0.0
 10
-499.4955220507534
 20
212.0070729893699
 30
0.0
 10
-499.4701682728372
 20
211.8085610845119
 30
0.0
 10
-499.4186876209493
 20
211.4054841819965
 30
0.0
 10
-499.3925347496103
 20
211.2007156333337
 30
0.0
 10
-499.3128515139827
 20
210.5768215950621
 30
0.0
 10
-499.2580971813007
 20
210.1481128276454
 30
0.0
 10
-499.1453772511269
 20
209.2655521249331
 30
0.0
 10
-499.0874116095114
 20
208.8116998441649
 30
0.0
 10
-498.9087466732977
 20
207.4128110104728
 30
0.0
 10
-498.7832887798087
 20
206.4305161628132
 30
0.0
 10
-498.5197072676299
 20
204.3667579236824
 30
0.0
 10
-498.3815841442992
 20
203.2852984107153
 30
0.0
 10
-498.200840701573
 20
201.8701355413185
 30
0.0
 10
-498.1642867521292
 20
201.5839299052947
 30
0.0
 10
-498.0903607526169
 20
201.00511316918
 30
0.0
 10
-498.0529409551041
 20
200.7121282219976
 30
0.0
 10
-497.9399254872785
 20
199.8272535547782
 30
0.0
 10
-497.8635202835743
 20
199.2290254493506
 30
0.0
 10
-497.6311824940482
 20
197.4098954829422
 30
0.0
 10
-497.4721339638961
 20
196.1645967827032
 30
0.0
 10
-497.2274562932673
 20
194.2488495266948
 30
0.0
 10
-497.1035889442102
 20
193.2790081290067
 30
0.0
 10
-496.9774319018023
 20
192.2912391707774
 30
0.0
 10
-496.8928174481156
 20
191.6287352853493
 30
0.0
 10
-496.8502553737538
 20
191.2954879687502
 30
0.0
 10
-496.6361669824041
 20
189.6192449048959
 30
0.0
 10
-496.4608147112816
 20
188.2462931705803
 30
0.0
 10
-496.2363825764489
 20
186.4890619309623
 30
0.0
 10
-496.1911859875445
 20
186.1351872150878
 30
0.0
 10
-496.1004907282706
 20
185.4250725828835
 30
0.0
 10
-495.964173740914
 20
184.357754532142
 30
0.0
 10
-495.8270435185597
 20
183.2840691136236
 30
0.0
 10
-495.5517168780748
 20
181.1283503074915
 30
0.0
 10
-495.3667461926345
 20
179.6800894908655
 30
0.0
 10
-495.0871925834513
 20
177.4912748829613
 30
0.0
 10
-494.9001242995574
 20
176.0265905468897
 30
0.0
 10
-494.7116514144421
 20
174.5509086362222
 30
0.0
 10
-494.5224731392116
 20
173.0697037484275
 30
0.0
 10
-494.4275310748987
 20
172.326338002301
 30
0.0
 10
-494.2845803508808
 20
171.207079932784
 30
0.0
 10
-494.2129705819844
 20
170.6463985354436
 30
0.0
 10
-494.1172200169734
 20
169.8967024895803
 30
0.0
 10
-494.0692541001887
 20
169.5211448294711
 30
0.0
 10
-494.0452483974192
 20
169.3331879182785
 30
0.0
  0
SPLINE
  5
B8
330
1F
100
AcDbEntity
  8
0
  6
Continuous
 62
     7
370
    25
100
AcDbSpline
210
0.0
220
0.0
230
1.0
 70
     8
 71
     3
 72
    53
 73
    49
 74
     0
 42
0.000000001
 43
0.00000001
 40
0.0
 40
0.0
 40
0.0
 40
0.0
 40
0.0094355901172587
 40
0.0188860158687872
 40
0.0283513056296182
 40
0.0378314876412931
 40
0.0473265900124958
 40
0.0568366407195837
 40
0.0663616676071887
 40
0.0759016983888132
 40
0.0854567606474128
 40
0.0950268818359243
 40
0.1046120892779318
 40
0.1142124101681874
 40
0.1238278715731863
 40
0.1334585004317867
 40
0.1431043235557502
 40
0.1527653676303277
 40
0.1624416592148336
 40
0.1721332247432238
 40
0.1818400905246683
 40
0.191562282744115
 40
0.2012998274628626
 40
0.2110527506191336
 40
0.22082107802863
 40
0.230604835385133
 40
0.2404040482610087
 40
0.2502187421078472
 40
0.2810601860629843
 40
0.3122235246819706
 40
0.343709478593359
 40
0.3755187464378246
 40
0.4369036742252927
 40
0.5001185357561979
 40
0.5613897031762631
 40
0.6252924919736877
 40
0.6857006590186316
 40
0.7500165720067568
 40
0.8091386304859449
 40
0.8750698274484932
 40
0.8861397894827098
 40
0.8985087185077929
 40
0.9121766055990819
 40
0.9271434403203253
 40
0.9434092108545719
 40
0.9609739040866766
 40
0.9798375056573785
 40
1.0
 40
1.0
 40
1.0
 40
1.0
 10
500.373084388939
 20
218.8781030961829
 30
0.0
 10
500.3690724357732
 20
218.846701689636
 30
0.0
 10
500.3610422214235
 20
218.7838495039246
 30
0.0
 10
500.347487140411
 20
218.6778691106556
 30
0.0
 10
500.332815808182
 20
218.5632064795365
 30
0.0
 10
500.3169199977231
 20
218.4390036898213
 30
0.0
 10
500.2998287768651
 20
218.3054665336182
 30
0.0
 10
500.2815343385589
 20
218.1625174814115
 30
0.0
 10
500.2620387796817
 20
218.0101574994524
 30
0.0
 10
500.2413415370918
 20
217.8483689004845
 30
0.0
 10
500.2194427620833
 20
217.6771414642869
 30
0.0
 10
500.1963424140613
 20
217.4964654497979
 30
0.0
 10
500.1720405039715
 20
217.3063334992281
 30
0.0
 10
500.1465370289151
 20
217.1067401535664
 30
0.0
 10
500.1198319897103
 20
216.8976820092412
 30
0.0
 10
500.0919253861785
 20
216.6791577021917
 30
0.0
 10
500.0628172184061
 20
216.451167937871
 30
0.0
 10
500.0325074864073
 20
216.2137155085246
 30
0.0
 10
500.0009961902275
 20
215.9668053133445
 30
0.0
 10
499.9682833298516
 20
215.7104443777953
 30
0.0
 10
499.9343689054732
 20
215.4446418712423
 30
0.0
 10
499.8992529165074
 20
215.1694091300091
 30
0.0
 10
499.8629353652811
 20
214.8847596581195
 30
0.0
 10
499.8254162432301
 20
214.5907092097189
 30
0.0
 10
499.7866955825161
 20
214.287275564045
 30
0.0
 10
499.7467732629702
 20
213.9744794485808
 30
0.0
 10
499.7056497342539
 20
213.652341164997
 30
0.0
 10
499.633119282983
 20
213.0843728813768
 30
0.0
 10
499.5241836467018
 20
212.2316172840294
 30
0.0
 10
499.3714887968859
 20
211.0361669989426
 30
0.0
 10
499.2064187112146
 20
209.7436140895125
 30
0.0
 10
498.9746123262102
 20
207.9283924243001
 30
0.0
 10
498.6587054615454
 20
205.4555709060962
 30
0.0
 10
498.2470351023484
 20
202.2315277537176
 30
0.0
 10
497.7960975574171
 20
198.701804849053
 30
0.0
 10
497.3224937258849
 20
194.992543588219
 30
0.0
 10
496.8149357883873
 20
191.0199355912435
 30
0.0
 10
496.2990341540308
 20
186.9789097763502
 30
0.0
 10
495.7496054337672
 20
182.6795163773433
 30
0.0
 10
495.3451389318975
 20
179.5102619326438
 30
0.0
 10
495.0768189480647
 20
177.4103868410338
 30
0.0
 10
494.9650320694682
 20
176.5361062240991
 30
0.0
 10
494.8412069762953
 20
175.5674254052405
 30
0.0
 10
494.7053295432189
 20
174.5039657643198
 30
0.0
 10
494.557404153548
 20
173.3455373136077
 30
0.0
 10
494.3974258642268
 20
172.0921687275038
 30
0.0
 10
494.2254086842088
 20
170.7441741675003
 30
0.0
 10
494.1066196979936
 20
169.8138380257474
 30
0.0
 10
494.0452483974195
 20
169.3331879182785
 30
0.0
  0
SPLINE
  5
B9
330
1F
100
AcDbEntity
  8
0
  6
Continuous
 62
     7
370
    25
100
AcDbSpline
210
0.0
220
0.0
230
1.0
 70
    24
 71
     3
 72
    64
 73
    60
 74
     0
 42
0.000000001
 43
0.00000001
 40
0.0
 40
0.0
 40
0.0
 40
0.0
 40
0.015625
 40
0.015625
 40
0.03125
 40
0.03125
 40
0.046875
 40
0.046875
 40
0.0625
 40
0.0625
 40
0.125
 40
0.125
 40
0.1875
 40
0.25
 40
0.25
 40
0.28125
 40
0.28125
 40
0.296875
 40
0.296875
 40
0.3125
 40
0.3125
 40
0.34375
 40
0.34375
 40
0.375
 40
0.375
 40
0.4375
 40
0.4375
 40
0.5
 40
0.5
 40
0.515625
 40
0.515625
 40
0.53125
 40
0.53125
 40
0.5625
 40
0.5625
 40
0.625
 40
0.625
 40
0.65625
 40
0.671875
 40
0.671875
 40
0.6875
 40
0.6875
 40
0.75
 40
0.75
 40
0.765625
 40
0.765625
 40
0.78125
 40
0.8125
 40
0.8125
 40
0.875
 40
0.875
 40
0.90625
 40
0.9375
 40
0.9375
 40
0.96875
 40
0.96875
 40
0.984375
 40
0.984375
 40
1.0
 40
1.0
 40
1.0
 40
1.0
 10
-500.3730843889386
 20
-218.8781030961828
 30
0.0
 10
-500.366568395244
 20
-218.827084966868
 30
0.0
 10
-500.3595104324976
 20
-218.7718233946567
 30
0.0
 10
-500.3443119928442
 20
-218.6528245134464
 30
0.0
 10
-500.3361715159369
 20
-218.5890872044475
 30
0.0
 10
-500.3188094719027
 20
-218.4531479986677
 30
0.0
 10
-500.3095876942939
 20
-218.3809444538826
 30
0.0
 10
-500.2900615343854
 20
-218.2280609187039
 30
0.0
 10
-500.2797513366165
 20
-218.1473353950613
 30
0.0
 10
-500.2256636797132
 20
-217.723846483998
 30
0.0
 10
-500.1741904312033
 20
-217.320827547542
 30
0.0
 10
-500.0553517791281
 20
-216.3903592255427
 30
0.0
 10
-499.920618262133
 20
-215.3354392370877
 30
0.0
 10
-499.7543269779634
 20
-214.0334321085726
 30
0.0
 10
-499.6175731549492
 20
-212.9626937755051
 30
0.0
 10
-499.5699796224185
 20
-212.5900517640171
 30
0.0
 10
-499.4955220507533
 20
-212.0070729893698
 30
0.0
 10
-499.4701682728371
 20
-211.8085610845119
 30
0.0
 10
-499.4186876209492
 20
-211.4054841819966
 30
0.0
 10
-499.39253474961
 20
-211.2007156333337
 30
0.0
 10
-499.3128515139824
 20
-210.5768215950621
 30
0.0
 10
-499.2580971813007
 20
-210.1481128276453
 30
0.0
 10
-499.1453772511268
 20
-209.2655521249331
 30
0.0
 10
-499.0874116095112
 20
-208.8116998441648
 30
0.0
 10
-498.9087466732975
 20
-207.4128110104727
 30
0.0
 10
-498.7832887798086
 20
-206.4305161628131
 30
0.0
 10
-498.5197072676298
 20
-204.3667579236824
 30
0.0
 10
-498.381584144299
 20
-203.2852984107153
 30
0.0
 10
-498.2008407015728
 20
-201.8701355413185
 30
0.0
 10
-498.164286752129
 20
-201.5839299052946
 30
0.0
 10
-498.0903607526166
 20
-201.00511316918
 30
0.0
 10
-498.0529409551037
 20
-200.7121282219976
 30
0.0
 10
-497.9399254872781
 20
-199.8272535547783
 30
0.0
 10
-497.8635202835742
 20
-199.2290254493506
 30
0.0
 10
-497.631182494048
 20
-197.4098954829423
 30
0.0
 10
-497.4721339638956
 20
-196.1645967827033
 30
0.0
 10
-497.227456293267
 20
-194.2488495266948
 30
0.0
 10
-497.10358894421
 20
-193.2790081290067
 30
0.0
 10
-496.9774319018018
 20
-192.2912391707773
 30
0.0
 10
-496.8928174481151
 20
-191.6287352853493
 30
0.0
 10
-496.8502553737532
 20
-191.2954879687502
 30
0.0
 10
-496.6361669824036
 20
-189.6192449048958
 30
0.0
 10
-496.4608147112807
 20
-188.2462931705803
 30
0.0
 10
-496.2363825764483
 20
-186.4890619309623
 30
0.0
 10
-496.191185987544
 20
-186.1351872150877
 30
0.0
 10
-496.1004907282701
 20
-185.4250725828835
 30
0.0
 10
-495.9641737409137
 20
-184.3577545321418
 30
0.0
 10
-495.8270435185593
 20
-183.2840691136236
 30
0.0
 10
-495.5517168780744
 20
-181.1283503074915
 30
0.0
 10
-495.3667461926339
 20
-179.6800894908655
 30
0.0
 10
-495.0871925834505
 20
-177.4912748829613
 30
0.0
 10
-494.9001242995568
 20
-176.0265905468897
 30
0.0
 10
-494.7116514144413
 20
-174.5509086362222
 30
0.0
 10
-494.5224731392107
 20
-173.0697037484275
 30
0.0
 10
-494.4275310748978
 20
-172.3263380023009
 30
0.0
 10
-494.28458035088
 20
-171.2070799327839
 30
0.0
 10
-494.2368405049492
 20
-170.833292334557
 30
0.0
 10
-494.1411802309879
 20
-170.0843032384968
 30
0.0
 10
-494.0932598029573
 20
-169.7091017406636
 30
0.0
 10
-494.0452483974184
 20
-169.3331879182784
 30
0.0
  0
SPLINE
  5
BB
330
1F
100
AcDbEntity
  8
0
  6
Continuous
 62
     7
370
    25
100
AcDbSpline
210
0.0
220
0.0
230
1.0
 70
     8
 71
     3
 72
    53
 73
    49
 74
     0
 42
0.000000001
 43
0.00000001
 40
0.0
 40
0.0
 40
0.0
 40
0.0
 40
0.0094355415530974
 40
0.0188859226261506
 40
0.0283511715943024
 40
0.0378313166991665
 40
0.0473263860494341
 40
0.0568364076214683
 40
0.0663614092598492
 40
0.0759014186780168
 40
0.0854564634587853
 40
0.0950265710549894
 40
0.1046117687900057
 40
0.1142120838583839
 40
0.1238275433263814
 40
0.1334581741325863
 40
0.1431040030884462
 40
0.1527650568788849
 40
0.1624413620628457
 40
0.1721329450739037
 40
0.1818398322207861
 40
0.1915620496879995
 40
0.2012996235363485
 40
0.2110525797035498
 40
0.2208209440047736
 40
0.2306047421332214
 40
0.2404039996606797
 40
0.2502187420380981
 40
0.2810598343367692
 40
0.3122230557435451
 40
0.3437091269040303
 40
0.3755187464595842
 40
0.4369032470273911
 40
0.5001185358098309
 40
0.5613890418915735
 40
0.6252924920433933
 40
0.6856999485335643
 40
0.7500165720590851
 40
0.8091378693938823
 40
0.8750698274078981
 40
0.8861395505888424
 40
0.8985083090081225
 40
0.9121760937402231
 40
0.9271428943478208
 40
0.943408699012688
 40
0.9609734946182098
 40
0.9798372668034845
 40
1.0
 40
1.0
 40
1.0
 40
1.0
 10
500.3730843889394
 20
-218.8781030961828
 30
0.0
 10
500.3690724557867
 20
-218.8467018557909
 30
0.0
 10
500.3610422798106
 20
-218.7838499894654
 30
0.0
 10
500.3474872538625
 20
-218.6778701687474
 30
0.0
 10
500.3328159719798
 20
-218.5632081414608
 30
0.0
 10
500.3169202070168
 20
-218.4390059833506
 30
0.0
 10
500.2998290268499
 20
-218.3054694731137
 30
0.0
 10
500.2815346244195
 20
-218.1625210702999
 30
0.0
 10
500.2620390966042
 20
-218.0101617296109
 30
0.0
 10
500.241341880263
 20
-217.8483737524097
 30
0.0
 10
500.2194431266881
 20
-217.6771469070718
 30
0.0
 10
500.1963427952866
 20
-217.4964714411738
 30
0.0
 10
500.1720408970036
 20
-217.3063399855927
 30
0.0
 10
500.1465374289392
 20
-217.1067470700291
 30
0.0
 10
500.119832391913
 20
-216.897689279673
 30
0.0
 10
500.0919257857453
 20
-216.6791652392833
 30
0.0
 10
500.0628176105237
 20
-216.4511756431977
 30
0.0
 10
500.0325078662619
 20
-216.2137232726211
 30
0.0
 10
500.0009965530036
 20
-215.9668130157859
 30
0.0
 10
499.9682836707367
 20
-215.710451887288
 30
0.0
 10
499.9343692196522
 20
-215.4446490457195
 30
0.0
 10
499.8992531991727
 20
-215.169415816739
 30
0.0
 10
499.8629356115937
 20
-214.884765693818
 30
0.0
 10
499.8254164484654
 20
-214.5907144206677
 30
0.0
 10
499.7866957415322
 20
-214.2872797662415
 30
0.0
 10
499.7467733721724
 20
-213.9744824478047
 30
0.0
 10
499.7056497842754
 20
-213.6523427572144
 30
0.0
 10
499.6331199827163
 20
-213.0843774127621
 30
0.0
 10
499.5241852197493
 20
-212.2316271856507
 30
0.0
 10
499.3714909607172
 20
-211.036182518031
 30
0.0
 10
499.2064201726323
 20
-209.7436258954144
 30
0.0
 10
498.9746138792433
 20
-207.9284041965187
 30
0.0
 10
498.658706160197
 20
-205.455578064455
 30
0.0
 10
498.2470376398703
 20
-202.2315472070124
 30
0.0
 10
497.796099204926
 20
-198.701817764692
 30
0.0
 10
497.3224973149035
 20
-194.9925716916165
 30
0.0
 10
496.8149377618303
 20
-191.0199510127054
 30
0.0
 10
496.2990383338839
 20
-186.9789426095058
 30
0.0
 10
495.749607736439
 20
-182.6795340158898
 30
0.0
 10
495.3451418647521
 20
-179.5102853779587
 30
0.0
 10
495.0768209294951
 20
-177.4104020800845
 30
0.0
 10
494.9650356043858
 20
-176.5361335852816
 30
0.0
 10
494.8412114462686
 20
-175.5674601084355
 30
0.0
 10
494.7053343237652
 20
-174.5040029851692
 30
0.0
 10
494.5574086219448
 20
-173.3455721855589
 30
0.0
 10
494.3974293971608
 20
-172.0921963505162
 30
0.0
 10
494.2254106583874
 20
-170.7441896230901
 30
0.0
 10
494.1066204252952
 20
-169.8138437198615
 30
0.0
 10
494.0452483974192
 20
-169.3331879182784
 30
0.0
  0
SPLINE
  5
BC
330
1F
100
AcDbEntity
  8
0
  6
Continuous
 62
     7
370
    25
100
AcDbSpline
210
0.0
220
0.0
230
1.0
 70
     8
 71
     3
 72
    31
 73
    27
 74
     0
 42
0.000000001
 43
0.00000001
 40
0.0
 40
0.0
 40
0.0
 40
0.0
 40
0.0139049526109839
 40
0.0278100797842303
 40
0.0417153652275459
 40
0.0556207925996104
 40
0.0695263455158465
 40
0.0834320075524911
 40
0.0973377622452673
 40
0.1112435930988618
 40
0.1251494835825693
 40
0.1893707152869047
 40
0.2493610319901235
 40
0.3858674423129471
 40
0.499657152872441
 40
0.5659711886241645
 40
0.6244079073408773
 40
0.7500368932793982
 40
0.8124259750971489
 40
0.874701131242197
 40
0.9088552198894473
 40
0.9371373686525705
 40
0.953798445776917
 40
0.96849834774874
 40
0.9855036419762232
 40
1.0
 40
1.0
 40
1.0
 40
1.0
 10
-537.4179569160685
 20
168.9073070960765
 30
0.0
 10
-537.2958865373413
 20
168.9084800884008
 30
0.0
 10
-537.0517442474197
 20
168.9108260877752
 30
0.0
 10
-536.6739075967296
 20
168.914501417402
 30
0.0
 10
-536.2876605412213
 20
168.9182826640576
 30
0.0
 10
-535.8922454665716
 20
168.9221745586277
 30
0.0
 10
-535.487971935458
 20
168.9261667801189
 30
0.0
 10
-535.0748654937212
 20
168.9302529539374
 30
0.0
 10
-534.6530322074179
 20
168.9344249100765
 30
0.0
 10
-534.2225516132785
 20
168.9386766773033
 30
0.0
 10
-533.2540525078375
 20
168.948201717749
 30
0.0
 10
-531.7213205390883
 20
168.9632466483608
 30
0.0
 10
-528.6059463111746
 20
168.9938081931055
 30
0.0
 10
-524.4958154736303
 20
169.0344112673805
 30
0.0
 10
-519.8668966717152
 20
169.0795904025242
 30
0.0
 10
-516.183077299533
 20
169.1158657853726
 30
0.0
 10
-512.191361204838
 20
169.1549831138357
 30
0.0
 10
-508.096771214674
 20
169.1951849886477
 30
0.0
 10
-503.8321047674158
 20
169.2371477946592
 30
0.0
 10
-501.0897934763757
 20
169.2638353685077
 30
0.0
 10
-498.9225916125154
 20
169.2856215264412
 30
0.0
 10
-497.5437025901647
 20
169.2987568346484
 30
0.0
 10
-496.5023988327358
 20
169.3091419034721
 30
0.0
 10
-495.6573049754397
 20
169.3173026846273
 30
0.0
 10
-494.8495952819748
 20
169.3254399047613
 30
0.0
 10
-494.2987398059335
 20
169.3307461174838
 30
0.0
 10
-494.0452483974082
 20
169.3331879182745
 30
0.0
  0
SPLINE
  5
BD
330
1F
100
AcDbEntity
  8
0
  6
Continuous
 62
     7
370
    25
100
AcDbSpline
210
0.0
220
0.0
230
1.0
 70
    24
 71
     3
 72
    64
 73
    60
 74
     0
 42
0.000000001
 43
0.00000001
 40
0.0
 40
0.0
 40
0.0
 40
0.0
 40
0.015625
 40
0.015625
 40
0.03125
 40
0.03125
 40
0.046875
 40
0.046875
 40
0.0625
 40
0.0625
 40
0.125
 40
0.125
 40
0.1875
 40
0.25
 40
0.25
 40
0.28125
 40
0.28125
 40
0.296875
 40
0.296875
 40
0.3125
 40
0.3125
 40
0.34375
 40
0.34375
 40
0.375
 40
0.375
 40
0.4375
 40
0.4375
 40
0.5
 40
0.5
 40
0.515625
 40
0.515625
 40
0.53125
 40
0.53125
 40
0.5625
 40
0.5625
 40
0.625
 40
0.625
 40
0.65625
 40
0.671875
 40
0.671875
 40
0.6875
 40
0.6875
 40
0.75
 40
0.75
 40
0.765625
 40
0.765625
 40
0.78125
 40
0.8125
 40
0.8125
 40
0.875
 40
0.875
 40
0.90625
 40
0.9375
 40
0.9375
 40
0.96875
 40
0.96875
 40
0.984375
 40
0.984375
 40
1.0
 40
1.0
 40
1.0
 40
1.0
 10
-537.4179569160631
 20
-168.9073070960721
 30
0.0
 10
-537.2803209566385
 20
-168.908658556877
 30
0.0
 10
-537.1409176112619
 20
-168.9100273718156
 30
0.0
 10
-536.8586061451614
 20
-168.912799415421
 30
0.0
 10
-536.7156980244376
 20
-168.9142026440879
 30
0.0
 10
-536.4264070042002
 20
-168.9170432206108
 30
0.0
 10
-536.2800236647296
 20
-168.9184805727869
 30
0.0
 10
-535.9838064332477
 20
-168.9213891584483
 30
0.0
 10
-535.833972537909
 20
-168.9228603919664
 30
0.0
 10
-535.0762317635329
 20
-168.930300721958
 30
0.0
 10
-534.4426394490683
 20
-168.9365220262076
 30
0.0
 10
-533.1216009613097
 20
-168.9494934309584
 30
0.0
 10
-531.7467059673316
 20
-168.9629936579555
 30
0.0
 10
-530.2645857364989
 20
-168.9775467399296
 30
0.0
 10
-529.1124543677189
 20
-168.9888596293337
 30
0.0
 10
-528.7216483339985
 20
-168.9926969915979
 30
0.0
 10
-528.1252047545769
 20
-168.9985535288233
 30
0.0
 10
-527.9246841206342
 20
-169.0005224603327
 30
0.0
 10
-527.5202111170319
 20
-169.0044940198967
 30
0.0
 10
-527.3162587503048
 20
-169.0064966479224
 30
0.0
 10
-526.6992202943353
 20
-169.0125554082336
 30
0.0
 10
-526.2809544544864
 20
-169.0166624009915
 30
0.0
 10
-525.430391609317
 20
-169.0250141598789
 30
0.0
 10
-524.997669006389
 20
-169.0292631049924
 30
0.0
 10
-523.6884519851674
 20
-169.0421184336192
 30
0.0
 10
-522.7978243405929
 20
-169.0508635926491
 30
0.0
 10
-520.9817532185922
 20
-169.0686957707408
 30
0.0
 10
-520.056308468937
 20
-169.0777828022948
 30
0.0
 10
-518.8779592827626
 20
-169.0893531269849
 30
0.0
 10
-518.6412111861293
 20
-169.0916777794563
 30
0.0
 10
-518.1655595734243
 20
-169.0963482486712
 30
0.0
 10
-517.9266560573197
 20
-169.098694065415
 30
0.0
 10
-517.2067114407216
 20
-169.1057632712759
 30
0.0
 10
-516.7224371408405
 20
-169.1105184074906
 30
0.0
 10
-515.2566419148566
 20
-169.1249111926624
 30
0.0
 10
-514.2621631834243
 20
-169.134676075564
 30
0.0
 10
-512.7441126077006
 20
-169.1495819610717
 30
0.0
 10
-511.9784990815365
 20
-169.157099594375
 30
0.0
 10
-511.2028748695929
 20
-169.1647155235708
 30
0.0
 10
-510.6835498558837
 20
-169.1698148261365
 30
0.0
 10
-510.4226500865338
 20
-169.1723766262195
 30
0.0
 10
-509.1173467781219
 20
-169.1851935257216
 30
0.0
 10
-508.0669170255366
 20
-169.1955077971144
 30
0.0
 10
-506.7463382014911
 20
-169.2084746883828
 30
0.0
 10
-506.4818449401411
 20
-169.2110717733114
 30
0.0
 10
-505.9521066085072
 20
-169.2162733252535
 30
0.0
 10
-505.1563713220137
 20
-169.2240867270366
 30
0.0
 10
-504.3572648814695
 20
-169.2319332305073
 30
0.0
 10
-502.7545774865314
 20
-169.2476701731334
 30
0.0
 10
-501.6801575772698
 20
-169.2582200061962
 30
0.0
 10
-500.0595807047831
 20
-169.2741326073336
 30
0.0
 10
-498.9762134958725
 20
-169.2847702947975
 30
0.0
 10
-497.8868444173473
 20
-169.2954669151999
 30
0.0
 10
-496.7944560964597
 20
-169.3061931818353
 30
0.0
 10
-496.2467508769816
 20
-169.3115711523879
 30
0.0
 10
-495.4229069238858
 20
-169.3196605558884
 30
0.0
 10
-495.1479112522075
 20
-169.3223607650005
 30
0.0
 10
-494.5971546116705
 20
-169.3277686977517
 30
0.0
 10
-494.3213936428114
 20
-169.3304764213908
 30
0.0
 10
-494.0452483974184
 20
-169.3331879182784
 30
0.0
  0
SPLINE
  5
BE
330
1F
100
AcDbEntity
  8
0
  6
Continuous
 62
     7
370
    25
100
AcDbSpline
210
0.0
220
0.0
230
1.0
 70
     8
 71
     3
 72
    43
 73
    39
 74
     0
 42
0.000000001
 43
0.00000001
 40
0.0
 40
0.0
 40
0.0
 40
0.0
 40
0.013924528429061
 40
0.0276955884701975
 40
0.0413131740571021
 40
0.0547772793344975
 40
0.0680878986629696
 40
0.0812450266165743
 40
0.0942486579812218
 40
0.107098787760858
 40
0.1197954111730924
 40
0.1323385236507742
 40
0.1447281208458462
 40
0.1569641986253325
 40
0.1690467530737175
 40
0.1809757804952754
 40
0.192751277411193
 40
0.2043732405631836
 40
0.2158416669124111
 40
0.2271565536408458
 40
0.2383178981502098
 40
0.2493256980654634
 40
0.3204315364338271
 40
0.385863843413933
 40
0.4456213000357446
 40
0.4997030842654401
 40
0.5659930264698126
 40
0.6244254755857289
 40
0.6925740021478918
 40
0.7500937255955368
 40
0.8124686221138506
 40
0.8747296188622489
 40
0.9088539118747048
 40
0.9371516613561375
 40
0.9537980642324833
 40
0.9685055100506297
 40
0.98548922904986
 40
1.0
 40
1.0
 40
1.0
 40
1.0
 10
537.4179569160584
 20
168.907307096037
 30
0.0
 10
537.2956862465803
 20
168.9085077460233
 30
0.0
 10
537.0524925067642
 20
168.910895813101
 30
0.0
 10
536.6782430864124
 20
168.9145715089441
 30
0.0
 10
536.300060099252
 20
168.9182861982369
 30
0.0
 10
535.9174899588868
 20
168.9220442557806
 30
0.0
 10
535.5311133291895
 20
168.9258398253167
 30
0.0
 10
535.1412297728491
 20
168.9296698327143
 30
0.0
 10
534.7482042036211
 20
168.933530562742
 30
0.0
 10
534.3523755831761
 20
168.93741857033
 30
0.0
 10
533.9540809250265
 20
168.941330445322
 30
0.0
 10
533.5536489468867
 20
168.9452628796836
 30
0.0
 10
533.1514017245955
 20
168.9492126578968
 30
0.0
 10
532.7476542515035
 20
168.9531766627071
 30
0.0
 10
532.3427145556459
 20
168.9571518793362
 30
0.0
 10
531.9368836932221
 20
168.9611353995149
 30
0.0
 10
531.5304557350781
 20
168.9651244254313
 30
0.0
 10
531.123717942477
 20
168.9691162651604
 30
0.0
 10
530.716950248146
 20
168.9731083722311
 30
0.0
 10
530.3104273180514
 20
168.9770982076867
 30
0.0
 10
529.9044112010055
 20
168.9810837615054
 30
0.0
 10
528.7598263500637
 20
168.9923193699462
 30
0.0
 10
526.8696809679597
 20
169.0109437034119
 30
0.0
 10
524.1946125857563
 20
169.0372827910153
 30
0.0
 10
521.6277066207113
 20
169.0624295192713
 30
0.0
 10
518.9453471570677
 20
169.0886540829724
 30
0.0
 10
516.183277227173
 20
169.1158803117804
 30
0.0
 10
513.1072697065821
 20
169.1459570873022
 30
0.0
 10
510.0885671262823
 20
169.1758360176032
 30
0.0
 10
506.9369705920295
 20
169.2065408600153
 30
0.0
 10
503.8319726580986
 20
169.2371638171252
 30
0.0
 10
501.0901921758291
 20
169.263832881578
 30
0.0
 10
498.9229724288811
 20
169.2856115876519
 30
0.0
 10
497.5442775296963
 20
169.2987530545543
 30
0.0
 10
496.5025889650313
 20
169.3091377612216
 30
0.0
 10
495.6578048532934
 20
169.3173000246163
 30
0.0
 10
494.8499049792924
 20
169.3254296210907
 30
0.0
 10
494.2990495306963
 20
169.3307408313327
 30
0.0
 10
494.0452483974167
 20
169.3331879182807
 30
0.0
  0
SPLINE
  5
BF
330
1F
100
AcDbEntity
  8
0
  6
Continuous
 62
     7
370
    25
100
AcDbSpline
210
0.0
220
0.0
230
1.0
 70
    24
 71
     3
 72
    64
 73
    60
 74
     0
 42
0.000000001
 43
0.00000001
 40
0.0
 40
0.0
 40
0.0
 40
0.0
 40
0.015625
 40
0.015625
 40
0.03125
 40
0.03125
 40
0.046875
 40
0.046875
 40
0.0625
 40
0.0625
 40
0.125
 40
0.125
 40
0.1875
 40
0.25
 40
0.25
 40
0.28125
 40
0.28125
 40
0.296875
 40
0.296875
 40
0.3125
 40
0.3125
 40
0.34375
 40
0.34375
 40
0.375
 40
0.375
 40
0.4375
 40
0.4375
 40
0.5
 40
0.5
 40
0.515625
 40
0.515625
 40
0.53125
 40
0.53125
 40
0.5625
 40
0.5625
 40
0.625
 40
0.625
 40
0.65625
 40
0.671875
 40
0.671875
 40
0.6875
 40
0.6875
 40
0.75
 40
0.75
 40
0.765625
 40
0.765625
 40
0.78125
 40
0.8125
 40
0.8125
 40
0.875
 40
0.875
 40
0.90625
 40
0.9375
 40
0.9375
 40
0.96875
 40
0.96875
 40
0.984375
 40
0.9921875
 40
1.0
 40
1.0
 40
1.0
 40
1.0
 10
537.4179569160634
 20
-168.9073070960722
 30
0.0
 10
537.2803209566389
 20
-168.9086585568771
 30
0.0
 10
537.140917611262
 20
-168.9100273718157
 30
0.0
 10
536.8586061451617
 20
-168.9127994154212
 30
0.0
 10
536.7156980244378
 20
-168.914202644088
 30
0.0
 10
536.4264070042003
 20
-168.917043220611
 30
0.0
 10
536.2800236647304
 20
-168.9184805727871
 30
0.0
 10
535.9838064332483
 20
-168.9213891584485
 30
0.0
 10
535.8339725379101
 20
-168.9228603919666
 30
0.0
 10
535.076231763534
 20
-168.9303007219583
 30
0.0
 10
534.442639449071
 20
-168.936522026208
 30
0.0
 10
533.1216009613121
 20
-168.9494934309588
 30
0.0
 10
531.7467059673307
 20
-168.962993657956
 30
0.0
 10
530.2645857365001
 20
-168.9775467399302
 30
0.0
 10
529.11245436772
 20
-168.9888596293343
 30
0.0
 10
528.7216483340005
 20
-168.9926969915985
 30
0.0
 10
528.1252047545789
 20
-168.9985535288238
 30
0.0
 10
527.9246841206393
 20
-169.0005224603333
 30
0.0
 10
527.520211117037
 20
-169.0044940198973
 30
0.0
 10
527.316258750307
 20
-169.0064966479231
 30
0.0
 10
526.699220294338
 20
-169.0125554082342
 30
0.0
 10
526.2809544544875
 20
-169.0166624009922
 30
0.0
 10
525.4303916093183
 20
-169.0250141598795
 30
0.0
 10
524.9976690063892
 20
-169.0292631049931
 30
0.0
 10
523.6884519851677
 20
-169.0421184336199
 30
0.0
 10
522.7978243405912
 20
-169.0508635926498
 30
0.0
 10
520.9817532185901
 20
-169.0686957707416
 30
0.0
 10
520.0563084689387
 20
-169.0777828022955
 30
0.0
 10
518.8779592827642
 20
-169.0893531269856
 30
0.0
 10
518.6412111861279
 20
-169.0916777794571
 30
0.0
 10
518.1655595734227
 20
-169.0963482486719
 30
0.0
 10
517.9266560573185
 20
-169.0986940654158
 30
0.0
 10
517.2067114407203
 20
-169.1057632712766
 30
0.0
 10
516.7224371408416
 20
-169.1105184074913
 30
0.0
 10
515.2566419148575
 20
-169.124911192663
 30
0.0
 10
514.2621631834264
 20
-169.1346760755646
 30
0.0
 10
512.7441126077028
 20
-169.1495819610724
 30
0.0
 10
511.9784990815342
 20
-169.1570995943758
 30
0.0
 10
511.2028748695893
 20
-169.1647155235715
 30
0.0
 10
510.6835498558801
 20
-169.1698148261372
 30
0.0
 10
510.4226500865335
 20
-169.1723766262202
 30
0.0
 10
509.1173467781215
 20
-169.1851935257222
 30
0.0
 10
508.0669170255401
 20
-169.195507797115
 30
0.0
 10
506.7463382014951
 20
-169.2084746883832
 30
0.0
 10
506.4818449401416
 20
-169.2110717733119
 30
0.0
 10
505.9521066085075
 20
-169.216273325254
 30
0.0
 10
505.1563713220174
 20
-169.2240867270371
 30
0.0
 10
504.3572648814714
 20
-169.2319332305078
 30
0.0
 10
502.7545774865333
 20
-169.2476701731338
 30
0.0
 10
501.6801575772694
 20
-169.2582200061966
 30
0.0
 10
500.0595807047829
 20
-169.2741326073339
 30
0.0
 10
498.9762134958748
 20
-169.2847702947977
 30
0.0
 10
497.8868444173519
 20
-169.2954669152
 30
0.0
 10
496.7944560964644
 20
-169.3061931818353
 30
0.0
 10
496.246750876984
 20
-169.3115711523879
 30
0.0
 10
495.4229069238858
 20
-169.3196605558883
 30
0.0
 10
495.0104134163677
 20
-169.3237108695567
 30
0.0
 10
494.4592741272402
 20
-169.3291225595711
 30
0.0
 10
494.1833210201151
 20
-169.3318321698346
 30
0.0
 10
494.0452483974192
 20
-169.3331879182784
 30
0.0
  0
SPLINE
  5
C0
330
1F
100
AcDbEntity
  8
0
  6
Continuous
 62
     7
370
    25
100
AcDbSpline
210
0.0
220
0.0
230
1.0
 70
     8
 71
     3
 72
    31
 73
    27
 74
     0
 42
0.000000001
 43
0.00000001
 40
0.0
 40
0.0
 40
0.0
 40
0.0
 40
0.0009765625
 40
0.0009765625
 40
0.001953125
 40
0.001953125
 40
0.0039062499999999
 40
0.0078124999999998
 40
0.0156249999999997
 40
0.0312499999999996
 40
0.0624999999999994
 40
0.1249999999999993
 40
0.2499999999999993
 40
0.4999999999999992
 40
0.7499999999999991
 40
0.8749999999999991
 40
0.9374999999999992
 40
0.9687499999999994
 40
0.9843749999999996
 40
0.9921874999999998
 40
0.9960937499999999
 40
0.9980468749999999
 40
0.9980468749999999
 40
0.9990234374999999
 40
0.9990234374999999
 40
1.0
 40
1.0
 40
1.0
 40
1.0
 10
-494.045248397417
 20
169.3331879182761
 30
0.0
 10
-494.0573941005164
 20
169.2236417400115
 30
0.0
 10
-494.0653078845344
 20
169.1138526214814
 30
0.0
 10
-494.0713830713252
 20
168.8937145329815
 30
0.0
 10
-494.0696967849396
 20
168.783374306666
 30
0.0
 10
-494.0696967849396
 20
168.4526440398143
 30
0.0
 10
-494.0696967849372
 20
167.7911835061145
 30
0.0
 10
-494.0696967849437
 20
166.2477755941413
 30
0.0
 10
-494.06969678493
 20
163.160959770188
 30
0.0
 10
-494.0696967849423
 20
156.9873281222909
 30
0.0
 10
-494.069696784939
 20
144.6400648264951
 30
0.0
 10
-494.0696967849417
 20
119.9455382349056
 30
0.0
 10
-494.0696967849383
 20
70.55648505172337
 30
0.0
 10
-494.0696967849332
 20
0.0006947900368983
 30
0.0
 10
-494.0696967849433
 20
-70.55509547165114
 30
0.0
 10
-494.0696967849366
 20
-119.9441486548321
 30
0.0
 10
-494.0696967849417
 20
-144.63867524642
 30
0.0
 10
-494.0696967849353
 20
-156.9859385422165
 30
0.0
 10
-494.0696967849423
 20
-163.1595701901147
 30
0.0
 10
-494.0696967849402
 20
-166.2463860140641
 30
0.0
 10
-494.069696784939
 20
-167.7897939260395
 30
0.0
 10
-494.0696967849453
 20
-168.45125445974
 30
0.0
 10
-494.0696967849453
 20
-168.7819847265917
 30
0.0
 10
-494.0713841314146
 20
-168.8922291095676
 30
0.0
 10
-494.0653788084375
 20
-169.1127125349944
 30
0.0
 10
-494.0574706344512
 20
-169.2229514547484
 30
0.0
 10
-494.0452483974182
 20
-169.3331879182807
 30
0.0
  0
SPLINE
  5
C1
330
1F
100
AcDbEntity
  8
0
  6
Continuous
 62
     7
370
    25
100
AcDbSpline
210
0.0
220
0.0
230
1.0
 70
     8
 71
     3
 72
    31
 73
    27
 74
     0
 42
0.000000001
 43
0.00000001
 40
0.0
 40
0.0
 40
0.0
 40
0.0
 40
0.0009765625
 40
0.0009765625
 40
0.001953125
 40
0.001953125
 40
0.00390625
 40
0.0078125
 40
0.015625
 40
0.03125
 40
0.0625
 40
0.1249999999999999
 40
0.25
 40
0.5000000000000001
 40
0.7500000000000001
 40
0.875
 40
0.9375
 40
0.96875
 40
0.984375
 40
0.9921875
 40
0.99609375
 40
0.998046875
 40
0.998046875
 40
0.9990234375
 40
0.9990234375
 40
1.0
 40
1.0
 40
1.0
 40
1.0
 10
494.0452483974189
 20
-169.333187918276
 30
0.0
 10
494.0573941005185
 20
-169.2236417400111
 30
0.0
 10
494.0653078845377
 20
-169.11385262148
 30
0.0
 10
494.0713830713283
 20
-168.8937145329799
 30
0.0
 10
494.0696967849392
 20
-168.783374306665
 30
0.0
 10
494.0696967849393
 20
-168.4526440398134
 30
0.0
 10
494.0696967849397
 20
-167.7911835061095
 30
0.0
 10
494.0696967849382
 20
-166.2477755941375
 30
0.0
 10
494.0696967849386
 20
-163.1609597701853
 30
0.0
 10
494.0696967849374
 20
-156.9873281222894
 30
0.0
 10
494.0696967849369
 20
-144.6400648264922
 30
0.0
 10
494.0696967849366
 20
-119.9455382349053
 30
0.0
 10
494.0696967849423
 20
-70.55648505172402
 30
0.0
 10
494.0696967849407
 20
-0.0006947900373667
 30
0.0
 10
494.0696967849415
 20
70.55509547164765
 30
0.0
 10
494.0696967849362
 20
119.9441486548297
 30
0.0
 10
494.0696967849369
 20
144.6386752464184
 30
0.0
 10
494.0696967849374
 20
156.9859385422133
 30
0.0
 10
494.0696967849423
 20
163.1595701901118
 30
0.0
 10
494.0696967849288
 20
166.2463860140597
 30
0.0
 10
494.0696967849409
 20
167.7897939260344
 30
0.0
 10
494.0696967849449
 20
168.4512544597379
 30
0.0
 10
494.0696967849449
 20
168.7819847265895
 30
0.0
 10
494.0713841314118
 20
168.8922291095703
 30
0.0
 10
494.065378808434
 20
169.1127125349971
 30
0.0
 10
494.0574706344526
 20
169.2229514547453
 30
0.0
 10
494.0452483974195
 20
169.3331879182777
 30
0.0
  0
CIRCLE
  5
C2
330
1F
100
AcDbEntity
  8
0
  6
Continuous
 62
     7
370
    25
100
AcDbCircle
 10
0.0
 20
-65.0
 30
0.0
 40
49.33012701892227
  0
CIRCLE
  5
C3
330
1F
100
AcDbEntity
  8
0
  6
Continuous
 62
     7
370
    25
100
AcDbCircle
 10
0.0
 20
-65.0
 30
0.0
 40
44.99999999999999
  0
CIRCLE
  5
C4
330
1F
100
AcDbEntity
  8
0
  6
Continuous
 62
     7
370
    25
100
AcDbCircle
 10
0.0
 20
-65.0
 30
0.0
 40
45.00000000000003
  0
LINE
  5
C5
330
1F
100
AcDbEntity
  8
0
  6
Continuous
 62
     7
370
    25
100
AcDbLine
 10
-500.3730843889
 20
218.8781030962
 30
0.0
 11
500.3730843889
 21
218.8781030962
 31
0.0
  0
LINE
  5
C6
330
1F
100
AcDbEntity
  8
0
  6
Continuous
 62
     7
370
    25
100
AcDbLine
 10
500.3730843889
 20
-218.8781030962
 30
0.0
 11
-500.3730843889
 21
-218.8781030962
 31
0.0
  0
LINE
  5
C7
330
1F
100
AcDbEntity
  8
0
  6
Continuous
 62
     7
370
    25
100
AcDbLine
 10
-701.5126915481
 20
-266.4121896904
 30
0.0
 11
701.5126915481
 21
-266.4121896904
 31
0.0
  0
LINE
  5
C8
330
1F
100
AcDbEntity
  8
0
  6
Continuous
 62
     7
370
    25
100
AcDbLine
 10
-750.0582043084
 20
219.1592692785
 30
0.0
 11
-750.0582043084
 21
-219.1592692785
 31
0.0
  0
LINE
  5
C9
330
1F
100
AcDbEntity
  8
0
  6
Continuous
 62
     7
370
    25
100
AcDbLine
 10
701.5126915481
 20
266.4121896904
 30
0.0
 11
-701.5126915481
 21
266.4121896904
 31
0.0
  0
LINE
  5
CA
330
1F
100
AcDbEntity
  8
0
  6
Continuous
 62
     7
370
    25
100
AcDbLine
 10
750.0582043084
 20
-219.1592692785
 30
0.0
 11
750.0582043084
 21
219.1592692785
 31
0.0
  0
LINE
  5
CB
330
1F
100
AcDbEntity
  8
0
  6
Continuous
 62
     7
370
    25
100
AcDbLine
 10
750.058775962
 20
-219.4999999998
 30
0.0
 11
754.3917103301
 21
-219.5308021772
 31
0.0
  0
LINE
  5
CC
330
1F
100
AcDbEntity
  8
0
  6
Continuous
 62
     7
370
    25
100
AcDbLine
 10
704.2499829803
 20
-271.2974559948
 30
0.0
 11
703.9999999999
 21
-266.3703509716
 31
0.0
  0
LINE
  5
CD
330
1F
100
AcDbEntity
  8
0
  6
Continuous
 62
     7
370
    25
100
AcDbLine
 10
703.9999999879
 20
266.3703509721
 30
0.0
 11
704.2499829671
 21
271.2974559955
 31
0.0
  0
LINE
  5
CE
330
1F
100
AcDbEntity
  8
0
  6
Continuous
 62
     7
370
    25
100
AcDbLine
 10
750.058775962
 20
219.4999999998
 30
0.0
 11
754.3917103301
 21
219.5308021772
 31
0.0
  0
LINE
  5
CF
330
1F
100
AcDbEntity
  8
0
  6
Continuous
 62
     7
370
    25
100
AcDbLine
 10
-754.3917103301
 20
219.5308021771
 30
0.0
 11
-750.058775962
 21
219.4999999998
 31
0.0
  0
LINE
  5
D0
330
1F
100
AcDbEntity
  8
0
  6
Continuous
 62
     7
370
    25
100
AcDbLine
 10
-703.9999999999
 20
266.3703509716
 30
0.0
 11
-704.2499829803
 21
271.2974559948
 31
0.0
  0
LINE
  5
D1
330
1F
100
AcDbEntity
  8
0
  6
Continuous
 62
     7
370
    25
100
AcDbLine
 10
-754.3917103301
 20
-219.5308021772
 30
0.0
 11
-750.058775962
 21
-219.4999999998
 31
0.0
  0
LINE
  5
D2
330
1F
100
AcDbEntity
  8
0
  6
Continuous
 62
     7
370
    25
100
AcDbLine
 10
-704.249982979
 20
-271.2974559949
 30
0.0
 11
-703.9999999987
 21
-266.3703509716
 31
0.0
  0
LINE
  5
D3
330
1F
100
AcDbEntity
  8
0
  6
Continuous
 62
     7
370
    25
100
AcDbLine
 10
-845.0
 20
340.0
 30
0.0
 11
-845.0
 21
-340.0
 31
0.0
  0
LINE
  5
D4
330
1F
100
AcDbEntity
  8
0
  6
Continuous
 62
     7
370
    25
100
AcDbLine
 10
840.0
 20
345.0
 30
0.0
 11
-840.0
 21
345.0
 31
0.0
  0
LINE
  5
D5
330
1F
100
AcDbEntity
  8
0
  6
Continuous
 62
     7
370
    25
100
AcDbLine
 10
845.0
 20
-340.0
 30
0.0
 11
845.0
 21
340.0
 31
0.0
  0
LINE
  5
D6
330
1F
100
AcDbEntity
  8
0
  6
Continuous
 62
     7
370
    25
100
AcDbLine
 10
-840.0
 20
-345.0
 30
0.0
 11
840.0
 21
-345.0
 31
0.0
  0
LINE
  5
D7
330
1F
100
AcDbEntity
  8
0
  6
Continuous
 62
     7
370
    25
100
AcDbLine
 10
-845.0
 20
-340.0
 30
0.0
 11
-850.0
 21
-340.0
 31
0.0
  0
LINE
  5
D8
330
1F
100
AcDbEntity
  8
0
  6
Continuous
 62
     7
370
    25
100
AcDbLine
 10
-850.0
 20
-340.0
 30
0.0
 11
-850.0
 21
340.0
 31
0.0
  0
LINE
  5
D9
330
1F
100
AcDbEntity
  8
0
  6
Continuous
 62
     7
370
    25
100
AcDbLine
 10
-845.0
 20
340.0
 30
0.0
 11
-850.0
 21
340.0
 31
0.0
  0
LINE
  5
DA
330
1F
100
AcDbEntity
  8
0
  6
Continuous
 62
     7
370
    25
100
AcDbLine
 10
-840.0
 20
350.0
 30
0.0
 11
840.0
 21
350.0
 31
0.0
  0
LINE
  5
DB
330
1F
100
AcDbEntity
  8
0
  6
Continuous
 62
     7
370
    25
100
AcDbLine
 10
840.0
 20
350.0
 30
0.0
 11
840.0
 21
345.0
 31
0.0
  0
LINE
  5
DC
330
1F
100
AcDbEntity
  8
0
  6
Continuous
 62
     7
370
    25
100
AcDbLine
 10
-840.0
 20
350.0
 30
0.0
 11
-840.0
 21
345.0
 31
0.0
  0
LINE
  5
DD
330
1F
100
AcDbEntity
  8
0
  6
Continuous
 62
     7
370
    25
100
AcDbLine
 10
-840.0
 20
-345.0
 30
0.0
 11
-840.0
 21
-350.0
 31
0.0
  0
LINE
  5
DE
330
1F
100
AcDbEntity
  8
0
  6
Continuous
 62
     7
370
    25
100
AcDbLine
 10
850.0
 20
340.0
 30
0.0
 11
845.0
 21
340.0
 31
0.0
  0
LINE
  5
DF
330
1F
100
AcDbEntity
  8
0
  6
Continuous
 62
     7
370
    25
100
AcDbLine
 10
840.0
 20
-345.0
 30
0.0
 11
840.0
 21
-350.0
 31
0.0
  0
LINE
  5
E0
330
1F
100
AcDbEntity
  8
0
  6
Continuous
 62
     7
370
    25
100
AcDbLine
 10
840.0
 20
-350.0
 30
0.0
 11
-840.0
 21
-350.0
 31
0.0
  0
LINE
  5
E1
330
1F
100
AcDbEntity
  8
0
  6
Continuous
 62
     7
370
    25
100
AcDbLine
 10
850.0
 20
340.0
 30
0.0
 11
850.0
 21
-340.0
 31
0.0
  0
LINE
  5
E2
330
1F
100
AcDbEntity
  8
0
  6
Continuous
 62
     7
370
    25
100
AcDbLine
 10
850.0
 20
-340.0
 30
0.0
 11
845.0
 21
-340.0
 31
0.0
  0
LINE
  5
E3
330
1F
100
AcDbEntity
  8
0
  6
Continuous
 62
     7
370
    25
100
AcDbLine
 10
494.0452483974
 20
169.3331879183
 30
0.0
 11
-494.0452483974
 21
169.3331879183
 31
0.0
  0
LINE
  5
E4
330
1F
100
AcDbEntity
  8
0
  6
Continuous
 62
     7
370
    25
100
AcDbLine
 10
-494.0452483974
 20
-169.3331879183
 30
0.0
 11
494.0452483974
 21
-169.3331879183
 31
0.0
  0
ARC
  5
E5
330
1F
100
AcDbEntity
  8
0
  6
Continuous
 62
     7
370
    25
100
AcDbCircle
 10
-840.0
 20
-340.0
 30
0.0
 40
5.000000000000057
100
AcDbArc
 50
180.0
 51
270.0
  0
ARC
  5
E6
330
1F
100
AcDbEntity
  8
0
  6
Continuous
 62
     7
370
    25
100
AcDbCircle
 10
-840.0
 20
340.0
 30
0.0
 40
5.000000000000057
100
AcDbArc
 50
90.0
 51
180.0
  0
ARC
  5
E7
330
1F
100
AcDbEntity
  8
0
  6
Continuous
 62
     7
370
    25
100
AcDbCircle
 10
840.0
 20
340.0
 30
0.0
 40
5.000000000000057
100
AcDbArc
 50
0.0
 51
90.0
  0
ARC
  5
E8
330
1F
100
AcDbEntity
  8
0
  6
Continuous
 62
     7
370
    25
100
AcDbCircle
 10
840.0
 20
-340.0
 30
0.0
 40
5.000000000000057
100
AcDbArc
 50
270.0
 51
0.0
  0
ARC
  5
E9
330
1F
100
AcDbEntity
  8
0
  6
Continuous
 62
     7
370
    25
100
AcDbCircle
 10
-840.0
 20
-340.0
 30
0.0
 40
10.00000000000034
100
AcDbArc
 50
180.0
 51
270.0
  0
ARC
  5
EA
330
1F
100
AcDbEntity
  8
0
  6
Continuous
 62
     7
370
    25
100
AcDbCircle
 10
840.0
 20
340.0
 30
0.0
 40
10.00000000000034
100
AcDbArc
 50
0.0
 51
90.0
  0
ARC
  5
EB
330
1F
100
AcDbEntity
  8
0
  6
Continuous
 62
     7
370
    25
100
AcDbCircle
 10
840.0
 20
-340.0
 30
0.0
 40
10.00000000000034
100
AcDbArc
 50
270.0
 51
0.0
  0
ARC
  5
EC
330
1F
100
AcDbEntity
  8
0
  6
Continuous
 62
     7
370
    25
100
AcDbCircle
 10
-840.0
 20
340.0
 30
0.0
 40
10.00000000000034
100
AcDbArc
 50
90.0
 51
180.0
  0
ARC
  5
ED
330
1F
100
AcDbEntity
  8
0
  6
Continuous
 62
     7
370
    25
100
AcDbCircle
 10
-2.3976176801
 20
-334.8507031652
 30
0.0
 40
80.2365338155704
100
AcDbArc
 50
88.2876400601
 51
100.9212635526
  0
ARC
  5
EE
330
1F
100
AcDbEntity
  8
0
  6
Continuous
 62
     7
370
    25
100
AcDbCircle
 10
2.1941616953
 20
-337.3769243408
 30
0.0
 40
82.75601704066955
100
AcDbArc
 50
79.2717860433
 51
91.5192966389
  0
LWPOLYLINE
  5
100
330
1B
100
AcDbEntity
 67
     1
  8
0
  6
Continuous
 62
     7
370
    25
100
AcDbPolyline
 90
       18
 70
   128
 43
0.0
 10
-539.8948703115
 20
-334.8011022993
 10
-539.4697987596
 20
-335.1507739767
 10
-538.7082858842
 20
-335.3036167155
 10
-537.6162912542
 20
-335.2584343747
 10
-536.2023607754
 20
-335.0155805495
 10
-534.4775598105
 20
-334.5769558039
 10
-532.4553865818
 20
-333.9459927977
 10
-530.1516665353
 20
-333.1276294216
 10
-527.5844284907
 20
-332.1282701543
 10
-524.7737635489
 20
-330.9557359409
 10
-521.7416678601
 20
-329.6192029868
 10
-518.5118704821
 20
-328.1291309447
 10
-515.1096476786
 20
-326.4971810581
 10
-511.5616251074
 20
-324.7361249006
 10
-507.8955694494
 20
-322.8597444264
 10
-504.1401711077
 20
-320.8827241132
 10
-500.3248196777
 20
-318.8205360418
 10
-496.4793739451
 20
-316.6893188126
  0
LWPOLYLINE
  5
102
330
1B
100
AcDbEntity
 67
     1
  8
0
  6
Continuous
 62
     7
370
    25
100
AcDbPolyline
 90
       18
 70
   128
 43
0.0
 10
496.4793739451
 20
-316.6893188126
 10
500.3248196777
 20
-318.8205360418
 10
504.1401711077
 20
-320.8827241132
 10
507.8955694494
 20
-322.8597444264
 10
511.5616251074
 20
-324.7361249006
 10
515.1096476786
 20
-326.4971810581
 10
518.5118704821
 20
-328.1291309447
 10
521.7416678601
 20
-329.6192029868
 10
524.7737635489
 20
-330.9557359409
 10
527.5844284907
 20
-332.1282701543
 10
530.1516665353
 20
-333.1276294216
 10
532.4553865818
 20
-333.9459927977
 10
534.4775598105
 20
-334.5769558039
 10
536.2023607754
 20
-335.0155805495
 10
537.6162912542
 20
-335.2584343747
 10
538.7082858842
 20
-335.3036167155
 10
539.4697987596
 20
-335.1507739767
 10
539.8948703115
 20
-334.8011022993
  0
CIRCLE
  5
105
330
1B
100
AcDbEntity
 67
     1
  8
0
  6
Continuous
 62
     7
370
    25
100
AcDbCircle
 10
0.0
 20
-50.0
 30
0.0
 40
20.00000000000001
  0
LINE
  5
111
330
1B
100
AcDbEntity
 67
     1
  8
0
  6
Continuous
 62
     7
370
    25
100
AcDbLine
 10
-850.0
 20
0.0
 30
0.0
 11
850.0
 21
0.0
 31
0.0
  0
LINE
  5
112
330
1B
100
AcDbEntity
 67
     1
  8
0
  6
Continuous
 62
     7
370
    25
100
AcDbLine
 10
-840.0
 20
40.0
 30
0.0
 11
-840.0
 21
0.0
 31
0.0
  0
LINE
  5
113
330
1B
100
AcDbEntity
 67
     1
  8
0
  6
Continuous
 62
     7
370
    25
100
AcDbLine
 10
850.0
 20
35.0
 30
0.0
 11
-850.0
 21
35.0
 31
0.0
  0
LINE
  5
114
330
1B
100
AcDbEntity
 67
     1
  8
0
  6
Continuous
 62
     7
370
    25
100
AcDbLine
 10
840.0
 20
0.0
 30
0.0
 11
840.0
 21
40.0
 31
0.0
  0
LINE
  5
115
330
1B
100
AcDbEntity
 67
     1
  8
0
  6
Continuous
 62
     7
370
    25
100
AcDbLine
 10
-850.0
 20
0.0
 30
0.0
 11
-850.0
 21
35.0
 31
0.0
  0
LINE
  5
116
330
1B
100
AcDbEntity
 67
     1
  8
0
  6
Continuous
 62
     7
370
    25
100
AcDbLine
 10
-845.0
 20
40.0
 30
0.0
 11
845.0
 21
40.0
 31
0.0
  0
LINE
  5
117
330
1B
100
AcDbEntity
 67
     1
  8
0
  6
Continuous
 62
     7
370
    25
100
AcDbLine
 10
850.0
 20
35.0
 30
0.0
 11
850.0
 21
0.0
 31
0.0
  0
LINE
  5
118
330
1B
100
AcDbEntity
 67
     1
  8
0
  6
Continuous
 62
     7
370
    25
100
AcDbLine
 10
-539.8948703115
 20
-334.8011022993
 30
0.0
 11
-731.15
 21
0.0
 31
0.0
  0
LINE
  5
119
330
1B
100
AcDbEntity
 67
     1
  8
0
  6
Continuous
 62
     7
370
    25
100
AcDbLine
 10
731.15
 20
0.0
 30
0.0
 11
539.8948703115
 21
-334.8011022993
 31
0.0
  0
LINE
  5
11A
330
1B
100
AcDbEntity
 67
     1
  8
0
  6
Continuous
 62
     7
370
    25
100
AcDbLine
 10
-496.4793739451
 20
-316.6893188126
 30
0.0
 11
496.4793739451
 21
-316.6893188126
 31
0.0
  0
LINE
  5
11B
330
1B
100
AcDbEntity
 67
     1
  8
0
  6
Continuous
 62
     7
370
    25
100
AcDbLine
 10
496.4793739451
 20
-378.0
 30
0.0
 11
496.4793739451
 21
-316.6893188126
 31
0.0
  0
LINE
  5
11C
330
1B
100
AcDbEntity
 67
     1
  8
0
  6
Continuous
 62
     7
370
    25
100
AcDbLine
 10
496.4793739451
 20
-360.0
 30
0.0
 11
-496.4793739451
 21
-360.0
 31
0.0
  0
LINE
  5
11D
330
1B
100
AcDbEntity
 67
     1
  8
0
  6
Continuous
 62
     7
370
    25
100
AcDbLine
 10
-496.4793739451
 20
-378.0
 30
0.0
 11
-496.4793739451
 21
-316.6893188126
 31
0.0
  0
LINE
  5
11E
330
1B
100
AcDbEntity
 67
     1
  8
0
  6
Continuous
 62
     7
370
    25
100
AcDbLine
 10
496.4793739451
 20
-378.0
 30
0.0
 11
-496.4793739451
 21
-378.0
 31
0.0
  0
LINE
  5
11F
330
1B
100
AcDbEntity
 67
     1
  8
0
  6
Continuous
 62
     8
370
    25
100
AcDbLine
 10
-677.3881473169
 20
0.0
 30
0.0
 11
-496.4793739451
 21
-316.6893188126
 31
0.0
  0
LINE
  5
120
330
1B
100
AcDbEntity
 67
     1
  8
0
  6
Continuous
 62
     8
370
    25
100
AcDbLine
 10
496.4793739451
 20
-316.6893188126
 30
0.0
 11
677.3881473169
 21
0.0
 31
0.0
  0
ARC
  5
121
330
1B
100
AcDbEntity
 67
     1
  8
0
  6
Continuous
 62
     7
370
    25
100
AcDbCircle
 10
845.0
 20
35.0
 30
0.0
 40
4.999999999999929
100
AcDbArc
 50
0.0
 51
90.0
  0
ARC
  5
122
330
1B
100
AcDbEntity
 67
     1
  8
0
  6
Continuous
 62
     7
370
    25
100
AcDbCircle
 10
-845.0
 20
35.0
 30
0.0
 40
5.0
100
AcDbArc
 50
90.0
 51
180.0
  0
ARC
  5
123
330
1B
100
AcDbEntity
 67
     1
  8
0
  6
Continuous
 62
     7
370
    25
100
AcDbCircle
 10
496.4793739451
 20
-310.0
 30
0.0
 40
50.00000000000006
100
AcDbArc
 50
270.0
 51
330.2628321898
  0
ARC
  5
124
330
1B
100
AcDbEntity
 67
     1
  8
0
  6
Continuous
 62
     7
370
    25
100
AcDbCircle
 10
-496.4793739451
 20
-310.0
 30
0.0
 40
50.00000000000068
100
AcDbArc
 50
209.7371678102
 51
270.0
  0
VIEWPORT
  5
2A0
330
1B
100
AcDbEntity
 67
     1
  8
0
100
AcDbViewport
 10
0.0
 20
0.0
 30
0.0
 40
205.6
 41
156.0
 68
     1
 69
     1
 12
0.0
 22
0.0
 13
0.0
 23
0.0
 14
10.0
 24
10.0
 15
10.0
 25
10.0
 16
0.0
 26
0.0
 36
1.0
 17
0.0
 27
0.0
 37
0.0
 42
50.0
 43
0.0
 44
0.0
 45
1315.6809338521
 50
0.0
 51
0.0
 72
   100
 90
   557152
  1

281
     0
 71
     1
 74
     0
110
0.0
120
0.0
130
0.0
111
1.0
121
0.0
131
0.0
112
0.0
122
1.0
132
0.0
 79
     0
146
0.0
  0
ENDSEC
  0
SECTION
  2
OBJECTS
  0
DICTIONARY
  5
C
330
0
100
AcDbDictionary
281
     1
  3
ACAD_GROUP
350
D
  3
ACAD_LAYOUT
350
1A
  3
ACAD_MLINESTYLE
350
17
  3
ACAD_PLOTSETTINGS
350
19
  3
ACAD_PLOTSTYLENAME
350
E
  3
ACAD_SCALELIST
350
47
  0
DICTIONARY
  5
D
102
{ACAD_REACTORS
330
C
102
}
330
C
100
AcDbDictionary
281
     1
  0
DICTIONARY
  5
1A
102
{ACAD_REACTORS
330
C
102
}
330
C
100
AcDbDictionary
281
     1
  3
_Bottom
350
15B
  3
_Front
350
1E
  3
_Isometric
350
1F6
  3
_Right
350
26
  3
Model
350
22
  0
DICTIONARY
  5
17
102
{ACAD_REACTORS
330
C
102
}
330
C
100
AcDbDictionary
281
     1
  3
Standard
350
18
  0
DICTIONARY
  5
19
102
{ACAD_REACTORS
330
C
102
}
330
C
100
AcDbDictionary
281
     1
  0
ACDBDICTIONARYWDFLT
  5
E
102
{ACAD_REACTORS
330
C
102
}
330
C
100
AcDbDictionary
281
     1
  3
Normal
350
F
100
AcDbDictionaryWithDefault
340
F
  0
DICTIONARY
  5
47
102
{ACAD_REACTORS
330
C
102
}
330
C
100
AcDbDictionary
281
     1
  3
A0
350
48
  3
A1
350
49
  3
A2
350
4A
  3
A3
350
4B
  3
A4
350
4C
  3
A5
350
4D
  3
A6
350
4E
  3
A7
350
4F
  3
A8
350
50
  3
A9
350
51
  3
B0
350
52
  3
B1
350
53
  3
B2
350
54
  3
B3
350
55
  3
B4
350
56
  3
B5
350
57
  3
B6
350
58
  3
B7
350
59
  3
B8
350
5A
  3
B9
350
5B
  3
C0
350
5C
  3
C1
350
5D
  3
C2
350
5E
  3
C3
350
5F
  3
C4
350
60
  3
C5
350
61
  3
C6
350
62
  3
C7
350
63
  3
C8
350
64
  3
C9
350
65
  3
D0
350
66
  3
D1
350
67
  3
D2
350
68
  0
LAYOUT
  5
15B
102
{ACAD_REACTORS
330
1A
102
}
330
1A
100
AcDbPlotSettings
  1

  2
none_device
  4
ISO_A4_(210.00_x_297.00_MM)
  6

 40
7.5
 41
20.0
 42
7.5
 43
20.0
 44
210.0
 45
297.0
 46
0.0
 47
0.0
 48
0.0
 49
0.0
140
0.0
141
0.0
142
1.0
143
6.6147859922
 70
   688
 72
     1
 73
     1
 74
     1
  7

 75
     0
147
0.1511764706
148
850.0
149
378.0
100
AcDbLayout
  1
_Bottom
 70
     1
 71
     3
 10
0.0
 20
0.0
 11
0.0
 21
0.0
 12
0.0
 22
0.0
 32
0.0
 14
0.0
 24
0.0
 34
0.0
 15
0.0
 25
0.0
 35
0.0
146
0.0
 13
0.0
 23
0.0
 33
0.0
 16
1.0
 26
0.0
 36
0.0
 17
0.0
 27
1.0
 37
0.0
 76
     0
330
15A
331
2A4
  0
LAYOUT
  5
1E
102
{ACAD_REACTORS
330
1A
102
}
330
1A
100
AcDbPlotSettings
  1

  2
none_device
  4
ISO_A4_(210.00_x_297.00_MM)
  6

 40
7.5
 41
20.0
 42
7.5
 43
20.0
 44
210.0
 45
297.0
 46
0.0
 47
0.0
 48
0.0
 49
0.0
140
0.0
141
0.0
142
1.0
143
6.6147859922
 70
   688
 72
     1
 73
     1
 74
     1
  7

 75
     0
147
0.1511764706
148
850.0
149
378.0
100
AcDbLayout
  1
_Front
 70
     1
 71
     1
 10
-982.2957198444
 20
-427.6108949416
 11
982.2957198444
 21
961.4941634241
 12
0.0
 22
0.0
 32
0.0
 14
-850.0
 24
-378.0
 34
0.0
 15
850.0
 25
40.0
 35
0.0
146
0.0
 13
0.0
 23
0.0
 33
0.0
 16
1.0
 26
0.0
 36
0.0
 17
0.0
 27
1.0
 37
0.0
 76
     0
330
1B
331
2A0
  0
LAYOUT
  5
1F6
102
{ACAD_REACTORS
330
1A
102
}
330
1A
100
AcDbPlotSettings
  1

  2
none_device
  4
ISO_A4_(210.00_x_297.00_MM)
  6

 40
7.5
 41
20.0
 42
7.5
 43
20.0
 44
210.0
 45
297.0
 46
0.0
 47
0.0
 48
0.0
 49
0.0
140
0.0
141
0.0
142
1.0
143
6.6147859922
 70
   688
 72
     1
 73
     1
 74
     1
  7

 75
     0
147
0.1511764706
148
850.0
149
378.0
100
AcDbLayout
  1
_Isometric
 70
     1
 71
     4
 10
0.0
 20
0.0
 11
0.0
 21
0.0
 12
0.0
 22
0.0
 32
0.0
 14
0.0
 24
0.0
 34
0.0
 15
0.0
 25
0.0
 35
0.0
146
0.0
 13
0.0
 23
0.0
 33
0.0
 16
1.0
 26
0.0
 36
0.0
 17
0.0
 27
1.0
 37
0.0
 76
     0
330
1F5
331
2A6
  0
LAYOUT
  5
26
102
{ACAD_REACTORS
330
1A
102
}
330
1A
100
AcDbPlotSettings
  1

  2
none_device
  4
ISO_A4_(210.00_x_297.00_MM)
  6

 40
7.5
 41
20.0
 42
7.5
 43
20.0
 44
210.0
 45
297.0
 46
0.0
 47
0.0
 48
0.0
 49
0.0
140
0.0
141
0.0
142
1.0
143
6.6147859922
 70
   688
 72
     1
 73
     1
 74
     1
  7

 75
     0
147
0.1511764706
148
850.0
149
378.0
100
AcDbLayout
  1
_Right
 70
     1
 71
     2
 10
0.0
 20
0.0
 11
0.0
 21
0.0
 12
0.0
 22
0.0
 32
0.0
 14
0.0
 24
0.0
 34
0.0
 15
0.0
 25
0.0
 35
0.0
146
0.0
 13
0.0
 23
0.0
 33
0.0
 16
1.0
 26
0.0
 36
0.0
 17
0.0
 27
1.0
 37
0.0
 76
     0
330
23
331
2A2
  0
LAYOUT
  5
22
102
{ACAD_REACTORS
330
1A
102
}
330
1A
100
AcDbPlotSettings
  1

  2
none_device
  4
ANSI_A_(11.00_x_8.50_Inches)
  6

 40
6.35
 41
19.05
 42
6.35000508
 43
19.05000254
 44
279.4
 45
215.9
 46
133.34999746
 47
88.89999873
 48
0.0
 49
0.0
140
0.0
141
0.0
142
0.0064058824
143
1.0
 70
  1696
 72
     0
 73
     0
 74
     0
  7

 75
     0
147
0.0179189148
148
-1300.4909072572
149
0.0
100
AcDbLayout
  1
Model
 70
     1
 71
     0
 10
0.0
 20
0.0
 11
420.0
 21
297.0
 12
0.0
 22
0.0
 32
0.0
 14
-850.0
 24
-350.0
 34
0.0
 15
850.0
 25
350.0
 35
0.0
146
0.0
 13
0.0
 23
0.0
 33
0.0
 16
1.0
 26
0.0
 36
0.0
 17
0.0
 27
1.0
 37
0.0
 76
     0
330
1F
331
29
  0
MLINESTYLE
  5
18
102
{ACAD_REACTORS
330
17
102
}
330
17
100
AcDbMlineStyle
  2
Standard
 70
     0
  3

 62
   256
 51
90.0
 52
90.0
 71
     2
 49
0.5
 62
   256
  6
BYLAYER
 49
-0.5
 62
   256
  6
BYLAYER
  0
ACDBPLACEHOLDER
  5
F
102
{ACAD_REACTORS
330
E
102
}
330
E
  0
SCALE
  5
48
102
{ACAD_REACTORS
330
47
102
}
330
47
100
AcDbScale
 70
     0
300
1:1
140
1.0
141
1.0
290
     1
  0
SCALE
  5
49
102
{ACAD_REACTORS
330
47
102
}
330
47
100
AcDbScale
 70
     0
300
1:2
140
1.0
141
2.0
290
     0
  0
SCALE
  5
4A
102
{ACAD_REACTORS
330
47
102
}
330
47
100
AcDbScale
 70
     0
300
1:4
140
1.0
141
4.0
290
     0
  0
SCALE
  5
4B
102
{ACAD_REACTORS
330
47
102
}
330
47
100
AcDbScale
 70
     0
300
1:5
140
1.0
141
5.0
290
     0
  0
SCALE
  5
4C
102
{ACAD_REACTORS
330
47
102
}
330
47
100
AcDbScale
 70
     0
300
1:8
140
1.0
141
8.0
290
     0
  0
SCALE
  5
4D
102
{ACAD_REACTORS
330
47
102
}
330
47
100
AcDbScale
 70
     0
300
1:10
140
1.0
141
10.0
290
     0
  0
SCALE
  5
4E
102
{ACAD_REACTORS
330
47
102
}
330
47
100
AcDbScale
 70
     0
300
1:16
140
1.0
141
16.0
290
     0
  0
SCALE
  5
4F
102
{ACAD_REACTORS
330
47
102
}
330
47
100
AcDbScale
 70
     0
300
1:20
140
1.0
141
20.0
290
     0
  0
SCALE
  5
50
102
{ACAD_REACTORS
330
47
102
}
330
47
100
AcDbScale
 70
     0
300
1:30
140
1.0
141
30.0
290
     0
  0
SCALE
  5
51
102
{ACAD_REACTORS
330
47
102
}
330
47
100
AcDbScale
 70
     0
300
1:40
140
1.0
141
40.0
290
     0
  0
SCALE
  5
52
102
{ACAD_REACTORS
330
47
102
}
330
47
100
AcDbScale
 70
     0
300
1:50
140
1.0
141
50.0
290
     0
  0
SCALE
  5
53
102
{ACAD_REACTORS
330
47
102
}
330
47
100
AcDbScale
 70
     0
300
1:100
140
1.0
141
100.0
290
     0
  0
SCALE
  5
54
102
{ACAD_REACTORS
330
47
102
}
330
47
100
AcDbScale
 70
     0
300
2:1
140
2.0
141
1.0
290
     0
  0
SCALE
  5
55
102
{ACAD_REACTORS
330
47
102
}
330
47
100
AcDbScale
 70
     0
300
4:1
140
4.0
141
1.0
290
     0
  0
SCALE
  5
56
102
{ACAD_REACTORS
330
47
102
}
330
47
100
AcDbScale
 70
     0
300
8:1
140
8.0
141
1.0
290
     0
  0
SCALE
  5
57
102
{ACAD_REACTORS
330
47
102
}
330
47
100
AcDbScale
 70
     0
300
10:1
140
10.0
141
1.0
290
     0
  0
SCALE
  5
58
102
{ACAD_REACTORS
330
47
102
}
330
47
100
AcDbScale
 70
     0
300
100:1
140
100.0
141
1.0
290
     0
  0
SCALE
  5
59
102
{ACAD_REACTORS
330
47
102
}
330
47
100
AcDbScale
 70
     0
300
1/128" = 1'-0"
140
0.0078125
141
12.0
290
     0
  0
SCALE
  5
5A
102
{ACAD_REACTORS
330
47
102
}
330
47
100
AcDbScale
 70
     0
300
1/64" = 1'-0"
140
0.015625
141
12.0
290
     0
  0
SCALE
  5
5B
102
{ACAD_REACTORS
330
47
102
}
330
47
100
AcDbScale
 70
     0
300
1/32" = 1'-0"
140
0.03125
141
12.0
290
     0
  0
SCALE
  5
5C
102
{ACAD_REACTORS
330
47
102
}
330
47
100
AcDbScale
 70
     0
300
1/16" = 1'-0"
140
0.0625
141
12.0
290
     0
  0
SCALE
  5
5D
102
{ACAD_REACTORS
330
47
102
}
330
47
100
AcDbScale
 70
     0
300
3/32" = 1'-0"
140
0.09375
141
12.0
290
     0
  0
SCALE
  5
5E
102
{ACAD_REACTORS
330
47
102
}
330
47
100
AcDbScale
 70
     0
300
1/8" = 1'-0"
140
0.125
141
12.0
290
     0
  0
SCALE
  5
5F
102
{ACAD_REACTORS
330
47
102
}
330
47
100
AcDbScale
 70
     0
300
3/16" = 1'-0"
140
0.1875
141
12.0
290
     0
  0
SCALE
  5
60
102
{ACAD_REACTORS
330
47
102
}
330
47
100
AcDbScale
 70
     0
300
1/4" = 1'-0"
140
0.25
141
12.0
290
     0
  0
SCALE
  5
61
102
{ACAD_REACTORS
330
47
102
}
330
47
100
AcDbScale
 70
     0
300
3/8" = 1'-0"
140
0.375
141
12.0
290
     0
  0
SCALE
  5
62
102
{ACAD_REACTORS
330
47
102
}
330
47
100
AcDbScale
 70
     0
300
1/2" = 1'-0"
140
0.5
141
12.0
290
     0
  0
SCALE
  5
63
102
{ACAD_REACTORS
330
47
102
}
330
47
100
AcDbScale
 70
     0
300
3/4" = 1'-0"
140
0.75
141
12.0
290
     0
  0
SCALE
  5
64
102
{ACAD_REACTORS
330
47
102
}
330
47
100
AcDbScale
 70
     0
300
1" = 1'-0"
140
1.0
141
12.0
290
     0
  0
SCALE
  5
65
102
{ACAD_REACTORS
330
47
102
}
330
47
100
AcDbScale
 70
     0
300
1-1/2" = 1'-0"
140
1.5
141
12.0
290
     0
  0
SCALE
  5
66
102
{ACAD_REACTORS
330
47
102
}
330
47
100
AcDbScale
 70
     0
300
3" = 1'-0"
140
3.0
141
12.0
290
     0
  0
SCALE
  5
67
102
{ACAD_REACTORS
330
47
102
}
330
47
100
AcDbScale
 70
     0
300
6" = 1'-0"
140
6.0
141
12.0
290
     0
  0
SCALE
  5
68
102
{ACAD_REACTORS
330
47
102
}
330
47
100
AcDbScale
 70
     0
300
1'-0" = 1'-0"
140
12.0
141
12.0
290
     0
  0
ENDSEC
  0
EOF
